  0
SECTION
  2
HEADER
  9
$ACADVER
  1
AC1009
  9
$INSBASE
 10
0
 20
0
 30
0
  9
$EXTMIN
 10
0
 20
0
  9
$EXTMAX
 10
1782
 20
1260
  9
$LIMMIN
 10
0
 20
0
  9
$LIMMAX
 10
1782
 20
1260
  9
$LTSCALE
 40
6
  0
ENDSEC
  0
SECTION
  2
TABLES
  0
TABLE
  2
LTYPE
 70
     9
  0
LTYPE
  2
CONTINUOUS
 70
    64
  3
実線
 72
    65
 73
     0
 40
0.0
  0
LTYPE
  2
DASHED1
 70
    64
  3
--  --  --  --  --  --  --  --  
 72
    65
 73
     2
 40
2.5
 49
1.25
 49
-1.25
  0
LTYPE
  2
DASHED2
 70
    64
  3
----    ----    ----    ----    
 72
    65
 73
     2
 40
5.0
 49
2.5
 49
-2.5
  0
LTYPE
  2
DASHED3
 70
    64
  3
------  ------  ------  ------  
 72
    65
 73
     2
 40
5.0
 49
3.75
 49
-1.25
  0
LTYPE
  2
CENTER1
 70
    64
  3
----- - ----- - ----- - ----- - 
 72
    65
 73
     4
 40
10.0
 49
6.25
 49
-1.25
 49
1.25
 49
-1.25
  0
LTYPE
  2
CENTER2
 70
    64
  3
----------  --  ----------  --  
 72
    65
 73
     4
 40
20.0
 49
12.5
 49
-2.5
 49
2.5
 49
-2.5
  0
LTYPE
  2
PHANTOM1
 70
    64
  3
--- - - --- - - --- - - --- - - 
 72
    65
 73
     6
 40
10.0
 49
3.25
 49
-1.25
 49
1.25
 49
-1.25
 49
1.25
 49
-1.25
  0
LTYPE
  2
PHANTOM2
 70
    64
  3
--------  -  -  --------  -  -  
 72
    65
 73
     6
 40
20.0
 49
10.0
 49
-2.5
 49
1.25
 49
-2.5
 49
1.25
 49
-2.5
  0
LTYPE
  2
DOT
 70
    64
  3
-   -   -   -   -   -   -   -   
 72
    65
 73
     2
 40
2.5
 49
0.625
 49
-1.875
  0
LTYPE
  2
DUMMY
 70
    64
  3
ダミー
 72
    65
 73
     0
 40
0.0
  0
LTYPE
  2
RAND1
 70
    64
  3
ランダム線1
 72
    65
 73
     4
 40
10.0
 49
1.0
 49
-2.0
 49
3.0
 49
-4.0
  0
LTYPE
  2
RAND2
 70
    64
  3
ランダム線2
 72
    65
 73
     4
 40
14.0
 49
2.0
 49
-3.0
 49
4.0
 49
-5.0
  0
LTYPE
  2
RAND3
 70
    64
  3
ランダム線3
 72
    65
 73
     4
 40
18.0
 49
3.0
 49
-4.0
 49
5.0
 49
-6.0
  0
LTYPE
  2
RAND4
 70
    64
  3
ランダム線4
 72
    65
 73
     4
 40
22.0
 49
4.0
 49
-5.0
 49
6.0
 49
-7.0
  0
LTYPE
  2
RAND5
 70
    64
  3
ランダム線5
 72
    65
 73
     4
 40
26.0
 49
5.0
 49
-6.0
 49
7.0
 49
-8.0
  0
LTYPE
  2
LONG1
 70
    64
  3
----------  --  ----------  --  
 72
    65
 73
     4
 40
40.0
 49
32.5
 49
-2.5
 49
2.5
 49
-2.5
  0
LTYPE
  2
LONG2
 70
    64
  3
--------  -  -  --------  -  -  
 72
    65
 73
     6
 40
40.0
 49
30.0
 49
-2.5
 49
1.25
 49
-2.5
 49
1.25
 49
-2.5
  0
LTYPE
  2
LONG3
 70
    64
  3
+++++++++++++++..+++++++++++++++
 72
    65
 73
     2
 40
40.0
 49
37.5
 49
-2.5
  0
LTYPE
  2
LONG4
 70
    64
  3
+++++++++++++++..+++++++++++++++
 72
    65
 73
     2
 40
80.0
 49
75.0
 49
-5.0
  0
LTYPE
  2
LONG5
 70
    64
  3
----------  --  ----------  --  
 72
    65
 73
     4
 40
60.0
 49
37.5
 49
-7.5
 49
7.5
 49
-7.5
  0
LTYPE
  2
dashed
 70
   64
  3
-------   -------------   ------
 72
   65
 73
    2
 40
7.5
 49
6
 49
-1.5
  0
LTYPE
  2
dashed_spaced
 70
   64
  3
----        --------        ----
 72
   65
 73
    2
 40
12
 49
6
 49
-6
  0
LTYPE
  2
long_dashed_dotted
 70
   64
  3
------------- --- --------------
 72
   65
 73
    4
 40
15.25
 49
12
 49
-1.5
 49
0.25
 49
-1.5
  0
LTYPE
  2
long_dashed_double-dotted
 70
   64
  3
----------- --- --- ------------
 72
   65
 73
    6
 40
17
 49
12
 49
-1.5
 49
0.25
 49
-1.5
 49
0.25
 49
-1.5
  0
LTYPE
  2
long_dashed_triplicate-dotted
 70
   64
  3
--------- --- --- --- ----------
 72
   65
 73
    8
 40
18.75
 49
12
 49
-1.5
 49
0.25
 49
-1.5
 49
0.25
 49
-1.5
 49
0.25
 49
-1.5
  0
LTYPE
  2
dotted
 70
   64
  3
   -       -       -       -    
 72
   65
 73
    2
 40
1.75
 49
0.25
 49
-1.5
  0
LTYPE
  2
chain
 70
   64
  3
-------------- -- --------------
 72
   65
 73
    4
 40
18.5
 49
12
 49
-1.5
 49
3.5
 49
-1.5
  0
LTYPE
  2
chain_double_dash
 70
   64
  3
------------ -- -- -------------
 72
   65
 73
    6
 40
23.5
 49
12
 49
-1.5
 49
3.5
 49
-1.5
 49
3.5
 49
-1.5
  0
LTYPE
  2
dashed_dotted
 70
   64
  3
-----------     -     ----------
 72
   65
 73
    4
 40
9.25
 49
6
 49
-1.5
 49
0.25
 49
-1.5
  0
LTYPE
  2
double-dashed_dotted
 70
   64
  3
------   -----------   -   -----
 72
   65
 73
    6
 40
16.75
 49
6
 49
-1.5
 49
6
 49
-1.5
 49
0.25
 49
-1.5
  0
LTYPE
  2
dashed_double-dotted
 70
   64
  3
---------    -    -    ---------
 72
   65
 73
    6
 40
11
 49
6
 49
-1.5
 49
0.25
 49
-1.5
 49
0.25
 49
-1.5
  0
LTYPE
  2
double-dashed_double-dotted
 70
   64
  3
-----   ---------   -   -   ----
 72
   65
 73
    8
 40
18.5
 49
6
 49
-1.5
 49
6
 49
-1.5
 49
0.25
 49
-1.5
 49
0.25
 49
-1.5
  0
LTYPE
  2
dashed_triplicate-dotted
 70
   64
  3
-------    -    -    -    ------
 72
   65
 73
    8
 40
12.75
 49
6
 49
-1.5
 49
0.25
 49
-1.5
 49
0.25
 49
-1.5
 49
0.25
 49
-1.5
  0
LTYPE
  2
double-dashed_triplicate-dotted
 70
   64
  3
-----  ---------  -  -  -  -----
 72
   65
 73
   10
 40
20.25
 49
6
 49
-1.5
 49
6
 49
-1.5
 49
0.25
 49
-1.5
 49
0.25
 49
-1.5
 49
0.25
 49
-1.5
  0
LTYPE
  2
undefined
 70
   64
  3
--------------------------------
 72
   65
 73
    0
 40
0
  0
ENDTAB
  0
TABLE
  2
STYLE
  5
3
100
AcDbSymbolTable
 70
     1
  0
STYLE
  5
10
100
AcDbSymbolTableRecord
100
AcDbTextStyleTableRecord
  2
STANDARD
 70
     0
 40
0.0
 41
1.0
 50
0.0
 71
     0
 42
0.2
  3
txt
  4
bigfont.shx
  0
STYLE
  5
26
100
AcDbSymbolTableRecord
100
AcDbTextStyleTableRecord
  2
TATEGAKI
 70
    68
 40
0.0
 41
1.0
 50
0.0
 71
     0
 42
1.0
  3
txt
  4
bigfont.shx
  0
ENDTAB
  0
TABLE
  2
LAYER
 70
   13
  0
LAYER
  2
_0-0_計極細
 70
   64
 62
    7
  6
CONTINUOUS
  0
LAYER
  2
_0-1_計細線
 70
   64
 62
    7
  6
CONTINUOUS
  0
LAYER
  2
_0-5_寸法線
 70
   64
 62
    7
  6
CONTINUOUS
  0
LAYER
  2
_0-7_枠細線
 70
   64
 62
    7
  6
CONTINUOUS
  0
LAYER
  2
_0-8_枠中線
 70
   64
 62
    7
  6
CONTINUOUS
  0
LAYER
  2
_0-a_極細1
 70
   64
 62
    7
  6
CONTINUOUS
  0
LAYER
  2
_0-d_寸法1
 70
   64
 62
    7
  6
CONTINUOUS
  0
LAYER
  2
_0-e_極細4
 70
   64
 62
    7
  6
CONTINUOUS
  0
LAYER
  2
_1-1_寸法4
 70
   64
 62
    7
  6
CONTINUOUS
  0
LAYER
  2
_1-2_極細3
 70
   64
 62
    7
  6
CONTINUOUS
  0
LAYER
  2
_1-3_細線3
 70
   64
 62
    7
  6
CONTINUOUS
  0
LAYER
  2
_1-5_寸法3
 70
   64
 62
    7
  6
CONTINUOUS
  0
LAYER
  2
ADD_LINE
 70
   64
 62
    7
  6
CONTINUOUS
  0
ENDTAB
  0
ENDSEC
  0
SECTION
  2
BLOCKS
  0
ENDSEC
  0
SECTION
  2
ENTITIES
  0
LINE
  8
_0-8_枠中線
  6
CONTINUOUS
 62
    5
 10
72
 20
72
 11
72
 21
1152
  0
LINE
  8
_0-8_枠中線
  6
CONTINUOUS
 62
    5
 10
72
 20
1152
 11
1710
 21
1152
  0
LINE
  8
_0-8_枠中線
  6
CONTINUOUS
 62
    5
 10
1710
 20
1152
 11
1710
 21
72
  0
LINE
  8
_0-8_枠中線
  6
CONTINUOUS
 62
    5
 10
1710
 20
72
 11
72
 21
72
  0
TEXT
  8
_0-7_枠細線
 62
    5
 10
1125
 20
117
 40
21
 41
1
 50
0
  1
備考
  7
TATEGAKI
  0
TEXT
  8
_0-7_枠細線
 62
    5
 10
1125
 20
165
 40
21
 41
1
 50
0
  1
品番
  7
TATEGAKI
  0
TEXT
  8
_0-7_枠細線
 62
    5
 10
1125
 20
213
 40
21
 41
1
 50
0
  1
品名
  7
TATEGAKI
  0
LINE
  8
_0-7_枠細線
  6
CONTINUOUS
 62
    5
 10
1140
 20
216
 11
1140
 21
72
  0
LINE
  8
_0-8_枠中線
  6
CONTINUOUS
 62
    5
 10
1710
 20
216
 11
1110
 21
216
  0
LINE
  8
_0-8_枠中線
  6
CONTINUOUS
 62
    5
 10
1110
 20
216
 11
1110
 21
72
  0
LINE
  8
_0-7_枠細線
  6
CONTINUOUS
 62
    5
 10
1422
 20
216
 11
1422
 21
120
  0
LINE
  8
_0-7_枠細線
  6
CONTINUOUS
 62
    5
 10
1422
 20
168
 11
1110
 21
168
  0
LINE
  8
_0-7_枠細線
  6
CONTINUOUS
 62
    5
 10
1494
 20
216
 11
1494
 21
72
  0
TEXT
  8
_0-7_枠細線
 62
    5
 10
1431
 20
192
 40
18
 41
1
 50
0
  1
縮　尺
  0
LINE
  8
_0-7_枠細線
  6
CONTINUOUS
 62
    5
 10
1422
 20
186
 11
1494
 21
186
  0
LINE
  8
_0-7_枠細線
  6
CONTINUOUS
 62
    5
 10
1494
 20
120
 11
1110
 21
120
  0
LINE
  8
_0-7_枠細線
  6
CONTINUOUS
 62
    5
 10
1710
 20
108
 11
1494
 21
108
  0
LINE
  8
_0-7_枠細線
  6
CONTINUOUS
 62
    5
 10
1494
 20
144
 11
1710
 21
144
  0
LINE
  8
_0-7_枠細線
  6
CONTINUOUS
 62
    5
 10
1710
 20
168
 11
1494
 21
168
  0
TEXT
  8
_0-7_枠細線
 62
    5
 10
1506
 20
177
 40
30
 41
0.8
 50
0
  1
株式会社シマブン
  0
TEXT
  8
_0-7_枠細線
 62
    5
 10
1503
 20
72
 40
18
 41
1
 50
0
  1
年月日
  0
TEXT
  8
_0-7_枠細線
 62
    5
 10
1503
 20
90
 40
18
 41
1
 50
0
  1
作　成
  0
TEXT
  8
_0-7_枠細線
 62
    5
 10
1507.5
 20
147
 40
18
 41
1
 50
0
  1
承 認
  0
LINE
  8
_0-7_枠細線
  6
CONTINUOUS
 62
    5
 10
1566
 20
168
 11
1566
 21
72
  0
TEXT
  8
_0-7_枠細線
 62
    5
 10
1579.5
 20
147
 40
18
 41
1
 50
0
  1
検 図
  0
LINE
  8
_0-7_枠細線
  6
CONTINUOUS
 62
    5
 10
1638
 20
168
 11
1638
 21
108
  0
TEXT
  8
_0-7_枠細線
 62
    5
 10
1651.5
 20
147
 40
18
 41
1
 50
0
  1
設 計
  0
TEXT
  8
_0-7_枠細線
 62
    5
 10
1506
 20
114
 40
24
 41
1
 50
0
  1
大野
  0
TEXT
  8
_0-7_枠細線
 62
    5
 10
1578
 20
114
 40
24
 41
1
 50
0
  1
中村
  0
TEXT
  8
_0-7_枠細線
 62
    5
 10
1572
 20
81
 40
18
 41
0.6666666666666666
 50
0
  1
２０２０年０７月０１日
  0
TEXT
  8
_0-7_枠細線
 62
    5
 10
1650
 20
114
 40
24
 41
1
 50
0
  1
石井
  0
TEXT
  8
_0-7_枠細線
 62
    5
 10
1153.7169242964719
 20
132
 40
24
 41
0.5999999999999998
 50
0
  1
ＨＴＡＢ－１５Ｌ６００
  0
TEXT
  8
_0-7_枠細線
 62
    5
 10
1152.6000000000001
 20
179.43641814137897
 40
24
 41
0.5999999999999998
 50
0
  1
フリースタイルユニット＋防水マス
  0
TEXT
  8
_0-7_枠細線
 62
    5
 10
281.43261962041129
 20
89.167158696029475
 40
30
 41
0.8
 50
0
  1
排水部詳細図
  0
TEXT
  8
_0-7_枠細線
 62
    5
 10
446.56690606570533
 20
92.042112858112404
 40
24
 41
0.6
 50
0
  1
Ｓ＝１：４
  0
CIRCLE
  8
_1-1_寸法4
  6
CONTINUOUS
 62
    7
 10
427.51684846695628
 20
443.18751690463364
 40
30
  0
ARC
  8
_0-e_極細4
  6
CONTINUOUS
 62
    6
 10
295.36684846695675
 20
448.67503247454738
 40
0.75
 50
179.99999999999983
 51
269.99999999999977
  0
LINE
  8
_0-e_極細4
  6
CONTINUOUS
 62
    6
 10
296.26684846695628
 20
447.92503247454738
 11
296.26684846695628
 21
449.42503247454738
  0
ARC
  8
_0-e_極細4
  6
CONTINUOUS
 62
    6
 10
426.76684846695628
 20
448.67503247454738
 40
0.75
 50
269.99999999999977
 51
359.99999999999966
  0
LINE
  8
_0-e_極細4
  6
CONTINUOUS
 62
    6
 10
425.86684846695641
 20
447.92503247454738
 11
425.86684846695641
 21
449.42503247454738
  0
LINE
  8
_0-e_極細4
  6
CONTINUOUS
 62
    6
 10
319.81684846695737
 20
247.36441139454143
 11
319.69184846695509
 21
254.86441139454143
  0
LINE
  8
_0-e_極細4
  6
CONTINUOUS
 62
    6
 10
361.06684846695566
 20
247.36441139454143
 11
319.81684846695737
 21
247.36441139454143
  0
LINE
  8
_0-e_極細4
  6
CONTINUOUS
 62
    6
 10
298.81684846695737
 20
292.36441139454143
 11
297.31684846695737
 21
292.36441139454143
  0
LINE
  8
_0-e_極細4
  6
CONTINUOUS
 62
    6
 10
290.37934846128041
 20
383.00852678278261
 11
302.19184846695737
 21
383.00852678278261
  0
LINE
  8
_0-e_極細4
  6
CONTINUOUS
 62
    6
 10
320.56684846695737
 20
338.42617589454176
 11
320.56684846695737
 21
426.88756997454755
  0
ARC
  8
_0-e_極細4
  6
CONTINUOUS
 62
    6
 10
322.06684846695566
 20
338.42617589454176
 40
1.5
 50
179.99999999999983
 51
270.00045836624764
  0
LINE
  8
_0-e_極細4
  6
CONTINUOUS
 62
    6
 10
322.06684846695566
 20
336.92617589454176
 11
361.06684846695566
 21
336.92617589454176
  0
LINE
  8
_0-e_極細4
  6
CONTINUOUS
 62
    6
 10
319.69184896695526
 20
254.86441139454143
 11
299.41684846695546
 21
254.86441139454143
  0
LINE
  8
_0-e_極細4
  6
CONTINUOUS
 62
    6
 10
299.41684846695546
 20
254.86441139454143
 11
298.81684846695737
 21
292.36441139454143
  0
LINE
  8
_0-e_極細4
  6
CONTINUOUS
 62
    6
 10
285.31684846695737
 20
304.36441139454143
 11
285.31684846695737
 21
415.31924597454702
  0
ARC
  8
_0-e_極細4
  6
CONTINUOUS
 62
    6
 10
297.31684846695737
 20
304.36441139454143
 40
12
 50
179.99999999999983
 51
269.99999999999977
  0
LINE
  8
_0-e_極細4
  6
CONTINUOUS
 62
    6
 10
319.69184846695509
 20
254.86441139454143
 11
319.06684846695737
 21
292.36441139454143
  0
LINE
  8
_0-e_極細4
  6
CONTINUOUS
 62
    6
 10
301.06684846695737
 20
296.11441139454143
 11
323.56684846695737
 21
296.11441139454143
  0
LINE
  8
_0-e_極細4
  6
CONTINUOUS
 62
    6
 10
289.06684846695737
 20
308.11441139454143
 11
289.06684846695737
 21
384.49676189454203
  0
LINE
  8
_0-e_極細4
  6
CONTINUOUS
 62
    6
 10
322.81684846695737
 20
247.36441139454143
 11
323.56684846695737
 21
296.11441139454143
  0
LINE
  8
_0-e_極細4
  6
CONTINUOUS
 62
    6
 10
319.06684846695737
 20
292.36441139454143
 11
304.06684846695737
 21
292.36441139454143
  0
ARC
  8
_0-e_極細4
  6
CONTINUOUS
 62
    6
 10
301.06684846695737
 20
308.11441139454143
 40
12
 50
179.99999999999983
 51
269.99999999999977
  0
LINE
  8
_0-e_極細4
  6
CONTINUOUS
 62
    6
 10
323.56684846695737
 20
296.11441139454143
 11
361.06684846695566
 21
296.11441139454143
  0
LINE
  8
_0-e_極細4
  6
CONTINUOUS
 62
    6
 10
323.56447996695601
 20
295.960401894543
 11
323.56684846695737
 21
296.11441139454143
  0
LINE
  8
_0-e_極細4
  6
CONTINUOUS
 62
    6
 10
302.19184846695737
 20
329.11441139454143
 11
302.19184846695737
 21
369.61441139454155
  0
LINE
  8
_0-e_極細4
  6
CONTINUOUS
 62
    6
 10
320.19184846695737
 20
311.11441139454143
 11
323.56684846695737
 21
311.11441139454143
  0
LINE
  8
_0-e_極細4
  6
CONTINUOUS
 62
    6
 10
323.56684846695737
 20
296.11441139454143
 11
323.56684846695737
 21
311.11441139454143
  0
ARC
  8
_0-e_極細4
  6
CONTINUOUS
 62
    6
 10
320.19184846695737
 20
329.11441139454143
 40
18
 50
179.99999999999983
 51
269.99999999999977
  0
ARC
  8
_0-e_極細4
  6
CONTINUOUS
 62
    6
 10
290.56684846695737
 20
384.49676189454203
 40
1.5
 50
179.99999999999983
 51
262.81924399998746
  0
LINE
  8
_0-e_極細4
  6
CONTINUOUS
 62
    6
 10
289.06684846695737
 20
384.49676189454203
 11
289.06684846695737
 21
425.11443647454701
  0
LINE
  8
_0-e_極細4
  6
CONTINUOUS
 62
    6
 10
303.69184846695737
 20
254.86441139454143
 11
304.06684846695737
 21
292.36441139454143
  0
LINE
  8
_0-e_極細4
  6
CONTINUOUS
 62
    6
 10
359.57198596695582
 20
296.85923939454153
 11
359.67019096695617
 21
311.09898689454201
  0
ARC
  8
_0-e_極細4
  6
CONTINUOUS
 62
    6
 10
358.82200246695595
 20
296.86441139454143
 40
0.75
 50
269.99999999999977
 51
359.6048630000451
  0
LINE
  8
_0-e_極細4
  6
CONTINUOUS
 62
    6
 10
361.06684846695566
 20
311.11441139454143
 11
359.67029746695573
 21
311.11441139454143
  0
LINE
  8
_0-e_極細4
  6
CONTINUOUS
 62
    6
 10
359.67029746695573
 20
311.11441139454143
 11
320.19184846695737
 21
311.11441139454143
  0
LINE
  8
_0-e_極細4
  6
CONTINUOUS
 62
    6
 10
302.19184846695737
 20
329.11441139454143
 11
302.19184846695737
 21
415.81443647454728
  0
LINE
  8
_0-e_極細4
  6
CONTINUOUS
 62
    6
 10
305.19184846695737
 20
329.11441139454143
 11
305.19184846695737
 21
415.81443647454728
  0
LINE
  8
_0-e_極細4
  6
CONTINUOUS
 62
    6
 10
361.06684846695566
 20
314.11441139454143
 11
320.19184846695737
 21
314.11441139454143
  0
ARC
  8
_0-e_極細4
  6
CONTINUOUS
 62
    6
 10
320.19184846695737
 20
329.11441139454143
 40
15
 50
179.99999999999983
 51
269.99999999999977
  0
LINE
  8
_0-e_極細4
  6
CONTINUOUS
 62
    6
 10
300.69184846695566
 20
437.42620097454733
 11
361.06684846695566
 21
437.42620097454733
  0
LINE
  8
_0-e_極細4
  6
CONTINUOUS
 62
    6
 10
300.69184846695566
 20
430.82620097454708
 11
300.69184846695566
 21
437.42620097454733
  0
LINE
  8
_0-e_極細4
  6
CONTINUOUS
 62
    6
 10
295.81684846695737
 20
437.42620097454733
 11
300.69184846695566
 21
437.42620097454733
  0
LINE
  8
_0-e_極細4
  6
CONTINUOUS
 62
    6
 10
297.31684846695737
 20
430.82620097454708
 11
300.69184846695566
 21
430.82620097454708
  0
LINE
  8
_0-e_極細4
  6
CONTINUOUS
 62
    6
 10
297.31684846695737
 20
429.32620097454708
 11
297.31684846695737
 21
430.82620097454708
  0
ARC
  8
_0-e_極細4
  6
CONTINUOUS
 62
    6
 10
300.31684846695737
 20
429.32620097454708
 40
3
 50
179.99999999999983
 51
269.99999999999977
  0
LINE
  8
_0-e_極細4
  6
CONTINUOUS
 62
    6
 10
300.31684846695737
 20
426.32620097454776
 11
304.81684846695737
 21
426.32620097454776
  0
ARC
  8
_0-e_極細4
  6
CONTINUOUS
 62
    6
 10
286.09834846695662
 20
454.30003247454738
 40
1.5750000000000171
 50
4.1509900000002666
 51
89.999999999999915
  0
LINE
  8
_0-e_極細4
  6
CONTINUOUS
 62
    6
 10
286.09834846695662
 20
432.89353247454699
 11
286.09834846695662
 21
455.87503247454686
  0
LINE
  8
_0-e_極細4
  6
CONTINUOUS
 62
    6
 10
286.09834846695662
 20
455.86443565517106
 11
275.71684846695518
 21
457.34307197454689
  0
LINE
  8
_0-e_極細4
  6
CONTINUOUS
 62
    6
 10
281.56684846695737
 20
421.81443647454728
 11
281.56684846695737
 21
433.8144364745466
  0
ARC
  8
_0-e_極細4
  6
CONTINUOUS
 62
    6
 10
277.81684846695737
 20
415.31924597454702
 40
7.5
 50
0
 51
60.000000000000107
  0
LINE
  8
_0-e_極細4
  6
CONTINUOUS
 62
    6
 10
275.71684846695518
 20
433.8144364745466
 11
275.71684846695518
 21
434.64729797454743
  0
LINE
  8
_0-e_極細4
  6
CONTINUOUS
 62
    6
 10
281.56684846695737
 20
433.8144364745466
 11
275.71684846695518
 21
433.8144364745466
  0
LINE
  8
_0-e_極細4
  6
CONTINUOUS
 62
    6
 10
275.71684846695518
 20
434.64729797454743
 11
275.71684846695518
 21
458.38230347454771
  0
LINE
  8
_0-e_極細4
  6
CONTINUOUS
 62
    6
 10
288.31684846695737
 20
426.31443647454728
 11
288.31684846695737
 21
430.67503247454727
  0
LINE
  8
_0-e_極細4
  6
CONTINUOUS
 62
    6
 10
286.09834846695662
 20
425.11443647454701
 11
288.31684846695737
 21
426.31443647454728
  0
LINE
  8
_0-e_極細4
  6
CONTINUOUS
 62
    6
 10
275.71684846695518
 20
454.81443647454739
 11
286.09834846695662
 21
453.61443647454712
  0
ARC
  8
_0-e_極細4
  6
CONTINUOUS
 62
    6
 10
303.69184846695737
 20
415.81443647454728
 40
1.5
 50
89.999999999999915
 51
179.99999999999983
  0
ARC
  8
_0-e_極細4
  6
CONTINUOUS
 62
    6
 10
303.69184846695737
 20
415.81443647454728
 40
1.5
 50
0
 51
89.999999999999915
  0
LINE
  8
_0-e_極細4
  6
CONTINUOUS
 62
    6
 10
361.06684846695566
 20
456.92503247454738
 11
286.09834846695662
 21
456.92503247454738
  0
LINE
  8
_0-e_極細4
  6
CONTINUOUS
 62
    6
 10
300.69184846695566
 20
436.67503247454738
 11
294.61684846695675
 21
436.67503247454738
  0
LINE
  8
_0-e_極細4
  6
CONTINUOUS
 62
    6
 10
290.20501246695551
 20
453.17503247454738
 11
291.99184846695675
 21
453.17503247454738
  0
LINE
  8
_0-e_極細4
  6
CONTINUOUS
 62
    6
 10
294.61684846695675
 20
434.72503247454711
 11
294.61684846695675
 21
450.55003247454738
  0
LINE
  8
_0-e_極細4
  6
CONTINUOUS
 62
    6
 10
291.31684846695566
 20
453.17503247454738
 11
291.31684846695566
 21
456.92503247454738
  0
ARC
  8
_0-e_極細4
  6
CONTINUOUS
 62
    6
 10
291.99184846695675
 20
450.55003247454738
 40
2.6249999999999991
 50
0
 51
89.999999999999915
  0
ARC
  8
_0-e_極細4
  6
CONTINUOUS
 62
    6
 10
286.09834846695662
 20
454.30003247454738
 40
2.6249999999999991
 50
4.1509899999983642
 51
89.999999999999915
  0
ARC
  8
_0-e_極細4
  6
CONTINUOUS
 62
    6
 10
290.20501246695551
 20
454.67503247454738
 40
1.5
 50
183.35088799997041
 51
269.99999999999977
  0
ARC
  8
_0-e_極細4
  6
CONTINUOUS
 62
    6
 10
290.20501246695551
 20
454.67503247454738
 40
2.5499999999999829
 50
183.35088800000156
 51
269.99999999999977
  0
LINE
  8
_0-e_極細4
  6
CONTINUOUS
 62
    6
 10
290.20501246695551
 20
452.12503247454686
 11
291.99184846695675
 21
452.12503247454686
  0
ARC
  8
_0-e_極細4
  6
CONTINUOUS
 62
    6
 10
291.99184846695675
 20
450.55003247454738
 40
1.5750000000000171
 50
0
 51
89.999999999999915
  0
LINE
  8
_0-e_極細4
  6
CONTINUOUS
 62
    6
 10
293.56684846695737
 20
433.67503247454727
 11
293.56684846695566
 21
450.55003247454738
  0
LINE
  8
_0-e_極細4
  6
CONTINUOUS
 62
    6
 10
286.09834846695662
 20
432.89353247454699
 11
288.31684846695737
 21
430.67503247454727
  0
LINE
  8
_0-e_極細4
  6
CONTINUOUS
 62
    6
 10
296.56684846695737
 20
427.67503247454727
 11
296.56684846695737
 21
436.67503247454738
  0
LINE
  8
_0-e_極細4
  6
CONTINUOUS
 62
    6
 10
296.56684846695737
 20
433.67503247454727
 11
293.56684846695737
 21
433.67503247454727
  0
LINE
  8
_0-e_極細4
  6
CONTINUOUS
 62
    6
 10
296.56684846695737
 20
434.72503247454711
 11
294.61684846695675
 21
434.72503247454711
  0
LINE
  8
_0-e_極細4
  6
CONTINUOUS
 62
    6
 10
297.8121244669552
 20
427.67503247454727
 11
296.56684846695737
 21
427.67503247454727
  0
LINE
  8
_0-e_極細4
  6
CONTINUOUS
 62
    6
 10
296.56684846695737
 20
430.67503247454727
 11
288.31684846695737
 21
430.67503247454727
  0
LINE
  8
_0-e_極細4
  6
CONTINUOUS
 62
    6
 10
316.38737896695659
 20
428.12503247454686
 11
308.88737896695659
 21
428.12503247454686
  0
LINE
  8
_0-e_極細4
  6
CONTINUOUS
 62
    6
 10
316.38737896695659
 20
428.12503247454686
 11
316.38737896695659
 21
430.67503247454727
  0
LINE
  8
_0-e_極細4
  6
CONTINUOUS
 62
    6
 10
308.88737896695659
 20
428.12503247454686
 11
308.88737896695659
 21
430.67503247454727
  0
LINE
  8
_0-e_極細4
  6
CONTINUOUS
 62
    6
 10
291.39184846695628
 20
453.47503247454767
 11
291.39184846695628
 21
455.42503247454738
  0
LINE
  8
_0-e_極細4
  6
CONTINUOUS
 62
    6
 10
361.06684846695566
 20
456.17503247454738
 11
292.14184846695628
 21
456.17503247454738
  0
LINE
  8
_0-e_極細4
  6
CONTINUOUS
 62
    6
 10
294.61684846695675
 20
453.17503247454738
 11
291.69184846695566
 21
453.17503247454738
  0
LINE
  8
_0-e_極細4
  6
CONTINUOUS
 62
    6
 10
294.61684846695675
 20
448.67503247454738
 11
294.61684846695675
 21
453.17503247454738
  0
ARC
  8
_0-e_極細4
  6
CONTINUOUS
 62
    6
 10
292.14184846695628
 20
455.42503247454738
 40
0.75
 50
155.94545099999203
 51
179.99999999999983
  0
ARC
  8
_0-e_極細4
  6
CONTINUOUS
 62
    6
 10
291.69184846695566
 20
453.47503247454767
 40
0.2999999999999829
 50
179.99999999999983
 51
269.99999999999977
  0
ARC
  8
_0-e_極細4
  6
CONTINUOUS
 62
    6
 10
292.14184846695628
 20
455.42503247454738
 40
0.75
 50
89.999999999999915
 51
155.94545099999203
  0
LINE
  8
_0-e_極細4
  6
CONTINUOUS
 62
    6
 10
360.76684846695628
 20
449.42503247454738
 11
296.26684846695628
 21
449.42503247454738
  0
LINE
  8
_0-e_極細4
  6
CONTINUOUS
 62
    6
 10
360.76684846695628
 20
447.92503247454738
 11
295.36684846695675
 21
447.92503247454738
  0
LINE
  8
_0-e_極細4
  6
CONTINUOUS
 62
    6
 10
361.06684846695566
 20
446.28419747454723
 11
294.84184846695518
 21
446.28419747454723
  0
LINE
  8
_0-e_極細4
  6
CONTINUOUS
 62
    6
 10
301.44184846695737
 20
446.28419747454723
 11
301.44184846695737
 21
445.53419747454723
  0
LINE
  8
_0-e_極細4
  6
CONTINUOUS
 62
    6
 10
296.04184846695546
 20
444.03419747454723
 11
294.84184846695518
 21
446.28419747454723
  0
LINE
  8
_0-e_極細4
  6
CONTINUOUS
 62
    6
 10
302.19184846695737
 20
441.33419747454752
 11
301.44184846695737
 21
442.08419747454752
  0
LINE
  8
_0-e_極細4
  6
CONTINUOUS
 62
    6
 10
301.44184846695737
 20
440.58419747454752
 11
302.19184846695737
 21
441.33419747454752
  0
LINE
  8
_0-e_極細4
  6
CONTINUOUS
 62
    6
 10
301.44184846695737
 20
444.03419747454723
 11
302.19184846695737
 21
444.78419747454723
  0
LINE
  8
_0-e_極細4
  6
CONTINUOUS
 62
    6
 10
302.19184846695737
 20
444.78419747454723
 11
301.44184846695737
 21
445.53419747454723
  0
LINE
  8
_0-e_極細4
  6
CONTINUOUS
 62
    6
 10
361.06684846695566
 20
444.78419747454723
 11
302.19184846695737
 21
444.78419747454723
  0
LINE
  8
_0-e_極細4
  6
CONTINUOUS
 62
    6
 10
361.06684846695566
 20
441.33419747454752
 11
302.19184846695737
 21
441.33419747454752
  0
LINE
  8
_0-e_極細4
  6
CONTINUOUS
 62
    6
 10
361.06684846695566
 20
439.83419747454752
 11
296.04184846695546
 21
439.83419747454752
  0
LINE
  8
_0-e_極細4
  6
CONTINUOUS
 62
    6
 10
296.04184846695546
 20
444.03419747454723
 11
296.04184846695546
 21
439.83419747454752
  0
LINE
  8
_0-e_極細4
  6
CONTINUOUS
 62
    6
 10
301.44184846695737
 20
440.58419747454752
 11
301.44184846695737
 21
439.83419747454752
  0
LINE
  8
_0-e_極細4
  6
CONTINUOUS
 62
    6
 10
301.44184846695737
 20
444.03419747454723
 11
301.44184846695737
 21
442.08419747454752
  0
LINE
  8
_0-e_極細4
  6
CONTINUOUS
 62
    6
 10
295.81684846695737
 20
437.42620097454733
 11
295.81684846695737
 21
439.67620097454733
  0
LINE
  8
_0-e_極細4
  6
CONTINUOUS
 62
    6
 10
295.81684846695737
 20
439.67620097454733
 11
361.06684846695566
 21
439.67620097454733
  0
LINE
  8
_0-e_極細4
  6
CONTINUOUS
 62
    6
 10
295.81684846695737
 20
446.57620097454708
 11
361.06684846695566
 21
446.57620097454708
  0
LINE
  8
_0-e_極細4
  6
CONTINUOUS
 62
    6
 10
295.81684846695737
 20
446.57620097454708
 11
295.81684846695737
 21
447.92503247454738
  0
LINE
  8
_0-e_極細4
  6
CONTINUOUS
 62
    6
 10
320.56684846695737
 20
426.31443647454728
 11
288.31684846695737
 21
426.31443647454728
  0
LINE
  8
_0-e_極細4
  6
CONTINUOUS
 62
    6
 10
320.56684846695737
 20
424.67094047454736
 11
320.56684846695737
 21
426.88756997454755
  0
LINE
  8
_0-e_極細4
  6
CONTINUOUS
 62
    6
 10
286.09834846695662
 20
456.92503247454738
 11
275.71684846695518
 21
458.40366799655237
  0
LINE
  8
_0-e_極細4
  6
CONTINUOUS
 62
    6
 10
303.69184846695737
 20
417.31443647454728
 11
320.56684846695737
 21
417.31443647454728
  0
LINE
  8
_0-e_極細4
  6
CONTINUOUS
 62
    6
 10
320.56684846695737
 20
425.11443647454701
 11
286.09834846695662
 21
425.11443647454701
  0
LINE
  8
_0-e_極細4
  6
CONTINUOUS
 62
    6
 10
275.71684846695518
 20
457.36443647454712
 11
275.71684846695518
 21
458.40366799655237
  0
LINE
  8
_0-e_極細4
  6
CONTINUOUS
 62
    6
 10
402.31684846695532
 20
247.36441139454143
 11
402.44184846695555
 21
254.86441139454143
  0
LINE
  8
_0-e_極細4
  6
CONTINUOUS
 62
    6
 10
361.06684846695566
 20
247.36441139454143
 11
402.31684846695532
 21
247.36441139454143
  0
LINE
  8
_0-e_極細4
  6
CONTINUOUS
 62
    6
 10
423.31684846695532
 20
292.36441139454143
 11
424.81684846695532
 21
292.36441139454143
  0
LINE
  8
_0-e_極細4
  6
CONTINUOUS
 62
    6
 10
431.75434847263261
 20
383.00852678278261
 11
419.94184846695532
 21
383.00852678278261
  0
LINE
  8
_0-e_極細4
  6
CONTINUOUS
 62
    6
 10
401.56684846695532
 20
338.42617589454176
 11
401.56684846695532
 21
426.88756997454755
  0
ARC
  8
_0-e_極細4
  6
CONTINUOUS
 62
    6
 10
400.06684846695532
 20
338.42617589454176
 40
1.5
 50
269.99954163372558
 51
359.99999999999966
  0
LINE
  8
_0-e_極細4
  6
CONTINUOUS
 62
    6
 10
400.06684846695532
 20
336.92617589454176
 11
361.06684846695566
 21
336.92617589454176
  0
LINE
  8
_0-e_極細4
  6
CONTINUOUS
 62
    6
 10
402.44184796695538
 20
254.86441139454143
 11
422.71684846695518
 21
254.86441139454143
  0
LINE
  8
_0-e_極細4
  6
CONTINUOUS
 62
    6
 10
422.71684846695518
 20
254.86441139454143
 11
423.31684846695532
 21
292.36441139454143
  0
ARC
  8
_0-e_極細4
  6
CONTINUOUS
 62
    6
 10
424.81684846695532
 20
304.36441139454143
 40
12
 50
269.99999999999977
 51
359.99999999999966
  0
LINE
  8
_0-e_極細4
  6
CONTINUOUS
 62
    6
 10
402.44184846695555
 20
254.86441139454143
 11
403.06684846695532
 21
292.36441139454143
  0
LINE
  8
_0-e_極細4
  6
CONTINUOUS
 62
    6
 10
421.06684846695532
 20
296.11441139454143
 11
398.56684846695532
 21
296.11441139454143
  0
LINE
  8
_0-e_極細4
  6
CONTINUOUS
 62
    6
 10
433.06684846695532
 20
308.11441139454143
 11
433.06684846695532
 21
384.49676189454203
  0
LINE
  8
_0-e_極細4
  6
CONTINUOUS
 62
    6
 10
399.31684846695532
 20
247.36441139454143
 11
398.56684846695532
 21
296.11441139454143
  0
LINE
  8
_0-e_極細4
  6
CONTINUOUS
 62
    6
 10
403.06684846695532
 20
292.36441139454143
 11
418.06684846695532
 21
292.36441139454143
  0
ARC
  8
_0-e_極細4
  6
CONTINUOUS
 62
    6
 10
421.06684846695532
 20
308.11441139454143
 40
12
 50
269.99999999999977
 51
359.99999999999966
  0
LINE
  8
_0-e_極細4
  6
CONTINUOUS
 62
    6
 10
398.56684846695532
 20
296.11441139454143
 11
361.06684846695566
 21
296.11441139454143
  0
LINE
  8
_0-e_極細4
  6
CONTINUOUS
 62
    6
 10
398.56921696695701
 20
295.960401894543
 11
398.56684846695532
 21
296.11441139454143
  0
LINE
  8
_0-e_極細4
  6
CONTINUOUS
 62
    6
 10
419.94184846695532
 20
329.11441139454143
 11
419.94184846695532
 21
369.61441139454155
  0
LINE
  8
_0-e_極細4
  6
CONTINUOUS
 62
    6
 10
401.94184846695532
 20
311.11441139454143
 11
398.56684846695532
 21
311.11441139454143
  0
LINE
  8
_0-e_極細4
  6
CONTINUOUS
 62
    6
 10
398.56684846695532
 20
296.11441139454143
 11
398.56684846695532
 21
311.11441139454143
  0
ARC
  8
_0-e_極細4
  6
CONTINUOUS
 62
    6
 10
401.94184846695532
 20
329.11441139454143
 40
18
 50
269.99999999999977
 51
359.99999999999966
  0
ARC
  8
_0-e_極細4
  6
CONTINUOUS
 62
    6
 10
431.56684846695532
 20
384.49676189454203
 40
1.5
 50
277.18075600002476
 51
359.99999999999966
  0
LINE
  8
_0-e_極細4
  6
CONTINUOUS
 62
    6
 10
433.06684846695532
 20
384.49676189454203
 11
433.06684846695532
 21
425.11443647454701
  0
LINE
  8
_0-e_極細4
  6
CONTINUOUS
 62
    6
 10
418.44184846695532
 20
254.86441139454143
 11
418.06684846695532
 21
292.36441139454143
  0
LINE
  8
_0-e_極細4
  6
CONTINUOUS
 62
    6
 10
362.56171096695482
 20
296.85923939454153
 11
362.46350596695686
 21
311.09898689454201
  0
ARC
  8
_0-e_極細4
  6
CONTINUOUS
 62
    6
 10
363.31169446695469
 20
296.86441139454143
 40
0.75
 50
180.39513699995425
 51
269.99999999999977
  0
LINE
  8
_0-e_極細4
  6
CONTINUOUS
 62
    6
 10
361.06684846695566
 20
311.11441139454143
 11
362.46339946695491
 21
311.11441139454143
  0
LINE
  8
_0-e_極細4
  6
CONTINUOUS
 62
    6
 10
362.46339946695491
 20
311.11441139454143
 11
401.94184846695532
 21
311.11441139454143
  0
LINE
  8
_0-e_極細4
  6
CONTINUOUS
 62
    6
 10
419.94184846695532
 20
329.11441139454143
 11
419.94184846695532
 21
415.81443647454728
  0
LINE
  8
_0-e_極細4
  6
CONTINUOUS
 62
    6
 10
416.94184846695532
 20
329.11441139454143
 11
416.94184846695532
 21
415.81443647454728
  0
LINE
  8
_0-e_極細4
  6
CONTINUOUS
 62
    6
 10
361.06684846695566
 20
314.11441139454143
 11
401.94184846695532
 21
314.11441139454143
  0
ARC
  8
_0-e_極細4
  6
CONTINUOUS
 62
    6
 10
401.94184846695532
 20
329.11441139454143
 40
15
 50
269.99999999999977
 51
359.99999999999966
  0
LINE
  8
_0-e_極細4
  6
CONTINUOUS
 62
    6
 10
421.44184846695532
 20
437.42620097454733
 11
361.06684846695566
 21
437.42620097454733
  0
LINE
  8
_0-e_極細4
  6
CONTINUOUS
 62
    6
 10
421.44184846695532
 20
430.82620097454708
 11
421.44184846695532
 21
437.42620097454733
  0
LINE
  8
_0-e_極細4
  6
CONTINUOUS
 62
    6
 10
426.31684846695532
 20
437.42620097454733
 11
421.44184846695532
 21
437.42620097454733
  0
LINE
  8
_0-e_極細4
  6
CONTINUOUS
 62
    6
 10
424.81684846695532
 20
430.82620097454708
 11
421.44184846695532
 21
430.82620097454708
  0
LINE
  8
_0-e_極細4
  6
CONTINUOUS
 62
    6
 10
424.81684846695532
 20
429.32620097454708
 11
424.81684846695532
 21
430.82620097454708
  0
ARC
  8
_0-e_極細4
  6
CONTINUOUS
 62
    6
 10
421.81684846695532
 20
429.32620097454708
 40
3
 50
269.99999999999977
 51
359.99999999999966
  0
LINE
  8
_0-e_極細4
  6
CONTINUOUS
 62
    6
 10
421.81684846695532
 20
426.32620097454776
 11
417.31684846695532
 21
426.32620097454776
  0
ARC
  8
_0-e_極細4
  6
CONTINUOUS
 62
    6
 10
436.03534846695641
 20
454.30003247454738
 40
1.5750000000000171
 50
89.999999999999915
 51
175.84901000000693
  0
LINE
  8
_0-e_極細4
  6
CONTINUOUS
 62
    6
 10
436.03534846695641
 20
432.89353247454699
 11
436.03534846695641
 21
455.87503247454686
  0
LINE
  8
_0-e_極細4
  6
CONTINUOUS
 62
    6
 10
436.03534846695641
 20
455.86443565517106
 11
446.41684846695512
 21
457.34307197454689
  0
LINE
  8
_0-e_極細4
  6
CONTINUOUS
 62
    6
 10
440.56684846695532
 20
421.81443647454728
 11
440.56684846695532
 21
433.8144364745466
  0
ARC
  8
_0-e_極細4
  6
CONTINUOUS
 62
    6
 10
444.31684846695532
 20
415.31924597454702
 40
7.5
 50
119.99999999999989
 51
179.99999999999983
  0
LINE
  8
_0-e_極細4
  6
CONTINUOUS
 62
    6
 10
446.41684846695512
 20
433.8144364745466
 11
446.41684846695512
 21
434.64729797454743
  0
LINE
  8
_0-e_極細4
  6
CONTINUOUS
 62
    6
 10
440.56684846695532
 20
433.8144364745466
 11
446.41684846695512
 21
433.8144364745466
  0
LINE
  8
_0-e_極細4
  6
CONTINUOUS
 62
    6
 10
446.41684846695512
 20
434.64729797454743
 11
446.41684846695512
 21
458.38230347454771
  0
LINE
  8
_0-e_極細4
  6
CONTINUOUS
 62
    6
 10
433.81684846695532
 20
426.31443647454728
 11
433.81684846695532
 21
430.67503247454727
  0
LINE
  8
_0-e_極細4
  6
CONTINUOUS
 62
    6
 10
436.03534846695641
 20
425.11443647454701
 11
433.81684846695532
 21
426.31443647454728
  0
LINE
  8
_0-e_極細4
  6
CONTINUOUS
 62
    6
 10
446.41684846695512
 20
454.81443647454739
 11
436.03534846695641
 21
453.61443647454712
  0
ARC
  8
_0-e_極細4
  6
CONTINUOUS
 62
    6
 10
418.44184846695532
 20
415.81443647454728
 40
1.5
 50
0
 51
89.999999999999915
  0
ARC
  8
_0-e_極細4
  6
CONTINUOUS
 62
    6
 10
418.44184846695532
 20
415.81443647454728
 40
1.5
 50
89.999999999999915
 51
179.99999999999983
  0
LINE
  8
_0-e_極細4
  6
CONTINUOUS
 62
    6
 10
361.06684846695566
 20
456.92503247454738
 11
436.03534846695641
 21
456.92503247454738
  0
LINE
  8
_0-e_極細4
  6
CONTINUOUS
 62
    6
 10
421.44184846695532
 20
436.67503247454738
 11
427.51684846695628
 21
436.67503247454738
  0
LINE
  8
_0-e_極細4
  6
CONTINUOUS
 62
    6
 10
431.92868446695479
 20
453.17503247454738
 11
430.14184846695628
 21
453.17503247454738
  0
LINE
  8
_0-e_極細4
  6
CONTINUOUS
 62
    6
 10
427.51684846695628
 20
434.72503247454711
 11
427.51684846695628
 21
450.55003247454738
  0
LINE
  8
_0-e_極細4
  6
CONTINUOUS
 62
    6
 10
430.81684846695532
 20
453.17503247454738
 11
430.81684846695532
 21
456.92503247454738
  0
ARC
  8
_0-e_極細4
  6
CONTINUOUS
 62
    6
 10
430.14184846695628
 20
450.55003247454738
 40
2.6249999999999991
 50
89.999999999999915
 51
179.99999999999983
  0
ARC
  8
_0-e_極細4
  6
CONTINUOUS
 62
    6
 10
436.03534846695641
 20
454.30003247454738
 40
2.6249999999999991
 50
89.999999999999915
 51
175.84901000000596
  0
ARC
  8
_0-e_極細4
  6
CONTINUOUS
 62
    6
 10
431.92868446695479
 20
454.67503247454738
 40
1.5
 50
269.99999999999977
 51
356.64911200002962
  0
ARC
  8
_0-e_極細4
  6
CONTINUOUS
 62
    6
 10
431.92868446695479
 20
454.67503247454738
 40
2.5499999999999829
 50
269.99999999999977
 51
356.64911200000086
  0
LINE
  8
_0-e_極細4
  6
CONTINUOUS
 62
    6
 10
431.92868446695479
 20
452.12503247454686
 11
430.14184846695628
 21
452.12503247454686
  0
ARC
  8
_0-e_極細4
  6
CONTINUOUS
 62
    6
 10
430.14184846695628
 20
450.55003247454738
 40
1.5750000000000171
 50
89.999999999999915
 51
179.99999999999983
  0
LINE
  8
_0-e_極細4
  6
CONTINUOUS
 62
    6
 10
428.56684846695532
 20
433.67503247454727
 11
428.56684846695532
 21
450.55003247454738
  0
LINE
  8
_0-e_極細4
  6
CONTINUOUS
 62
    6
 10
436.03534846695641
 20
432.89353247454699
 11
433.81684846695532
 21
430.67503247454727
  0
LINE
  8
_0-e_極細4
  6
CONTINUOUS
 62
    6
 10
425.56684846695532
 20
427.67503247454727
 11
425.56684846695532
 21
436.67503247454738
  0
LINE
  8
_0-e_極細4
  6
CONTINUOUS
 62
    6
 10
425.56684846695532
 20
433.67503247454727
 11
428.56684846695532
 21
433.67503247454727
  0
LINE
  8
_0-e_極細4
  6
CONTINUOUS
 62
    6
 10
425.56684846695532
 20
434.72503247454711
 11
427.51684846695628
 21
434.72503247454711
  0
LINE
  8
_0-e_極細4
  6
CONTINUOUS
 62
    6
 10
424.3215724669551
 20
427.67503247454727
 11
425.56684846695532
 21
427.67503247454727
  0
LINE
  8
_0-e_極細4
  6
CONTINUOUS
 62
    6
 10
425.56684846695532
 20
430.67503247454727
 11
433.81684846695532
 21
430.67503247454727
  0
LINE
  8
_0-e_極細4
  6
CONTINUOUS
 62
    6
 10
405.7463179669561
 20
428.12503247454686
 11
413.2463179669561
 21
428.12503247454686
  0
LINE
  8
_0-e_極細4
  6
CONTINUOUS
 62
    6
 10
405.7463179669561
 20
428.12503247454686
 11
405.7463179669561
 21
430.67503247454727
  0
LINE
  8
_0-e_極細4
  6
CONTINUOUS
 62
    6
 10
413.2463179669561
 20
428.12503247454686
 11
413.2463179669561
 21
430.67503247454727
  0
LINE
  8
_0-e_極細4
  6
CONTINUOUS
 62
    6
 10
430.74184846695641
 20
453.47503247454767
 11
430.74184846695641
 21
455.42503247454738
  0
LINE
  8
_0-e_極細4
  6
CONTINUOUS
 62
    6
 10
361.06684846695566
 20
456.17503247454738
 11
429.99184846695402
 21
456.17503247454738
  0
LINE
  8
_0-e_極細4
  6
CONTINUOUS
 62
    6
 10
427.51684846695628
 20
453.17503247454738
 11
430.44184846695532
 21
453.17503247454738
  0
LINE
  8
_0-e_極細4
  6
CONTINUOUS
 62
    6
 10
427.51684846695628
 20
448.67503247454738
 11
427.51684846695628
 21
453.17503247454738
  0
ARC
  8
_0-e_極細4
  6
CONTINUOUS
 62
    6
 10
429.99184846695402
 20
455.42503247454738
 40
0.75
 50
0
 51
24.054549000007984
  0
ARC
  8
_0-e_極細4
  6
CONTINUOUS
 62
    6
 10
430.44184846695532
 20
453.47503247454767
 40
0.2999999999999829
 50
269.99999999999977
 51
359.99999999999966
  0
ARC
  8
_0-e_極細4
  6
CONTINUOUS
 62
    6
 10
429.99184846695402
 20
455.42503247454738
 40
0.75
 50
24.054549000007984
 51
89.999999999999915
  0
LINE
  8
_0-e_極細4
  6
CONTINUOUS
 62
    6
 10
361.36684846695437
 20
449.42503247454738
 11
425.86684846695641
 21
449.42503247454738
  0
LINE
  8
_0-e_極細4
  6
CONTINUOUS
 62
    6
 10
361.36684846695437
 20
447.92503247454738
 11
426.76684846695628
 21
447.92503247454738
  0
LINE
  8
_0-e_極細4
  6
CONTINUOUS
 62
    6
 10
361.06684846695566
 20
446.28419747454723
 11
427.29184846695512
 21
446.28419747454723
  0
LINE
  8
_0-e_極細4
  6
CONTINUOUS
 62
    6
 10
420.69184846695532
 20
446.28419747454723
 11
420.69184846695532
 21
445.53419747454723
  0
LINE
  8
_0-e_極細4
  6
CONTINUOUS
 62
    6
 10
426.09184846695518
 20
444.03419747454723
 11
427.29184846695512
 21
446.28419747454723
  0
LINE
  8
_0-e_極細4
  6
CONTINUOUS
 62
    6
 10
419.94184846695532
 20
441.33419747454752
 11
420.69184846695532
 21
442.08419747454752
  0
LINE
  8
_0-e_極細4
  6
CONTINUOUS
 62
    6
 10
420.69184846695532
 20
440.58419747454752
 11
419.94184846695532
 21
441.33419747454752
  0
LINE
  8
_0-e_極細4
  6
CONTINUOUS
 62
    6
 10
420.69184846695532
 20
444.03419747454723
 11
419.94184846695532
 21
444.78419747454723
  0
LINE
  8
_0-e_極細4
  6
CONTINUOUS
 62
    6
 10
419.94184846695532
 20
444.78419747454723
 11
420.69184846695532
 21
445.53419747454723
  0
LINE
  8
_0-e_極細4
  6
CONTINUOUS
 62
    6
 10
361.06684846695566
 20
444.78419747454723
 11
419.94184846695532
 21
444.78419747454723
  0
LINE
  8
_0-e_極細4
  6
CONTINUOUS
 62
    6
 10
361.06684846695566
 20
441.33419747454752
 11
419.94184846695532
 21
441.33419747454752
  0
LINE
  8
_0-e_極細4
  6
CONTINUOUS
 62
    6
 10
361.06684846695566
 20
439.83419747454752
 11
426.09184846695518
 21
439.83419747454752
  0
LINE
  8
_0-e_極細4
  6
CONTINUOUS
 62
    6
 10
426.09184846695518
 20
444.03419747454723
 11
426.09184846695518
 21
439.83419747454752
  0
LINE
  8
_0-e_極細4
  6
CONTINUOUS
 62
    6
 10
420.69184846695532
 20
440.58419747454752
 11
420.69184846695532
 21
439.83419747454752
  0
LINE
  8
_0-e_極細4
  6
CONTINUOUS
 62
    6
 10
420.69184846695532
 20
444.03419747454723
 11
420.69184846695532
 21
442.08419747454752
  0
LINE
  8
_0-e_極細4
  6
CONTINUOUS
 62
    6
 10
426.31684846695532
 20
437.42620097454733
 11
426.31684846695532
 21
439.67620097454733
  0
LINE
  8
_0-e_極細4
  6
CONTINUOUS
 62
    6
 10
426.31684846695532
 20
439.67620097454733
 11
361.06684846695566
 21
439.67620097454733
  0
LINE
  8
_0-e_極細4
  6
CONTINUOUS
 62
    6
 10
426.31684846695532
 20
446.57620097454708
 11
361.06684846695566
 21
446.57620097454708
  0
LINE
  8
_0-e_極細4
  6
CONTINUOUS
 62
    6
 10
426.31684846695532
 20
446.57620097454708
 11
426.31684846695532
 21
447.92503247454738
  0
LINE
  8
_0-e_極細4
  6
CONTINUOUS
 62
    6
 10
401.56684846695532
 20
426.31443647454728
 11
433.81684846695532
 21
426.31443647454728
  0
LINE
  8
_0-e_極細4
  6
CONTINUOUS
 62
    6
 10
401.56684846695532
 20
424.67094047454736
 11
401.56684846695532
 21
426.88756997454755
  0
LINE
  8
_0-e_極細4
  6
CONTINUOUS
 62
    6
 10
436.03534846695641
 20
456.92503247454738
 11
446.41684846695512
 21
458.40366799655237
  0
LINE
  8
_0-e_極細4
  6
CONTINUOUS
 62
    6
 10
418.44184846695532
 20
417.31443647454728
 11
401.56684846695532
 21
417.31443647454728
  0
LINE
  8
_0-e_極細4
  6
CONTINUOUS
 62
    6
 10
401.56684846695532
 20
425.11443647454701
 11
436.03534846695641
 21
425.11443647454701
  0
LINE
  8
_0-e_極細4
  6
CONTINUOUS
 62
    6
 10
446.41684846695512
 20
457.36443647454712
 11
446.41684846695512
 21
458.40366799655237
  0
LINE
  8
_0-e_極細4
  6
CONTINUOUS
 62
    6
 10
275.71684846695518
 20
458.40366799655237
 11
446.41684846695512
 21
458.40366799655237
  0
LINE
  8
_0-e_極細4
  6
CONTINUOUS
 62
    6
 10
421.17242547747139
 20
254.86441139454143
 11
422.74196103589054
 21
256.43394695296058
  0
LINE
  8
_0-e_極細4
  6
CONTINUOUS
 62
    6
 10
418.43737912532254
 20
255.31134555773326
 11
422.79370055646416
 21
259.66766698887488
  0
LINE
  8
_0-e_極細4
  6
CONTINUOUS
 62
    6
 10
418.4058743677457
 20
258.46182131549506
 11
422.84544007703914
 21
262.90138702478919
  0
LINE
  8
_0-e_極細4
  6
CONTINUOUS
 62
    6
 10
418.37436961016886
 20
261.61229707325617
 11
422.89717959761379
 21
266.13510706070349
  0
LINE
  8
_0-e_極細4
  6
CONTINUOUS
 62
    6
 10
400.94450341611241
 20
247.36441139454143
 11
402.34010855256179
 21
248.76001653099081
  0
LINE
  8
_0-e_極細4
  6
CONTINUOUS
 62
    6
 10
418.34286485258997
 20
264.76277283101865
 11
422.94891911818979
 21
269.36882709661779
  0
LINE
  8
_0-e_極細4
  6
CONTINUOUS
 62
    6
 10
399.29329807958914
 20
248.89518657335645
 11
402.39404042570493
 21
251.99592891947225
  0
LINE
  8
_0-e_極細4
  6
CONTINUOUS
 62
    6
 10
418.31136009501313
 20
267.91324858878045
 11
423.00065863876239
 21
272.60254713253073
  0
LINE
  8
_0-e_極細4
  6
CONTINUOUS
 62
    6
 10
399.2450862535992
 20
252.02895526270584
 11
402.44797229884568
 21
255.23184130795232
  0
LINE
  8
_0-e_極細4
  6
CONTINUOUS
 62
    6
 10
418.2798553374339
 20
271.06372434654224
 11
423.0523981593384
 21
275.83626716844503
  0
LINE
  8
_0-e_極細4
  6
CONTINUOUS
 62
    6
 10
399.19687442760892
 20
255.16272395205522
 11
402.50190417198644
 21
258.46775369643376
  0
LINE
  8
_0-e_極細4
  6
CONTINUOUS
 62
    6
 10
418.24835057985706
 20
274.21420010430472
 11
423.10413767991099
 21
279.06998720435865
  0
LINE
  8
_0-e_極細4
  6
CONTINUOUS
 62
    6
 10
399.14866260162
 20
258.29649264140528
 11
402.55583604512924
 21
261.70366608491452
  0
LINE
  8
_0-e_極細4
  6
CONTINUOUS
 62
    6
 10
418.2168458222792
 20
277.36467586206584
 11
423.155877200487
 21
282.30370724027296
  0
LINE
  8
_0-e_極細4
  6
CONTINUOUS
 62
    6
 10
399.10045077563007
 20
261.43026133075466
 11
402.60976791826999
 21
264.93957847339527
  0
LINE
  8
_0-e_極細4
  6
CONTINUOUS
 62
    6
 10
418.18534106470236
 20
280.51515161982832
 11
423.20761672106198
 21
285.53742727618726
  0
LINE
  8
_0-e_極細4
  6
CONTINUOUS
 62
    6
 10
399.05223894963876
 20
264.56403002010404
 11
402.66369979141075
 21
268.17549086187535
  0
LINE
  8
_0-e_極細4
  6
CONTINUOUS
 62
    6
 10
418.15383630712552
 20
283.66562737759011
 11
423.2593562416356
 21
288.77114731210156
  0
LINE
  8
_0-e_極細4
  6
CONTINUOUS
 62
    6
 10
427.06511417020431
 20
292.57690524066891
 11
436.60435462082989
 21
302.11614569129381
  0
LINE
  8
_0-e_極細4
  6
CONTINUOUS
 62
    6
 10
399.00402712364883
 20
267.69779870945342
 11
402.7176316645515
 21
271.41140325035678
  0
LINE
  8
_0-e_極細4
  6
CONTINUOUS
 62
    6
 10
418.12233154954868
 20
286.81610313535191
 11
423.31109576221263
 21
292.00486734801586
  0
LINE
  8
_0-e_極細4
  6
CONTINUOUS
 62
    6
 10
423.67063980873752
 20
292.36441139454143
 11
436.81684846695532
 21
305.51062005275924
  0
LINE
  8
_0-e_極細4
  6
CONTINUOUS
 62
    6
 10
398.95581529765855
 20
270.83156739880349
 11
402.77156353769328
 21
274.64731563883754
  0
LINE
  8
_0-e_極細4
  6
CONTINUOUS
 62
    6
 10
418.09082679196979
 20
289.96657889311439
 11
424.85090708399241
 21
296.72665918513565
  0
LINE
  8
_0-e_極細4
  6
CONTINUOUS
 62
    6
 10
432.45460067636179
 20
304.33035277750571
 11
436.81684846695532
 21
308.69260056809992
  0
LINE
  8
_0-e_極細4
  6
CONTINUOUS
 62
    6
 10
398.90760347166963
 20
273.96533608815287
 11
402.82549541083404
 21
277.8832280273183
  0
LINE
  8
_0-e_極細4
  6
CONTINUOUS
 62
    6
 10
417.30667877805956
 20
292.36441139454143
 11
421.05667877805956
 21
296.11441139454143
  0
LINE
  8
_0-e_極細4
  6
CONTINUOUS
 62
    6
 10
433.06684846695532
 20
308.12458108343924
 11
436.81684846695532
 21
311.87458108343856
  0
LINE
  8
_0-e_極細4
  6
CONTINUOUS
 62
    6
 10
398.85939164567969
 20
277.09910477750225
 11
402.87942728397718
 21
281.11914041579905
  0
LINE
  8
_0-e_極細4
  6
CONTINUOUS
 62
    6
 10
414.12469826271786
 20
292.36441139454143
 11
417.87469826271786
 21
296.11441139454143
  0
LINE
  8
_0-e_極細4
  6
CONTINUOUS
 62
    6
 10
433.06684846695532
 20
311.30656159877788
 11
436.81684846695532
 21
315.05656159877788
  0
LINE
  8
_0-e_極細4
  6
CONTINUOUS
 62
    6
 10
398.81117981968839
 20
280.23287346685163
 11
402.93335915711793
 21
284.35505280428049
  0
LINE
  8
_0-e_極細4
  6
CONTINUOUS
 62
    6
 10
410.94271774737956
 20
292.36441139454143
 11
414.69271774737956
 21
296.11441139454143
  0
LINE
  8
_0-e_極細4
  6
CONTINUOUS
 62
    6
 10
433.06684846695532
 20
314.48854211411788
 11
436.81684846695532
 21
318.23854211411788
  0
LINE
  8
_0-e_極細4
  6
CONTINUOUS
 62
    6
 10
398.7629679937005
 20
283.36664215620101
 11
402.98729103026074
 21
287.59096519276125
  0
LINE
  8
_0-e_極細4
  6
CONTINUOUS
 62
    6
 10
407.76073723204024
 20
292.36441139454143
 11
411.51073723204024
 21
296.11441139454143
  0
LINE
  8
_0-e_極細4
  6
CONTINUOUS
 62
    6
 10
433.06684846695532
 20
317.6705226294572
 11
436.81684846695532
 21
321.42052262945651
  0
LINE
  8
_0-e_極細4
  6
CONTINUOUS
 62
    6
 10
398.71475616770817
 20
286.50041084555039
 11
403.04122290340149
 21
290.826877581242
  0
LINE
  8
_0-e_極細4
  6
CONTINUOUS
 62
    6
 10
404.57875671670058
 20
292.36441139454143
 11
408.32875671669956
 21
296.11441139454143
  0
LINE
  8
_0-e_極細4
  6
CONTINUOUS
 62
    6
 10
433.06684846695532
 20
320.8525031447972
 11
436.81684846695532
 21
324.6025031447972
  0
LINE
  8
_0-e_極細4
  6
CONTINUOUS
 62
    6
 10
398.66654434171926
 20
289.63417953489977
 11
405.14677620136229
 21
296.11441139454143
  0
LINE
  8
_0-e_極細4
  6
CONTINUOUS
 62
    6
 10
433.06684846695532
 20
324.03448366013652
 11
436.81684846695532
 21
327.78448366013583
  0
LINE
  8
_0-e_極細4
  6
CONTINUOUS
 62
    6
 10
398.61833251572932
 20
292.76794822424915
 11
401.96479568602058
 21
296.11441139454143
  0
LINE
  8
_0-e_極細4
  6
CONTINUOUS
 62
    6
 10
433.06684846695532
 20
327.21646417547583
 11
436.81684846695532
 21
330.96646417547583
  0
LINE
  8
_0-e_極細4
  6
CONTINUOUS
 62
    6
 10
398.57012068973904
 20
295.90171691359853
 11
398.78281517068228
 21
296.11441139454143
  0
LINE
  8
_0-e_極細4
  6
CONTINUOUS
 62
    6
 10
433.06684846695532
 20
330.39844469081515
 11
436.81684846695532
 21
334.14844469081527
  0
LINE
  8
_0-e_極細4
  6
CONTINUOUS
 62
    6
 10
433.06684846695532
 20
333.58042520615447
 11
436.81684846695532
 21
337.33042520615459
  0
LINE
  8
_0-e_極細4
  6
CONTINUOUS
 62
    6
 10
433.06684846695532
 20
336.76240572149459
 11
436.81684846695532
 21
340.51240572149459
  0
LINE
  8
_0-e_極細4
  6
CONTINUOUS
 62
    6
 10
433.06684846695532
 20
339.94438623683391
 11
436.81684846695532
 21
343.69438623683322
  0
LINE
  8
_0-e_極細4
  6
CONTINUOUS
 62
    6
 10
433.06684846695532
 20
343.12636675217254
 11
436.81684846695532
 21
346.87636675217254
  0
LINE
  8
_0-e_極細4
  6
CONTINUOUS
 62
    6
 10
433.06684846695532
 20
346.30834726751254
 11
436.81684846695532
 21
350.05834726751254
  0
LINE
  8
_0-e_極細4
  6
CONTINUOUS
 62
    6
 10
433.06684846695532
 20
349.49032778285186
 11
436.81684846695532
 21
353.24032778285186
  0
LINE
  8
_0-e_極細4
  6
CONTINUOUS
 62
    6
 10
433.06684846695532
 20
352.67230829819187
 11
436.81684846695532
 21
356.42230829819187
  0
LINE
  8
_0-e_極細4
  6
CONTINUOUS
 62
    6
 10
433.06684846695532
 20
355.8542888135305
 11
436.81684846695532
 21
359.60428881353118
  0
LINE
  8
_0-e_極細4
  6
CONTINUOUS
 62
    6
 10
433.06684846695532
 20
359.03626932886982
 11
436.81684846695532
 21
362.78626932886982
  0
LINE
  8
_0-e_極細4
  6
CONTINUOUS
 62
    6
 10
433.06684846695532
 20
362.21824984420982
 11
436.81684846695532
 21
365.96824984420982
  0
LINE
  8
_0-e_極細4
  6
CONTINUOUS
 62
    6
 10
433.06684846695532
 20
365.40023035954914
 11
436.81684846695532
 21
369.15023035954914
  0
LINE
  8
_0-e_極細4
  6
CONTINUOUS
 62
    6
 10
433.06684846695532
 20
368.58221087488914
 11
436.81684846695532
 21
372.33221087488914
  0
LINE
  8
_0-e_極細4
  6
CONTINUOUS
 62
    6
 10
433.06684846695532
 20
371.76419139022846
 11
436.81684846695532
 21
375.51419139022778
  0
LINE
  8
_0-e_極細4
  6
CONTINUOUS
 62
    6
 10
433.06684846695532
 20
374.9461719055671
 11
436.81684846695532
 21
378.6961719055671
  0
LINE
  8
_0-e_極細4
  6
CONTINUOUS
 62
    6
 10
433.06684846695532
 20
378.1281524209071
 11
436.81684846695532
 21
381.8781524209071
  0
LINE
  8
_0-e_極細4
  6
CONTINUOUS
 62
    6
 10
433.06684846695532
 20
381.31013293624642
 11
436.81684846695532
 21
385.06013293624642
  0
LINE
  8
_0-e_極細4
  6
CONTINUOUS
 62
    6
 10
433.06684846695532
 20
384.49211345158642
 11
436.81684846695532
 21
388.24211345158642
  0
LINE
  8
_0-e_極細4
  6
CONTINUOUS
 62
    6
 10
433.06684846695532
 20
387.67409396692574
 11
436.81684846695532
 21
391.42409396692506
  0
LINE
  8
_0-e_極細4
  6
CONTINUOUS
 62
    6
 10
433.06684846695532
 20
390.85607448226506
 11
436.81684846695532
 21
394.60607448226438
  0
LINE
  8
_0-e_極細4
  6
CONTINUOUS
 62
    6
 10
433.06684846695532
 20
394.03805499760438
 11
436.81684846695532
 21
397.78805499760426
  0
LINE
  8
_0-e_極細4
  6
CONTINUOUS
 62
    6
 10
433.06684846695532
 20
397.2200355129437
 11
436.81684846695532
 21
400.97003551294358
  0
LINE
  8
_0-e_極細4
  6
CONTINUOUS
 62
    6
 10
433.06684846695532
 20
400.40201602828358
 11
436.81684846695532
 21
404.15201602828358
  0
LINE
  8
_0-e_極細4
  6
CONTINUOUS
 62
    6
 10
433.06684846695532
 20
403.5839965436229
 11
436.81684846695532
 21
407.3339965436229
  0
LINE
  8
_0-e_極細4
  6
CONTINUOUS
 62
    6
 10
433.06684846695532
 20
406.76597705896154
 11
436.81684846695532
 21
410.51597705896154
  0
LINE
  8
_0-e_極細4
  6
CONTINUOUS
 62
    6
 10
433.06684846695532
 20
409.94795757430154
 11
436.81684846695532
 21
413.69795757430154
  0
LINE
  8
_0-e_極細4
  6
CONTINUOUS
 62
    6
 10
433.06684846695532
 20
413.12993808964086
 11
437.02951771614767
 21
417.09260733883423
  0
LINE
  8
_0-e_極細4
  6
CONTINUOUS
 62
    6
 10
433.06684846695532
 20
416.31191860498086
 11
440.56684846695532
 21
423.81191860498086
  0
LINE
  8
_0-e_極細4
  6
CONTINUOUS
 62
    6
 10
433.06684846695532
 20
419.49389912032018
 11
440.56684846695532
 21
426.99389912032018
  0
LINE
  8
_0-e_極細4
  6
CONTINUOUS
 62
    6
 10
433.06684846695532
 20
422.6758796356595
 11
435.50540530584351
 21
425.11443647454701
  0
LINE
  8
_0-e_極細4
  6
CONTINUOUS
 62
    6
 10
435.69143186525127
 20
425.30046303395477
 11
440.56684846695532
 21
430.17587963565882
  0
LINE
  8
_0-e_極細4
  6
CONTINUOUS
 62
    6
 10
444.20540530584242
 20
433.8144364745466
 11
446.41684846695512
 21
436.02587963565963
  0
LINE
  8
_0-e_極細4
  6
CONTINUOUS
 62
    6
 10
433.81684846695532
 20
426.60786015099882
 11
440.56684846695532
 21
433.35786015099882
  0
LINE
  8
_0-e_極細4
  6
CONTINUOUS
 62
    6
 10
441.02342479050515
 20
433.8144364745466
 11
446.41684846695512
 21
439.20786015099907
  0
LINE
  8
_0-e_極細4
  6
CONTINUOUS
 62
    6
 10
433.81684846695532
 20
429.78984066633814
 11
446.41684846695512
 21
442.38984066633827
  0
LINE
  8
_0-e_極細4
  6
CONTINUOUS
 62
    6
 10
436.03534846695641
 20
435.19032118167786
 11
446.41684846695512
 21
445.57182118167771
  0
LINE
  8
_0-e_極細4
  6
CONTINUOUS
 62
    6
 10
436.03534846695641
 20
438.37230169701729
 11
446.41684846695512
 21
448.75380169701771
  0
LINE
  8
_0-e_極細4
  6
CONTINUOUS
 62
    6
 10
436.03534846695641
 20
441.55428221235729
 11
446.41684846695512
 21
451.93578221235691
  0
LINE
  8
_0-e_極細4
  6
CONTINUOUS
 62
    6
 10
436.03534846695641
 20
444.7362627276965
 11
446.07387820097972
 21
454.77479246171993
  0
LINE
  8
_0-e_極細4
  6
CONTINUOUS
 62
    6
 10
436.03534846695641
 20
447.91824324303593
 11
442.47602047402927
 21
454.358915250108
  0
LINE
  8
_0-e_極細4
  6
CONTINUOUS
 62
    6
 10
436.03534846695641
 20
451.10022375837514
 11
438.87816274707677
 21
453.94303803849766
  0
LINE
  8
_0-e_極細4
  6
CONTINUOUS
 62
    6
 10
424.85090708399241
 20
296.72665918513565
 11
432.45460067636179
 21
304.33035277750571
  0
LINE
  8
_0-e_極細4
  6
CONTINUOUS
 62
    6
 10
421.05667877805956
 20
296.11441139454143
 11
433.06684846695532
 21
308.12458108343856
  0
LINE
  8
_0-e_極細4
  6
CONTINUOUS
 62
    6
 10
417.87469826271786
 20
296.11441139454143
 11
433.06684846695532
 21
311.30656159877788
  0
LINE
  8
_0-e_極細4
  6
CONTINUOUS
 62
    6
 10
414.69271774737956
 20
296.11441139454143
 11
433.06684846695532
 21
314.48854211411788
  0
LINE
  8
_0-e_極細4
  6
CONTINUOUS
 62
    6
 10
411.51073723204024
 20
296.11441139454143
 11
433.06684846695532
 21
317.6705226294572
  0
LINE
  8
_0-e_極細4
  6
CONTINUOUS
 62
    6
 10
408.32875671670058
 20
296.11441139454143
 11
433.06684846695532
 21
320.8525031447972
  0
LINE
  8
_0-e_極細4
  6
CONTINUOUS
 62
    6
 10
405.14677620136229
 20
296.11441139454143
 11
433.06684846695532
 21
324.03448366013652
  0
LINE
  8
_0-e_極細4
  6
CONTINUOUS
 62
    6
 10
401.96479568602058
 20
296.11441139454143
 11
433.06684846695532
 21
327.21646417547583
  0
LINE
  8
_0-e_極細4
  6
CONTINUOUS
 62
    6
 10
398.78281517068228
 20
296.11441139454143
 11
433.06684846695532
 21
330.39844469081515
  0
LINE
  8
_0-e_極細4
  6
CONTINUOUS
 62
    6
 10
398.56684846695532
 20
299.08042520615447
 11
433.06684846695532
 21
333.58042520615447
  0
LINE
  8
_0-e_極細4
  6
CONTINUOUS
 62
    6
 10
398.56684846695532
 20
302.26240572149447
 11
408.76023431737906
 21
312.45579157191685
  0
LINE
  8
_0-e_極細4
  6
CONTINUOUS
 62
    6
 10
418.60046828958059
 20
322.29602554411906
 11
433.06684846695532
 21
336.76240572149459
  0
LINE
  8
_0-e_極細4
  6
CONTINUOUS
 62
    6
 10
398.56684846695532
 20
305.44438623683379
 11
404.40639362026434
 21
311.28393139014213
  0
LINE
  8
_0-e_極細4
  6
CONTINUOUS
 62
    6
 10
419.77232847135599
 20
326.6498662412331
 11
433.06684846695532
 21
339.94438623683391
  0
LINE
  8
_0-e_極細4
  6
CONTINUOUS
 62
    6
 10
398.56684846695532
 20
308.62636675217311
 11
401.0548931093233
 21
311.11441139454143
  0
LINE
  8
_0-e_極細4
  6
CONTINUOUS
 62
    6
 10
419.94184846695532
 20
330.00136675217311
 11
433.06684846695532
 21
343.12636675217254
  0
LINE
  8
_0-e_極細4
  6
CONTINUOUS
 62
    6
 10
419.94184846695532
 20
333.18334726751243
 11
433.06684846695532
 21
346.30834726751254
  0
LINE
  8
_0-e_極細4
  6
CONTINUOUS
 62
    6
 10
419.94184846695532
 20
336.36532778285186
 11
433.06684846695532
 21
349.49032778285186
  0
LINE
  8
_0-e_極細4
  6
CONTINUOUS
 62
    6
 10
419.94184846695532
 20
339.54730829819187
 11
433.06684846695532
 21
352.67230829819187
  0
LINE
  8
_0-e_極細4
  6
CONTINUOUS
 62
    6
 10
419.94184846695532
 20
342.72928881353118
 11
433.06684846695532
 21
355.8542888135305
  0
LINE
  8
_0-e_極細4
  6
CONTINUOUS
 62
    6
 10
419.94184846695532
 20
345.91126932886982
 11
433.06684846695532
 21
359.03626932886982
  0
LINE
  8
_0-e_極細4
  6
CONTINUOUS
 62
    6
 10
419.94184846695532
 20
349.09324984420982
 11
433.06684846695532
 21
362.21824984420982
  0
LINE
  8
_0-e_極細4
  6
CONTINUOUS
 62
    6
 10
419.94184846695532
 20
352.27523035954914
 11
433.06684846695532
 21
365.40023035954914
  0
LINE
  8
_0-e_極細4
  6
CONTINUOUS
 62
    6
 10
419.94184846695532
 20
355.45721087488914
 11
433.06684846695532
 21
368.58221087488914
  0
LINE
  8
_0-e_極細4
  6
CONTINUOUS
 62
    6
 10
419.94184846695532
 20
358.63919139022846
 11
433.06684846695532
 21
371.76419139022846
  0
LINE
  8
_0-e_極細4
  6
CONTINUOUS
 62
    6
 10
419.94184846695532
 20
361.82117190556778
 11
433.06684846695532
 21
374.9461719055671
  0
LINE
  8
_0-e_極細4
  6
CONTINUOUS
 62
    6
 10
419.94184846695532
 20
365.0031524209071
 11
433.06684846695532
 21
378.1281524209071
  0
LINE
  8
_0-e_極細4
  6
CONTINUOUS
 62
    6
 10
419.94184846695532
 20
368.1851329362471
 11
433.06684846695532
 21
381.31013293624642
  0
LINE
  8
_0-e_極細4
  6
CONTINUOUS
 62
    6
 10
419.94184846695532
 20
371.36711345158642
 11
431.58326179815288
 21
383.00852678278261
  0
LINE
  8
_0-e_極細4
  6
CONTINUOUS
 62
    6
 10
433.06684124185608
 20
384.49210622648684
 11
433.06684846695532
 21
384.49211345158642
  0
LINE
  8
_0-e_極細4
  6
CONTINUOUS
 62
    6
 10
419.94184846695532
 20
374.54909396692574
 11
428.40128128281356
 21
383.00852678278261
  0
LINE
  8
_0-e_極細4
  6
CONTINUOUS
 62
    6
 10
419.94184846695532
 20
377.73107448226438
 11
425.21930076747287
 21
383.00852678278261
  0
LINE
  8
_0-e_極細4
  6
CONTINUOUS
 62
    6
 10
419.94184846695532
 20
380.91305499760438
 11
422.0373202521356
 21
383.00852678278261
  0
LINE
  8
_0-e_極細4
  6
CONTINUOUS
 62
    6
 10
322.41528280253453
 20
296.11441139454143
 11
323.56684846695737
 21
297.26597705896359
  0
LINE
  8
_0-e_極細4
  6
CONTINUOUS
 62
    6
 10
319.2333022871959
 20
296.11441139454143
 11
323.56684846695737
 21
300.44795757430222
  0
LINE
  8
_0-e_極細4
  6
CONTINUOUS
 62
    6
 10
316.05132177185692
 20
296.11441139454143
 11
323.56684846695737
 21
303.62993808964154
  0
LINE
  8
_0-e_極細4
  6
CONTINUOUS
 62
    6
 10
312.86934125651726
 20
296.11441139454143
 11
323.56684846695737
 21
306.81191860498086
  0
LINE
  8
_0-e_極細4
  6
CONTINUOUS
 62
    6
 10
309.68736074117862
 20
296.11441139454143
 11
323.56684846695737
 21
309.99389912032018
  0
LINE
  8
_0-e_極細4
  6
CONTINUOUS
 62
    6
 10
306.50538022583726
 20
296.11441139454143
 11
321.50538022583726
 21
311.11441139454143
  0
LINE
  8
_0-e_極細4
  6
CONTINUOUS
 62
    6
 10
303.32339971049862
 20
296.11441139454143
 11
318.41164706157429
 21
311.20265874561676
  0
LINE
  8
_0-e_極細4
  6
CONTINUOUS
 62
    6
 10
300.17463378855859
 20
296.14762598794039
 11
315.70866164233496
 21
311.68165384171778
  0
LINE
  8
_0-e_極細4
  6
CONTINUOUS
 62
    6
 10
297.50136915365579
 20
296.6563418683769
 11
313.32198263909106
 21
312.47695535381388
  0
LINE
  8
_0-e_極細4
  6
CONTINUOUS
 62
    6
 10
295.27031063633581
 20
297.6072638663976
 11
311.1900432678982
 21
313.52699649795966
  0
LINE
  8
_0-e_極細4
  6
CONTINUOUS
 62
    6
 10
293.38037473944507
 20
298.89930848484585
 11
309.2800265047955
 21
314.79896025019696
  0
LINE
  8
_0-e_極細4
  6
CONTINUOUS
 62
    6
 10
291.79525673553383
 20
300.49617099627392
 11
307.57523323198495
 21
316.27614749272504
  0
LINE
  8
_0-e_極細4
  6
CONTINUOUS
 62
    6
 10
290.51561681304759
 20
302.398511589127
 11
306.07011978976209
 21
317.95301456584286
  0
LINE
  8
_0-e_極細4
  6
CONTINUOUS
 62
    6
 10
289.57951087618187
 20
304.64438616760197
 11
304.76885032902885
 21
319.83372562044758
  0
LINE
  8
_0-e_極細4
  6
CONTINUOUS
 62
    6
 10
289.09194048358825
 20
307.33879629034698
 11
303.68637519003892
 21
321.93323099679731
  0
LINE
  8
_0-e_極細4
  6
CONTINUOUS
 62
    6
 10
289.06684846695737
 20
310.49568478905542
 11
302.85276203837577
 21
324.2815983604745
  0
LINE
  8
_0-e_極細4
  6
CONTINUOUS
 62
    6
 10
289.06684846695737
 20
313.67766530439405
 11
302.32426540572499
 21
326.9350822431644
  0
LINE
  8
_0-e_極細4
  6
CONTINUOUS
 62
    6
 10
289.06684846695737
 20
316.85964581973337
 11
302.19184846695737
 21
329.98464581973337
  0
LINE
  8
_0-e_極細4
  6
CONTINUOUS
 62
    6
 10
289.06684846695737
 20
320.04162633507269
 11
302.19184846695737
 21
333.16662633507337
  0
LINE
  8
_0-e_極細4
  6
CONTINUOUS
 62
    6
 10
289.06684846695737
 20
323.22360685041201
 11
302.19184846695737
 21
336.34860685041281
  0
LINE
  8
_0-e_極細4
  6
CONTINUOUS
 62
    6
 10
289.06684846695737
 20
326.40558736575269
 11
302.19184846695737
 21
339.53058736575281
  0
LINE
  8
_0-e_極細4
  6
CONTINUOUS
 62
    6
 10
289.06684846695737
 20
329.58756788109133
 11
302.19184846695737
 21
342.71256788109145
  0
LINE
  8
_0-e_極細4
  6
CONTINUOUS
 62
    6
 10
289.06684846695737
 20
332.76954839643065
 11
302.19184846695737
 21
345.89454839643076
  0
LINE
  8
_0-e_極細4
  6
CONTINUOUS
 62
    6
 10
289.06684846695737
 20
335.95152891177008
 11
302.19184846695737
 21
349.07652891177008
  0
LINE
  8
_0-e_極細4
  6
CONTINUOUS
 62
    6
 10
289.06684846695737
 20
339.1335094271094
 11
302.19184846695737
 21
352.25850942711008
  0
LINE
  8
_0-e_極細4
  6
CONTINUOUS
 62
    6
 10
289.06684846695737
 20
342.31548994245009
 11
302.19184846695737
 21
355.44048994245009
  0
LINE
  8
_0-e_極細4
  6
CONTINUOUS
 62
    6
 10
289.06684846695737
 20
345.49747045778872
 11
302.19184846695737
 21
358.62247045778804
  0
LINE
  8
_0-e_極細4
  6
CONTINUOUS
 62
    6
 10
289.06684846695737
 20
348.67945097312804
 11
302.19184846695737
 21
361.80445097312804
  0
LINE
  8
_0-e_極細4
  6
CONTINUOUS
 62
    6
 10
289.06684846695737
 20
351.86143148846804
 11
302.19184846695737
 21
364.98643148846736
  0
LINE
  8
_0-e_極細4
  6
CONTINUOUS
 62
    6
 10
289.06684846695737
 20
355.04341200380736
 11
302.19184846695737
 21
368.16841200380668
  0
LINE
  8
_0-e_極細4
  6
CONTINUOUS
 62
    6
 10
289.06684846695737
 20
358.22539251914736
 11
302.19184846695737
 21
371.35039251914736
  0
LINE
  8
_0-e_極細4
  6
CONTINUOUS
 62
    6
 10
289.06684846695737
 20
361.407373034486
 11
302.19184846695737
 21
374.532373034486
  0
LINE
  8
_0-e_極細4
  6
CONTINUOUS
 62
    6
 10
289.06684846695737
 20
364.58935354982532
 11
302.19184846695737
 21
377.71435354982532
  0
LINE
  8
_0-e_極細4
  6
CONTINUOUS
 62
    6
 10
289.06684846695737
 20
367.77133406516464
 11
302.19184846695737
 21
380.89633406516532
  0
LINE
  8
_0-e_極細4
  6
CONTINUOUS
 62
    6
 10
289.06684846695737
 20
370.95331458050464
 11
301.12206066923568
 21
383.00852678278261
  0
LINE
  8
_0-e_極細4
  6
CONTINUOUS
 62
    6
 10
289.06684846695737
 20
374.13529509584464
 11
297.94008015389466
 21
383.00852678278261
  0
LINE
  8
_0-e_極細4
  6
CONTINUOUS
 62
    6
 10
289.06684846695737
 20
377.31727561118328
 11
294.75809963855568
 21
383.00852678278261
  0
LINE
  8
_0-e_極細4
  6
CONTINUOUS
 62
    6
 10
289.06684846695737
 20
380.4992561265226
 11
291.57611912321602
 21
383.00852678278261
  0
LINE
  8
_0-e_極細4
  6
CONTINUOUS
 62
    6
 10
289.06684846695737
 20
383.68123664186191
 11
289.22068202206003
 21
383.83507019696731
  0
LINE
  8
_0-e_極細4
  6
CONTINUOUS
 62
    6
 10
321.39499053262637
 20
247.36441139454143
 11
322.83906499717943
 21
248.8084858590945
  0
LINE
  8
_0-e_極細4
  6
CONTINUOUS
 62
    6
 10
319.79055603335541
 20
248.94195741060878
 11
322.88878344273201
 21
252.04018481998571
  0
LINE
  8
_0-e_極細4
  6
CONTINUOUS
 62
    6
 10
319.73839241834935
 20
252.0717743109434
 11
322.93850188828458
 21
255.2718837808776
  0
LINE
  8
_0-e_極細4
  6
CONTINUOUS
 62
    6
 10
319.68622880334499
 20
255.20159121127665
 11
322.98822033383715
 21
258.50358274176949
  0
LINE
  8
_0-e_極細4
  6
CONTINUOUS
 62
    6
 10
319.63406518833892
 20
258.33140811161059
 11
323.03793877938972
 21
261.7352817026607
  0
LINE
  8
_0-e_極細4
  6
CONTINUOUS
 62
    6
 10
319.58190157333286
 20
261.4612250119452
 11
323.08765722494229
 21
264.96698066355259
  0
LINE
  8
_0-e_極細4
  6
CONTINUOUS
 62
    6
 10
319.52973795832679
 20
264.59104191227846
 11
323.13737567049316
 21
268.19867962444448
  0
LINE
  8
_0-e_極細4
  6
CONTINUOUS
 62
    6
 10
319.47757434332073
 20
267.72085881261239
 11
323.18709411604573
 21
271.43037858533569
  0
LINE
  8
_0-e_極細4
  6
CONTINUOUS
 62
    6
 10
303.43914640991181
 20
254.86441139454143
 11
303.6944010129871
 21
255.11966599761774
  0
LINE
  8
_0-e_極細4
  6
CONTINUOUS
 62
    6
 10
319.42541072831602
 20
270.85067571294633
 11
323.2368125615983
 21
274.66207754622758
  0
LINE
  8
_0-e_極細4
  6
CONTINUOUS
 62
    6
 10
300.25716589457318
 20
254.86441139454143
 11
303.72654223031361
 21
258.33378773028392
  0
LINE
  8
_0-e_極細4
  6
CONTINUOUS
 62
    6
 10
319.37324711330996
 20
273.98049261328026
 11
323.28653100714848
 21
277.89377650711947
  0
LINE
  8
_0-e_極細4
  6
CONTINUOUS
 62
    6
 10
299.37997188289785
 20
257.16919789820679
 11
303.75868344764115
 21
261.54790946295009
  0
LINE
  8
_0-e_極細4
  6
CONTINUOUS
 62
    6
 10
319.32108349830389
 20
277.1103095136142
 11
323.33624945270105
 21
281.12547546801068
  0
LINE
  8
_0-e_極細4
  6
CONTINUOUS
 62
    6
 10
299.32986195352225
 20
260.30106848417051
 11
303.79082466496595
 21
264.76203119561626
  0
LINE
  8
_0-e_極細4
  6
CONTINUOUS
 62
    6
 10
319.26891988330021
 20
280.24012641394813
 11
323.38596789825363
 21
284.35717442890257
  0
LINE
  8
_0-e_極細4
  6
CONTINUOUS
 62
    6
 10
299.27975202414802
 20
263.43293907013492
 11
303.82296588229349
 21
267.97615292828243
  0
LINE
  8
_0-e_極細4
  6
CONTINUOUS
 62
    6
 10
319.21675626829415
 20
283.36994331428139
 11
323.4356863438062
 21
287.58887338979446
  0
LINE
  8
_0-e_極細4
  6
CONTINUOUS
 62
    6
 10
299.22964209477209
 20
266.56480965610001
 11
303.85510709962068
 21
271.1902746609486
  0
LINE
  8
_0-e_極細4
  6
CONTINUOUS
 62
    6
 10
319.16459265328808
 20
286.499760214616
 11
323.4854047893574
 21
290.82057235068567
  0
LINE
  8
_0-e_極細4
  6
CONTINUOUS
 62
    6
 10
299.17953216539547
 20
269.69668024206305
 11
303.88724831694719
 21
274.40439639361477
  0
LINE
  8
_0-e_極細4
  6
CONTINUOUS
 62
    6
 10
319.11242903828372
 20
289.62957711494926
 11
323.53512323490997
 21
294.05227131157756
  0
LINE
  8
_0-e_極細4
  6
CONTINUOUS
 62
    6
 10
299.12942223601988
 20
272.82855082802678
 11
303.91938953427473
 21
277.61851812628095
  0
LINE
  8
_0-e_極細4
  6
CONTINUOUS
 62
    6
 10
318.66528280253453
 20
292.36441139454143
 11
322.41528280253453
 21
296.11441139454143
  0
LINE
  8
_0-e_極細4
  6
CONTINUOUS
 62
    6
 10
299.07931230664565
 20
275.96042141399118
 11
303.95153075159953
 21
280.83263985894712
  0
LINE
  8
_0-e_極細4
  6
CONTINUOUS
 62
    6
 10
315.4833022871959
 20
292.36441139454143
 11
319.2333022871959
 21
296.11441139454143
  0
LINE
  8
_0-e_極細4
  6
CONTINUOUS
 62
    6
 10
299.02920237726971
 20
279.09229199995491
 11
303.98367196892707
 21
284.04676159161329
  0
LINE
  8
_0-e_極細4
  6
CONTINUOUS
 62
    6
 10
312.30132177185692
 20
292.36441139454143
 11
316.05132177185692
 21
296.11441139454143
  0
LINE
  8
_0-e_極細4
  6
CONTINUOUS
 62
    6
 10
298.97909244789309
 20
282.22416258591932
 11
304.01581318625426
 21
287.2608833242781
  0
LINE
  8
_0-e_極細4
  6
CONTINUOUS
 62
    6
 10
309.1193412565159
 20
292.36441139454143
 11
312.86934125651726
 21
296.11441139454143
  0
LINE
  8
_0-e_極細4
  6
CONTINUOUS
 62
    6
 10
298.92898251851886
 20
285.35603317188372
 11
304.04795440357941
 21
290.47500505694427
  0
LINE
  8
_0-e_極細4
  6
CONTINUOUS
 62
    6
 10
305.93736074117862
 20
292.36441139454143
 11
309.68736074117862
 21
296.11441139454143
  0
LINE
  8
_0-e_極細4
  6
CONTINUOUS
 62
    6
 10
298.87887258914327
 20
288.48790375784745
 11
306.50538022583726
 21
296.11441139454143
  0
LINE
  8
_0-e_極細4
  6
CONTINUOUS
 62
    6
 10
298.82876265976904
 20
291.61977434381186
 11
303.32339971049862
 21
296.11441139454143
  0
LINE
  8
_0-e_極細4
  6
CONTINUOUS
 62
    6
 10
296.42463378855859
 20
292.39762598794039
 11
300.17463378855859
 21
296.14762598794039
  0
LINE
  8
_0-e_極細4
  6
CONTINUOUS
 62
    6
 10
293.75136915365579
 20
292.90634186837826
 11
297.50136915365579
 21
296.6563418683769
  0
LINE
  8
_0-e_極細4
  6
CONTINUOUS
 62
    6
 10
291.52031063633581
 20
293.8572638663976
 11
295.27031063633581
 21
297.6072638663976
  0
LINE
  8
_0-e_極細4
  6
CONTINUOUS
 62
    6
 10
289.63037473944507
 20
295.14930848484585
 11
293.38037473944507
 21
298.89930848484585
  0
LINE
  8
_0-e_極細4
  6
CONTINUOUS
 62
    6
 10
288.04525673553383
 20
296.74617099627392
 11
291.79525673553383
 21
300.49617099627392
  0
LINE
  8
_0-e_極細4
  6
CONTINUOUS
 62
    6
 10
286.76561681304759
 20
298.648511589127
 11
290.51561681304759
 21
302.398511589127
  0
LINE
  8
_0-e_極細4
  6
CONTINUOUS
 62
    6
 10
285.82951087618187
 20
300.89438616760197
 11
289.57951087618187
 21
304.64438616760197
  0
LINE
  8
_0-e_極細4
  6
CONTINUOUS
 62
    6
 10
285.34194048358825
 20
303.58879629034629
 11
289.09194048358825
 21
307.33879629034698
  0
LINE
  8
_0-e_極細4
  6
CONTINUOUS
 62
    6
 10
285.31684846695737
 20
306.74568478905542
 11
289.06684846695737
 21
310.49568478905542
  0
LINE
  8
_0-e_極細4
  6
CONTINUOUS
 62
    6
 10
285.31684846695737
 20
309.92766530439405
 11
289.06684846695737
 21
313.67766530439405
  0
LINE
  8
_0-e_極細4
  6
CONTINUOUS
 62
    6
 10
285.31684846695737
 20
313.10964581973337
 11
289.06684846695737
 21
316.85964581973337
  0
LINE
  8
_0-e_極細4
  6
CONTINUOUS
 62
    6
 10
285.31684846695737
 20
316.29162633507337
 11
289.06684846695737
 21
320.04162633507269
  0
LINE
  8
_0-e_極細4
  6
CONTINUOUS
 62
    6
 10
285.31684846695737
 20
319.47360685041201
 11
289.06684846695737
 21
323.22360685041201
  0
LINE
  8
_0-e_極細4
  6
CONTINUOUS
 62
    6
 10
285.31684846695737
 20
322.65558736575269
 11
289.06684846695737
 21
326.40558736575269
  0
LINE
  8
_0-e_極細4
  6
CONTINUOUS
 62
    6
 10
285.31684846695737
 20
325.83756788109133
 11
289.06684846695737
 21
329.58756788109133
  0
LINE
  8
_0-e_極細4
  6
CONTINUOUS
 62
    6
 10
285.31684846695737
 20
329.01954839643065
 11
289.06684846695737
 21
332.76954839643065
  0
LINE
  8
_0-e_極細4
  6
CONTINUOUS
 62
    6
 10
285.31684846695737
 20
332.20152891177065
 11
289.06684846695737
 21
335.95152891177008
  0
LINE
  8
_0-e_極細4
  6
CONTINUOUS
 62
    6
 10
285.31684846695737
 20
335.38350942711008
 11
289.06684846695737
 21
339.1335094271094
  0
LINE
  8
_0-e_極細4
  6
CONTINUOUS
 62
    6
 10
285.31684846695737
 20
338.56548994245009
 11
289.06684846695737
 21
342.31548994245009
  0
LINE
  8
_0-e_極細4
  6
CONTINUOUS
 62
    6
 10
285.31684846695737
 20
341.74747045778804
 11
289.06684846695737
 21
345.49747045778872
  0
LINE
  8
_0-e_極細4
  6
CONTINUOUS
 62
    6
 10
285.31684846695737
 20
344.92945097312804
 11
289.06684846695737
 21
348.67945097312804
  0
LINE
  8
_0-e_極細4
  6
CONTINUOUS
 62
    6
 10
285.31684846695737
 20
348.11143148846736
 11
289.06684846695737
 21
351.86143148846804
  0
LINE
  8
_0-e_極細4
  6
CONTINUOUS
 62
    6
 10
285.31684846695737
 20
351.29341200380668
 11
289.06684846695737
 21
355.04341200380736
  0
LINE
  8
_0-e_極細4
  6
CONTINUOUS
 62
    6
 10
285.31684846695737
 20
354.47539251914736
 11
289.06684846695737
 21
358.22539251914736
  0
LINE
  8
_0-e_極細4
  6
CONTINUOUS
 62
    6
 10
285.31684846695737
 20
357.657373034486
 11
289.06684846695737
 21
361.407373034486
  0
LINE
  8
_0-e_極細4
  6
CONTINUOUS
 62
    6
 10
285.31684846695737
 20
360.83935354982532
 11
289.06684846695737
 21
364.58935354982532
  0
LINE
  8
_0-e_極細4
  6
CONTINUOUS
 62
    6
 10
285.31684846695737
 20
364.02133406516532
 11
289.06684846695737
 21
367.77133406516464
  0
LINE
  8
_0-e_極細4
  6
CONTINUOUS
 62
    6
 10
285.31684846695737
 20
367.20331458050464
 11
289.06684846695737
 21
370.95331458050464
  0
LINE
  8
_0-e_極細4
  6
CONTINUOUS
 62
    6
 10
285.31684846695737
 20
370.38529509584464
 11
289.06684846695737
 21
374.13529509584464
  0
LINE
  8
_0-e_極細4
  6
CONTINUOUS
 62
    6
 10
285.31684846695737
 20
373.56727561118328
 11
289.06684846695737
 21
377.31727561118328
  0
LINE
  8
_0-e_極細4
  6
CONTINUOUS
 62
    6
 10
285.31684846695737
 20
376.7492561265226
 11
289.06684846695737
 21
380.4992561265226
  0
LINE
  8
_0-e_極細4
  6
CONTINUOUS
 62
    6
 10
285.31684846695737
 20
379.9312366418626
 11
289.06684846695737
 21
383.68123664186191
  0
LINE
  8
_0-e_極細4
  6
CONTINUOUS
 62
    6
 10
285.31684846695737
 20
383.11321715720192
 11
289.06684846695737
 21
386.86321715720123
  0
LINE
  8
_0-e_極細4
  6
CONTINUOUS
 62
    6
 10
285.31684846695737
 20
386.29519767254192
 11
289.06684846695737
 21
390.04519767254192
  0
LINE
  8
_0-e_極細4
  6
CONTINUOUS
 62
    6
 10
285.31684846695737
 20
389.47717818788124
 11
289.06684846695737
 21
393.22717818788055
  0
LINE
  8
_0-e_極細4
  6
CONTINUOUS
 62
    6
 10
285.31684846695737
 20
392.65915870321987
 11
289.06684846695737
 21
396.40915870321987
  0
LINE
  8
_0-e_極細4
  6
CONTINUOUS
 62
    6
 10
285.31684846695737
 20
395.84113921855987
 11
289.06684846695737
 21
399.59113921855908
  0
LINE
  8
_0-e_極細4
  6
CONTINUOUS
 62
    6
 10
285.31684846695737
 20
399.02311973389908
 11
289.06684846695737
 21
402.77311973389908
  0
LINE
  8
_0-e_極細4
  6
CONTINUOUS
 62
    6
 10
285.31684846695737
 20
402.20510024923908
 11
289.06684846695737
 21
405.95510024923908
  0
LINE
  8
_0-e_極細4
  6
CONTINUOUS
 62
    6
 10
285.31684846695737
 20
405.38708076457772
 11
289.06684846695737
 21
409.13708076457772
  0
LINE
  8
_0-e_極細4
  6
CONTINUOUS
 62
    6
 10
285.31684846695737
 20
408.56906127991704
 11
289.06684846695737
 21
412.31906127991704
  0
LINE
  8
_0-e_極細4
  6
CONTINUOUS
 62
    6
 10
285.31684846695737
 20
411.75104179525704
 11
289.06684846695737
 21
415.50104179525704
  0
LINE
  8
_0-e_極細4
  6
CONTINUOUS
 62
    6
 10
285.31684846695737
 20
414.93302231059636
 11
289.06684846695737
 21
418.68302231059636
  0
LINE
  8
_0-e_極細4
  6
CONTINUOUS
 62
    6
 10
284.92212942210483
 20
417.72028378108382
 11
289.06684846695737
 21
421.86500282593636
  0
LINE
  8
_0-e_極細4
  6
CONTINUOUS
 62
    6
 10
283.82637755041844
 20
419.8065124247388
 11
289.06684846695737
 21
425.04698334127568
  0
LINE
  8
_0-e_極細4
  6
CONTINUOUS
 62
    6
 10
282.22495994756423
 20
421.3870753372222
 11
288.31684846695737
 21
427.47896385661431
  0
LINE
  8
_0-e_極細4
  6
CONTINUOUS
 62
    6
 10
281.56684846695737
 20
423.91094437195363
 11
288.31684846695737
 21
430.66094437195432
  0
LINE
  8
_0-e_極細4
  6
CONTINUOUS
 62
    6
 10
281.56684846695737
 20
427.09292488729363
 11
286.73290226058282
 21
432.25897868092045
  0
LINE
  8
_0-e_極細4
  6
CONTINUOUS
 62
    6
 10
281.56684846695737
 20
430.27490540263364
 11
286.09834846695662
 21
434.80640540263255
  0
LINE
  8
_0-e_極細4
  6
CONTINUOUS
 62
    6
 10
281.56684846695737
 20
433.45688591797295
 11
286.09834846695662
 21
437.98838591797255
  0
LINE
  8
_0-e_極細4
  6
CONTINUOUS
 62
    6
 10
278.74241850819101
 20
433.8144364745466
 11
286.09834846695662
 21
441.17036643331198
  0
LINE
  8
_0-e_極細4
  6
CONTINUOUS
 62
    6
 10
275.71684846695518
 20
433.97084694865146
 11
286.09834846695662
 21
444.35234694865198
  0
LINE
  8
_0-e_極細4
  6
CONTINUOUS
 62
    6
 10
275.71684846695518
 20
437.15282746399157
 11
286.09834846695662
 21
447.53432746399119
  0
LINE
  8
_0-e_極細4
  6
CONTINUOUS
 62
    6
 10
275.71684846695518
 20
440.33480797933021
 11
286.09834846695662
 21
450.71630797932983
  0
LINE
  8
_0-e_極細4
  6
CONTINUOUS
 62
    6
 10
275.71684846695518
 20
443.51678849466941
 11
285.84390735424142
 21
453.64384738195645
  0
LINE
  8
_0-e_極細4
  6
CONTINUOUS
 62
    6
 10
275.71684846695518
 20
446.69876901000941
 11
282.99162304564629
 21
453.9735435886995
  0
LINE
  8
_0-e_極細4
  6
CONTINUOUS
 62
    6
 10
275.71684846695518
 20
449.88074952534885
 11
280.13933873705048
 21
454.30323979544335
  0
LINE
  8
_0-e_極細4
  6
CONTINUOUS
 62
    6
 10
275.71684846695518
 20
453.06273004068885
 11
277.28705442845671
 21
454.63293600218799
  0
LINE
  8
_0-e_極細4
  6
CONTINUOUS
 62
    6
 10
436.03534846695641
 20
453.97523306140272
 11
439.15668993898885
 21
453.97523306140272
  0
LINE
  8
_0-e_極細4
  6
CONTINUOUS
 62
    6
 10
436.03534846695641
 20
454.8752330614027
 11
446.41684846695512
 21
454.8752330614027
  0
LINE
  8
_0-e_極細4
  6
CONTINUOUS
 62
    6
 10
436.03534846695641
 20
455.77523306140245
 11
446.41684846695512
 21
455.77523306140245
  0
LINE
  8
_0-e_極細4
  6
CONTINUOUS
 62
    6
 10
441.72795398630717
 20
456.67523306140379
 11
446.41684846695512
 21
456.67523306140379
  0
LINE
  8
_0-e_極細4
  6
CONTINUOUS
 62
    6
 10
282.97700699492145
 20
453.97523306140272
 11
286.09834846695662
 21
453.97523306140272
  0
LINE
  8
_0-e_極細4
  6
CONTINUOUS
 62
    6
 10
275.71684846695518
 20
454.8752330614027
 11
286.09834846695662
 21
454.8752330614027
  0
LINE
  8
_0-e_極細4
  6
CONTINUOUS
 62
    6
 10
275.71684846695518
 20
455.77523306140245
 11
286.09834846695662
 21
455.77523306140245
  0
LINE
  8
_0-e_極細4
  6
CONTINUOUS
 62
    6
 10
275.71684846695518
 20
456.67523306140379
 11
280.40574294760347
 21
456.67523306140379
  0
ARC
  8
_0-e_極細4
  6
CONTINUOUS
 62
    6
 10
410.56684846695532
 20
426.88756997454755
 40
9
 50
155.11305268293225
 51
179.99999999999983
  0
ARC
  8
_0-e_極細4
  6
CONTINUOUS
 62
    6
 10
410.56684846695532
 20
426.88756997454755
 40
9
 50
55.166292356150521
 51
155.11305268293225
  0
ARC
  8
_0-e_極細4
  6
CONTINUOUS
 62
    6
 10
412.81684846695532
 20
430.82620097454708
 40
4.5
 50
358.07490068720762
 51
50.029499419957205
  0
LINE
  8
_0-e_極細4
  6
CONTINUOUS
 62
    6
 10
402.40258929596507
 20
430.67503247454727
 11
417.31684846695532
 21
430.67503247454727
  0
LINE
  8
_0-e_極細4
  6
CONTINUOUS
 62
    6
 10
417.31684846695532
 20
426.32620097454776
 11
417.31684846695532
 21
430.67503247454727
  0
LINE
  8
_0-e_極細4
  6
CONTINUOUS
 62
    6
 10
416.4330856224575
 20
430.67503247454727
 11
416.4330856224575
 21
433.50441471418083
  0
LINE
  8
_0-e_極細4
  6
CONTINUOUS
 62
    6
 10
415.53308562245763
 20
430.67503247454727
 11
415.53308562245763
 21
434.39333366089591
  0
LINE
  8
_0-e_極細4
  6
CONTINUOUS
 62
    6
 10
414.63308562245743
 20
430.67503247454727
 11
414.63308562245743
 21
434.91662442667371
  0
LINE
  8
_0-e_極細4
  6
CONTINUOUS
 62
    6
 10
413.73308562245859
 20
430.67503247454727
 11
413.73308562245859
 21
435.31223271409476
  0
LINE
  8
_0-e_極細4
  6
CONTINUOUS
 62
    6
 10
412.83308562245873
 20
430.67503247454727
 11
412.83308562245873
 21
435.59757394440965
  0
LINE
  8
_0-e_極細4
  6
CONTINUOUS
 62
    6
 10
411.9330856224575
 20
430.67503247454727
 11
411.9330856224575
 21
435.78326533999905
  0
LINE
  8
_0-e_極細4
  6
CONTINUOUS
 62
    6
 10
411.03308562245763
 20
430.67503247454727
 11
411.03308562245763
 21
435.87548535659357
  0
LINE
  8
_0-e_極細4
  6
CONTINUOUS
 62
    6
 10
410.13308562245743
 20
430.67503247454727
 11
410.13308562245743
 21
435.87711110826126
  0
LINE
  8
_0-e_極細4
  6
CONTINUOUS
 62
    6
 10
409.23308562245859
 20
430.67503247454727
 11
409.23308562245859
 21
435.78819223788582
  0
LINE
  8
_0-e_極細4
  6
CONTINUOUS
 62
    6
 10
408.33308562245634
 20
430.67503247454727
 11
408.33308562245634
 21
435.60595879098253
  0
LINE
  8
_0-e_極細4
  6
CONTINUOUS
 62
    6
 10
407.4330856224575
 20
430.67503247454727
 11
407.4330856224575
 21
435.32436619316309
  0
LINE
  8
_0-e_極細4
  6
CONTINUOUS
 62
    6
 10
406.53308562245763
 20
430.67503247454727
 11
406.53308562245763
 21
434.9329883797235
  0
LINE
  8
_0-e_極細4
  6
CONTINUOUS
 62
    6
 10
405.63308562245743
 20
430.67503247454727
 11
405.63308562245743
 21
434.41471978003506
  0
LINE
  8
_0-e_極細4
  6
CONTINUOUS
 62
    6
 10
404.73308562245859
 20
430.67503247454727
 11
404.73308562245859
 21
433.74083277953002
  0
LINE
  8
_0-e_極細4
  6
CONTINUOUS
 62
    6
 10
403.83308562245634
 20
430.67503247454727
 11
403.83308562245634
 21
432.85887116893207
  0
LINE
  8
_0-e_極細4
  6
CONTINUOUS
 62
    6
 10
402.9330856224575
 20
430.67503247454727
 11
402.9330856224575
 21
431.65471428051922
  0
ARC
  8
_0-e_極細4
  6
CONTINUOUS
 62
    6
 10
309.31684846695737
 20
430.82620097454708
 40
4.5
 50
129.97050058006241
 51
181.92509931279125
  0
LINE
  8
_0-e_極細4
  6
CONTINUOUS
 62
    6
 10
304.81684846695737
 20
426.32620097454776
 11
304.81684846695737
 21
430.67503247454727
  0
ARC
  8
_0-e_極細4
  6
CONTINUOUS
 62
    6
 10
311.56684846695737
 20
426.88756997454755
 40
9
 50
24.886947317074153
 51
124.83370764386019
  0
LINE
  8
_0-e_極細4
  6
CONTINUOUS
 62
    6
 10
319.73110763794523
 20
430.67503247454727
 11
304.81684846695737
 21
430.67503247454727
  0
ARC
  8
_0-e_極細4
  6
CONTINUOUS
 62
    6
 10
311.56684846695737
 20
426.88756997454755
 40
9
 50
0
 51
24.886947317074153
  0
LINE
  8
_0-e_極細4
  6
CONTINUOUS
 62
    6
 10
319.23308562245859
 20
430.67503247454727
 11
319.23308562245859
 21
431.60231364473736
  0
LINE
  8
_0-e_極細4
  6
CONTINUOUS
 62
    6
 10
318.33308562245907
 20
430.67503247454727
 11
318.33308562245907
 21
432.82204844830551
  0
LINE
  8
_0-e_極細4
  6
CONTINUOUS
 62
    6
 10
317.4330856224575
 20
430.67503247454727
 11
317.4330856224575
 21
433.71305615762651
  0
LINE
  8
_0-e_極細4
  6
CONTINUOUS
 62
    6
 10
316.53308562245797
 20
430.67503247454727
 11
316.53308562245797
 21
434.39333366089727
  0
LINE
  8
_0-e_極細4
  6
CONTINUOUS
 62
    6
 10
315.63308562245777
 20
430.67503247454727
 11
315.63308562245777
 21
434.91662442667428
  0
LINE
  8
_0-e_極細4
  6
CONTINUOUS
 62
    6
 10
314.73308562245859
 20
430.67503247454727
 11
314.73308562245859
 21
435.31223271409476
  0
LINE
  8
_0-e_極細4
  6
CONTINUOUS
 62
    6
 10
313.83308562245907
 20
430.67503247454727
 11
313.83308562245907
 21
435.59757394440965
  0
LINE
  8
_0-e_極細4
  6
CONTINUOUS
 62
    6
 10
312.9330856224575
 20
430.67503247454727
 11
312.9330856224575
 21
435.78326533999905
  0
LINE
  8
_0-e_極細4
  6
CONTINUOUS
 62
    6
 10
312.03308562245797
 20
430.67503247454727
 11
312.03308562245797
 21
435.87548535659357
  0
LINE
  8
_0-e_極細4
  6
CONTINUOUS
 62
    6
 10
311.13308562245777
 20
430.67503247454727
 11
311.13308562245777
 21
435.87711110826046
  0
LINE
  8
_0-e_極細4
  6
CONTINUOUS
 62
    6
 10
310.23308562245859
 20
430.67503247454727
 11
310.23308562245859
 21
435.78819223788582
  0
LINE
  8
_0-e_極細4
  6
CONTINUOUS
 62
    6
 10
309.33308562245668
 20
430.67503247454727
 11
309.33308562245668
 21
435.60595879098253
  0
LINE
  8
_0-e_極細4
  6
CONTINUOUS
 62
    6
 10
308.4330856224575
 20
430.67503247454727
 11
308.4330856224575
 21
435.32436619316309
  0
LINE
  8
_0-e_極細4
  6
CONTINUOUS
 62
    6
 10
307.53308562245797
 20
430.67503247454727
 11
307.53308562245797
 21
434.9329883797235
  0
LINE
  8
_0-e_極細4
  6
CONTINUOUS
 62
    6
 10
306.63308562245777
 20
430.67503247454727
 11
306.63308562245777
 21
434.41471978003506
  0
LINE
  8
_0-e_極細4
  6
CONTINUOUS
 62
    6
 10
305.73308562245859
 20
430.67503247454727
 11
305.73308562245859
 21
433.54771597071988
  0
LINE
  8
_0-e_極細4
  6
CONTINUOUS
 62
    6
 10
304.83308562245668
 20
430.67503247454727
 11
304.83308562245668
 21
431.2081312748586
  0
LINE
  8
_0-e_極細4
  6
CONTINUOUS
 62
    6
 10
412.83308562245873
 20
428.12503247454686
 11
412.83308562245873
 21
430.67503247454727
  0
LINE
  8
_0-e_極細4
  6
CONTINUOUS
 62
    6
 10
411.9330856224575
 20
428.12503247454686
 11
411.9330856224575
 21
430.67503247454727
  0
LINE
  8
_0-e_極細4
  6
CONTINUOUS
 62
    6
 10
411.03308562245763
 20
428.12503247454686
 11
411.03308562245763
 21
430.67503247454727
  0
LINE
  8
_0-e_極細4
  6
CONTINUOUS
 62
    6
 10
410.13308562245743
 20
428.12503247454754
 11
410.13308562245743
 21
430.67503247454727
  0
LINE
  8
_0-e_極細4
  6
CONTINUOUS
 62
    6
 10
409.23308562245859
 20
428.12503247454686
 11
409.23308562245859
 21
430.67503247454727
  0
LINE
  8
_0-e_極細4
  6
CONTINUOUS
 62
    6
 10
408.33308562245873
 20
428.12503247454686
 11
408.33308562245873
 21
430.67503247454727
  0
LINE
  8
_0-e_極細4
  6
CONTINUOUS
 62
    6
 10
407.4330856224575
 20
428.12503247454686
 11
407.4330856224575
 21
430.67503247454727
  0
LINE
  8
_0-e_極細4
  6
CONTINUOUS
 62
    6
 10
406.53308562245763
 20
428.12503247454686
 11
406.53308562245763
 21
430.67503247454727
  0
LINE
  8
_0-e_極細4
  6
CONTINUOUS
 62
    6
 10
315.63308562245777
 20
428.12503247454686
 11
315.63308562245777
 21
430.67503247454727
  0
LINE
  8
_0-e_極細4
  6
CONTINUOUS
 62
    6
 10
314.73308562245859
 20
428.12503247454686
 11
314.73308562245859
 21
430.67503247454727
  0
LINE
  8
_0-e_極細4
  6
CONTINUOUS
 62
    6
 10
313.83308562245907
 20
428.12503247454686
 11
313.83308562245907
 21
430.67503247454727
  0
LINE
  8
_0-e_極細4
  6
CONTINUOUS
 62
    6
 10
312.9330856224575
 20
428.12503247454686
 11
312.9330856224575
 21
430.67503247454727
  0
LINE
  8
_0-e_極細4
  6
CONTINUOUS
 62
    6
 10
312.03308562245797
 20
428.12503247454686
 11
312.03308562245797
 21
430.67503247454727
  0
LINE
  8
_0-e_極細4
  6
CONTINUOUS
 62
    6
 10
311.13308562245777
 20
428.12503247454686
 11
311.13308562245777
 21
430.67503247454727
  0
LINE
  8
_0-e_極細4
  6
CONTINUOUS
 62
    6
 10
310.23308562245859
 20
428.12503247454686
 11
310.23308562245859
 21
430.67503247454727
  0
LINE
  8
_0-e_極細4
  6
CONTINUOUS
 62
    6
 10
309.33308562245907
 20
428.12503247454686
 11
309.33308562245907
 21
430.67503247454727
  0
LINE
  8
_0-e_極細4
  6
CONTINUOUS
 62
    6
 10
300.33308562245907
 20
430.82620097454708
 11
300.33308562245907
 21
436.67503247454738
  0
LINE
  8
_0-e_極細4
  6
CONTINUOUS
 62
    6
 10
299.4330856224575
 20
430.82620097454708
 11
299.4330856224575
 21
436.67503247454738
  0
LINE
  8
_0-e_極細4
  6
CONTINUOUS
 62
    6
 10
298.53308562245797
 20
430.82620097454708
 11
298.53308562245797
 21
436.67503247454738
  0
LINE
  8
_0-e_極細4
  6
CONTINUOUS
 62
    6
 10
297.63308562245777
 20
427.67503247454727
 11
297.63308562245777
 21
427.98552316295729
  0
LINE
  8
_0-e_極細4
  6
CONTINUOUS
 62
    6
 10
297.63308562245777
 20
430.82620097454708
 11
297.63308562245777
 21
436.67503247454738
  0
LINE
  8
_0-e_極細4
  6
CONTINUOUS
 62
    6
 10
296.73308562245859
 20
427.67503247454727
 11
296.73308562245859
 21
436.67503247454738
  0
LINE
  8
_0-e_極細4
  6
CONTINUOUS
 62
    6
 10
425.4330856224575
 20
427.67503247454727
 11
425.4330856224575
 21
436.67503247454738
  0
LINE
  8
_0-e_極細4
  6
CONTINUOUS
 62
    6
 10
424.53308562245763
 20
427.67503247454727
 11
424.53308562245763
 21
428.05260146329294
  0
LINE
  8
_0-e_極細4
  6
CONTINUOUS
 62
    6
 10
424.53308562245763
 20
430.82620097454708
 11
424.53308562245763
 21
436.67503247454738
  0
LINE
  8
_0-e_極細4
  6
CONTINUOUS
 62
    6
 10
423.63308562245743
 20
430.82620097454708
 11
423.63308562245743
 21
436.67503247454738
  0
LINE
  8
_0-e_極細4
  6
CONTINUOUS
 62
    6
 10
422.73308562245859
 20
430.82620097454708
 11
422.73308562245859
 21
436.67503247454738
  0
LINE
  8
_0-e_極細4
  6
CONTINUOUS
 62
    6
 10
421.83308562245873
 20
430.82620097454708
 11
421.83308562245873
 21
436.67503247454738
  0
LINE
  8
_0-e_極細4
  6
CONTINUOUS
 62
    6
 10
435.33308562245873
 20
432.19126963004999
 11
435.33308562245873
 21
455.70980263213983
  0
LINE
  8
_0-e_極細4
  6
CONTINUOUS
 62
    6
 10
434.4330856224575
 20
431.29126963005012
 11
434.4330856224575
 21
454.19495450971397
  0
LINE
  8
_0-e_極細4
  6
CONTINUOUS
 62
    6
 10
433.53308562245763
 20
430.67503247454727
 11
433.53308562245763
 21
452.69301407598891
  0
LINE
  8
_0-e_極細4
  6
CONTINUOUS
 62
    6
 10
432.63308562245743
 20
430.67503247454727
 11
432.63308562245743
 21
452.22425320824709
  0
LINE
  8
_0-e_極細4
  6
CONTINUOUS
 62
    6
 10
431.73308562245859
 20
430.67503247454727
 11
431.73308562245859
 21
452.12503247454686
  0
LINE
  8
_0-e_極細4
  6
CONTINUOUS
 62
    6
 10
430.83308562245873
 20
430.67503247454727
 11
430.83308562245873
 21
452.12503247454686
  0
LINE
  8
_0-e_極細4
  6
CONTINUOUS
 62
    6
 10
429.9330856224575
 20
430.67503247454727
 11
429.9330856224575
 21
452.11113563409697
  0
LINE
  8
_0-e_極細4
  6
CONTINUOUS
 62
    6
 10
429.03308562245763
 20
430.67503247454727
 11
429.03308562245763
 21
451.66863426010866
  0
LINE
  8
_0-e_極細4
  6
CONTINUOUS
 62
    6
 10
428.13308562245743
 20
430.67503247454727
 11
428.13308562245743
 21
433.67503247454727
  0
LINE
  8
_0-e_極細4
  6
CONTINUOUS
 62
    6
 10
427.23308562245859
 20
430.67503247454727
 11
427.23308562245859
 21
433.67503247454727
  0
LINE
  8
_0-e_極細4
  6
CONTINUOUS
 62
    6
 10
426.33308562245634
 20
430.67503247454727
 11
426.33308562245634
 21
433.67503247454727
  0
LINE
  8
_0-e_極細4
  6
CONTINUOUS
 62
    6
 10
295.83308562245907
 20
430.67503247454727
 11
295.83308562245907
 21
433.67503247454727
  0
LINE
  8
_0-e_極細4
  6
CONTINUOUS
 62
    6
 10
294.9330856224575
 20
430.67503247454727
 11
294.9330856224575
 21
433.67503247454727
  0
LINE
  8
_0-e_極細4
  6
CONTINUOUS
 62
    6
 10
294.03308562245797
 20
430.67503247454727
 11
294.03308562245797
 21
433.67503247454727
  0
LINE
  8
_0-e_極細4
  6
CONTINUOUS
 62
    6
 10
293.13308562245777
 20
430.67503247454727
 11
293.13308562245777
 21
451.63548295932355
  0
LINE
  8
_0-e_極細4
  6
CONTINUOUS
 62
    6
 10
292.23308562245859
 20
430.67503247454727
 11
292.23308562245859
 21
452.1064481114538
  0
LINE
  8
_0-e_極細4
  6
CONTINUOUS
 62
    6
 10
291.33308562245907
 20
430.67503247454727
 11
291.33308562245907
 21
452.12503247454686
  0
LINE
  8
_0-e_極細4
  6
CONTINUOUS
 62
    6
 10
290.4330856224575
 20
430.67503247454727
 11
290.4330856224575
 21
452.12503247454686
  0
LINE
  8
_0-e_極細4
  6
CONTINUOUS
 62
    6
 10
289.53308562245797
 20
430.67503247454727
 11
289.53308562245797
 21
452.21515151896381
  0
LINE
  8
_0-e_極細4
  6
CONTINUOUS
 62
    6
 10
288.63308562245777
 20
430.67503247454727
 11
288.63308562245777
 21
452.66716146386284
  0
LINE
  8
_0-e_極細4
  6
CONTINUOUS
 62
    6
 10
287.73308562245859
 20
431.25879531904536
 11
287.73308562245859
 21
454.04887141263885
  0
LINE
  8
_0-e_極細4
  6
CONTINUOUS
 62
    6
 10
286.83308562245668
 20
432.15879531904523
 11
286.83308562245668
 21
455.69315354334401
  0
LINE
  8
_0-e_極細4
  6
CONTINUOUS
 62
    6
 10
420.69184846695532
 20
440.47523306140272
 11
426.09184846695518
 21
440.47523306140272
  0
LINE
  8
_0-e_極細4
  6
CONTINUOUS
 62
    6
 10
419.98288405381004
 20
441.3752330614027
 11
426.09184846695518
 21
441.3752330614027
  0
LINE
  8
_0-e_極細4
  6
CONTINUOUS
 62
    6
 10
420.69184846695532
 20
442.27523306140245
 11
426.09184846695518
 21
442.27523306140245
  0
LINE
  8
_0-e_極細4
  6
CONTINUOUS
 62
    6
 10
420.69184846695532
 20
443.17523306140379
 11
426.09184846695518
 21
443.17523306140379
  0
LINE
  8
_0-e_極細4
  6
CONTINUOUS
 62
    6
 10
420.65081288010026
 20
444.07523306140297
 11
426.11373411327781
 21
444.07523306140297
  0
LINE
  8
_0-e_極細4
  6
CONTINUOUS
 62
    6
 10
420.13288405381229
 20
444.97523306140272
 11
426.59373411327738
 21
444.97523306140272
  0
LINE
  8
_0-e_極細4
  6
CONTINUOUS
 62
    6
 10
420.69184846695532
 20
445.8752330614027
 11
427.07373411327933
 21
445.8752330614027
  0
LINE
  8
_0-e_極細4
  6
CONTINUOUS
 62
    6
 10
296.04184846695546
 20
440.47523306140272
 11
301.44184846695737
 21
440.47523306140272
  0
LINE
  8
_0-e_極細4
  6
CONTINUOUS
 62
    6
 10
296.04184846695546
 20
441.3752330614027
 11
302.15081288010026
 21
441.3752330614027
  0
LINE
  8
_0-e_極細4
  6
CONTINUOUS
 62
    6
 10
296.04184846695546
 20
442.27523306140245
 11
301.44184846695737
 21
442.27523306140245
  0
LINE
  8
_0-e_極細4
  6
CONTINUOUS
 62
    6
 10
296.04184846695546
 20
443.17523306140379
 11
301.44184846695737
 21
443.17523306140379
  0
LINE
  8
_0-e_極細4
  6
CONTINUOUS
 62
    6
 10
296.01996282063249
 20
444.07523306140297
 11
301.48288405381038
 21
444.07523306140297
  0
LINE
  8
_0-e_極細4
  6
CONTINUOUS
 62
    6
 10
295.53996282063292
 20
444.97523306140272
 11
302.00081288010074
 21
444.97523306140272
  0
LINE
  8
_0-e_極細4
  6
CONTINUOUS
 62
    6
 10
295.05996282063336
 20
445.8752330614027
 11
301.44184846695737
 21
445.8752330614027
  0
LINE
  8
_0-e_極細4
  6
CENTER2
 62
    6
 10
361.06684846695566
 20
474.9987574529722
 11
361.06684846695566
 21
189.20498095346522
  0
LINE
  8
_0-e_極細4
  6
CONTINUOUS
 62
    6
 10
436.81684846695532
 20
394.0196898164279
 11
436.81684846695532
 21
415.31924597454702
  0
LINE
  8
_0-e_極細4
  6
CONTINUOUS
 62
    6
 10
436.81684846695532
 20
391.06645417667846
 11
436.81684846695532
 21
394.0196898164279
  0
LINE
  8
_0-e_極細4
  6
CONTINUOUS
 62
    6
 10
436.81684846695532
 20
391.06645417667846
 11
436.81684846695532
 21
304.36441139454143
  0
LINE
  8
_0-e_極細4
  6
CONTINUOUS
 62
    6
 10
496.95296158505005
 20
390.30165480580126
 11
462.45296458504868
 21
390.30165480580126
  0
LINE
  8
_0-e_極細4
  6
CONTINUOUS
 62
    6
 10
544.95296308505056
 20
394.80165480580126
 11
462.45296458504868
 21
394.80165480580126
  0
LINE
  8
_0-e_極細4
  6
CONTINUOUS
 62
    6
 10
403.04846458504994
 20
229.80165330580132
 11
403.85183608505008
 21
205.79503530580098
  0
LINE
  8
_0-e_極細4
  6
CONTINUOUS
 62
    6
 10
403.85703358504941
 20
205.79002680580049
 11
406.95255658505141
 21
202.80469530580046
  0
ARC
  8
_0-e_極細4
  6
CONTINUOUS
 62
    6
 10
467.57113408505086
 20
351.80826780580082
 40
4.5
 50
97.104090000022822
 51
178.07877599998847
  0
ARC
  8
_0-e_極細4
  6
CONTINUOUS
 62
    6
 10
479.99568358505041
 20
364.26342180580104
 40
4.5
 50
93.207911999988497
 51
178.07877599998847
  0
LINE
  8
_0-e_極細4
  6
CONTINUOUS
 62
    6
 10
402.49630015285618
 20
246.30165480580115
 11
402.74728408504996
 21
238.80165330580132
  0
LINE
  8
_0-e_極細4
  6
CONTINUOUS
 62
    6
 10
361.06684846695566
 20
246.30165330580132
 11
403.66684846695512
 21
246.30165330580132
  0
LINE
  8
_0-e_極細4
  6
CONTINUOUS
 62
    6
 10
403.85161558505081
 20
205.80165480580115
 11
361.06684846695566
 21
205.80165480580115
  0
LINE
  8
_0-e_極細4
  6
CENTER2
 62
    6
 10
452.01375208504919
 20
364.58266530580113
 11
475.31515708504833
 21
387.88407030580129
  0
ARC
  8
_0-e_極細4
  6
CONTINUOUS
 62
    6
 10
442.95296158505005
 20
386.06520705580101
 40
1.4999985
 50
1.9867301722120954
 51
78.665253000060119
  0
ARC
  8
_0-e_極細4
  6
CONTINUOUS
 62
    6
 10
442.95296158505005
 20
394.53809955580118
 40
1.4999985
 50
281.33474699993951
 51
359.20207238428611
  0
ARC
  8
_0-e_極細4
  6
CONTINUOUS
 62
    6
 10
451.79960608504894
 20
373.80165330580076
 40
4.5
 50
358.07877600000563
 51
4.5382033812329032
  0
LINE
  8
_0-e_極細4
  6
CONTINUOUS
 62
    6
 10
444.45296458504868
 20
394.80165480580126
 11
444.45296458504868
 21
402.3016518058015
  0
LINE
  8
_0-e_極細4
  6
CONTINUOUS
 62
    6
 10
453.45296458504868
 20
385.80165480580126
 11
453.45296458504868
 21
394.80165480580126
  0
LINE
  8
_0-e_極細4
  6
CONTINUOUS
 62
    6
 10
444.45296458504868
 20
378.30165330580076
 11
444.45296458504868
 21
385.80165480580126
  0
LINE
  8
_0-e_極細4
  6
CONTINUOUS
 62
    6
 10
456.28549767416428
 20
374.15771039491483
 11
462.03055689016821
 21
379.90276961092081
  0
ARC
  8
_0-e_極細4
  6
CONTINUOUS
 62
    6
 10
451.79960608504894
 20
373.80165330580076
 40
4.5
 50
4.5382033812332496
 51
89.999999999999915
  0
LINE
  8
_0-e_極細4
  6
CONTINUOUS
 62
    6
 10
443.24777458504991
 20
393.06735555580167
 11
436.81684846695532
 21
391.77827112567616
  0
LINE
  8
_0-e_極細4
  6
CONTINUOUS
 62
    6
 10
436.81684846695532
 20
388.82503548592672
 11
443.24777458504991
 21
387.53595105580121
  0
LINE
  8
_0-e_極細4
  6
CONTINUOUS
 62
    6
 10
450.45296158505005
 20
394.51721055580038
 11
444.45281462774471
 21
394.51721055580038
  0
ARC
  8
_0-e_極細4
  6
CONTINUOUS
 62
    6
 10
450.45296158505005
 20
393.01721055580038
 40
1.5
 50
0
 51
89.999999999999915
  0
LINE
  8
_0-e_極細4
  6
CONTINUOUS
 62
    6
 10
451.95296158505005
 20
387.61720905580137
 11
451.95296158505005
 21
393.01721055580038
  0
LINE
  8
_0-e_極細4
  6
CONTINUOUS
 62
    6
 10
450.45296158505005
 20
386.11720905580137
 11
444.45205841047368
 21
386.11720905580137
  0
ARC
  8
_0-e_極細4
  6
CONTINUOUS
 62
    6
 10
450.45296158505005
 20
387.61720905580137
 40
1.5
 50
269.99999999999977
 51
359.99999999999966
  0
LINE
  8
_0-e_極細4
  6
CONTINUOUS
 62
    6
 10
449.73084582202011
 20
386.11720905580137
 11
451.95296158505005
 21
388.33932481882994
  0
LINE
  8
_0-e_極細4
  6
CONTINUOUS
 62
    6
 10
446.54886530668284
 20
386.11720905580137
 11
451.95296158505005
 21
391.52130533416926
  0
LINE
  8
_0-e_極細4
  6
CONTINUOUS
 62
    6
 10
444.17903032140987
 20
386.92935458586908
 11
451.41649575130998
 21
394.16682001576919
  0
LINE
  8
_0-e_極細4
  6
CONTINUOUS
 62
    6
 10
441.8781821967865
 20
387.81048697658571
 11
448.58490577600219
 21
394.51721055580038
  0
LINE
  8
_0-e_極細4
  6
CONTINUOUS
 62
    6
 10
439.22752757972955
 20
388.34181287486808
 11
445.40292526066389
 21
394.51721055580038
  0
LINE
  8
_0-e_極細4
  6
CONTINUOUS
 62
    6
 10
436.81684846695532
 20
389.11311427743317
 11
440.15017451840924
 21
392.44644032888573
  0
LINE
  8
_0-e_極細4
  6
CONTINUOUS
 62
    6
 10
451.95296158505005
 20
392.29509479277317
 11
449.73084582202114
 21
394.51721055580038
  0
LINE
  8
_0-e_極細4
  6
CONTINUOUS
 62
    6
 10
451.95296158505005
 20
389.11311427743249
 11
446.54886530668284
 21
394.51721055580038
  0
LINE
  8
_0-e_極細4
  6
CONTINUOUS
 62
    6
 10
451.41649575130998
 20
386.46759959583255
 11
444.19177364557311
 21
393.69232170157079
  0
LINE
  8
_0-e_極細4
  6
CONTINUOUS
 62
    6
 10
448.58490577600219
 20
386.11720905580137
 11
441.90409836513061
 21
392.79801646667261
  0
LINE
  8
_0-e_極細4
  6
CONTINUOUS
 62
    6
 10
445.40292526066389
 20
386.11720905580137
 11
439.25344457898848
 21
392.26668973747474
  0
LINE
  8
_0-e_極細4
  6
CONTINUOUS
 62
    6
 10
440.18908612823157
 20
388.14906767289199
 11
436.81684846695532
 21
391.52130533416857
  0
ARC
  8
_0-e_極細4
  6
CONTINUOUS
 62
    6
 10
497.28205855617102
 20
388.02896113183397
 40
2.25
 50
98.208986340380349
 51
166.84965594884267
  0
ARC
  8
_0-e_極細4
  6
CONTINUOUS
 62
    6
 10
496.63952979265434
 20
388.02896113183397
 40
2.25
 50
13.201066202179069
 51
81.791013659507897
  0
ARC
  8
_0-e_極細4
  6
CONTINUOUS
 62
    6
 10
467.78336898476641
 20
381.60720503716448
 40
6
 50
186.34018750594436
 51
273.20790904526655
  0
LINE
  8
_0-e_極細4
  6
CONTINUOUS
 62
    6
 10
495.09106156675659
 20
388.54085193304672
 11
492.90030714734405
 21
379.16397638438229
  0
ARC
  8
_0-e_極細4
  6
CONTINUOUS
 62
    6
 10
489.97897782812083
 20
379.84649745266688
 40
3
 50
273.20790904527672
 51
346.84965594884272
  0
LINE
  8
_0-e_極細4
  6
CONTINUOUS
 62
    6
 10
498.83007276276453
 20
388.5427913529129
 11
500.84933500085992
 21
379.9343434278785
  0
ARC
  8
_0-e_極細4
  6
CONTINUOUS
 62
    6
 10
503.77005896100832
 20
380.61945038931731
 40
3
 50
193.20106620217649
 51
273.20790143445151
  0
LINE
  8
_0-e_極細4
  6
CONTINUOUS
 62
    6
 10
518.13912193963972
 20
370.90831546579307
 11
479.7438635850491
 21
368.75637030580128
  0
LINE
  8
_0-e_極細4
  6
CONTINUOUS
 62
    6
 10
516.57723078281231
 20
378.33254597098107
 11
503.93793654745036
 21
377.6241512196234
  0
LINE
  8
_0-e_極細4
  6
CONTINUOUS
 62
    6
 10
463.07366308505027
 20
351.95913480580225
 11
459.9100640309714
 21
257.64790819371672
  0
ARC
  8
_0-e_極細4
  6
CONTINUOUS
 62
    6
 10
440.42102564195977
 20
258.30165330580132
 40
19.5
 50
269.99999999999977
 51
358.07877661723137
  0
LINE
  8
_0-e_極細4
  6
CONTINUOUS
 62
    6
 10
440.42102478625907
 20
246.30165480580115
 11
362.41680983453455
 21
246.30165480580115
  0
ARC
  8
_0-e_極細4
  6
CONTINUOUS
 62
    6
 10
440.42102478625907
 20
258.30165480580115
 40
12
 50
269.99999999999977
 51
358.07877512360761
  0
LINE
  8
_0-e_極細4
  6
CONTINUOUS
 62
    6
 10
440.42102564195977
 20
238.80165330580132
 11
430.3475411908164
 21
238.80165330580132
  0
ARC
  8
_0-e_極細4
  6
CONTINUOUS
 62
    6
 10
430.3475411908164
 20
231.30165330580132
 40
7.5
 50
89.999999999999915
 51
175.20495867936191
  0
LINE
  8
_0-e_極細4
  6
CONTINUOUS
 62
    6
 10
422.87379046001638
 20
231.92859031528212
 11
420.66109105956696
 21
205.55087850200846
  0
ARC
  8
_0-e_極細4
  6
CONTINUOUS
 62
    6
 10
417.67159076724579
 20
205.80165330580132
 40
3
 50
269.99999999999977
 51
355.20495867935358
  0
LINE
  8
_0-e_極細4
  6
CONTINUOUS
 62
    6
 10
417.67159076724579
 20
202.80165330580132
 11
406.95368608504975
 21
202.80165330580132
  0
LINE
  8
_0-e_極細4
  6
CONTINUOUS
 62
    6
 10
406.04605412783201
 20
229.92388603653137
 11
406.95368608504975
 21
202.80165330580132
  0
LINE
  8
_0-e_極細4
  6
CONTINUOUS
 62
    6
 10
406.95368608504975
 20
202.80165330580132
 11
361.06684846695566
 21
202.80165330580132
  0
LINE
  8
_0-e_極細4
  6
CONTINUOUS
 62
    6
 10
405.45296158505005
 20
229.80165330580132
 11
361.06684846695566
 21
229.80165330580132
  0
ARC
  8
_0-e_極細4
  6
CONTINUOUS
 62
    6
 10
405.45296158505005
 20
231.30165330580132
 40
1.5
 50
269.99999999999977
 51
359.99999999999966
  0
LINE
  8
_0-e_極細4
  6
CONTINUOUS
 62
    6
 10
406.95296158505005
 20
231.30165330580132
 11
406.95296158505005
 21
237.30165330580132
  0
LINE
  8
_0-e_極細4
  6
CONTINUOUS
 62
    6
 10
405.45296158505005
 20
238.80165330580132
 11
361.06684846695566
 21
238.80165330580132
  0
ARC
  8
_0-e_極細4
  6
CONTINUOUS
 62
    6
 10
405.45296158505005
 20
237.30165330580132
 40
1.5
 50
0
 51
89.999999999999915
  0
LINE
  8
_0-e_極細4
  6
CONTINUOUS
 62
    6
 10
456.29707708504952
 20
373.65079080580017
 11
455.94693380469812
 21
363.21254752544974
  0
LINE
  8
_0-e_極細4
  6
CONTINUOUS
 62
    6
 10
455.94693380469812
 20
363.21254752544974
 11
452.4142791690125
 21
257.89934980879332
  0
LINE
  8
_0-e_極細4
  6
CONTINUOUS
 62
    6
 10
455.94693380469812
 20
363.21254752544974
 11
468.36476017610073
 21
375.63037389685132
  0
LINE
  8
_0-e_極細4
  6
CONTINUOUS
 62
    6
 10
490.14685581244032
 20
376.85119830527287
 11
468.36476017610073
 21
375.63037389685132
  0
LINE
  8
_0-e_極細4
  6
CONTINUOUS
 62
    6
 10
468.11912495340437
 20
375.61660674237578
 11
468.36476017610073
 21
375.63037389685132
  0
LINE
  8
_0-e_極細4
  6
CONTINUOUS
 62
    6
 10
471.447461545799
 20
356.82618636322536
 11
467.01461008504941
 21
356.27372130580193
  0
LINE
  8
_0-e_極細4
  6
CONTINUOUS
 62
    6
 10
475.49821258504983
 20
364.41428430580095
 11
475.3884036139267
 21
361.14077366663878
  0
ARC
  8
_0-e_極細4
  6
CONTINUOUS
 62
    6
 10
470.89093328655542
 20
361.29164001281697
 40
4.5
 50
277.10412657672032
 51
358.07874999737572
  0
LINE
  8
_0-e_極細4
  6
CONTINUOUS
 62
    6
 10
419.07482819303709
 20
203.15006421115288
 11
420.32317986189423
 21
204.39841588000934
  0
LINE
  8
_0-e_極細4
  6
CONTINUOUS
 62
    6
 10
415.54443677234724
 20
202.80165330580132
 11
420.87786764717237
 21
208.13508418062713
  0
LINE
  8
_0-e_極細4
  6
CONTINUOUS
 62
    6
 10
412.36245625700553
 20
202.80165330580132
 11
421.16922964849232
 21
211.60842669728675
  0
LINE
  8
_0-e_極細4
  6
CONTINUOUS
 62
    6
 10
452.77536931266854
 20
243.21456636146365
 11
455.50811258629778
 21
245.94730963509221
  0
LINE
  8
_0-e_極細4
  6
CONTINUOUS
 62
    6
 10
409.18047574166724
 20
202.80165330580132
 11
421.46059164981364
 21
215.08176921394704
  0
LINE
  8
_0-e_極細4
  6
CONTINUOUS
 62
    6
 10
445.99371094700814
 20
239.61488851114257
 11
459.10779043661989
 21
252.72896800075262
  0
LINE
  8
_0-e_極細4
  6
CONTINUOUS
 62
    6
 10
406.92275615519668
 20
203.72591423466872
 11
421.75195365113393
 21
218.55511173060665
  0
LINE
  8
_0-e_極細4
  6
CONTINUOUS
 62
    6
 10
442.0681875148
 20
238.87134559427307
 11
459.85133335348632
 21
256.65449143296144
  0
LINE
  8
_0-e_極細4
  6
CONTINUOUS
 62
    6
 10
406.81972079504862
 20
206.80485938986237
 11
422.04331565245388
 21
222.02845424726695
  0
LINE
  8
_0-e_極細4
  6
CONTINUOUS
 62
    6
 10
438.81651471098826
 20
238.80165330580132
 11
459.98806428978401
 21
259.97320288459639
  0
LINE
  8
_0-e_極細4
  6
CONTINUOUS
 62
    6
 10
406.71668543490398
 20
209.88380454505602
 11
422.3346776537752
 21
225.50179676392725
  0
LINE
  8
_0-e_極細4
  6
CONTINUOUS
 62
    6
 10
435.63453419564996
 20
238.80165330580132
 11
443.5495241962202
 21
246.71664330637293
  0
LINE
  8
_0-e_極細4
  6
CONTINUOUS
 62
    6
 10
452.00603628568729
 20
255.17315539584035
 11
460.09850611716013
 21
263.26562522731149
  0
LINE
  8
_0-e_極細4
  6
CONTINUOUS
 62
    6
 10
406.61365007475831
 20
212.96274970024967
 11
422.6260396550955
 21
228.97513928058686
  0
LINE
  8
_0-e_極細4
  6
CONTINUOUS
 62
    6
 10
432.45255368030826
 20
238.80165330580132
 11
439.95255518030876
 21
246.30165480580047
  0
LINE
  8
_0-e_極細4
  6
CONTINUOUS
 62
    6
 10
452.44426835858997
 20
258.79336798408065
 11
460.20894794453284
 21
266.55804757002591
  0
LINE
  8
_0-e_極細4
  6
CONTINUOUS
 62
    6
 10
406.51061471461128
 20
216.04169485544264
 11
422.9391365265144
 21
232.47021666734679
  0
LINE
  8
_0-e_極細4
  6
CONTINUOUS
 62
    6
 10
429.17897782927196
 20
238.71005797010332
 11
436.77057466497047
 21
246.30165480580047
  0
LINE
  8
_0-e_極細4
  6
CONTINUOUS
 62
    6
 10
452.55471027487204
 20
262.08579041570272
 11
460.31938977190896
 21
269.85046991274032
  0
LINE
  8
_0-e_極細4
  6
CONTINUOUS
 62
    6
 10
406.40757935446561
 20
219.12064001063629
 11
433.58859414962876
 21
246.30165480580047
  0
LINE
  8
_0-e_極細4
  6
CONTINUOUS
 62
    6
 10
452.66515219115411
 20
265.37821284732547
 11
460.42983159928406
 21
273.14289225545542
  0
LINE
  8
_0-e_極細4
  6
CONTINUOUS
 62
    6
 10
406.30454399431858
 20
222.19958516582926
 11
430.40661363429047
 21
246.30165480580047
  0
LINE
  8
_0-e_極細4
  6
CONTINUOUS
 62
    6
 10
452.7755941074372
 20
268.67063527894754
 11
460.54027342665881
 21
276.43531459816984
  0
LINE
  8
_0-e_極細4
  6
CONTINUOUS
 62
    6
 10
406.20150863417291
 20
225.27853032102291
 11
427.22463311895115
 21
246.30165480580047
  0
LINE
  8
_0-e_極細4
  6
CONTINUOUS
 62
    6
 10
452.88603602371927
 20
271.96305771057098
 11
460.65071525403494
 21
279.72773694088426
  0
LINE
  8
_0-e_極細4
  6
CONTINUOUS
 62
    6
 10
406.0984732740269
 20
228.35747547621656
 11
424.04265260361149
 21
246.30165480580047
  0
LINE
  8
_0-e_極細4
  6
CONTINUOUS
 62
    6
 10
452.99647794000373
 20
275.25548014219237
 11
460.76115708141003
 21
283.02015928359867
  0
LINE
  8
_0-e_極細4
  6
CONTINUOUS
 62
    6
 10
406.95296158505005
 20
232.39394430257801
 11
420.86067208827319
 21
246.30165480580115
  0
LINE
  8
_0-e_極細4
  6
CONTINUOUS
 62
    6
 10
453.1069198562858
 20
278.54790257381512
 11
460.87159890878479
 21
286.31258162631377
  0
LINE
  8
_0-e_極細4
  6
CONTINUOUS
 62
    6
 10
406.95296158505005
 20
235.57592481791801
 11
417.67869157293148
 21
246.30165480580115
  0
LINE
  8
_0-e_極細4
  6
CONTINUOUS
 62
    6
 10
453.21736177256992
 20
281.84032500543719
 11
460.98204073616091
 21
289.60500396902887
  0
LINE
  8
_0-e_極細4
  6
CONTINUOUS
 62
    6
 10
554.17869007293336
 20
382.80165330580076
 11
556.39981157678608
 21
385.02277480965517
  0
LINE
  8
_0-e_極細4
  6
CONTINUOUS
 62
    6
 10
406.53527016559235
 20
238.34021391379895
 11
414.49671105759319
 21
246.30165480580115
  0
LINE
  8
_0-e_極細4
  6
CONTINUOUS
 62
    6
 10
453.32780368885199
 20
285.13274743705995
 11
461.09248256353601
 21
292.89742631174329
  0
LINE
  8
_0-e_極細4
  6
CONTINUOUS
 62
    6
 10
550.9967095575937
 20
382.80165330580076
 11
555.76536747739954
 21
387.57031122560693
  0
LINE
  8
_0-e_極細4
  6
CONTINUOUS
 62
    6
 10
403.81472904225541
 20
238.80165330580132
 11
411.31473054225387
 21
246.30165480580115
  0
LINE
  8
_0-e_極細4
  6
CONTINUOUS
 62
    6
 10
453.43824560513508
 20
288.42516986868202
 11
461.20292439091077
 21
296.18984865445771
  0
LINE
  8
_0-e_極細4
  6
CONTINUOUS
 62
    6
 10
547.81472904225541
 20
382.80165330580076
 11
555.13092337801265
 21
390.117847641558
  0
LINE
  8
_0-e_極細4
  6
CONTINUOUS
 62
    6
 10
402.67881350749701
 20
240.84771828638361
 11
408.13275002691421
 21
246.30165480580115
  0
LINE
  8
_0-e_極細4
  6
CONTINUOUS
 62
    6
 10
453.54868752141715
 20
291.71759230030477
 11
461.31336621828689
 21
299.4822709971728
  0
LINE
  8
_0-e_極細4
  6
CONTINUOUS
 62
    6
 10
544.6327485269137
 20
382.80165330580076
 11
554.49647927862372
 21
392.66538405751112
  0
LINE
  8
_0-e_極細4
  6
CONTINUOUS
 62
    6
 10
402.57577809491738
 20
243.92666338914398
 11
404.95076951157591
 21
246.30165480580115
  0
LINE
  8
_0-e_極細4
  6
CONTINUOUS
 62
    6
 10
453.65912943770161
 20
295.01001473192821
 11
461.42380804566199
 21
302.77469333988722
  0
LINE
  8
_0-e_極細4
  6
CONTINUOUS
 62
    6
 10
541.45076801157541
 20
382.80165330580076
 11
553.45076951157591
 21
394.80165480580126
  0
LINE
  8
_0-e_極細4
  6
CONTINUOUS
 62
    6
 10
453.76957135398368
 20
298.3024371635496
 11
461.53424987303572
 21
306.067115682603
  0
LINE
  8
_0-e_極細4
  6
CONTINUOUS
 62
    6
 10
537.31432516182917
 20
381.84719097139555
 11
550.26878899623421
 21
394.80165480580126
  0
LINE
  8
_0-e_極細4
  6
CONTINUOUS
 62
    6
 10
453.8800132702678
 20
301.59485959517235
 11
461.64469170041286
 21
309.35953802531742
  0
LINE
  8
_0-e_極細4
  6
CONTINUOUS
 62
    6
 10
529.90627570942581
 20
377.62112203433117
 11
543.33359032851752
 21
391.04843665342287
  0
LINE
  8
_0-e_極細4
  6
CONTINUOUS
 62
    6
 10
544.95296308505056
 20
392.66780940995523
 11
547.08680848089591
 21
394.80165480580126
  0
LINE
  8
_0-e_極細4
  6
CONTINUOUS
 62
    6
 10
453.99045518654987
 20
304.88728202679442
 11
461.75513352778557
 21
312.65196036803184
  0
LINE
  8
_0-e_極細4
  6
CONTINUOUS
 62
    6
 10
522.49822625702348
 20
373.39505309726746
 11
537.2698174185831
 21
388.16664425882709
  0
LINE
  8
_0-e_極細4
  6
CONTINUOUS
 62
    6
 10
454.10089710283194
 20
308.1797044584165
 11
461.8655753551617
 21
315.94438271074625
  0
LINE
  8
_0-e_極細4
  6
CONTINUOUS
 62
    6
 10
516.75174984746684
 20
370.83055720304947
 11
531.20604450864664
 21
385.28485186423063
  0
LINE
  8
_0-e_極細4
  6
CONTINUOUS
 62
    6
 10
454.21133901911503
 20
311.47212689003925
 11
461.97601718253679
 21
319.23680505346067
  0
LINE
  8
_0-e_極細4
  6
CONTINUOUS
 62
    6
 10
513.38083938087277
 20
370.64162725179608
 11
525.14227159870984
 21
382.40305946963417
  0
LINE
  8
_0-e_極細4
  6
CONTINUOUS
 62
    6
 10
454.3217809353971
 20
314.76454932166132
 11
462.08645900991155
 21
322.52922739617509
  0
LINE
  8
_0-e_極細4
  6
CONTINUOUS
 62
    6
 10
510.00992891427973
 20
370.45269730054338
 11
519.07849868877543
 21
379.52126707503908
  0
LINE
  8
_0-e_極細4
  6
CONTINUOUS
 62
    6
 10
454.43222285168156
 20
318.05697175328407
 11
462.19690083728767
 21
325.82164973889019
  0
LINE
  8
_0-e_極細4
  6
CONTINUOUS
 62
    6
 10
506.63901844768566
 20
370.26376734928863
 11
514.59679981955799
 21
378.22154872116062
  0
LINE
  8
_0-e_極細4
  6
CONTINUOUS
 62
    6
 10
454.54266476796568
 20
321.34939418490615
 11
462.30734266466277
 21
329.1140720816046
  0
LINE
  8
_0-e_極細4
  6
CONTINUOUS
 62
    6
 10
503.26810798109159
 20
370.07483739803524
 11
511.22588985267043
 21
378.03261926961204
  0
LINE
  8
_0-e_極細4
  6
CONTINUOUS
 62
    6
 10
454.65310668424775
 20
324.64181661652958
 11
462.41778449203753
 21
332.40649442431902
  0
LINE
  8
_0-e_極細4
  6
CONTINUOUS
 62
    6
 10
499.89719751449991
 20
369.88590744678186
 11
507.85497988578186
 21
377.84368981806415
  0
LINE
  8
_0-e_極細4
  6
CONTINUOUS
 62
    6
 10
454.76354860052982
 20
327.93423904815097
 11
462.52822631941365
 21
335.69891676703355
  0
LINE
  8
_0-e_極細4
  6
CONTINUOUS
 62
    6
 10
496.52628704790789
 20
369.69697749552779
 11
504.48406991889567
 21
377.65476036651694
  0
LINE
  8
_0-e_極細4
  6
CONTINUOUS
 62
    6
 10
454.87399051681291
 20
331.22666147977372
 11
462.63866814678875
 21
338.99133910974865
  0
LINE
  8
_0-e_極細4
  6
CONTINUOUS
 62
    6
 10
493.15537658131382
 20
369.50804754427372
 11
501.91168779295242
 21
378.26435875591233
  0
LINE
  8
_0-e_極細4
  6
CONTINUOUS
 62
    6
 10
454.98443243309498
 20
334.51908391139659
 11
462.7491099741635
 21
342.28376145246375
  0
LINE
  8
_0-e_極細4
  6
CONTINUOUS
 62
    6
 10
489.78446611472077
 20
369.31911759302034
 11
500.76390293504903
 21
380.29855441334894
  0
LINE
  8
_0-e_極細4
  6
CONTINUOUS
 62
    6
 10
455.09487434937944
 20
337.81150634301866
 11
462.85955180153962
 21
345.57618379517817
  0
LINE
  8
_0-e_極細4
  6
CONTINUOUS
 62
    6
 10
486.4135556481267
 20
369.13018764176763
 11
500.15932744340023
 21
382.87595943703946
  0
LINE
  8
_0-e_極細4
  6
CONTINUOUS
 62
    6
 10
455.20531626566355
 20
341.10392877464074
 11
462.96999362891233
 21
348.86860613789258
  0
LINE
  8
_0-e_極細4
  6
CONTINUOUS
 62
    6
 10
470.85355561239942
 20
356.75216812137728
 11
475.39347954564857
 21
361.2920920546278
  0
LINE
  8
_0-e_極細4
  6
CONTINUOUS
 62
    6
 10
483.04264518153263
 20
368.94125769051288
 11
491.21380209285269
 21
377.11241460183123
  0
LINE
  8
_0-e_極細4
  6
CONTINUOUS
 62
    6
 10
492.71306067895819
 20
378.61167318793673
 11
499.55475195175109
 21
385.45336446072997
  0
LINE
  8
_0-e_極細4
  6
CONTINUOUS
 62
    6
 10
455.31575818194563
 20
344.39635120626349
 11
463.08537306391247
 21
352.1659660882317
  0
LINE
  8
_0-e_極細4
  6
CONTINUOUS
 62
    6
 10
467.2185453231981
 20
356.29913834751665
 11
475.5074043249557
 21
364.58799734927493
  0
LINE
  8
_0-e_極細4
  6
CONTINUOUS
 62
    6
 10
479.67110804157585
 20
368.75170106589439
 11
487.62951552939251
 21
376.71010855370969
  0
LINE
  8
_0-e_極細4
  6
CONTINUOUS
 62
    6
 10
493.7590719976904
 20
382.8396650220086
 11
498.95017646010331
 21
388.03076948442049
  0
LINE
  8
_0-e_極細4
  6
CONTINUOUS
 62
    6
 10
455.4262000982277
 20
347.68877363788692
 11
484.2586050866563
 21
376.52117862631553
  0
LINE
  8
_0-e_極細4
  6
CONTINUOUS
 62
    6
 10
494.72912771357403
 20
386.99170125323121
 11
497.7328788453766
 21
389.99545238503379
  0
LINE
  8
_0-e_極細4
  6
CONTINUOUS
 62
    6
 10
455.53664201451079
 20
350.98119606950831
 11
480.88769464392112
 21
376.33224869891933
  0
LINE
  8
_0-e_極細4
  6
CONTINUOUS
 62
    6
 10
455.64708393079286
 20
354.27361850113107
 11
477.51678420118731
 21
376.14331877152381
  0
LINE
  8
_0-e_極細4
  6
CONTINUOUS
 62
    6
 10
455.75752584707732
 20
357.56604093275314
 11
474.14587375845315
 21
375.95438884412965
  0
LINE
  8
_0-e_極細4
  6
CONTINUOUS
 62
    6
 10
455.86796776335939
 20
360.85846336437521
 11
470.77496331571695
 21
375.76545891673345
  0
LINE
  8
_0-e_極細4
  6
CONTINUOUS
 62
    6
 10
459.59532550962626
 20
400.96729898459046
 11
461.82006652769326
 21
380.94461632200796
  0
ARC
  8
_0-e_極細4
  6
CONTINUOUS
 62
    6
 10
458.10449989535823
 20
400.8016518058015
 40
1.5
 50
6.3401875059393173
 51
89.999999999999915
  0
LINE
  8
_0-e_極細4
  6
CONTINUOUS
 62
    6
 10
456.087839220663
 20
375.16585877955436
 11
461.82485277342107
 21
380.90287233231174
  0
LINE
  8
_0-e_極細4
  6
CONTINUOUS
 62
    6
 10
454.84999517383926
 20
377.1099952480713
 11
461.50652168996442
 21
383.76652176419543
  0
LINE
  8
_0-e_極細4
  6
CONTINUOUS
 62
    6
 10
452.75671142143415
 20
378.19869201100482
 11
461.18832383151732
 21
386.63030442108629
  0
LINE
  8
_0-e_極細4
  6
CONTINUOUS
 62
    6
 10
449.67769220089247
 20
378.30165330580076
 11
460.87012597307023
 21
389.49408707797852
  0
LINE
  8
_0-e_極細4
  6
CONTINUOUS
 62
    6
 10
446.49571168555281
 20
378.30165330580076
 11
460.55192811462109
 21
392.35786973486938
  0
LINE
  8
_0-e_極細4
  6
CONTINUOUS
 62
    6
 10
444.45296458504868
 20
379.44088672063867
 11
450.81373267021297
 21
385.80165480580126
  0
LINE
  8
_0-e_極細4
  6
CONTINUOUS
 62
    6
 10
453.45296458504868
 20
388.44088672063867
 11
460.233730256174
 21
395.22165239176161
  0
LINE
  8
_0-e_極細4
  6
CONTINUOUS
 62
    6
 10
444.45296458504868
 20
382.62286723597799
 11
447.63175215487331
 21
385.80165480580126
  0
LINE
  8
_0-e_極細4
  6
CONTINUOUS
 62
    6
 10
453.45296458504868
 20
391.62286723597799
 11
459.91553239772452
 21
398.08543504865304
  0
LINE
  8
_0-e_極細4
  6
CONTINUOUS
 62
    6
 10
453.44977163953502
 20
394.80165480580126
 11
459.59733453927743
 21
400.94921770554527
  0
LINE
  8
_0-e_極細4
  6
CONTINUOUS
 62
    6
 10
450.26779112419331
 20
394.80165480580126
 11
457.76778812419468
 21
402.3016518058015
  0
LINE
  8
_0-e_極細4
  6
CONTINUOUS
 62
    6
 10
447.08581060885501
 20
394.80165480580126
 11
454.58580760885502
 21
402.3016518058015
  0
LINE
  8
_0-e_極細4
  6
CONTINUOUS
 62
    6
 10
444.45296458504868
 20
395.35078929733595
 11
451.40382709351672
 21
402.3016518058015
  0
LINE
  8
_0-e_極細4
  6
CONTINUOUS
 62
    6
 10
444.45296458504868
 20
398.53276981267516
 11
448.22184657817502
 21
402.3016518058015
  0
LINE
  8
_0-e_極細4
  6
CONTINUOUS
 62
    6
 10
444.45296458504868
 20
401.71475032801447
 11
445.03986606283672
 21
402.3016518058015
  0
LINE
  8
_0-e_極細4
  6
CONTINUOUS
 62
    6
 10
458.10449989535823
 20
402.3016518058015
 11
436.81684846695532
 21
402.3016518058015
  0
LINE
  8
_0-e_極細4
  6
CONTINUOUS
 62
    6
 10
453.45296458504868
 20
394.80165480580126
 11
436.81684846695532
 21
394.80165480580126
  0
LINE
  8
_0-e_極細4
  6
CONTINUOUS
 62
    6
 10
453.45296458504868
 20
385.80165480580126
 11
436.81684846695532
 21
385.80165480580126
  0
LINE
  8
_0-e_極細4
  6
CONTINUOUS
 62
    6
 10
451.79960608504894
 20
378.30165330580076
 11
436.81684846695532
 21
378.30165330580076
  0
LINE
  8
_0-e_極細4
  6
CONTINUOUS
 62
    6
 10
225.18073534886264
 20
390.30165480580126
 11
259.68073234886162
 21
390.30165480580126
  0
LINE
  8
_0-e_極細4
  6
CONTINUOUS
 62
    6
 10
177.18073384886213
 20
394.80165480580126
 11
259.68073234886162
 21
394.80165480580126
  0
LINE
  8
_0-e_極細4
  6
CONTINUOUS
 62
    6
 10
319.08523234886036
 20
229.80165330580132
 11
318.28186084886022
 21
205.79503530580098
  0
LINE
  8
_0-e_極細4
  6
CONTINUOUS
 62
    6
 10
318.27666334886158
 20
205.79002680580049
 11
315.18114034886162
 21
202.80469530580046
  0
ARC
  8
_0-e_極細4
  6
CONTINUOUS
 62
    6
 10
254.56256284886217
 20
351.80826780580082
 40
4.5
 50
1.9212240000117005
 51
82.895910000024571
  0
ARC
  8
_0-e_極細4
  6
CONTINUOUS
 62
    6
 10
242.13801334886261
 20
364.26342180580104
 40
4.5
 50
1.9212240000117005
 51
86.792088000011518
  0
LINE
  8
_0-e_極細4
  6
CONTINUOUS
 62
    6
 10
319.63739678105651
 20
246.30165480580115
 11
319.38641284886273
 21
238.80165330580132
  0
LINE
  8
_0-e_極細4
  6
CONTINUOUS
 62
    6
 10
318.28208134886222
 20
205.80165480580115
 11
361.06684846695566
 21
205.80165480580115
  0
LINE
  8
_0-e_極細4
  6
CENTER2
 62
    6
 10
270.11994484886111
 20
364.58266530580113
 11
246.81853984886095
 21
387.88407030580129
  0
ARC
  8
_0-e_極細4
  6
CONTINUOUS
 62
    6
 10
279.18073534886264
 20
386.06520705580101
 40
1.4999985
 50
101.33474700002931
 51
178.01326982779108
  0
ARC
  8
_0-e_極細4
  6
CONTINUOUS
 62
    6
 10
279.18073534886264
 20
394.53809955580118
 40
1.4999985
 50
180.79792761571227
 51
258.66525299997033
  0
ARC
  8
_0-e_極細4
  6
CONTINUOUS
 62
    6
 10
270.33409084886136
 20
373.80165330580076
 40
4.5
 50
175.46179661876641
 51
181.92122399999397
  0
LINE
  8
_0-e_極細4
  6
CONTINUOUS
 62
    6
 10
277.68073234886162
 20
394.80165480580126
 11
277.68073234886162
 21
402.3016518058015
  0
LINE
  8
_0-e_極細4
  6
CONTINUOUS
 62
    6
 10
268.68073234886162
 20
385.80165480580126
 11
268.68073234886162
 21
394.80165480580126
  0
LINE
  8
_0-e_極細4
  6
CONTINUOUS
 62
    6
 10
277.68073234886162
 20
378.30165330580076
 11
277.68073234886162
 21
385.80165480580126
  0
LINE
  8
_0-e_極細4
  6
CONTINUOUS
 62
    6
 10
265.84819925974875
 20
374.15771039491483
 11
260.10314004374243
 21
379.90276961092081
  0
ARC
  8
_0-e_極細4
  6
CONTINUOUS
 62
    6
 10
270.33409084886136
 20
373.80165330580076
 40
4.5
 50
89.999999999999915
 51
175.46179661876641
  0
LINE
  8
_0-e_極細4
  6
CONTINUOUS
 62
    6
 10
278.88592234886039
 20
393.06735555580167
 11
285.31684846695566
 21
391.77827112567616
  0
LINE
  8
_0-e_極細4
  6
CONTINUOUS
 62
    6
 10
285.31684846695566
 20
388.82503548592672
 11
278.88592234886039
 21
387.53595105580121
  0
LINE
  8
_0-e_極細4
  6
CONTINUOUS
 62
    6
 10
271.68073534886264
 20
394.51721055580038
 11
277.68088230616627
 21
394.51721055580038
  0
ARC
  8
_0-e_極細4
  6
CONTINUOUS
 62
    6
 10
271.68073534886264
 20
393.01721055580038
 40
1.5
 50
89.999999999999915
 51
179.99999999999983
  0
LINE
  8
_0-e_極細4
  6
CONTINUOUS
 62
    6
 10
270.18073534886264
 20
387.61720905580137
 11
270.18073534886264
 21
393.01721055580038
  0
LINE
  8
_0-e_極細4
  6
CONTINUOUS
 62
    6
 10
271.68073534886264
 20
386.11720905580137
 11
277.68163852343662
 21
386.11720905580137
  0
ARC
  8
_0-e_極細4
  6
CONTINUOUS
 62
    6
 10
271.68073534886264
 20
387.61720905580137
 40
1.5
 50
179.99999999999983
 51
269.99999999999977
  0
LINE
  8
_0-e_極細4
  6
CONTINUOUS
 62
    6
 10
272.40285111188916
 20
386.11720905580137
 11
270.18073534886264
 21
388.33932481882994
  0
LINE
  8
_0-e_極細4
  6
CONTINUOUS
 62
    6
 10
275.58483162723019
 20
386.11720905580137
 11
270.18073534886264
 21
391.52130533416926
  0
LINE
  8
_0-e_極細4
  6
CONTINUOUS
 62
    6
 10
277.95466661250077
 20
386.92935458586908
 11
270.71720118260066
 21
394.16682001576919
  0
LINE
  8
_0-e_極細4
  6
CONTINUOUS
 62
    6
 10
280.25551473712414
 20
387.81048697658571
 11
273.54879115790811
 21
394.51721055580038
  0
LINE
  8
_0-e_極細4
  6
CONTINUOUS
 62
    6
 10
282.90616935418143
 20
388.34181287486808
 11
276.73077167324914
 21
394.51721055580038
  0
LINE
  8
_0-e_極細4
  6
CONTINUOUS
 62
    6
 10
285.31684846695566
 20
389.11311427743317
 11
281.9835224155014
 21
392.44644032888573
  0
LINE
  8
_0-e_極細4
  6
CONTINUOUS
 62
    6
 10
270.18073534886264
 20
392.29509479277317
 11
272.40285111188916
 21
394.51721055580038
  0
LINE
  8
_0-e_極細4
  6
CONTINUOUS
 62
    6
 10
270.18073534886264
 20
389.11311427743249
 11
275.58483162723019
 21
394.51721055580038
  0
LINE
  8
_0-e_極細4
  6
CONTINUOUS
 62
    6
 10
270.71720118260066
 20
386.46759959583255
 11
277.94192328833753
 21
393.69232170157079
  0
LINE
  8
_0-e_極細4
  6
CONTINUOUS
 62
    6
 10
273.54879115790811
 20
386.11720905580137
 11
280.22959856878037
 21
392.79801646667261
  0
LINE
  8
_0-e_極細4
  6
CONTINUOUS
 62
    6
 10
276.73077167324914
 20
386.11720905580137
 11
282.8802523549208
 21
392.26668973747474
  0
LINE
  8
_0-e_極細4
  6
CONTINUOUS
 62
    6
 10
281.94461080567874
 20
388.14906767289199
 11
285.31684846695566
 21
391.52130533416857
  0
ARC
  8
_0-e_極細4
  6
CONTINUOUS
 62
    6
 10
224.85163837773928
 20
388.02896113183397
 40
2.25
 50
13.150344051143488
 51
81.791013659550885
  0
ARC
  8
_0-e_極細4
  6
CONTINUOUS
 62
    6
 10
225.4941671412563
 20
388.02896113183397
 40
2.25
 50
98.20898634043192
 51
166.79893379782291
  0
ARC
  8
_0-e_極細4
  6
CONTINUOUS
 62
    6
 10
254.35032794914389
 20
381.60720503716448
 40
6
 50
266.79209095473925
 51
353.6598124940553
  0
LINE
  8
_0-e_極細4
  6
CONTINUOUS
 62
    6
 10
227.04263536715609
 20
388.54085193304672
 11
229.23338978656659
 21
379.16397638438229
  0
ARC
  8
_0-e_極細4
  6
CONTINUOUS
 62
    6
 10
232.15471910578947
 20
379.84649745266688
 40
3
 50
193.15034405115807
 51
266.79209095472902
  0
LINE
  8
_0-e_極細4
  6
CONTINUOUS
 62
    6
 10
223.30362417114577
 20
388.5427913529129
 11
221.28436193305072
 21
379.9343434278785
  0
ARC
  8
_0-e_極細4
  6
CONTINUOUS
 62
    6
 10
218.36363797290198
 20
380.61945038931731
 40
3
 50
266.79209856554775
 51
346.79893379782425
  0
LINE
  8
_0-e_極細4
  6
CONTINUOUS
 62
    6
 10
183.14625562583763
 20
382.80165330580076
 11
203.99457499427092
 21
370.90831546579307
  0
LINE
  8
_0-e_極細4
  6
CONTINUOUS
 62
    6
 10
203.99457499427092
 20
370.90831546579307
 11
242.38983334886154
 21
368.75637030580128
  0
LINE
  8
_0-e_極細4
  6
CONTINUOUS
 62
    6
 10
165.18073234886162
 20
382.80165330580076
 11
183.14625562583763
 21
382.80165330580076
  0
LINE
  8
_0-e_極細4
  6
CONTINUOUS
 62
    6
 10
165.18073234886162
 20
382.80165330580076
 11
168.16923924385458
 21
394.80165480580126
  0
LINE
  8
_0-e_極細4
  6
CONTINUOUS
 62
    6
 10
168.16923924385458
 20
394.80165480580126
 11
177.18073384886213
 21
394.80165480580126
  0
LINE
  8
_0-e_極細4
  6
CONTINUOUS
 62
    6
 10
177.18073384886213
 20
391.81803936828533
 11
177.18073384886213
 21
394.80165480580126
  0
LINE
  8
_0-e_極細4
  6
CONTINUOUS
 62
    6
 10
177.18073384886213
 20
391.81803936828533
 11
205.55646615109868
 21
378.33254597098107
  0
LINE
  8
_0-e_極細4
  6
CONTINUOUS
 62
    6
 10
205.55646615109868
 20
378.33254597098107
 11
218.19576038645994
 21
377.6241512196234
  0
LINE
  8
_0-e_極細4
  6
CONTINUOUS
 62
    6
 10
259.06003384886037
 20
351.95913480580225
 11
262.2236329029389
 21
257.64790819371672
  0
ARC
  8
_0-e_極細4
  6
CONTINUOUS
 62
    6
 10
281.71267129195087
 20
258.30165330580132
 40
19.5
 50
181.92122338276789
 51
269.99999999999977
  0
LINE
  8
_0-e_極細4
  6
CONTINUOUS
 62
    6
 10
281.71267214765123
 20
246.30165480580115
 11
359.71688709937609
 21
246.30165480580115
  0
ARC
  8
_0-e_極細4
  6
CONTINUOUS
 62
    6
 10
281.71267214765123
 20
258.30165480580115
 40
12
 50
181.92122487639207
 51
269.99999999999977
  0
LINE
  8
_0-e_極細4
  6
CONTINUOUS
 62
    6
 10
281.71267129195087
 20
238.80165330580132
 11
291.7861557430939
 21
238.80165330580132
  0
ARC
  8
_0-e_極細4
  6
CONTINUOUS
 62
    6
 10
291.7861557430939
 20
231.30165330580132
 40
7.5
 50
4.7950413206381022
 51
89.999999999999915
  0
LINE
  8
_0-e_極細4
  6
CONTINUOUS
 62
    6
 10
299.25990647389392
 20
231.92859031528212
 11
301.47260587434369
 21
205.55087850200846
  0
ARC
  8
_0-e_極細4
  6
CONTINUOUS
 62
    6
 10
304.46210616666451
 20
205.80165330580132
 40
3
 50
184.79504132064628
 51
269.99999999999977
  0
LINE
  8
_0-e_極細4
  6
CONTINUOUS
 62
    6
 10
304.46210616666451
 20
202.80165330580132
 11
315.18001084886123
 21
202.80165330580132
  0
LINE
  8
_0-e_極細4
  6
CONTINUOUS
 62
    6
 10
316.08764280608068
 20
229.92388603653137
 11
315.18001084886123
 21
202.80165330580132
  0
LINE
  8
_0-e_極細4
  6
CONTINUOUS
 62
    6
 10
315.18001084886123
 20
202.80165330580132
 11
361.06684846695566
 21
202.80165330580132
  0
LINE
  8
_0-e_極細4
  6
CONTINUOUS
 62
    6
 10
316.68073534886264
 20
229.80165330580132
 11
361.06684846695566
 21
229.80165330580132
  0
ARC
  8
_0-e_極細4
  6
CONTINUOUS
 62
    6
 10
316.68073534886264
 20
231.30165330580132
 40
1.5
 50
179.99999999999983
 51
269.99999999999977
  0
LINE
  8
_0-e_極細4
  6
CONTINUOUS
 62
    6
 10
315.18073534886264
 20
231.30165330580132
 11
315.18073534886264
 21
237.30165330580132
  0
LINE
  8
_0-e_極細4
  6
CONTINUOUS
 62
    6
 10
316.68073534886264
 20
238.80165330580132
 11
361.06684846695566
 21
238.80165330580132
  0
ARC
  8
_0-e_極細4
  6
CONTINUOUS
 62
    6
 10
316.68073534886264
 20
237.30165330580132
 40
1.5
 50
89.999999999999915
 51
179.99999999999983
  0
LINE
  8
_0-e_極細4
  6
CONTINUOUS
 62
    6
 10
265.83661984886078
 20
373.65079080580017
 11
266.18676312921218
 21
363.21254752544974
  0
LINE
  8
_0-e_極細4
  6
CONTINUOUS
 62
    6
 10
266.18676312921218
 20
363.21254752544974
 11
269.71941776490053
 21
257.89934980879332
  0
LINE
  8
_0-e_極細4
  6
CONTINUOUS
 62
    6
 10
266.18676312921218
 20
363.21254752544974
 11
253.76893675781025
 21
375.63037389685132
  0
LINE
  8
_0-e_極細4
  6
CONTINUOUS
 62
    6
 10
231.98684112147032
 20
376.85119830527287
 11
253.76893675781025
 21
375.63037389685132
  0
LINE
  8
_0-e_極細4
  6
CONTINUOUS
 62
    6
 10
254.01457198050662
 20
375.61660674237578
 11
253.76893675781025
 21
375.63037389685132
  0
LINE
  8
_0-e_極細4
  6
CONTINUOUS
 62
    6
 10
250.68623538811164
 20
356.82618636322536
 11
255.11908684886123
 21
356.27372130580193
  0
LINE
  8
_0-e_極細4
  6
CONTINUOUS
 62
    6
 10
246.63548434886081
 20
364.41428430580095
 11
246.74529331998394
 21
361.14077366663878
  0
ARC
  8
_0-e_極細4
  6
CONTINUOUS
 62
    6
 10
251.24276364735726
 20
361.29164001281697
 40
4.5
 50
181.92125000262268
 51
262.89587342325314
  0
LINE
  8
_0-e_極細4
  6
CONTINUOUS
 62
    6
 10
303.05886874087321
 20
203.15006421115288
 11
301.81051707201607
 21
204.39841588000934
  0
LINE
  8
_0-e_極細4
  6
CONTINUOUS
 62
    6
 10
306.5892601615634
 20
202.80165330580132
 11
301.25582928674032
 21
208.13508418062713
  0
LINE
  8
_0-e_極細4
  6
CONTINUOUS
 62
    6
 10
309.77124067690477
 20
202.80165330580132
 11
300.96446728541798
 21
211.60842669728675
  0
LINE
  8
_0-e_極細4
  6
CONTINUOUS
 62
    6
 10
269.35832762124176
 20
243.21456636146365
 11
266.62558434761252
 21
245.94730963509221
  0
LINE
  8
_0-e_極細4
  6
CONTINUOUS
 62
    6
 10
312.9532211922434
 20
202.80165330580132
 11
300.67310528409701
 21
215.08176921394704
  0
LINE
  8
_0-e_極細4
  6
CONTINUOUS
 62
    6
 10
276.13998598690216
 20
239.61488851114257
 11
263.02590649729314
 21
252.72896800075262
  0
LINE
  8
_0-e_極細4
  6
CONTINUOUS
 62
    6
 10
315.21094077871396
 20
203.72591423466872
 11
300.38174328277876
 21
218.55511173060665
  0
LINE
  8
_0-e_極細4
  6
CONTINUOUS
 62
    6
 10
280.0655094191103
 20
238.87134559427307
 11
262.28236358042398
 21
256.65449143296144
  0
LINE
  8
_0-e_極細4
  6
CONTINUOUS
 62
    6
 10
315.31397613886168
 20
206.80485938986237
 11
300.09038128145642
 21
222.02845424726695
  0
LINE
  8
_0-e_極細4
  6
CONTINUOUS
 62
    6
 10
283.31718222292204
 20
238.80165330580132
 11
262.14563264412629
 21
259.97320288459639
  0
LINE
  8
_0-e_極細4
  6
CONTINUOUS
 62
    6
 10
315.41701149900666
 20
209.88380454505602
 11
299.79901928013544
 21
225.50179676392725
  0
LINE
  8
_0-e_極細4
  6
CONTINUOUS
 62
    6
 10
286.49916273826307
 20
238.80165330580132
 11
278.58417273769078
 21
246.71664330637293
  0
LINE
  8
_0-e_極細4
  6
CONTINUOUS
 62
    6
 10
270.12766064822301
 20
255.17315539584035
 11
262.03519081675051
 21
263.26562522731149
  0
LINE
  8
_0-e_極細4
  6
CONTINUOUS
 62
    6
 10
315.52004685915438
 20
212.96274970024967
 11
299.50765727881549
 21
228.97513928058686
  0
LINE
  8
_0-e_極細4
  6
CONTINUOUS
 62
    6
 10
289.68114325360204
 20
238.80165330580132
 11
282.18114175360154
 21
246.30165480580047
  0
LINE
  8
_0-e_極細4
  6
CONTINUOUS
 62
    6
 10
269.68942857532306
 20
258.79336798408065
 11
261.92474898937746
 21
266.55804757002591
  0
LINE
  8
_0-e_極細4
  6
CONTINUOUS
 62
    6
 10
315.62308221929936
 20
216.04169485544264
 11
299.1945604073959
 21
232.47021666734679
  0
LINE
  8
_0-e_極細4
  6
CONTINUOUS
 62
    6
 10
292.95471910463868
 20
238.71005797010332
 11
285.36312226894017
 21
246.30165480580047
  0
LINE
  8
_0-e_極細4
  6
CONTINUOUS
 62
    6
 10
269.57898665903861
 20
262.08579041570272
 11
261.81430716200168
 21
269.85046991274032
  0
LINE
  8
_0-e_極細4
  6
CONTINUOUS
 62
    6
 10
315.72611757944537
 20
219.12064001063629
 11
288.54510278428154
 21
246.30165480580047
  0
LINE
  8
_0-e_極細4
  6
CONTINUOUS
 62
    6
 10
269.46854474275654
 20
265.37821284732547
 11
261.70386533462693
 21
273.14289225545542
  0
LINE
  8
_0-e_極細4
  6
CONTINUOUS
 62
    6
 10
315.8291529395907
 20
222.19958516582926
 11
291.72708329962018
 21
246.30165480580047
  0
LINE
  8
_0-e_極細4
  6
CONTINUOUS
 62
    6
 10
269.3581028264731
 20
268.67063527894754
 11
261.59342350725149
 21
276.43531459816984
  0
LINE
  8
_0-e_極細4
  6
CONTINUOUS
 62
    6
 10
315.93218829973807
 20
225.27853032102291
 11
294.90906381495984
 21
246.30165480580047
  0
LINE
  8
_0-e_極細4
  6
CONTINUOUS
 62
    6
 10
269.24766091019103
 20
271.96305771057098
 11
261.48298167987571
 21
279.72773694088426
  0
LINE
  8
_0-e_極細4
  6
CONTINUOUS
 62
    6
 10
316.0352236598834
 20
228.35747547621656
 11
298.09104433029881
 21
246.30165480580047
  0
LINE
  8
_0-e_極細4
  6
CONTINUOUS
 62
    6
 10
269.13721899390725
 20
275.25548014219237
 11
261.37253985250095
 21
283.02015928359867
  0
LINE
  8
_0-e_極細4
  6
CONTINUOUS
 62
    6
 10
315.18073534886264
 20
232.39394430257801
 11
301.27302484563745
 21
246.30165480580115
  0
LINE
  8
_0-e_極細4
  6
CONTINUOUS
 62
    6
 10
269.02677707762518
 20
278.54790257381512
 11
261.26209802512551
 21
286.31258162631377
  0
LINE
  8
_0-e_極細4
  6
CONTINUOUS
 62
    6
 10
315.18073534886264
 20
235.57592481791801
 11
304.45500536097882
 21
246.30165480580115
  0
LINE
  8
_0-e_極細4
  6
CONTINUOUS
 62
    6
 10
268.91633516134073
 20
281.84032500543719
 11
261.15165619774973
 21
289.60500396902887
  0
LINE
  8
_0-e_極細4
  6
CONTINUOUS
 62
    6
 10
167.95500686097762
 20
382.80165330580076
 11
165.73388535712422
 21
385.02277480965517
  0
LINE
  8
_0-e_極細4
  6
CONTINUOUS
 62
    6
 10
315.59842676832034
 20
238.34021391379895
 11
307.63698587631745
 21
246.30165480580115
  0
LINE
  8
_0-e_極細4
  6
CONTINUOUS
 62
    6
 10
268.80589324505866
 20
285.13274743705995
 11
261.04121437037497
 21
292.89742631174329
  0
LINE
  8
_0-e_極細4
  6
CONTINUOUS
 62
    6
 10
171.1369873763166
 20
382.80165330580076
 11
166.36832945651145
 21
387.57031122560693
  0
LINE
  8
_0-e_極細4
  6
CONTINUOUS
 62
    6
 10
318.31896789165762
 20
238.80165330580132
 11
310.81896639165711
 21
246.30165480580115
  0
LINE
  8
_0-e_極細4
  6
CONTINUOUS
 62
    6
 10
268.69545132877522
 20
288.42516986868202
 11
260.93077254299953
 21
296.18984865445771
  0
LINE
  8
_0-e_極細4
  6
CONTINUOUS
 62
    6
 10
174.31896789165762
 20
382.80165330580076
 11
167.00277355589799
 21
390.117847641558
  0
LINE
  8
_0-e_極細4
  6
CONTINUOUS
 62
    6
 10
319.45488342641397
 20
240.84771828638361
 11
314.00094690699609
 21
246.30165480580115
  0
LINE
  8
_0-e_極細4
  6
CONTINUOUS
 62
    6
 10
268.58500941249315
 20
291.71759230030477
 11
260.82033071562375
 21
299.4822709971728
  0
LINE
  8
_0-e_極細4
  6
CONTINUOUS
 62
    6
 10
177.5009484069966
 20
382.80165330580076
 11
167.63721765528692
 21
392.66538405751112
  0
LINE
  8
_0-e_極細4
  6
CONTINUOUS
 62
    6
 10
319.5579188389936
 20
243.92666338914398
 11
317.18292742233712
 21
246.30165480580115
  0
LINE
  8
_0-e_極細4
  6
CONTINUOUS
 62
    6
 10
268.47456749621108
 20
295.01001473192821
 11
260.7098888882507
 21
302.77469333988722
  0
LINE
  8
_0-e_極細4
  6
CONTINUOUS
 62
    6
 10
180.68292892233524
 20
382.80165330580076
 11
168.68292742233473
 21
394.80165480580126
  0
LINE
  8
_0-e_極細4
  6
CONTINUOUS
 62
    6
 10
268.3641255799273
 20
298.3024371635496
 11
260.59944706087356
 21
306.067115682603
  0
LINE
  8
_0-e_極細4
  6
CONTINUOUS
 62
    6
 10
184.81937177208113
 20
381.84719097139555
 11
171.86490793767609
 21
394.80165480580126
  0
LINE
  8
_0-e_極細4
  6
CONTINUOUS
 62
    6
 10
268.25368366364285
 20
301.59485959517235
 11
260.48900523350017
 21
309.35953802531742
  0
LINE
  8
_0-e_極細4
  6
CONTINUOUS
 62
    6
 10
192.22742122448483
 20
377.62112203433117
 11
178.80010660539176
 21
391.04843665342287
  0
LINE
  8
_0-e_極細4
  6
CONTINUOUS
 62
    6
 10
177.18073384886213
 20
392.66780940995523
 11
175.04688845301473
 21
394.80165480580126
  0
LINE
  8
_0-e_極細4
  6
CONTINUOUS
 62
    6
 10
268.14324174736078
 20
304.88728202679442
 11
260.37856340612473
 21
312.65196036803184
  0
LINE
  8
_0-e_極細4
  6
CONTINUOUS
 62
    6
 10
199.63547067688717
 20
373.39505309726746
 11
184.86387951532754
 21
388.16664425882709
  0
LINE
  8
_0-e_極細4
  6
CONTINUOUS
 62
    6
 10
268.03279983107734
 20
308.1797044584165
 11
260.26812157874895
 21
315.94438271074625
  0
LINE
  8
_0-e_極細4
  6
CONTINUOUS
 62
    6
 10
205.3819470864438
 20
370.83055720304947
 11
190.92765242526434
 21
385.28485186423063
  0
LINE
  8
_0-e_極細4
  6
CONTINUOUS
 62
    6
 10
267.92235791479527
 20
311.47212689003925
 11
260.15767975137419
 21
319.23680505346067
  0
LINE
  8
_0-e_極細4
  6
CONTINUOUS
 62
    6
 10
208.75285755303787
 20
370.64162725179608
 11
196.99142533520046
 21
382.40305946963417
  0
LINE
  8
_0-e_極細4
  6
CONTINUOUS
 62
    6
 10
267.8119159985132
 20
314.76454932166132
 11
260.04723792399875
 21
322.52922739617509
  0
LINE
  8
_0-e_極細4
  6
CONTINUOUS
 62
    6
 10
212.12376801963057
 20
370.45269730054338
 11
203.05519824513487
 21
379.52126707503908
  0
LINE
  8
_0-e_極細4
  6
CONTINUOUS
 62
    6
 10
267.70147408222942
 20
318.05697175328407
 11
259.93679609662297
 21
325.82164973889019
  0
LINE
  8
_0-e_極細4
  6
CONTINUOUS
 62
    6
 10
215.49467848622464
 20
370.26376734928863
 11
207.53689711435266
 21
378.22154872116062
  0
LINE
  8
_0-e_極細4
  6
CONTINUOUS
 62
    6
 10
267.59103216594735
 20
321.34939418490615
 11
259.82635426924821
 21
329.1140720816046
  0
LINE
  8
_0-e_極細4
  6
CONTINUOUS
 62
    6
 10
218.86558895281871
 20
370.07483739803524
 11
210.90780708123987
 21
378.03261926961204
  0
LINE
  8
_0-e_極細4
  6
CONTINUOUS
 62
    6
 10
267.4805902496629
 20
324.64181661652958
 11
259.71591244187277
 21
332.40649442431902
  0
LINE
  8
_0-e_極細4
  6
CONTINUOUS
 62
    6
 10
222.23649941941107
 20
369.88590744678186
 11
214.27871704812844
 21
377.84368981806415
  0
LINE
  8
_0-e_極細4
  6
CONTINUOUS
 62
    6
 10
267.37014833338083
 20
327.93423904815097
 11
259.60547061449699
 21
335.69891676703355
  0
LINE
  8
_0-e_極細4
  6
CONTINUOUS
 62
    6
 10
225.60740988600514
 20
369.69697749552779
 11
217.64962701501702
 21
377.65476036651694
  0
LINE
  8
_0-e_極細4
  6
CONTINUOUS
 62
    6
 10
267.25970641709739
 20
331.22666147977372
 11
259.49502878712394
 21
338.99133910974865
  0
LINE
  8
_0-e_極細4
  6
CONTINUOUS
 62
    6
 10
228.97832035259682
 20
369.50804754427372
 11
220.22200914095822
 21
378.26435875591233
  0
LINE
  8
_0-e_極細4
  6
CONTINUOUS
 62
    6
 10
267.14926450081532
 20
334.51908391139659
 11
259.3845869597468
 21
342.28376145246375
  0
LINE
  8
_0-e_極細4
  6
CONTINUOUS
 62
    6
 10
232.34923081918953
 20
369.31911759302034
 11
221.36979399886161
 21
380.29855441334894
  0
LINE
  8
_0-e_極細4
  6
CONTINUOUS
 62
    6
 10
267.03882258453325
 20
337.81150634301866
 11
259.27414513237102
 21
345.57618379517817
  0
LINE
  8
_0-e_極細4
  6
CONTINUOUS
 62
    6
 10
235.7201412857836
 20
369.13018764176763
 11
221.97436949051075
 21
382.87595943703946
  0
LINE
  8
_0-e_極細4
  6
CONTINUOUS
 62
    6
 10
266.92838066824947
 20
341.10392877464074
 11
259.16370330499797
 21
348.86860613789258
  0
LINE
  8
_0-e_極細4
  6
CONTINUOUS
 62
    6
 10
251.28014132151122
 20
356.75216812137728
 11
246.74021738826207
 21
361.2920920546278
  0
LINE
  8
_0-e_極細4
  6
CONTINUOUS
 62
    6
 10
239.09105175237767
 20
368.94125769051288
 11
230.91989484105829
 21
377.11241460183123
  0
LINE
  8
_0-e_極細4
  6
CONTINUOUS
 62
    6
 10
229.4206362549545
 20
378.61167318793673
 11
222.57894498215921
 21
385.45336446072997
  0
LINE
  8
_0-e_極細4
  6
CONTINUOUS
 62
    6
 10
266.81793875196502
 20
344.39635120626349
 11
259.04832386999681
 21
352.1659660882317
  0
LINE
  8
_0-e_極細4
  6
CONTINUOUS
 62
    6
 10
254.91515161071288
 20
356.29913834751665
 11
246.62629260895358
 21
364.58799734927493
  0
LINE
  8
_0-e_極細4
  6
CONTINUOUS
 62
    6
 10
242.46258889233479
 20
368.75170106589439
 11
234.50418140451814
 21
376.71010855370969
  0
LINE
  8
_0-e_極細4
  6
CONTINUOUS
 62
    6
 10
228.3746249362199
 20
382.8396650220086
 11
223.18352047380733
 21
388.03076948442049
  0
LINE
  8
_0-e_極細4
  6
CONTINUOUS
 62
    6
 10
266.70749683568295
 20
347.68877363788692
 11
237.87509184725434
 21
376.52117862631553
  0
LINE
  8
_0-e_極細4
  6
CONTINUOUS
 62
    6
 10
227.40456922033866
 20
386.99170125323121
 11
224.40081808853404
 21
389.99545238503379
  0
LINE
  8
_0-e_極細4
  6
CONTINUOUS
 62
    6
 10
266.59705491939951
 20
350.98119606950831
 11
241.24600228998918
 21
376.33224869891933
  0
LINE
  8
_0-e_極細4
  6
CONTINUOUS
 62
    6
 10
266.48661300311744
 20
354.27361850113107
 11
244.61691273272368
 21
376.14331877152381
  0
LINE
  8
_0-e_極細4
  6
CONTINUOUS
 62
    6
 10
266.37617108683537
 20
357.56604093275314
 11
247.98782317545749
 21
375.95438884412965
  0
LINE
  8
_0-e_極細4
  6
CONTINUOUS
 62
    6
 10
266.26572917055159
 20
360.85846336437521
 11
251.3587336181937
 21
375.76545891673345
  0
LINE
  8
_0-e_極細4
  6
CONTINUOUS
 62
    6
 10
262.53837142428404
 20
400.96729898459046
 11
260.31363040621738
 21
380.94461632200796
  0
ARC
  8
_0-e_極細4
  6
CONTINUOUS
 62
    6
 10
264.02919703855207
 20
400.8016518058015
 40
1.5
 50
89.999999999999915
 51
173.65981249406067
  0
LINE
  8
_0-e_極細4
  6
CONTINUOUS
 62
    6
 10
266.0458577132473
 20
375.16585877955436
 11
260.30884416048923
 21
380.90287233231174
  0
LINE
  8
_0-e_極細4
  6
CONTINUOUS
 62
    6
 10
267.28370176007104
 20
377.1099952480713
 11
260.62717524394623
 21
383.76652176419543
  0
LINE
  8
_0-e_極細4
  6
CONTINUOUS
 62
    6
 10
269.37698551247615
 20
378.19869201100482
 11
260.94537310239332
 21
386.63030442108629
  0
LINE
  8
_0-e_極細4
  6
CONTINUOUS
 62
    6
 10
272.45600473302022
 20
378.30165330580076
 11
261.2635709608428
 21
389.49408707797852
  0
LINE
  8
_0-e_極細4
  6
CONTINUOUS
 62
    6
 10
275.6379852483575
 20
378.30165330580076
 11
261.58176881928989
 21
392.35786973486938
  0
LINE
  8
_0-e_極細4
  6
CONTINUOUS
 62
    6
 10
277.68073234886162
 20
379.44088672063867
 11
271.31996426369801
 21
385.80165480580126
  0
LINE
  8
_0-e_極細4
  6
CONTINUOUS
 62
    6
 10
268.68073234886162
 20
388.44088672063867
 11
261.89996667773869
 21
395.22165239176161
  0
LINE
  8
_0-e_極細4
  6
CONTINUOUS
 62
    6
 10
277.68073234886162
 20
382.62286723597799
 11
274.50194477903699
 21
385.80165480580126
  0
LINE
  8
_0-e_極細4
  6
CONTINUOUS
 62
    6
 10
268.68073234886162
 20
391.62286723597799
 11
262.21816453618578
 21
398.08543504865304
  0
LINE
  8
_0-e_極細4
  6
CONTINUOUS
 62
    6
 10
268.68392529437801
 20
394.80165480580126
 11
262.53636239463287
 21
400.94921770554527
  0
LINE
  8
_0-e_極細4
  6
CONTINUOUS
 62
    6
 10
271.86590580971699
 20
394.80165480580126
 11
264.3659088097163
 21
402.3016518058015
  0
LINE
  8
_0-e_極細4
  6
CONTINUOUS
 62
    6
 10
275.04788632505563
 20
394.80165480580126
 11
267.54788932505528
 21
402.3016518058015
  0
LINE
  8
_0-e_極細4
  6
CONTINUOUS
 62
    6
 10
277.68073234886162
 20
395.35078929733595
 11
270.72986984039392
 21
402.3016518058015
  0
LINE
  8
_0-e_極細4
  6
CONTINUOUS
 62
    6
 10
277.68073234886162
 20
398.53276981267516
 11
273.91185035573528
 21
402.3016518058015
  0
LINE
  8
_0-e_極細4
  6
CONTINUOUS
 62
    6
 10
277.68073234886162
 20
401.71475032801447
 11
277.09383087107392
 21
402.3016518058015
  0
LINE
  8
_0-e_極細4
  6
CONTINUOUS
 62
    6
 10
264.02919703855207
 20
402.3016518058015
 11
285.31684846695566
 21
402.3016518058015
  0
LINE
  8
_0-e_極細4
  6
CONTINUOUS
 62
    6
 10
268.68073234886162
 20
394.80165480580126
 11
285.31684846695566
 21
394.80165480580126
  0
LINE
  8
_0-e_極細4
  6
CONTINUOUS
 62
    6
 10
268.68073234886162
 20
385.80165480580126
 11
285.31684846695566
 21
385.80165480580126
  0
LINE
  8
_0-e_極細4
  6
CONTINUOUS
 62
    6
 10
270.33409084886136
 20
378.30165330580076
 11
285.31684846695566
 21
378.30165330580076
  0
LINE
  8
_1-1_寸法4
  6
CONTINUOUS
 62
    7
 10
330.68351370099128
 20
383.67913789463091
 11
322.19823232675265
 21
375.19385652039239
  0
LINE
  8
_1-1_寸法4
  6
CONTINUOUS
 62
    7
 10
330.68351370099128
 20
383.67913789463091
 11
319.09240378552238
 21
380.5733093534007
  0
LINE
  8
_1-1_寸法4
  6
CONTINUOUS
 62
    7
 10
330.68351370099128
 20
383.67913789463091
 11
217.3496297009425
 21
318.24578945889709
  0
LINE
  8
_1-1_寸法4
  6
CONTINUOUS
 62
    7
 10
217.3496297009425
 20
318.24578945889709
 11
102.14962970094257
 21
318.24578945889778
  0
TEXT
  8
_1-1_寸法4
 62
    7
 10
102.14962970094257
 20
318.24578945889709
 40
18
 41
0.7999999999999994
 50
0
  1
防臭インナー１号
  0
LINE
  8
_1-1_寸法4
  6
CONTINUOUS
 62
    7
 10
293.83981924581042
 20
324.81459711392779
 11
285.35453787157178
 21
316.32931573968926
  0
LINE
  8
_1-1_寸法4
  6
CONTINUOUS
 62
    7
 10
293.83981924581042
 20
324.81459711392779
 11
282.24870933034151
 21
321.70876857269752
  0
LINE
  8
_1-1_寸法4
  6
CONTINUOUS
 62
    7
 10
293.83981924581042
 20
324.81459711392779
 11
217.3496297009425
 21
280.65296558983403
  0
LINE
  8
_1-1_寸法4
  6
CONTINUOUS
 62
    7
 10
217.3496297009425
 20
280.65296558983403
 11
87.749629700942535
 21
280.65296558983403
  0
TEXT
  8
_1-1_寸法4
 62
    7
 10
87.749629700942535
 20
280.65296558983403
 40
18
 41
0.7999999999999994
 50
0
  1
縦引きトラップ本体
  0
LINE
  8
_1-1_寸法4
  6
CONTINUOUS
 62
    7
 10
312.90061131145205
 20
405.61959695660187
 11
304.41532993721341
 21
397.13431558236334
  0
LINE
  8
_1-1_寸法4
  6
CONTINUOUS
 62
    7
 10
312.90061131145205
 20
405.61959695660187
 11
301.30950139598315
 21
402.5137684153716
  0
LINE
  8
_1-1_寸法4
  6
CONTINUOUS
 62
    7
 10
312.90061131145205
 20
405.61959695660187
 11
217.3496297009425
 21
350.45321200244166
  0
LINE
  8
_1-1_寸法4
  6
CONTINUOUS
 62
    7
 10
217.3496297009425
 20
350.45321200244166
 11
102.14962970094257
 21
350.45321200244166
  0
TEXT
  8
_1-1_寸法4
 62
    7
 10
102.14962970094257
 20
350.45321200244166
 40
18
 41
0.7999999999999994
 50
0
  1
防臭インナー２号
  0
LINE
  8
_1-1_寸法4
  6
CONTINUOUS
 62
    7
 10
326.55761059054998
 20
452.17359175232821
 11
315.87973308667517
 21
457.64925901872095
  0
LINE
  8
_1-1_寸法4
  6
CONTINUOUS
 62
    7
 10
326.55761059054998
 20
452.17359175232821
 11
320.04813104689237
 21
462.25459745963252
  0
LINE
  8
_1-1_寸法4
  6
CONTINUOUS
 62
    7
 10
326.55761059054998
 20
452.17359175232821
 11
303.3078041631253
 21
473.21752737855138
  0
LINE
  8
_1-1_寸法4
  6
CONTINUOUS
 62
    7
 10
303.3078041631253
 20
473.21752737855138
 11
216.90780416312526
 21
473.21752737855138
  0
TEXT
  8
_1-1_寸法4
 62
    7
 10
216.90780416312535
 20
473.21752737855161
 40
18
 41
0.7999999999999994
 50
-0.0000000000001696
  1
ストレーナー
  0
TEXT
  8
_1-1_寸法4
 62
    7
 10
441.44355981252431
 20
466.42214587954265
 40
18
 41
0.7999999999999997
 50
0
  1
Ｃ部
  0
LINE
  8
_0-e_極細4
  6
CONTINUOUS
 62
    6
 10
538.98744130807097
 20
382.80165330580076
 11
518.13912193963768
 21
370.90831546579307
  0
LINE
  8
_0-e_極細4
  6
CONTINUOUS
 62
    6
 10
553.96445769005607
 20
394.80165480580126
 11
544.95296308504817
 21
394.80165480580126
  0
LINE
  8
_0-e_極細4
  6
CONTINUOUS
 62
    6
 10
544.95296308504817
 20
391.81803936828533
 11
544.95296308504817
 21
394.80165480580126
  0
LINE
  8
_0-e_極細4
  6
CONTINUOUS
 62
    6
 10
544.95296308504817
 20
391.81803936828533
 11
516.57723078281231
 21
378.33254597098107
  0
LINE
  8
_0-e_極細4
  6
CONTINUOUS
 62
    6
 10
538.98744130807097
 20
382.80165330580076
 11
556.95296458504868
 21
382.80165330580076
  0
LINE
  8
_0-e_極細4
  6
CONTINUOUS
 62
    6
 10
556.95296458504868
 20
382.80165330580076
 11
553.96445769005607
 21
394.80165480580126
  0
LINE
  8
_1-1_寸法4
  6
CONTINUOUS
 62
    7
 10
318.28208236767989
 20
190.80165330580132
 11
318.28208236767989
 21
136.80165330580132
  0
LINE
  8
_1-1_寸法4
  6
CONTINUOUS
 62
    7
 10
318.28208236767989
 20
142.80165330580132
 11
329.87319228314868
 21
145.90748184703165
  0
LINE
  8
_1-1_寸法4
  6
CONTINUOUS
 62
    7
 10
318.28208236767989
 20
142.80165330580132
 11
329.87319228314868
 21
139.69582476457117
  0
LINE
  8
_1-1_寸法4
  6
CONTINUOUS
 62
    7
 10
403.85161456623223
 20
190.80165330580132
 11
403.85161456622973
 21
136.80165330580132
  0
LINE
  8
_1-1_寸法4
  6
CONTINUOUS
 62
    7
 10
403.85161456623007
 20
142.80165330580132
 11
392.26050465076116
 21
139.69582476457117
  0
LINE
  8
_1-1_寸法4
  6
CONTINUOUS
 62
    7
 10
403.85161456623007
 20
142.80165330580132
 11
392.26050465076128
 21
145.90748184703165
  0
LINE
  8
_1-1_寸法4
  6
CONTINUOUS
 62
    7
 10
318.28208236767989
 20
142.80165330580132
 11
403.85161456623007
 21
142.80165330580132
  0
TEXT
  8
_1-1_寸法4
 62
    7
 10
320.56684846695566
 20
142.80165330580132
 40
18
 41
1
 50
0
  1
Rc2(59.6)
  0
LINE
  8
_1-1_寸法4
  6
CONTINUOUS
 62
    7
 10
263.23185778606478
 20
252.07995481096401
 11
254.76566237094124
 21
243.57563031145537
  0
LINE
  8
_1-1_寸法4
  6
CONTINUOUS
 62
    7
 10
263.23185778606478
 20
252.07995481096401
 11
251.64775523341024
 21
248.94809145992491
  0
LINE
  8
_1-1_寸法4
  6
CONTINUOUS
 62
    7
 10
263.23185778606478
 20
252.07995481096401
 11
227.42515254027069
 21
231.29953802020907
  0
LINE
  8
_1-1_寸法4
  6
CONTINUOUS
 62
    7
 10
227.42515254027069
 20
231.29953802020907
 11
126.62515254027079
 21
231.29953802020941
  0
TEXT
  8
_1-1_寸法4
 62
    7
 10
126.62515254027079
 20
231.29953802020907
 40
18
 41
0.7999999999999994
 50
0
  1
防水マス縦引き
  0
TEXT
  8
_1-1_寸法4
 62
    7
 10
116.45393732984758
 20
212.5853493425102
 40
18
 41
0.7999999999999998
 50
0
  1
（ＨＦＴ－５Ｂ）
  0
TEXT
  8
_0-7_枠細線
 62
    5
 10
150.0324053304858
 20
529.71434772787256
 40
30
 41
0.8
 50
0
  1
Ｃ部拡大図
  0
LINE
  8
_0-a_極細1
  6
CONTINUOUS
 62
    7
 10
192.92063108819463
 20
647.81803995353971
 11
207.32062964819539
 21
647.81803995353971
  0
LINE
  8
_0-a_極細1
  6
CONTINUOUS
 62
    7
 10
192.92063108819463
 20
648.61803987353983
 11
207.32062964819539
 21
648.61803987353983
  0
LINE
  8
_0-a_極細1
  6
CONTINUOUS
 62
    7
 10
192.79172416864918
 20
649.41803979353972
 11
207.32062964819539
 21
649.41803979353972
  0
LINE
  8
_0-a_極細1
  6
CONTINUOUS
 62
    7
 10
191.99172424864906
 20
650.21803971353984
 11
207.32062964819539
 21
650.21803971353984
  0
LINE
  8
_0-a_極細1
  6
CONTINUOUS
 62
    7
 10
191.19172432864929
 20
651.01803963353973
 11
207.32062964819539
 21
651.01803963353973
  0
LINE
  8
_0-a_極細1
  6
CONTINUOUS
 62
    7
 10
191.44953816773983
 20
651.81803955353985
 11
207.32062964819539
 21
651.81803955353985
  0
LINE
  8
_0-a_極細1
  6
CONTINUOUS
 62
    7
 10
192.24953808773995
 20
652.61803947353997
 11
207.32062964819539
 21
652.61803947353997
  0
LINE
  8
_0-a_極細1
  6
CONTINUOUS
 62
    7
 10
192.92063108819463
 20
653.41803939353986
 11
207.32062964819539
 21
653.41803939353986
  0
LINE
  8
_0-a_極細1
  6
CONTINUOUS
 62
    7
 10
192.92063108819463
 20
654.21803931353998
 11
207.32062964819539
 21
654.21803931353998
  0
LINE
  8
_0-a_極細1
  6
CONTINUOUS
 62
    7
 10
192.92063108819463
 20
655.01803923354009
 11
207.32062964819539
 21
655.01803923354009
  0
LINE
  8
_0-a_極細1
  6
CONTINUOUS
 62
    7
 10
192.92063108819463
 20
655.81803915353998
 11
207.32062964819539
 21
655.81803915353998
  0
LINE
  8
_0-a_極細1
  6
CONTINUOUS
 62
    7
 10
192.92063108819463
 20
656.6180390735401
 11
207.32062964819539
 21
656.6180390735401
  0
LINE
  8
_0-a_極細1
  6
CONTINUOUS
 62
    7
 10
192.92063108819463
 20
657.41803899354022
 11
207.32062964819539
 21
657.41803899354022
  0
LINE
  8
_0-a_極細1
  6
CONTINUOUS
 62
    7
 10
192.92063108819463
 20
658.21803891354011
 11
207.32062964819539
 21
658.21803891354011
  0
LINE
  8
_0-a_極細1
  6
CONTINUOUS
 62
    7
 10
192.39172420864912
 20
659.01803883354
 11
207.60271331728683
 21
659.01803883354
  0
LINE
  8
_0-a_極細1
  6
CONTINUOUS
 62
    7
 10
191.591724288649
 20
659.81803875354012
 11
208.02937994128621
 21
659.81803875354012
  0
LINE
  8
_0-a_極細1
  6
CONTINUOUS
 62
    7
 10
191.04953820774114
 20
660.61803867354024
 11
208.45604656528627
 21
660.61803867354024
  0
LINE
  8
_0-a_極細1
  6
CONTINUOUS
 62
    7
 10
191.84953812774023
 20
661.41803859354036
 11
208.88271318928633
 21
661.41803859354036
  0
LINE
  8
_0-a_極細1
  6
CONTINUOUS
 62
    7
 10
192.64953804774035
 20
662.21803851354048
 11
209.3093798132864
 21
662.21803851354048
  0
LINE
  8
_0-a_極細1
  6
CONTINUOUS
 62
    7
 10
192.92063108819463
 20
663.01803843354014
 11
209.73604643728646
 21
663.01803843354014
  0
LINE
  8
_0-a_極細1
  6
CONTINUOUS
 62
    7
 10
192.92063108819463
 20
663.81803835354026
 11
210.16271306128652
 21
663.81803835354026
  0
LINE
  8
_0-a_極細1
  6
CONTINUOUS
 62
    7
 10
233.35289580165175
 20
628.2969637298952
 11
233.35289580165175
 21
690.03673914459569
  0
LINE
  8
_0-a_極細1
  6
CONTINUOUS
 62
    7
 10
232.55289588165164
 20
627.49696380989531
 11
232.55289588165164
 21
689.86369295443706
  0
LINE
  8
_0-a_極細1
  6
CONTINUOUS
 62
    7
 10
231.75289596165152
 20
626.69696388989519
 11
231.75289596165152
 21
689.51133993264534
  0
LINE
  8
_0-a_極細1
  6
CONTINUOUS
 62
    7
 10
230.9528960416514
 20
625.8969639698953
 11
230.9528960416514
 21
688.9182268781517
  0
LINE
  8
_0-a_極細1
  6
CONTINUOUS
 62
    7
 10
230.1528961216523
 20
625.0969640498954
 11
230.1528961216523
 21
687.88214387837979
  0
LINE
  8
_0-a_極細1
  6
CONTINUOUS
 62
    7
 10
229.35289620165219
 20
624.29696412989551
 11
229.35289620165219
 21
684.76395383004638
  0
LINE
  8
_0-a_極細1
  6
CONTINUOUS
 62
    7
 10
228.55289628165207
 20
623.49696420989517
 11
228.55289628165207
 21
683.10691275100271
  0
LINE
  8
_0-a_極細1
  6
CONTINUOUS
 62
    7
 10
227.75289636165195
 20
622.86469551643836
 11
227.75289636165195
 21
682.11614429325687
  0
LINE
  8
_0-a_極細1
  6
CONTINUOUS
 62
    7
 10
226.95289644165183
 20
622.86469551643836
 11
226.95289644165183
 21
681.41524208771193
  0
LINE
  8
_0-a_極細1
  6
CONTINUOUS
 62
    7
 10
226.15289652165171
 20
622.86469551643836
 11
226.15289652165171
 21
680.90111064742905
  0
LINE
  8
_0-a_極細1
  6
CONTINUOUS
 62
    7
 10
225.35289660165159
 20
622.86469551643836
 11
225.35289660165159
 21
680.52812351280386
  0
LINE
  8
_0-a_極細1
  6
CONTINUOUS
 62
    7
 10
224.55289668165148
 20
622.86469551643836
 11
224.55289668165148
 21
680.27227989079847
  0
LINE
  8
_0-a_極細1
  6
CONTINUOUS
 62
    7
 10
223.75289676165136
 20
622.86469551643836
 11
223.75289676165136
 21
680.12023543927285
  0
LINE
  8
_0-a_極細1
  6
CONTINUOUS
 62
    7
 10
222.95289684165124
 20
622.86469551643836
 11
222.95289684165124
 21
680.06502356109172
  0
LINE
  8
_0-a_極細1
  6
CONTINUOUS
 62
    7
 10
222.15289692165112
 20
622.86469551643836
 11
222.15289692165112
 21
680.06468979643864
  0
LINE
  8
_0-a_極細1
  6
CONTINUOUS
 62
    7
 10
221.352897001651
 20
622.86469551643836
 11
221.352897001651
 21
680.06468979643864
  0
LINE
  8
_0-a_極細1
  6
CONTINUOUS
 62
    7
 10
220.55289708165157
 20
622.86469551643836
 11
220.55289708165157
 21
680.06468979643864
  0
LINE
  8
_0-a_極細1
  6
CONTINUOUS
 62
    7
 10
219.75289716165213
 20
622.86469551643836
 11
219.75289716165213
 21
680.06468979643864
  0
LINE
  8
_0-a_極細1
  6
CONTINUOUS
 62
    7
 10
218.95289724165201
 20
622.86469551643836
 11
218.95289724165201
 21
680.06468979643864
  0
LINE
  8
_0-a_極細1
  6
CONTINUOUS
 62
    7
 10
218.15289732165189
 20
622.86469551643836
 11
218.15289732165189
 21
680.06468979643864
  0
LINE
  8
_0-a_極細1
  6
CONTINUOUS
 62
    7
 10
217.35289740165177
 20
622.86469551643836
 11
217.35289740165177
 21
679.99392565752396
  0
LINE
  8
_0-a_極細1
  6
CONTINUOUS
 62
    7
 10
216.55289748165166
 20
622.86469551643836
 11
216.55289748165166
 21
679.76112650005507
  0
LINE
  8
_0-a_極細1
  6
CONTINUOUS
 62
    7
 10
215.75289756165154
 20
622.86469551643836
 11
215.75289756165154
 21
679.33367369184612
  0
LINE
  8
_0-a_極細1
  6
CONTINUOUS
 62
    7
 10
214.95289764165142
 20
622.86469551643836
 11
214.95289764165142
 21
678.62249319145667
  0
LINE
  8
_0-a_極細1
  6
CONTINUOUS
 62
    7
 10
214.1528977216513
 20
622.86469551643836
 11
214.1528977216513
 21
677.24204579920797
  0
LINE
  8
_0-a_極細1
  6
CONTINUOUS
 62
    7
 10
213.35289780165118
 20
622.86469551643836
 11
213.35289780165118
 21
630.86469471643818
  0
LINE
  8
_0-a_極細1
  6
CONTINUOUS
 62
    7
 10
212.55289788165106
 20
622.86469551643836
 11
212.55289788165106
 21
630.86469471643818
  0
LINE
  8
_0-a_極細1
  6
CONTINUOUS
 62
    7
 10
211.75289796165094
 20
622.86469551643836
 11
211.75289796165094
 21
630.86469471643818
  0
LINE
  8
_0-a_極細1
  6
CONTINUOUS
 62
    7
 10
210.95289804165117
 20
622.86469551643836
 11
210.95289804165117
 21
630.86469471643818
  0
LINE
  8
_0-a_極細1
  6
CONTINUOUS
 62
    7
 10
210.15289812165105
 20
622.86469551643836
 11
210.15289812165105
 21
630.86469471643818
  0
LINE
  8
_0-a_極細1
  6
CONTINUOUS
 62
    7
 10
209.35289820165093
 20
622.86469551643836
 11
209.35289820165093
 21
630.86469471643818
  0
LINE
  8
_0-a_極細1
  6
CONTINUOUS
 62
    7
 10
208.55289828165081
 20
622.86469551643836
 11
208.55289828165081
 21
630.86469471643818
  0
LINE
  8
_0-a_極細1
  6
CONTINUOUS
 62
    7
 10
207.75289836165172
 20
622.86469551643836
 11
207.75289836165172
 21
630.86469471643818
  0
LINE
  8
_0-a_極細1
  6
CONTINUOUS
 62
    7
 10
206.95289844165058
 20
622.86469551643836
 11
206.95289844165058
 21
630.86469471643818
  0
LINE
  8
_0-a_極細1
  6
CONTINUOUS
 62
    7
 10
206.15289852165148
 20
622.86469551643836
 11
206.15289852165148
 21
630.86469471643818
  0
LINE
  8
_0-a_極細1
  6
CONTINUOUS
 62
    7
 10
205.35289860165204
 20
614.86469631643808
 11
205.35289860165204
 21
638.86469391643823
  0
LINE
  8
_0-a_極細1
  6
CONTINUOUS
 62
    7
 10
204.55289868165261
 20
614.86469631643808
 11
204.55289868165261
 21
638.86469391643823
  0
LINE
  8
_0-a_極細1
  6
CONTINUOUS
 62
    7
 10
203.75289876165249
 20
614.86469631643808
 11
203.75289876165249
 21
617.63822125515594
  0
LINE
  8
_0-a_極細1
  6
CONTINUOUS
 62
    7
 10
203.75289876165249
 20
623.26781147612701
 11
203.75289876165249
 21
638.86469391643823
  0
LINE
  8
_0-a_極細1
  6
CONTINUOUS
 62
    7
 10
202.95289884165237
 20
614.86469631643808
 11
202.95289884165237
 21
615.45373358323309
  0
LINE
  8
_0-a_極細1
  6
CONTINUOUS
 62
    7
 10
202.95289884165237
 20
623.26781147612701
 11
202.95289884165237
 21
638.86469391643823
  0
LINE
  8
_0-a_極細1
  6
CONTINUOUS
 62
    7
 10
202.15289892165225
 20
623.26781147612701
 11
202.15289892165225
 21
638.86469391643823
  0
LINE
  8
_0-a_極細1
  6
CONTINUOUS
 62
    7
 10
201.35289900165213
 20
623.26781147612701
 11
201.35289900165213
 21
638.86469391643823
  0
LINE
  8
_0-a_極細1
  6
CONTINUOUS
 62
    7
 10
200.55289908165201
 20
623.26781147612701
 11
200.55289908165201
 21
638.86469391643823
  0
LINE
  8
_0-a_極細1
  6
CONTINUOUS
 62
    7
 10
199.7528991616519
 20
623.26781147612701
 11
199.7528991616519
 21
638.86469391643823
  0
LINE
  8
_0-a_極細1
  6
CONTINUOUS
 62
    7
 10
198.95289924165178
 20
623.26781147612701
 11
198.95289924165178
 21
638.86469391643823
  0
LINE
  8
_0-a_極細1
  6
CONTINUOUS
 62
    7
 10
198.15289932165166
 20
623.26781147612701
 11
198.15289932165166
 21
638.86469391643823
  0
LINE
  8
_0-a_極細1
  6
CONTINUOUS
 62
    7
 10
197.35289940165154
 20
623.26781147612701
 11
197.35289940165154
 21
638.86469391643823
  0
LINE
  8
_0-a_極細1
  6
CONTINUOUS
 62
    7
 10
196.55289948165176
 20
623.26781147612701
 11
196.55289948165176
 21
638.86469391643823
  0
LINE
  8
_0-a_極細1
  6
CONTINUOUS
 62
    7
 10
195.75289956165165
 20
623.26781147612701
 11
195.75289956165165
 21
638.86469391643823
  0
LINE
  8
_0-a_極細1
  6
CONTINUOUS
 62
    7
 10
194.95289964165153
 20
623.26781147612701
 11
194.95289964165153
 21
638.86469391643823
  0
LINE
  8
_0-a_極細1
  6
CONTINUOUS
 62
    7
 10
183.92063198819466
 20
611.26781267612728
 11
183.92063198819466
 21
622.86469551643836
  0
ARC
  8
_0-a_極細1
  6
CONTINUOUS
 62
    7
 10
171.92063318819561
 20
623.26781147612701
 40
11.999998799999998
 50
358.07490068720398
 51
50.029499419964075
  0
LINE
  8
_0-a_極細1
  6
CONTINUOUS
 62
    7
 10
233.8366269965955
 20
684.6180362735397
 11
238.86821886267222
 21
684.6180362735397
  0
LINE
  8
_0-a_極細1
  6
CONTINUOUS
 62
    7
 10
233.8366269965955
 20
685.41803619353982
 11
245.7892181705725
 21
685.41803619353982
  0
LINE
  8
_0-a_極細1
  6
CONTINUOUS
 62
    7
 10
233.8366269965955
 20
686.21803611353994
 11
252.71021747847277
 21
686.21803611353994
  0
LINE
  8
_0-a_極細1
  6
CONTINUOUS
 62
    7
 10
233.8366269965955
 20
687.01803603354006
 11
259.63121678637305
 21
687.01803603354006
  0
LINE
  8
_0-a_極細1
  6
CONTINUOUS
 62
    7
 10
233.8366269965955
 20
687.81803595353972
 11
261.52062422819523
 21
687.81803595353972
  0
LINE
  8
_0-a_極細1
  6
CONTINUOUS
 62
    7
 10
233.8366269965955
 20
688.61803587353984
 11
261.52062422819523
 21
688.61803587353984
  0
LINE
  8
_0-a_極細1
  6
CONTINUOUS
 62
    7
 10
233.8366269965955
 20
689.41803579353996
 11
261.52062422819523
 21
689.41803579353996
  0
LINE
  8
_0-a_極細1
  6
CONTINUOUS
 62
    7
 10
235.11167571104949
 20
690.21803571354008
 11
261.52062422819523
 21
690.21803571354008
  0
LINE
  8
_0-a_極細1
  6
CONTINUOUS
 62
    7
 10
240.72847212044923
 20
691.01803563353997
 11
261.52062422819523
 21
691.01803563353997
  0
LINE
  8
_0-a_極細1
  6
CONTINUOUS
 62
    7
 10
246.34526852984931
 20
691.81803555354008
 11
261.52062422819523
 21
691.81803555354008
  0
LINE
  8
_0-a_極細1
  6
CONTINUOUS
 62
    7
 10
251.96206493924871
 20
692.6180354735402
 11
261.52062422819523
 21
692.6180354735402
  0
LINE
  8
_0-a_極細1
  6
CONTINUOUS
 62
    7
 10
257.57886134864879
 20
693.41803539354032
 11
261.52062422819523
 21
693.41803539354032
  0
LINE
  8
_0-a_極細1
  6
CONTINUOUS
 62
    7
 10
261.52062422819523
 20
694.03643239926396
 11
261.52062422819523
 21
696.8077161808169
  0
LINE
  8
_0-a_極細1
  6
CONTINUOUS
 62
    7
 10
233.8366269965955
 20
692.86468851643849
 11
261.52062422819523
 21
696.8077161808169
  0
LINE
  8
_0-a_極細1
  6
CONTINUOUS
 62
    7
 10
207.92062958819446
 20
665.26780727612709
 11
207.92062958819446
 21
668.86469091643812
  0
LINE
  8
_0-a_極細1
  6
CONTINUOUS
 62
    7
 10
207.92062958819446
 20
640.86780971612666
 11
207.92062958819446
 21
646.86780911612641
  0
LINE
  8
_0-a_極細1
  6
CONTINUOUS
 62
    7
 10
192.92063108819497
 20
658.4891319539945
 11
192.92063108819497
 21
653.28913247399441
  0
LINE
  8
_0-a_極細1
  6
CONTINUOUS
 62
    7
 10
192.92063108819497
 20
649.28913287399428
 11
192.92063108819497
 21
647.28913307399444
  0
LINE
  8
_0-a_極細1
  6
CONTINUOUS
 62
    7
 10
207.32062964819539
 20
658.4891319539945
 11
207.32062964819539
 21
647.28913307399444
  0
LINE
  8
_0-a_極細1
  6
CONTINUOUS
 62
    7
 10
190.92063128819467
 20
660.48913175399434
 11
192.92063108819497
 21
662.48913155399441
  0
LINE
  8
_0-a_極細1
  6
CONTINUOUS
 62
    7
 10
192.92063108819497
 20
658.4891319539945
 11
190.92063128819467
 21
660.48913175399434
  0
LINE
  8
_0-a_極細1
  6
CONTINUOUS
 62
    7
 10
192.92063108819497
 20
649.28913287399428
 11
190.92063128819467
 21
651.28913267399457
  0
LINE
  8
_0-a_極細1
  6
CONTINUOUS
 62
    7
 10
190.92063128819467
 20
651.28913267399457
 11
192.92063108819497
 21
653.28913247399441
  0
LINE
  8
_0-a_極細1
  6
CONTINUOUS
 62
    7
 10
207.32062964819539
 20
658.4891319539945
 11
210.52062932819484
 21
664.48913135399403
  0
LINE
  8
_0-a_極細1
  6
CONTINUOUS
 62
    7
 10
192.92063108819497
 20
664.48913135399403
 11
192.92063108819497
 21
662.48913155399441
  0
ARC
  8
_0-a_極細1
  6
CONTINUOUS
 62
    7
 10
217.72062860819557
 20
688.86468891643858
 40
1.9999998000000003
 50
24.054548999997184
 51
89.999999999999901
  0
ARC
  8
_0-a_極細1
  6
CONTINUOUS
 62
    7
 10
218.92062848819575
 20
683.66468943643849
 40
0.7999999199999545
 50
269.99999999999977
 51
359.99999999999966
  0
ARC
  8
_0-a_極細1
  6
CONTINUOUS
 62
    7
 10
217.72062860819557
 20
688.86468891643858
 40
1.9999998000000003
 50
0
 51
24.054548999997184
  0
LINE
  8
_0-a_極細1
  6
CONTINUOUS
 62
    7
 10
211.12062926819493
 20
670.86469071643819
 11
211.12062926819596
 21
682.8646895164386
  0
LINE
  8
_0-a_極細1
  6
CONTINUOUS
 62
    7
 10
211.12062926819596
 20
682.8646895164386
 11
218.92062848819575
 21
682.8646895164386
  0
LINE
  8
_0-a_極細1
  6
CONTINUOUS
 62
    7
 10
219.72062840819586
 20
683.66468943643849
 11
219.72062840819586
 21
688.86468891643858
  0
LINE
  8
_0-a_極細1
  6
CONTINUOUS
 62
    7
 10
205.92062978819519
 20
622.86469551643836
 11
227.92062758819435
 21
622.86469551643836
  0
LINE
  8
_0-a_極細1
  6
CONTINUOUS
 62
    7
 10
202.59989412026886
 20
614.86469631643808
 11
205.92062978819519
 21
614.86469631643808
  0
LINE
  8
_0-a_極細1
  6
CONTINUOUS
 62
    7
 10
205.92062978819519
 20
633.66469443643859
 11
211.12062926819493
 21
633.66469443643859
  0
LINE
  8
_0-a_極細1
  6
CONTINUOUS
 62
    7
 10
205.92062978819519
 20
630.86469471643818
 11
213.92062898819501
 21
630.86469471643818
  0
LINE
  8
_0-a_極細1
  6
CONTINUOUS
 62
    7
 10
205.92062978819519
 20
614.86469631643808
 11
205.92062978819519
 21
638.86469391643823
  0
LINE
  8
_0-a_極細1
  6
CONTINUOUS
 62
    7
 10
233.8366269965955
 20
628.78069492483837
 11
227.92062758819435
 21
622.86469551643836
  0
LINE
  8
_0-a_極細1
  6
CONTINUOUS
 62
    7
 10
213.92062898819501
 20
630.86469471643818
 11
213.92062898819535
 21
675.86469021643825
  0
ARC
  8
_0-a_極細1
  6
CONTINUOUS
 62
    7
 10
218.12062856819563
 20
675.86469021643825
 40
4.1999995800000463
 50
89.999999999999915
 51
179.99999999999983
  0
LINE
  8
_0-a_極細1
  6
CONTINUOUS
 62
    7
 10
222.88552409170649
 20
680.06468979643864
 11
218.12062856819563
 21
680.06468979643864
  0
ARC
  8
_0-a_極細1
  6
CONTINUOUS
 62
    7
 10
222.88552409170649
 20
686.86468911643829
 40
6.7999993199999533
 50
269.99999999999977
 51
356.64911199999852
  0
ARC
  8
_0-a_極細1
  6
CONTINUOUS
 62
    7
 10
222.88552409170649
 20
686.86468911643829
 40
3.9999996000000007
 50
269.99999999999977
 51
356.64911200000364
  0
ARC
  8
_0-a_極細1
  6
CONTINUOUS
 62
    7
 10
233.8366269965955
 20
685.86468921643836
 40
6.9999992999999998
 50
89.999999999999915
 51
175.84900999999684
  0
ARC
  8
_0-a_極細1
  6
CONTINUOUS
 62
    7
 10
218.12062856819563
 20
675.86469021643825
 40
6.9999992999999998
 50
89.999999999999915
 51
179.99999999999983
  0
LINE
  8
_0-a_極細1
  6
CONTINUOUS
 62
    7
 10
219.92062838819589
 20
682.8646895164386
 11
219.92062838819589
 21
692.86468851643849
  0
LINE
  8
_0-a_極細1
  6
CONTINUOUS
 62
    7
 10
211.12062926819493
 20
633.66469443643859
 11
211.12062926819493
 21
675.86469021643825
  0
LINE
  8
_0-a_極細1
  6
CONTINUOUS
 62
    7
 10
222.88552409170649
 20
682.8646895164386
 11
218.12062856819563
 21
682.8646895164386
  0
LINE
  8
_0-a_極細1
  6
CONTINUOUS
 62
    7
 10
194.92063088819526
 20
638.86469391643823
 11
211.12062926819493
 21
638.86469391643823
  0
LINE
  8
_0-a_極細1
  6
CONTINUOUS
 62
    7
 10
261.52062422819523
 20
687.23643307926409
 11
233.8366269965955
 21
684.0364333992643
  0
LINE
  8
_0-a_極細1
  6
CONTINUOUS
 62
    7
 10
233.83662699659413
 20
608.03644099926396
 11
227.92062758819435
 21
611.23644067926398
  0
LINE
  8
_0-a_極細1
  6
CONTINUOUS
 62
    7
 10
227.92062758819435
 20
611.23644067926398
 11
227.92062758819435
 21
622.86469551643836
  0
LINE
  8
_0-a_極細1
  6
CONTINUOUS
 62
    7
 10
261.52062422819523
 20
633.45740245716797
 11
261.52062422819523
 21
696.75074412783306
  0
LINE
  8
_0-a_極細1
  6
CONTINUOUS
 62
    7
 10
245.92062578819463
 20
631.23643867926398
 11
261.52062422819523
 21
631.23643867926398
  0
LINE
  8
_0-a_極細1
  6
CONTINUOUS
 62
    7
 10
261.52062422819523
 20
631.23643867926398
 11
261.52062422819523
 21
633.45740245716797
  0
LINE
  8
_0-a_極細1
  6
CONTINUOUS
 62
    7
 10
245.92062578819463
 20
599.23644187926379
 11
245.92062578819463
 21
631.23643867926398
  0
LINE
  8
_0-a_極細1
  6
CONTINUOUS
 62
    7
 10
233.8366269965955
 20
690.03643061426101
 11
261.52062422819523
 21
693.97946040496095
  0
LINE
  8
_0-a_極細1
  6
CONTINUOUS
 62
    7
 10
233.8366269965955
 20
628.78069492483837
 11
233.8366269965955
 21
690.06468879643876
  0
ARC
  8
_0-a_極細1
  6
CONTINUOUS
 62
    7
 10
233.8366269965955
 20
685.86468921643836
 40
4.1999995800000463
 50
89.999999999999915
 51
175.84901000000087
  0
LINE
  8
_0-a_極細1
  6
CONTINUOUS
 62
    7
 10
195.92063078819507
 20
611.26781267612728
 11
183.92063198819466
 21
611.26781267612728
  0
ARC
  8
_0-a_極細1
  6
CONTINUOUS
 62
    7
 10
195.92063078819507
 20
619.2678118761271
 40
7.9999992000000013
 50
269.99999999999977
 51
359.99999999999966
  0
LINE
  8
_0-a_極細1
  6
CONTINUOUS
 62
    7
 10
203.92062998819489
 20
619.2678118761271
 11
203.92062998819489
 21
623.26781147612701
  0
LINE
  8
_0-a_極細1
  6
CONTINUOUS
 62
    7
 10
203.92062998819489
 20
623.26781147612701
 11
194.92063088819526
 21
623.26781147612701
  0
LINE
  8
_0-a_極細1
  6
CONTINUOUS
 62
    7
 10
207.92062958819446
 20
640.86780971612666
 11
194.92063088819526
 21
640.86780971612666
  0
LINE
  8
_0-a_極細1
  6
CONTINUOUS
 62
    7
 10
194.92063088819526
 20
623.26781147612701
 11
194.92063088819526
 21
640.86780971612689
  0
LINE
  8
_0-a_極細1
  6
CONTINUOUS
 62
    7
 10
206.7206297081953
 20
668.86469091643812
 11
206.7206297081953
 21
672.86469051643803
  0
ARC
  8
_0-a_極細1
  6
CONTINUOUS
 62
    7
 10
209.12062946819464
 20
670.86469071643819
 40
1.9999998000000003
 50
269.99999999999977
 51
359.99999999999966
  0
CIRCLE
  8
_0-a_極細1
  6
CONTINUOUS
 62
    7
 10
212.02134860258371
 20
658.52925155720322
 40
74.460807766258981
  0
ARC
  8
_0-a_極細1
  6
CONTINUOUS
 62
    7
 10
255.9206247881944
 20
581.91593561131504
 40
19.999998000000001
 50
119.99999999999999
 51
161.13978923390121
  0
LINE
  8
_0-a_極細1
  6
CONTINUOUS
 62
    7
 10
225.92062778819439
 20
585.37720489188973
 11
225.92062778819439
 21
608.03644099926396
  0
LINE
  8
_0-a_極細1
  6
CONTINUOUS
 62
    7
 10
244.33755271222577
 20
598.22030193702358
 11
245.92062578819463
 21
599.80337501299277
  0
LINE
  8
_0-a_極細1
  6
CONTINUOUS
 62
    7
 10
225.92062778819439
 20
585.46023069679973
 11
245.92062578819463
 21
605.46022869679973
  0
LINE
  8
_0-a_極細1
  6
CONTINUOUS
 62
    7
 10
225.92062778819439
 20
588.28865753870332
 11
245.92062578819463
 21
608.28865553870332
  0
LINE
  8
_0-a_極細1
  6
CONTINUOUS
 62
    7
 10
225.92062778819439
 20
591.11708438060691
 11
245.92062578819463
 21
611.11708238060669
  0
LINE
  8
_0-a_極細1
  6
CONTINUOUS
 62
    7
 10
225.92062778819439
 20
593.94551122251028
 11
245.92062578819463
 21
613.94550922251028
  0
LINE
  8
_0-a_極細1
  6
CONTINUOUS
 62
    7
 10
225.92062778819439
 20
596.77393806441387
 11
245.92062578819463
 21
616.77393606441365
  0
LINE
  8
_0-a_極細1
  6
CONTINUOUS
 62
    7
 10
260.38312840304485
 20
631.23643867926398
 11
261.52062422819523
 21
632.37393450441368
  0
LINE
  8
_0-a_極細1
  6
CONTINUOUS
 62
    7
 10
225.92062778819439
 20
599.60236490631701
 11
245.92062578819463
 21
619.60236290631724
  0
LINE
  8
_0-a_極細1
  6
CONTINUOUS
 62
    7
 10
257.55470156114137
 20
631.23643867926398
 11
261.52062422819523
 21
635.2023613463175
  0
LINE
  8
_0-a_極細1
  6
CONTINUOUS
 62
    7
 10
225.92062778819439
 20
602.4307917482206
 11
231.52627703923787
 21
608.03644099926396
  0
LINE
  8
_0-a_極細1
  6
CONTINUOUS
 62
    7
 10
232.33728185094736
 20
608.84744581097311
 11
245.92062578819463
 21
622.43078974822083
  0
LINE
  8
_0-a_極細1
  6
CONTINUOUS
 62
    7
 10
254.72627471923857
 20
631.23643867926421
 11
261.52062422819523
 21
638.03078818822087
  0
LINE
  8
_0-a_極細1
  6
CONTINUOUS
 62
    7
 10
225.92062778819439
 20
605.25921859012396
 11
228.69785019733541
 21
608.03644099926441
  0
LINE
  8
_0-a_極細1
  6
CONTINUOUS
 62
    7
 10
230.50172094740407
 20
609.8403117493333
 11
245.92062578819463
 21
625.2592165901242
  0
LINE
  8
_0-a_極細1
  6
CONTINUOUS
 62
    7
 10
251.89784787733475
 20
631.23643867926398
 11
261.52062422819523
 21
640.85921503012446
  0
LINE
  8
_0-a_極細1
  6
CONTINUOUS
 62
    7
 10
228.66616004386111
 20
610.83317768769348
 11
245.92062578819463
 21
628.08764343202779
  0
LINE
  8
_0-a_極細1
  6
CONTINUOUS
 62
    7
 10
249.06942103543093
 20
631.23643867926398
 11
261.52062422819523
 21
643.6876418720276
  0
LINE
  8
_0-a_極細1
  6
CONTINUOUS
 62
    7
 10
227.92062758819469
 20
612.91607207393099
 11
245.92062578819463
 21
630.91607027393115
  0
LINE
  8
_0-a_極細1
  6
CONTINUOUS
 62
    7
 10
246.2409941935278
 20
631.23643867926398
 11
261.52062422819523
 21
646.51606871393119
  0
LINE
  8
_0-a_極細1
  6
CONTINUOUS
 62
    7
 10
227.92062758819469
 20
615.74449891583436
 11
261.52062422819523
 21
649.34449555583478
  0
LINE
  8
_0-a_極細1
  6
CONTINUOUS
 62
    7
 10
227.92062758819469
 20
618.57292575773772
 11
261.52062422819523
 21
652.17292239773838
  0
LINE
  8
_0-a_極細1
  6
CONTINUOUS
 62
    7
 10
227.92062758819469
 20
621.40135259964131
 11
261.52062422819523
 21
655.00134923964174
  0
LINE
  8
_0-a_極細1
  6
CONTINUOUS
 62
    7
 10
233.8366269965955
 20
630.1457788499456
 11
261.52062422819523
 21
657.82977608154533
  0
LINE
  8
_0-a_極細1
  6
CONTINUOUS
 62
    7
 10
233.8366269965955
 20
632.97420569184874
 11
261.52062422819523
 21
660.65820292344847
  0
LINE
  8
_0-a_極細1
  6
CONTINUOUS
 62
    7
 10
233.8366269965955
 20
635.80263253375233
 11
261.52062422819523
 21
663.48662976535206
  0
LINE
  8
_0-a_極細1
  6
CONTINUOUS
 62
    7
 10
233.8366269965955
 20
638.63105937565592
 11
261.52062422819523
 21
666.31505660725543
  0
LINE
  8
_0-a_極細1
  6
CONTINUOUS
 62
    7
 10
233.8366269965955
 20
641.45948621755952
 11
261.52062422819523
 21
669.14348344915902
  0
LINE
  8
_0-a_極細1
  6
CONTINUOUS
 62
    7
 10
233.8366269965955
 20
644.28791305946288
 11
261.52062422819523
 21
671.97191029106261
  0
LINE
  8
_0-a_極細1
  6
CONTINUOUS
 62
    7
 10
233.8366269965955
 20
647.11633990136647
 11
261.52062422819523
 21
674.80033713296621
  0
LINE
  8
_0-a_極細1
  6
CONTINUOUS
 62
    7
 10
233.8366269965955
 20
649.94476674326984
 11
261.52062422819523
 21
677.62876397486957
  0
LINE
  8
_0-a_極細1
  6
CONTINUOUS
 62
    7
 10
233.8366269965955
 20
652.77319358517343
 11
261.52062422819523
 21
680.45719081677316
  0
LINE
  8
_0-a_極細1
  6
CONTINUOUS
 62
    7
 10
233.8366269965955
 20
655.6016204270768
 11
261.52062422819523
 21
683.28561765867653
  0
LINE
  8
_0-a_極細1
  6
CONTINUOUS
 62
    7
 10
233.8366269965955
 20
658.43004726898016
 11
261.52062422819523
 21
686.11404450058012
  0
LINE
  8
_0-a_極細1
  6
CONTINUOUS
 62
    7
 10
233.8366269965955
 20
661.25847411088353
 11
259.5916108611404
 21
687.01345797542899
  0
LINE
  8
_0-a_極細1
  6
CONTINUOUS
 62
    7
 10
233.8366269965955
 20
664.08690095278712
 11
256.39351542366154
 21
686.64378937985271
  0
LINE
  8
_0-a_極細1
  6
CONTINUOUS
 62
    7
 10
233.8366269965955
 20
666.91532779469048
 11
253.19541998618064
 21
686.27412078427619
  0
LINE
  8
_0-a_極細1
  6
CONTINUOUS
 62
    7
 10
233.8366269965955
 20
669.74375463659408
 11
249.99732454870178
 21
685.90445218869991
  0
LINE
  8
_0-a_極細1
  6
CONTINUOUS
 62
    7
 10
233.8366269965955
 20
672.57218147849767
 11
246.79922911122088
 21
685.53478359312339
  0
LINE
  8
_0-a_極細1
  6
CONTINUOUS
 62
    7
 10
233.8366269965955
 20
675.40060832040081
 11
243.60113367374134
 21
685.16511499754711
  0
LINE
  8
_0-a_極細1
  6
CONTINUOUS
 62
    7
 10
233.8366269965955
 20
678.2290351623044
 11
240.40303823626215
 21
684.79544640197059
  0
LINE
  8
_0-a_極細1
  6
CONTINUOUS
 62
    7
 10
233.8366269965955
 20
681.05746200420822
 11
237.20494279878227
 21
684.42577780639431
  0
LINE
  8
_0-a_極細1
  6
CONTINUOUS
 62
    7
 10
233.8366269965955
 20
683.88588884611136
 11
234.00684736130239
 21
684.05610921081825
  0
LINE
  8
_0-a_極細1
  6
CONTINUOUS
 62
    7
 10
229.41802288649211
 20
586.12919895319374
 11
245.92062578819463
 21
602.63180185489637
  0
LINE
  8
_0-a_極細1
  6
CONTINUOUS
 62
    7
 10
233.28694619386494
 20
587.16969541866342
 11
239.61625846248631
 21
593.49900768728389
  0
LINE
  8
_0-a_極細1
  6
CONTINUOUS
 62
    7
 10
157.29577893753691
 20
608.03644099926396
 11
233.83662699659413
 21
608.03644099926396
  0
LINE
  8
_0-a_極細1
  6
CONTINUOUS
 62
    7
 10
154.507855120903
 20
611.23644067926398
 11
227.92062758819435
 21
611.23644067926398
  0
LINE
  8
_0-a_極細1
  6
CONTINUOUS
 62
    7
 10
146.65735747888476
 20
622.86469551643836
 11
183.92063198819466
 21
622.86469551643836
  0
LINE
  8
_0-a_極細1
  6
CONTINUOUS
 62
    7
 10
148.15296018340854
 20
696.8077161808169
 11
261.52062422819523
 21
696.8077161808169
  0
LINE
  8
_0-a_極細1
  6
CONTINUOUS
 62
    7
 10
145.94949633535731
 20
692.86468851643872
 11
233.8366269965955
 21
692.86468851643849
  0
LINE
  8
_0-a_極細1
  6
CONTINUOUS
 62
    7
 10
144.94802009620213
 20
690.86468871643842
 11
217.72062860819557
 21
690.8646887164382
  0
LINE
  8
_0-a_極細1
  6
CONTINUOUS
 62
    7
 10
138.95352337800279
 20
672.86469051643849
 11
206.7206297081953
 21
672.86469051643803
  0
LINE
  8
_0-a_極細1
  6
CONTINUOUS
 62
    7
 10
138.28132835268519
 20
668.86469091643835
 11
209.12062946819464
 21
668.86469091643812
  0
LINE
  8
_0-a_極細1
  6
CONTINUOUS
 62
    7
 10
207.92062958819446
 20
665.26780727612709
 11
137.86608068433821
 21
665.26780727612709
  0
LINE
  8
_0-a_極細1
  6
CONTINUOUS
 62
    7
 10
137.79943993666717
 20
664.48913135399448
 11
210.52062932819484
 21
664.48913135399403
  0
LINE
  8
_0-a_極細1
  6
CONTINUOUS
 62
    7
 10
137.58633827264504
 20
660.48913175399457
 11
190.92063128819467
 21
660.48913175399434
  0
LINE
  8
_0-a_極細1
  6
CONTINUOUS
 62
    7
 10
137.91336946564576
 20
651.28913267399457
 11
190.92063128819467
 21
651.28913267399457
  0
LINE
  8
_0-a_極細1
  6
CONTINUOUS
 62
    7
 10
138.41379715786235
 20
647.28913307399444
 11
207.32062964819539
 21
647.28913307399444
  0
LINE
  8
_0-a_極細1
  6
CONTINUOUS
 62
    7
 10
207.92062958819446
 20
646.86780911612641
 11
138.47936975106433
 21
646.86780911612641
  0
LINE
  8
_0-a_極細1
  6
CONTINUOUS
 62
    7
 10
194.92063088819526
 20
640.86780971612689
 11
139.68542830500184
 21
640.86780971612689
  0
LINE
  8
_0-a_極細1
  6
CONTINUOUS
 62
    7
 10
172.55290188165196
 20
616.06469619643872
 11
172.55290188165196
 21
622.86469551643836
  0
LINE
  8
_0-a_極細1
  6
CONTINUOUS
 62
    7
 10
171.75290196165184
 20
616.06469619643872
 11
171.75290196165184
 21
622.86469551643836
  0
LINE
  8
_0-a_極細1
  6
CONTINUOUS
 62
    7
 10
170.95290204165173
 20
616.06469619643872
 11
170.95290204165173
 21
622.86469551643836
  0
LINE
  8
_0-a_極細1
  6
CONTINUOUS
 62
    7
 10
170.15290212165161
 20
616.06469619643872
 11
170.15290212165161
 21
622.86469551643836
  0
LINE
  8
_0-a_極細1
  6
CONTINUOUS
 62
    7
 10
169.35290220165149
 20
616.06469619643872
 11
169.35290220165149
 21
622.86469551643836
  0
LINE
  8
_0-a_極細1
  6
CONTINUOUS
 62
    7
 10
168.55290228165137
 20
616.06469619643872
 11
168.55290228165137
 21
622.86469551643836
  0
LINE
  8
_0-a_極細1
  6
CONTINUOUS
 62
    7
 10
167.75290236165193
 20
616.06469619643872
 11
167.75290236165193
 21
622.86469551643836
  0
LINE
  8
_0-a_極細1
  6
CONTINUOUS
 62
    7
 10
166.95290244165182
 20
616.06469619643872
 11
166.95290244165182
 21
622.86469551643836
  0
LINE
  8
_0-a_極細1
  6
CONTINUOUS
 62
    7
 10
166.1529025216517
 20
616.06469619643872
 11
166.1529025216517
 21
622.86469551643836
  0
LINE
  8
_0-a_極細1
  6
CONTINUOUS
 62
    7
 10
165.35290260165158
 20
616.06469619643872
 11
165.35290260165158
 21
622.86469551643836
  0
LINE
  8
_0-a_極細1
  6
CONTINUOUS
 62
    7
 10
164.55290268165214
 20
616.06469619643872
 11
164.55290268165214
 21
622.86469551643836
  0
LINE
  8
_0-a_極細1
  6
CONTINUOUS
 62
    7
 10
163.75290276165134
 20
616.06469619643872
 11
163.75290276165134
 21
622.86469551643836
  0
LINE
  8
_0-a_極細1
  6
CONTINUOUS
 62
    7
 10
162.95290284165191
 20
616.06469619643872
 11
162.95290284165191
 21
622.86469551643836
  0
LINE
  8
_0-a_極細1
  6
CONTINUOUS
 62
    7
 10
162.15290292165179
 20
616.06469619643872
 11
162.15290292165179
 21
622.86469551643836
  0
LINE
  8
_0-a_極細1
  6
CONTINUOUS
 62
    7
 10
161.35290300165167
 20
616.06469619643872
 11
161.35290300165167
 21
622.86469551643836
  0
LINE
  8
_0-a_極細1
  6
CONTINUOUS
 62
    7
 10
160.55290308165155
 20
616.06469619643872
 11
160.55290308165155
 21
622.86469551643836
  0
LINE
  8
_0-a_極細1
  6
CONTINUOUS
 62
    7
 10
159.75290316165143
 20
616.06469619643872
 11
159.75290316165143
 21
622.86469551643836
  0
LINE
  8
_0-a_極細1
  6
CONTINUOUS
 62
    7
 10
158.95290324165131
 20
616.06469619643872
 11
158.95290324165131
 21
622.86469551643836
  0
LINE
  8
_0-a_極細1
  6
CONTINUOUS
 62
    7
 10
158.15290332165154
 20
616.06469619643872
 11
158.15290332165154
 21
622.86469551643836
  0
LINE
  8
_0-a_極細1
  6
CONTINUOUS
 62
    7
 10
157.35290340165142
 20
616.06469619643872
 11
157.35290340165142
 21
622.86469551643836
  0
LINE
  8
_0-a_極細1
  6
CONTINUOUS
 62
    7
 10
156.5529034816513
 20
616.06469619643872
 11
156.5529034816513
 21
622.86469551643836
  0
LINE
  8
_0-a_極細1
  6
CONTINUOUS
 62
    7
 10
155.75290356165118
 20
616.06469619643872
 11
155.75290356165118
 21
622.86469551643836
  0
LINE
  8
_0-a_極細1
  6
CONTINUOUS
 62
    7
 10
154.95290364165106
 20
616.06469619643872
 11
154.95290364165106
 21
622.86469551643836
  0
LINE
  8
_0-a_極細1
  6
CONTINUOUS
 62
    7
 10
154.15290372165094
 20
616.06469619643872
 11
154.15290372165094
 21
622.86469551643836
  0
LINE
  8
_0-a_極細1
  6
CONTINUOUS
 62
    7
 10
153.35290380165185
 20
616.06469619643872
 11
153.35290380165185
 21
622.86469551643836
  0
LINE
  8
_0-a_極細1
  6
CONTINUOUS
 62
    7
 10
173.06588507366956
 20
616.06469619643872
 11
173.06588507366956
 21
622.86469551643836
  0
LINE
  8
_0-a_極細1
  6
CONTINUOUS
 62
    7
 10
153.06588707366933
 20
616.06469619643872
 11
153.06588707366933
 21
622.86469551643836
  0
LINE
  8
_0-a_極細1
  6
CONTINUOUS
 62
    7
 10
153.06588707366933
 20
616.06469619643872
 11
173.06588507366956
 21
616.06469619643872
  0
ARC
  8
_0-a_極細1
  6
CONTINUOUS
 62
    7
 10
165.92063378819472
 20
612.76479652642865
 40
23.999997599999997
 50
55.166292356154081
 51
148.68484545272992
  0
LINE
  8
_0-a_極細1
  6
CONTINUOUS
 62
    7
 10
183.86877724380616
 20
622.86469551643836
 11
183.86877724380616
 21
624.38218341869197
  0
LINE
  8
_0-a_極細1
  6
CONTINUOUS
 62
    7
 10
182.66877724380589
 20
622.86469551643836
 11
182.66877724380589
 21
628.6042307400005
  0
LINE
  8
_0-a_極細1
  6
CONTINUOUS
 62
    7
 10
181.46877724380596
 20
622.86469551643836
 11
181.46877724380596
 21
630.53643695095411
  0
LINE
  8
_0-a_極細1
  6
CONTINUOUS
 62
    7
 10
180.26877724380603
 20
622.86469551643836
 11
180.26877724380603
 21
631.88804708930911
  0
LINE
  8
_0-a_極細1
  6
CONTINUOUS
 62
    7
 10
179.06877724380644
 20
622.86469551643836
 11
179.06877724380644
 21
632.8427996261064
  0
LINE
  8
_0-a_極細1
  6
CONTINUOUS
 62
    7
 10
177.86877724380616
 20
622.86469551643836
 11
177.86877724380616
 21
633.57925671073667
  0
LINE
  8
_0-a_極細1
  6
CONTINUOUS
 62
    7
 10
176.66877724380589
 20
622.86469551643836
 11
176.66877724380589
 21
634.22353127611996
  0
LINE
  8
_0-a_極細1
  6
CONTINUOUS
 62
    7
 10
175.46877724380596
 20
622.86469551643836
 11
175.46877724380596
 21
634.78371660328708
  0
LINE
  8
_0-a_極細1
  6
CONTINUOUS
 62
    7
 10
174.26877724380603
 20
622.86469551643836
 11
174.26877724380603
 21
635.26609394778961
  0
LINE
  8
_0-a_極細1
  6
CONTINUOUS
 62
    7
 10
173.06877724380644
 20
622.86469551643836
 11
173.06877724380644
 21
635.67557848466868
  0
LINE
  8
_0-a_極細1
  6
CONTINUOUS
 62
    7
 10
171.86877724380616
 20
622.86469551643836
 11
171.86877724380616
 21
636.0160217464354
  0
LINE
  8
_0-a_極細1
  6
CONTINUOUS
 62
    7
 10
170.66877724380589
 20
622.86469551643836
 11
170.66877724380589
 21
636.29042124767557
  0
LINE
  8
_0-a_極細1
  6
CONTINUOUS
 62
    7
 10
169.46877724380596
 20
622.86469551643836
 11
169.46877724380596
 21
636.50106756503965
  0
LINE
  8
_0-a_極細1
  6
CONTINUOUS
 62
    7
 10
168.26877724380603
 20
622.86469551643836
 11
168.26877724380603
 21
636.64964752265382
  0
LINE
  8
_0-a_極細1
  6
CONTINUOUS
 62
    7
 10
167.06877724380644
 20
622.86469551643836
 11
167.06877724380644
 21
636.73731519688431
  0
LINE
  8
_0-a_極細1
  6
CONTINUOUS
 62
    7
 10
165.86877724380616
 20
622.86469551643836
 11
165.86877724380616
 21
636.76473810341599
  0
LINE
  8
_0-a_極細1
  6
CONTINUOUS
 62
    7
 10
164.66877724380589
 20
622.86469551643836
 11
164.66877724380589
 21
636.73212303549667
  0
LINE
  8
_0-a_極細1
  6
CONTINUOUS
 62
    7
 10
163.46877724380562
 20
622.86469551643836
 11
163.46877724380562
 21
636.63922393915914
  0
LINE
  8
_0-a_極細1
  6
CONTINUOUS
 62
    7
 10
162.26877724380535
 20
622.86469551643836
 11
162.26877724380535
 21
636.48533253595451
  0
LINE
  8
_0-a_極細1
  6
CONTINUOUS
 62
    7
 10
161.06877724380541
 20
622.86469551643836
 11
161.06877724380541
 21
636.26925084625213
  0
LINE
  8
_0-a_極細1
  6
CONTINUOUS
 62
    7
 10
159.86877724380548
 20
622.86469551643836
 11
159.86877724380548
 21
635.98924306808249
  0
LINE
  8
_0-a_極細1
  6
CONTINUOUS
 62
    7
 10
158.66877724380589
 20
622.86469551643836
 11
158.66877724380589
 21
635.64296213164289
  0
LINE
  8
_0-a_極細1
  6
CONTINUOUS
 62
    7
 10
157.46877724380562
 20
622.86469551643836
 11
157.46877724380562
 21
635.22734325989313
  0
LINE
  8
_0-a_極細1
  6
CONTINUOUS
 62
    7
 10
156.26877724380535
 20
622.86469551643836
 11
156.26877724380535
 21
634.73845234530722
  0
LINE
  8
_0-a_極細1
  6
CONTINUOUS
 62
    7
 10
155.06877724380541
 20
622.86469551643836
 11
155.06877724380541
 21
634.17126971422863
  0
LINE
  8
_0-a_極細1
  6
CONTINUOUS
 62
    7
 10
153.86877724380548
 20
622.86469551643836
 11
153.86877724380548
 21
633.51937767453819
  0
LINE
  8
_0-a_極細1
  6
CONTINUOUS
 62
    7
 10
152.66877724380589
 20
622.86469551643836
 11
152.66877724380589
 21
632.77449874627519
  0
LINE
  8
_0-a_極細1
  6
CONTINUOUS
 62
    7
 10
151.46877724380562
 20
622.86469551643836
 11
151.46877724380562
 21
631.92579146981302
  0
LINE
  8
_0-a_極細1
  6
CONTINUOUS
 62
    7
 10
150.26877724380535
 20
622.86469551643836
 11
150.26877724380535
 21
630.95873154648029
  0
LINE
  8
_0-a_極細1
  6
CONTINUOUS
 62
    7
 10
149.06877724380541
 20
622.86469551643836
 11
149.06877724380541
 21
629.85323752633644
  0
LINE
  8
_0-a_極細1
  6
CONTINUOUS
 62
    7
 10
147.86877724380548
 20
622.86469551643836
 11
147.86877724380548
 21
628.58030663836598
  0
LINE
  8
_0-a_極細1
  6
CONTINUOUS
 62
    7
 10
146.66877724380589
 20
622.86469551643836
 11
146.66877724380589
 21
627.09538982867048
  0
LINE
  8
_0-d_寸法1
  6
CONTINUOUS
 62
    7
 10
253.5470097508674
 20
689.2405175650988
 11
258.44530842517463
 21
700.19527315786672
  0
LINE
  8
_0-d_寸法1
  6
CONTINUOUS
 62
    7
 10
253.5470097508674
 20
689.2405175650988
 11
263.26643863452512
 21
696.27846486353178
  0
LINE
  8
_0-d_寸法1
  6
CONTINUOUS
 62
    7
 10
253.5470097508674
 20
689.2405175650988
 11
278.09653506563524
 21
719.45809504812792
  0
LINE
  8
_0-d_寸法1
  6
CONTINUOUS
 62
    7
 10
278.09653506563524
 20
719.45809504812792
 11
335.69653506563532
 21
719.45809504812792
  0
TEXT
  8
_0-d_寸法1
 62
    7
 10
278.09653506563524
 20
719.45809504812792
 40
18
 41
0.7999999999999998
 50
0
  1
パッキン
  0
LINE
  8
_0-d_寸法1
  6
CONTINUOUS
 62
    7
 10
201.902750982084
 20
652.70504753782893
 11
210.38798989384929
 21
644.21972370132949
  0
LINE
  8
_0-d_寸法1
  6
CONTINUOUS
 62
    7
 10
201.902750982084
 20
652.70504753782893
 11
205.00852151860323
 21
641.11392208020015
  0
LINE
  8
_0-d_寸法1
  6
CONTINUOUS
 62
    7
 10
201.902750982084
 20
652.70504753782893
 11
246.78912917520307
 21
574.95866144333741
  0
LINE
  8
_0-d_寸法1
  6
CONTINUOUS
 62
    7
 10
246.78912917520307
 20
574.95866144333741
 11
390.78912917520307
 21
574.95866144333741
  0
TEXT
  8
_0-d_寸法1
 62
    7
 10
246.78912917520307
 20
574.95866144333741
 40
18
 41
0.7999999999999998
 50
0
  1
防臭インナーパッキン
  0
LINE
  8
_0-d_寸法1
  6
CONTINUOUS
 62
    7
 10
252.72261292348827
 20
636.9373928595578
 11
261.20828799401204
 21
628.45250519987189
  0
LINE
  8
_0-d_寸法1
  6
CONTINUOUS
 62
    7
 10
252.72261292348827
 20
636.9373928595578
 11
255.82897927297924
 21
625.34642706275076
  0
LINE
  8
_0-d_寸法1
  6
CONTINUOUS
 62
    7
 10
252.72261292348827
 20
636.9373928595578
 11
275.13028854582905
 21
598.13031860963042
  0
LINE
  8
_0-d_寸法1
  6
CONTINUOUS
 62
    7
 10
275.13028854582905
 20
598.13031860963042
 11
375.93028854582906
 21
598.13031860963042
  0
TEXT
  8
_0-d_寸法1
 62
    7
 10
275.13028854582905
 20
598.13031860963042
 40
18
 41
0.7999999999999998
 50
0
  1
ロックフランジ
  0
TEXT
  8
_0-7_枠細線
 62
    5
 10
1432.8
 20
141
 40
24
 41
0.6999999999999997
 50
0
  1
１：６
  0
LINE
  8
_0-1_計細線
  6
CONTINUOUS
 62
    3
 10
596.5
 20
944.15638321366578
 11
596.5
 21
805.15638321366578
  0
LINE
  8
_0-1_計細線
  6
CONTINUOUS
 62
    3
 10
596.5
 20
805.15638321366578
 11
1185.5
 21
805.15638321366578
  0
LINE
  8
_0-1_計細線
  6
CONTINUOUS
 62
    3
 10
1185.5
 20
805.15638321366578
 11
1185.5
 21
944.15638321366578
  0
LINE
  8
_0-1_計細線
  6
CONTINUOUS
 62
    3
 10
1185.5
 20
944.15638321366578
 11
596.5
 21
944.15638321366578
  0
LINE
  8
_0-0_計極細
  6
CENTER2
 62
    2
 10
586.45149030505672
 20
874.65638321366566
 11
1200.6024337012832
 21
874.65638321366566
  0
ARC
  8
_0-1_計細線
  6
DASHED2
 62
    3
 10
609.99999999999909
 20
930.65638321366578
 40
12.499999999999998
 50
233.13010235415811
 51
36.869897645840325
  0
ARC
  8
_0-1_計細線
  6
CONTINUOUS
 62
    3
 10
609.99999999999909
 20
930.65638321366578
 40
12.499999999999998
 50
36.869897645840688
 51
233.13010235415564
  0
ARC
  8
_0-1_計細線
  6
DASHED2
 62
    3
 10
609.99999999999909
 20
818.65638321366578
 40
12.499999999999998
 50
323.11949922672761
 51
126.86989764584366
  0
ARC
  8
_0-1_計細線
  6
CONTINUOUS
 62
    3
 10
609.99999999999909
 20
818.65638321366578
 40
12.499999999999998
 50
126.86989764584402
 51
323.11949922672761
  0
LINE
  8
_0-1_計細線
  6
CONTINUOUS
 62
    3
 10
602.49999999999909
 20
894.65638321366578
 11
599.5
 21
894.65638321366578
  0
ARC
  8
_0-1_計細線
  6
CONTINUOUS
 62
    3
 10
599.5
 20
892.65638321366566
 40
2
 50
89.999999999999915
 51
179.99999999999983
  0
LINE
  8
_0-1_計細線
  6
CONTINUOUS
 62
    3
 10
597.5
 20
892.65638321366566
 11
597.5
 21
856.65638321366566
  0
LINE
  8
_0-1_計細線
  6
CONTINUOUS
 62
    3
 10
599.5
 20
854.65638321366578
 11
602.49999999999909
 21
854.65638321366578
  0
ARC
  8
_0-1_計細線
  6
CONTINUOUS
 62
    3
 10
599.5
 20
856.65638321366566
 40
2
 50
179.99999999999983
 51
269.99999999999977
  0
LINE
  8
_0-1_計細線
  6
CONTINUOUS
 62
    3
 10
599.5
 20
859.65638321366566
 11
602.49999999999909
 21
859.65638321366566
  0
LINE
  8
_0-1_計細線
  6
CONTINUOUS
 62
    3
 10
599.5
 20
889.65638321366566
 11
599.5
 21
859.65638321366566
  0
LINE
  8
_0-1_計細線
  6
CONTINUOUS
 62
    3
 10
602.49999999999909
 20
889.65638321366566
 11
599.5
 21
889.65638321366566
  0
LINE
  8
_0-1_計細線
  6
DASHED2
 62
    3
 10
602.49999999999909
 20
894.65638321366578
 11
610
 21
894.65638321366578
  0
LINE
  8
_0-1_計細線
  6
DASHED2
 62
    3
 10
610
 20
854.65638321366578
 11
602.49999999999909
 21
854.65638321366578
  0
LINE
  8
_0-1_計細線
  6
DASHED2
 62
    3
 10
610
 20
894.65638321366578
 11
610
 21
854.65638321366578
  0
ARC
  8
_0-0_計極細
  6
CONTINUOUS
 62
    2
 10
993.39417805960056
 20
903.67365337689125
 40
54.312365187078846
 50
327.72737804884378
 51
41.725734002916518
  0
ARC
  8
_0-0_計極細
  6
CONTINUOUS
 62
    2
 10
1085.2382418246525
 20
845.67365337706758
 40
54.312365187078846
 50
147.72737804884252
 51
222.98978477068846
  0
LINE
  8
_0-1_計細線
  6
CONTINUOUS
 62
    3
 10
604.49999999999909
 20
936.15638321366566
 11
604.49999999999909
 21
813.15638321366566
  0
LINE
  8
_0-1_計細線
  6
CONTINUOUS
 62
    3
 10
604.49999999999909
 20
813.15638321366566
 11
1041.7358263361439
 21
813.15638321366566
  0
LINE
  8
_0-1_計細線
  6
CONTINUOUS
 62
    3
 10
1036.9223904576065
 20
936.15638321366566
 11
604.49999999999909
 21
936.15638321366566
  0
ARC
  8
_0-1_計細線
  6
CONTINUOUS
 62
    3
 10
604.49999999999909
 20
936.15638321366487
 40
2
 50
89.999999999999915
 51
179.99999999999983
  0
LINE
  8
_0-1_計細線
  6
CONTINUOUS
 62
    3
 10
602.49999999999909
 20
813.15638321366566
 11
602.49999999999909
 21
936.15638321366487
  0
ARC
  8
_0-1_計細線
  6
CONTINUOUS
 62
    3
 10
604.49999999999909
 20
813.15638321366487
 40
2
 50
179.99999999997394
 51
269.99999999999977
  0
LINE
  8
_0-1_計細線
  6
CONTINUOUS
 62
    3
 10
604.49999999999909
 20
938.15638321366487
 11
1035.3557599556489
 21
938.15638321366487
  0
LINE
  8
_0-1_計細線
  6
CONTINUOUS
 62
    3
 10
1043.3050679323615
 20
811.15638321366748
 11
604.49999999999909
 21
811.15638321366475
  0
CIRCLE
  8
_0-1_計細線
  6
CONTINUOUS
 62
    3
 10
1171.9999999999991
 20
930.65638321366578
 40
12.499999999999998
  0
CIRCLE
  8
_0-1_計細線
  6
CONTINUOUS
 62
    3
 10
1172
 20
818.65638321366578
 40
12.499999999999998
  0
ARC
  8
_0-1_計細線
  6
CONTINUOUS
 62
    3
 10
1146.6168456737496
 20
888.86262319618663
 40
0.501740082747087
 50
329.999999999995
 51
20.18999099994133
  0
ARC
  8
_0-1_計細線
  6
CONTINUOUS
 62
    3
 10
1146.6168456737496
 20
860.46301342017659
 40
0.501740082747087
 50
339.81000900005796
 51
30.000000000004292
  0
LINE
  8
_0-1_計細線
  6
CONTINUOUS
 62
    3
 10
1109.3056521475482
 20
876.92065771190062
 11
1108.0020840521329
 21
879.17849711561973
  0
LINE
  8
_0-1_計細線
  6
CONTINUOUS
 62
    3
 10
1109.3056521475482
 20
876.92065771190062
 11
1089.1657607918014
 21
911.80396943320784
  0
LINE
  8
_0-1_計細線
  6
CONTINUOUS
 62
    3
 10
1109.3056521475482
 20
876.92065771190062
 11
1111.9127823174749
 21
876.92065771190062
  0
LINE
  8
_0-1_計細線
  6
CONTINUOUS
 62
    3
 10
1105.3949599031121
 20
874.6628183081807
 11
1085.2550685473616
 21
909.54613002948952
  0
ARC
  8
_0-1_計細線
  6
CONTINUOUS
 62
    3
 10
1076.3973116885572
 20
848.3213585981207
 40
0.501740082747087
 50
219.81000899998574
 51
269.99999999999977
  0
LINE
  8
_0-1_計細線
  6
CONTINUOUS
 62
    3
 10
1109.3056521475482
 20
872.40497890446159
 11
1089.1657607918014
 21
837.52166718315436
  0
LINE
  8
_0-1_計細線
  6
CONTINUOUS
 62
    3
 10
1105.3949599031121
 20
874.6628183081807
 11
1085.2550685473616
 21
839.77950658687348
  0
ARC
  8
_0-1_計細線
  6
CONTINUOUS
 62
    3
 10
1108.0020840521329
 20
874.6628183081807
 40
46.4111412917104
 50
89.999999999999915
 51
269.99999999999977
  0
ARC
  8
_0-1_計細線
  6
CONTINUOUS
 62
    3
 10
1108.0020840521329
 20
874.6628183081807
 40
57.198598227560829
 50
89.999999999999915
 51
269.99999999999977
  0
CIRCLE
  8
_0-1_計細線
  6
CONTINUOUS
 62
    3
 10
1108.0020840521329
 20
874.6628183081807
 40
58.202084413960065
  0
LINE
  8
_0-1_計細線
  6
CONTINUOUS
 62
    3
 10
1109.3056521475482
 20
876.92065771190062
 11
1149.5854288381388
 21
876.92065771190062
  0
LINE
  8
_0-1_計細線
  6
CONTINUOUS
 62
    3
 10
1109.3056521475482
 20
872.40497890446159
 11
1149.5854288381388
 21
872.40497890446159
  0
ARC
  8
_0-1_計細線
  6
CONTINUOUS
 62
    3
 10
1108.0020840521329
 20
874.6628183081807
 40
46.4111412917104
 50
269.99999999999977
 51
89.999999999999545
  0
ARC
  8
_0-1_計細線
  6
CONTINUOUS
 62
    3
 10
1108.0020840521329
 20
874.6628183081807
 40
57.198598227560829
 50
269.99999999999977
 51
89.999999999999545
  0
ARC
  8
_0-1_計細線
  6
CONTINUOUS
 62
    3
 10
1108.0020840521329
 20
874.6628183081807
 40
41.644595453350369
 50
89.999999999999915
 51
116.89207624474167
  0
ARC
  8
_0-1_計細線
  6
CONTINUOUS
 62
    3
 10
1108.0020840521329
 20
874.6628183081807
 40
41.644595453350369
 50
123.1079186869398
 51
236.89208131305745
  0
ARC
  8
_0-1_計細線
  6
CONTINUOUS
 62
    3
 10
1108.0020840521329
 20
874.6628183081807
 40
41.644595453350369
 50
243.10792375525631
 51
269.99999999999977
  0
ARC
  8
_0-1_計細線
  6
CONTINUOUS
 62
    3
 10
1108.0020840521329
 20
874.6628183081807
 40
41.644595453350369
 50
269.99999999999977
 51
356.8920785890931
  0
ARC
  8
_0-1_計細線
  6
CONTINUOUS
 62
    3
 10
1108.0020840521329
 20
874.6628183081807
 40
41.644595453350369
 50
3.1079214109077964
 51
89.999999999999915
  0
ARC
  8
_0-0_計極細
  6
CONTINUOUS
 62
    2
 10
1108.0020840521329
 20
874.6628183081807
 40
50.153133796808191
 50
269.99999999999977
 51
89.999999999999545
  0
ARC
  8
_0-0_計極細
  6
CONTINUOUS
 62
    2
 10
1108.0020840521329
 20
874.6628183081807
 40
50.153133796808191
 50
89.999999999999915
 51
269.99999999999977
  0
ARC
  8
_0-0_計極細
  6
CONTINUOUS
 62
    2
 10
1094.3870830076257
 20
845.56177607858945
 40
0.501740082747087
 50
149.99997568607938
 51
210.00002243784951
  0
ARC
  8
_0-0_計極細
  6
CONTINUOUS
 62
    2
 10
1108.2917678580816
 20
868.64191323159457
 40
1.0034861863992508
 50
29.999999999951111
 51
149.99999999997101
  0
ARC
  8
_0-0_計極細
  6
CONTINUOUS
 62
    2
 10
1108.2917678580816
 20
868.64191323159457
 40
1.0034861863992508
 50
29.999999999951111
 51
106.77865499998268
  0
ARC
  8
_0-0_計極細
  6
CONTINUOUS
 62
    2
 10
1102.6429908406608
 20
871.90323882171424
 40
1.0034861863992508
 50
329.99999999995163
 51
89.999999999999545
  0
ARC
  8
_0-0_計極細
  6
CONTINUOUS
 62
    2
 10
1067.5068677520949
 20
881.94157910727381
 40
0.501740082747087
 50
89.993779916795503
 51
169.80868012342603
  0
ARC
  8
_0-0_計極細
  6
CONTINUOUS
 62
    2
 10
1067.5053020466621
 20
867.3910557745188
 40
0.501740082747087
 50
190.17882981043587
 51
269.99383436904543
  0
ARC
  8
_0-0_計極細
  6
CONTINUOUS
 62
    2
 10
1067.4535697560559
 20
877.42590470481491
 40
1.0034861863992508
 50
176.10042624735729
 51
269.99385985774035
  0
ARC
  8
_0-0_計極細
  6
CONTINUOUS
 62
    2
 10
1108.0020840521329
 20
874.6628183081807
 40
37.630656728658437
 50
317.45760300000074
 51
327.38710799999916
  0
ARC
  8
_0-0_計極細
  6
CONTINUOUS
 62
    2
 10
1108.0020840521329
 20
874.6628183081807
 40
37.630656728658437
 50
32.612892000001665
 51
42.542396999999895
  0
LINE
  8
_0-0_計極細
  6
CONTINUOUS
 62
    2
 10
1143.1763018231204
 20
855.38388025295581
 11
1134.2182126021198
 21
870.89975263531642
  0
LINE
  8
_0-0_計極細
  6
CONTINUOUS
 62
    2
 10
1141.7694752056414
 20
850.79618539989451
 11
1129.4384749607361
 21
872.15410585263487
  0
LINE
  8
_0-0_計極細
  6
CONTINUOUS
 62
    2
 10
1137.1475394654099
 20
846.75980074107656
 11
1123.2103363523211
 21
870.89975263531642
  0
LINE
  8
_0-0_計極細
  6
CONTINUOUS
 62
    2
 10
1143.1763018231204
 20
893.94175636340742
 11
1134.2182126021198
 21
878.42588398104681
  0
LINE
  8
_0-0_計極細
  6
CONTINUOUS
 62
    2
 10
1141.7694752056414
 20
898.52945121646769
 11
1129.4384749607361
 21
877.17153076372642
  0
LINE
  8
_0-0_計極細
  6
CONTINUOUS
 62
    2
 10
1137.1475394654099
 20
902.56582985438081
 11
1123.2103363523211
 21
878.42588398104681
  0
LINE
  8
_0-0_計極細
  6
CONTINUOUS
 62
    2
 10
1105.9951177002395
 20
847.64318191300879
 11
1105.9951177002395
 21
855.5605938169532
  0
LINE
  8
_0-0_計極細
  6
CONTINUOUS
 62
    2
 10
1106.4968577829868
 20
847.6105907538298
 11
1106.4968577829868
 21
854.69155444091427
  0
ARC
  8
_0-0_計極細
  6
CONTINUOUS
 62
    2
 10
1108.0020840521329
 20
874.6628183081807
 40
37.630656728658437
 50
213.59599499999916
 51
225.50677599999992
  0
LINE
  8
_0-0_計極細
  6
CONTINUOUS
 62
    2
 10
1134.9844209403554
 20
843.48205012191147
 11
1118.4305987109374
 21
872.15410585263487
  0
LINE
  8
_0-0_計極細
  6
CONTINUOUS
 62
    2
 10
1129.7965682901668
 20
840.42586278865519
 11
1112.2024601025214
 21
870.89975263531642
  0
LINE
  8
_0-0_計極細
  6
CONTINUOUS
 62
    2
 10
1111.7874993246432
 20
833.48608330471177
 11
1099.456499079738
 21
854.84400375745236
  0
LINE
  8
_0-0_計極細
  6
CONTINUOUS
 62
    2
 10
1117.5940782432162
 20
835.47060372247915
 11
1103.6568751301265
 21
859.6105556167181
  0
LINE
  8
_0-0_計極細
  6
CONTINUOUS
 62
    2
 10
1121.5142594340568
 20
835.70504572435357
 11
1104.9604372046388
 21
864.37710747598283
  0
LINE
  8
_0-0_計極細
  6
CONTINUOUS
 62
    2
 10
1126.7549154217677
 20
838.66976948858837
 11
1109.1608132550273
 21
869.14365331434283
  0
LINE
  8
_0-0_計極細
  6
CONTINUOUS
 62
    2
 10
1076.3973116885572
 20
847.81961851537415
 11
1089.6073460119287
 21
847.81961851537415
  0
ARC
  8
_0-0_計極細
  6
CONTINUOUS
 62
    2
 10
1086.1311764659613
 20
843.30393970793421
 40
1.0034861863992508
 50
329.99999999997061
 51
89.999999999999545
  0
ARC
  8
_0-0_計極細
  6
CONTINUOUS
 62
    2
 10
1108.0020840521329
 20
874.6628183081807
 40
37.630656728658437
 50
233.77152299999938
 51
236.3196459999983
  0
ARC
  8
_0-0_計極細
  6
CONTINUOUS
 62
    2
 10
1082.1501961756594
 20
843.30393970793421
 40
1.0034861863992508
 50
89.999999999999915
 51
230.49822999997428
  0
LINE
  8
_0-0_計極細
  6
CONTINUOUS
 62
    2
 10
1082.1501961756594
 20
844.3074198734289
 11
1086.1311764659613
 21
844.3074198734289
  0
ARC
  8
_0-0_計極細
  6
CONTINUOUS
 62
    2
 10
1108.0020840521329
 20
874.6628183081807
 40
37.630656728658437
 50
272.61289199999942
 51
282.54239699999982
  0
ARC
  8
_0-0_計極細
  6
CONTINUOUS
 62
    2
 10
1112.2220220231147
 20
833.73695635653758
 40
0.501740082747087
 50
210.00000000009422
 51
275.88706199996454
  0
LINE
  8
_0-0_計極細
  6
CONTINUOUS
 62
    2
 10
1107.1110262262282
 20
834.5615795158277
 11
1098.1529370052276
 21
850.07745791909326
  0
LINE
  8
_0-0_計極細
  6
CONTINUOUS
 62
    2
 10
1100.5575781165235
 20
833.87068065829089
 11
1093.9525609548391
 21
845.31090605982854
  0
ARC
  8
_0-0_計極細
  6
CONTINUOUS
 62
    2
 10
1108.0020840521329
 20
874.6628183081807
 40
37.630656728658437
 50
254.49322399999946
 51
266.40400499999907
  0
ARC
  8
_0-0_計極細
  6
CONTINUOUS
 62
    2
 10
1089.6073460119287
 20
848.3213585981207
 40
0.501740082747087
 50
269.99999999999977
 51
329.99999999989114
  0
ARC
  8
_0-0_計極細
  6
CONTINUOUS
 62
    2
 10
1093.7704466389869
 20
836.59498366191247
 40
1.0034861863992508
 50
249.50177000005806
 51
29.999999999976708
  0
LINE
  8
_0-0_計極細
  6
CONTINUOUS
 62
    2
 10
1094.6394860150276
 20
837.09672374465981
 11
1092.6489988803287
 21
840.54435420056177
  0
ARC
  8
_0-0_計極細
  6
CONTINUOUS
 62
    2
 10
1097.2838916082828
 20
849.57571181544199
 40
1.0034861863992508
 50
29.999999999977071
 51
149.99999999999699
  0
ARC
  8
_0-0_計極細
  6
CONTINUOUS
 62
    2
 10
1108.0020840521329
 20
874.6628183081807
 40
27.094072844634088
 50
244.78019200000156
 51
249.77896100000117
  0
ARC
  8
_0-0_計極細
  6
CONTINUOUS
 62
    2
 10
1108.0020840521329
 20
874.6628183081807
 40
37.630656728658437
 50
243.68035399999945
 51
246.22847699999838
  0
ARC
  8
_0-0_計極細
  6
CONTINUOUS
 62
    2
 10
1091.7799534833839
 20
840.04261411781636
 40
1.0034861863992508
 50
29.999999999977071
 51
150.00000000002294
  0
ARC
  8
_0-0_計極細
  6
CONTINUOUS
 62
    2
 10
1106.2419868501902
 20
834.05983943308229
 40
1.0034861863992508
 50
267.5178359999677
 51
30.000000000002665
  0
ARC
  8
_0-0_計極細
  6
CONTINUOUS
 62
    2
 10
1100.992100814995
 20
834.12155371011659
 40
0.501740082747087
 50
210.00000000010814
 51
260.18999100005101
  0
ARC
  8
_0-0_計極細
  6
CONTINUOUS
 62
    2
 10
1108.0020840521329
 20
874.6628183081807
 40
27.094072844634088
 50
260.2909829999989
 51
275.37568199999987
  0
ARC
  8
_0-0_計極細
  6
CONTINUOUS
 62
    2
 10
1108.0020840521329
 20
874.6628183081807
 40
37.630656728658437
 50
288.07291800000036
 51
297.3252259999993
  0
ARC
  8
_0-0_計極細
  6
CONTINUOUS
 62
    2
 10
1108.0020840521329
 20
874.6628183081807
 40
27.094072844634088
 50
283.31934900000118
 51
296.2837799999993
  0
ARC
  8
_0-0_計極細
  6
CONTINUOUS
 62
    2
 10
1121.9487761116225
 20
835.95591877617926
 40
0.501740082747087
 50
210.00000000010814
 51
289.81487200010849
  0
ARC
  8
_0-0_計極細
  6
CONTINUOUS
 62
    2
 10
1116.7250328462724
 20
834.9688636397326
 40
1.0034861863992508
 50
282.39403400005705
 51
30.000000000002665
  0
ARC
  8
_0-0_計極細
  6
CONTINUOUS
 62
    2
 10
1108.0020840521329
 20
874.6628183081807
 40
37.630656728658437
 50
302.67477399999825
 51
311.92708199999919
  0
ARC
  8
_0-0_計極細
  6
CONTINUOUS
 62
    2
 10
1130.6656076662048
 20
840.92760889230749
 40
1.0034861863992508
 50
210.00000000000267
 51
303.89345000004312
  0
ARC
  8
_0-0_計極細
  6
CONTINUOUS
 62
    2
 10
1134.5498982418831
 20
843.23117707008578
 40
0.501740082747087
 50
310.18512800000013
 51
29.999999999862414
  0
ARC
  8
_0-0_計極細
  6
CONTINUOUS
 62
    2
 10
1125.8858760457288
 20
838.16802338493505
 40
1.0034861863992508
 50
296.10655000003601
 51
30.000000000021696
  0
LINE
  8
_0-0_計極細
  6
CONTINUOUS
 62
    2
 10
1073.71892410705
 20
853.84052359195937
 11
1091.6351145908602
 21
853.84052359195937
  0
ARC
  8
_0-0_計極細
  6
CONTINUOUS
 62
    2
 10
1086.1311764659613
 20
906.02169690842902
 40
1.0034861863992508
 50
269.99999999999977
 51
30.000000000073602
  0
LINE
  8
_0-0_計極細
  6
CONTINUOUS
 62
    2
 10
1076.3973116885572
 20
901.50601810098885
 11
1089.6073460119287
 21
901.50601810098885
  0
LINE
  8
_0-0_計極細
  6
CONTINUOUS
 62
    2
 10
1073.71892410705
 20
895.48511302440284
 11
1091.6351145908602
 21
895.48511302440284
  0
LINE
  8
_0-0_計極細
  6
CONTINUOUS
 62
    2
 10
1070.4492836470208
 20
891.97292040336424
 11
1095.1112841368276
 21
891.97292040336424
  0
LINE
  8
_0-0_計極細
  6
CONTINUOUS
 62
    2
 10
1069.2646404686766
 20
885.95201532677902
 11
1097.139052715761
 21
885.95201532677902
  0
LINE
  8
_0-0_計極細
  6
CONTINUOUS
 62
    2
 10
1067.5075838237963
 20
882.43982270573849
 11
1100.6152222617266
 21
882.43982270573849
  0
LINE
  8
_0-0_計極細
  6
CONTINUOUS
 62
    2
 10
1067.4547744653692
 20
876.41891762915327
 11
1102.6429908406608
 21
876.41891762915327
  0
LINE
  8
_0-0_計極細
  6
CONTINUOUS
 62
    2
 10
1070.4492836470208
 20
857.35271621299898
 11
1095.1112841368276
 21
857.35271621299898
  0
LINE
  8
_0-0_計極細
  6
CONTINUOUS
 62
    2
 10
1069.2646404686766
 20
863.37362128958421
 11
1097.139052715761
 21
863.37362128958421
  0
LINE
  8
_0-0_計極細
  6
CONTINUOUS
 62
    2
 10
1067.5075838237963
 20
866.88581391062451
 11
1100.6152222617266
 21
866.88581391062451
  0
LINE
  8
_0-0_計極細
  6
CONTINUOUS
 62
    2
 10
1067.4547744653692
 20
872.90671898720802
 11
1102.6429908406608
 21
872.90671898720802
  0
ARC
  8
_0-0_計極細
  6
CONTINUOUS
 62
    2
 10
1108.0020840521329
 20
874.6628183081807
 40
27.094072844634088
 50
140.2909829999995
 51
155.37568199999916
  0
ARC
  8
_0-0_計極細
  6
CONTINUOUS
 62
    2
 10
1108.0020840521329
 20
874.6628183081807
 40
37.630656728658437
 50
152.61289200000007
 51
162.54239700000034
  0
ARC
  8
_0-0_計極細
  6
CONTINUOUS
 62
    2
 10
1069.2646404686766
 20
886.95550151317946
 40
1.0034861863992508
 50
162.39403400002107
 51
269.99999999999977
  0
ARC
  8
_0-0_計極細
  6
CONTINUOUS
 62
    2
 10
1073.71892410705
 20
852.83703740555893
 40
1.0034861863992508
 50
89.999999999999915
 51
212.4821639999854
  0
ARC
  8
_0-0_計極細
  6
CONTINUOUS
 62
    2
 10
1108.0020840521329
 20
874.6628183081807
 40
37.630656728658437
 50
168.07291799999859
 51
177.32522600000016
  0
ARC
  8
_0-0_計極細
  6
CONTINUOUS
 62
    2
 10
1108.0020840521329
 20
874.6628183081807
 40
37.630656728658437
 50
182.67477399999814
 51
191.9270819999997
  0
ARC
  8
_0-0_計極細
  6
CONTINUOUS
 62
    2
 10
1108.0020840521329
 20
874.6628183081807
 40
37.630656728658437
 50
197.4576029999993
 51
207.38710799999956
  0
ARC
  8
_0-0_計極細
  6
CONTINUOUS
 62
    2
 10
1067.4547744653692
 20
871.90323882171504
 40
1.0034861863992508
 50
89.999999999999915
 51
183.89344999999844
  0
ARC
  8
_0-0_計極細
  6
CONTINUOUS
 62
    2
 10
1069.2646404686766
 20
862.37013510318548
 40
1.0034861863992508
 50
89.999999999999915
 51
197.60596599997857
  0
ARC
  8
_0-0_計極細
  6
CONTINUOUS
 62
    2
 10
1070.4492836470208
 20
857.85445629574531
 40
0.501740082747087
 50
204.11293800007545
 51
269.99999999999977
  0
ARC
  8
_0-0_計極細
  6
CONTINUOUS
 62
    2
 10
1108.0020840521329
 20
874.6628183081807
 40
27.094072844634088
 50
163.31934899999951
 51
176.28377999999955
  0
ARC
  8
_0-0_計極細
  6
CONTINUOUS
 62
    2
 10
1108.0020840521329
 20
874.6628183081807
 40
27.094072844634088
 50
183.71622000000008
 51
196.68065099999828
  0
ARC
  8
_0-0_計極細
  6
CONTINUOUS
 62
    2
 10
1108.0020840521329
 20
874.6628183081807
 40
27.094072844634088
 50
204.62431799999874
 51
219.70901699999865
  0
ARC
  8
_0-0_計極細
  6
CONTINUOUS
 62
    2
 10
1070.4492836470208
 20
891.47118032061769
 40
0.501740082747087
 50
89.999999999999915
 51
155.88706199992419
  0
ARC
  8
_0-0_計極細
  6
CONTINUOUS
 62
    2
 10
1073.71892410705
 20
896.48859921080327
 40
1.0034861863992508
 50
147.5178359999704
 51
269.99999999999977
  0
ARC
  8
_0-0_計極細
  6
CONTINUOUS
 62
    2
 10
1108.0020840521329
 20
874.6628183081807
 40
37.630656728658437
 50
123.68035400000058
 51
126.22847700000025
  0
ARC
  8
_0-0_計極細
  6
CONTINUOUS
 62
    2
 10
1108.0020840521329
 20
874.6628183081807
 40
37.630656728658437
 50
134.49322399999971
 51
146.40400499999933
  0
ARC
  8
_0-0_計極細
  6
CONTINUOUS
 62
    2
 10
1076.3973116885572
 20
901.00427801824344
 40
0.501740082747087
 50
89.999999999999915
 51
140.18999100009367
  0
ARC
  8
_0-0_計極細
  6
CONTINUOUS
 62
    2
 10
1082.1501961756594
 20
906.02169690842902
 40
1.0034861863992508
 50
129.50177000002535
 51
269.99999999999977
  0
LINE
  8
_0-0_計極細
  6
CONTINUOUS
 62
    2
 10
1082.1501961756594
 20
905.01821674293433
 11
1086.1311764659613
 21
905.01821674293433
  0
ARC
  8
_0-0_計極細
  6
CONTINUOUS
 62
    2
 10
1108.0020840521329
 20
874.6628183081807
 40
37.630656728658437
 50
77.457603000000148
 51
87.387108000000239
  0
ARC
  8
_0-0_計極細
  6
CONTINUOUS
 62
    2
 10
1108.0020840521329
 20
874.6628183081807
 40
37.630656728658437
 50
77.457603000000148
 51
87.387108000000239
  0
ARC
  8
_0-0_計極細
  6
CONTINUOUS
 62
    2
 10
1113.0715054994662
 20
871.40149271806376
 40
1.0034861863992508
 50
89.999999999999915
 51
210.00000000002169
  0
ARC
  8
_0-0_計極細
  6
CONTINUOUS
 62
    2
 10
1113.0715054994662
 20
877.92414389830128
 40
1.0034861863992508
 50
149.99999999997794
 51
269.99999999999977
  0
ARC
  8
_0-0_計極細
  6
CONTINUOUS
 62
    2
 10
1112.2220220231147
 20
915.58868025982372
 40
0.501740082747087
 50
84.11293800001377
 51
150.00000000008532
  0
LINE
  8
_0-0_計極細
  6
CONTINUOUS
 62
    2
 10
1117.5940782432162
 20
913.8550268729764
 11
1103.6568751301265
 21
889.71508099964512
  0
LINE
  8
_0-0_計極細
  6
CONTINUOUS
 62
    2
 10
1121.5142594340568
 20
913.62058487110551
 11
1104.9604372046388
 21
884.94852914038017
  0
LINE
  8
_0-0_計極細
  6
CONTINUOUS
 62
    2
 10
1126.7549154217677
 20
910.65586712777485
 11
1109.1608132550273
 21
880.1819833020204
  0
LINE
  8
_0-0_計極細
  6
CONTINUOUS
 62
    2
 10
1105.9951177002395
 20
882.65466666158636
 11
1105.9951177002395
 21
886.74065153642493
  0
LINE
  8
_0-0_計極細
  6
CONTINUOUS
 62
    2
 10
1106.4968577829868
 20
881.78562728554743
 11
1106.4968577829868
 21
887.60969693336801
  0
ARC
  8
_0-0_計極細
  6
CONTINUOUS
 62
    2
 10
1097.139052715761
 20
886.95550151317946
 40
1.0034861863992508
 50
269.99999999999977
 51
30.000000000021696
  0
LINE
  8
_0-0_計極細
  6
CONTINUOUS
 62
    2
 10
1109.5073103212799
 20
880.7821410991495
 11
1109.5073103212799
 21
892.82395125231915
  0
LINE
  8
_0-0_計極細
  6
CONTINUOUS
 62
    2
 10
1110.0090564249313
 20
881.65118649609258
 11
1110.0090564249313
 21
893.69299664926484
  0
ARC
  8
_0-0_計極細
  6
CONTINUOUS
 62
    2
 10
1097.139052715761
 20
862.37013510318548
 40
1.0034861863992508
 50
329.9999999999776
 51
89.999999999999545
  0
ARC
  8
_0-0_計極細
  6
CONTINUOUS
 62
    2
 10
1095.1112841368276
 20
857.85445629574531
 40
0.501740082747087
 50
269.99999999999977
 51
329.99999999990507
  0
ARC
  8
_0-0_計極細
  6
CONTINUOUS
 62
    2
 10
1108.0020840521329
 20
874.6628183081807
 40
27.094072844634088
 50
230.22103899999817
 51
235.21980799999864
  0
ARC
  8
_0-0_計極細
  6
CONTINUOUS
 62
    2
 10
1091.6351145908602
 20
852.83703740555893
 40
1.0034861863992508
 50
330.00000000002257
 51
89.999999999999545
  0
ARC
  8
_0-0_計極細
  6
CONTINUOUS
 62
    2
 10
1099.8910217782104
 20
855.09487680927884
 40
0.501740082747087
 50
149.99999999994344
 51
209.99999999996626
  0
LINE
  8
_0-0_計極細
  6
CONTINUOUS
 62
    2
 10
1105.9951177002395
 20
862.58498507993806
 11
1105.9951177002395
 21
866.67096995477687
  0
LINE
  8
_0-0_計極細
  6
CONTINUOUS
 62
    2
 10
1106.4968577829868
 20
861.71593968299339
 11
1106.4968577829868
 21
867.54000933081488
  0
ARC
  8
_0-0_計極細
  6
CONTINUOUS
 62
    2
 10
1100.6152222617266
 20
867.387560014276
 40
0.501740082747087
 50
269.99999999999977
 51
329.999999999995
  0
ARC
  8
_0-0_計極細
  6
CONTINUOUS
 62
    2
 10
1105.3949599031121
 20
864.62797450690368
 40
0.501740082747087
 50
150.00000000009922
 51
209.99999999990044
  0
ARC
  8
_0-0_計極細
  6
CONTINUOUS
 62
    2
 10
1102.7878297331818
 20
859.10881553397076
 40
1.0034861863992508
 50
29.999999999977071
 51
150.00000000002294
  0
ARC
  8
_0-0_計極細
  6
CONTINUOUS
 62
    2
 10
1105.3949599031121
 20
884.69766210945863
 40
0.501740082747087
 50
150.00000000009922
 51
209.99999999981048
  0
ARC
  8
_0-0_計極細
  6
CONTINUOUS
 62
    2
 10
1108.2917678580816
 20
880.68372338476775
 40
1.0034861863992508
 50
210.00000000007361
 51
330.00000000000352
  0
ARC
  8
_0-0_計極細
  6
CONTINUOUS
 62
    2
 10
1100.6152222617266
 20
881.9380766020862
 40
0.501740082747087
 50
29.999999999914696
 51
89.999999999999929
  0
ARC
  8
_0-0_計極細
  6
CONTINUOUS
 62
    2
 10
1102.6429908406608
 20
877.42239779464796
 40
1.0034861863992508
 50
269.99999999999977
 51
30.000000000002665
  0
LINE
  8
_0-0_計極細
  6
CONTINUOUS
 62
    2
 10
1109.5073103212799
 20
856.50168536404306
 11
1109.5073103212799
 21
868.54349551721543
  0
LINE
  8
_0-0_計極細
  6
CONTINUOUS
 62
    2
 10
1110.0090564249313
 20
855.6326399671002
 11
1110.0090564249313
 21
867.67445012027065
  0
ARC
  8
_0-0_計極細
  6
CONTINUOUS
 62
    2
 10
1108.2917678580816
 20
880.68372338476775
 40
1.0034861863992508
 50
253.22134500003193
 51
330.00000000000352
  0
LINE
  8
_0-0_計極細
  6
CONTINUOUS
 62
    2
 10
1107.1110262262282
 20
914.76405107963035
 11
1098.1529370052276
 21
899.24817869726974
  0
ARC
  8
_0-0_計極細
  6
CONTINUOUS
 62
    2
 10
1108.0020840521329
 20
874.6628183081807
 40
37.630656728658437
 50
93.595995000000542
 51
105.50677600000017
  0
LINE
  8
_0-0_計極細
  6
CONTINUOUS
 62
    2
 10
1100.5575781165235
 20
915.45495595807415
 11
1093.9525609548391
 21
904.01473055653378
  0
LINE
  8
_0-0_計極細
  6
CONTINUOUS
 62
    2
 10
1111.7874993246432
 20
915.83955331165043
 11
1099.456499079738
 21
894.48163285890894
  0
ARC
  8
_0-0_計極細
  6
CONTINUOUS
 62
    2
 10
1099.8910217782104
 20
894.23075980708415
 40
0.501740082747087
 50
150.0000000000334
 51
210.00000000005619
  0
ARC
  8
_0-0_計極細
  6
CONTINUOUS
 62
    2
 10
1108.0020840521329
 20
874.6628183081807
 40
27.094072844634088
 50
110.22103899999777
 51
115.21980799999808
  0
ARC
  8
_0-0_計極細
  6
CONTINUOUS
 62
    2
 10
1097.2838916082828
 20
899.74992480092305
 40
1.0034861863992508
 50
210.00000000004766
 51
329.9999999999776
  0
ARC
  8
_0-0_計極細
  6
CONTINUOUS
 62
    2
 10
1094.3870836533106
 20
903.76385750470797
 40
0.501740082747087
 50
149.99999999999537
 51
209.99999999991431
  0
ARC
  8
_0-0_計極細
  6
CONTINUOUS
 62
    2
 10
1108.0020840521329
 20
874.6628183081807
 40
37.630656728658437
 50
113.77152300000125
 51
116.31964599999955
  0
ARC
  8
_0-0_計極細
  6
CONTINUOUS
 62
    2
 10
1093.7704466389869
 20
912.73065295445076
 40
1.0034861863992508
 50
330.00000000002257
 51
110.49822999994124
  0
ARC
  8
_0-0_計極細
  6
CONTINUOUS
 62
    2
 10
1091.7799534833839
 20
909.28302249854585
 40
1.0034861863992508
 50
209.99999999997672
 51
330.00000000002257
  0
LINE
  8
_0-0_計極細
  6
CONTINUOUS
 62
    2
 10
1094.6394860150276
 20
912.22891287170341
 11
1092.6489988803287
 21
908.78128241580123
  0
ARC
  8
_0-0_計極細
  6
CONTINUOUS
 62
    2
 10
1108.0020840521329
 20
874.6628183081807
 40
27.094072844634088
 50
124.78019199999984
 51
129.77896100000024
  0
ARC
  8
_0-0_計極細
  6
CONTINUOUS
 62
    2
 10
1089.6073460119287
 20
901.00427801824344
 40
0.501740082747087
 50
30.000000000018552
 51
89.999999999999915
  0
ARC
  8
_0-0_計極細
  6
CONTINUOUS
 62
    2
 10
1091.6351145908602
 20
896.48859921080327
 40
1.0034861863992508
 50
269.99999999999977
 51
30.000000000021696
  0
ARC
  8
_0-0_計極細
  6
CONTINUOUS
 62
    2
 10
1095.1112841368276
 20
891.47118032061769
 40
0.501740082747087
 50
30.000000000004636
 51
89.999999999999915
  0
LINE
  8
_0-0_計極細
  6
CONTINUOUS
 62
    2
 10
1106.4968577829868
 20
894.63408217544873
 11
1106.4968577829868
 21
901.7150458625332
  0
LINE
  8
_0-0_計極細
  6
CONTINUOUS
 62
    2
 10
1105.9951177002395
 20
893.76504279941082
 11
1105.9951177002395
 21
901.68245470335421
  0
ARC
  8
_0-0_計極細
  6
CONTINUOUS
 62
    2
 10
1106.2419868501902
 20
915.26579718328367
 40
1.0034861863992508
 50
329.99999999999665
 51
92.482164000029371
  0
ARC
  8
_0-0_計極細
  6
CONTINUOUS
 62
    2
 10
1108.0020840521329
 20
874.6628183081807
 40
27.094072844634088
 50
84.624317999999732
 51
99.709017000000401
  0
ARC
  8
_0-0_計極細
  6
CONTINUOUS
 62
    2
 10
1100.992100814995
 20
915.20408290624937
 40
0.501740082747087
 50
99.810008999948636
 51
149.99999999989151
  0
ARC
  8
_0-0_計極細
  6
CONTINUOUS
 62
    2
 10
1102.7878297331818
 20
890.21682108239156
 40
1.0034861863992508
 50
210.00000000002169
 51
329.9999999999776
  0
ARC
  8
_0-0_計極細
  6
CONTINUOUS
 62
    2
 10
1108.0020840521329
 20
874.6628183081807
 40
27.094072844634088
 50
84.624317999999732
 51
89.999999999999915
  0
ARC
  8
_0-0_計極細
  6
CONTINUOUS
 62
    2
 10
1108.0020840521329
 20
874.6628183081807
 40
27.094072844634088
 50
20.290983000001571
 51
35.37568200000068
  0
LINE
  8
_0-0_計極細
  6
CONTINUOUS
 62
    2
 10
1134.9844209403554
 20
905.84358649445346
 11
1118.4305987109374
 21
877.17153076372642
  0
LINE
  8
_0-0_計極細
  6
CONTINUOUS
 62
    2
 10
1129.7965682901668
 20
908.89977382770712
 11
1112.2024601025214
 21
878.42588398104681
  0
ARC
  8
_0-0_計極細
  6
CONTINUOUS
 62
    2
 10
1108.0020840521329
 20
874.6628183081807
 40
27.094072844634088
 50
303.71622000000156
 51
316.68065099999995
  0
ARC
  8
_0-0_計極細
  6
CONTINUOUS
 62
    2
 10
1124.0793757283582
 20
871.40149271806376
 40
1.0034861863992508
 50
89.999999999999915
 51
210.00000000004763
  0
ARC
  8
_0-0_計極細
  6
CONTINUOUS
 62
    2
 10
1117.9960760124659
 20
871.90323882171504
 40
0.501740082747087
 50
30.0000000001085
 51
89.999999999999915
  0
ARC
  8
_0-0_計極細
  6
CONTINUOUS
 62
    2
 10
1124.0793757283582
 20
877.92414389830128
 40
1.0034861863992508
 50
149.999999999952
 51
269.99999999999977
  0
ARC
  8
_0-0_計極細
  6
CONTINUOUS
 62
    2
 10
1117.9960760124659
 20
877.42239779464796
 40
0.501740082747087
 50
269.99999999999977
 51
329.99999999989114
  0
ARC
  8
_0-0_計極細
  6
CONTINUOUS
 62
    2
 10
1108.0020840521329
 20
874.6628183081807
 40
27.094072844634088
 50
324.62431799999899
 51
339.7090169999999
  0
ARC
  8
_0-0_計極細
  6
CONTINUOUS
 62
    2
 10
1108.0020840521329
 20
874.6628183081807
 40
27.094072844634088
 50
350.22103899999843
 51
355.21980799999972
  0
ARC
  8
_0-0_計極細
  6
CONTINUOUS
 62
    2
 10
1108.0020840521329
 20
874.6628183081807
 40
27.094072844634088
 50
4.7801919999998796
 51
9.778961000001221
  0
ARC
  8
_0-0_計極細
  6
CONTINUOUS
 62
    2
 10
1135.0872519781578
 20
871.40149271806376
 40
1.0034861863992508
 50
89.999999999999915
 51
210.00000000004763
  0
ARC
  8
_0-0_計極細
  6
CONTINUOUS
 62
    2
 10
1129.0039522622646
 20
871.90323882171504
 40
0.501740082747087
 50
30.000000000056566
 51
89.999999999999915
  0
ARC
  8
_0-0_計極細
  6
CONTINUOUS
 62
    2
 10
1135.0872519781578
 20
877.92414389830128
 40
1.0034861863992508
 50
149.999999999952
 51
269.99999999999977
  0
ARC
  8
_0-0_計極細
  6
CONTINUOUS
 62
    2
 10
1129.0039522622646
 20
877.42239779464796
 40
0.501740082747087
 50
269.99999999999977
 51
329.9999999999431
  0
ARC
  8
_0-0_計極細
  6
CONTINUOUS
 62
    2
 10
1108.0020840521329
 20
874.6628183081807
 40
27.094072844634088
 50
43.319349000001104
 51
56.28377999999919
  0
ARC
  8
_0-0_計極細
  6
CONTINUOUS
 62
    2
 10
1108.0020840521329
 20
874.6628183081807
 40
37.630656728658437
 50
62.674774000000312
 51
71.927081999999317
  0
ARC
  8
_0-0_計極細
  6
CONTINUOUS
 62
    2
 10
1108.0020840521329
 20
874.6628183081807
 40
27.094072844634088
 50
63.716220000001165
 51
76.680650999998889
  0
ARC
  8
_0-0_計極細
  6
CONTINUOUS
 62
    2
 10
1121.9487761116225
 20
913.36971784018397
 40
0.501740082747087
 50
70.185127999855922
 51
149.99999999998147
  0
ARC
  8
_0-0_計極細
  6
CONTINUOUS
 62
    2
 10
1116.7250328462724
 20
914.3567729766304
 40
1.0034861863992508
 50
329.99999999999665
 51
77.605965999942228
  0
ARC
  8
_0-0_計極細
  6
CONTINUOUS
 62
    2
 10
1108.0020840521329
 20
874.6628183081807
 40
37.630656728658437
 50
48.072918000001373
 51
57.325226000001372
  0
ARC
  8
_0-0_計極細
  6
CONTINUOUS
 62
    2
 10
1130.6656076662048
 20
908.39802772405574
 40
1.0034861863992508
 50
56.106549999956528
 51
149.99999999999699
  0
ARC
  8
_0-0_計極細
  6
CONTINUOUS
 62
    2
 10
1134.5498982418831
 20
906.0944535253733
 40
0.501740082747087
 50
330.00000000013688
 51
49.81487199999917
  0
ARC
  8
_0-0_計極細
  6
CONTINUOUS
 62
    2
 10
1125.8858760457288
 20
911.15761323142624
 40
1.0034861863992508
 50
329.9999999999776
 51
63.89344999998616
  0
ARC
  8
_0-0_計極細
  6
CONTINUOUS
 62
    2
 10
1138.0165848623528
 20
847.26154684472976
 40
1.0034861863992508
 50
210.00000000004766
 51
317.60596600000645
  0
ARC
  8
_0-0_計極細
  6
CONTINUOUS
 62
    2
 10
1141.334958528073
 20
850.54531234806882
 40
0.501740082747087
 50
324.11293799996702
 51
30.000000000004292
  0
ARC
  8
_0-0_計極細
  6
CONTINUOUS
 62
    2
 10
1108.0020840521329
 20
874.6628183081807
 40
37.630656728658437
 50
14.493223999999607
 51
26.404005000000534
  0
LINE
  8
_0-0_計極細
  6
CONTINUOUS
 62
    2
 10
1147.0513683722211
 20
888.61175616526577
 11
1140.4463512105358
 21
877.17153076372642
  0
ARC
  8
_0-0_計極細
  6
CONTINUOUS
 62
    2
 10
1148.0856213835623
 20
867.95386226215885
 40
1.0034861863992508
 50
209.99999999997672
 51
350.49823000003204
  0
ARC
  8
_0-0_計極細
  6
CONTINUOUS
 62
    2
 10
1148.0856213835623
 20
881.37177435420415
 40
1.0034861863992508
 50
9.5017699999676246
 51
149.99999999997794
  0
ARC
  8
_0-0_計極細
  6
CONTINUOUS
 62
    2
 10
1108.0020840521329
 20
874.6628183081807
 40
37.630656728658437
 50
3.6803540000001762
 51
6.2284770000010612
  0
ARC
  8
_0-0_計極細
  6
CONTINUOUS
 62
    2
 10
1108.0020840521329
 20
874.6628183081807
 40
37.630656728658437
 50
353.77152300000137
 51
356.31964600000089
  0
ARC
  8
_0-0_計極細
  6
CONTINUOUS
 62
    2
 10
1108.0020840521329
 20
874.6628183081807
 40
37.630656728658437
 50
333.59599500000036
 51
345.50677600000137
  0
ARC
  8
_0-0_計極細
  6
CONTINUOUS
 62
    2
 10
1144.0453472200652
 20
855.88562033570213
 40
1.0034861863992508
 50
209.99999999997672
 51
332.48216400001218
  0
ARC
  8
_0-0_計極細
  6
CONTINUOUS
 62
    2
 10
1146.0951282279566
 20
871.40149271806376
 40
1.0034861863992508
 50
89.999999999999915
 51
210.00000000004763
  0
ARC
  8
_0-0_計極細
  6
CONTINUOUS
 62
    2
 10
1140.0118285120634
 20
871.90323882171504
 40
0.501740082747087
 50
30.000000000004636
 51
89.999999999999915
  0
LINE
  8
_0-0_計極細
  6
CONTINUOUS
 62
    2
 10
1147.2165759866175
 20
867.45212217941253
 11
1145.2260888519186
 21
870.89975263531642
  0
LINE
  8
_0-0_計極細
  6
CONTINUOUS
 62
    2
 10
1147.0513683722211
 20
860.71388045109825
 11
1140.4463512105358
 21
872.15410585263487
  0
ARC
  8
_0-0_計極細
  6
CONTINUOUS
 62
    2
 10
1146.0951282279566
 20
877.92414389830128
 40
1.0034861863992508
 50
149.999999999952
 51
269.99999999999977
  0
ARC
  8
_0-0_計極細
  6
CONTINUOUS
 62
    2
 10
1140.0118285120634
 20
877.42239779464796
 40
0.501740082747087
 50
269.99999999999977
 51
329.999999999995
  0
LINE
  8
_0-0_計極細
  6
CONTINUOUS
 62
    2
 10
1147.2165759866175
 20
881.8735144369507
 11
1145.2260888519186
 21
878.42588398104681
  0
ARC
  8
_0-0_計極細
  6
CONTINUOUS
 62
    2
 10
1138.0165848623528
 20
902.06408977163346
 40
1.0034861863992508
 50
42.394033999993226
 51
149.999999999952
  0
ARC
  8
_0-0_計極細
  6
CONTINUOUS
 62
    2
 10
1141.334958528073
 20
898.7803242682935
 40
0.501740082747087
 50
330.00000000008498
 51
35.88706200011643
  0
ARC
  8
_0-0_計極細
  6
CONTINUOUS
 62
    2
 10
1144.0453472200652
 20
893.44001628066087
 40
1.0034861863992508
 50
27.517836000033494
 51
150.00000000002294
  0
LINE
  8
_0-0_計極細
  6
CONTINUOUS
 62
    2
 10
1109.5073103212799
 20
847.61058961646313
 11
1109.5073103212799
 21
849.47730126655597
  0
LINE
  8
_0-0_計極細
  6
CONTINUOUS
 62
    2
 10
1110.0090564249313
 20
847.6431801683915
 11
1110.0090564249313
 21
848.60825123499808
  0
LINE
  8
_0-0_計極細
  6
CONTINUOUS
 62
    2
 10
1109.5073103212799
 20
899.84833282240425
 11
1109.5073103212799
 21
901.71504699989828
  0
LINE
  8
_0-0_計極細
  6
CONTINUOUS
 62
    2
 10
1110.0090564249313
 20
900.71738263720681
 11
1110.0090564249313
 21
901.68245644797071
  0
LINE
  8
_0-1_計細線
  6
CONTINUOUS
 62
    3
 10
594
 20
802.65638321366566
 11
594
 21
946.65638321366566
  0
LINE
  8
_0-1_計細線
  6
CONTINUOUS
 62
    3
 10
594
 20
946.65638321366566
 11
1188
 21
946.65638321366566
  0
LINE
  8
_0-1_計細線
  6
CONTINUOUS
 62
    3
 10
1188
 20
946.65638321366566
 11
1188
 21
802.65638321366566
  0
LINE
  8
_0-1_計細線
  6
CONTINUOUS
 62
    3
 10
1188
 20
802.65638321366566
 11
594
 21
802.65638321366566
  0
ARC
  8
_0-1_計細線
  6
CONTINUOUS
 62
    3
 10
1108.0020845045947
 20
874.66281848496919
 40
130.00993494017564
 50
213.85594318650899
 51
269.99999999999977
  0
ARC
  8
_0-1_計細線
  6
CONTINUOUS
 62
    3
 10
1108.0020845045947
 20
874.66281848496919
 40
128.00274871882576
 50
214.46082340704601
 51
269.99999999999977
  0
ARC
  8
_0-5_寸法線
  6
CONTINUOUS
 62
    7
 10
1108.0020845045947
 20
874.66281848496919
 40
122.98746950120834
 50
216.08019083641227
 51
269.99999999999977
  0
ARC
  8
_0-5_寸法線
  6
CONTINUOUS
 62
    7
 10
1108.0020845045947
 20
874.66281848496919
 40
82.848314867910403
 50
60.340375075469886
 51
119.65962492453012
  0
ARC
  8
_0-5_寸法線
  6
CONTINUOUS
 62
    7
 10
1108.0020845045947
 20
874.66281848496919
 40
91.879621615350516
 50
51.588061272838111
 51
128.41193872716144
  0
ARC
  8
_0-5_寸法線
  6
CONTINUOUS
 62
    7
 10
1108.0020845045947
 20
874.66281848496919
 40
93.886577118409832
 50
50.068666577979428
 51
129.93133342202015
  0
ARC
  8
_0-1_計細線
  6
CONTINUOUS
 62
    3
 10
1108.0020845045947
 20
874.66281848496919
 40
102.91892074906785
 50
44.388289219312568
 51
135.61171078068742
  0
ARC
  8
_0-5_寸法線
  6
CONTINUOUS
 62
    7
 10
1108.0020845045947
 20
874.66281848496919
 40
122.98746950120834
 50
269.99999999999977
 51
324.16324727192898
  0
ARC
  8
_0-1_計細線
  6
CONTINUOUS
 62
    3
 10
1108.0020845045947
 20
874.66281848496919
 40
128.00274871882576
 50
269.99999999999977
 51
34.224545529377465
  0
ARC
  8
_0-1_計細線
  6
CONTINUOUS
 62
    3
 10
1108.0020845045947
 20
874.66281848496919
 40
130.00993494017564
 50
269.99999999999977
 51
326.36822889290477
  0
ARC
  8
_0-5_寸法線
  6
CONTINUOUS
 62
    7
 10
1108.0020845045947
 20
874.66281848496919
 40
122.98746950120834
 50
324.17064285599486
 51
89.999999999999545
  0
ARC
  8
_0-1_計細線
  6
CONTINUOUS
 62
    3
 10
1108.0020845045947
 20
874.66281848496919
 40
130.00993494017564
 50
326.36822889290477
 51
89.999999999999545
  0
ARC
  8
_0-1_計細線
  6
CONTINUOUS
 62
    3
 10
1108.0020845045947
 20
874.66281848496919
 40
128.00274871882576
 50
34.224545529377799
 51
89.999999999999915
  0
ARC
  8
_0-1_計細線
  6
CONTINUOUS
 62
    3
 10
1108.0020845045947
 20
874.66281848496919
 40
130.00993494017564
 50
89.999999999999915
 51
146.37504082021658
  0
ARC
  8
_0-1_計細線
  6
CONTINUOUS
 62
    3
 10
1108.0020845045947
 20
874.66281848496919
 40
128.00274871882576
 50
89.999999999999915
 51
145.77545447062198
  0
ARC
  8
_0-5_寸法線
  6
CONTINUOUS
 62
    7
 10
1108.0020845045947
 20
874.66281848496919
 40
122.98746950120834
 50
89.999999999999915
 51
144.17064285599372
  0
ARC
  8
_0-1_計細線
  6
CONTINUOUS
 62
    3
 10
1108.0020845045947
 20
874.66281848496919
 40
130.00993494017564
 50
213.63177110709387
 51
213.85594318650899
  0
ARC
  8
_0-1_計細線
  6
CONTINUOUS
 62
    3
 10
1108.0020845045947
 20
874.66281848496919
 40
128.00274871882576
 50
214.23151315655875
 51
214.46082340704601
  0
ARC
  8
_0-5_寸法線
  6
CONTINUOUS
 62
    7
 10
1108.0020845045947
 20
874.66281848496919
 40
122.98746950120834
 50
215.83675272806934
 51
216.08019083641227
  0
ARC
  8
_0-1_計細線
  6
CONTINUOUS
 62
    3
 10
1108.0020845045947
 20
874.66281848496919
 40
102.91892074906785
 50
321.01317548890404
 51
38.986824511095271
  0
ARC
  8
_0-5_寸法線
  6
CONTINUOUS
 62
    7
 10
1108.0020845045947
 20
874.66281848496919
 40
93.886577118409832
 50
328.43750924266573
 51
31.562490757333574
  0
ARC
  8
_0-5_寸法線
  6
CONTINUOUS
 62
    7
 10
1108.0020845045947
 20
874.66281848496919
 40
91.879621615350516
 50
330.5379674408403
 51
29.46203255915896
  0
ARC
  8
_0-5_寸法線
  6
CONTINUOUS
 62
    7
 10
1108.0020845045947
 20
874.66281848496919
 40
82.848314867910403
 50
344.92692928764143
 51
15.073070712358456
  0
ARC
  8
_0-5_寸法線
  6
CONTINUOUS
 62
    7
 10
1108.0020845045947
 20
874.66281848496919
 40
82.848314867910403
 50
240.35836681659501
 51
299.64012824793014
  0
ARC
  8
_0-5_寸法線
  6
CONTINUOUS
 62
    7
 10
1108.0020845045947
 20
874.66281848496919
 40
91.879621615350516
 50
231.60098063373204
 51
308.39793887110932
  0
ARC
  8
_0-5_寸法線
  6
CONTINUOUS
 62
    7
 10
1108.0020845045947
 20
874.66281848496919
 40
93.886577118409832
 50
230.08090465031805
 51
309.91807184946936
  0
ARC
  8
_0-1_計細線
  6
CONTINUOUS
 62
    3
 10
1108.0020845045947
 20
874.66281848496919
 40
102.91892074906785
 50
224.39831635755596
 51
315.60084508623106
  0
LINE
  8
_0-5_寸法線
  6
CONTINUOUS
 62
    7
 10
637.72536874690832
 20
846.52753997987975
 11
643.68562347091347
 21
836.11238930286231
  0
LINE
  8
_0-5_寸法線
  6
CONTINUOUS
 62
    7
 10
637.72536874690832
 20
846.52753997987975
 11
637.67952541241425
 21
834.52762754733737
  0
LINE
  8
_0-5_寸法線
  6
CONTINUOUS
 62
    7
 10
637.72536874690832
 20
846.52753997987975
 11
659.42363609769473
 21
764.29314673180625
  0
LINE
  8
_0-5_寸法線
  6
CONTINUOUS
 62
    7
 10
659.42363609769473
 20
764.29314673180625
 11
702.62363609769477
 21
764.29314673180625
  0
TEXT
  8
_0-5_寸法線
 62
    7
 10
659.42363609769473
 20
764.29314673180625
 40
18
 41
0.8000000000000001
 50
0
  1
上フタ
  0
LINE
  8
_0-5_寸法線
  6
CONTINUOUS
 62
    7
 10
744.3078865412208
 20
803.92851473039855
 11
750.30788656206755
 21
793.53620989702119
  0
LINE
  8
_0-5_寸法線
  6
CONTINUOUS
 62
    7
 10
744.3078865412208
 20
803.92851473039855
 11
744.30788656529262
 21
791.92851473039855
  0
LINE
  8
_0-5_寸法線
  6
CONTINUOUS
 62
    7
 10
744.3078865412208
 20
803.92851473039855
 11
754.92815147337024
 21
764.29314673180625
  0
LINE
  8
_0-5_寸法線
  6
CONTINUOUS
 62
    7
 10
754.92815147337024
 20
764.29314673180625
 11
841.32815147337021
 21
764.29314673180625
  0
TEXT
  8
_0-5_寸法線
 62
    7
 10
754.92815147337024
 20
764.29314673180625
 40
18
 41
0.8000000000000001
 50
0
  1
排水ユニット
  0
LINE
  8
_0-5_寸法線
  6
CONTINUOUS
 62
    7
 10
598.80473547777456
 20
894.53164512714136
 11
590.67247873235499
 21
903.35583915416612
  0
LINE
  8
_0-5_寸法線
  6
CONTINUOUS
 62
    7
 10
598.80473547777456
 20
894.53164512714136
 11
596.17409155965618
 21
906.23974969517758
  0
LINE
  8
_0-5_寸法線
  6
CONTINUOUS
 62
    7
 10
598.80473547777456
 20
894.53164512714136
 11
532.66448184082674
 21
1020.7068723525922
  0
LINE
  8
_0-5_寸法線
  6
CONTINUOUS
 62
    7
 10
532.66448184082674
 20
1020.7068723525922
 11
475.06448184082683
 21
1020.7068723525922
  0
TEXT
  8
_0-5_寸法線
 62
    7
 10
475.06448184082672
 20
1020.7068723525922
 40
18
 41
0.8000000000000001
 50
0
  1
取っ手部
  0
LINE
  8
_0-5_寸法線
  6
CONTINUOUS
 62
    7
 10
602.49999999999909
 20
958.65638321366566
 11
602.49999999999909
 21
1012.6563832136657
  0
LINE
  8
_0-5_寸法線
  6
CONTINUOUS
 62
    7
 10
602.49999999999909
 20
1006.6563832136657
 11
614.09110991546788
 21
1009.762211754896
  0
LINE
  8
_0-5_寸法線
  6
CONTINUOUS
 62
    7
 10
602.49999999999909
 20
1006.6563832136657
 11
614.09110991546788
 21
1003.5505546724355
  0
LINE
  8
_0-5_寸法線
  6
CONTINUOUS
 62
    7
 10
1179.5
 20
958.65638321366566
 11
1179.5
 21
1012.6563832136657
  0
LINE
  8
_0-5_寸法線
  6
CONTINUOUS
 62
    7
 10
1179.5
 20
1006.6563832136657
 11
1167.9088900845311
 21
1003.5505546724355
  0
LINE
  8
_0-5_寸法線
  6
CONTINUOUS
 62
    7
 10
1179.5
 20
1006.6563832136657
 11
1167.9088900845311
 21
1009.762211754896
  0
LINE
  8
_0-5_寸法線
  6
CONTINUOUS
 62
    7
 10
602.49999999999909
 20
1006.6563832136657
 11
1179.5
 21
1006.6563832136657
  0
TEXT
  8
_0-5_寸法線
 62
    7
 10
877.5
 20
1006.6563832136657
 40
18
 41
1
 50
0
  1
577
  0
LINE
  8
_0-5_寸法線
  6
CONTINUOUS
 62
    7
 10
1188
 20
958.65638321366566
 11
1188.0000000000009
 21
1054.6563832136658
  0
LINE
  8
_0-5_寸法線
  6
CONTINUOUS
 62
    7
 10
1188.0000000000009
 20
1048.6563832136658
 11
1199.5911099154698
 21
1051.762211754896
  0
LINE
  8
_0-5_寸法線
  6
CONTINUOUS
 62
    7
 10
1188.0000000000009
 20
1048.6563832136658
 11
1199.5911099154698
 21
1045.5505546724355
  0
LINE
  8
_0-5_寸法線
  6
CONTINUOUS
 62
    7
 10
1185.5000000000002
 20
958.65638321366566
 11
1185.5000000000014
 21
1054.6563832136658
  0
LINE
  8
_0-5_寸法線
  6
CONTINUOUS
 62
    7
 10
1236.0000000000009
 20
1048.6563832136658
 11
1185.5000000000014
 21
1048.6563832136658
  0
TEXT
  8
_0-5_寸法線
 62
    7
 10
1207.5947399154156
 20
1048.6563832136658
 40
18
 41
1
 50
0
  1
2.5
  0
LINE
  8
_0-5_寸法線
  6
CONTINUOUS
 62
    7
 10
1185.5000000000014
 20
1048.6563832136658
 11
1173.9088900845325
 21
1045.5505546724355
  0
LINE
  8
_0-5_寸法線
  6
CONTINUOUS
 62
    7
 10
1185.5000000000014
 20
1048.6563832136658
 11
1173.9088900845325
 21
1051.762211754896
  0
LINE
  8
_0-5_寸法線
  6
CONTINUOUS
 62
    7
 10
596.50000000000011
 20
958.65638321366566
 11
596.50000000000148
 21
1054.6563832136658
  0
LINE
  8
_0-5_寸法線
  6
CONTINUOUS
 62
    7
 10
596.50000000000136
 20
1048.6563832136658
 11
608.09110991547004
 21
1051.762211754896
  0
LINE
  8
_0-5_寸法線
  6
CONTINUOUS
 62
    7
 10
596.50000000000136
 20
1048.6563832136658
 11
608.09110991547004
 21
1045.5505546724355
  0
LINE
  8
_0-5_寸法線
  6
CONTINUOUS
 62
    7
 10
1185.5000000000014
 20
1048.6563832136658
 11
596.50000000000136
 21
1048.6563832136658
  0
TEXT
  8
_0-5_寸法線
 62
    7
 10
877.50000000000034
 20
1048.6563832136658
 40
18
 41
1
 50
0
  1
589
  0
LINE
  8
_0-5_寸法線
  6
CONTINUOUS
 62
    7
 10
594.00000000000011
 20
958.65638321366566
 11
594.00000000000091
 21
1054.6563832136658
  0
LINE
  8
_0-5_寸法線
  6
CONTINUOUS
 62
    7
 10
594.00000000000091
 20
1048.6563832136658
 11
582.408890084532
 21
1045.5505546724355
  0
LINE
  8
_0-5_寸法線
  6
CONTINUOUS
 62
    7
 10
594.00000000000091
 20
1048.6563832136658
 11
582.408890084532
 21
1051.762211754896
  0
LINE
  8
_0-5_寸法線
  6
CONTINUOUS
 62
    7
 10
596.50000000000136
 20
1048.6563832136658
 11
546.00000000000091
 21
1048.6563832136658
  0
TEXT
  8
_0-5_寸法線
 62
    7
 10
549.26306245913656
 20
1048.6563832136658
 40
18
 41
1
 50
0
  1
2.5
  0
LINE
  8
_0-5_寸法線
  6
CONTINUOUS
 62
    7
 10
594
 20
958.65638321366566
 11
594
 21
1096.6563832136658
  0
LINE
  8
_0-5_寸法線
  6
CONTINUOUS
 62
    7
 10
594
 20
1090.6563832136658
 11
605.59110991546879
 21
1093.762211754896
  0
LINE
  8
_0-5_寸法線
  6
CONTINUOUS
 62
    7
 10
594
 20
1090.6563832136658
 11
605.59110991546879
 21
1087.5505546724355
  0
LINE
  8
_0-5_寸法線
  6
CONTINUOUS
 62
    7
 10
1188
 20
958.65638321366566
 11
1188
 21
1096.6563832136658
  0
LINE
  8
_0-5_寸法線
  6
CONTINUOUS
 62
    7
 10
1188
 20
1090.6563832136658
 11
1176.4088900845311
 21
1087.5505546724355
  0
LINE
  8
_0-5_寸法線
  6
CONTINUOUS
 62
    7
 10
1188
 20
1090.6563832136658
 11
1176.4088900845311
 21
1093.762211754896
  0
LINE
  8
_0-5_寸法線
  6
CONTINUOUS
 62
    7
 10
594
 20
1090.6563832136658
 11
1188
 21
1090.6563832136658
  0
TEXT
  8
_0-5_寸法線
 62
    7
 10
877.5
 20
1090.6563832136658
 40
18
 41
1
 50
0
  1
594
  0
LINE
  8
_0-5_寸法線
  6
CONTINUOUS
 62
    7
 10
594
 20
790.65638321366566
 11
594
 21
694.65638321366578
  0
LINE
  8
_0-5_寸法線
  6
CONTINUOUS
 62
    7
 10
594
 20
700.65638321366578
 11
605.59110991546879
 21
703.76221175489604
  0
LINE
  8
_0-5_寸法線
  6
CONTINUOUS
 62
    7
 10
594
 20
700.65638321366578
 11
605.59110991546879
 21
697.55055467243551
  0
LINE
  8
_0-5_寸法線
  6
CONTINUOUS
 62
    7
 10
1108
 20
790.65638321366566
 11
1108
 21
694.65638321366578
  0
LINE
  8
_0-5_寸法線
  6
CONTINUOUS
 62
    7
 10
1108
 20
700.65638321366578
 11
1096.4088900845309
 21
697.55055467243562
  0
LINE
  8
_0-5_寸法線
  6
CONTINUOUS
 62
    7
 10
1108
 20
700.65638321366578
 11
1096.4088900845309
 21
703.76221175489604
  0
LINE
  8
_0-5_寸法線
  6
CONTINUOUS
 62
    7
 10
594
 20
700.65638321366578
 11
1108
 21
700.65638321366578
  0
TEXT
  8
_0-5_寸法線
 62
    7
 10
837.49999999999989
 20
700.65638321366578
 40
18
 41
1
 50
0
  1
514
  0
LINE
  8
_0-5_寸法線
  6
CONTINUOUS
 62
    7
 10
1108
 20
700.65638321366578
 11
1119.5911099154689
 21
703.76221175489593
  0
LINE
  8
_0-5_寸法線
  6
CONTINUOUS
 62
    7
 10
1108
 20
700.65638321366578
 11
1119.5911099154689
 21
697.55055467243551
  0
LINE
  8
_0-5_寸法線
  6
CONTINUOUS
 62
    7
 10
1188
 20
790.65638321366566
 11
1188
 21
694.65638321366578
  0
LINE
  8
_0-5_寸法線
  6
CONTINUOUS
 62
    7
 10
1188
 20
700.65638321366578
 11
1176.4088900845311
 21
697.55055467243562
  0
LINE
  8
_0-5_寸法線
  6
CONTINUOUS
 62
    7
 10
1188
 20
700.65638321366578
 11
1176.4088900845311
 21
703.76221175489604
  0
LINE
  8
_0-5_寸法線
  6
CONTINUOUS
 62
    7
 10
1108
 20
700.65638321366578
 11
1188
 21
700.65638321366578
  0
TEXT
  8
_0-5_寸法線
 62
    7
 10
1139
 20
700.65638321366578
 40
18
 41
1
 50
0
  1
80
  0
LINE
  8
_0-0_計極細
  6
CENTER2
 62
    2
 10
1153
 20
562.15638321366623
 11
1153
 21
513.0303085086075
  0
LINE
  8
_0-1_計細線
  6
DASHED2
 62
    3
 10
1159.9999998469184
 20
555.15638321366669
 11
1159.5
 21
555.65638306058509
  0
LINE
  8
_0-1_計細線
  6
DASHED2
 62
    3
 10
1160.9999998469193
 20
554.15638321366623
 11
1159.9999998469184
 21
555.15638321366669
  0
LINE
  8
_0-1_計細線
  6
DASHED2
 62
    3
 10
1160.9999998469193
 20
550.15638397907196
 11
1160.9999998469193
 21
554.15638321366623
  0
LINE
  8
_0-1_計細線
  6
DASHED2
 62
    3
 10
1160.9999998469193
 20
544.15638321366623
 11
1160.9999998469193
 21
550.15638397907196
  0
LINE
  8
_0-1_計細線
  6
DASHED2
 62
    3
 10
1159.5
 20
555.65638306058509
 11
1158.9999998469193
 21
556.15638321366623
  0
ARC
  8
_0-1_計細線
  6
DASHED2
 62
    3
 10
1157.9999998469193
 20
524.15638321366623
 40
3
 50
269.99999999999977
 51
359.99999999999966
  0
LINE
  8
_0-1_計細線
  6
DASHED2
 62
    3
 10
1160.9999998469193
 20
538.15638321366623
 11
1160.9999998469193
 21
524.15638321366623
  0
LINE
  8
_0-1_計細線
  6
DASHED2
 62
    3
 10
1148.0000001530807
 20
521.15638321366623
 11
1157.9999998469193
 21
521.15638321366623
  0
ARC
  8
_0-1_計細線
  6
DASHED2
 62
    3
 10
1148.0000001530807
 20
524.15638321366623
 40
3
 50
179.99999999999983
 51
269.99999999999977
  0
LINE
  8
_0-1_計細線
  6
DASHED2
 62
    3
 10
1145.0000001530807
 20
538.15638321366623
 11
1145.0000001530807
 21
524.15638321366623
  0
LINE
  8
_0-1_計細線
  6
DASHED2
 62
    3
 10
1160.9999998469193
 20
544.15638321366623
 11
1158.9999998469193
 21
542.15638321366623
  0
LINE
  8
_0-1_計細線
  6
DASHED2
 62
    3
 10
1158.9999998469193
 20
542.15638321366623
 11
1158.9999998469193
 21
540.15638321366623
  0
LINE
  8
_0-1_計細線
  6
DASHED2
 62
    3
 10
1158.9999998469193
 20
540.15638321366623
 11
1160.9999998469193
 21
538.15638321366623
  0
LINE
  8
_0-1_計細線
  6
DASHED2
 62
    3
 10
1145.0000001530807
 20
544.15638321366623
 11
1147.0000001530807
 21
542.15638321366623
  0
LINE
  8
_0-1_計細線
  6
DASHED2
 62
    3
 10
1147.0000001530807
 20
542.15638321366623
 11
1147.0000001530807
 21
540.15638321366623
  0
LINE
  8
_0-1_計細線
  6
DASHED2
 62
    3
 10
1147.0000001530807
 20
540.15638321366623
 11
1145.0000001530807
 21
538.15638321366623
  0
LINE
  8
_0-1_計細線
  6
DASHED2
 62
    3
 10
1158.9999998469193
 20
556.15638321366623
 11
1147.0000001530807
 21
556.15638321366623
  0
LINE
  8
_0-1_計細線
  6
DASHED2
 62
    3
 10
1145.0000001530807
 20
544.15638321366623
 11
1145.0000001530807
 21
554.15638321366623
  0
LINE
  8
_0-1_計細線
  6
DASHED2
 62
    3
 10
1147.0000001530807
 20
556.15638321366623
 11
1145.0000001530807
 21
554.15638321366623
  0
LINE
  8
_0-5_寸法線
  6
CONTINUOUS
 62
    7
 10
594
 20
592.65638321366669
 11
594
 21
646.65638321366578
  0
LINE
  8
_0-5_寸法線
  6
CONTINUOUS
 62
    7
 10
594
 20
640.65638321366578
 11
605.59110991546879
 21
643.76221175489604
  0
LINE
  8
_0-5_寸法線
  6
CONTINUOUS
 62
    7
 10
594
 20
640.65638321366578
 11
605.59110991546879
 21
637.55055467243551
  0
LINE
  8
_0-5_寸法線
  6
CONTINUOUS
 62
    7
 10
629
 20
592.65638321366669
 11
629
 21
646.65638321366578
  0
LINE
  8
_0-5_寸法線
  6
CONTINUOUS
 62
    7
 10
629
 20
640.65638321366578
 11
617.40889008453121
 21
637.55055467243562
  0
LINE
  8
_0-5_寸法線
  6
CONTINUOUS
 62
    7
 10
629
 20
640.65638321366578
 11
617.40889008453121
 21
643.76221175489604
  0
LINE
  8
_0-5_寸法線
  6
CONTINUOUS
 62
    7
 10
594
 20
640.65638321366578
 11
629
 21
640.65638321366578
  0
TEXT
  8
_0-5_寸法線
 62
    7
 10
602.5
 20
640.65638321366578
 40
18
 41
1
 50
0
  1
35
  0
LINE
  8
_0-5_寸法線
  6
CONTINUOUS
 62
    7
 10
629
 20
640.65638321366578
 11
640.59110991546879
 21
643.76221175489593
  0
LINE
  8
_0-5_寸法線
  6
CONTINUOUS
 62
    7
 10
629
 20
640.65638321366578
 11
640.59110991546879
 21
637.55055467243551
  0
LINE
  8
_0-5_寸法線
  6
CONTINUOUS
 62
    7
 10
1153
 20
592.65638321366669
 11
1153
 21
646.65638321366578
  0
LINE
  8
_0-5_寸法線
  6
CONTINUOUS
 62
    7
 10
1153
 20
640.65638321366578
 11
1141.4088900845309
 21
637.55055467243562
  0
LINE
  8
_0-5_寸法線
  6
CONTINUOUS
 62
    7
 10
1153
 20
640.65638321366578
 11
1141.4088900845309
 21
643.76221175489604
  0
LINE
  8
_0-5_寸法線
  6
CONTINUOUS
 62
    7
 10
629
 20
640.65638321366578
 11
1153
 21
640.65638321366578
  0
TEXT
  8
_0-5_寸法線
 62
    7
 10
877.5
 20
640.65638321366578
 40
18
 41
1
 50
0
  1
524
  0
LINE
  8
_0-5_寸法線
  6
CONTINUOUS
 62
    7
 10
1153
 20
640.65638321366578
 11
1164.5911099154689
 21
643.76221175489593
  0
LINE
  8
_0-5_寸法線
  6
CONTINUOUS
 62
    7
 10
1153
 20
640.65638321366578
 11
1164.5911099154689
 21
637.55055467243551
  0
LINE
  8
_0-5_寸法線
  6
CONTINUOUS
 62
    7
 10
1188
 20
592.65638321366669
 11
1188
 21
646.65638321366578
  0
LINE
  8
_0-5_寸法線
  6
CONTINUOUS
 62
    7
 10
1188
 20
640.65638321366578
 11
1176.4088900845311
 21
637.55055467243562
  0
LINE
  8
_0-5_寸法線
  6
CONTINUOUS
 62
    7
 10
1188
 20
640.65638321366578
 11
1176.4088900845311
 21
643.76221175489604
  0
LINE
  8
_0-5_寸法線
  6
CONTINUOUS
 62
    7
 10
1153
 20
640.65638321366578
 11
1188
 21
640.65638321366578
  0
TEXT
  8
_0-5_寸法線
 62
    7
 10
1161.5
 20
640.65638321366578
 40
18
 41
1
 50
0
  1
35
  0
LINE
  8
_0-1_計細線
  6
CONTINUOUS
 62
    3
 10
1159.5
 20
563.15638321366669
 11
1184.5
 21
563.15638321366669
  0
LINE
  8
_0-1_計細線
  6
CONTINUOUS
 62
    3
 10
1159.5
 20
555.15638321366669
 11
1159.5
 21
563.15638321366669
  0
LINE
  8
_0-1_計細線
  6
CONTINUOUS
 62
    3
 10
1184.5
 20
563.15638321366669
 11
1184.5
 21
555.15638321366669
  0
LINE
  8
_0-1_計細線
  6
CONTINUOUS
 62
    3
 10
1159.5
 20
555.15638321366669
 11
1184.5
 21
555.15638321366669
  0
LINE
  8
_0-1_計細線
  6
CONTINUOUS
 62
    3
 10
1161.6784464540551
 20
546.76415094339018
 11
1160
 21
555.15638321366669
  0
ARC
  8
_0-1_計細線
  6
CONTINUOUS
 62
    3
 10
1163.6396078054377
 20
547.15638321366669
 40
2
 50
191.30993247401983
 51
269.99999999999977
  0
LINE
  8
_0-1_計細線
  6
CONTINUOUS
 62
    3
 10
1184
 20
555.15638321366669
 11
1182.3215535459449
 21
546.76415094339018
  0
LINE
  8
_0-1_計細線
  6
CONTINUOUS
 62
    3
 10
1180.3603921945632
 20
545.15638321366669
 11
1163.6396078054377
 21
545.15638321366669
  0
ARC
  8
_0-1_計細線
  6
CONTINUOUS
 62
    3
 10
1180.3603921945632
 20
547.15638321366669
 40
2
 50
269.99999999999977
 51
348.69006752597431
  0
LINE
  8
_0-1_計細線
  6
CONTINUOUS
 62
    3
 10
622.5
 20
563.15638321366669
 11
597.5
 21
563.15638321366669
  0
LINE
  8
_0-1_計細線
  6
CONTINUOUS
 62
    3
 10
622.5
 20
555.15638321366669
 11
622.5
 21
563.15638321366669
  0
LINE
  8
_0-1_計細線
  6
CONTINUOUS
 62
    3
 10
597.5
 20
563.15638321366669
 11
597.5
 21
555.15638321366669
  0
LINE
  8
_0-1_計細線
  6
CONTINUOUS
 62
    3
 10
622.5
 20
555.15638321366669
 11
597.5
 21
555.15638321366669
  0
LINE
  8
_0-1_計細線
  6
CONTINUOUS
 62
    3
 10
620.32155354594488
 20
546.76415094339018
 11
622
 21
555.15638321366669
  0
ARC
  8
_0-1_計細線
  6
CONTINUOUS
 62
    3
 10
618.36039219456234
 20
547.15638321366669
 40
2
 50
269.99999999999977
 51
348.69006752597943
  0
LINE
  8
_0-1_計細線
  6
CONTINUOUS
 62
    3
 10
598
 20
555.15638321366669
 11
599.67844645405512
 21
546.76415094339018
  0
LINE
  8
_0-1_計細線
  6
CONTINUOUS
 62
    3
 10
601.63960780543675
 20
545.15638321366669
 11
618.36039219456234
 21
545.15638321366669
  0
ARC
  8
_0-1_計細線
  6
CONTINUOUS
 62
    3
 10
601.63960780543675
 20
547.15638321366669
 40
2
 50
191.30993247402495
 51
269.99999999999977
  0
LINE
  8
_0-1_計細線
  6
CONTINUOUS
 62
    3
 10
1179.5000000000018
 20
563.15638321366669
 11
1179.5000000000018
 21
580.15638321366669
  0
LINE
  8
_0-1_計細線
  6
CONTINUOUS
 62
    3
 10
1177.5000000000018
 20
565.15638321366669
 11
1177.5000000000018
 21
580.15638321366669
  0
LINE
  8
_0-1_計細線
  6
CONTINUOUS
 62
    3
 10
1179.5000000000018
 20
563.15638321366669
 11
602.49999999999818
 21
563.15638321366669
  0
LINE
  8
_0-1_計細線
  6
CONTINUOUS
 62
    3
 10
1177.5000000000018
 20
565.15638321366669
 11
604.49999999999818
 21
565.15638321366669
  0
LINE
  8
_0-1_計細線
  6
CONTINUOUS
 62
    3
 10
604.49999999999818
 20
565.15638321366669
 11
604.49999999999818
 21
580.15638321366669
  0
LINE
  8
_0-1_計細線
  6
CONTINUOUS
 62
    3
 10
602.49999999999818
 20
563.15638321366669
 11
602.49999999999818
 21
580.15638321366669
  0
LINE
  8
_0-1_計細線
  6
CONTINUOUS
 62
    3
 10
1179.5000000000018
 20
580.15638321366669
 11
602.49999999999818
 21
580.15638321366669
  0
LINE
  8
_0-0_計極細
  6
CENTER2
 62
    2
 10
629
 20
562.15638321366623
 11
629
 21
513.0303085086075
  0
ARC
  8
_0-1_計細線
  6
DASHED2
 62
    3
 10
633.99999984691931
 20
524.15638321366623
 40
3
 50
269.99999999999977
 51
359.99999999999966
  0
LINE
  8
_0-1_計細線
  6
DASHED2
 62
    3
 10
636.99999984691931
 20
538.15638321366623
 11
636.99999984691931
 21
524.15638321366623
  0
LINE
  8
_0-1_計細線
  6
DASHED2
 62
    3
 10
624.00000015308069
 20
521.15638321366623
 11
633.99999984691931
 21
521.15638321366623
  0
ARC
  8
_0-1_計細線
  6
DASHED2
 62
    3
 10
624.00000015308069
 20
524.15638321366623
 40
3
 50
179.99999999999983
 51
269.99999999999977
  0
LINE
  8
_0-1_計細線
  6
DASHED2
 62
    3
 10
621.00000015308069
 20
538.15638321366623
 11
621.00000015308069
 21
524.15638321366623
  0
LINE
  8
_0-1_計細線
  6
DASHED2
 62
    3
 10
636.99999984691931
 20
544.15638321366623
 11
634.99999984691931
 21
542.15638321366623
  0
LINE
  8
_0-1_計細線
  6
DASHED2
 62
    3
 10
634.99999984691931
 20
542.15638321366623
 11
634.99999984691931
 21
540.15638321366623
  0
LINE
  8
_0-1_計細線
  6
DASHED2
 62
    3
 10
634.99999984691931
 20
540.15638321366623
 11
636.99999984691931
 21
538.15638321366623
  0
LINE
  8
_0-1_計細線
  6
DASHED2
 62
    3
 10
621.00000015308069
 20
544.15638321366623
 11
623.00000015308069
 21
542.15638321366623
  0
LINE
  8
_0-1_計細線
  6
DASHED2
 62
    3
 10
623.00000015308069
 20
542.15638321366623
 11
623.00000015308069
 21
540.15638321366623
  0
LINE
  8
_0-1_計細線
  6
DASHED2
 62
    3
 10
623.00000015308069
 20
540.15638321366623
 11
621.00000015308069
 21
538.15638321366623
  0
LINE
  8
_0-1_計細線
  6
DASHED2
 62
    3
 10
636.99999984691931
 20
544.15638321366623
 11
636.99999984691931
 21
554.15638321366623
  0
LINE
  8
_0-1_計細線
  6
DASHED2
 62
    3
 10
636.99999984691931
 20
554.15638321366623
 11
634.99999984691931
 21
556.15638321366623
  0
LINE
  8
_0-1_計細線
  6
DASHED2
 62
    3
 10
634.99999984691931
 20
556.15638321366623
 11
623.00000015308069
 21
556.15638321366623
  0
LINE
  8
_0-1_計細線
  6
DASHED2
 62
    3
 10
621.00000015308069
 20
544.15638321366623
 11
621.00000015308069
 21
554.15638321366623
  0
LINE
  8
_0-1_計細線
  6
DASHED2
 62
    3
 10
623.00000015308069
 20
556.15638321366623
 11
621.00000015308069
 21
554.15638321366623
  0
LINE
  8
_0-1_計細線
  6
DASHED2
 62
    3
 10
599.49999999999818
 20
560.15638321366669
 11
599.49999999999818
 21
563.15638321366669
  0
LINE
  8
_0-1_計細線
  6
DASHED2
 62
    3
 10
602.49999999999818
 20
563.15638321366669
 11
602.49999999999818
 21
560.15638321366669
  0
LINE
  8
_0-1_計細線
  6
CONTINUOUS
 62
    3
 10
597.50000018892933
 20
560.15638321366669
 11
610.00000066576649
 21
560.15638321366669
  0
LINE
  8
_0-1_計細線
  6
CONTINUOUS
 62
    3
 10
610.00000066576649
 20
560.15638321366669
 11
609.99999999999818
 21
563.15638321366669
  0
LINE
  8
_0-1_計細線
  6
CONTINUOUS
 62
    3
 10
597.50000018892933
 20
560.15638321366669
 11
597.49999999999818
 21
563.15638321366669
  0
LINE
  8
_0-1_計細線
  6
CONTINUOUS
 62
    3
 10
597.49999999999818
 20
563.15638321366669
 11
609.99999999999818
 21
563.15638321366669
  0
LINE
  8
_0-0_計極細
  6
CENTER1
 62
    2
 10
1108
 20
956.65638321366578
 11
1108
 21
355.00268402708252
  0
ARC
  8
_0-1_計細線
  6
CONTINUOUS
 62
    3
 10
1167.4998738399745
 20
543.65638321366669
 40
1.5
 50
89.999999999999915
 51
179.99999999999983
  0
LINE
  8
_0-1_計細線
  6
CONTINUOUS
 62
    3
 10
1185.5
 20
545.15638321366669
 11
1167.4998738399745
 21
545.15638321366669
  0
LINE
  8
_0-1_計細線
  6
CONTINUOUS
 62
    3
 10
1186.5
 20
544.15638321366669
 11
1167.4998738399745
 21
544.15638321366669
  0
LINE
  8
_0-1_計細線
  6
CONTINUOUS
 62
    3
 10
1166.9998738399745
 20
542.6563999336704
 11
1166.9998738399745
 21
543.65638321366669
  0
ARC
  8
_0-1_計細線
  6
CONTINUOUS
 62
    3
 10
1167.4998738399745
 20
543.65638321366669
 40
0.5
 50
89.999999999999915
 51
179.99999999999983
  0
LINE
  8
_0-1_計細線
  6
CONTINUOUS
 62
    3
 10
1166.9998738399745
 20
542.6563999336704
 11
1166.9998738399745
 21
541.65638321366623
  0
ARC
  8
_0-1_計細線
  6
CONTINUOUS
 62
    3
 10
1165.4998738399745
 20
541.65638321366623
 40
1.5
 50
269.99999999999977
 51
359.99999999999966
  0
LINE
  8
_0-1_計細線
  6
CONTINUOUS
 62
    3
 10
1165.9998738399727
 20
543.15636649366252
 11
1165.9998738399727
 21
541.65638321366623
  0
ARC
  8
_0-1_計細線
  6
CONTINUOUS
 62
    3
 10
1165.4998738399727
 20
541.65638321366623
 40
0.5
 50
269.99999999999977
 51
359.99999999999966
  0
LINE
  8
_0-1_計細線
  6
CONTINUOUS
 62
    3
 10
1165.9998738399745
 20
543.65638321366669
 11
1165.9998738399745
 21
543.15636649366252
  0
LINE
  8
_0-1_計細線
  6
CONTINUOUS
 62
    3
 10
1165.401443856992
 20
541.15638321366623
 11
1165.4998738399745
 21
541.15638321366623
  0
LINE
  8
_0-1_計細線
  6
CONTINUOUS
 62
    3
 10
1165.4998738399745
 20
540.15638321366623
 11
1165.401443856992
 21
540.15638321366623
  0
LINE
  8
_0-1_計細線
  6
CONTINUOUS
 62
    3
 10
1165.401443856992
 20
540.15638321366623
 11
1164.8999999999996
 21
540.15638321366623
  0
LINE
  8
_0-1_計細線
  6
CONTINUOUS
 62
    3
 10
1165.4998738399727
 20
541.15638321366623
 11
1164.8999999999996
 21
541.15638321366623
  0
ARC
  8
_0-1_計細線
  6
CONTINUOUS
 62
    3
 10
1048.5001261600255
 20
543.65638321366669
 40
1.5
 50
0
 51
89.999999999999915
  0
LINE
  8
_0-1_計細線
  6
CONTINUOUS
 62
    3
 10
1049.0001261600255
 20
542.6563999336704
 11
1049.0001261600255
 21
543.65638321366669
  0
ARC
  8
_0-1_計細線
  6
CONTINUOUS
 62
    3
 10
1048.5001261600255
 20
543.65638321366669
 40
0.5
 50
0
 51
89.999999999999915
  0
LINE
  8
_0-1_計細線
  6
CONTINUOUS
 62
    3
 10
1049.0001261600255
 20
542.6563999336704
 11
1049.0001261600255
 21
541.65638321366623
  0
ARC
  8
_0-1_計細線
  6
CONTINUOUS
 62
    3
 10
1050.5001261600255
 20
541.65638321366623
 40
1.5
 50
179.99999999999983
 51
269.99999999999977
  0
LINE
  8
_0-1_計細線
  6
CONTINUOUS
 62
    3
 10
1050.0001261600273
 20
543.15636649366252
 11
1050.0001261600273
 21
541.65638321366623
  0
ARC
  8
_0-1_計細線
  6
CONTINUOUS
 62
    3
 10
1050.5001261600273
 20
541.65638321366623
 40
0.5
 50
179.99999999999983
 51
269.99999999999977
  0
LINE
  8
_0-1_計細線
  6
CONTINUOUS
 62
    3
 10
1050.0001261600255
 20
543.65638321366669
 11
1050.0001261600255
 21
543.15636649366252
  0
LINE
  8
_0-1_計細線
  6
CONTINUOUS
 62
    3
 10
1050.598556143007
 20
541.15638321366623
 11
1050.5001261600255
 21
541.15638321366623
  0
LINE
  8
_0-1_計細線
  6
CONTINUOUS
 62
    3
 10
1050.5001261600255
 20
540.15638321366623
 11
1050.598556143007
 21
540.15638321366623
  0
LINE
  8
_0-1_計細線
  6
CONTINUOUS
 62
    3
 10
1050.598556143007
 20
540.15638321366623
 11
1051.1000000000004
 21
540.15638321366623
  0
LINE
  8
_0-1_計細線
  6
CONTINUOUS
 62
    3
 10
1050.5001261600273
 20
541.15638321366623
 11
1051.1000000000004
 21
541.15638321366623
  0
LINE
  8
_0-1_計細線
  6
CONTINUOUS
 62
    3
 10
596.5
 20
545.15638321366669
 11
1048.5001261600255
 21
545.15638321366669
  0
LINE
  8
_0-1_計細線
  6
CONTINUOUS
 62
    3
 10
595.49999999999909
 20
544.15638321366669
 11
1048.5001261600255
 21
544.15638321366669
  0
LINE
  8
_0-1_計細線
  6
CONTINUOUS
 62
    3
 10
1186.7500000000018
 20
580.65638321366669
 11
595.26106216253447
 21
580.65638321366669
  0
LINE
  8
_0-1_計細線
  6
CONTINUOUS
 62
    3
 10
594.5
 20
570.65638321366669
 11
595.49999999999909
 21
570.65638321366669
  0
ARC
  8
_0-1_計細線
  6
CONTINUOUS
 62
    3
 10
595.24999999999909
 20
579.40638321366669
 40
1.25
 50
0
 51
180.00000000002049
  0
ARC
  8
_0-1_計細線
  6
CONTINUOUS
 62
    3
 10
595.25
 20
579.40638321366669
 40
0.25
 50
0
 51
89.999999999999915
  0
LINE
  8
_0-1_計細線
  6
CONTINUOUS
 62
    3
 10
595.25
 20
579.65638321366669
 11
595.26106216253447
 21
579.65638321366669
  0
LINE
  8
_0-1_計細線
  6
CONTINUOUS
 62
    3
 10
595.49999999999909
 20
575.72275618887716
 11
595.01325518736394
 21
579.37334228364398
  0
ARC
  8
_0-1_計細線
  6
CONTINUOUS
 62
    3
 10
595.26106216253447
 20
579.40638321366669
 40
0.25
 50
89.999999999999915
 51
187.5946433685842
  0
LINE
  8
_0-1_計細線
  6
CONTINUOUS
 62
    3
 10
594.5
 20
575.52363726324575
 11
594.5
 21
570.65638321366669
  0
LINE
  8
_0-1_計細線
  6
CONTINUOUS
 62
    3
 10
594.48245580136427
 20
575.78796470342786
 11
593.99999999999909
 21
579.40638321366669
  0
ARC
  8
_0-1_計細線
  6
CONTINUOUS
 62
    3
 10
592.49999999999909
 20
575.52363726324575
 40
2
 50
0
 51
7.5946433685940278
  0
LINE
  8
_0-1_計細線
  6
CONTINUOUS
 62
    3
 10
596.5
 20
579.40638321366669
 11
596.5
 21
545.15638321366669
  0
LINE
  8
_0-1_計細線
  6
CONTINUOUS
 62
    3
 10
595.49999999999909
 20
579.40638321366669
 11
595.49999999999909
 21
544.15638321366669
  0
LINE
  8
_0-1_計細線
  6
CONTINUOUS
 62
    3
 10
1187.5
 20
570.65638321366669
 11
1186.5
 21
570.65638321366669
  0
LINE
  8
_0-1_計細線
  6
CONTINUOUS
 62
    3
 10
1185.5
 20
579.40638321366669
 11
1185.5
 21
545.15638321366669
  0
ARC
  8
_0-1_計細線
  6
CONTINUOUS
 62
    3
 10
1186.75
 20
579.40638321366669
 40
1.25
 50
359.9999999999788
 51
179.99999999999946
  0
LINE
  8
_0-1_計細線
  6
CONTINUOUS
 62
    3
 10
1186.5
 20
579.40638321366669
 11
1186.5
 21
544.15638321366669
  0
ARC
  8
_0-1_計細線
  6
CONTINUOUS
 62
    3
 10
1186.75
 20
579.40638321366669
 40
0.25
 50
89.999999999999915
 51
179.99999999999983
  0
LINE
  8
_0-1_計細線
  6
CONTINUOUS
 62
    3
 10
1186.75
 20
579.65638321366669
 11
1186.7389378374646
 21
579.65638321366669
  0
LINE
  8
_0-1_計細線
  6
CONTINUOUS
 62
    3
 10
1186.5
 20
575.72275618887716
 11
1186.9867448126361
 21
579.37334228364398
  0
ARC
  8
_0-1_計細線
  6
CONTINUOUS
 62
    3
 10
1186.7389378374646
 20
579.40638321366669
 40
0.25
 50
352.4053566314426
 51
89.999999999999545
  0
LINE
  8
_0-1_計細線
  6
CONTINUOUS
 62
    3
 10
1187.5
 20
575.52363726324575
 11
1187.5
 21
570.65638321366669
  0
LINE
  8
_0-1_計細線
  6
CONTINUOUS
 62
    3
 10
1187.5175441986348
 20
575.78796470342786
 11
1188
 21
579.40638321366669
  0
ARC
  8
_0-1_計細線
  6
CONTINUOUS
 62
    3
 10
1189.5
 20
575.52363726324575
 40
2
 50
172.40535663140597
 51
179.99999999999983
  0
LINE
  8
_0-1_計細線
  6
CONTINUOUS
 62
    3
 10
1160.9999998469184
 20
527.95639993367013
 11
1164.899999846918
 21
527.95639993367013
  0
LINE
  8
_0-1_計細線
  6
CONTINUOUS
 62
    3
 10
1164.899999846918
 20
527.95639993367013
 11
1164.899999846918
 21
528.51164093367015
  0
ARC
  8
_0-1_計細線
  6
CONTINUOUS
 62
    3
 10
1163.4999998469184
 20
515.62627293367041
 40
5
 50
120.00000000000252
 51
179.99999999999983
  0
LINE
  8
_0-1_計細線
  6
CONTINUOUS
 62
    3
 10
1160.9999998469184
 20
519.95639993367013
 11
1160.9999998469184
 21
527.95639993367013
  0
LINE
  8
_0-1_計細線
  6
CONTINUOUS
 62
    3
 10
1135.4999998469175
 20
403.65638321366669
 11
1135.5833331802514
 21
408.65638321366669
  0
LINE
  8
_0-1_計細線
  6
CONTINUOUS
 62
    3
 10
1107.9999998469175
 20
403.65638321366669
 11
1132.5564008469182
 21
403.65638321366669
  0
ARC
  8
_0-1_計細線
  6
CONTINUOUS
 62
    3
 10
1150.4999998469184
 20
441.65638321366669
 40
8
 50
269.99999999999312
 51
359.99999999999966
  0
LINE
  8
_0-1_計細線
  6
CONTINUOUS
 62
    3
 10
1158.4999998469184
 20
441.65638321366669
 11
1158.4999998469184
 21
515.62627293367041
  0
LINE
  8
_0-1_計細線
  6
CONTINUOUS
 62
    3
 10
1149.0999998469188
 20
408.65638321366669
 11
1149.4999998469184
 21
433.65638321366669
  0
LINE
  8
_0-1_計細線
  6
CONTINUOUS
 62
    3
 10
1135.583332846918
 20
408.65638321366669
 11
1149.0999998469188
 21
408.65638321366669
  0
LINE
  8
_0-1_計細線
  6
CONTINUOUS
 62
    3
 10
1132.5564008469182
 20
403.65638321366669
 11
1135.4999998469175
 21
403.65638321366669
  0
LINE
  8
_0-1_計細線
  6
CONTINUOUS
 62
    3
 10
1149.4999998469184
 20
433.65638321366669
 11
1150.4999998469175
 21
433.65638321366669
  0
LINE
  8
_0-1_計細線
  6
CONTINUOUS
 62
    3
 10
1164.899999846918
 20
528.51164093367015
 11
1164.899999846918
 21
544.65638321366669
  0
LINE
  8
_0-0_計極細
  6
CONTINUOUS
 62
    2
 10
1157.9789998469187
 20
541.83042204612639
 11
1163.8101336473028
 21
541.83042204612639
  0
LINE
  8
_0-0_計極細
  6
CONTINUOUS
 62
    2
 10
1158.4987126534388
 20
542.73042204612602
 11
1164.899999846918
 21
542.73042204612602
  0
LINE
  8
_0-0_計極細
  6
CONTINUOUS
 62
    2
 10
1164.8176092459016
 20
543.63042204612657
 11
1164.899999846918
 21
543.63042204612657
  0
ARC
  8
_0-0_計極細
  6
CONTINUOUS
 62
    2
 10
1140.9999998469184
 20
523.33848893367031
 40
6
 50
55.166292356156568
 51
155.11305268293316
  0
ARC
  8
_0-0_計極細
  6
CONTINUOUS
 62
    2
 10
1142.4999998469184
 20
525.96424293367045
 40
3
 50
358.07490068720807
 51
50.029499419963869
  0
LINE
  8
_0-0_計極細
  6
CONTINUOUS
 62
    2
 10
1135.5571603995913
 20
525.86346393367012
 11
1145.4983066346167
 21
525.86346393367012
  0
ARC
  8
_0-0_計極細
  6
CONTINUOUS
 62
    2
 10
1140.9999998469184
 20
523.33848893367031
 40
6
 50
155.11305268293316
 51
179.99999999999983
  0
LINE
  8
_0-0_計極細
  6
CONTINUOUS
 62
    2
 10
1147.7108479593753
 20
533.43042204612675
 11
1151.3499998469179
 21
533.43042204612675
  0
LINE
  8
_0-0_計極細
  6
CONTINUOUS
 62
    2
 10
1147.5891517344626
 20
534.93042204612675
 11
1151.4357855068947
 21
534.93042204612675
  0
LINE
  8
_0-0_計極細
  6
CONTINUOUS
 62
    2
 10
1134.9999998469184
 20
522.1563999336704
 11
1157.9789998469187
 21
522.1563999336704
  0
LINE
  8
_0-0_計極細
  6
CONTINUOUS
 62
    2
 10
1146.2499998469184
 20
516.95639993367013
 11
1134.9999998469184
 21
516.95639993367013
  0
LINE
  8
_0-0_計極細
  6
CONTINUOUS
 62
    2
 10
1157.9789998469187
 20
543.36346393367012
 11
1164.899999846918
 21
544.34922094834064
  0
LINE
  8
_0-0_計極細
  6
CONTINUOUS
 62
    2
 10
1134.9999998469184
 20
521.86073593367064
 11
1134.9999998469184
 21
523.33848893367031
  0
LINE
  8
_0-0_計極細
  6
CONTINUOUS
 62
    2
 10
1134.9999998469184
 20
522.95639993367013
 11
1156.4999998469184
 21
522.95639993367013
  0
LINE
  8
_0-0_計極細
  6
CONTINUOUS
 62
    2
 10
1151.4999998469184
 20
536.46424293367045
 11
1151.4999998469184
 21
537.36346393367012
  0
LINE
  8
_0-0_計極細
  6
CONTINUOUS
 62
    2
 10
1151.4999998469184
 20
536.46424293367045
 11
1107.9999998469184
 21
536.46424293367045
  0
LINE
  8
_0-0_計極細
  6
CONTINUOUS
 62
    2
 10
1151.4999998469184
 20
531.86424293367008
 11
1107.9999998469184
 21
531.86424293367008
  0
LINE
  8
_0-0_計極細
  6
CONTINUOUS
 62
    2
 10
1151.4999998469184
 20
530.36424293367008
 11
1151.4999998469184
 21
531.86424293367008
  0
LINE
  8
_0-0_計極細
  6
CONTINUOUS
 62
    2
 10
1147.7499998469184
 20
534.76957393367002
 11
1147.7499998469184
 21
533.46957393367029
  0
LINE
  8
_0-0_計極細
  6
CONTINUOUS
 62
    2
 10
1147.7499998469184
 20
532.46957393367029
 11
1147.7499998469184
 21
531.96957393367029
  0
LINE
  8
_0-0_計極細
  6
CONTINUOUS
 62
    2
 10
1151.3499998469179
 20
534.76957393367002
 11
1151.3499998469179
 21
531.96957393367029
  0
LINE
  8
_0-0_計極細
  6
CONTINUOUS
 62
    2
 10
1107.9999998469184
 20
531.96957393367029
 11
1151.3499998469179
 21
531.96957393367029
  0
LINE
  8
_0-0_計極細
  6
CONTINUOUS
 62
    2
 10
1107.9999998469184
 20
532.96957393367029
 11
1147.2499998469184
 21
532.96957393367029
  0
LINE
  8
_0-0_計極細
  6
CONTINUOUS
 62
    2
 10
1107.9999998469184
 20
535.26957393367047
 11
1147.2499998469184
 21
535.26957393367002
  0
LINE
  8
_0-0_計極細
  6
CONTINUOUS
 62
    2
 10
1147.2499998469184
 20
535.26957393367002
 11
1147.7499998469184
 21
535.76957393367002
  0
LINE
  8
_0-0_計極細
  6
CONTINUOUS
 62
    2
 10
1147.7499998469184
 20
534.76957393367002
 11
1147.2499998469184
 21
535.26957393367002
  0
LINE
  8
_0-0_計極細
  6
CONTINUOUS
 62
    2
 10
1147.7499998469184
 20
532.46957393367029
 11
1147.2499998469184
 21
532.96957393367029
  0
LINE
  8
_0-0_計極細
  6
CONTINUOUS
 62
    2
 10
1147.2499998469184
 20
532.96957393367029
 11
1147.7499998469184
 21
533.46957393367029
  0
LINE
  8
_0-0_計極細
  6
CONTINUOUS
 62
    2
 10
1151.3499998469179
 20
534.76957393367002
 11
1152.1499998469189
 21
536.26957393367002
  0
LINE
  8
_0-0_計極細
  6
CONTINUOUS
 62
    2
 10
1147.7499998469184
 20
536.26957393367002
 11
1147.7499998469184
 21
535.76957393367002
  0
LINE
  8
_0-0_計極細
  6
CONTINUOUS
 62
    2
 10
1107.9999998469184
 20
536.26957393367047
 11
1152.1499998469189
 21
536.26957393367002
  0
LINE
  8
_0-0_計極細
  6
CONTINUOUS
 62
    2
 10
1108.1999998469182
 20
537.36346393367012
 11
1151.7999998469186
 21
537.36346393367012
  0
LINE
  8
_0-0_計極細
  6
CONTINUOUS
 62
    2
 10
1108.1999998469182
 20
538.36346393367012
 11
1151.1999998469182
 21
538.36346393367012
  0
ARC
  8
_0-0_計極細
  6
CONTINUOUS
 62
    2
 10
1153.9499998469182
 20
542.36346393367012
 40
0.5
 50
24.054549000007984
 51
89.999999999999915
  0
ARC
  8
_0-0_計極細
  6
CONTINUOUS
 62
    2
 10
1154.2499998469184
 20
541.06346393367039
 40
0.1999999999999886
 50
269.99999999999977
 51
359.99999999999966
  0
ARC
  8
_0-0_計極細
  6
CONTINUOUS
 62
    2
 10
1153.9499998469182
 20
542.36346393367012
 40
0.5
 50
0
 51
24.054549000007984
  0
ARC
  8
_0-0_計極細
  6
CONTINUOUS
 62
    2
 10
1151.7999998469186
 20
537.86346393367012
 40
0.5
 50
269.99999999999977
 51
359.99999999999966
  0
LINE
  8
_0-0_計極細
  6
CONTINUOUS
 62
    2
 10
1151.1999998469182
 20
537.36346393367012
 11
1151.1999998469182
 21
538.36346393367012
  0
LINE
  8
_0-0_計極細
  6
CONTINUOUS
 62
    2
 10
1152.2999998469186
 20
537.86346393367012
 11
1152.2999998469186
 21
540.86346393367012
  0
LINE
  8
_0-0_計極細
  6
CONTINUOUS
 62
    2
 10
1152.2999998469186
 20
540.86346393367012
 11
1154.2499998469184
 21
540.86346393367012
  0
LINE
  8
_0-0_計極細
  6
CONTINUOUS
 62
    2
 10
1107.9999998469184
 20
542.86346393367012
 11
1153.9499998469182
 21
542.86346393367012
  0
LINE
  8
_0-0_計極細
  6
CONTINUOUS
 62
    2
 10
1154.4499998469182
 20
541.06346393367039
 11
1154.4499998469182
 21
542.36346393367012
  0
LINE
  8
_0-0_計極細
  6
CONTINUOUS
 62
    2
 10
1139.286312846918
 20
524.1634639336703
 11
1139.286312846918
 21
525.86346393367012
  0
LINE
  8
_0-0_計極細
  6
CONTINUOUS
 62
    2
 10
1142.7863128469189
 20
524.1634639336703
 11
1142.7863128469189
 21
525.86346393367012
  0
LINE
  8
_0-0_計極細
  6
CONTINUOUS
 62
    2
 10
1137.7863128469189
 20
524.1634639336703
 11
1137.7863128469189
 21
525.86346393367012
  0
LINE
  8
_0-0_計極細
  6
CONTINUOUS
 62
    2
 10
1137.7863128469189
 20
524.1634639336703
 11
1142.7863128469189
 21
524.1634639336703
  0
LINE
  8
_0-0_計極細
  6
CONTINUOUS
 62
    2
 10
1150.9999998469184
 20
525.86346393367012
 11
1156.4999998469184
 21
525.86346393367012
  0
LINE
  8
_0-0_計極細
  6
CONTINUOUS
 62
    2
 10
1150.169815846918
 20
523.86346393367012
 11
1150.9999998469184
 21
523.86346393367012
  0
LINE
  8
_0-0_計極細
  6
CONTINUOUS
 62
    2
 10
1150.9999998469184
 20
528.56346393367039
 11
1152.2999998469186
 21
528.56346393367039
  0
LINE
  8
_0-0_計極細
  6
CONTINUOUS
 62
    2
 10
1150.9999998469184
 20
527.86346393367012
 11
1152.9999998469184
 21
527.86346393367012
  0
LINE
  8
_0-0_計極細
  6
CONTINUOUS
 62
    2
 10
1150.9999998469184
 20
523.86346393367012
 11
1150.9999998469184
 21
529.86346393367012
  0
LINE
  8
_0-0_計極細
  6
CONTINUOUS
 62
    2
 10
1157.9789998469187
 20
527.34246393367039
 11
1156.4999998469184
 21
525.86346393367012
  0
LINE
  8
_0-0_計極細
  6
CONTINUOUS
 62
    2
 10
1152.9999998469184
 20
527.86346393367012
 11
1152.9999998469184
 21
539.11346393367012
  0
ARC
  8
_0-0_計極細
  6
CONTINUOUS
 62
    2
 10
1154.0499998469177
 20
539.11346393367012
 40
1.0500000000000114
 50
89.999999999999915
 51
179.99999999999983
  0
LINE
  8
_0-0_計極細
  6
CONTINUOUS
 62
    2
 10
1155.2412238469187
 20
540.1634639336703
 11
1154.0499998469177
 21
540.1634639336703
  0
ARC
  8
_0-0_計極細
  6
CONTINUOUS
 62
    2
 10
1155.2412238469187
 20
541.86346393367012
 40
1.6999999999999886
 50
269.99999999999977
 51
356.64911199999773
  0
ARC
  8
_0-0_計極細
  6
CONTINUOUS
 62
    2
 10
1155.2412238469187
 20
541.86346393367012
 40
1
 50
269.99999999999977
 51
356.64911200002581
  0
ARC
  8
_0-0_計極細
  6
CONTINUOUS
 62
    2
 10
1157.9789998469187
 20
541.61346393367012
 40
1.75
 50
89.999999999999915
 51
175.84901000000326
  0
ARC
  8
_0-0_計極細
  6
CONTINUOUS
 62
    2
 10
1154.0499998469177
 20
539.11346393367012
 40
1.75
 50
89.999999999999915
 51
179.99999999999983
  0
LINE
  8
_0-0_計極細
  6
CONTINUOUS
 62
    2
 10
1154.4999998469184
 20
540.86346393367012
 11
1154.4999998469184
 21
543.36346393367012
  0
LINE
  8
_0-0_計極細
  6
CONTINUOUS
 62
    2
 10
1152.2999998469186
 20
528.56346393367039
 11
1152.2999998469186
 21
539.11346393367012
  0
LINE
  8
_0-0_計極細
  6
CONTINUOUS
 62
    2
 10
1155.2412238469187
 20
540.86346393367012
 11
1154.0499998469177
 21
540.86346393367012
  0
LINE
  8
_0-0_計極細
  6
CONTINUOUS
 62
    2
 10
1148.2499998469184
 20
529.86346393367012
 11
1152.2999998469186
 21
529.86346393367012
  0
LINE
  8
_0-0_計極細
  6
CONTINUOUS
 62
    2
 10
1107.9999998469184
 20
543.36346393367012
 11
1157.9789998469187
 21
543.36346393367012
  0
ARC
  8
_0-0_計極細
  6
CONTINUOUS
 62
    2
 10
1146.2499998469184
 20
515.95639993367013
 40
1
 50
89.999999999999915
 51
179.99999999999983
  0
ARC
  8
_0-0_計極細
  6
CONTINUOUS
 62
    2
 10
1146.2499998469184
 20
515.95639993367013
 40
1
 50
0
 51
89.999999999999915
  0
LINE
  8
_0-0_計極細
  6
CONTINUOUS
 62
    2
 10
1164.899999846918
 20
541.95639993367013
 11
1157.9789998469187
 21
541.1563999336704
  0
LINE
  8
_0-0_計極細
  6
CONTINUOUS
 62
    2
 10
1157.9789998469187
 20
522.1563999336704
 11
1156.4999998469184
 21
522.95639993367013
  0
LINE
  8
_0-0_計極細
  6
CONTINUOUS
 62
    2
 10
1156.4999998469184
 20
522.95639993367013
 11
1156.4999998469184
 21
525.86346393367012
  0
LINE
  8
_0-0_計極細
  6
CONTINUOUS
 62
    2
 10
1157.9789998469187
 20
542.65639938741924
 11
1164.899999846918
 21
543.64215693367032
  0
LINE
  8
_0-0_計極細
  6
CONTINUOUS
 62
    2
 10
1157.9789998469187
 20
527.34246393367039
 11
1157.9789998469187
 21
542.6634639336703
  0
ARC
  8
_0-0_計極細
  6
CONTINUOUS
 62
    2
 10
1157.9789998469187
 20
541.61346393367012
 40
1.0500000000000114
 50
89.999999999999915
 51
175.84900999997717
  0
LINE
  8
_0-0_計極細
  6
CONTINUOUS
 62
    2
 10
1145.4999998469184
 20
522.96424293367045
 11
1145.4999998469184
 21
525.96424293367045
  0
LINE
  8
_0-0_計極細
  6
CONTINUOUS
 62
    2
 10
1148.4999998469184
 20
522.96424293367045
 11
1145.4999998469184
 21
522.96424293367045
  0
ARC
  8
_0-0_計極細
  6
CONTINUOUS
 62
    2
 10
1148.4999998469184
 20
524.96424293367045
 40
2
 50
269.99999999999977
 51
359.99999999999966
  0
LINE
  8
_0-0_計極細
  6
CONTINUOUS
 62
    2
 10
1150.4999998469184
 20
524.96424293367045
 11
1150.4999998469184
 21
525.96424293367045
  0
LINE
  8
_0-0_計極細
  6
CONTINUOUS
 62
    2
 10
1150.4999998469184
 20
525.96424293367045
 11
1148.2499998469184
 21
525.96424293367045
  0
LINE
  8
_0-0_計極細
  6
CONTINUOUS
 62
    2
 10
1151.4999998469184
 20
530.36424293367008
 11
1148.2499998469184
 21
530.36424293367008
  0
LINE
  8
_0-0_計極細
  6
CONTINUOUS
 62
    2
 10
1148.2499998469184
 20
525.96424293367045
 11
1148.2499998469184
 21
530.36424293367008
  0
LINE
  8
_0-0_計極細
  6
CONTINUOUS
 62
    2
 10
1148.2499998469184
 20
530.36424293367008
 11
1107.9999998469184
 21
530.36424293367008
  0
ARC
  8
_0-0_計極細
  6
CONTINUOUS
 62
    2
 10
1135.2499998469184
 20
458.15638321366669
 40
10
 50
269.99999999999977
 51
359.99999999999966
  0
LINE
  8
_0-0_計極細
  6
CONTINUOUS
 62
    2
 10
1107.9999998469184
 20
448.15638321366663
 11
1135.2499998469184
 21
448.15638321366663
  0
LINE
  8
_0-0_計極細
  6
CONTINUOUS
 62
    2
 10
1145.2499998469184
 20
458.15638321366669
 11
1145.2499998469184
 21
515.95639993367013
  0
LINE
  8
_0-0_計極細
  6
CONTINUOUS
 62
    2
 10
1147.2499998469184
 20
458.15638321366669
 11
1147.2499998469184
 21
515.95639993367013
  0
LINE
  8
_0-0_計極細
  6
CONTINUOUS
 62
    2
 10
1108.9310338469177
 20
446.15638321366669
 11
1135.2499998469184
 21
446.15638321366669
  0
LINE
  8
_0-0_計極細
  6
CONTINUOUS
 62
    2
 10
1107.9999998469184
 20
446.15638321366669
 11
1108.9310338469177
 21
446.15638321366669
  0
LINE
  8
_0-0_計極細
  6
CONTINUOUS
 62
    2
 10
1146.2499998469184
 20
408.65638321366669
 11
1145.9999998469184
 21
433.65638321366669
  0
LINE
  8
_0-0_計極細
  6
CONTINUOUS
 62
    2
 10
1155.9999998469184
 20
495.07795021366655
 11
1155.9999998469184
 21
522.1563999336704
  0
ARC
  8
_0-0_計極細
  6
CONTINUOUS
 62
    2
 10
1154.9999998469184
 20
495.07795021366655
 40
1
 50
277.18075600000213
 51
359.99999999999966
  0
ARC
  8
_0-0_計極細
  6
CONTINUOUS
 62
    2
 10
1135.2499998469184
 20
458.15638321366669
 40
12
 50
269.99999999999977
 51
359.99999999999966
  0
LINE
  8
_0-0_計極細
  6
CONTINUOUS
 62
    2
 10
1132.9999998469184
 20
436.15638321366663
 11
1132.9999998469184
 21
446.15638321366669
  0
LINE
  8
_0-0_計極細
  6
CONTINUOUS
 62
    2
 10
1135.2499998469184
 20
446.15638321366669
 11
1132.9999998469184
 21
446.15638321366669
  0
LINE
  8
_0-0_計極細
  6
CONTINUOUS
 62
    2
 10
1147.2499998469184
 20
458.15638321366669
 11
1147.2499998469184
 21
485.15638321366669
  0
LINE
  8
_0-0_計極細
  6
CONTINUOUS
 62
    2
 10
1133.0015788469182
 20
436.05371021366682
 11
1132.9999998469184
 21
436.15638321366663
  0
LINE
  8
_0-0_計極細
  6
CONTINUOUS
 62
    2
 10
1132.9999998469184
 20
436.15638321366663
 11
1107.9999998469184
 21
436.15638321366663
  0
ARC
  8
_0-0_計極細
  6
CONTINUOUS
 62
    2
 10
1147.9999998469184
 20
444.15638321366669
 40
8
 50
269.99999999999977
 51
359.99999999999966
  0
LINE
  8
_0-0_計極細
  6
CONTINUOUS
 62
    2
 10
1135.9999998469184
 20
433.65638321366669
 11
1145.9999998469184
 21
433.65638321366669
  0
LINE
  8
_0-0_計極細
  6
CONTINUOUS
 62
    2
 10
1133.4999998469184
 20
403.65638321366669
 11
1132.9999998469184
 21
436.15638321366663
  0
LINE
  8
_0-0_計極細
  6
CONTINUOUS
 62
    2
 10
1155.9999998469184
 20
444.15638321366669
 11
1155.9999998469184
 21
495.07795021366655
  0
LINE
  8
_0-0_計極細
  6
CONTINUOUS
 62
    2
 10
1147.9999998469184
 20
436.15638321366663
 11
1132.9999998469184
 21
436.15638321366663
  0
LINE
  8
_0-0_計極細
  6
CONTINUOUS
 62
    2
 10
1135.5833331802514
 20
408.65638321366669
 11
1135.9999998469184
 21
433.65638321366669
  0
LINE
  8
_0-0_計極細
  6
CONTINUOUS
 62
    2
 10
1133.9999998469184
 20
463.36422621366677
 11
1107.9999998469184
 21
463.36422621366677
  0
ARC
  8
_0-0_計極細
  6
CONTINUOUS
 62
    2
 10
1133.9999998469184
 20
464.36422621366683
 40
1
 50
269.99954163376469
 51
359.99999999999966
  0
LINE
  8
_0-0_計極細
  6
CONTINUOUS
 62
    2
 10
1134.9999998469184
 20
464.36422621366683
 11
1134.9999998469184
 21
523.33848893367031
  0
LINE
  8
_0-0_計極細
  6
CONTINUOUS
 62
    2
 10
1155.1249998507028
 20
494.085793472494
 11
1147.2499998469184
 21
494.085793472494
  0
LINE
  8
_0-0_計極細
  6
CONTINUOUS
 62
    2
 10
1107.9999998469184
 20
543.65638321366669
 11
1160.0355864668181
 21
543.65638321366669
  0
LINE
  8
_0-0_計極細
  6
CONTINUOUS
 62
    2
 10
1107.9999998469184
 20
446.15638321366669
 11
1107.0689658469191
 21
446.15638321366669
  0
LINE
  8
_0-1_計細線
  6
CONTINUOUS
 62
    3
 10
1055.0000001530807
 20
527.95639993367013
 11
1051.1000001530811
 21
527.95639993367013
  0
LINE
  8
_0-1_計細線
  6
CONTINUOUS
 62
    3
 10
1051.1000001530811
 20
527.95639993367013
 11
1051.1000001530811
 21
528.51164093367015
  0
ARC
  8
_0-1_計細線
  6
CONTINUOUS
 62
    3
 10
1052.5000001530807
 20
515.62627293367041
 40
5
 50
0
 51
59.999999999997499
  0
LINE
  8
_0-1_計細線
  6
CONTINUOUS
 62
    3
 10
1055.0000001530807
 20
519.95639993367013
 11
1055.0000001530807
 21
527.95639993367013
  0
LINE
  8
_0-1_計細線
  6
CONTINUOUS
 62
    3
 10
1080.5000001530816
 20
403.65638321366669
 11
1080.4166668197477
 21
408.65638321366669
  0
LINE
  8
_0-1_計細線
  6
CONTINUOUS
 62
    3
 10
1108.0000001530816
 20
403.65638321366669
 11
1083.4435991530809
 21
403.65638321366669
  0
ARC
  8
_0-1_計細線
  6
CONTINUOUS
 62
    3
 10
1065.5000001530807
 20
441.65638321366669
 40
8
 50
179.99999999999983
 51
270.00000000000614
  0
LINE
  8
_0-1_計細線
  6
CONTINUOUS
 62
    3
 10
1057.5000001530807
 20
441.65638321366669
 11
1057.5000001530807
 21
515.62627293367041
  0
LINE
  8
_0-1_計細線
  6
CONTINUOUS
 62
    3
 10
1066.9000001530803
 20
408.65638321366669
 11
1066.5000001530807
 21
433.65638321366669
  0
LINE
  8
_0-1_計細線
  6
CONTINUOUS
 62
    3
 10
1080.4166671530811
 20
408.65638321366669
 11
1066.9000001530803
 21
408.65638321366669
  0
LINE
  8
_0-1_計細線
  6
CONTINUOUS
 62
    3
 10
1083.4435991530809
 20
403.65638321366669
 11
1080.5000001530816
 21
403.65638321366669
  0
LINE
  8
_0-1_計細線
  6
CONTINUOUS
 62
    3
 10
1066.5000001530807
 20
433.65638321366669
 11
1065.5000001530816
 21
433.65638321366669
  0
LINE
  8
_0-0_計極細
  6
CONTINUOUS
 62
    2
 10
1058.0210001530804
 20
541.83042204612639
 11
1052.1898663526963
 21
541.83042204612639
  0
LINE
  8
_0-0_計極細
  6
CONTINUOUS
 62
    2
 10
1057.5012873465603
 20
542.73042204612602
 11
1051.1000001530811
 21
542.73042204612602
  0
LINE
  8
_0-0_計極細
  6
CONTINUOUS
 62
    2
 10
1051.1823907540975
 20
543.63042204612657
 11
1051.1000001530811
 21
543.63042204612657
  0
ARC
  8
_0-0_計極細
  6
CONTINUOUS
 62
    2
 10
1075.0000001530807
 20
523.33848893367031
 40
6
 50
24.886947317066841
 51
124.83370764384345
  0
ARC
  8
_0-0_計極細
  6
CONTINUOUS
 62
    2
 10
1073.5000001530807
 20
525.96424293367045
 40
3
 50
129.97050058003578
 51
181.92509931279125
  0
LINE
  8
_0-0_計極細
  6
CONTINUOUS
 62
    2
 10
1080.4428396004078
 20
525.86346393367012
 11
1070.5016933653824
 21
525.86346393367012
  0
ARC
  8
_0-0_計極細
  6
CONTINUOUS
 62
    2
 10
1075.0000001530807
 20
523.33848893367031
 40
6
 50
0
 51
24.886947317066841
  0
LINE
  8
_0-0_計極細
  6
CONTINUOUS
 62
    2
 10
1068.2891520406238
 20
533.43042204612675
 11
1064.6500001530812
 21
533.43042204612675
  0
LINE
  8
_0-0_計極細
  6
CONTINUOUS
 62
    2
 10
1068.4108482655365
 20
534.93042204612675
 11
1064.5642144931044
 21
534.93042204612675
  0
LINE
  8
_0-0_計極細
  6
CONTINUOUS
 62
    2
 10
1081.0000001530807
 20
522.1563999336704
 11
1058.0210001530804
 21
522.1563999336704
  0
LINE
  8
_0-0_計極細
  6
CONTINUOUS
 62
    2
 10
1069.7500001530807
 20
516.95639993367013
 11
1081.0000001530807
 21
516.95639993367013
  0
LINE
  8
_0-0_計極細
  6
CONTINUOUS
 62
    2
 10
1058.0210001530804
 20
543.36346393367012
 11
1051.1000001530811
 21
544.34922094834064
  0
LINE
  8
_0-0_計極細
  6
CONTINUOUS
 62
    2
 10
1081.0000001530807
 20
521.86073593367064
 11
1081.0000001530807
 21
523.33848893367031
  0
LINE
  8
_0-0_計極細
  6
CONTINUOUS
 62
    2
 10
1081.0000001530807
 20
522.95639993367013
 11
1059.5000001530807
 21
522.95639993367013
  0
LINE
  8
_0-0_計極細
  6
CONTINUOUS
 62
    2
 10
1064.5000001530807
 20
536.46424293367045
 11
1064.5000001530807
 21
537.36346393367012
  0
LINE
  8
_0-0_計極細
  6
CONTINUOUS
 62
    2
 10
1064.5000001530807
 20
536.46424293367045
 11
1108.0000001530807
 21
536.46424293367045
  0
LINE
  8
_0-0_計極細
  6
CONTINUOUS
 62
    2
 10
1064.5000001530807
 20
531.86424293367008
 11
1108.0000001530807
 21
531.86424293367008
  0
LINE
  8
_0-0_計極細
  6
CONTINUOUS
 62
    2
 10
1064.5000001530807
 20
530.36424293367008
 11
1064.5000001530807
 21
531.86424293367008
  0
LINE
  8
_0-0_計極細
  6
CONTINUOUS
 62
    2
 10
1068.2500001530807
 20
534.76957393367002
 11
1068.2500001530807
 21
533.46957393367029
  0
LINE
  8
_0-0_計極細
  6
CONTINUOUS
 62
    2
 10
1068.2500001530807
 20
532.46957393367029
 11
1068.2500001530807
 21
531.96957393367029
  0
LINE
  8
_0-0_計極細
  6
CONTINUOUS
 62
    2
 10
1064.6500001530812
 20
534.76957393367002
 11
1064.6500001530812
 21
531.96957393367029
  0
LINE
  8
_0-0_計極細
  6
CONTINUOUS
 62
    2
 10
1108.0000001530807
 20
531.96957393367029
 11
1064.6500001530812
 21
531.96957393367029
  0
LINE
  8
_0-0_計極細
  6
CONTINUOUS
 62
    2
 10
1108.0000001530807
 20
532.96957393367029
 11
1068.7500001530807
 21
532.96957393367029
  0
LINE
  8
_0-0_計極細
  6
CONTINUOUS
 62
    2
 10
1108.0000001530807
 20
535.26957393367047
 11
1068.7500001530807
 21
535.26957393367002
  0
LINE
  8
_0-0_計極細
  6
CONTINUOUS
 62
    2
 10
1068.7500001530807
 20
535.26957393367002
 11
1068.2500001530807
 21
535.76957393367002
  0
LINE
  8
_0-0_計極細
  6
CONTINUOUS
 62
    2
 10
1068.2500001530807
 20
534.76957393367002
 11
1068.7500001530807
 21
535.26957393367002
  0
LINE
  8
_0-0_計極細
  6
CONTINUOUS
 62
    2
 10
1068.2500001530807
 20
532.46957393367029
 11
1068.7500001530807
 21
532.96957393367029
  0
LINE
  8
_0-0_計極細
  6
CONTINUOUS
 62
    2
 10
1068.7500001530807
 20
532.96957393367029
 11
1068.2500001530807
 21
533.46957393367029
  0
LINE
  8
_0-0_計極細
  6
CONTINUOUS
 62
    2
 10
1064.6500001530812
 20
534.76957393367002
 11
1063.8500001530801
 21
536.26957393367002
  0
LINE
  8
_0-0_計極細
  6
CONTINUOUS
 62
    2
 10
1068.2500001530807
 20
536.26957393367002
 11
1068.2500001530807
 21
535.76957393367002
  0
LINE
  8
_0-0_計極細
  6
CONTINUOUS
 62
    2
 10
1108.0000001530807
 20
536.26957393367047
 11
1063.8500001530801
 21
536.26957393367002
  0
LINE
  8
_0-0_計極細
  6
CONTINUOUS
 62
    2
 10
1107.8000001530809
 20
537.36346393367012
 11
1064.2000001530805
 21
537.36346393367012
  0
LINE
  8
_0-0_計極細
  6
CONTINUOUS
 62
    2
 10
1107.8000001530809
 20
538.36346393367012
 11
1064.8000001530809
 21
538.36346393367012
  0
ARC
  8
_0-0_計極細
  6
CONTINUOUS
 62
    2
 10
1062.0500001530809
 20
542.36346393367012
 40
0.5
 50
89.999999999999915
 51
155.94545099999203
  0
ARC
  8
_0-0_計極細
  6
CONTINUOUS
 62
    2
 10
1061.7500001530807
 20
541.06346393367039
 40
0.1999999999999886
 50
179.99999999999983
 51
269.99999999999977
  0
ARC
  8
_0-0_計極細
  6
CONTINUOUS
 62
    2
 10
1062.0500001530809
 20
542.36346393367012
 40
0.5
 50
155.94545099999203
 51
179.99999999999983
  0
ARC
  8
_0-0_計極細
  6
CONTINUOUS
 62
    2
 10
1064.2000001530805
 20
537.86346393367012
 40
0.5
 50
179.99999999999983
 51
269.99999999999977
  0
LINE
  8
_0-0_計極細
  6
CONTINUOUS
 62
    2
 10
1064.8000001530809
 20
537.36346393367012
 11
1064.8000001530809
 21
538.36346393367012
  0
LINE
  8
_0-0_計極細
  6
CONTINUOUS
 62
    2
 10
1063.7000001530805
 20
537.86346393367012
 11
1063.7000001530805
 21
540.86346393367012
  0
LINE
  8
_0-0_計極細
  6
CONTINUOUS
 62
    2
 10
1063.7000001530805
 20
540.86346393367012
 11
1061.7500001530807
 21
540.86346393367012
  0
LINE
  8
_0-0_計極細
  6
CONTINUOUS
 62
    2
 10
1108.0000001530807
 20
542.86346393367012
 11
1062.0500001530809
 21
542.86346393367012
  0
LINE
  8
_0-0_計極細
  6
CONTINUOUS
 62
    2
 10
1061.5500001530809
 20
541.06346393367039
 11
1061.5500001530809
 21
542.36346393367012
  0
LINE
  8
_0-0_計極細
  6
CONTINUOUS
 62
    2
 10
1076.7136871530811
 20
524.1634639336703
 11
1076.7136871530811
 21
525.86346393367012
  0
LINE
  8
_0-0_計極細
  6
CONTINUOUS
 62
    2
 10
1073.2136871530802
 20
524.1634639336703
 11
1073.2136871530802
 21
525.86346393367012
  0
LINE
  8
_0-0_計極細
  6
CONTINUOUS
 62
    2
 10
1078.2136871530802
 20
524.1634639336703
 11
1078.2136871530802
 21
525.86346393367012
  0
LINE
  8
_0-0_計極細
  6
CONTINUOUS
 62
    2
 10
1078.2136871530802
 20
524.1634639336703
 11
1073.2136871530802
 21
524.1634639336703
  0
LINE
  8
_0-0_計極細
  6
CONTINUOUS
 62
    2
 10
1065.0000001530807
 20
525.86346393367012
 11
1059.5000001530807
 21
525.86346393367012
  0
LINE
  8
_0-0_計極細
  6
CONTINUOUS
 62
    2
 10
1065.8301841530811
 20
523.86346393367012
 11
1065.0000001530807
 21
523.86346393367012
  0
LINE
  8
_0-0_計極細
  6
CONTINUOUS
 62
    2
 10
1065.0000001530807
 20
528.56346393367039
 11
1063.7000001530805
 21
528.56346393367039
  0
LINE
  8
_0-0_計極細
  6
CONTINUOUS
 62
    2
 10
1065.0000001530807
 20
527.86346393367012
 11
1063.0000001530807
 21
527.86346393367012
  0
LINE
  8
_0-0_計極細
  6
CONTINUOUS
 62
    2
 10
1065.0000001530807
 20
523.86346393367012
 11
1065.0000001530807
 21
529.86346393367012
  0
LINE
  8
_0-0_計極細
  6
CONTINUOUS
 62
    2
 10
1058.0210001530804
 20
527.34246393367039
 11
1059.5000001530807
 21
525.86346393367012
  0
LINE
  8
_0-0_計極細
  6
CONTINUOUS
 62
    2
 10
1063.0000001530807
 20
527.86346393367012
 11
1063.0000001530807
 21
539.11346393367012
  0
ARC
  8
_0-0_計極細
  6
CONTINUOUS
 62
    2
 10
1061.9500001530814
 20
539.11346393367012
 40
1.0500000000000114
 50
0
 51
89.999999999999915
  0
LINE
  8
_0-0_計極細
  6
CONTINUOUS
 62
    2
 10
1060.7587761530804
 20
540.1634639336703
 11
1061.9500001530814
 21
540.1634639336703
  0
ARC
  8
_0-0_計極細
  6
CONTINUOUS
 62
    2
 10
1060.7587761530804
 20
541.86346393367012
 40
1.6999999999999886
 50
183.35088800000156
 51
269.99999999999977
  0
ARC
  8
_0-0_計極細
  6
CONTINUOUS
 62
    2
 10
1060.7587761530804
 20
541.86346393367012
 40
1
 50
183.35088799997345
 51
269.99999999999977
  0
ARC
  8
_0-0_計極細
  6
CONTINUOUS
 62
    2
 10
1058.0210001530804
 20
541.61346393367012
 40
1.75
 50
4.1509899999967477
 51
89.999999999999915
  0
ARC
  8
_0-0_計極細
  6
CONTINUOUS
 62
    2
 10
1061.9500001530814
 20
539.11346393367012
 40
1.75
 50
0
 51
89.999999999999915
  0
LINE
  8
_0-0_計極細
  6
CONTINUOUS
 62
    2
 10
1061.5000001530807
 20
540.86346393367012
 11
1061.5000001530807
 21
543.36346393367012
  0
LINE
  8
_0-0_計極細
  6
CONTINUOUS
 62
    2
 10
1063.7000001530805
 20
528.56346393367039
 11
1063.7000001530805
 21
539.11346393367012
  0
LINE
  8
_0-0_計極細
  6
CONTINUOUS
 62
    2
 10
1060.7587761530804
 20
540.86346393367012
 11
1061.9500001530814
 21
540.86346393367012
  0
LINE
  8
_0-0_計極細
  6
CONTINUOUS
 62
    2
 10
1067.7500001530807
 20
529.86346393367012
 11
1063.7000001530805
 21
529.86346393367012
  0
LINE
  8
_0-0_計極細
  6
CONTINUOUS
 62
    2
 10
1108.0000001530807
 20
543.36346393367012
 11
1058.0210001530804
 21
543.36346393367012
  0
ARC
  8
_0-0_計極細
  6
CONTINUOUS
 62
    2
 10
1069.7500001530807
 20
515.95639993367013
 40
1
 50
0
 51
89.999999999999915
  0
ARC
  8
_0-0_計極細
  6
CONTINUOUS
 62
    2
 10
1069.7500001530807
 20
515.95639993367013
 40
1
 50
89.999999999999915
 51
179.99999999999983
  0
LINE
  8
_0-0_計極細
  6
CONTINUOUS
 62
    2
 10
1051.1000001530811
 20
541.95639993367013
 11
1058.0210001530804
 21
541.1563999336704
  0
LINE
  8
_0-0_計極細
  6
CONTINUOUS
 62
    2
 10
1058.0210001530804
 20
522.1563999336704
 11
1059.5000001530807
 21
522.95639993367013
  0
LINE
  8
_0-0_計極細
  6
CONTINUOUS
 62
    2
 10
1059.5000001530807
 20
522.95639993367013
 11
1059.5000001530807
 21
525.86346393367012
  0
LINE
  8
_0-0_計極細
  6
CONTINUOUS
 62
    2
 10
1058.0210001530804
 20
542.65639938741924
 11
1051.1000001530811
 21
543.64215693367032
  0
LINE
  8
_0-0_計極細
  6
CONTINUOUS
 62
    2
 10
1058.0210001530804
 20
527.34246393367039
 11
1058.0210001530804
 21
542.6634639336703
  0
ARC
  8
_0-0_計極細
  6
CONTINUOUS
 62
    2
 10
1058.0210001530804
 20
541.61346393367012
 40
1.0500000000000114
 50
4.1509900000228539
 51
89.999999999999915
  0
LINE
  8
_0-0_計極細
  6
CONTINUOUS
 62
    2
 10
1070.5000001530807
 20
522.96424293367045
 11
1070.5000001530807
 21
525.96424293367045
  0
LINE
  8
_0-0_計極細
  6
CONTINUOUS
 62
    2
 10
1067.5000001530807
 20
522.96424293367045
 11
1070.5000001530807
 21
522.96424293367045
  0
ARC
  8
_0-0_計極細
  6
CONTINUOUS
 62
    2
 10
1067.5000001530807
 20
524.96424293367045
 40
2
 50
179.99999999999983
 51
269.99999999999977
  0
LINE
  8
_0-0_計極細
  6
CONTINUOUS
 62
    2
 10
1065.5000001530807
 20
524.96424293367045
 11
1065.5000001530807
 21
525.96424293367045
  0
LINE
  8
_0-0_計極細
  6
CONTINUOUS
 62
    2
 10
1065.5000001530807
 20
525.96424293367045
 11
1067.7500001530807
 21
525.96424293367045
  0
LINE
  8
_0-0_計極細
  6
CONTINUOUS
 62
    2
 10
1064.5000001530807
 20
530.36424293367008
 11
1067.7500001530807
 21
530.36424293367008
  0
LINE
  8
_0-0_計極細
  6
CONTINUOUS
 62
    2
 10
1067.7500001530807
 20
525.96424293367045
 11
1067.7500001530807
 21
530.36424293367008
  0
LINE
  8
_0-0_計極細
  6
CONTINUOUS
 62
    2
 10
1067.7500001530807
 20
530.36424293367008
 11
1108.0000001530807
 21
530.36424293367008
  0
ARC
  8
_0-0_計極細
  6
CONTINUOUS
 62
    2
 10
1080.7500001530807
 20
458.15638321366669
 40
10
 50
179.99999999999983
 51
269.99999999999977
  0
LINE
  8
_0-0_計極細
  6
CONTINUOUS
 62
    2
 10
1108.0000001530807
 20
448.15638321366663
 11
1080.7500001530807
 21
448.15638321366663
  0
LINE
  8
_0-0_計極細
  6
CONTINUOUS
 62
    2
 10
1070.7500001530807
 20
458.15638321366669
 11
1070.7500001530807
 21
515.95639993367013
  0
LINE
  8
_0-0_計極細
  6
CONTINUOUS
 62
    2
 10
1068.7500001530807
 20
458.15638321366669
 11
1068.7500001530807
 21
515.95639993367013
  0
LINE
  8
_0-0_計極細
  6
CONTINUOUS
 62
    2
 10
1107.0689661530814
 20
446.15638321366669
 11
1080.7500001530807
 21
446.15638321366669
  0
LINE
  8
_0-0_計極細
  6
CONTINUOUS
 62
    2
 10
1108.0000001530807
 20
446.15638321366669
 11
1107.0689661530814
 21
446.15638321366669
  0
LINE
  8
_0-0_計極細
  6
CONTINUOUS
 62
    2
 10
1069.7500001530807
 20
408.65638321366669
 11
1070.0000001530807
 21
433.65638321366669
  0
LINE
  8
_0-0_計極細
  6
CONTINUOUS
 62
    2
 10
1060.0000001530807
 20
495.07795021366655
 11
1060.0000001530807
 21
522.1563999336704
  0
ARC
  8
_0-0_計極細
  6
CONTINUOUS
 62
    2
 10
1061.0000001530807
 20
495.07795021366655
 40
1
 50
179.99999999999983
 51
262.81924399999713
  0
ARC
  8
_0-0_計極細
  6
CONTINUOUS
 62
    2
 10
1080.7500001530807
 20
458.15638321366669
 40
12
 50
179.99999999999983
 51
269.99999999999977
  0
LINE
  8
_0-0_計極細
  6
CONTINUOUS
 62
    2
 10
1083.0000001530807
 20
436.15638321366663
 11
1083.0000001530807
 21
446.15638321366669
  0
LINE
  8
_0-0_計極細
  6
CONTINUOUS
 62
    2
 10
1080.7500001530807
 20
446.15638321366669
 11
1083.0000001530807
 21
446.15638321366669
  0
LINE
  8
_0-0_計極細
  6
CONTINUOUS
 62
    2
 10
1068.7500001530807
 20
458.15638321366669
 11
1068.7500001530807
 21
485.15638321366669
  0
LINE
  8
_0-0_計極細
  6
CONTINUOUS
 62
    2
 10
1082.9984211530809
 20
436.05371021366682
 11
1083.0000001530807
 21
436.15638321366663
  0
LINE
  8
_0-0_計極細
  6
CONTINUOUS
 62
    2
 10
1083.0000001530807
 20
436.15638321366663
 11
1108.0000001530807
 21
436.15638321366663
  0
ARC
  8
_0-0_計極細
  6
CONTINUOUS
 62
    2
 10
1068.0000001530807
 20
444.15638321366669
 40
8
 50
179.99999999999983
 51
269.99999999999977
  0
LINE
  8
_0-0_計極細
  6
CONTINUOUS
 62
    2
 10
1080.0000001530807
 20
433.65638321366669
 11
1070.0000001530807
 21
433.65638321366669
  0
LINE
  8
_0-0_計極細
  6
CONTINUOUS
 62
    2
 10
1082.5000001530807
 20
403.65638321366669
 11
1083.0000001530807
 21
436.15638321366663
  0
LINE
  8
_0-0_計極細
  6
CONTINUOUS
 62
    2
 10
1060.0000001530807
 20
444.15638321366669
 11
1060.0000001530807
 21
495.07795021366655
  0
LINE
  8
_0-0_計極細
  6
CONTINUOUS
 62
    2
 10
1068.0000001530807
 20
436.15638321366663
 11
1083.0000001530807
 21
436.15638321366663
  0
LINE
  8
_0-0_計極細
  6
CONTINUOUS
 62
    2
 10
1080.4166668197477
 20
408.65638321366669
 11
1080.0000001530807
 21
433.65638321366669
  0
LINE
  8
_0-0_計極細
  6
CONTINUOUS
 62
    2
 10
1082.0000001530807
 20
463.36422621366677
 11
1108.0000001530807
 21
463.36422621366677
  0
ARC
  8
_0-0_計極細
  6
CONTINUOUS
 62
    2
 10
1082.0000001530807
 20
464.36422621366683
 40
1
 50
179.99999999999983
 51
270.00045836623457
  0
LINE
  8
_0-0_計極細
  6
CONTINUOUS
 62
    2
 10
1081.0000001530807
 20
464.36422621366683
 11
1081.0000001530807
 21
523.33848893367031
  0
LINE
  8
_0-0_計極細
  6
CONTINUOUS
 62
    2
 10
1060.8750001492963
 20
494.085793472494
 11
1068.7500001530807
 21
494.085793472494
  0
LINE
  8
_0-0_計極細
  6
CONTINUOUS
 62
    2
 10
1108.0000001530807
 20
543.65638321366669
 11
1055.964413533181
 21
543.65638321366669
  0
LINE
  8
_0-0_計極細
  6
CONTINUOUS
 62
    2
 10
1108.0000001530807
 20
446.15638321366669
 11
1108.93103415308
 21
446.15638321366669
  0
LINE
  8
_0-1_計細線
  6
CONTINUOUS
 62
    3
 10
1164.899999846918
 20
544.65638321366669
 11
1051.1000001530811
 21
544.65638321366669
  0
LINE
  8
_0-1_計細線
  6
CONTINUOUS
 62
    3
 10
1051.1000001530811
 20
528.51164093367015
 11
1051.1000001530811
 21
544.65638321366669
  0
LINE
  8
_0-1_計細線
  6
CONTINUOUS
 62
    3
 10
1162.9999998469184
 20
502.65638321366669
 11
1162.9999998469184
 21
507.65638321366669
  0
ARC
  8
_0-1_計細線
  6
CONTINUOUS
 62
    3
 10
1172.1010238469189
 20
506.65638321366663
 40
1
 50
6.3401919999960725
 51
89.999999999999915
  0
LINE
  8
_0-1_計細線
  6
CONTINUOUS
 62
    3
 10
1162.9999998469184
 20
491.65638321366663
 11
1162.9999998469184
 21
496.65638321366669
  0
ARC
  8
_0-1_計細線
  6
CONTINUOUS
 62
    3
 10
1167.8977618469189
 20
488.65638321366663
 40
3
 50
358.07877599999648
 51
89.999999999999545
  0
LINE
  8
_0-1_計細線
  6
CONTINUOUS
 62
    3
 10
1173.0949078469184
 20
506.76681321366641
 11
1174.5780698469189
 21
493.41835521366687
  0
LINE
  8
_0-1_計細線
  6
CONTINUOUS
 62
    3
 10
1168.9999998469184
 20
496.65638321366669
 11
1168.9999998469184
 21
502.65638321366669
  0
LINE
  8
_0-1_計細線
  6
CONTINUOUS
 62
    3
 10
1237.9999998469184
 20
494.65638321366663
 11
1237.9999998469184
 21
494.67590721366696
  0
ARC
  8
_0-1_計細線
  6
CONTINUOUS
 62
    3
 10
1136.9999998469184
 20
397.65638321366669
 40
1
 50
0
 51
89.999999999999915
  0
LINE
  8
_0-1_計細線
  6
CONTINUOUS
 62
    3
 10
1137.9999998469184
 20
393.65638321366669
 11
1137.9999998469184
 21
397.65638321366669
  0
LINE
  8
_0-1_計細線
  6
CONTINUOUS
 62
    3
 10
1170.8883563131976
 20
488.89375367994575
 11
1174.7183944552908
 21
492.72379182203804
  0
LINE
  8
_0-1_計細線
  6
CONTINUOUS
 62
    3
 10
1135.3969998469183
 20
392.65638321366663
 11
1135.9325818924426
 21
376.6519698532943
  0
LINE
  8
_0-1_計細線
  6
CONTINUOUS
 62
    3
 10
1135.9325818924426
 20
376.6519698532943
 11
1138.0004367963456
 21
374.65772943124557
  0
LINE
  8
_0-1_計細線
  6
CONTINUOUS
 62
    3
 10
1136.9999998469184
 20
398.65638321366663
 11
1135.1962138469189
 21
398.65638321366663
  0
LINE
  8
_0-1_計細線
  6
CONTINUOUS
 62
    3
 10
1135.028890197942
 20
403.65638321366669
 11
1135.1962138469189
 21
398.65638321366663
  0
LINE
  8
_0-1_計細線
  6
CONTINUOUS
 62
    3
 10
1170.8960758469184
 20
488.55580521366664
 11
1170.6626470138463
 21
481.59697724161151
  0
LINE
  8
_0-1_計細線
  6
CONTINUOUS
 62
    3
 10
1170.6626469839612
 20
481.59697635070961
 11
1178.9449407494039
 21
489.87927011615142
  0
ARC
  8
_0-1_計細線
  6
CONTINUOUS
 62
    3
 10
1178.5536058469188
 20
493.86008121366649
 40
4
 50
186.34019200000361
 51
275.61444035907562
  0
LINE
  8
_0-1_計細線
  6
CONTINUOUS
 62
    3
 10
1193.4633479929016
 20
490.68945436055446
 11
1178.9411979305833
 21
489.87552729733119
  0
ARC
  8
_0-1_計細線
  6
CONTINUOUS
 62
    3
 10
1193.3506958469188
 20
492.68627921366664
 40
2
 50
273.22895517436541
 51
347.09817799998837
  0
ARC
  8
_0-1_計細線
  6
CONTINUOUS
 62
    3
 10
1202.5447318469187
 20
493.20157921366672
 40
2
 50
193.25263490961044
 51
273.2079119999886
  0
LINE
  8
_0-1_計細線
  6
CONTINUOUS
 62
    3
 10
1211.0828497337634
 20
491.67697760383408
 11
1202.6566506048275
 21
491.20471314405086
  0
LINE
  8
_0-1_計細線
  6
CONTINUOUS
 62
    3
 10
1229.9999998469184
 20
500.66730772718938
 11
1211.0828497337634
 21
491.67697760383408
  0
LINE
  8
_0-1_計細線
  6
CONTINUOUS
 62
    3
 10
1229.9999998469184
 20
502.65638321366669
 11
1174.9999998469184
 21
502.65638321366669
  0
LINE
  8
_0-1_計細線
  6
CONTINUOUS
 62
    3
 10
1229.9999998469184
 20
500.66730772718938
 11
1229.9999998469184
 21
502.65638321366669
  0
LINE
  8
_0-1_計細線
  6
CONTINUOUS
 62
    3
 10
1236.0018556328296
 20
502.65638321366669
 11
1229.9999998469184
 21
502.65638321366669
  0
LINE
  8
_0-1_計細線
  6
CONTINUOUS
 62
    3
 10
1237.9941935623237
 20
494.65638321366663
 11
1236.0018556328296
 21
502.65638321366669
  0
LINE
  8
_0-1_計細線
  6
CONTINUOUS
 62
    3
 10
1237.9941935623237
 20
494.65638321366663
 11
1226.0229880824327
 21
494.65638321366663
  0
LINE
  8
_0-1_計細線
  6
CONTINUOUS
 62
    3
 10
1226.0229880824327
 20
494.65638321366663
 11
1212.1241021604937
 21
486.72748911914732
  0
ARC
  8
_0-1_計細線
  6
CONTINUOUS
 62
    3
 10
1136.9999998469184
 20
393.65638321366669
 40
1
 50
269.99999999999977
 51
293.29048928564214
  0
ARC
  8
_0-1_計細線
  6
CONTINUOUS
 62
    3
 10
1136.9999998469184
 20
393.65638321366669
 40
1
 50
293.29048928564214
 51
359.99999999999966
  0
LINE
  8
_0-1_計細線
  6
CONTINUOUS
 62
    3
 10
1137.3953928881056
 20
392.73787118708191
 11
1138.0004818469188
 21
374.65638321366669
  0
LINE
  8
_0-1_計細線
  6
CONTINUOUS
 62
    3
 10
1145.1457518469188
 20
374.65638321366669
 11
1138.0004818469188
 21
374.65638321366669
  0
ARC
  8
_0-1_計細線
  6
CONTINUOUS
 62
    3
 10
1145.1457518469188
 20
376.65638321366669
 40
2
 50
269.99999999999977
 51
355.18450035393363
  0
LINE
  8
_0-1_計細線
  6
CONTINUOUS
 62
    3
 10
1148.6138838238476
 20
394.07434093863094
 11
1147.138692219457
 21
376.48848839092125
  0
ARC
  8
_0-1_計細線
  6
CONTINUOUS
 62
    3
 10
1153.596384334649
 20
393.65638321366669
 40
5
 50
89.999999999999915
 51
175.20496191479083
  0
LINE
  8
_0-1_計細線
  6
CONTINUOUS
 62
    3
 10
1160.3120409475141
 20
403.65638321366669
 11
1135.028890197942
 21
403.65638321366669
  0
LINE
  8
_0-1_計細線
  6
CONTINUOUS
 62
    3
 10
1170.6626469839612
 20
481.59697635070961
 11
1168.3075438689993
 21
411.38817987191351
  0
ARC
  8
_0-1_計細線
  6
CONTINUOUS
 62
    3
 10
1160.3120409475141
 20
411.65638321366669
 40
8
 50
269.99999999999977
 51
358.07877504897618
  0
LINE
  8
_0-1_計細線
  6
CONTINUOUS
 62
    3
 10
1160.3120416521588
 20
398.65638321366663
 11
1153.596384334649
 21
398.65638321366663
  0
ARC
  8
_0-1_計細線
  6
CONTINUOUS
 62
    3
 10
1160.3120416521588
 20
411.65638321366669
 40
13
 50
269.99999999999977
 51
358.07877479672618
  0
LINE
  8
_0-1_計細線
  6
CONTINUOUS
 62
    3
 10
1212.1241021604937
 20
486.72748911914732
 11
1186.5272694678524
 21
485.29285930451528
  0
ARC
  8
_0-1_計細線
  6
CONTINUOUS
 62
    3
 10
1186.6951474826737
 20
482.29756015883049
 40
3
 50
93.207909628733105
 51
178.07874735825632
  0
LINE
  8
_0-1_計細線
  6
CONTINUOUS
 62
    3
 10
1183.6968339357254
 20
482.3981378610556
 11
1183.6236277646785
 21
480.21579476201032
  0
ARC
  8
_0-1_計細線
  6
CONTINUOUS
 62
    3
 10
1180.6253142177302
 20
480.31637246423537
 40
3
 50
277.10408839400804
 51
358.07874735825595
  0
LINE
  8
_0-1_計細線
  6
CONTINUOUS
 62
    3
 10
1180.9963310733319
 20
477.33940311725519
 11
1178.0410986205052
 21
476.971095310078
  0
LINE
  8
_0-1_計細線
  6
CONTINUOUS
 62
    3
 10
1175.4138018809927
 20
474.09470222945538
 11
1173.304733897653
 21
411.22055272611624
  0
ARC
  8
_0-1_計細線
  6
CONTINUOUS
 62
    3
 10
1178.4121154761069
 20
473.99412596309776
 40
3
 50
97.104088394008429
 51
178.07877479672996
  0
LINE
  8
_0-1_計細線
  6
CONTINUOUS
 62
    3
 10
1199.2478578823429
 20
498.49893706264942
 11
1200.5979944129222
 21
492.74308890507149
  0
LINE
  8
_0-1_計細線
  6
CONTINUOUS
 62
    3
 10
1196.7322192032752
 20
498.49130518232141
 11
1195.3002038469185
 21
492.23971721366655
  0
ARC
  8
_0-1_計細線
  6
CONTINUOUS
 62
    3
 10
1197.7874959886503
 20
498.15638321366669
 40
1.5
 50
13.201080650597749
 51
82.205637111440637
  0
ARC
  8
_0-1_計細線
  6
CONTINUOUS
 62
    3
 10
1198.1943502763716
 20
498.15638321366669
 40
1.5
 50
97.794362888559363
 51
167.09816628926453
  0
LINE
  8
_0-1_計細線
  6
CONTINUOUS
 62
    3
 10
1198.0001753705765
 20
499.65638321366669
 11
1174.9999998469184
 21
499.65638321366669
  0
LINE
  8
_0-1_計細線
  6
CONTINUOUS
 62
    3
 10
1135.028890197942
 20
403.65638321366669
 11
1107.9999998469184
 21
403.65638321366669
  0
LINE
  8
_0-1_計細線
  6
CONTINUOUS
 62
    3
 10
1135.1962138469189
 20
398.65638321366663
 11
1107.9999998469184
 21
398.65638321366663
  0
LINE
  8
_0-1_計細線
  6
CONTINUOUS
 62
    3
 10
1136.9999998469184
 20
392.65638321366663
 11
1107.9999998469184
 21
392.65638321366663
  0
LINE
  8
_0-1_計細線
  6
CONTINUOUS
 62
    3
 10
1135.9324338469187
 20
376.65638321366669
 11
1107.9999998469184
 21
376.65638321366669
  0
LINE
  8
_0-1_計細線
  6
CONTINUOUS
 62
    3
 10
1138.0004367963456
 20
374.65638321366669
 11
1107.9999998469184
 21
374.65638321366669
  0
ARC
  8
_0-0_計極細
  6
CONTINUOUS
 62
    2
 10
1161.9999998469184
 20
502.47030721366667
 40
1
 50
281.33474700003796
 51
359.20218778497502
  0
ARC
  8
_0-0_計極細
  6
CONTINUOUS
 62
    2
 10
1166.9999998469184
 20
501.45638321366687
 40
1
 50
0
 51
89.999999999999915
  0
LINE
  8
_0-0_計極細
  6
CONTINUOUS
 62
    2
 10
1167.9999998469184
 20
497.85638321366645
 11
1167.9999998469184
 21
501.45638321366687
  0
LINE
  8
_0-0_計極細
  6
CONTINUOUS
 62
    2
 10
1166.9999998469184
 20
502.45638321366687
 11
1162.9999029033315
 21
502.45638321366687
  0
LINE
  8
_0-0_計極細
  6
CONTINUOUS
 62
    2
 10
1166.9999998469184
 20
496.8563832136665
 11
1162.9993987311364
 21
496.8563832136665
  0
ARC
  8
_0-0_計極細
  6
CONTINUOUS
 62
    2
 10
1161.9999998469184
 20
496.82171521366621
 40
1
 50
1.9867281846838623
 51
78.665252999966796
  0
ARC
  8
_0-0_計極細
  6
CONTINUOUS
 62
    2
 10
1166.9999998469184
 20
497.85638321366645
 40
1
 50
269.99999999999977
 51
359.99999999999966
  0
LINE
  8
_0-1_計細線
  6
CONTINUOUS
 62
    3
 10
1172.1010238469189
 20
507.65638321366669
 11
1158.4999998469184
 21
507.65638321366669
  0
LINE
  8
_0-1_計細線
  6
CONTINUOUS
 62
    3
 10
1168.9999998469184
 20
502.65638321366669
 11
1158.4999998469184
 21
502.65638321366669
  0
LINE
  8
_0-1_計細線
  6
CONTINUOUS
 62
    3
 10
1168.9999998469184
 20
496.65638321366669
 11
1158.4999998469184
 21
496.65638321366669
  0
LINE
  8
_0-1_計細線
  6
CONTINUOUS
 62
    3
 10
1167.8977618469189
 20
491.65638321366663
 11
1158.4999998469184
 21
491.65638321366663
  0
LINE
  8
_0-0_計極細
  6
CONTINUOUS
 62
    2
 10
1162.196541846919
 20
501.4898112136666
 11
1158.4999998469184
 21
500.74883793455774
  0
LINE
  8
_0-0_計極細
  6
CONTINUOUS
 62
    2
 10
1158.4999998469184
 20
498.54318329652091
 11
1162.196541846919
 21
497.80220921366663
  0
LINE
  8
_0-0_計極細
  6
CENTER1
 62
    2
 10
1168.0405278469188
 20
482.51039121366688
 11
1183.5747958469183
 21
498.04465921366636
  0
LINE
  8
_0-1_計細線
  6
CONTINUOUS
 62
    3
 10
1053.0000001530807
 20
502.65638321366669
 11
1053.0000001530807
 21
507.65638321366669
  0
ARC
  8
_0-1_計細線
  6
CONTINUOUS
 62
    3
 10
1043.8989761530802
 20
506.65638321366663
 40
1
 50
89.999999999999915
 51
173.65980800000392
  0
LINE
  8
_0-1_計細線
  6
CONTINUOUS
 62
    3
 10
1053.0000001530807
 20
491.65638321366663
 11
1053.0000001530807
 21
496.65638321366669
  0
ARC
  8
_0-1_計細線
  6
CONTINUOUS
 62
    3
 10
1048.1022381530802
 20
488.65638321366663
 40
3
 50
89.999999999999915
 51
181.92122400000281
  0
LINE
  8
_0-1_計細線
  6
CONTINUOUS
 62
    3
 10
1042.9050921530807
 20
506.76681321366641
 11
1041.4219301530802
 21
493.41835521366687
  0
LINE
  8
_0-1_計細線
  6
CONTINUOUS
 62
    3
 10
1047.0000001530807
 20
496.65638321366669
 11
1047.0000001530807
 21
502.65638321366669
  0
LINE
  8
_0-1_計細線
  6
CONTINUOUS
 62
    3
 10
978.00000015308058
 20
494.65638321366663
 11
978.00000015308058
 21
494.67590721366696
  0
ARC
  8
_0-1_計細線
  6
CONTINUOUS
 62
    3
 10
1079.0000001530807
 20
397.65638321366669
 40
1
 50
89.999999999999915
 51
179.99999999999983
  0
LINE
  8
_0-1_計細線
  6
CONTINUOUS
 62
    3
 10
1078.0000001530807
 20
393.65638321366669
 11
1078.0000001530807
 21
397.65638321366669
  0
LINE
  8
_0-1_計細線
  6
CONTINUOUS
 62
    3
 10
1045.1116436868015
 20
488.89375367994575
 11
1041.2816055447083
 21
492.72379182203804
  0
LINE
  8
_0-1_計細線
  6
CONTINUOUS
 62
    3
 10
1080.6030001530808
 20
392.65638321366663
 11
1080.0674181075565
 21
376.6519698532943
  0
LINE
  8
_0-1_計細線
  6
CONTINUOUS
 62
    3
 10
1080.0674181075565
 20
376.6519698532943
 11
1077.9995632036535
 21
374.65772943124557
  0
LINE
  8
_0-1_計細線
  6
CONTINUOUS
 62
    3
 10
1079.0000001530807
 20
398.65638321366663
 11
1080.8037861530802
 21
398.65638321366663
  0
LINE
  8
_0-1_計細線
  6
CONTINUOUS
 62
    3
 10
1080.9711098020571
 20
403.65638321366669
 11
1080.8037861530802
 21
398.65638321366663
  0
LINE
  8
_0-1_計細線
  6
CONTINUOUS
 62
    3
 10
1045.1039241530807
 20
488.55580521366664
 11
1045.3373529861528
 21
481.59697724161151
  0
LINE
  8
_0-1_計細線
  6
CONTINUOUS
 62
    3
 10
1045.3373530160379
 20
481.59697635070961
 11
1037.0550592505951
 21
489.87927011615142
  0
ARC
  8
_0-1_計細線
  6
CONTINUOUS
 62
    3
 10
1037.4463941530803
 20
493.86008121366649
 40
4
 50
264.38555964092365
 51
353.65980799999568
  0
LINE
  8
_0-1_計細線
  6
CONTINUOUS
 62
    3
 10
1022.5366520070975
 20
490.68945436055446
 11
1037.0588020694158
 21
489.87552729733119
  0
ARC
  8
_0-1_計細線
  6
CONTINUOUS
 62
    3
 10
1022.6493041530803
 20
492.68627921366664
 40
2
 50
192.9018220000109
 51
266.77104482563391
  0
ARC
  8
_0-1_計細線
  6
CONTINUOUS
 62
    3
 10
1013.4552681530804
 20
493.20157921366672
 40
2
 50
266.79208800001066
 51
346.74736509038883
  0
LINE
  8
_0-1_計細線
  6
CONTINUOUS
 62
    3
 10
1004.9171502662357
 20
491.67697760383408
 11
1013.3433493951715
 21
491.20471314405086
  0
LINE
  8
_0-1_計細線
  6
CONTINUOUS
 62
    3
 10
986.00000015308069
 20
500.66730772718938
 11
1004.9171502662357
 21
491.67697760383408
  0
LINE
  8
_0-1_計細線
  6
CONTINUOUS
 62
    3
 10
986.00000015308069
 20
502.65638321366669
 11
1041.0000001530807
 21
502.65638321366669
  0
LINE
  8
_0-1_計細線
  6
CONTINUOUS
 62
    3
 10
986.00000015308069
 20
500.66730772718938
 11
986.00000015308069
 21
502.65638321366669
  0
LINE
  8
_0-1_計細線
  6
CONTINUOUS
 62
    3
 10
979.99814436716952
 20
502.65638321366669
 11
986.00000015308069
 21
502.65638321366669
  0
LINE
  8
_0-1_計細線
  6
CONTINUOUS
 62
    3
 10
978.00580643767535
 20
494.65638321366663
 11
979.99814436716952
 21
502.65638321366669
  0
LINE
  8
_0-1_計細線
  6
CONTINUOUS
 62
    3
 10
978.00580643767535
 20
494.65638321366663
 11
989.97701191756641
 21
494.65638321366663
  0
LINE
  8
_0-1_計細線
  6
CONTINUOUS
 62
    3
 10
989.97701191756641
 20
494.65638321366663
 11
1003.8758978395052
 21
486.72748911914732
  0
ARC
  8
_0-1_計細線
  6
CONTINUOUS
 62
    3
 10
1079.0000001530807
 20
393.65638321366669
 40
1
 50
246.70951071435718
 51
269.99999999999977
  0
ARC
  8
_0-1_計細線
  6
CONTINUOUS
 62
    3
 10
1079.0000001530807
 20
393.65638321366669
 40
1
 50
179.99999999999983
 51
246.70951071435718
  0
LINE
  8
_0-1_計細線
  6
CONTINUOUS
 62
    3
 10
1078.6046071118935
 20
392.73787118708191
 11
1077.9995181530803
 21
374.65638321366669
  0
LINE
  8
_0-1_計細線
  6
CONTINUOUS
 62
    3
 10
1070.8542481530803
 20
374.65638321366669
 11
1077.9995181530803
 21
374.65638321366669
  0
ARC
  8
_0-1_計細線
  6
CONTINUOUS
 62
    3
 10
1070.8542481530803
 20
376.65638321366669
 40
2
 50
184.81549964606563
 51
269.99999999999977
  0
LINE
  8
_0-1_計細線
  6
CONTINUOUS
 62
    3
 10
1067.3861161761515
 20
394.07434093863094
 11
1068.8613077805421
 21
376.48848839092125
  0
ARC
  8
_0-1_計細線
  6
CONTINUOUS
 62
    3
 10
1062.4036156653501
 20
393.65638321366669
 40
5
 50
4.7950380852091801
 51
89.999999999999915
  0
LINE
  8
_0-1_計細線
  6
CONTINUOUS
 62
    3
 10
1055.687959052485
 20
403.65638321366669
 11
1080.9711098020571
 21
403.65638321366669
  0
LINE
  8
_0-1_計細線
  6
CONTINUOUS
 62
    3
 10
1045.3373530160379
 20
481.59697635070961
 11
1047.6924561309997
 21
411.38817987191351
  0
ARC
  8
_0-1_計細線
  6
CONTINUOUS
 62
    3
 10
1055.687959052485
 20
411.65638321366669
 40
8
 50
181.92122495102308
 51
269.99999999999977
  0
LINE
  8
_0-1_計細線
  6
CONTINUOUS
 62
    3
 10
1055.6879583478403
 20
398.65638321366663
 11
1062.4036156653501
 21
398.65638321366663
  0
ARC
  8
_0-1_計細線
  6
CONTINUOUS
 62
    3
 10
1055.6879583478403
 20
411.65638321366669
 40
13
 50
181.92122520327314
 51
269.99999999999977
  0
LINE
  8
_0-1_計細線
  6
CONTINUOUS
 62
    3
 10
1003.8758978395052
 20
486.72748911914732
 11
1029.4727305321467
 21
485.29285930451528
  0
ARC
  8
_0-1_計細線
  6
CONTINUOUS
 62
    3
 10
1029.3048525173253
 20
482.29756015883049
 40
3
 50
1.9212526417436813
 51
86.792090371266895
  0
LINE
  8
_0-1_計細線
  6
CONTINUOUS
 62
    3
 10
1032.3031660642737
 20
482.3981378610556
 11
1032.3763722353206
 21
480.21579476201032
  0
ARC
  8
_0-1_計細線
  6
CONTINUOUS
 62
    3
 10
1035.3746857822689
 20
480.31637246423537
 40
3
 50
181.92125264174331
 51
262.89591160599122
  0
LINE
  8
_0-1_計細線
  6
CONTINUOUS
 62
    3
 10
1035.0036689266672
 20
477.33940311725519
 11
1037.9589013794939
 21
476.971095310078
  0
LINE
  8
_0-1_計細線
  6
CONTINUOUS
 62
    3
 10
1040.5861981190064
 20
474.09470222945538
 11
1042.6952661023461
 21
411.22055272611624
  0
ARC
  8
_0-1_計細線
  6
CONTINUOUS
 62
    3
 10
1037.5878845238922
 20
473.99412596309776
 40
3
 50
1.9212252032700317
 51
82.895911605991586
  0
LINE
  8
_0-1_計細線
  6
CONTINUOUS
 62
    3
 10
1016.7521421176561
 20
498.49893706264942
 11
1015.4020055870768
 21
492.74308890507149
  0
LINE
  8
_0-1_計細線
  6
CONTINUOUS
 62
    3
 10
1019.2677807967239
 20
498.49130518232141
 11
1020.6997961530805
 21
492.23971721366655
  0
ARC
  8
_0-1_計細線
  6
CONTINUOUS
 62
    3
 10
1018.2125040113488
 20
498.15638321366669
 40
1.5
 50
97.794362888559363
 51
166.79891934940227
  0
ARC
  8
_0-1_計細線
  6
CONTINUOUS
 62
    3
 10
1017.8056497236274
 20
498.15638321366669
 40
1.5
 50
12.901833710735456
 51
82.205637111440637
  0
LINE
  8
_0-1_計細線
  6
CONTINUOUS
 62
    3
 10
1017.9998246294226
 20
499.65638321366669
 11
1041.0000001530807
 21
499.65638321366669
  0
LINE
  8
_0-1_計細線
  6
CONTINUOUS
 62
    3
 10
1080.9711098020571
 20
403.65638321366669
 11
1108.0000001530807
 21
403.65638321366669
  0
LINE
  8
_0-1_計細線
  6
CONTINUOUS
 62
    3
 10
1080.8037861530802
 20
398.65638321366663
 11
1108.0000001530807
 21
398.65638321366663
  0
LINE
  8
_0-1_計細線
  6
CONTINUOUS
 62
    3
 10
1079.0000001530807
 20
392.65638321366663
 11
1108.0000001530807
 21
392.65638321366663
  0
LINE
  8
_0-1_計細線
  6
CONTINUOUS
 62
    3
 10
1080.0675661530804
 20
376.65638321366669
 11
1108.0000001530807
 21
376.65638321366669
  0
LINE
  8
_0-1_計細線
  6
CONTINUOUS
 62
    3
 10
1077.9995632036535
 20
374.65638321366669
 11
1108.0000001530807
 21
374.65638321366669
  0
ARC
  8
_0-0_計極細
  6
CONTINUOUS
 62
    2
 10
1054.0000001530807
 20
502.47030721366667
 40
1
 50
180.79781221502427
 51
258.6652529999613
  0
ARC
  8
_0-0_計極細
  6
CONTINUOUS
 62
    2
 10
1049.0000001530807
 20
501.45638321366687
 40
1
 50
89.999999999999915
 51
179.99999999999983
  0
LINE
  8
_0-0_計極細
  6
CONTINUOUS
 62
    2
 10
1048.0000001530807
 20
497.85638321366645
 11
1048.0000001530807
 21
501.45638321366687
  0
LINE
  8
_0-0_計極細
  6
CONTINUOUS
 62
    2
 10
1049.0000001530807
 20
502.45638321366687
 11
1053.0000970966676
 21
502.45638321366687
  0
LINE
  8
_0-0_計極細
  6
CONTINUOUS
 62
    2
 10
1049.0000001530807
 20
496.8563832136665
 11
1053.0006012688627
 21
496.8563832136665
  0
ARC
  8
_0-0_計極細
  6
CONTINUOUS
 62
    2
 10
1054.0000001530807
 20
496.82171521366621
 40
1
 50
101.33474700003322
 51
178.01327181531613
  0
ARC
  8
_0-0_計極細
  6
CONTINUOUS
 62
    2
 10
1049.0000001530807
 20
497.85638321366645
 40
1
 50
179.99999999999983
 51
269.99999999999977
  0
LINE
  8
_0-1_計細線
  6
CONTINUOUS
 62
    3
 10
1043.8989761530802
 20
507.65638321366669
 11
1057.5000001530807
 21
507.65638321366669
  0
LINE
  8
_0-1_計細線
  6
CONTINUOUS
 62
    3
 10
1047.0000001530807
 20
502.65638321366669
 11
1057.5000001530807
 21
502.65638321366669
  0
LINE
  8
_0-1_計細線
  6
CONTINUOUS
 62
    3
 10
1047.0000001530807
 20
496.65638321366669
 11
1057.5000001530807
 21
496.65638321366669
  0
LINE
  8
_0-1_計細線
  6
CONTINUOUS
 62
    3
 10
1048.1022381530802
 20
491.65638321366663
 11
1057.5000001530807
 21
491.65638321366663
  0
LINE
  8
_0-0_計極細
  6
CONTINUOUS
 62
    2
 10
1053.8034581530801
 20
501.4898112136666
 11
1057.5000001530807
 21
500.74883793455774
  0
LINE
  8
_0-0_計極細
  6
CONTINUOUS
 62
    2
 10
1057.5000001530807
 20
498.54318329652091
 11
1053.8034581530801
 21
497.80220921366663
  0
LINE
  8
_0-0_計極細
  6
CENTER1
 62
    2
 10
1047.9594721530802
 20
482.51039121366688
 11
1032.4252041530808
 21
498.04465921366636
  0
LINE
  8
_0-0_計極細
  6
CONTINUOUS
 62
    2
 10
1045.218914454329
 20
485.666526026665
 11
1045.2002156896606
 21
485.68522479133253
  0
LINE
  8
_0-5_寸法線
  6
CONTINUOUS
 62
    7
 10
1057.2293331802512
 20
533.56722031928985
 11
1052.771115652145
 21
522.42611191518188
  0
LINE
  8
_0-5_寸法線
  6
CONTINUOUS
 62
    7
 10
1057.2293331802512
 20
533.56722031928985
 11
1047.7978493432602
 21
526.14784617906912
  0
LINE
  8
_0-5_寸法線
  6
CONTINUOUS
 62
    7
 10
1057.2293331802512
 20
533.56722031928985
 11
970.65660366028987
 21
417.88210997502756
  0
LINE
  8
_0-5_寸法線
  6
CONTINUOUS
 62
    7
 10
970.65660366028987
 20
417.88210997502756
 11
812.25660366028978
 21
417.88210997502756
  0
TEXT
  8
_0-5_寸法線
 62
    7
 10
812.25660366028978
 20
417.88210997502756
 40
18
 41
0.7999999999999997
 50
0
  1
縦引き排水トラップ一式
  0
LINE
  8
_0-5_寸法線
  6
CONTINUOUS
 62
    7
 10
629
 20
521.15638321366669
 11
634.99999999999989
 21
510.76407836825331
  0
LINE
  8
_0-5_寸法線
  6
CONTINUOUS
 62
    7
 10
629
 20
521.15638321366669
 11
628.99999999999977
 21
509.15638321366669
  0
LINE
  8
_0-5_寸法線
  6
CONTINUOUS
 62
    7
 10
629
 20
521.15638321366669
 11
637.4003632137983
 21
489.80580089773684
  0
LINE
  8
_0-5_寸法線
  6
CONTINUOUS
 62
    7
 10
637.4003632137983
 20
489.80580089773684
 11
695.00036321379821
 21
489.80580089773684
  0
TEXT
  8
_0-5_寸法線
 62
    7
 10
637.4003632137983
 20
489.80580089773684
 40
18
 41
0.8000000000000001
 50
0
  1
アンカー
  0
LINE
  8
_0-5_寸法線
  6
CONTINUOUS
 62
    7
 10
1068.690769180595
 20
362.64402932363146
 11
1068.6907691805934
 21
308.65638321366669
  0
LINE
  8
_0-5_寸法線
  6
CONTINUOUS
 62
    7
 10
1068.6907691805936
 20
314.65638321366669
 11
1080.2818790960625
 21
317.76221175489695
  0
LINE
  8
_0-5_寸法線
  6
CONTINUOUS
 62
    7
 10
1068.6907691805936
 20
314.65638321366669
 11
1080.2818790960625
 21
311.55055467243642
  0
LINE
  8
_0-5_寸法線
  6
CONTINUOUS
 62
    7
 10
1146.690769180595
 20
362.64402932363146
 11
1146.6907691805934
 21
308.65638321366669
  0
LINE
  8
_0-5_寸法線
  6
CONTINUOUS
 62
    7
 10
1146.6907691805936
 20
314.65638321366669
 11
1135.0996592651245
 21
311.55055467243648
  0
LINE
  8
_0-5_寸法線
  6
CONTINUOUS
 62
    7
 10
1146.6907691805936
 20
314.65638321366669
 11
1135.0996592651245
 21
317.76221175489695
  0
LINE
  8
_0-5_寸法線
  6
CONTINUOUS
 62
    7
 10
1068.6907691805936
 20
314.65638321366669
 11
1146.6907691805936
 21
314.65638321366669
  0
TEXT
  8
_0-5_寸法線
 62
    7
 10
1089.6907691805936
 20
314.65638321366669
 40
18
 41
1
 50
0
  1
φ78
  0
LINE
  8
_0-5_寸法線
  6
CONTINUOUS
 62
    7
 10
1042.6907691805952
 20
396.82517955787125
 11
1042.6907691805914
 21
266.65638321366669
  0
LINE
  8
_0-5_寸法線
  6
CONTINUOUS
 62
    7
 10
1042.6907691805918
 20
272.65638321366669
 11
1054.2818790960605
 21
275.76221175489695
  0
LINE
  8
_0-5_寸法線
  6
CONTINUOUS
 62
    7
 10
1042.6907691805918
 20
272.65638321366669
 11
1054.2818790960605
 21
269.55055467243642
  0
LINE
  8
_0-5_寸法線
  6
CONTINUOUS
 62
    7
 10
1172.6907691805952
 20
396.82517955787125
 11
1172.6907691805916
 21
266.65638321366669
  0
LINE
  8
_0-5_寸法線
  6
CONTINUOUS
 62
    7
 10
1172.6907691805918
 20
272.65638321366669
 11
1161.0996592651227
 21
269.55055467243648
  0
LINE
  8
_0-5_寸法線
  6
CONTINUOUS
 62
    7
 10
1172.6907691805918
 20
272.65638321366669
 11
1161.0996592651227
 21
275.76221175489695
  0
LINE
  8
_0-5_寸法線
  6
CONTINUOUS
 62
    7
 10
1042.6907691805918
 20
272.65638321366669
 11
1172.6907691805918
 21
272.65638321366669
  0
TEXT
  8
_0-5_寸法線
 62
    7
 10
1085.1907691805918
 20
272.65638321366669
 40
18
 41
1
 50
0
  1
φ130
  0
LINE
  8
_0-5_寸法線
  6
CONTINUOUS
 62
    7
 10
977.69076918059602
 20
482.6563852213589
 11
977.69076918059204
 21
224.65638321366663
  0
LINE
  8
_0-5_寸法線
  6
CONTINUOUS
 62
    7
 10
977.69076918059227
 20
230.65638321366663
 11
989.28187909606106
 21
233.76221175489695
  0
LINE
  8
_0-5_寸法線
  6
CONTINUOUS
 62
    7
 10
977.69076918059227
 20
230.65638321366663
 11
989.28187909606106
 21
227.55055467243648
  0
LINE
  8
_0-5_寸法線
  6
CONTINUOUS
 62
    7
 10
1237.6907691805952
 20
482.6563852213589
 11
1237.6907691805914
 21
224.65638321366663
  0
LINE
  8
_0-5_寸法線
  6
CONTINUOUS
 62
    7
 10
1237.6907691805914
 20
230.65638321366663
 11
1226.0996592651222
 21
227.55055467243648
  0
LINE
  8
_0-5_寸法線
  6
CONTINUOUS
 62
    7
 10
1237.6907691805914
 20
230.65638321366663
 11
1226.0996592651222
 21
233.76221175489695
  0
LINE
  8
_0-5_寸法線
  6
CONTINUOUS
 62
    7
 10
977.69076918059227
 20
230.65638321366663
 11
1237.6907691805914
 21
230.65638321366663
  0
TEXT
  8
_0-5_寸法線
 62
    7
 10
1085.1907691805918
 20
230.65638321366663
 40
18
 41
1
 50
0
  1
φ260
  0
LINE
  8
_0-5_寸法線
  6
CONTINUOUS
 62
    7
 10
582
 20
946.65638321366566
 11
528
 21
946.65638321366566
  0
LINE
  8
_0-5_寸法線
  6
CONTINUOUS
 62
    7
 10
534
 20
946.65638321366566
 11
530.89417145876973
 21
958.24749312913445
  0
LINE
  8
_0-5_寸法線
  6
CONTINUOUS
 62
    7
 10
534
 20
946.65638321366566
 11
537.10582854123027
 21
958.24749312913445
  0
LINE
  8
_0-5_寸法線
  6
CONTINUOUS
 62
    7
 10
582
 20
944.15638321366578
 11
528
 21
944.15638321366578
  0
LINE
  8
_0-5_寸法線
  6
CONTINUOUS
 62
    7
 10
534
 20
991.83447712114707
 11
534
 21
944.15638321366578
  0
TEXT
  8
_0-5_寸法線
 62
    7
 10
534
 20
960.72399978018291
 40
18
 41
1
 50
90
  1
2.5
  0
LINE
  8
_0-5_寸法線
  6
CONTINUOUS
 62
    7
 10
534
 20
944.15638321366578
 11
537.10582854123015
 21
932.56527329819687
  0
LINE
  8
_0-5_寸法線
  6
CONTINUOUS
 62
    7
 10
534
 20
944.15638321366578
 11
530.89417145876973
 21
932.56527329819687
  0
LINE
  8
_0-5_寸法線
  6
CONTINUOUS
 62
    7
 10
582
 20
805.15638321366578
 11
528
 21
805.15638321366578
  0
LINE
  8
_0-5_寸法線
  6
CONTINUOUS
 62
    7
 10
534
 20
805.15638321366578
 11
530.89417145876973
 21
816.74749312913457
  0
LINE
  8
_0-5_寸法線
  6
CONTINUOUS
 62
    7
 10
534
 20
805.15638321366578
 11
537.10582854123027
 21
816.74749312913457
  0
LINE
  8
_0-5_寸法線
  6
CONTINUOUS
 62
    7
 10
534
 20
944.15638321366578
 11
534
 21
805.15638321366578
  0
TEXT
  8
_0-5_寸法線
 62
    7
 10
534
 20
861.15638321366566
 40
18
 41
1
 50
90
  1
139
  0
LINE
  8
_0-5_寸法線
  6
CONTINUOUS
 62
    7
 10
582
 20
802.65638321366566
 11
528
 21
802.65638321366566
  0
LINE
  8
_0-5_寸法線
  6
CONTINUOUS
 62
    7
 10
534
 20
802.65638321366566
 11
537.10582854123015
 21
791.06527329819687
  0
LINE
  8
_0-5_寸法線
  6
CONTINUOUS
 62
    7
 10
534
 20
802.65638321366566
 11
530.89417145876973
 21
791.06527329819687
  0
LINE
  8
_0-5_寸法線
  6
CONTINUOUS
 62
    7
 10
534
 20
805.15638321366578
 11
534
 21
757.47828930618448
  0
TEXT
  8
_0-5_寸法線
 62
    7
 10
534
 20
762.6083151542191
 40
18
 41
1
 50
90
  1
2.5
  0
LINE
  8
_0-5_寸法線
  6
CONTINUOUS
 62
    7
 10
582
 20
946.65638321366566
 11
486
 21
946.65638321366566
  0
LINE
  8
_0-5_寸法線
  6
CONTINUOUS
 62
    7
 10
492
 20
946.65638321366566
 11
495.10582854123027
 21
935.06527329819687
  0
LINE
  8
_0-5_寸法線
  6
CONTINUOUS
 62
    7
 10
492
 20
946.65638321366566
 11
488.89417145876973
 21
935.06527329819687
  0
LINE
  8
_0-5_寸法線
  6
CONTINUOUS
 62
    7
 10
582
 20
802.65638321366566
 11
486
 21
802.65638321366566
  0
LINE
  8
_0-5_寸法線
  6
CONTINUOUS
 62
    7
 10
492
 20
802.65638321366566
 11
488.89417145876973
 21
814.24749312913445
  0
LINE
  8
_0-5_寸法線
  6
CONTINUOUS
 62
    7
 10
492
 20
802.65638321366566
 11
495.10582854123027
 21
814.24749312913445
  0
LINE
  8
_0-5_寸法線
  6
CONTINUOUS
 62
    7
 10
492
 20
946.65638321366566
 11
492
 21
802.65638321366566
  0
TEXT
  8
_0-5_寸法線
 62
    7
 10
492
 20
861.15638321366566
 40
18
 41
1
 50
90
  1
144
  0
LINE
  8
_0-5_寸法線
  6
CONTINUOUS
 62
    7
 10
1200
 20
544.15638321366623
 11
1303.9941935623237
 21
544.15638321366578
  0
LINE
  8
_0-5_寸法線
  6
CONTINUOUS
 62
    7
 10
1297.9941935623237
 20
544.15638321366578
 11
1301.1000221035538
 21
532.56527329819698
  0
LINE
  8
_0-5_寸法線
  6
CONTINUOUS
 62
    7
 10
1297.9941935623237
 20
544.15638321366578
 11
1294.8883650210935
 21
532.56527329819698
  0
LINE
  8
_0-5_寸法線
  6
CONTINUOUS
 62
    7
 10
1200
 20
580.65638321366578
 11
1303.9941935623237
 21
580.65638321366532
  0
LINE
  8
_0-5_寸法線
  6
CONTINUOUS
 62
    7
 10
1297.9941935623237
 20
580.65638321366532
 11
1294.8883650210935
 21
592.24749312913411
  0
LINE
  8
_0-5_寸法線
  6
CONTINUOUS
 62
    7
 10
1297.9941935623237
 20
580.65638321366532
 11
1301.1000221035538
 21
592.24749312913411
  0
LINE
  8
_0-5_寸法線
  6
CONTINUOUS
 62
    7
 10
1297.9941935623237
 20
514.15638321366578
 11
1297.9941935623237
 21
626.91905154285291
  0
TEXT
  8
_0-5_寸法線
 62
    7
 10
1297.9941935623237
 20
590.91905154285291
 40
18
 41
1
 50
90
  1
36.5
  0
LINE
  8
_0-5_寸法線
  6
CONTINUOUS
 62
    7
 10
1156.8364929256477
 20
374.65638321366669
 11
1345.9941935623237
 21
374.65638321366623
  0
LINE
  8
_0-5_寸法線
  6
CONTINUOUS
 62
    7
 10
1339.9941935623237
 20
374.65638321366623
 11
1336.8883650210935
 21
386.24749312913508
  0
LINE
  8
_0-5_寸法線
  6
CONTINUOUS
 62
    7
 10
1339.9941935623237
 20
374.65638321366623
 11
1343.1000221035538
 21
386.24749312913502
  0
LINE
  8
_0-5_寸法線
  6
CONTINUOUS
 62
    7
 10
1247.6984062446945
 20
502.65638321366703
 11
1345.9941935623237
 21
502.65638321366669
  0
LINE
  8
_0-5_寸法線
  6
CONTINUOUS
 62
    7
 10
1339.9941935623237
 20
502.65638321366669
 11
1343.1000221035538
 21
491.06527329819778
  0
LINE
  8
_0-5_寸法線
  6
CONTINUOUS
 62
    7
 10
1339.9941935623237
 20
502.65638321366669
 11
1336.8883650210935
 21
491.06527329819789
  0
LINE
  8
_0-5_寸法線
  6
CONTINUOUS
 62
    7
 10
1339.9941935623237
 20
374.65638321366623
 11
1339.9941935623237
 21
502.65638321366669
  0
TEXT
  8
_0-5_寸法線
 62
    7
 10
1339.9941935623237
 20
425.15638321366691
 40
18
 41
1
 50
90
  1
128
  0
LINE
  8
_0-5_寸法線
  6
CONTINUOUS
 62
    7
 10
1339.9941935623237
 20
502.65638321366669
 11
1336.8883650210935
 21
514.24749312913548
  0
LINE
  8
_0-5_寸法線
  6
CONTINUOUS
 62
    7
 10
1339.9941935623237
 20
502.65638321366669
 11
1343.1000221035538
 21
514.24749312913548
  0
LINE
  8
_0-5_寸法線
  6
CONTINUOUS
 62
    7
 10
1200
 20
580.65638321366578
 11
1345.9941935623237
 21
580.65638321366532
  0
LINE
  8
_0-5_寸法線
  6
CONTINUOUS
 62
    7
 10
1339.9941935623237
 20
580.65638321366532
 11
1343.1000221035538
 21
569.06527329819653
  0
LINE
  8
_0-5_寸法線
  6
CONTINUOUS
 62
    7
 10
1339.9941935623237
 20
580.65638321366532
 11
1336.8883650210935
 21
569.06527329819653
  0
LINE
  8
_0-5_寸法線
  6
CONTINUOUS
 62
    7
 10
1339.9941935623237
 20
502.65638321366669
 11
1339.9941935623237
 21
580.65638321366532
  0
TEXT
  8
_0-5_寸法線
 62
    7
 10
1339.9941935623237
 20
511.24392728743322
 40
18
 41
1
 50
90
  1
78(58)～128
  0
LINE
  8
_0-5_寸法線
  6
CONTINUOUS
 62
    7
 10
1156.8364929256477
 20
374.65638321366669
 11
1387.9941935623237
 21
374.65638321366623
  0
LINE
  8
_0-5_寸法線
  6
CONTINUOUS
 62
    7
 10
1381.9941935623237
 20
374.65638321366623
 11
1378.8883650210935
 21
386.24749312913508
  0
LINE
  8
_0-5_寸法線
  6
CONTINUOUS
 62
    7
 10
1381.9941935623237
 20
374.65638321366623
 11
1385.1000221035538
 21
386.24749312913502
  0
LINE
  8
_0-5_寸法線
  6
CONTINUOUS
 62
    7
 10
1200
 20
580.65638321366578
 11
1387.9941935623237
 21
580.65638321366487
  0
LINE
  8
_0-5_寸法線
  6
CONTINUOUS
 62
    7
 10
1381.9941935623237
 20
580.65638321366487
 11
1385.1000221035538
 21
569.06527329819596
  0
LINE
  8
_0-5_寸法線
  6
CONTINUOUS
 62
    7
 10
1381.9941935623237
 20
580.65638321366487
 11
1378.8883650210935
 21
569.06527329819596
  0
LINE
  8
_0-5_寸法線
  6
CONTINUOUS
 62
    7
 10
1381.9941935623237
 20
374.65638321366623
 11
1381.9941935623237
 21
580.65638321366487
  0
TEXT
  8
_0-5_寸法線
 62
    7
 10
1381.9941935623237
 20
419.156383213666
 40
18
 41
1
 50
90
  1
206(186)～256
  0
TEXT
  8
_0-5_寸法線
 62
    7
 10
1248.5907957989766
 20
345.22132473881402
 40
18
 41
0.7999999999999998
 50
0
  1
※（　）内はトラップ切断時
  0
LINE
  8
_0-1_計細線
  6
CONTINUOUS
 62
    3
 10
1335.9941768423187
 20
816.15650937369128
 11
1334.4941935623219
 21
816.15650937369128
  0
ARC
  8
_0-1_計細線
  6
CONTINUOUS
 62
    3
 10
1335.9941768423187
 20
818.15650937369116
 40
2
 50
269.99999999999977
 51
359.99999999999966
  0
LINE
  8
_0-1_計細線
  6
CONTINUOUS
 62
    3
 10
1337.9941768423187
 20
818.15650937369116
 11
1337.9941768423187
 21
823.65638321366566
  0
LINE
  8
_0-1_計細線
  6
CONTINUOUS
 62
    3
 10
1335.9941768423187
 20
933.15625705363937
 11
1334.4941935623228
 21
933.15625705363937
  0
ARC
  8
_0-1_計細線
  6
CONTINUOUS
 62
    3
 10
1335.9941768423187
 20
931.15625705363937
 40
2
 50
0
 51
89.999999999999915
  0
LINE
  8
_0-1_計細線
  6
CONTINUOUS
 62
    3
 10
1337.9941768423187
 20
919.65638321366566
 11
1337.9941768423187
 21
931.15625705363937
  0
LINE
  8
_0-1_計細線
  6
CONTINUOUS
 62
    3
 10
1337.9941768423187
 20
818.91760721366552
 11
1337.9941768423187
 21
919.65638321366566
  0
ARC
  8
_0-1_計細線
  6
CONTINUOUS
 62
    3
 10
1299.2441935623228
 20
945.40638313712532
 40
1.25
 50
89.999999999999915
 51
179.99999999999983
  0
LINE
  8
_0-1_計細線
  6
CONTINUOUS
 62
    3
 10
1303.1269395127438
 20
946.15638313712452
 11
1307.9941935623228
 21
946.15638313712452
  0
LINE
  8
_0-1_計細線
  6
CONTINUOUS
 62
    3
 10
1302.8626120725612
 20
946.17392733576025
 11
1299.2441935623228
 21
946.65638313712543
  0
ARC
  8
_0-1_計細線
  6
CONTINUOUS
 62
    3
 10
1303.1269395127438
 20
948.15638313712452
 40
2
 50
262.40535663138922
 51
269.99999999999977
  0
LINE
  8
_0-1_計細線
  6
CONTINUOUS
 62
    3
 10
1297.9941935623237
 20
945.40638313712532
 11
1297.9941935623228
 21
803.90638329020521
  0
LINE
  8
_0-1_計細線
  6
CONTINUOUS
 62
    3
 10
1307.9941935623228
 20
803.15638329020521
 11
1307.9941935623228
 21
946.15638313712452
  0
ARC
  8
_0-1_計細線
  6
CONTINUOUS
 62
    3
 10
1299.2441935623228
 20
803.90638329020521
 40
1.25
 50
179.99999999999983
 51
269.99999999999977
  0
LINE
  8
_0-1_計細線
  6
CONTINUOUS
 62
    3
 10
1303.1269395127438
 20
803.15638329020521
 11
1307.9941935623228
 21
803.15638329020521
  0
LINE
  8
_0-1_計細線
  6
CONTINUOUS
 62
    3
 10
1302.8626120725612
 20
803.1388390915713
 11
1299.2441935623228
 21
802.6563832902051
  0
ARC
  8
_0-1_計細線
  6
CONTINUOUS
 62
    3
 10
1303.1269395127438
 20
801.1563832902051
 40
2
 50
89.999999999999915
 51
97.594643368603499
  0
LINE
  8
_0-1_計細線
  6
CONTINUOUS
 62
    3
 10
1334.4941935623228
 20
945.15638313712452
 11
1334.4941935623228
 21
804.1563832902051
  0
LINE
  8
_0-1_計細線
  6
CONTINUOUS
 62
    3
 10
1334.4941935623228
 20
945.15638313712452
 11
1307.9941935623228
 21
945.15638313712452
  0
LINE
  8
_0-1_計細線
  6
CONTINUOUS
 62
    3
 10
1334.4941935623228
 20
804.1563832902051
 11
1307.9941935623228
 21
804.1563832902051
  0
LINE
  8
_0-0_計極細
  6
CONTINUOUS
 62
    2
 10
1324.4941127423244
 20
945.15638313712543
 11
1324.4941127423244
 21
946.35638313712514
  0
LINE
  8
_0-0_計極細
  6
CONTINUOUS
 62
    2
 10
1334.4941935623228
 20
945.15638313712543
 11
1334.4941935623228
 21
946.35638313712514
  0
LINE
  8
_0-0_計極細
  6
CONTINUOUS
 62
    2
 10
1336.4941935623228
 20
945.15638313712452
 11
1336.4941935623228
 21
946.35638313712514
  0
LINE
  8
_0-0_計極細
  6
CONTINUOUS
 62
    2
 10
1338.4941935623228
 20
945.15638313712452
 11
1338.4941935623228
 21
946.35638313712514
  0
LINE
  8
_0-0_計極細
  6
CONTINUOUS
 62
    2
 10
1340.4941935623228
 20
945.15638313712452
 11
1340.4941935623228
 21
946.35638313712514
  0
LINE
  8
_0-0_計極細
  6
CONTINUOUS
 62
    2
 10
1354.4941935623228
 20
945.15638313712452
 11
1354.4941935623228
 21
946.35638313712514
  0
LINE
  8
_0-1_計細線
  6
CONTINUOUS
 62
    3
 10
1322.4941127423244
 20
946.35638313712514
 11
1357.4941935623228
 21
946.35638313712514
  0
LINE
  8
_0-1_計細線
  6
CONTINUOUS
 62
    3
 10
1357.4941935623228
 20
946.35638313712514
 11
1357.4941935623228
 21
945.15638313712452
  0
LINE
  8
_0-1_計細線
  6
CONTINUOUS
 62
    3
 10
1322.4941127423244
 20
945.15638313712543
 11
1322.4941127423244
 21
946.35638313712514
  0
LINE
  8
_0-1_計細線
  6
CONTINUOUS
 62
    3
 10
1357.4941935623228
 20
945.15638313712452
 11
1322.4941127423244
 21
945.15638313712452
  0
LINE
  8
_0-0_計極細
  6
CONTINUOUS
 62
    2
 10
1324.4941127423244
 20
802.95638329020619
 11
1324.4941127423244
 21
804.1563832902051
  0
LINE
  8
_0-0_計極細
  6
CONTINUOUS
 62
    2
 10
1334.4941935623228
 20
802.95638329020619
 11
1334.4941935623228
 21
804.1563832902051
  0
LINE
  8
_0-0_計極細
  6
CONTINUOUS
 62
    2
 10
1336.4941935623228
 20
802.95638329020619
 11
1336.4941935623228
 21
804.1563832902051
  0
LINE
  8
_0-0_計極細
  6
CONTINUOUS
 62
    2
 10
1338.4941935623228
 20
802.95638329020619
 11
1338.4941935623228
 21
804.1563832902051
  0
LINE
  8
_0-0_計極細
  6
CONTINUOUS
 62
    2
 10
1340.4941935623228
 20
802.95638329020619
 11
1340.4941935623228
 21
804.1563832902051
  0
LINE
  8
_0-0_計極細
  6
CONTINUOUS
 62
    2
 10
1354.4941935623228
 20
802.95638329020619
 11
1354.4941935623228
 21
804.1563832902051
  0
LINE
  8
_0-1_計細線
  6
CONTINUOUS
 62
    3
 10
1322.4941127423244
 20
804.1563832902051
 11
1357.4941935623228
 21
804.1563832902051
  0
LINE
  8
_0-1_計細線
  6
CONTINUOUS
 62
    3
 10
1357.4941935623228
 20
804.1563832902051
 11
1357.4941935623228
 21
802.95638329020619
  0
LINE
  8
_0-1_計細線
  6
CONTINUOUS
 62
    3
 10
1322.4941127423244
 20
802.95638329020619
 11
1322.4941127423244
 21
804.1563832902051
  0
LINE
  8
_0-1_計細線
  6
CONTINUOUS
 62
    3
 10
1357.4941935623228
 20
802.95638329020619
 11
1322.4941127423244
 21
802.95638329020619
  0
LINE
  8
_0-0_計極細
  6
CENTER2
 62
    2
 10
1286.5674585733277
 20
874.65638321366566
 11
1351.3052046428211
 21
874.65638321366566
  0
LINE
  8
_0-5_寸法線
  6
CONTINUOUS
 62
    7
 10
1297.9941935623228
 20
958.65638321366566
 11
1297.9941935623228
 21
1012.6563832136657
  0
LINE
  8
_0-5_寸法線
  6
CONTINUOUS
 62
    7
 10
1297.9941935623228
 20
1006.6563832136657
 11
1286.4030836468539
 21
1003.5505546724355
  0
LINE
  8
_0-5_寸法線
  6
CONTINUOUS
 62
    7
 10
1297.9941935623228
 20
1006.6563832136657
 11
1286.4030836468539
 21
1009.762211754896
  0
LINE
  8
_0-5_寸法線
  6
CONTINUOUS
 62
    7
 10
1334.4941935623228
 20
956.15638321366578
 11
1334.4941935623228
 21
1012.6563832136657
  0
CIRCLE
  8
_0-5_寸法線
  6
CONTINUOUS
 62
    1
 10
1334.4941935623228
 20
1006.6563832136657
 40
1.7999999999999996
  0
LINE
  8
_0-5_寸法線
  6
CONTINUOUS
 62
    7
 10
1249.9941935623228
 20
1006.6563832136657
 11
1334.4941935623228
 21
1006.6563832136657
  0
TEXT
  8
_0-5_寸法線
 62
    7
 10
1250.5297901555305
 20
1006.6563832136657
 40
18
 41
1
 50
0
  1
36.5
  0
LINE
  8
_0-5_寸法線
  6
CONTINUOUS
 62
    7
 10
1357.4941935623228
 20
957.35638321366469
 11
1357.4941935623228
 21
1012.6563832136657
  0
LINE
  8
_0-5_寸法線
  6
CONTINUOUS
 62
    7
 10
1357.4941935623228
 20
1006.6563832136657
 11
1369.0853034777915
 21
1009.7622117548958
  0
LINE
  8
_0-5_寸法線
  6
CONTINUOUS
 62
    7
 10
1357.4941935623228
 20
1006.6563832136657
 11
1369.0853034777915
 21
1003.5505546724355
  0
LINE
  8
_0-5_寸法線
  6
CONTINUOUS
 62
    7
 10
1334.4941935623228
 20
1006.6563832136657
 11
1388.3868712445378
 21
1006.6563832136657
  0
TEXT
  8
_0-5_寸法線
 62
    7
 10
1370.3868712445374
 20
1006.6563832136657
 40
18
 41
1
 50
0
  1
23
  0
LINE
  8
_0-5_寸法線
  6
CONTINUOUS
 62
    7
 10
1297.9941935623228
 20
958.65638321366566
 11
1297.9941935623228
 21
1054.6563832136667
  0
LINE
  8
_0-5_寸法線
  6
CONTINUOUS
 62
    7
 10
1297.9941935623228
 20
1048.6563832136667
 11
1309.5853034777917
 21
1051.7622117548967
  0
LINE
  8
_0-5_寸法線
  6
CONTINUOUS
 62
    7
 10
1297.9941935623228
 20
1048.6563832136667
 11
1309.5853034777917
 21
1045.5505546724364
  0
LINE
  8
_0-5_寸法線
  6
CONTINUOUS
 62
    7
 10
1357.4941935623228
 20
957.35638321366469
 11
1357.4941935623228
 21
1054.6563832136667
  0
LINE
  8
_0-5_寸法線
  6
CONTINUOUS
 62
    7
 10
1357.4941935623228
 20
1048.6563832136667
 11
1345.9030836468539
 21
1045.5505546724364
  0
LINE
  8
_0-5_寸法線
  6
CONTINUOUS
 62
    7
 10
1357.4941935623228
 20
1048.6563832136667
 11
1345.9030836468539
 21
1051.7622117548967
  0
LINE
  8
_0-5_寸法線
  6
CONTINUOUS
 62
    7
 10
1297.9941935623228
 20
1048.6563832136667
 11
1357.4941935623228
 21
1048.6563832136667
  0
TEXT
  8
_0-5_寸法線
 62
    7
 10
1309.7441935623228
 20
1048.6563832136667
 40
18
 41
1
 50
0
  1
59.5
  0
LINE
  8
_0-7_枠細線
  6
CONTINUOUS
 62
    5
 10
1709.8724933853093
 20
1131
 11
1067.87249338531
 21
1131
  0
TEXT
  8
_0-7_枠細線
 62
    5
 10
1073.87249338531
 20
1134
 40
15
 41
1
 50
0
  1
記号
  0
TEXT
  8
_0-7_枠細線
 62
    5
 10
1196.12249338531
 20
1134
 40
15
 41
1
 50
0
  1
訂　 正　 記　 事
  0
TEXT
  8
_0-7_枠細線
 62
    5
 10
1417.3724933853096
 20
1134
 40
15
 41
1
 50
0
  1
訂 正 年 月 日
  0
TEXT
  8
_0-7_枠細線
 62
    5
 10
1567.3724933853093
 20
1134
 40
15
 41
1
 50
0
  1
備　　　　　考
  0
LINE
  8
_0-7_枠細線
  6
CONTINUOUS
 62
    5
 10
1709.87249338531
 20
1110
 11
1067.87249338531
 21
1110
  0
LINE
  8
_0-7_枠細線
  6
CONTINUOUS
 62
    5
 10
1097.87249338531
 20
1111.7308007660963
 11
1088.87249338531
 21
1129.7308007660963
  0
LINE
  8
_0-7_枠細線
  6
CONTINUOUS
 62
    5
 10
1079.87249338531
 20
1111.7308007660963
 11
1097.87249338531
 21
1111.7308007660963
  0
LINE
  8
_0-7_枠細線
  6
CONTINUOUS
 62
    5
 10
1088.87249338531
 20
1129.7308007660963
 11
1079.87249338531
 21
1111.7308007660963
  0
TEXT
  8
_0-7_枠細線
 62
    5
 10
1082.7106749070879
 20
1111.36239807164
 40
15
 41
0.8
 50
0
  1
１
  0
LINE
  8
_0-7_枠細線
  6
CONTINUOUS
 62
    5
 10
1529.8724933853096
 20
1110.0000000000002
 11
1529.8724933853096
 21
1151.9999999999991
  0
LINE
  8
_0-7_枠細線
  6
CONTINUOUS
 62
    5
 10
1409.8724933853096
 20
1110.0000000000002
 11
1409.8724933853096
 21
1151.9999999999991
  0
LINE
  8
_0-7_枠細線
  6
CONTINUOUS
 62
    5
 10
1109.87249338531
 20
1110
 11
1109.87249338531
 21
1151.9999999999991
  0
LINE
  8
_0-7_枠細線
  6
CONTINUOUS
 62
    5
 10
1067.87249338531
 20
1110
 11
1067.87249338531
 21
1151.9999999999991
  0
TEXT
  8
_0-7_枠細線
 62
    5
 10
1126.4929378297543
 20
1113
 40
15
 41
1
 50
0
  1
排水穴位置変更
  0
LINE
  8
_0-5_寸法線
  6
CONTINUOUS
 62
    7
 10
1042.3223640725687
 20
469.34312793071365
 11
1037.8970104418368
 21
458.18892490033227
  0
LINE
  8
_0-5_寸法線
  6
CONTINUOUS
 62
    7
 10
1042.3223640725687
 20
469.34312793071365
 11
1032.9127938924346
 21
461.89598156279999
  0
LINE
  8
_0-5_寸法線
  6
CONTINUOUS
 62
    7
 10
1042.3223640725687
 20
469.34312793071365
 11
970.65660366028987
 21
372.98698838505993
  0
LINE
  8
_0-5_寸法線
  6
CONTINUOUS
 62
    7
 10
970.65660366028987
 20
372.98698838505993
 11
869.85660366028992
 21
372.98698838505993
  0
TEXT
  8
_0-5_寸法線
 62
    7
 10
869.85660366028992
 20
372.98698838505993
 40
18
 41
0.7999999999999997
 50
0
  1
防水マス縦引き
  0
LINE
  8
_0-7_枠細線
  6
CONTINUOUS
 62
    5
 10
1174.4110283342902
 20
718.09555707773347
 11
1165.4110283342902
 21
736.09555707773347
  0
LINE
  8
_0-7_枠細線
  6
CONTINUOUS
 62
    5
 10
1156.4110283342902
 20
718.09555707773347
 11
1174.4110283342902
 21
718.09555707773347
  0
LINE
  8
_0-7_枠細線
  6
CONTINUOUS
 62
    5
 10
1165.4110283342902
 20
736.09555707773347
 11
1156.4110283342902
 21
718.09555707773347
  0
TEXT
  8
_0-7_枠細線
 62
    5
 10
1159.2492098560688
 20
717.72715438327702
 40
15
 41
0.8
 50
0
  1
１
  0
LINE
  8
_1-5_寸法3
  6
CONTINUOUS
 62
    7
 10
591.67344412829971
 20
236.82761635521976
 11
537.67344412830016
 21
236.82761635522002
  0
LINE
  8
_1-5_寸法3
  6
CONTINUOUS
 62
    7
 10
543.67344412830016
 20
236.82761635522002
 11
546.77927266953043
 21
225.23650643975122
  0
LINE
  8
_1-5_寸法3
  6
CONTINUOUS
 62
    7
 10
543.67344412830016
 20
236.82761635522002
 11
540.56761558706989
 21
225.23650643975122
  0
LINE
  8
_1-5_寸法3
  6
CONTINUOUS
 62
    7
 10
594.67344412830016
 20
163.82761635521956
 11
537.67344412830016
 21
163.82761635521956
  0
LINE
  8
_1-5_寸法3
  6
CONTINUOUS
 62
    7
 10
543.67344412830016
 20
163.82761635521956
 11
540.56761558706989
 21
175.41872627068835
  0
LINE
  8
_1-5_寸法3
  6
CONTINUOUS
 62
    7
 10
543.67344412830016
 20
163.82761635521956
 11
546.77927266953043
 21
175.41872627068835
  0
LINE
  8
_1-5_寸法3
  6
CONTINUOUS
 62
    7
 10
543.67344412830016
 20
236.82761635522002
 11
543.67344412830016
 21
163.82761635521956
  0
TEXT
  8
_1-5_寸法3
 62
    7
 10
543.67344412830016
 20
182.32761635521979
 40
18
 41
1
 50
90
  1
36.5
  0
LINE
  8
_1-5_寸法3
  6
CONTINUOUS
 62
    7
 10
903.67344412830005
 20
236.82761635521967
 11
957.67344412830005
 21
236.82761635521933
  0
LINE
  8
_1-5_寸法3
  6
CONTINUOUS
 62
    7
 10
951.67344412830005
 20
236.82761635521933
 11
954.77927266953043
 21
225.23650643975054
  0
LINE
  8
_1-5_寸法3
  6
CONTINUOUS
 62
    7
 10
951.67344412830005
 20
236.82761635521933
 11
948.56761558706989
 21
225.23650643975054
  0
LINE
  8
_1-5_寸法3
  6
CONTINUOUS
 62
    7
 10
903.67344412830005
 20
216.82761635521962
 11
957.67344412830005
 21
216.82761635521911
  0
LINE
  8
_1-5_寸法3
  6
CONTINUOUS
 62
    7
 10
951.67344412830005
 20
216.82761635521911
 11
948.56761558706989
 21
228.4187262706879
  0
LINE
  8
_1-5_寸法3
  6
CONTINUOUS
 62
    7
 10
951.67344412830005
 20
216.82761635521911
 11
954.77927266953043
 21
228.4187262706879
  0
LINE
  8
_1-5_寸法3
  6
CONTINUOUS
 62
    7
 10
951.67344412830005
 20
236.82761635521933
 11
951.67344412830005
 21
216.82761635521911
  0
TEXT
  8
_1-5_寸法3
 62
    7
 10
951.67344412830005
 20
217.82761635521888
 40
18
 41
1
 50
90
  1
10
  0
TEXT
  8
_0-7_枠細線
 62
    5
 10
690.00799095438424
 20
108.3297074818463
 40
30
 41
0.8
 50
0
  1
断面詳細図
  0
LINE
  8
_1-2_極細3
  6
CENTER1
 62
    2
 10
747.67344412830016
 20
252.52373454026133
 11
747.67344412830016
 21
153.64608398056851
  0
LINE
  8
_1-2_極細3
  6
CONTINUOUS
 62
    2
 10
890.67344397521936
 20
216.82761635521604
 11
888.67344397521981
 21
216.82761635521604
  0
LINE
  8
_1-2_極細3
  6
CONTINUOUS
 62
    2
 10
886.67344397521924
 20
234.32761635521581
 11
886.67344397521924
 21
165.82761635521604
  0
ARC
  8
_1-2_極細3
  6
CONTINUOUS
 62
    2
 10
889.1734439752197
 20
234.32761635521581
 40
2.5
 50
359.99999999998403
 51
179.99999999999946
  0
LINE
  8
_1-2_極細3
  6
CONTINUOUS
 62
    2
 10
888.67344397521981
 20
234.32761635521615
 11
888.67344397521981
 21
163.82761635521581
  0
ARC
  8
_1-2_極細3
  6
CONTINUOUS
 62
    2
 10
889.17344397521936
 20
234.32761635521581
 40
0.5
 50
89.999999999999915
 51
179.99999999996092
  0
LINE
  8
_1-2_極細3
  6
CONTINUOUS
 62
    2
 10
889.17344397521936
 20
234.82761635521604
 11
889.15131965014939
 21
234.82761635521604
  0
LINE
  8
_1-2_極細3
  6
CONTINUOUS
 62
    2
 10
888.67344397521981
 20
226.96036230563698
 11
889.64693360049137
 21
234.26153449517039
  0
ARC
  8
_1-2_極細3
  6
CONTINUOUS
 62
    2
 10
889.15131965014939
 20
234.32761635521581
 40
0.5
 50
352.4053566314289
 51
89.999999999999545
  0
LINE
  8
_1-2_極細3
  6
CONTINUOUS
 62
    2
 10
888.67344397521981
 20
163.82761635521581
 11
606.67344428138085
 21
163.82761635521581
  0
LINE
  8
_1-2_極細3
  6
CONTINUOUS
 62
    2
 10
886.67344397521924
 20
165.82761635521604
 11
608.67344428138131
 21
165.82761635521604
  0
LINE
  8
_1-2_極細3
  6
CONTINUOUS
 62
    2
 10
890.67344397521936
 20
226.56212445437382
 11
890.67344397521936
 21
216.82761635521604
  0
LINE
  8
_1-2_極細3
  6
CONTINUOUS
 62
    2
 10
890.70853237248946
 20
227.09077933473782
 11
891.67344397522015
 21
234.32761635521581
  0
ARC
  8
_1-2_極細3
  6
CONTINUOUS
 62
    2
 10
894.67344397521981
 20
226.56212445437382
 40
4
 50
172.40535663140921
 51
179.99999999999983
  0
LINE
  8
_1-2_極細3
  6
CONTINUOUS
 62
    2
 10
604.67344428138085
 20
216.82761635521604
 11
606.67344428138085
 21
216.82761635521604
  0
LINE
  8
_1-2_極細3
  6
CONTINUOUS
 62
    2
 10
608.67344428138131
 20
234.32761635521581
 11
608.67344428138131
 21
165.82761635521604
  0
ARC
  8
_1-2_極細3
  6
CONTINUOUS
 62
    2
 10
606.1734442813804
 20
234.32761635521581
 40
2.5
 50
0
 51
180.00000000001526
  0
LINE
  8
_1-2_極細3
  6
CONTINUOUS
 62
    2
 10
606.67344428138085
 20
234.32761635521615
 11
606.67344428138085
 21
163.82761635521581
  0
ARC
  8
_1-2_極細3
  6
CONTINUOUS
 62
    2
 10
606.17344428138085
 20
234.32761635521581
 40
0.5
 50
0.0000000000390826
 51
89.999999999999915
  0
LINE
  8
_1-2_極細3
  6
CONTINUOUS
 62
    2
 10
606.17344428138085
 20
234.82761635521604
 11
606.19556860645116
 21
234.82761635521604
  0
LINE
  8
_1-2_極細3
  6
CONTINUOUS
 62
    2
 10
606.67344428138085
 20
226.96036230563698
 11
605.69995465610918
 21
234.26153449517039
  0
ARC
  8
_1-2_極細3
  6
CONTINUOUS
 62
    2
 10
606.19556860645116
 20
234.32761635521581
 40
0.5
 50
89.999999999999915
 51
187.59464336857042
  0
LINE
  8
_1-2_極細3
  6
CONTINUOUS
 62
    2
 10
604.67344428138085
 20
226.56212445437382
 11
604.67344428138085
 21
216.82761635521604
  0
LINE
  8
_1-2_極細3
  6
CONTINUOUS
 62
    2
 10
604.63835588411121
 20
227.09077933473782
 11
603.67344428138085
 21
234.32761635521581
  0
ARC
  8
_1-2_極細3
  6
CONTINUOUS
 62
    2
 10
600.67344428138085
 20
226.56212445437382
 40
4
 50
0
 51
7.5946433685907992
  0
TEXT
  8
_0-7_枠細線
 62
    5
 10
827.94675465338639
 20
110.43419802074038
 40
24
 41
0.6
 50
0
  1
Ｓ＝１：３
  0
LINE
  8
_1-3_細線3
  6
CONTINUOUS
 62
    4
 10
624.67344428138131
 20
205.82761635521956
 11
624.67344428138131
 21
235.82761635521956
  0
LINE
  8
_1-3_細線3
  6
CONTINUOUS
 62
    4
 10
870.67344428138165
 20
205.82761635522024
 11
624.67344428138131
 21
205.82761635521956
  0
LINE
  8
_1-3_細線3
  6
CONTINUOUS
 62
    4
 10
870.67344428138165
 20
235.82761635522024
 11
870.67344428138165
 21
205.82761635522024
  0
LINE
  8
_1-3_細線3
  6
CONTINUOUS
 62
    4
 10
874.67344428138108
 20
235.82761635522024
 11
620.67344428138131
 21
235.82761635521956
  0
LINE
  8
_1-3_細線3
  6
CONTINUOUS
 62
    4
 10
874.67344428138108
 20
201.82761635521911
 11
874.67344428138108
 21
235.82761635522024
  0
LINE
  8
_1-3_細線3
  6
CONTINUOUS
 62
    4
 10
620.67344428138131
 20
201.82761635521911
 11
874.67344428138108
 21
201.82761635521911
  0
LINE
  8
_1-3_細線3
  6
CONTINUOUS
 62
    4
 10
620.67344428138131
 20
235.82761635521956
 11
620.67344428138131
 21
201.82761635521911
  0
LINE
  8
_1-5_寸法3
  6
CONTINUOUS
 62
    7
 10
738.48461189677084
 20
209.54106767145763
 11
701.10287639225999
 21
240.90806814605946
  0
LINE
  8
_1-5_寸法3
  6
CONTINUOUS
 62
    7
 10
705.69914305097382
 20
237.05134248794025
 11
702.59331450974355
 21
248.6424524034091
  0
LINE
  8
_1-5_寸法3
  6
CONTINUOUS
 62
    7
 10
705.69914305097382
 20
237.05134248794025
 11
708.80497159220408
 21
248.6424524034091
  0
LINE
  8
_1-5_寸法3
  6
CONTINUOUS
 62
    7
 10
738.48461189677084
 20
243.54106767145842
 11
701.10287639225999
 21
274.90806814606032
  0
LINE
  8
_1-5_寸法3
  6
CONTINUOUS
 62
    7
 10
705.69914305097382
 20
271.05134248794104
 11
708.80497159220408
 21
259.46023257247225
  0
LINE
  8
_1-5_寸法3
  6
CONTINUOUS
 62
    7
 10
705.69914305097382
 20
271.05134248794104
 11
702.59331450974355
 21
259.46023257247214
  0
LINE
  8
_1-5_寸法3
  6
CONTINUOUS
 62
    7
 10
705.69914305097382
 20
237.05134248794025
 11
705.69914305097382
 21
271.05134248794104
  0
TEXT
  8
_1-5_寸法3
 62
    7
 10
705.69914305097382
 20
245.05134248794047
 40
18
 41
1
 50
90
  1
17
  0
LINE
  8
_1-5_寸法3
  6
CONTINUOUS
 62
    7
 10
813.12680852858216
 20
201.82761635521911
 11
816.23263706981231
 21
190.23650643975031
  0
LINE
  8
_1-5_寸法3
  6
CONTINUOUS
 62
    7
 10
813.12680852858216
 20
201.82761635521911
 11
810.02097998735201
 21
190.23650643975031
  0
LINE
  8
_1-5_寸法3
  6
CONTINUOUS
 62
    7
 10
813.12680852858216
 20
205.8276163552199
 11
810.02097998735201
 21
217.41872627068869
  0
LINE
  8
_1-5_寸法3
  6
CONTINUOUS
 62
    7
 10
813.12680852858216
 20
205.8276163552199
 11
816.23263706981243
 21
217.41872627068869
  0
LINE
  8
_1-5_寸法3
  6
CONTINUOUS
 62
    7
 10
813.12680852858216
 20
171.82761635521911
 11
813.12680852858216
 21
235.8276163552199
  0
TEXT
  8
_1-5_寸法3
 62
    7
 10
813.12680852858216
 20
177.71069995212838
 40
18
 41
1
 50
90
  1
2
  0
ARC
  8
_1-3_細線3
  6
CONTINUOUS
 62
    4
 10
876.39422851742552
 20
169.82761635521956
 40
3.9999999999999991
 50
269.99999999999977
 51
348.69006752598227
  0
LINE
  8
_1-3_細線3
  6
CONTINUOUS
 62
    4
 10
876.39422851742552
 20
165.82761635521979
 11
842.95265973917344
 21
165.82761635521979
  0
LINE
  8
_1-3_細線3
  6
CONTINUOUS
 62
    4
 10
883.6734441283005
 20
185.82761635522002
 11
880.31655122018935
 21
169.043151814667
  0
ARC
  8
_1-3_細線3
  6
CONTINUOUS
 62
    4
 10
842.95265973917344
 20
169.82761635521956
 40
3.9999999999999991
 50
191.30993247401983
 51
269.99999999999977
  0
LINE
  8
_1-3_細線3
  6
CONTINUOUS
 62
    4
 10
839.03033703641063
 20
169.043151814667
 11
835.6734441283005
 21
185.82761635522002
  0
LINE
  8
_1-3_細線3
  6
CONTINUOUS
 62
    4
 10
834.67344412830039
 20
201.82761635522047
 11
884.67344412829993
 21
201.82761635521979
  0
LINE
  8
_1-3_細線3
  6
CONTINUOUS
 62
    4
 10
834.67344412830039
 20
185.82761635522002
 11
834.67344412830039
 21
201.82761635522047
  0
LINE
  8
_1-3_細線3
  6
CONTINUOUS
 62
    4
 10
834.67344412830039
 20
185.82761635522002
 11
884.67344412829993
 21
185.82761635522002
  0
LINE
  8
_1-3_細線3
  6
CONTINUOUS
 62
    4
 10
884.67344412829993
 20
201.82761635521979
 11
884.67344412829993
 21
185.82761635522002
  0
ARC
  8
_1-3_細線3
  6
CONTINUOUS
 62
    4
 10
652.3942285174262
 20
169.82761635521922
 40
3.9999999999999991
 50
269.99999999999977
 51
348.6900675259746
  0
LINE
  8
_1-3_細線3
  6
CONTINUOUS
 62
    4
 10
652.3942285174262
 20
165.82761635521911
 11
618.95265973917367
 21
165.82761635521911
  0
LINE
  8
_1-3_細線3
  6
CONTINUOUS
 62
    4
 10
659.67344412830016
 20
185.82761635521933
 11
656.31655122018901
 21
169.04315181466632
  0
ARC
  8
_1-3_細線3
  6
CONTINUOUS
 62
    4
 10
618.95265973917367
 20
169.82761635521922
 40
3.9999999999999991
 50
191.30993247402466
 51
269.99999999999977
  0
LINE
  8
_1-3_細線3
  6
CONTINUOUS
 62
    4
 10
615.03033703641086
 20
169.04315181466632
 11
611.67344412830016
 21
185.82761635521933
  0
LINE
  8
_1-3_細線3
  6
CONTINUOUS
 62
    4
 10
660.67344412830062
 20
201.82761635521979
 11
610.67344412830062
 21
201.82761635521979
  0
LINE
  8
_1-3_細線3
  6
CONTINUOUS
 62
    4
 10
660.67344412830062
 20
185.82761635521933
 11
660.67344412830062
 21
201.82761635522013
  0
LINE
  8
_1-3_細線3
  6
CONTINUOUS
 62
    4
 10
610.67344412830062
 20
185.82761635521933
 11
660.67344412830062
 21
185.82761635521933
  0
LINE
  8
_1-3_細線3
  6
CONTINUOUS
 62
    4
 10
610.67344412830062
 20
201.82761635521979
 11
610.67344412830062
 21
185.82761635521933
  0
LINE
  8
_1-5_寸法3
  6
CONTINUOUS
 62
    7
 10
603.6734442813804
 20
248.82761635521592
 11
603.6734442813804
 21
302.82761635521592
  0
LINE
  8
_1-5_寸法3
  6
CONTINUOUS
 62
    7
 10
603.6734442813804
 20
296.82761635521592
 11
592.08233436591161
 21
293.72178781398566
  0
LINE
  8
_1-5_寸法3
  6
CONTINUOUS
 62
    7
 10
603.6734442813804
 20
296.82761635521592
 11
592.08233436591161
 21
299.93344489644619
  0
LINE
  8
_1-5_寸法3
  6
CONTINUOUS
 62
    7
 10
608.67344428138176
 20
248.82761635521592
 11
608.67344428138176
 21
302.82761635521592
  0
CIRCLE
  8
_1-5_寸法3
  6
CONTINUOUS
 62
    1
 10
608.67344428138176
 20
296.82761635521592
 40
1.7999999999999996
  0
LINE
  8
_1-5_寸法3
  6
CONTINUOUS
 62
    7
 10
566.73675563324832
 20
296.82761635521592
 11
608.67344428138176
 21
296.82761635521592
  0
TEXT
  8
_1-5_寸法3
 62
    7
 10
566.73675563324832
 20
296.82761635521592
 40
18
 41
1
 50
0
  1
2.5
  0
LINE
  8
_1-5_寸法3
  6
CONTINUOUS
 62
    7
 10
620.67344428138131
 20
248.82761635521592
 11
620.67344428138176
 21
302.82761635521592
  0
LINE
  8
_1-5_寸法3
  6
CONTINUOUS
 62
    7
 10
608.67344428138176
 20
296.82761635521592
 11
620.67344428138176
 21
296.82761635521592
  0
TEXT
  8
_1-5_寸法3
 62
    7
 10
610.17344428138176
 20
296.82761635521592
 40
18
 41
1
 50
0
  1
6
  0
LINE
  8
_1-5_寸法3
  6
CONTINUOUS
 62
    7
 10
620.67344428138176
 20
296.82761635521592
 11
632.26455419685044
 21
299.93344489644619
  0
LINE
  8
_1-5_寸法3
  6
CONTINUOUS
 62
    7
 10
620.67344428138176
 20
296.82761635521592
 11
632.26455419685044
 21
293.72178781398566
  0
LINE
  8
_1-5_寸法3
  6
CONTINUOUS
 62
    7
 10
874.67344428138108
 20
248.82761635521592
 11
874.67344428138108
 21
302.82761635521592
  0
LINE
  8
_1-5_寸法3
  6
CONTINUOUS
 62
    7
 10
874.67344428138108
 20
296.82761635521592
 11
863.08233436591229
 21
293.72178781398566
  0
LINE
  8
_1-5_寸法3
  6
CONTINUOUS
 62
    7
 10
874.67344428138108
 20
296.82761635521592
 11
863.08233436591229
 21
299.93344489644619
  0
LINE
  8
_1-5_寸法3
  6
CONTINUOUS
 62
    7
 10
620.67344428138176
 20
296.82761635521592
 11
874.67344428138108
 21
296.82761635521592
  0
TEXT
  8
_1-5_寸法3
 62
    7
 10
734.17344428138176
 20
296.82761635521592
 40
18
 41
1
 50
0
  1
127
  0
LINE
  8
_1-5_寸法3
  6
CONTINUOUS
 62
    7
 10
886.67344397521924
 20
248.82761635521592
 11
886.67344397521924
 21
302.82761635521592
  0
CIRCLE
  8
_1-5_寸法3
  6
CONTINUOUS
 62
    1
 10
886.67344397521924
 20
296.82761635521592
 40
1.7999999999999996
  0
LINE
  8
_1-5_寸法3
  6
CONTINUOUS
 62
    7
 10
874.67344428138108
 20
296.82761635521592
 11
886.67344397521924
 21
296.82761635521592
  0
TEXT
  8
_1-5_寸法3
 62
    7
 10
876.1734441283005
 20
296.82761635521592
 40
18
 41
1
 50
0
  1
6
  0
LINE
  8
_1-5_寸法3
  6
CONTINUOUS
 62
    7
 10
891.67344397521981
 20
248.82761635521592
 11
891.67344397521981
 21
302.82761635521592
  0
LINE
  8
_1-5_寸法3
  6
CONTINUOUS
 62
    7
 10
891.67344397521981
 20
296.82761635521592
 11
903.2645538906886
 21
299.93344489644608
  0
LINE
  8
_1-5_寸法3
  6
CONTINUOUS
 62
    7
 10
891.67344397521981
 20
296.82761635521592
 11
903.2645538906886
 21
293.7217878139856
  0
LINE
  8
_1-5_寸法3
  6
CONTINUOUS
 62
    7
 10
886.67344397521924
 20
296.82761635521592
 11
934.42582361496113
 21
296.82761635521592
  0
TEXT
  8
_1-5_寸法3
 62
    7
 10
907.42582361496113
 20
296.82761635521592
 40
18
 41
1
 50
0
  1
2.5
  0
LINE
  8
_1-5_寸法3
  6
CONTINUOUS
 62
    7
 10
603.67344412830016
 20
248.82761635521967
 11
603.67344412830016
 21
344.82761635521592
  0
LINE
  8
_1-5_寸法3
  6
CONTINUOUS
 62
    7
 10
603.67344412830016
 20
338.82761635521592
 11
615.26455404376895
 21
341.93344489644619
  0
LINE
  8
_1-5_寸法3
  6
CONTINUOUS
 62
    7
 10
603.67344412830016
 20
338.82761635521592
 11
615.26455404376895
 21
335.72178781398566
  0
LINE
  8
_1-5_寸法3
  6
CONTINUOUS
 62
    7
 10
891.67344412830005
 20
248.82761635521967
 11
891.67344412830005
 21
344.82761635521592
  0
LINE
  8
_1-5_寸法3
  6
CONTINUOUS
 62
    7
 10
891.67344412830005
 20
338.82761635521592
 11
880.08233421283126
 21
335.72178781398566
  0
LINE
  8
_1-5_寸法3
  6
CONTINUOUS
 62
    7
 10
891.67344412830005
 20
338.82761635521592
 11
880.08233421283126
 21
341.93344489644619
  0
LINE
  8
_1-5_寸法3
  6
CONTINUOUS
 62
    7
 10
603.67344412830016
 20
338.82761635521592
 11
891.67344412830005
 21
338.82761635521592
  0
TEXT
  8
_1-5_寸法3
 62
    7
 10
734.17344412830016
 20
338.82761635521592
 40
18
 41
1
 50
0
  1
144
  0
LINE
  8
_1-3_細線3
  6
CONTINUOUS
 62
    4
 10
707.68084614701547
 20
195.82761635521979
 11
707.68084614701547
 21
201.82761635521945
  0
LINE
  8
_1-3_細線3
  6
CONTINUOUS
 62
    4
 10
787.68084614701525
 20
195.82761635522013
 11
707.68084614701547
 21
195.82761635521979
  0
LINE
  8
_1-3_細線3
  6
CONTINUOUS
 62
    4
 10
787.68084614701525
 20
201.82761635521945
 11
787.68084614701525
 21
195.82761635522013
  0
ARC
  8
_1-3_細線3
  6
CONTINUOUS
 62
    4
 10
764.3942285174262
 20
169.82761635521888
 40
3.9999999999999991
 50
269.99999999999977
 51
348.69006752597846
  0
LINE
  8
_1-3_細線3
  6
CONTINUOUS
 62
    4
 10
764.3942285174262
 20
165.82761635521911
 11
730.95265973917412
 21
165.82761635521911
  0
LINE
  8
_1-3_細線3
  6
CONTINUOUS
 62
    4
 10
771.67344412829971
 20
185.82761635521933
 11
768.31655122018856
 21
169.04315181466632
  0
ARC
  8
_1-3_細線3
  6
CONTINUOUS
 62
    4
 10
730.95265973917412
 20
169.82761635521888
 40
3.9999999999999991
 50
191.30993247401696
 51
269.99999999999977
  0
LINE
  8
_1-3_細線3
  6
CONTINUOUS
 62
    4
 10
727.03033703641029
 20
169.04315181466632
 11
723.67344412829982
 21
185.82761635521933
  0
LINE
  8
_1-3_細線3
  6
CONTINUOUS
 62
    4
 10
722.67344412830005
 20
185.82761635521933
 11
772.6734441283005
 21
185.82761635521933
  0
LINE
  8
_1-3_細線3
  6
CONTINUOUS
 62
    4
 10
722.67344412830005
 20
195.82761635521979
 11
722.67344412830005
 21
185.82761635521933
  0
LINE
  8
_1-3_細線3
  6
CONTINUOUS
 62
    4
 10
772.6734441283005
 20
185.82761635521933
 11
772.6734441283005
 21
195.82761635522013
  0
TEXT
  8
_0-7_枠細線
 62
    5
 10
1415.87249338531
 20
1113
 40
15
 41
0.7199999999999999
 50
0
  1
２０２１．１１．０１
  0
ARC
  8
_0-1_計細線
  6
DASHED2
 62
    3
 10
984.99999999999909
 20
874.65638321366566
 40
12.499999999999998
 50
53.13010235415598
 51
216.86989764584365
  0
ARC
  8
_0-1_計細線
  6
DASHED2
 62
    3
 10
984.99999999999909
 20
874.65638321366566
 40
12.499999999999998
 50
216.86989764584365
 51
53.130102354155625
  0
LINE
  8
_0-1_計細線
  6
CONTINUOUS
 62
    3
 10
972.49672263866705
 20
563.15638321366669
 11
997.49672263866694
 21
563.15638321366669
  0
LINE
  8
_0-1_計細線
  6
CONTINUOUS
 62
    3
 10
972.49672263866705
 20
555.15638321366669
 11
972.49672263866705
 21
563.15638321366669
  0
LINE
  8
_0-1_計細線
  6
CONTINUOUS
 62
    3
 10
997.49672263866694
 20
563.15638321366669
 11
997.49672263866694
 21
555.15638321366669
  0
LINE
  8
_0-1_計細線
  6
CONTINUOUS
 62
    3
 10
972.49672263866705
 20
555.15638321366669
 11
997.49672263866694
 21
555.15638321366669
  0
LINE
  8
_0-1_計細線
  6
CONTINUOUS
 62
    3
 10
974.67516909272217
 20
546.76415094339018
 11
972.99672263866705
 21
555.15638321366669
  0
ARC
  8
_0-1_計細線
  6
CONTINUOUS
 62
    3
 10
976.63633044410471
 20
547.15638321366669
 40
2
 50
191.30993247401983
 51
269.99999999999977
  0
LINE
  8
_0-1_計細線
  6
CONTINUOUS
 62
    3
 10
996.99672263866705
 20
555.15638321366669
 11
995.31827618461182
 21
546.76415094339018
  0
LINE
  8
_0-1_計細線
  6
CONTINUOUS
 62
    3
 10
993.3571148332303
 20
545.15638321366669
 11
976.63633044410471
 21
545.15638321366669
  0
ARC
  8
_0-1_計細線
  6
CONTINUOUS
 62
    3
 10
993.3571148332303
 20
547.15638321366669
 40
2
 50
269.99999999999977
 51
348.69006752597431
  0
ARC
  8
_0-1_計細線
  6
DASHED2
 62
    3
 10
796.99999999999909
 20
874.65638321366566
 40
12.499999999999998
 50
53.13010235415598
 51
216.86989764584365
  0
ARC
  8
_0-1_計細線
  6
DASHED2
 62
    3
 10
796.99999999999909
 20
874.65638321366566
 40
12.499999999999998
 50
216.86989764584365
 51
53.130102354155625
  0
LINE
  8
_0-1_計細線
  6
CONTINUOUS
 62
    3
 10
809.50327736133011
 20
563.15638321366669
 11
784.50327736133022
 21
563.15638321366669
  0
LINE
  8
_0-1_計細線
  6
CONTINUOUS
 62
    3
 10
809.50327736133011
 20
555.15638321366669
 11
809.50327736133011
 21
563.15638321366669
  0
LINE
  8
_0-1_計細線
  6
CONTINUOUS
 62
    3
 10
784.50327736133022
 20
563.15638321366669
 11
784.50327736133022
 21
555.15638321366669
  0
LINE
  8
_0-1_計細線
  6
CONTINUOUS
 62
    3
 10
809.50327736133011
 20
555.15638321366669
 11
784.50327736133022
 21
555.15638321366669
  0
LINE
  8
_0-1_計細線
  6
CONTINUOUS
 62
    3
 10
807.32483090727499
 20
546.76415094339018
 11
809.00327736133022
 21
555.15638321366669
  0
ARC
  8
_0-1_計細線
  6
CONTINUOUS
 62
    3
 10
805.36366955589256
 20
547.15638321366669
 40
2
 50
269.99999999999977
 51
348.69006752597943
  0
LINE
  8
_0-1_計細線
  6
CONTINUOUS
 62
    3
 10
785.00327736133022
 20
555.15638321366669
 11
786.68172381538534
 21
546.76415094339018
  0
LINE
  8
_0-1_計細線
  6
CONTINUOUS
 62
    3
 10
788.64288516676686
 20
545.15638321366669
 11
805.36366955589256
 21
545.15638321366669
  0
ARC
  8
_0-1_計細線
  6
CONTINUOUS
 62
    3
 10
788.64288516676686
 20
547.15638321366669
 40
2
 50
191.30993247402495
 51
269.99999999999977
  0
ENDSEC
  0
EOF
