  0
SECTION
  2
HEADER
  9
$ACADVER
  1
AC1009
  9
$INSBASE
 10
0
 20
0
 30
0
  9
$EXTMIN
 10
0
 20
0
  9
$EXTMAX
 10
2376
 20
1680
  9
$LIMMIN
 10
0
 20
0
  9
$LIMMAX
 10
2376
 20
1680
  9
$LTSCALE
 40
8
  0
ENDSEC
  0
SECTION
  2
TABLES
  0
TABLE
  2
LTYPE
 70
     9
  0
LTYPE
  2
CONTINUOUS
 70
    64
  3
実線
 72
    65
 73
     0
 40
0.0
  0
LTYPE
  2
DASHED1
 70
    64
  3
--  --  --  --  --  --  --  --  
 72
    65
 73
     2
 40
2.5
 49
1.25
 49
-1.25
  0
LTYPE
  2
DASHED2
 70
    64
  3
----    ----    ----    ----    
 72
    65
 73
     2
 40
5.0
 49
2.5
 49
-2.5
  0
LTYPE
  2
DASHED3
 70
    64
  3
------  ------  ------  ------  
 72
    65
 73
     2
 40
5.0
 49
3.75
 49
-1.25
  0
LTYPE
  2
CENTER1
 70
    64
  3
----- - ----- - ----- - ----- - 
 72
    65
 73
     4
 40
10.0
 49
6.25
 49
-1.25
 49
1.25
 49
-1.25
  0
LTYPE
  2
CENTER2
 70
    64
  3
----------  --  ----------  --  
 72
    65
 73
     4
 40
20.0
 49
12.5
 49
-2.5
 49
2.5
 49
-2.5
  0
LTYPE
  2
PHANTOM1
 70
    64
  3
--- - - --- - - --- - - --- - - 
 72
    65
 73
     6
 40
10.0
 49
3.25
 49
-1.25
 49
1.25
 49
-1.25
 49
1.25
 49
-1.25
  0
LTYPE
  2
PHANTOM2
 70
    64
  3
--------  -  -  --------  -  -  
 72
    65
 73
     6
 40
20.0
 49
10.0
 49
-2.5
 49
1.25
 49
-2.5
 49
1.25
 49
-2.5
  0
LTYPE
  2
DOT
 70
    64
  3
-   -   -   -   -   -   -   -   
 72
    65
 73
     2
 40
2.5
 49
0.625
 49
-1.875
  0
LTYPE
  2
DUMMY
 70
    64
  3
ダミー
 72
    65
 73
     0
 40
0.0
  0
LTYPE
  2
RAND1
 70
    64
  3
ランダム線1
 72
    65
 73
     4
 40
10.0
 49
1.0
 49
-2.0
 49
3.0
 49
-4.0
  0
LTYPE
  2
RAND2
 70
    64
  3
ランダム線2
 72
    65
 73
     4
 40
14.0
 49
2.0
 49
-3.0
 49
4.0
 49
-5.0
  0
LTYPE
  2
RAND3
 70
    64
  3
ランダム線3
 72
    65
 73
     4
 40
18.0
 49
3.0
 49
-4.0
 49
5.0
 49
-6.0
  0
LTYPE
  2
RAND4
 70
    64
  3
ランダム線4
 72
    65
 73
     4
 40
22.0
 49
4.0
 49
-5.0
 49
6.0
 49
-7.0
  0
LTYPE
  2
RAND5
 70
    64
  3
ランダム線5
 72
    65
 73
     4
 40
26.0
 49
5.0
 49
-6.0
 49
7.0
 49
-8.0
  0
LTYPE
  2
LONG1
 70
    64
  3
----------  --  ----------  --  
 72
    65
 73
     4
 40
40.0
 49
32.5
 49
-2.5
 49
2.5
 49
-2.5
  0
LTYPE
  2
LONG2
 70
    64
  3
--------  -  -  --------  -  -  
 72
    65
 73
     6
 40
40.0
 49
30.0
 49
-2.5
 49
1.25
 49
-2.5
 49
1.25
 49
-2.5
  0
LTYPE
  2
LONG3
 70
    64
  3
+++++++++++++++..+++++++++++++++
 72
    65
 73
     2
 40
40.0
 49
37.5
 49
-2.5
  0
LTYPE
  2
LONG4
 70
    64
  3
+++++++++++++++..+++++++++++++++
 72
    65
 73
     2
 40
80.0
 49
75.0
 49
-5.0
  0
LTYPE
  2
LONG5
 70
    64
  3
----------  --  ----------  --  
 72
    65
 73
     4
 40
60.0
 49
37.5
 49
-7.5
 49
7.5
 49
-7.5
  0
LTYPE
  2
dashed
 70
   64
  3
-------   -------------   ------
 72
   65
 73
    2
 40
7.5
 49
6
 49
-1.5
  0
LTYPE
  2
dashed_spaced
 70
   64
  3
----        --------        ----
 72
   65
 73
    2
 40
12
 49
6
 49
-6
  0
LTYPE
  2
long_dashed_dotted
 70
   64
  3
------------- --- --------------
 72
   65
 73
    4
 40
15.25
 49
12
 49
-1.5
 49
0.25
 49
-1.5
  0
LTYPE
  2
long_dashed_double-dotted
 70
   64
  3
----------- --- --- ------------
 72
   65
 73
    6
 40
17
 49
12
 49
-1.5
 49
0.25
 49
-1.5
 49
0.25
 49
-1.5
  0
LTYPE
  2
long_dashed_triplicate-dotted
 70
   64
  3
--------- --- --- --- ----------
 72
   65
 73
    8
 40
18.75
 49
12
 49
-1.5
 49
0.25
 49
-1.5
 49
0.25
 49
-1.5
 49
0.25
 49
-1.5
  0
LTYPE
  2
dotted
 70
   64
  3
   -       -       -       -    
 72
   65
 73
    2
 40
1.75
 49
0.25
 49
-1.5
  0
LTYPE
  2
chain
 70
   64
  3
-------------- -- --------------
 72
   65
 73
    4
 40
18.5
 49
12
 49
-1.5
 49
3.5
 49
-1.5
  0
LTYPE
  2
chain_double_dash
 70
   64
  3
------------ -- -- -------------
 72
   65
 73
    6
 40
23.5
 49
12
 49
-1.5
 49
3.5
 49
-1.5
 49
3.5
 49
-1.5
  0
LTYPE
  2
dashed_dotted
 70
   64
  3
-----------     -     ----------
 72
   65
 73
    4
 40
9.25
 49
6
 49
-1.5
 49
0.25
 49
-1.5
  0
LTYPE
  2
double-dashed_dotted
 70
   64
  3
------   -----------   -   -----
 72
   65
 73
    6
 40
16.75
 49
6
 49
-1.5
 49
6
 49
-1.5
 49
0.25
 49
-1.5
  0
LTYPE
  2
dashed_double-dotted
 70
   64
  3
---------    -    -    ---------
 72
   65
 73
    6
 40
11
 49
6
 49
-1.5
 49
0.25
 49
-1.5
 49
0.25
 49
-1.5
  0
LTYPE
  2
double-dashed_double-dotted
 70
   64
  3
-----   ---------   -   -   ----
 72
   65
 73
    8
 40
18.5
 49
6
 49
-1.5
 49
6
 49
-1.5
 49
0.25
 49
-1.5
 49
0.25
 49
-1.5
  0
LTYPE
  2
dashed_triplicate-dotted
 70
   64
  3
-------    -    -    -    ------
 72
   65
 73
    8
 40
12.75
 49
6
 49
-1.5
 49
0.25
 49
-1.5
 49
0.25
 49
-1.5
 49
0.25
 49
-1.5
  0
LTYPE
  2
double-dashed_triplicate-dotted
 70
   64
  3
-----  ---------  -  -  -  -----
 72
   65
 73
   10
 40
20.25
 49
6
 49
-1.5
 49
6
 49
-1.5
 49
0.25
 49
-1.5
 49
0.25
 49
-1.5
 49
0.25
 49
-1.5
  0
LTYPE
  2
undefined
 70
   64
  3
--------------------------------
 72
   65
 73
    0
 40
0
  0
ENDTAB
  0
TABLE
  2
STYLE
  5
3
100
AcDbSymbolTable
 70
     1
  0
STYLE
  5
10
100
AcDbSymbolTableRecord
100
AcDbTextStyleTableRecord
  2
STANDARD
 70
     0
 40
0.0
 41
1.0
 50
0.0
 71
     0
 42
0.2
  3
txt
  4
bigfont.shx
  0
STYLE
  5
26
100
AcDbSymbolTableRecord
100
AcDbTextStyleTableRecord
  2
TATEGAKI
 70
    68
 40
0.0
 41
1.0
 50
0.0
 71
     0
 42
1.0
  3
txt
  4
bigfont.shx
  0
ENDTAB
  0
TABLE
  2
LAYER
 70
   10
  0
LAYER
  2
_0-0_計極細
 70
   64
 62
    7
  6
CONTINUOUS
  0
LAYER
  2
_0-1_計細線
 70
   64
 62
    7
  6
CONTINUOUS
  0
LAYER
  2
_0-5_寸法線
 70
   64
 62
    7
  6
CONTINUOUS
  0
LAYER
  2
_0-7_枠細線
 70
   64
 62
    7
  6
CONTINUOUS
  0
LAYER
  2
_0-8_枠中線
 70
   64
 62
    7
  6
CONTINUOUS
  0
LAYER
  2
_0-9_枠極太
 70
   64
 62
    7
  6
CONTINUOUS
  0
LAYER
  2
_0-a_極細5
 70
   64
 62
    7
  6
CONTINUOUS
  0
LAYER
  2
_0-b_細線5
 70
   64
 62
    7
  6
CONTINUOUS
  0
LAYER
  2
_0-d_寸法5
 70
   64
 62
    7
  6
CONTINUOUS
  0
LAYER
  2
ADD_LINE
 70
   64
 62
    7
  6
CONTINUOUS
  0
ENDTAB
  0
ENDSEC
  0
SECTION
  2
BLOCKS
  0
ENDSEC
  0
SECTION
  2
ENTITIES
  0
LINE
  8
_0-7_枠細線
  6
CONTINUOUS
 62
    5
 10
1896
 20
288
 11
1896
 21
160
  0
TEXT
  8
_0-7_枠細線
 62
    5
 10
1500
 20
156
 40
28
 41
1
 50
0
  1
備考
  7
TATEGAKI
  0
TEXT
  8
_0-7_枠細線
 62
    5
 10
1500
 20
220
 40
28
 41
1
 50
0
  1
品番
  7
TATEGAKI
  0
TEXT
  8
_0-7_枠細線
 62
    5
 10
1500
 20
284
 40
28
 41
1
 50
0
  1
品名
  7
TATEGAKI
  0
LINE
  8
_0-7_枠細線
  6
CONTINUOUS
 62
    5
 10
1896
 20
224
 11
1480
 21
224
  0
LINE
  8
_0-7_枠細線
  6
CONTINUOUS
 62
    5
 10
1520
 20
288
 11
1520
 21
96
  0
LINE
  8
_0-8_枠中線
  6
CONTINUOUS
 62
    5
 10
2280
 20
288
 11
1480
 21
288
  0
LINE
  8
_0-8_枠中線
  6
CONTINUOUS
 62
    5
 10
1480
 20
288
 11
1480
 21
96
  0
LINE
  8
_0-7_枠細線
  6
CONTINUOUS
 62
    5
 10
1992
 20
288
 11
1992
 21
96
  0
TEXT
  8
_0-7_枠細線
 62
    5
 10
1908
 20
256
 40
24
 41
1
 50
0
  1
縮　尺
  0
LINE
  8
_0-7_枠細線
  6
CONTINUOUS
 62
    5
 10
1896
 20
248
 11
1992
 21
248
  0
LINE
  8
_0-7_枠細線
  6
CONTINUOUS
 62
    5
 10
1992
 20
160
 11
1480
 21
160
  0
LINE
  8
_0-7_枠細線
  6
CONTINUOUS
 62
    5
 10
2280
 20
144
 11
1992
 21
144
  0
LINE
  8
_0-7_枠細線
  6
CONTINUOUS
 62
    5
 10
1992
 20
192
 11
2280
 21
192
  0
LINE
  8
_0-7_枠細線
  6
CONTINUOUS
 62
    5
 10
2280
 20
224
 11
1992
 21
224
  0
TEXT
  8
_0-7_枠細線
 62
    5
 10
2008
 20
236
 40
40
 41
0.8
 50
0
  1
株式会社シマブン
  0
TEXT
  8
_0-7_枠細線
 62
    5
 10
2004
 20
96
 40
24
 41
1
 50
0
  1
年月日
  0
TEXT
  8
_0-7_枠細線
 62
    5
 10
2004
 20
120
 40
24
 41
1
 50
0
  1
作　成
  0
TEXT
  8
_0-7_枠細線
 62
    5
 10
2010
 20
196
 40
24
 41
1
 50
0
  1
承 認
  0
LINE
  8
_0-7_枠細線
  6
CONTINUOUS
 62
    5
 10
2088
 20
224
 11
2088
 21
96
  0
TEXT
  8
_0-7_枠細線
 62
    5
 10
2106
 20
196
 40
24
 41
1
 50
0
  1
検 図
  0
LINE
  8
_0-7_枠細線
  6
CONTINUOUS
 62
    5
 10
2184
 20
224
 11
2184
 21
144
  0
TEXT
  8
_0-7_枠細線
 62
    5
 10
2200
 20
152
 40
32
 41
1
 50
0
  1
藤戸
  0
TEXT
  8
_0-7_枠細線
 62
    5
 10
2202
 20
196
 40
24
 41
1
 50
0
  1
設 計
  0
TEXT
  8
_0-7_枠細線
 62
    5
 10
2008
 20
152
 40
32
 41
1
 50
0
  1
隠塚
  0
TEXT
  8
_0-7_枠細線
 62
    5
 10
2104
 20
152
 40
32
 41
1
 50
0
  1
渋田
  0
TEXT
  8
_0-7_枠細線
 62
    5
 10
1910.3999999999996
 20
188
 40
32
 41
0.7000000000000001
 50
0
  1
１：８
  0
TEXT
  8
_0-7_枠細線
 62
    5
 10
2096
 20
108
 40
24
 41
0.6666666666666666
 50
0
  1
２０１０年０３月０１日
  0
TEXT
  8
_0-7_枠細線
 62
    5
 10
1536.8000000000002
 20
112
 40
32
 41
0.5999999999999998
 50
0
  1
色については品番表参照のこと
  0
TEXT
  8
_0-7_枠細線
 62
    5
 10
1536.8000000000002
 20
240
 40
32
 41
0.5
 50
0
  1
セーフティグレーチング補強仕様Ｈ２５タイプ
  0
TEXT
  8
_0-7_枠細線
 62
    5
 10
708.98619554229481
 20
149.93993311841473
 40
40
 41
0.8
 50
0
  1
断面詳細図
  0
LINE
  8
_0-a_極細5
  6
CONTINUOUS
 62
    7
 10
1180.2016666666677
 20
346.09172963936339
 11
1180.2016666666677
 21
280.4917296393628
  0
LINE
  8
_0-a_極細5
  6
CONTINUOUS
 62
    7
 10
1100.2016666666677
 20
280.4917296393628
 11
1180.2016666666677
 21
280.4917296393628
  0
LINE
  8
_0-a_極細5
  6
CONTINUOUS
 62
    7
 10
1180.2016666666677
 20
346.09172963936339
 11
1209.8123039259776
 21
346.09172963936339
  0
LINE
  8
_0-a_極細5
  6
CONTINUOUS
 62
    7
 10
1100.2016666666677
 20
280.4917296393628
 11
1100.2016666666677
 21
255.29979335637563
  0
LINE
  8
_0-a_極細5
  6
CONTINUOUS
 62
    7
 10
1188.1600689846769
 20
255.29979335637563
 11
1209.8123039658567
 21
276.95202833755502
  0
LINE
  8
_0-a_極細5
  6
CONTINUOUS
 62
    7
 10
1120.2778179907682
 20
255.29979335637563
 11
1145.4697542737558
 21
280.4917296393628
  0
LINE
  8
_0-a_極細5
  6
CONTINUOUS
 62
    7
 10
1180.2016666666677
 20
315.22364203227471
 11
1209.812303926703
 21
344.83427929230947
  0
LINE
  8
_0-a_極細5
  6
CONTINUOUS
 62
    7
 10
1181.3718438852857
 20
255.29979335637563
 11
1209.8123039619413
 21
283.7402534330306
  0
LINE
  8
_0-a_極細5
  6
CONTINUOUS
 62
    7
 10
1113.4895928913775
 20
255.29979335637563
 11
1138.6815291743651
 21
280.4917296393628
  0
LINE
  8
_0-a_極細5
  6
CONTINUOUS
 62
    7
 10
1180.2016666666677
 20
322.01186713166544
 11
1204.2815290019971
 21
346.09172946699482
  0
LINE
  8
_0-a_極細5
  6
CONTINUOUS
 62
    7
 10
1174.5836187858949
 20
255.29979335637563
 11
1209.812303958026
 21
290.52847852850618
  0
LINE
  8
_0-a_極細5
  6
CONTINUOUS
 62
    7
 10
1106.7013677919863
 20
255.29979335637563
 11
1131.8933040749744
 21
280.4917296393628
  0
LINE
  8
_0-a_極細5
  6
CONTINUOUS
 62
    7
 10
1180.2016666666677
 20
328.8000922310564
 11
1197.493303951198
 21
346.09172951558639
  0
CIRCLE
  8
_0-a_極細5
  6
CONTINUOUS
 62
    7
 10
1087.1512298849434
 20
336.9918925282459
 40
0.5309629629629489
  0
CIRCLE
  8
_0-a_極細5
  6
CONTINUOUS
 62
    7
 10
1096.7085632182766
 20
341.59989252824562
 40
0.5309629629629489
  0
CIRCLE
  8
_0-a_極細5
  6
CONTINUOUS
 62
    7
 10
1092.7832298849435
 20
317.62122586157966
 40
0.5309629629629489
  0
CIRCLE
  8
_0-a_極細5
  6
CONTINUOUS
 62
    7
 10
1109.6152298849433
 20
301.27989252824614
 40
0.5309629629629489
  0
CIRCLE
  8
_0-a_極細5
  6
CONTINUOUS
 62
    7
 10
1092.4952298849435
 20
278.91189252824643
 40
0.5309629629629489
  0
CIRCLE
  8
_0-a_極細5
  6
CONTINUOUS
 62
    7
 10
1083.5352298849439
 20
261.75989252824661
 40
0.5309629629629489
  0
CIRCLE
  8
_0-a_極細5
  6
CONTINUOUS
 62
    7
 10
1094.5432298849432
 20
290.43189252824641
 40
0.5309629629629489
  0
CIRCLE
  8
_0-a_極細5
  6
CONTINUOUS
 62
    7
 10
1107.8552298849431
 20
285.82389252824623
 40
0.5309629629629489
  0
CIRCLE
  8
_0-a_極細5
  6
CONTINUOUS
 62
    7
 10
1133.7112298849434
 20
286.07989252824632
 40
0.5309629629629489
  0
CIRCLE
  8
_0-a_極細5
  6
CONTINUOUS
 62
    7
 10
1122.1912298849434
 20
294.78389252824627
 40
0.5309629629629489
  0
CIRCLE
  8
_0-a_極細5
  6
CONTINUOUS
 62
    7
 10
1132.9432298849433
 20
300.15989252824625
 40
0.5309629629629489
  0
CIRCLE
  8
_0-a_極細5
  6
CONTINUOUS
 62
    7
 10
1121.4445632182765
 20
352.27722586157915
 40
0.5309629629629489
  0
CIRCLE
  8
_0-a_極細5
  6
CONTINUOUS
 62
    7
 10
1141.1565632182765
 20
351.59455919491211
 40
0.5309629629629489
  0
CIRCLE
  8
_0-a_極細5
  6
CONTINUOUS
 62
    7
 10
1130.020563218276
 20
338.15455919491274
 40
0.5309629629629489
  0
CIRCLE
  8
_0-a_極細5
  6
CONTINUOUS
 62
    7
 10
1167.6525632182756
 20
287.08255919491285
 40
0.5309629629629489
  0
CIRCLE
  8
_0-a_極細5
  6
CONTINUOUS
 62
    7
 10
1174.5645632182759
 20
300.5225591949129
 40
0.5309629629629489
  0
CIRCLE
  8
_0-a_極細5
  6
CONTINUOUS
 62
    7
 10
1173.0285632182758
 20
320.49055919491252
 40
0.5309629629629489
  0
CIRCLE
  8
_0-a_極細5
  6
CONTINUOUS
 62
    7
 10
1155.7485632182761
 20
340.84255919491238
 40
0.5309629629629489
  0
CIRCLE
  8
_0-a_極細5
  6
CONTINUOUS
 62
    7
 10
1171.8765632182758
 20
359.65855919491241
 40
0.5309629629629489
  0
CIRCLE
  8
_0-a_極細5
  6
CONTINUOUS
 62
    7
 10
1169.1885632182757
 20
333.93055919491258
 40
0.5309629629629489
  0
CIRCLE
  8
_0-a_極細5
  6
CONTINUOUS
 62
    7
 10
1197.6045632182759
 20
354.28255919491198
 40
0.5309629629629489
  0
CIRCLE
  8
_0-a_極細5
  6
CONTINUOUS
 62
    7
 10
1192.9965632182757
 20
367.5018184541716
 40
1.7525102137741364
  0
CIRCLE
  8
_0-a_極細5
  6
CONTINUOUS
 62
    7
 10
1177.9778965516089
 20
352.65381845417187
 40
1.7525102137741364
  0
CIRCLE
  8
_0-a_極細5
  6
CONTINUOUS
 62
    7
 10
1124.7725632182764
 20
358.96848512083852
 40
1.7525102137741364
  0
CIRCLE
  8
_0-a_極細5
  6
CONTINUOUS
 62
    7
 10
1155.4925632182758
 20
328.24848512083827
 40
1.7525102137741364
  0
CIRCLE
  8
_0-a_極細5
  6
CONTINUOUS
 62
    7
 10
1087.9138965516104
 20
285.48048512083915
 40
1.7525102137741364
  0
CIRCLE
  8
_0-a_極細5
  6
CONTINUOUS
 62
    7
 10
1097.727229884943
 20
314.15248512083872
 40
1.7525102137741364
  0
CIRCLE
  8
_0-a_極細5
  6
CONTINUOUS
 62
    7
 10
1131.5192298849429
 20
292.64848512083904
 40
1.7525102137741364
  0
CIRCLE
  8
_0-a_極細5
  6
CONTINUOUS
 62
    7
 10
1175.9338148148154
 20
282.86891482454826
 40
1.7525102137741364
  0
CIRCLE
  8
_0-a_極細5
  6
CONTINUOUS
 62
    7
 10
1127.2952298849432
 20
334.12048512083857
 40
1.7525102137741364
  0
CIRCLE
  8
_0-a_極細5
  6
CONTINUOUS
 62
    7
 10
1081.7278224775364
 20
328.91420793008365
 40
0.5309629629629489
  0
CIRCLE
  8
_0-a_極細5
  6
CONTINUOUS
 62
    7
 10
1081.9198224775369
 20
305.91687459675063
 40
0.5309629629629489
  0
CIRCLE
  8
_0-a_極細5
  6
CONTINUOUS
 62
    7
 10
1155.8765632182758
 20
364.21648512083812
 40
1.7525102137741364
  0
LINE
  8
_0-a_極細5
  6
CONTINUOUS
 62
    7
 10
1069.001666666667
 20
352.4917296393628
 11
1068.2016666666673
 21
352.4917296393628
  0
LINE
  8
_0-a_極細5
  6
CONTINUOUS
 62
    7
 10
1068.2016666666673
 20
352.4917296393628
 11
1068.2016666666673
 21
255.29979335637563
  0
CIRCLE
  8
_0-a_極細5
  6
CONTINUOUS
 62
    7
 10
1073.9466866750672
 20
314.03722586157937
 40
0.5309629629629489
  0
CIRCLE
  8
_0-a_極細5
  6
CONTINUOUS
 62
    7
 10
1075.2010076627216
 20
276.35189252824648
 40
0.5309629629629489
  0
CIRCLE
  8
_0-a_極細5
  6
CONTINUOUS
 62
    7
 10
1074.5876743293875
 20
339.66715178750565
 40
1.7525102137741364
  0
CIRCLE
  8
_0-a_極細5
  6
CONTINUOUS
 62
    7
 10
1077.4178965516094
 20
269.94981845417215
 40
1.7525102137741364
  0
LINE
  8
_0-a_極細5
  6
CONTINUOUS
 62
    7
 10
1158.0961321583336
 20
304.37816275536602
 11
1163.0212222222235
 21
317.90973649468333
  0
LINE
  8
_0-a_極細5
  6
CONTINUOUS
 62
    7
 10
1110.101851191489
 20
337.17081236595982
 11
1105.1767611275995
 21
323.63923862664251
  0
LINE
  8
_0-a_極細5
  6
CONTINUOUS
 62
    7
 10
1163.0212222222235
 20
317.90973649468333
 11
1110.101851191489
 21
337.17081236595982
  0
LINE
  8
_0-a_極細5
  6
CONTINUOUS
 62
    7
 10
1158.0961321583336
 20
304.37816275536602
 11
1105.1767611275995
 21
323.63923862664251
  0
LINE
  8
_0-a_極細5
  6
CENTER1
 62
    7
 10
1165.3158932465913
 20
309.41246478659627
 11
1103.8461135833281
 21
331.7856348522298
  0
LINE
  8
_0-a_極細5
  6
CONTINUOUS
 62
    7
 10
1140.2016666666677
 20
280.4917296393628
 11
1140.2016666666677
 21
322.81386853374602
  0
LINE
  8
_0-a_極細5
  6
CONTINUOUS
 62
    7
 10
1154.6016666666678
 20
322.81386853374602
 11
1154.6016666666678
 21
280.4917296393628
  0
LINE
  8
_0-a_極細5
  6
CENTER1
 62
    7
 10
1147.4016666666676
 20
272.546058966288
 11
1147.4016666666676
 21
326.91855989177111
  0
LINE
  8
_0-a_極細5
  6
CONTINUOUS
 62
    7
 10
1140.2016666666677
 20
322.81386853374602
 11
1154.6016666666678
 21
322.81386853374602
  0
CIRCLE
  8
_0-a_極細5
  6
CONTINUOUS
 62
    7
 10
1161.2525632182765
 20
328.09470734306024
 40
0.5309629629629489
  0
CIRCLE
  8
_0-a_極細5
  6
CONTINUOUS
 62
    7
 10
1142.4365632182767
 20
333.47070734306067
 40
0.5309629629629489
  0
LINE
  8
_0-a_極細5
  6
CONTINUOUS
 62
    7
 10
396.20166666666773
 20
346.09172963936339
 11
396.20166666666773
 21
280.4917296393628
  0
LINE
  8
_0-a_極細5
  6
CONTINUOUS
 62
    7
 10
476.20166666666773
 20
280.4917296393628
 11
396.20166666666773
 21
280.4917296393628
  0
LINE
  8
_0-a_極細5
  6
CONTINUOUS
 62
    7
 10
396.20166666666773
 20
346.09172963936339
 11
366.59102940735784
 21
346.09172963936339
  0
LINE
  8
_0-a_極細5
  6
CONTINUOUS
 62
    7
 10
476.20166666666773
 20
280.4917296393628
 11
476.20166666666773
 21
255.29979335637563
  0
LINE
  8
_0-a_極細5
  6
CONTINUOUS
 62
    7
 10
440.27657108427775
 20
255.29979346815435
 11
465.46850725548666
 21
280.4917296393628
  0
LINE
  8
_0-a_極細5
  6
CONTINUOUS
 62
    7
 10
372.39432030158196
 20
255.29979367936744
 11
397.586256261578
 21
280.4917296393628
  0
LINE
  8
_0-a_極細5
  6
CONTINUOUS
 62
    7
 10
366.59102940735784
 20
317.37875377905129
 11
395.30400526766925
 21
346.09172963936339
  0
LINE
  8
_0-a_極細5
  6
CONTINUOUS
 62
    7
 10
433.48834600600776
 20
255.29979348927577
 11
458.68028215609547
 21
280.4917296393628
  0
LINE
  8
_0-a_極細5
  6
CONTINUOUS
 62
    7
 10
366.59102940735784
 20
256.28472788453382
 11
396.20166666666773
 21
285.89536514384417
  0
LINE
  8
_0-a_極細5
  6
CONTINUOUS
 62
    7
 10
366.59102940735784
 20
324.16697887844248
 11
388.51578016827807
 21
346.09172963936339
  0
LINE
  8
_0-a_極細5
  6
CONTINUOUS
 62
    7
 10
426.70012092773868
 20
255.29979351039742
 11
451.89205705670474
 21
280.4917296393628
  0
LINE
  8
_0-a_極細5
  6
CONTINUOUS
 62
    7
 10
366.59102940735784
 20
263.07295298392501
 11
396.20166666666773
 21
292.6835902432349
  0
LINE
  8
_0-a_極細5
  6
CONTINUOUS
 62
    7
 10
366.59102940735784
 20
330.95520397783366
 11
381.72755506888734
 21
346.09172963936339
  0
CIRCLE
  8
_0-a_極細5
  6
CONTINUOUS
 62
    7
 10
383.77108173679835
 20
360.68700363935659
 40
0.5309629629629489
  0
CIRCLE
  8
_0-a_極細5
  6
CONTINUOUS
 62
    7
 10
373.85345210716923
 20
351.12967030602363
 40
0.5309629629629489
  0
CIRCLE
  8
_0-a_極細5
  6
CONTINUOUS
 62
    7
 10
384.03656321827975
 20
352.15367030602351
 40
0.5309629629629489
  0
CIRCLE
  8
_0-a_極細5
  6
CONTINUOUS
 62
    7
 10
396.15389655161334
 20
354.03100363935664
 40
0.5309629629629489
  0
CIRCLE
  8
_0-a_極細5
  6
CONTINUOUS
 62
    7
 10
423.46056321827928
 20
365.29500363935676
 40
0.5309629629629489
  0
CIRCLE
  8
_0-a_極細5
  6
CONTINUOUS
 62
    7
 10
452.81522988494589
 20
359.32167030602318
 40
0.5309629629629489
  0
CIRCLE
  8
_0-a_極細5
  6
CONTINUOUS
 62
    7
 10
428.92189655161292
 20
358.80967030602369
 40
0.5309629629629489
  0
CIRCLE
  8
_0-a_極細5
  6
CONTINUOUS
 62
    7
 10
402.82056321827986
 20
347.06567030602332
 40
0.5309629629629489
  0
CIRCLE
  8
_0-a_極細5
  6
CONTINUOUS
 62
    7
 10
422.44722988494595
 20
345.87100363935656
 40
0.5309629629629489
  0
CIRCLE
  8
_0-a_極細5
  6
CONTINUOUS
 62
    7
 10
446.51122988494581
 20
342.28700363935673
 40
0.5309629629629489
  0
CIRCLE
  8
_0-a_極細5
  6
CONTINUOUS
 62
    7
 10
434.39389655161267
 20
336.82567030602354
 40
0.5309629629629489
  0
CIRCLE
  8
_0-a_極細5
  6
CONTINUOUS
 62
    7
 10
420.22856321827976
 20
323.85500363935694
 40
0.5309629629629489
  0
CIRCLE
  8
_0-a_極細5
  6
CONTINUOUS
 62
    7
 10
446.51122988494581
 20
330.85233697269018
 40
0.5309629629629489
  0
CIRCLE
  8
_0-a_極細5
  6
CONTINUOUS
 62
    7
 10
407.04456321827956
 20
304.82567030602377
 40
0.5309629629629489
  0
CIRCLE
  8
_0-a_極細5
  6
CONTINUOUS
 62
    7
 10
401.58322988494638
 20
287.58833697269074
 40
0.5309629629629489
  0
CIRCLE
  8
_0-a_極細5
  6
CONTINUOUS
 62
    7
 10
409.9458965516128
 20
294.07367030602381
 40
0.5309629629629489
  0
CIRCLE
  8
_0-a_極細5
  6
CONTINUOUS
 62
    7
 10
415.91922988494616
 20
285.88167030602403
 40
0.5309629629629489
  0
CIRCLE
  8
_0-a_極細5
  6
CONTINUOUS
 62
    7
 10
453.64722988494623
 20
303.05500363935698
 40
0.5309629629629489
  0
CIRCLE
  8
_0-a_極細5
  6
CONTINUOUS
 62
    7
 10
442.89522988494627
 20
297.76433697269067
 40
0.5309629629629489
  0
CIRCLE
  8
_0-a_極細5
  6
CONTINUOUS
 62
    7
 10
448.86856321827963
 20
295.37500363935715
 40
0.5309629629629489
  0
CIRCLE
  8
_0-a_極細5
  6
CONTINUOUS
 62
    7
 10
445.45522988494622
 20
286.50033697269032
 40
0.5309629629629489
  0
CIRCLE
  8
_0-a_極細5
  6
CONTINUOUS
 62
    7
 10
464.5698965516126
 20
287.52433697269066
 40
0.5309629629629489
  0
CIRCLE
  8
_0-a_極細5
  6
CONTINUOUS
 62
    7
 10
477.02856321827903
 20
290.59633697269055
 40
0.5309629629629489
  0
CIRCLE
  8
_0-a_極細5
  6
CONTINUOUS
 62
    7
 10
490.16989655161251
 20
276.26033697269099
 40
0.5309629629629489
  0
CIRCLE
  8
_0-a_極細5
  6
CONTINUOUS
 62
    7
 10
483.51389655161256
 20
261.92433697269098
 40
0.5309629629629489
  0
CIRCLE
  8
_0-a_極細5
  6
CONTINUOUS
 62
    7
 10
467.51389655161256
 20
303.79455919491284
 40
0.5309629629629489
  0
CIRCLE
  8
_0-a_極細5
  6
CONTINUOUS
 62
    7
 10
481.67922988494593
 20
336.56255919491241
 40
0.5309629629629489
  0
CIRCLE
  8
_0-a_極細5
  6
CONTINUOUS
 62
    7
 10
496.18589655161213
 20
327.00522586157922
 40
0.5309629629629489
  0
CIRCLE
  8
_0-a_極細5
  6
CONTINUOUS
 62
    7
 10
496.6978965516123
 20
309.76789252824619
 40
0.5309629629629489
  0
CIRCLE
  8
_0-a_極細5
  6
CONTINUOUS
 62
    7
 10
462.86322988494612
 20
338.31189252824583
 40
0.5309629629629489
  0
CIRCLE
  8
_0-a_極細5
  6
CONTINUOUS
 62
    7
 10
443.38589655161286
 20
359.41648512083793
 40
1.7525102137741364
  0
CIRCLE
  8
_0-a_極細5
  6
CONTINUOUS
 62
    7
 10
393.69426163823482
 20
366.06891482454807
 40
1.7525102137741364
  0
CIRCLE
  8
_0-a_極細5
  6
CONTINUOUS
 62
    7
 10
440.67656321827963
 20
327.80048512083886
 40
1.7525102137741364
  0
CIRCLE
  8
_0-a_極細5
  6
CONTINUOUS
 62
    7
 10
419.17256321827927
 20
337.5284851208387
 40
1.7525102137741364
  0
CIRCLE
  8
_0-a_極細5
  6
CONTINUOUS
 62
    7
 10
400.35656321827946
 20
301.04848512083868
 40
1.7525102137741364
  0
CIRCLE
  8
_0-a_極細5
  6
CONTINUOUS
 62
    7
 10
451.42856321827867
 20
288.76048512083889
 40
1.7525102137741364
  0
CIRCLE
  8
_0-a_極細5
  6
CONTINUOUS
 62
    7
 10
485.96722988494548
 20
285.30448512083899
 40
1.7525102137741364
  0
CIRCLE
  8
_0-a_極細5
  6
CONTINUOUS
 62
    7
 10
490.5752298849452
 20
267.3844851208396
 40
1.7525102137741364
  0
CIRCLE
  8
_0-a_極細5
  6
CONTINUOUS
 62
    7
 10
374.30506527879879
 20
366.92581845417158
 40
1.7525102137741364
  0
LINE
  8
_0-a_極細5
  6
CONTINUOUS
 62
    7
 10
507.40166666666755
 20
352.4917296393628
 11
508.20166666666773
 21
352.4917296393628
  0
LINE
  8
_0-a_極細5
  6
CONTINUOUS
 62
    7
 10
508.20166666666773
 20
352.4917296393628
 11
508.20166666666773
 21
255.29979335637563
  0
CIRCLE
  8
_0-a_極細5
  6
CONTINUOUS
 62
    7
 10
501.58972988494406
 20
337.14448512083891
 40
1.7525102137741364
  0
CIRCLE
  8
_0-a_極細5
  6
CONTINUOUS
 62
    7
 10
500.63745210716752
 20
284.62300363935719
 40
0.5309629629629489
  0
CIRCLE
  8
_0-a_極細5
  6
CONTINUOUS
 62
    7
 10
501.91745210716817
 20
262.87317544751431
 40
0.5309629629629489
  0
CIRCLE
  8
_0-a_極細5
  6
CONTINUOUS
 62
    7
 10
490.04189655160826
 20
318.7978184541721
 40
1.7525102137741364
  0
LINE
  8
_0-a_極細5
  6
CONTINUOUS
 62
    7
 10
418.30720117500186
 20
304.37816275536602
 11
413.38211111111241
 21
317.90973649468333
  0
LINE
  8
_0-a_極細5
  6
CONTINUOUS
 62
    7
 10
466.30148214184646
 20
337.17081236595982
 11
471.22657220573592
 21
323.63923862664251
  0
LINE
  8
_0-a_極細5
  6
CONTINUOUS
 62
    7
 10
413.38211111111241
 20
317.90973649468333
 11
466.30148214184646
 21
337.17081236595982
  0
LINE
  8
_0-a_極細5
  6
CONTINUOUS
 62
    7
 10
418.30720117500186
 20
304.37816275536602
 11
471.22657220573592
 21
323.63923862664251
  0
LINE
  8
_0-a_極細5
  6
CENTER1
 62
    7
 10
411.08744008674421
 20
309.41246478659627
 11
472.55721975000733
 21
331.7856348522298
  0
LINE
  8
_0-a_極細5
  6
CONTINUOUS
 62
    7
 10
436.20166666666773
 20
280.4917296393628
 11
436.20166666666773
 21
322.81386853374602
  0
LINE
  8
_0-a_極細5
  6
CONTINUOUS
 62
    7
 10
436.20166666666773
 20
322.81386853374602
 11
421.8016666666681
 21
322.81386853374602
  0
LINE
  8
_0-a_極細5
  6
CONTINUOUS
 62
    7
 10
421.8016666666681
 20
322.81386853374602
 11
421.8016666666681
 21
280.4917296393628
  0
LINE
  8
_0-a_極細5
  6
CENTER1
 62
    7
 10
429.00166666666792
 20
272.546058966288
 11
429.00166666666792
 21
326.91855989177111
  0
LINE
  8
_0-d_寸法5
  6
CONTINUOUS
 62
    7
 10
444.20166666666819
 20
352.49172963936286
 11
337.22740740740892
 21
352.4917296393628
  0
LINE
  8
_0-d_寸法5
  6
CONTINUOUS
 62
    7
 10
345.22740740740892
 20
352.4917296393628
 11
349.36851212904924
 21
337.03691641873769
  0
LINE
  8
_0-d_寸法5
  6
CONTINUOUS
 62
    7
 10
345.22740740740892
 20
352.4917296393628
 11
341.08630268576849
 21
337.03691641873775
  0
LINE
  8
_0-d_寸法5
  6
CONTINUOUS
 62
    7
 10
442.28166666666812
 20
315.69172963936262
 11
337.22740740740892
 21
315.69172963936262
  0
LINE
  8
_0-d_寸法5
  6
CONTINUOUS
 62
    7
 10
345.22740740740892
 20
315.69172963936262
 11
341.08630268576849
 21
331.14654285998768
  0
LINE
  8
_0-d_寸法5
  6
CONTINUOUS
 62
    7
 10
345.22740740740892
 20
315.69172963936262
 11
349.36851212904912
 21
331.14654285998773
  0
LINE
  8
_0-d_寸法5
  6
CONTINUOUS
 62
    7
 10
345.22740740740892
 20
352.4917296393628
 11
345.22740740740892
 21
315.69172963936262
  0
TEXT
  8
_0-d_寸法5
 62
    7
 10
345.22740740740892
 20
322.09172963936271
 40
24
 41
1
 50
90
  1
23
  0
CIRCLE
  8
_0-a_極細5
  6
CONTINUOUS
 62
    7
 10
1185.3165632182759
 20
383.14655919491224
 40
0.5309629629629489
  0
CIRCLE
  8
_0-a_極細5
  6
CONTINUOUS
 62
    7
 10
1155.7485632182761
 20
378.28255919491221
 40
0.5309629629629489
  0
CIRCLE
  8
_0-a_極細5
  6
CONTINUOUS
 62
    7
 10
1135.3965632182762
 20
384.04255919491243
 40
0.5309629629629489
  0
LINE
  8
_0-a_極細5
  6
CONTINUOUS
 62
    7
 10
1124.2016666666677
 20
397.29172963936344
 11
1124.2016666666677
 21
386.09172963936317
  0
LINE
  8
_0-a_極細5
  6
CONTINUOUS
 62
    7
 10
1116.2016666666677
 20
386.09172963936317
 11
1209.8123039259776
 21
386.09172963936317
  0
LINE
  8
_0-a_極細5
  6
CONTINUOUS
 62
    7
 10
1116.2016666666677
 20
396.4917296393628
 11
1116.2016666666677
 21
397.29172963936344
  0
LINE
  8
_0-a_極細5
  6
CONTINUOUS
 62
    7
 10
1124.2016666666677
 20
389.61405246885852
 11
1120.6793438371715
 21
386.09172963936317
  0
LINE
  8
_0-a_極細5
  6
CONTINUOUS
 62
    7
 10
1124.2016666666677
 20
393.68698752849286
 11
1116.6064087775376
 21
386.09172963936317
  0
LINE
  8
_0-a_極細5
  6
CONTINUOUS
 62
    7
 10
1116.2016666666677
 20
389.75992258812812
 11
1123.7334737179026
 21
397.29172963936344
  0
LINE
  8
_0-a_極細5
  6
CONTINUOUS
 62
    7
 10
1116.2016666666677
 20
393.83285764776247
 11
1119.6605386582678
 21
397.29172963936298
  0
LINE
  8
_0-a_極細5
  6
CONTINUOUS
 62
    7
 10
1124.2016666666677
 20
395.84278031823806
 11
1122.7527173455424
 21
397.29172963936344
  0
LINE
  8
_0-a_極細5
  6
CONTINUOUS
 62
    7
 10
1124.2016666666677
 20
391.76984525860325
 11
1118.679782285908
 21
397.29172963936344
  0
LINE
  8
_0-a_極細5
  6
CONTINUOUS
 62
    7
 10
1124.2016666666677
 20
387.69691019896891
 11
1116.2016666666677
 21
395.69691019896891
  0
LINE
  8
_0-a_極細5
  6
CONTINUOUS
 62
    7
 10
1121.7339121666387
 20
386.09172963936317
 11
1116.2016666666677
 21
391.62397513933411
  0
LINE
  8
_0-a_極細5
  6
CONTINUOUS
 62
    7
 10
1117.6609771070043
 20
386.09172963936317
 11
1116.2016666666677
 21
387.55104007969931
  0
LINE
  8
_0-a_極細5
  6
CONTINUOUS
 62
    7
 10
1189.9192398509585
 20
386.09172963936317
 11
1201.1192392492412
 21
397.29172903764584
  0
LINE
  8
_0-a_極細5
  6
CONTINUOUS
 62
    7
 10
1169.5545645527859
 20
386.09172963936317
 11
1180.7545641103793
 21
397.29172919695611
  0
LINE
  8
_0-a_極細5
  6
CONTINUOUS
 62
    7
 10
1149.1898892546133
 20
386.09172963936317
 11
1160.3898889715169
 21
397.29172935626684
  0
LINE
  8
_0-a_極細5
  6
CONTINUOUS
 62
    7
 10
1128.8252139564411
 20
386.09172963936317
 11
1140.025213832655
 21
397.29172951557757
  0
LINE
  8
_0-a_極細5
  6
DASHED2
 62
    7
 10
1200.1015775000451
 20
386.09172963936317
 11
1209.8123039259776
 21
395.8024560652957
  0
LINE
  8
_0-a_極細5
  6
DASHED2
 62
    7
 10
1179.736902201872
 20
386.09172963936317
 11
1190.93690167981
 21
397.29172911730075
  0
LINE
  8
_0-a_極細5
  6
DASHED2
 62
    7
 10
1159.3722269036998
 20
386.09172963936317
 11
1170.5722265409481
 21
397.29172927661148
  0
LINE
  8
_0-a_極細5
  6
DASHED2
 62
    7
 10
1139.0075516055267
 20
386.09172963936317
 11
1150.2075514020858
 21
397.29172943592221
  0
LINE
  8
_0-a_極細5
  6
DASHED2
 62
    7
 10
1124.2016666666677
 20
391.65051999867637
 11
1129.8428762632238
 21
397.29172959523294
  0
ARC
  8
_0-b_細線5
  6
CONTINUOUS
 62
    7
 10
1111.4016666666676
 20
357.29172963936298
 40
4.7999999999999998
 50
269.99999999999977
 51
359.99999999999966
  0
LINE
  8
_0-b_細線5
  6
CONTINUOUS
 62
    7
 10
1116.2016666666677
 20
357.29172963936298
 11
1116.2016666666677
 21
396.4917296393628
  0
LINE
  8
_0-b_細線5
  6
CONTINUOUS
 62
    7
 10
1111.4016666666676
 20
352.4917296393628
 11
1069.001666666667
 21
352.4917296393628
  0
LINE
  8
_0-b_細線5
  6
CONTINUOUS
 62
    7
 10
1068.2016666666673
 20
353.29172963936344
 11
1069.001666666667
 21
352.4917296393628
  0
LINE
  8
_0-b_細線5
  6
CONTINUOUS
 62
    7
 10
1068.2016666666673
 20
356.49172963936326
 11
1068.2016666666673
 21
353.29172963936344
  0
LINE
  8
_0-b_細線5
  6
CONTINUOUS
 62
    7
 10
1069.001666666667
 20
357.29172963936298
 11
1068.2016666666673
 21
356.49172963936326
  0
LINE
  8
_0-b_細線5
  6
CONTINUOUS
 62
    7
 10
1111.4016666666676
 20
357.29172963936298
 11
1069.001666666667
 21
357.29172963936298
  0
LINE
  8
_0-b_細線5
  6
CONTINUOUS
 62
    7
 10
1115.4016666666676
 20
397.29172963936344
 11
1116.2016666666677
 21
396.4917296393628
  0
LINE
  8
_0-b_細線5
  6
CONTINUOUS
 62
    7
 10
1112.2016666666677
 20
397.29172963936344
 11
1115.4016666666676
 21
397.29172963936344
  0
LINE
  8
_0-b_細線5
  6
CONTINUOUS
 62
    7
 10
1111.4016666666676
 20
396.4917296393628
 11
1112.2016666666677
 21
397.29172963936344
  0
LINE
  8
_0-b_細線5
  6
CONTINUOUS
 62
    7
 10
1111.4016666666676
 20
357.29172963936298
 11
1111.4016666666676
 21
396.4917296393628
  0
CIRCLE
  8
_0-a_極細5
  6
CONTINUOUS
 62
    7
 10
447.35389655161271
 20
382.85233697268995
 40
0.5309629629629489
  0
CIRCLE
  8
_0-a_極細5
  6
CONTINUOUS
 62
    7
 10
417.65789655161279
 20
381.14567030602302
 40
0.5309629629629489
  0
LINE
  8
_0-a_極細5
  6
CONTINUOUS
 62
    7
 10
452.20166666666773
 20
397.29172963936344
 11
452.20166666666773
 21
386.09172963936317
  0
LINE
  8
_0-a_極細5
  6
CONTINUOUS
 62
    7
 10
460.20166666666773
 20
386.09172963936317
 11
366.59102940735784
 21
386.09172963936317
  0
LINE
  8
_0-a_極細5
  6
CONTINUOUS
 62
    7
 10
460.20166666666773
 20
396.4917296393628
 11
460.20166666666773
 21
397.29172963936344
  0
LINE
  8
_0-a_極細5
  6
CONTINUOUS
 62
    7
 10
460.01150002056283
 20
386.09172963936317
 11
460.20166666666728
 21
386.28189628546806
  0
LINE
  8
_0-a_極細5
  6
CONTINUOUS
 62
    7
 10
455.93856496092849
 20
386.09172963936317
 11
460.20166666666773
 21
390.35483134510196
  0
LINE
  8
_0-a_極細5
  6
CONTINUOUS
 62
    7
 10
452.20166666666773
 20
386.42776640473676
 11
460.20166666666773
 21
394.42776640473676
  0
LINE
  8
_0-a_極細5
  6
CONTINUOUS
 62
    7
 10
452.20166666666773
 20
390.50070146437156
 11
458.99269484165916
 21
397.29172963936344
  0
LINE
  8
_0-a_極細5
  6
CONTINUOUS
 62
    7
 10
452.20166666666773
 20
394.57363652400636
 11
454.91975978202481
 21
397.29172963936344
  0
LINE
  8
_0-a_極細5
  6
CONTINUOUS
 62
    7
 10
460.20166666666773
 20
395.10200144199462
 11
458.01193846929982
 21
397.29172963936344
  0
LINE
  8
_0-a_極細5
  6
CONTINUOUS
 62
    7
 10
460.20166666666773
 20
391.02906638236027
 11
453.93900340966502
 21
397.29172963936344
  0
LINE
  8
_0-a_極細5
  6
CONTINUOUS
 62
    7
 10
452.20166666666773
 20
394.95613132272592
 11
460.20166666666773
 21
386.95613132272592
  0
LINE
  8
_0-a_極細5
  6
CONTINUOUS
 62
    7
 10
452.20166666666773
 20
390.88319626309112
 11
456.99313329039569
 21
386.09172963936317
  0
LINE
  8
_0-a_極細5
  6
CONTINUOUS
 62
    7
 10
452.20166666666773
 20
386.81026120345678
 11
452.92019823076134
 21
386.09172963936317
  0
LINE
  8
_0-a_極細5
  6
CONTINUOUS
 62
    7
 10
443.71975977614238
 20
386.09172963348101
 11
452.20166666666773
 21
394.57363652400636
  0
LINE
  8
_0-a_極細5
  6
CONTINUOUS
 62
    7
 10
423.35508446384711
 20
386.09172961935838
 11
434.55508448385217
 21
397.29172963936298
  0
LINE
  8
_0-a_極細5
  6
CONTINUOUS
 62
    7
 10
402.99040915155138
 20
386.09172960523529
 11
414.19040918567953
 21
397.29172963936344
  0
LINE
  8
_0-a_極細5
  6
CONTINUOUS
 62
    7
 10
382.6257338392561
 20
386.0917295911122
 11
393.82573388750689
 21
397.29172963936344
  0
LINE
  8
_0-a_極細5
  6
CONTINUOUS
 62
    7
 10
366.59102940735784
 20
390.42170045738658
 11
373.46105858933424
 21
397.29172963936298
  0
LINE
  8
_0-a_極細5
  6
DASHED2
 62
    7
 10
433.53742211999497
 20
386.09172962641924
 11
444.73742213293872
 21
397.29172963936344
  0
LINE
  8
_0-a_極細5
  6
DASHED2
 62
    7
 10
413.17274680769924
 20
386.0917296122966
 11
424.37274683476608
 21
397.29172963936344
  0
LINE
  8
_0-a_極細5
  6
DASHED2
 62
    7
 10
392.80807149540396
 20
386.09172959817397
 11
404.00807153659298
 21
397.29172963936344
  0
LINE
  8
_0-a_極細5
  6
DASHED2
 62
    7
 10
372.44339618310823
 20
386.09172958405134
 11
383.64339623842034
 21
397.29172963936344
  0
ARC
  8
_0-b_細線5
  6
CONTINUOUS
 62
    7
 10
465.00166666666792
 20
357.29172963936298
 40
4.7999999999999998
 50
179.99999999999983
 51
269.99999999999977
  0
LINE
  8
_0-b_細線5
  6
CONTINUOUS
 62
    7
 10
460.20166666666773
 20
357.29172963936298
 11
460.20166666666773
 21
396.4917296393628
  0
LINE
  8
_0-b_細線5
  6
CONTINUOUS
 62
    7
 10
465.00166666666792
 20
352.4917296393628
 11
507.40166666666755
 21
352.4917296393628
  0
LINE
  8
_0-b_細線5
  6
CONTINUOUS
 62
    7
 10
508.20166666666773
 20
353.29172963936344
 11
507.40166666666755
 21
352.4917296393628
  0
LINE
  8
_0-b_細線5
  6
CONTINUOUS
 62
    7
 10
508.20166666666773
 20
356.49172963936326
 11
508.20166666666773
 21
353.29172963936344
  0
LINE
  8
_0-b_細線5
  6
CONTINUOUS
 62
    7
 10
507.40166666666755
 20
357.29172963936298
 11
508.20166666666773
 21
356.49172963936326
  0
LINE
  8
_0-b_細線5
  6
CONTINUOUS
 62
    7
 10
465.00166666666792
 20
357.29172963936298
 11
507.40166666666755
 21
357.29172963936298
  0
LINE
  8
_0-b_細線5
  6
CONTINUOUS
 62
    7
 10
461.00166666666746
 20
397.29172963936344
 11
460.20166666666773
 21
396.4917296393628
  0
LINE
  8
_0-b_細線5
  6
CONTINUOUS
 62
    7
 10
464.20166666666773
 20
397.29172963936344
 11
461.00166666666746
 21
397.29172963936344
  0
LINE
  8
_0-b_細線5
  6
CONTINUOUS
 62
    7
 10
465.00166666666792
 20
396.4917296393628
 11
464.20166666666773
 21
397.29172963936344
  0
LINE
  8
_0-b_細線5
  6
CONTINUOUS
 62
    7
 10
465.00166666666792
 20
357.29172963936298
 11
465.00166666666792
 21
396.4917296393628
  0
CIRCLE
  8
_0-a_極細5
  6
CONTINUOUS
 62
    7
 10
431.57434099605734
 20
378.46715178750355
 40
1.7525102137741364
  0
LINE
  8
_0-d_寸法5
  6
CONTINUOUS
 62
    7
 10
444.20166666666773
 20
397.29172963936304
 11
337.22740740740892
 21
397.29172963936298
  0
LINE
  8
_0-d_寸法5
  6
CONTINUOUS
 62
    7
 10
345.22740740740892
 20
397.29172963936298
 11
349.36851212904924
 21
381.83691641873787
  0
LINE
  8
_0-d_寸法5
  6
CONTINUOUS
 62
    7
 10
345.22740740740892
 20
397.29172963936298
 11
341.08630268576849
 21
381.83691641873793
  0
LINE
  8
_0-d_寸法5
  6
CONTINUOUS
 62
    7
 10
442.28166666666812
 20
352.49172963936286
 11
337.22740740740892
 21
352.4917296393628
  0
LINE
  8
_0-d_寸法5
  6
CONTINUOUS
 62
    7
 10
345.22740740740892
 20
352.4917296393628
 11
341.08630268576849
 21
367.94654285998786
  0
LINE
  8
_0-d_寸法5
  6
CONTINUOUS
 62
    7
 10
345.22740740740892
 20
352.4917296393628
 11
349.36851212904912
 21
367.94654285998791
  0
LINE
  8
_0-d_寸法5
  6
CONTINUOUS
 62
    7
 10
345.22740740740892
 20
397.29172963936298
 11
345.22740740740892
 21
352.4917296393628
  0
TEXT
  8
_0-d_寸法5
 62
    7
 10
345.22740740740892
 20
362.89172963936289
 40
24
 41
1
 50
90
  1
28
  0
LINE
  8
_0-d_寸法5
  6
CONTINUOUS
 62
    7
 10
460.20166666666773
 20
405.29172963936344
 11
460.20166666666773
 21
581.2913792377517
  0
LINE
  8
_0-d_寸法5
  6
CONTINUOUS
 62
    7
 10
460.20166666666773
 20
573.2913792377517
 11
475.65647988729279
 21
577.43248395939202
  0
LINE
  8
_0-d_寸法5
  6
CONTINUOUS
 62
    7
 10
460.20166666666773
 20
573.2913792377517
 11
475.65647988729279
 21
569.15027451611138
  0
LINE
  8
_0-d_寸法5
  6
CONTINUOUS
 62
    7
 10
1116.2016666666677
 20
405.29172963936344
 11
1116.2016666666677
 21
581.2913792377517
  0
LINE
  8
_0-d_寸法5
  6
CONTINUOUS
 62
    7
 10
1116.2016666666677
 20
573.2913792377517
 11
1100.7468534460427
 21
569.15027451611138
  0
LINE
  8
_0-d_寸法5
  6
CONTINUOUS
 62
    7
 10
1116.2016666666677
 20
573.2913792377517
 11
1100.7468534460427
 21
577.43248395939213
  0
LINE
  8
_0-d_寸法5
  6
CONTINUOUS
 62
    7
 10
460.20166666666773
 20
573.2913792377517
 11
1116.2016666666677
 21
573.2913792377517
  0
TEXT
  8
_0-d_寸法5
 62
    7
 10
770.20166666666773
 20
573.2913792377517
 40
24
 41
1
 50
0
  1
410
  0
LINE
  8
_0-d_寸法5
  6
CONTINUOUS
 62
    7
 10
910.60166666896839
 20
413.2913792377517
 11
910.60166666896839
 21
469.2913792377517
  0
LINE
  8
_0-d_寸法5
  6
CONTINUOUS
 62
    7
 10
910.60166666896839
 20
461.2913792377517
 11
926.05647988959345
 21
465.43248395939202
  0
LINE
  8
_0-d_寸法5
  6
CONTINUOUS
 62
    7
 10
910.60166666896839
 20
461.2913792377517
 11
926.05647988959345
 21
457.15027451611138
  0
LINE
  8
_0-d_寸法5
  6
CONTINUOUS
 62
    7
 10
937.80166666954756
 20
413.2913792377517
 11
937.80166666954756
 21
469.2913792377517
  0
LINE
  8
_0-d_寸法5
  6
CONTINUOUS
 62
    7
 10
937.80166666954756
 20
461.2913792377517
 11
922.3468534489225
 21
457.15027451611144
  0
LINE
  8
_0-d_寸法5
  6
CONTINUOUS
 62
    7
 10
937.80166666954756
 20
461.2913792377517
 11
922.3468534489225
 21
465.43248395939207
  0
LINE
  8
_0-d_寸法5
  6
CONTINUOUS
 62
    7
 10
910.60166666896839
 20
461.2913792377517
 11
937.80166666954756
 21
461.2913792377517
  0
TEXT
  8
_0-d_寸法5
 62
    7
 10
898.35210300108974
 20
437.2913792377517
 40
24
 41
1
 50
0
  1
(17)
  0
LINE
  8
_0-d_寸法5
  6
CONTINUOUS
 62
    7
 10
937.80166666954756
 20
461.2913792377517
 11
953.25647989017273
 21
465.4324839593919
  0
LINE
  8
_0-d_寸法5
  6
CONTINUOUS
 62
    7
 10
937.80166666954756
 20
461.2913792377517
 11
953.25647989017261
 21
457.15027451611127
  0
LINE
  8
_0-d_寸法5
  6
CONTINUOUS
 62
    7
 10
965.00166667012627
 20
413.2913792377517
 11
965.00166667012627
 21
469.2913792377517
  0
LINE
  8
_0-d_寸法5
  6
CONTINUOUS
 62
    7
 10
965.00166667012627
 20
461.2913792377517
 11
949.54685344950121
 21
457.15027451611144
  0
LINE
  8
_0-d_寸法5
  6
CONTINUOUS
 62
    7
 10
965.00166667012627
 20
461.2913792377517
 11
949.54685344950121
 21
465.43248395939207
  0
LINE
  8
_0-d_寸法5
  6
CONTINUOUS
 62
    7
 10
937.80166666954756
 20
461.2913792377517
 11
965.00166667012627
 21
461.2913792377517
  0
TEXT
  8
_0-d_寸法5
 62
    7
 10
928.85876966737078
 20
461.2913792377517
 40
24
 41
1
 50
0
  1
(17)
  0
LINE
  8
_0-d_寸法5
  6
CONTINUOUS
 62
    7
 10
647.7216669681743
 20
410.09137923775234
 11
647.7216669681743
 21
469.2913792377517
  0
LINE
  8
_0-d_寸法5
  6
CONTINUOUS
 62
    7
 10
647.7216669681743
 20
461.2913792377517
 11
632.26685374754925
 21
457.15027451611144
  0
LINE
  8
_0-d_寸法5
  6
CONTINUOUS
 62
    7
 10
647.7216669681743
 20
461.2913792377517
 11
632.26685374754925
 21
465.43248395939207
  0
LINE
  8
_0-d_寸法5
  6
CONTINUOUS
 62
    7
 10
656.6816669722848
 20
410.09137923775234
 11
656.6816669722848
 21
469.2913792377517
  0
LINE
  8
_0-d_寸法5
  6
CONTINUOUS
 62
    7
 10
584.72333787510706
 20
461.2913792377517
 11
656.6816669722848
 21
461.2913792377517
  0
TEXT
  8
_0-d_寸法5
 62
    7
 10
584.72333787510706
 20
437.2913792377517
 40
24
 41
1
 50
0
  1
(5.6)
  0
LINE
  8
_0-d_寸法5
  6
CONTINUOUS
 62
    7
 10
656.6816669722848
 20
461.2913792377517
 11
672.13648019290986
 21
465.43248395939202
  0
LINE
  8
_0-d_寸法5
  6
CONTINUOUS
 62
    7
 10
656.6816669722848
 20
461.2913792377517
 11
672.13648019290986
 21
457.15027451611138
  0
LINE
  8
_0-d_寸法5
  6
CONTINUOUS
 62
    7
 10
674.92166696875302
 20
410.09137923775234
 11
674.92166696875302
 21
469.2913792377517
  0
LINE
  8
_0-d_寸法5
  6
CONTINUOUS
 62
    7
 10
674.92166696875302
 20
461.2913792377517
 11
659.46685374812796
 21
457.15027451611144
  0
LINE
  8
_0-d_寸法5
  6
CONTINUOUS
 62
    7
 10
674.92166696875302
 20
461.2913792377517
 11
659.46685374812796
 21
465.43248395939207
  0
LINE
  8
_0-d_寸法5
  6
CONTINUOUS
 62
    7
 10
656.6816669722848
 20
461.2913792377517
 11
674.92166696875302
 21
461.2913792377517
  0
TEXT
  8
_0-d_寸法5
 62
    7
 10
635.77815268835911
 20
461.2913792377517
 40
24
 41
1
 50
0
  1
11.4
  0
CIRCLE
  8
_0-a_極細5
  6
CONTINUOUS
 62
    7
 10
1123.8338965516095
 20
371.22122586157866
 40
0.5309629629629489
  0
ARC
  8
_0-b_細線5
  6
CONTINUOUS
 62
    7
 10
848.68166666988054
 20
394.09137923775188
 40
1.6000000000000003
 50
89.999999999999915
 51
179.99999999999983
  0
ARC
  8
_0-b_細線5
  6
CONTINUOUS
 62
    7
 10
849.43038537600478
 20
397.29137923775124
 40
1.6000000000000003
 50
269.99999999999977
 51
330.0000000000141
  0
ARC
  8
_0-b_細線5
  6
CONTINUOUS
 62
    7
 10
852.20166666811474
 20
395.69137923775179
 40
1.6000000000000003
 50
89.999999999999915
 51
149.99999999999815
  0
LINE
  8
_0-b_細線5
  6
CONTINUOUS
 62
    7
 10
848.68166666988054
 20
395.69137923775179
 11
849.43038537600478
 21
395.69137923775179
  0
ARC
  8
_0-b_細線5
  6
CONTINUOUS
 62
    7
 10
863.72166666634894
 20
394.09137923775188
 40
1.6000000000000003
 50
0
 51
89.999999999999915
  0
ARC
  8
_0-b_細線5
  6
CONTINUOUS
 62
    7
 10
862.97294796022561
 20
397.29137923775124
 40
1.6000000000000003
 50
209.99999999998522
 51
269.99999999999977
  0
ARC
  8
_0-b_細線5
  6
CONTINUOUS
 62
    7
 10
860.20166666811519
 20
395.69137923775179
 40
1.6000000000000003
 50
29.999999999993712
 51
89.999999999999901
  0
LINE
  8
_0-b_細線5
  6
CONTINUOUS
 62
    7
 10
863.72166666634894
 20
395.69137923775179
 11
862.97294796022561
 21
395.69137923775179
  0
ARC
  8
_0-b_細線5
  6
CONTINUOUS
 62
    7
 10
847.88166666988081
 20
391.8513792377521
 40
0.8000000000000001
 50
179.99999999999983
 51
269.99999999999977
  0
LINE
  8
_0-b_細線5
  6
CONTINUOUS
 62
    7
 10
847.08166666988063
 20
394.09137923775188
 11
847.08166666988063
 21
391.8513792377521
  0
ARC
  8
_0-b_細線5
  6
CONTINUOUS
 62
    7
 10
864.52166666634912
 20
391.8513792377521
 40
0.8000000000000001
 50
269.99999999999977
 51
359.99999999999966
  0
LINE
  8
_0-b_細線5
  6
CONTINUOUS
 62
    7
 10
865.3216666663493
 20
394.09137923775188
 11
865.3216666663493
 21
391.8513792377521
  0
ARC
  8
_0-b_細線5
  6
CONTINUOUS
 62
    7
 10
851.88166666988081
 20
389.45137923775201
 40
1.6000000000000003
 50
0
 51
89.999999999999915
  0
LINE
  8
_0-b_細線5
  6
CONTINUOUS
 62
    7
 10
851.88166666988081
 20
391.05137923775146
 11
847.88166666988081
 21
391.05137923775146
  0
ARC
  8
_0-b_細線5
  6
CONTINUOUS
 62
    7
 10
860.52166666988069
 20
389.45137923775201
 40
1.6000000000000003
 50
89.999999999999915
 51
179.99999999999983
  0
LINE
  8
_0-b_細線5
  6
CONTINUOUS
 62
    7
 10
860.52166666634912
 20
391.05137923775146
 11
864.52166666634912
 21
391.05137923775146
  0
LINE
  8
_0-b_細線5
  6
CONTINUOUS
 62
    7
 10
860.20166666811519
 20
397.29137923775124
 11
852.20166666811474
 21
397.29137923775124
  0
LINE
  8
_0-b_細線5
  6
CONTINUOUS
 62
    7
 10
853.48166666811539
 20
357.2913792377517
 11
853.48166666988072
 21
389.45137923775201
  0
LINE
  8
_0-b_細線5
  6
CONTINUOUS
 62
    7
 10
858.92166666811499
 20
357.2913792377517
 11
858.92166666988078
 21
389.45137923775201
  0
LINE
  8
_0-b_細線5
  6
CONTINUOUS
 62
    7
 10
858.92166666811499
 20
357.2913792377517
 11
853.48166666811539
 21
357.2913792377517
  0
ARC
  8
_0-b_細線5
  6
CONTINUOUS
 62
    7
 10
821.48166666930229
 20
394.09137923775188
 40
1.6000000000000003
 50
89.999999999999915
 51
179.99999999999983
  0
ARC
  8
_0-b_細線5
  6
CONTINUOUS
 62
    7
 10
822.23038537542561
 20
397.29137923775124
 40
1.6000000000000003
 50
269.99999999999977
 51
330.0000000000141
  0
ARC
  8
_0-b_細線5
  6
CONTINUOUS
 62
    7
 10
825.00166666753603
 20
395.69137923775179
 40
1.6000000000000003
 50
89.999999999999915
 51
150.00000000000628
  0
LINE
  8
_0-b_細線5
  6
CONTINUOUS
 62
    7
 10
821.48166666930229
 20
395.69137923775179
 11
822.23038537542561
 21
395.69137923775179
  0
ARC
  8
_0-b_細線5
  6
CONTINUOUS
 62
    7
 10
836.52166666576977
 20
394.09137923775188
 40
1.6000000000000003
 50
0
 51
89.999999999999915
  0
ARC
  8
_0-b_細線5
  6
CONTINUOUS
 62
    7
 10
835.77294795964644
 20
397.29137923775124
 40
1.6000000000000003
 50
209.99999999998522
 51
269.99999999999977
  0
ARC
  8
_0-b_細線5
  6
CONTINUOUS
 62
    7
 10
833.00166666753603
 20
395.69137923775179
 40
1.6000000000000003
 50
29.999999999993712
 51
89.999999999999901
  0
LINE
  8
_0-b_細線5
  6
CONTINUOUS
 62
    7
 10
836.52166666576977
 20
395.69137923775179
 11
835.77294795964644
 21
395.69137923775179
  0
ARC
  8
_0-b_細線5
  6
CONTINUOUS
 62
    7
 10
820.6816666693021
 20
391.8513792377521
 40
0.8000000000000001
 50
179.99999999999983
 51
269.99999999999977
  0
LINE
  8
_0-b_細線5
  6
CONTINUOUS
 62
    7
 10
819.88166666930192
 20
394.09137923775188
 11
819.88166666930192
 21
391.8513792377521
  0
ARC
  8
_0-b_細線5
  6
CONTINUOUS
 62
    7
 10
837.32166666576995
 20
391.8513792377521
 40
0.8000000000000001
 50
269.99999999999977
 51
359.99999999999966
  0
LINE
  8
_0-b_細線5
  6
CONTINUOUS
 62
    7
 10
838.12166666577014
 20
394.09137923775188
 11
838.12166666577014
 21
391.8513792377521
  0
ARC
  8
_0-b_細線5
  6
CONTINUOUS
 62
    7
 10
824.68166666930165
 20
389.45137923775201
 40
1.6000000000000003
 50
0
 51
89.999999999999915
  0
LINE
  8
_0-b_細線5
  6
CONTINUOUS
 62
    7
 10
824.68166666930165
 20
391.05137923775146
 11
820.6816666693021
 21
391.05137923775146
  0
ARC
  8
_0-b_細線5
  6
CONTINUOUS
 62
    7
 10
833.32166666930243
 20
389.45137923775201
 40
1.6000000000000003
 50
89.999999999999915
 51
179.99999999999983
  0
LINE
  8
_0-b_細線5
  6
CONTINUOUS
 62
    7
 10
833.32166666577041
 20
391.05137923775146
 11
837.32166666576995
 21
391.05137923775146
  0
LINE
  8
_0-b_細線5
  6
CONTINUOUS
 62
    7
 10
833.00166666753603
 20
397.29137923775124
 11
825.00166666753603
 21
397.29137923775124
  0
LINE
  8
_0-b_細線5
  6
CONTINUOUS
 62
    7
 10
826.28166666753623
 20
357.2913792377517
 11
826.28166666930201
 21
389.45137923775201
  0
LINE
  8
_0-b_細線5
  6
CONTINUOUS
 62
    7
 10
831.72166666753583
 20
357.2913792377517
 11
831.72166666930207
 21
389.45137923775201
  0
LINE
  8
_0-b_細線5
  6
CONTINUOUS
 62
    7
 10
831.72166666753583
 20
357.2913792377517
 11
826.28166666753623
 21
357.2913792377517
  0
ARC
  8
_0-b_細線5
  6
CONTINUOUS
 62
    7
 10
794.28166666872312
 20
394.09137923775188
 40
1.6000000000000003
 50
89.999999999999915
 51
179.99999999999983
  0
ARC
  8
_0-b_細線5
  6
CONTINUOUS
 62
    7
 10
795.03038537484736
 20
397.29137923775124
 40
1.6000000000000003
 50
269.99999999999977
 51
330.00000000000591
  0
ARC
  8
_0-b_細線5
  6
CONTINUOUS
 62
    7
 10
797.80166666695732
 20
395.69137923775179
 40
1.6000000000000003
 50
89.999999999999915
 51
150.00000000000628
  0
LINE
  8
_0-b_細線5
  6
CONTINUOUS
 62
    7
 10
794.28166666872312
 20
395.69137923775179
 11
795.03038537484736
 21
395.69137923775179
  0
ARC
  8
_0-b_細線5
  6
CONTINUOUS
 62
    7
 10
809.32166666519151
 20
394.09137923775188
 40
1.6000000000000003
 50
0
 51
89.999999999999915
  0
ARC
  8
_0-b_細線5
  6
CONTINUOUS
 62
    7
 10
808.57294795906728
 20
397.29137923775124
 40
1.6000000000000003
 50
209.99999999999335
 51
269.99999999999977
  0
ARC
  8
_0-b_細線5
  6
CONTINUOUS
 62
    7
 10
805.80166666695732
 20
395.69137923775179
 40
1.6000000000000003
 50
29.999999999993712
 51
89.999999999999901
  0
LINE
  8
_0-b_細線5
  6
CONTINUOUS
 62
    7
 10
809.32166666519151
 20
395.69137923775179
 11
808.57294795906728
 21
395.69137923775179
  0
ARC
  8
_0-b_細線5
  6
CONTINUOUS
 62
    7
 10
793.48166666872294
 20
391.8513792377521
 40
0.8000000000000001
 50
179.99999999999983
 51
269.99999999999977
  0
LINE
  8
_0-b_細線5
  6
CONTINUOUS
 62
    7
 10
792.68166666872321
 20
394.09137923775188
 11
792.68166666872321
 21
391.8513792377521
  0
ARC
  8
_0-b_細線5
  6
CONTINUOUS
 62
    7
 10
810.1216666651917
 20
391.8513792377521
 40
0.8000000000000001
 50
269.99999999999977
 51
359.99999999999966
  0
LINE
  8
_0-b_細線5
  6
CONTINUOUS
 62
    7
 10
810.92166666519142
 20
394.09137923775188
 11
810.92166666519142
 21
391.8513792377521
  0
ARC
  8
_0-b_細線5
  6
CONTINUOUS
 62
    7
 10
797.48166666872294
 20
389.45137923775201
 40
1.6000000000000003
 50
0
 51
89.999999999999915
  0
LINE
  8
_0-b_細線5
  6
CONTINUOUS
 62
    7
 10
797.48166666872294
 20
391.05137923775146
 11
793.48166666872294
 21
391.05137923775146
  0
ARC
  8
_0-b_細線5
  6
CONTINUOUS
 62
    7
 10
806.12166666872326
 20
389.45137923775201
 40
1.6000000000000003
 50
89.999999999999915
 51
179.99999999999983
  0
LINE
  8
_0-b_細線5
  6
CONTINUOUS
 62
    7
 10
806.1216666651917
 20
391.05137923775146
 11
810.1216666651917
 21
391.05137923775146
  0
LINE
  8
_0-b_細線5
  6
CONTINUOUS
 62
    7
 10
805.80166666695732
 20
397.29137923775124
 11
797.80166666695732
 21
397.29137923775124
  0
LINE
  8
_0-b_細線5
  6
CONTINUOUS
 62
    7
 10
799.08166666695706
 20
357.2913792377517
 11
799.0816666687233
 21
389.45137923775201
  0
LINE
  8
_0-b_細線5
  6
CONTINUOUS
 62
    7
 10
804.52166666695757
 20
357.2913792377517
 11
804.52166666872336
 21
389.45137923775201
  0
LINE
  8
_0-b_細線5
  6
CONTINUOUS
 62
    7
 10
804.52166666695757
 20
357.2913792377517
 11
799.08166666695706
 21
357.2913792377517
  0
ARC
  8
_0-b_細線5
  6
CONTINUOUS
 62
    7
 10
767.08166666814395
 20
394.09137923775188
 40
1.6000000000000003
 50
89.999999999999915
 51
179.99999999999983
  0
ARC
  8
_0-b_細線5
  6
CONTINUOUS
 62
    7
 10
767.83038537426819
 20
397.29137923775124
 40
1.6000000000000003
 50
269.99999999999977
 51
330.00000000000591
  0
ARC
  8
_0-b_細線5
  6
CONTINUOUS
 62
    7
 10
770.60166666637815
 20
395.69137923775179
 40
1.6000000000000003
 50
89.999999999999915
 51
150.00000000000628
  0
LINE
  8
_0-b_細線5
  6
CONTINUOUS
 62
    7
 10
767.08166666814395
 20
395.69137923775179
 11
767.83038537426819
 21
395.69137923775179
  0
ARC
  8
_0-b_細線5
  6
CONTINUOUS
 62
    7
 10
782.12166666461326
 20
394.09137923775188
 40
1.6000000000000003
 50
0
 51
89.999999999999915
  0
ARC
  8
_0-b_細線5
  6
CONTINUOUS
 62
    7
 10
781.37294795848902
 20
397.29137923775124
 40
1.6000000000000003
 50
209.99999999998522
 51
269.99999999999977
  0
ARC
  8
_0-b_細線5
  6
CONTINUOUS
 62
    7
 10
778.60166666637861
 20
395.69137923775179
 40
1.6000000000000003
 50
29.999999999993712
 51
89.999999999999901
  0
LINE
  8
_0-b_細線5
  6
CONTINUOUS
 62
    7
 10
782.12166666461326
 20
395.69137923775179
 11
781.37294795848902
 21
395.69137923775179
  0
ARC
  8
_0-b_細線5
  6
CONTINUOUS
 62
    7
 10
766.28166666814423
 20
391.8513792377521
 40
0.8000000000000001
 50
179.99999999999983
 51
269.99999999999977
  0
LINE
  8
_0-b_細線5
  6
CONTINUOUS
 62
    7
 10
765.48166666814404
 20
394.09137923775188
 11
765.48166666814404
 21
391.8513792377521
  0
ARC
  8
_0-b_細線5
  6
CONTINUOUS
 62
    7
 10
782.92166666461299
 20
391.8513792377521
 40
0.8000000000000001
 50
269.99999999999977
 51
359.99999999999966
  0
LINE
  8
_0-b_細線5
  6
CONTINUOUS
 62
    7
 10
783.72166666461271
 20
394.09137923775188
 11
783.72166666461271
 21
391.8513792377521
  0
ARC
  8
_0-b_細線5
  6
CONTINUOUS
 62
    7
 10
770.28166666814377
 20
389.45137923775201
 40
1.6000000000000003
 50
0
 51
89.999999999999915
  0
LINE
  8
_0-b_細線5
  6
CONTINUOUS
 62
    7
 10
770.28166666814377
 20
391.05137923775146
 11
766.28166666814423
 21
391.05137923775146
  0
ARC
  8
_0-b_細線5
  6
CONTINUOUS
 62
    7
 10
778.9216666681441
 20
389.45137923775201
 40
1.6000000000000003
 50
89.999999999999915
 51
179.99999999999983
  0
LINE
  8
_0-b_細線5
  6
CONTINUOUS
 62
    7
 10
778.92166666461253
 20
391.05137923775146
 11
782.92166666461299
 21
391.05137923775146
  0
LINE
  8
_0-b_細線5
  6
CONTINUOUS
 62
    7
 10
778.60166666637861
 20
397.29137923775124
 11
770.60166666637815
 21
397.29137923775124
  0
LINE
  8
_0-b_細線5
  6
CONTINUOUS
 62
    7
 10
771.88166666637881
 20
357.2913792377517
 11
771.88166666814413
 21
389.45137923775201
  0
LINE
  8
_0-b_細線5
  6
CONTINUOUS
 62
    7
 10
777.32166666637841
 20
357.2913792377517
 11
777.32166666814419
 21
389.45137923775201
  0
LINE
  8
_0-b_細線5
  6
CONTINUOUS
 62
    7
 10
777.32166666637841
 20
357.2913792377517
 11
771.88166666637881
 21
357.2913792377517
  0
ARC
  8
_0-b_細線5
  6
CONTINUOUS
 62
    7
 10
739.8816666675657
 20
394.09137923775188
 40
1.6000000000000003
 50
89.999999999999915
 51
179.99999999999983
  0
ARC
  8
_0-b_細線5
  6
CONTINUOUS
 62
    7
 10
740.63038537368948
 20
397.29137923775124
 40
1.6000000000000003
 50
269.99999999999977
 51
330.00000000000591
  0
ARC
  8
_0-b_細線5
  6
CONTINUOUS
 62
    7
 10
743.40166666579989
 20
395.69137923775179
 40
1.6000000000000003
 50
89.999999999999915
 51
150.00000000001444
  0
LINE
  8
_0-b_細線5
  6
CONTINUOUS
 62
    7
 10
739.8816666675657
 20
395.69137923775179
 11
740.63038537368948
 21
395.69137923775179
  0
ARC
  8
_0-b_細線5
  6
CONTINUOUS
 62
    7
 10
754.92166666403409
 20
394.09137923775188
 40
1.6000000000000003
 50
0
 51
89.999999999999915
  0
ARC
  8
_0-b_細線5
  6
CONTINUOUS
 62
    7
 10
754.17294795790986
 20
397.29137923775124
 40
1.6000000000000003
 50
209.99999999998522
 51
269.99999999999977
  0
ARC
  8
_0-b_細線5
  6
CONTINUOUS
 62
    7
 10
751.40166666579944
 20
395.69137923775179
 40
1.6000000000000003
 50
29.999999999993712
 51
89.999999999983714
  0
LINE
  8
_0-b_細線5
  6
CONTINUOUS
 62
    7
 10
754.92166666403409
 20
395.69137923775179
 11
754.17294795790986
 21
395.69137923775179
  0
ARC
  8
_0-b_細線5
  6
CONTINUOUS
 62
    7
 10
739.08166666756551
 20
391.8513792377521
 40
0.8000000000000001
 50
179.99999999999983
 51
269.99999999999977
  0
LINE
  8
_0-b_細線5
  6
CONTINUOUS
 62
    7
 10
738.28166666756533
 20
394.09137923775188
 11
738.28166666756533
 21
391.8513792377521
  0
ARC
  8
_0-b_細線5
  6
CONTINUOUS
 62
    7
 10
755.72166666403427
 20
391.8513792377521
 40
0.8000000000000001
 50
269.99999999999977
 51
359.99999999999966
  0
LINE
  8
_0-b_細線5
  6
CONTINUOUS
 62
    7
 10
756.52166666403446
 20
394.09137923775188
 11
756.52166666403446
 21
391.8513792377521
  0
ARC
  8
_0-b_細線5
  6
CONTINUOUS
 62
    7
 10
743.08166666756551
 20
389.45137923775201
 40
1.6000000000000003
 50
0
 51
89.999999999999915
  0
LINE
  8
_0-b_細線5
  6
CONTINUOUS
 62
    7
 10
743.08166666756551
 20
391.05137923775146
 11
739.08166666756551
 21
391.05137923775146
  0
ARC
  8
_0-b_細線5
  6
CONTINUOUS
 62
    7
 10
751.72166666756584
 20
389.45137923775201
 40
1.6000000000000003
 50
89.999999999999915
 51
179.99999999999983
  0
LINE
  8
_0-b_細線5
  6
CONTINUOUS
 62
    7
 10
751.72166666403382
 20
391.05137923775146
 11
755.72166666403427
 21
391.05137923775146
  0
LINE
  8
_0-b_細線5
  6
CONTINUOUS
 62
    7
 10
751.40166666579944
 20
397.29137923775124
 11
743.40166666579989
 21
397.29137923775124
  0
LINE
  8
_0-b_細線5
  6
CONTINUOUS
 62
    7
 10
744.68166666579964
 20
357.2913792377517
 11
744.68166666756542
 21
389.45137923775201
  0
LINE
  8
_0-b_細線5
  6
CONTINUOUS
 62
    7
 10
750.12166666579969
 20
357.2913792377517
 11
750.12166666756548
 21
389.45137923775201
  0
LINE
  8
_0-b_細線5
  6
CONTINUOUS
 62
    7
 10
750.12166666579969
 20
357.2913792377517
 11
744.68166666579964
 21
357.2913792377517
  0
ARC
  8
_0-b_細線5
  6
CONTINUOUS
 62
    7
 10
712.68166666698653
 20
394.09137923775188
 40
1.6000000000000003
 50
89.999999999999915
 51
179.99999999999983
  0
ARC
  8
_0-b_細線5
  6
CONTINUOUS
 62
    7
 10
713.43038537311077
 20
397.29137923775124
 40
1.6000000000000003
 50
269.99999999999977
 51
330.00000000000591
  0
ARC
  8
_0-b_細線5
  6
CONTINUOUS
 62
    7
 10
716.20166666522073
 20
395.69137923775179
 40
1.6000000000000003
 50
89.999999999999915
 51
150.00000000000628
  0
LINE
  8
_0-b_細線5
  6
CONTINUOUS
 62
    7
 10
712.68166666698653
 20
395.69137923775179
 11
713.43038537311077
 21
395.69137923775179
  0
ARC
  8
_0-b_細線5
  6
CONTINUOUS
 62
    7
 10
727.72166666345493
 20
394.09137923775188
 40
1.6000000000000003
 50
0
 51
89.999999999999915
  0
ARC
  8
_0-b_細線5
  6
CONTINUOUS
 62
    7
 10
726.97294795733069
 20
397.29137923775124
 40
1.6000000000000003
 50
209.99999999998522
 51
269.99999999999977
  0
ARC
  8
_0-b_細線5
  6
CONTINUOUS
 62
    7
 10
724.20166666522073
 20
395.69137923775179
 40
1.6000000000000003
 50
30.000000000001855
 51
89.999999999999901
  0
LINE
  8
_0-b_細線5
  6
CONTINUOUS
 62
    7
 10
727.72166666345493
 20
395.69137923775179
 11
726.97294795733069
 21
395.69137923775179
  0
ARC
  8
_0-b_細線5
  6
CONTINUOUS
 62
    7
 10
711.88166666698635
 20
391.8513792377521
 40
0.8000000000000001
 50
179.99999999999983
 51
269.99999999999977
  0
LINE
  8
_0-b_細線5
  6
CONTINUOUS
 62
    7
 10
711.08166666698617
 20
394.09137923775188
 11
711.08166666698617
 21
391.8513792377521
  0
ARC
  8
_0-b_細線5
  6
CONTINUOUS
 62
    7
 10
728.52166666345511
 20
391.8513792377521
 40
0.8000000000000001
 50
269.99999999999977
 51
359.99999999999966
  0
LINE
  8
_0-b_細線5
  6
CONTINUOUS
 62
    7
 10
729.32166666345483
 20
394.09137923775188
 11
729.32166666345483
 21
391.8513792377521
  0
ARC
  8
_0-b_細線5
  6
CONTINUOUS
 62
    7
 10
715.88166666698635
 20
389.45137923775201
 40
1.6000000000000003
 50
0
 51
89.999999999999915
  0
LINE
  8
_0-b_細線5
  6
CONTINUOUS
 62
    7
 10
715.88166666698635
 20
391.05137923775146
 11
711.88166666698635
 21
391.05137923775146
  0
ARC
  8
_0-b_細線5
  6
CONTINUOUS
 62
    7
 10
724.52166666698668
 20
389.45137923775201
 40
1.6000000000000003
 50
89.999999999999915
 51
179.99999999999983
  0
LINE
  8
_0-b_細線5
  6
CONTINUOUS
 62
    7
 10
724.52166666345465
 20
391.05137923775146
 11
728.52166666345511
 21
391.05137923775146
  0
LINE
  8
_0-b_細線5
  6
CONTINUOUS
 62
    7
 10
724.20166666522073
 20
397.29137923775124
 11
716.20166666522073
 21
397.29137923775124
  0
LINE
  8
_0-b_細線5
  6
CONTINUOUS
 62
    7
 10
717.48166666522047
 20
357.2913792377517
 11
717.48166666698626
 21
389.45137923775201
  0
LINE
  8
_0-b_細線5
  6
CONTINUOUS
 62
    7
 10
722.92166666522098
 20
357.2913792377517
 11
722.92166666698631
 21
389.45137923775201
  0
LINE
  8
_0-b_細線5
  6
CONTINUOUS
 62
    7
 10
722.92166666522098
 20
357.2913792377517
 11
717.48166666522047
 21
357.2913792377517
  0
ARC
  8
_0-b_細線5
  6
CONTINUOUS
 62
    7
 10
685.48166666640736
 20
394.09137923775188
 40
1.6000000000000003
 50
89.999999999999915
 51
179.99999999999983
  0
ARC
  8
_0-b_細線5
  6
CONTINUOUS
 62
    7
 10
686.2303853725316
 20
397.29137923775124
 40
1.6000000000000003
 50
269.99999999999977
 51
330.00000000000591
  0
ARC
  8
_0-b_細線5
  6
CONTINUOUS
 62
    7
 10
689.00166666464156
 20
395.69137923775179
 40
1.6000000000000003
 50
89.999999999999915
 51
150.00000000000628
  0
LINE
  8
_0-b_細線5
  6
CONTINUOUS
 62
    7
 10
685.48166666640736
 20
395.69137923775179
 11
686.2303853725316
 21
395.69137923775179
  0
ARC
  8
_0-b_細線5
  6
CONTINUOUS
 62
    7
 10
700.52166666287576
 20
394.09137923775188
 40
1.6000000000000003
 50
0
 51
89.999999999999915
  0
ARC
  8
_0-b_細線5
  6
CONTINUOUS
 62
    7
 10
699.77294795675243
 20
397.29137923775124
 40
1.6000000000000003
 50
209.99999999997706
 51
269.99999999999977
  0
ARC
  8
_0-b_細線5
  6
CONTINUOUS
 62
    7
 10
697.00166666464156
 20
395.69137923775179
 40
1.6000000000000003
 50
29.999999999993712
 51
89.999999999999901
  0
LINE
  8
_0-b_細線5
  6
CONTINUOUS
 62
    7
 10
700.52166666287576
 20
395.69137923775179
 11
699.77294795675243
 21
395.69137923775179
  0
ARC
  8
_0-b_細線5
  6
CONTINUOUS
 62
    7
 10
684.68166666640764
 20
391.8513792377521
 40
0.8000000000000001
 50
179.99999999999983
 51
269.99999999999977
  0
LINE
  8
_0-b_細線5
  6
CONTINUOUS
 62
    7
 10
683.88166666640745
 20
394.09137923775188
 11
683.88166666640745
 21
391.8513792377521
  0
ARC
  8
_0-b_細線5
  6
CONTINUOUS
 62
    7
 10
701.32166666287594
 20
391.8513792377521
 40
0.8000000000000001
 50
269.99999999999977
 51
359.99999999999966
  0
LINE
  8
_0-b_細線5
  6
CONTINUOUS
 62
    7
 10
702.12166666287612
 20
394.09137923775188
 11
702.12166666287612
 21
391.8513792377521
  0
ARC
  8
_0-b_細線5
  6
CONTINUOUS
 62
    7
 10
688.68166666640718
 20
389.45137923775201
 40
1.6000000000000003
 50
0
 51
89.999999999999915
  0
LINE
  8
_0-b_細線5
  6
CONTINUOUS
 62
    7
 10
688.68166666640718
 20
391.05137923775146
 11
684.68166666640764
 21
391.05137923775146
  0
ARC
  8
_0-b_細線5
  6
CONTINUOUS
 62
    7
 10
697.32166666640751
 20
389.45137923775201
 40
1.6000000000000003
 50
89.999999999999915
 51
179.99999999999983
  0
LINE
  8
_0-b_細線5
  6
CONTINUOUS
 62
    7
 10
697.32166666287594
 20
391.05137923775146
 11
701.32166666287594
 21
391.05137923775146
  0
LINE
  8
_0-b_細線5
  6
CONTINUOUS
 62
    7
 10
697.00166666464156
 20
397.29137923775124
 11
689.00166666464156
 21
397.29137923775124
  0
LINE
  8
_0-b_細線5
  6
CONTINUOUS
 62
    7
 10
690.28166666464222
 20
357.2913792377517
 11
690.28166666640755
 21
389.45137923775201
  0
LINE
  8
_0-b_細線5
  6
CONTINUOUS
 62
    7
 10
695.72166666464182
 20
357.2913792377517
 11
695.7216666664076
 21
389.45137923775201
  0
LINE
  8
_0-b_細線5
  6
CONTINUOUS
 62
    7
 10
695.72166666464182
 20
357.2913792377517
 11
690.28166666464222
 21
357.2913792377517
  0
ARC
  8
_0-b_細線5
  6
CONTINUOUS
 62
    7
 10
875.88166667015503
 20
394.09137923775188
 40
1.6000000000000003
 50
89.999999999999915
 51
179.99999999999983
  0
ARC
  8
_0-b_細線5
  6
CONTINUOUS
 62
    7
 10
876.63038537627926
 20
397.29137923775124
 40
1.6000000000000003
 50
269.99999999999977
 51
330.00000000000591
  0
ARC
  8
_0-b_細線5
  6
CONTINUOUS
 62
    7
 10
879.40166666838923
 20
395.69137923775179
 40
1.6000000000000003
 50
89.999999999999915
 51
150.00000000000628
  0
LINE
  8
_0-b_細線5
  6
CONTINUOUS
 62
    7
 10
875.88166667015503
 20
395.69137923775179
 11
876.63038537627926
 21
395.69137923775179
  0
ARC
  8
_0-b_細線5
  6
CONTINUOUS
 62
    7
 10
890.92166666662388
 20
394.09137923775188
 40
1.6000000000000003
 50
0
 51
89.999999999999915
  0
ARC
  8
_0-b_細線5
  6
CONTINUOUS
 62
    7
 10
890.17294796049964
 20
397.29137923775124
 40
1.6000000000000003
 50
209.99999999999335
 51
269.99999999999977
  0
ARC
  8
_0-b_細線5
  6
CONTINUOUS
 62
    7
 10
887.40166666838923
 20
395.69137923775179
 40
1.6000000000000003
 50
29.999999999985572
 51
89.999999999999901
  0
LINE
  8
_0-b_細線5
  6
CONTINUOUS
 62
    7
 10
890.92166666662388
 20
395.69137923775179
 11
890.17294796049964
 21
395.69137923775179
  0
ARC
  8
_0-b_細線5
  6
CONTINUOUS
 62
    7
 10
875.08166667015576
 20
391.8513792377521
 40
0.8000000000000001
 50
179.99999999999983
 51
269.99999999999977
  0
LINE
  8
_0-b_細線5
  6
CONTINUOUS
 62
    7
 10
874.28166667015512
 20
394.09137923775188
 11
874.28166667015512
 21
391.8513792377521
  0
ARC
  8
_0-b_細線5
  6
CONTINUOUS
 62
    7
 10
891.72166666662406
 20
391.8513792377521
 40
0.8000000000000001
 50
269.99999999999977
 51
359.99999999999966
  0
LINE
  8
_0-b_細線5
  6
CONTINUOUS
 62
    7
 10
892.52166666662379
 20
394.09137923775188
 11
892.52166666662379
 21
391.8513792377521
  0
ARC
  8
_0-b_細線5
  6
CONTINUOUS
 62
    7
 10
879.08166667015485
 20
389.45137923775201
 40
1.6000000000000003
 50
0
 51
89.999999999999915
  0
LINE
  8
_0-b_細線5
  6
CONTINUOUS
 62
    7
 10
879.08166667015485
 20
391.05137923775146
 11
875.08166667015576
 21
391.05137923775146
  0
ARC
  8
_0-b_細線5
  6
CONTINUOUS
 62
    7
 10
887.72166667015517
 20
389.45137923775201
 40
1.6000000000000003
 50
89.999999999999915
 51
179.99999999999983
  0
LINE
  8
_0-b_細線5
  6
CONTINUOUS
 62
    7
 10
887.72166666662361
 20
391.05137923775146
 11
891.72166666662406
 21
391.05137923775146
  0
LINE
  8
_0-b_細線5
  6
CONTINUOUS
 62
    7
 10
887.40166666838923
 20
397.29137923775124
 11
879.40166666838923
 21
397.29137923775124
  0
LINE
  8
_0-b_細線5
  6
CONTINUOUS
 62
    7
 10
880.68166666838988
 20
357.2913792377517
 11
880.68166667015521
 21
389.45137923775201
  0
LINE
  8
_0-b_細線5
  6
CONTINUOUS
 62
    7
 10
886.12166666838948
 20
357.2913792377517
 11
886.12166667015572
 21
389.45137923775201
  0
LINE
  8
_0-b_細線5
  6
CONTINUOUS
 62
    7
 10
886.12166666838948
 20
357.2913792377517
 11
880.68166666838988
 21
357.2913792377517
  0
ARC
  8
_0-b_細線5
  6
CONTINUOUS
 62
    7
 10
903.08166667073419
 20
394.09137923775188
 40
1.6000000000000003
 50
89.999999999999915
 51
179.99999999999983
  0
ARC
  8
_0-b_細線5
  6
CONTINUOUS
 62
    7
 10
903.83038537685843
 20
397.29137923775124
 40
1.6000000000000003
 50
269.99999999999977
 51
330.00000000000591
  0
ARC
  8
_0-b_細線5
  6
CONTINUOUS
 62
    7
 10
906.60166666896839
 20
395.69137923775179
 40
1.6000000000000003
 50
89.999999999999915
 51
150.00000000000628
  0
LINE
  8
_0-b_細線5
  6
CONTINUOUS
 62
    7
 10
903.08166667073419
 20
395.69137923775179
 11
903.83038537685843
 21
395.69137923775179
  0
ARC
  8
_0-b_細線5
  6
CONTINUOUS
 62
    7
 10
918.12166666720259
 20
394.09137923775188
 40
1.6000000000000003
 50
0
 51
89.999999999999915
  0
ARC
  8
_0-b_細線5
  6
CONTINUOUS
 62
    7
 10
917.37294796107835
 20
397.29137923775124
 40
1.6000000000000003
 50
210.00000000000151
 51
269.99999999999977
  0
ARC
  8
_0-b_細線5
  6
CONTINUOUS
 62
    7
 10
914.60166666896839
 20
395.69137923775179
 40
1.6000000000000003
 50
29.999999999985572
 51
89.999999999999901
  0
LINE
  8
_0-b_細線5
  6
CONTINUOUS
 62
    7
 10
918.12166666720259
 20
395.69137923775179
 11
917.37294796107835
 21
395.69137923775179
  0
ARC
  8
_0-b_細線5
  6
CONTINUOUS
 62
    7
 10
902.28166667073401
 20
391.8513792377521
 40
0.8000000000000001
 50
179.99999999999983
 51
269.99999999999977
  0
LINE
  8
_0-b_細線5
  6
CONTINUOUS
 62
    7
 10
901.48166667073428
 20
394.09137923775188
 11
901.48166667073428
 21
391.8513792377521
  0
ARC
  8
_0-b_細線5
  6
CONTINUOUS
 62
    7
 10
918.92166666720277
 20
391.8513792377521
 40
0.8000000000000001
 50
269.99999999999977
 51
359.99999999999966
  0
LINE
  8
_0-b_細線5
  6
CONTINUOUS
 62
    7
 10
919.72166666720295
 20
394.09137923775188
 11
919.72166666720295
 21
391.8513792377521
  0
ARC
  8
_0-b_細線5
  6
CONTINUOUS
 62
    7
 10
906.28166667073401
 20
389.45137923775201
 40
1.6000000000000003
 50
0
 51
89.999999999999915
  0
LINE
  8
_0-b_細線5
  6
CONTINUOUS
 62
    7
 10
906.28166667073401
 20
391.05137923775146
 11
902.28166667073401
 21
391.05137923775146
  0
ARC
  8
_0-b_細線5
  6
CONTINUOUS
 62
    7
 10
914.92166667073434
 20
389.45137923775201
 40
1.6000000000000003
 50
89.999999999999915
 51
179.99999999999983
  0
LINE
  8
_0-b_細線5
  6
CONTINUOUS
 62
    7
 10
914.92166666720277
 20
391.05137923775146
 11
918.92166666720277
 21
391.05137923775146
  0
LINE
  8
_0-b_細線5
  6
CONTINUOUS
 62
    7
 10
914.60166666896839
 20
397.29137923775124
 11
906.60166666896839
 21
397.29137923775124
  0
LINE
  8
_0-b_細線5
  6
CONTINUOUS
 62
    7
 10
907.88166666896814
 20
357.2913792377517
 11
907.88166667073438
 21
389.45137923775201
  0
LINE
  8
_0-b_細線5
  6
CONTINUOUS
 62
    7
 10
913.32166666896865
 20
357.2913792377517
 11
913.32166667073443
 21
389.45137923775201
  0
LINE
  8
_0-b_細線5
  6
CONTINUOUS
 62
    7
 10
913.32166666896865
 20
357.2913792377517
 11
907.88166666896814
 21
357.2913792377517
  0
ARC
  8
_0-b_細線5
  6
CONTINUOUS
 62
    7
 10
658.28166666640709
 20
394.09137923775188
 40
1.6000000000000003
 50
89.999999999999915
 51
179.99999999999983
  0
ARC
  8
_0-b_細線5
  6
CONTINUOUS
 62
    7
 10
659.03038537253133
 20
397.29137923775124
 40
1.6000000000000003
 50
269.99999999999977
 51
330.00000000000591
  0
ARC
  8
_0-b_細線5
  6
CONTINUOUS
 62
    7
 10
661.80166666464174
 20
395.69137923775179
 40
1.6000000000000003
 50
89.999999999999915
 51
150.00000000001444
  0
LINE
  8
_0-b_細線5
  6
CONTINUOUS
 62
    7
 10
658.28166666640709
 20
395.69137923775179
 11
659.03038537253133
 21
395.69137923775179
  0
ARC
  8
_0-b_細線5
  6
CONTINUOUS
 62
    7
 10
673.32166666287594
 20
394.09137923775188
 40
1.6000000000000003
 50
0
 51
89.999999999999915
  0
ARC
  8
_0-b_細線5
  6
CONTINUOUS
 62
    7
 10
672.5729479567517
 20
397.29137923775124
 40
1.6000000000000003
 50
209.99999999998522
 51
269.99999999999977
  0
ARC
  8
_0-b_細線5
  6
CONTINUOUS
 62
    7
 10
669.80166666464129
 20
395.69137923775179
 40
1.6000000000000003
 50
29.999999999993712
 51
89.999999999983714
  0
LINE
  8
_0-b_細線5
  6
CONTINUOUS
 62
    7
 10
673.32166666287594
 20
395.69137923775179
 11
672.5729479567517
 21
395.69137923775179
  0
ARC
  8
_0-b_細線5
  6
CONTINUOUS
 62
    7
 10
657.48166666640736
 20
391.8513792377521
 40
0.8000000000000001
 50
179.99999999999983
 51
269.99999999999977
  0
LINE
  8
_0-b_細線5
  6
CONTINUOUS
 62
    7
 10
656.68166666640718
 20
394.09137923775188
 11
656.68166666640718
 21
391.8513792377521
  0
ARC
  8
_0-b_細線5
  6
CONTINUOUS
 62
    7
 10
674.12166666287612
 20
391.8513792377521
 40
0.8000000000000001
 50
269.99999999999977
 51
359.99999999999966
  0
LINE
  8
_0-b_細線5
  6
CONTINUOUS
 62
    7
 10
674.92166666287631
 20
394.09137923775188
 11
674.92166666287631
 21
391.8513792377521
  0
ARC
  8
_0-b_細線5
  6
CONTINUOUS
 62
    7
 10
661.48166666640736
 20
389.45137923775201
 40
1.6000000000000003
 50
0
 51
89.999999999999915
  0
LINE
  8
_0-b_細線5
  6
CONTINUOUS
 62
    7
 10
661.48166666640736
 20
391.05137923775146
 11
657.48166666640736
 21
391.05137923775146
  0
ARC
  8
_0-b_細線5
  6
CONTINUOUS
 62
    7
 10
670.12166666640724
 20
389.45137923775201
 40
1.6000000000000003
 50
89.999999999999915
 51
179.99999999999983
  0
LINE
  8
_0-b_細線5
  6
CONTINUOUS
 62
    7
 10
670.12166666287521
 20
391.05137923775146
 11
674.12166666287612
 21
391.05137923775146
  0
LINE
  8
_0-b_細線5
  6
CONTINUOUS
 62
    7
 10
669.80166666464129
 20
397.29137923775124
 11
661.80166666464174
 21
397.29137923775124
  0
LINE
  8
_0-b_細線5
  6
CONTINUOUS
 62
    7
 10
663.08166666464149
 20
357.2913792377517
 11
663.08166666640682
 21
389.45137923775201
  0
LINE
  8
_0-b_細線5
  6
CONTINUOUS
 62
    7
 10
668.52166666464154
 20
357.2913792377517
 11
668.52166666640733
 21
389.45137923775201
  0
LINE
  8
_0-b_細線5
  6
CONTINUOUS
 62
    7
 10
668.52166666464154
 20
357.2913792377517
 11
663.08166666464149
 21
357.2913792377517
  0
ARC
  8
_0-b_細線5
  6
CONTINUOUS
 62
    7
 10
930.28166667100913
 20
394.09137923775188
 40
1.6000000000000003
 50
89.999999999999915
 51
179.99999999999983
  0
ARC
  8
_0-b_細線5
  6
CONTINUOUS
 62
    7
 10
931.03038537713337
 20
397.29137923775124
 40
1.6000000000000003
 50
269.99999999999977
 51
330.00000000000591
  0
ARC
  8
_0-b_細線5
  6
CONTINUOUS
 62
    7
 10
933.80166666924288
 20
395.69137923775179
 40
1.6000000000000003
 50
89.999999999999915
 51
149.99999999999815
  0
LINE
  8
_0-b_細線5
  6
CONTINUOUS
 62
    7
 10
930.28166667100913
 20
395.69137923775179
 11
931.03038537713337
 21
395.69137923775179
  0
ARC
  8
_0-b_細線5
  6
CONTINUOUS
 62
    7
 10
945.32166666747753
 20
394.09137923775188
 40
1.6000000000000003
 50
0
 51
89.999999999999915
  0
ARC
  8
_0-b_細線5
  6
CONTINUOUS
 62
    7
 10
944.57294796135375
 20
397.29137923775124
 40
1.6000000000000003
 50
209.99999999998522
 51
269.99999999999977
  0
ARC
  8
_0-b_細線5
  6
CONTINUOUS
 62
    7
 10
941.80166666924333
 20
395.69137923775179
 40
1.6000000000000003
 50
29.999999999993712
 51
89.999999999983714
  0
LINE
  8
_0-b_細線5
  6
CONTINUOUS
 62
    7
 10
945.32166666747753
 20
395.69137923775179
 11
944.57294796135375
 21
395.69137923775179
  0
ARC
  8
_0-b_細線5
  6
CONTINUOUS
 62
    7
 10
929.48166667100895
 20
391.8513792377521
 40
0.8000000000000001
 50
179.99999999999983
 51
269.99999999999977
  0
LINE
  8
_0-b_細線5
  6
CONTINUOUS
 62
    7
 10
928.68166667100922
 20
394.09137923775188
 11
928.68166667100922
 21
391.8513792377521
  0
ARC
  8
_0-b_細線5
  6
CONTINUOUS
 62
    7
 10
946.12166666747817
 20
391.8513792377521
 40
0.8000000000000001
 50
269.99999999999977
 51
359.99999999999966
  0
LINE
  8
_0-b_細線5
  6
CONTINUOUS
 62
    7
 10
946.92166666747744
 20
394.09137923775188
 11
946.92166666747744
 21
391.8513792377521
  0
ARC
  8
_0-b_細線5
  6
CONTINUOUS
 62
    7
 10
933.48166667100941
 20
389.45137923775201
 40
1.6000000000000003
 50
0
 51
89.999999999999915
  0
LINE
  8
_0-b_細線5
  6
CONTINUOUS
 62
    7
 10
933.48166667100941
 20
391.05137923775146
 11
929.48166667100895
 21
391.05137923775146
  0
ARC
  8
_0-b_細線5
  6
CONTINUOUS
 62
    7
 10
942.12166667100928
 20
389.45137923775201
 40
1.6000000000000003
 50
89.999999999999915
 51
179.99999999999983
  0
LINE
  8
_0-b_細線5
  6
CONTINUOUS
 62
    7
 10
942.12166666747726
 20
391.05137923775146
 11
946.12166666747817
 21
391.05137923775146
  0
LINE
  8
_0-b_細線5
  6
CONTINUOUS
 62
    7
 10
941.80166666924333
 20
397.29137923775124
 11
933.80166666924288
 21
397.29137923775124
  0
LINE
  8
_0-b_細線5
  6
CONTINUOUS
 62
    7
 10
935.08166666924353
 20
357.2913792377517
 11
935.08166667100886
 21
389.45137923775201
  0
LINE
  8
_0-b_細線5
  6
CONTINUOUS
 62
    7
 10
940.52166666924359
 20
357.2913792377517
 11
940.52166667100937
 21
389.45137923775201
  0
LINE
  8
_0-b_細線5
  6
CONTINUOUS
 62
    7
 10
940.52166666924359
 20
357.2913792377517
 11
935.08166666924353
 21
357.2913792377517
  0
ARC
  8
_0-b_細線5
  6
CONTINUOUS
 62
    7
 10
957.48166667128407
 20
394.09137923775188
 40
1.6000000000000003
 50
89.999999999999915
 51
179.99999999999983
  0
ARC
  8
_0-b_細線5
  6
CONTINUOUS
 62
    7
 10
958.23038537740831
 20
397.29137923775124
 40
1.6000000000000003
 50
269.99999999999977
 51
329.99999999999778
  0
ARC
  8
_0-b_細線5
  6
CONTINUOUS
 62
    7
 10
961.00166666951827
 20
395.69137923775179
 40
1.6000000000000003
 50
89.999999999999915
 51
150.00000000001444
  0
LINE
  8
_0-b_細線5
  6
CONTINUOUS
 62
    7
 10
957.48166667128407
 20
395.69137923775179
 11
958.23038537740831
 21
395.69137923775179
  0
ARC
  8
_0-b_細線5
  6
CONTINUOUS
 62
    7
 10
972.52166666775247
 20
394.09137923775188
 40
1.6000000000000003
 50
0
 51
89.999999999999915
  0
ARC
  8
_0-b_細線5
  6
CONTINUOUS
 62
    7
 10
971.77294796162823
 20
397.29137923775124
 40
1.6000000000000003
 50
209.99999999999335
 51
269.99999999999977
  0
ARC
  8
_0-b_細線5
  6
CONTINUOUS
 62
    7
 10
969.00166666951827
 20
395.69137923775179
 40
1.6000000000000003
 50
29.999999999993712
 51
89.999999999999901
  0
LINE
  8
_0-b_細線5
  6
CONTINUOUS
 62
    7
 10
972.52166666775247
 20
395.69137923775179
 11
971.77294796162823
 21
395.69137923775179
  0
ARC
  8
_0-b_細線5
  6
CONTINUOUS
 62
    7
 10
956.68166667128389
 20
391.8513792377521
 40
0.8000000000000001
 50
179.99999999999983
 51
269.99999999999977
  0
LINE
  8
_0-b_細線5
  6
CONTINUOUS
 62
    7
 10
955.88166667128371
 20
394.09137923775188
 11
955.88166667128371
 21
391.8513792377521
  0
ARC
  8
_0-b_細線5
  6
CONTINUOUS
 62
    7
 10
973.32166666775265
 20
391.8513792377521
 40
0.8000000000000001
 50
269.99999999999977
 51
359.99999999999966
  0
LINE
  8
_0-b_細線5
  6
CONTINUOUS
 62
    7
 10
974.12166666775283
 20
394.09137923775188
 11
974.12166666775283
 21
391.8513792377521
  0
ARC
  8
_0-b_細線5
  6
CONTINUOUS
 62
    7
 10
960.68166667128389
 20
389.45137923775201
 40
1.6000000000000003
 50
0
 51
89.999999999999915
  0
LINE
  8
_0-b_細線5
  6
CONTINUOUS
 62
    7
 10
960.68166667128389
 20
391.05137923775146
 11
956.68166667128389
 21
391.05137923775146
  0
ARC
  8
_0-b_細線5
  6
CONTINUOUS
 62
    7
 10
969.32166667128422
 20
389.45137923775201
 40
1.6000000000000003
 50
89.999999999999915
 51
179.99999999999983
  0
LINE
  8
_0-b_細線5
  6
CONTINUOUS
 62
    7
 10
969.3216666677522
 20
391.05137923775146
 11
973.32166666775265
 21
391.05137923775146
  0
LINE
  8
_0-b_細線5
  6
CONTINUOUS
 62
    7
 10
969.00166666951827
 20
397.29137923775124
 11
961.00166666951827
 21
397.29137923775124
  0
LINE
  8
_0-b_細線5
  6
CONTINUOUS
 62
    7
 10
962.28166666951802
 20
357.2913792377517
 11
962.2816666712838
 21
389.45137923775201
  0
LINE
  8
_0-b_細線5
  6
CONTINUOUS
 62
    7
 10
967.72166666951853
 20
357.2913792377517
 11
967.72166667128386
 21
389.45137923775201
  0
LINE
  8
_0-b_細線5
  6
CONTINUOUS
 62
    7
 10
967.72166666951853
 20
357.2913792377517
 11
962.28166666951802
 21
357.2913792377517
  0
ARC
  8
_0-b_細線5
  6
CONTINUOUS
 62
    7
 10
984.68166667155856
 20
394.09137923775188
 40
1.6000000000000003
 50
89.999999999999915
 51
179.99999999999983
  0
ARC
  8
_0-b_細線5
  6
CONTINUOUS
 62
    7
 10
985.4303853776828
 20
397.29137923775124
 40
1.6000000000000003
 50
269.99999999999977
 51
330.00000000000591
  0
ARC
  8
_0-b_細線5
  6
CONTINUOUS
 62
    7
 10
988.20166666979276
 20
395.69137923775179
 40
1.6000000000000003
 50
89.999999999999915
 51
150.00000000000628
  0
LINE
  8
_0-b_細線5
  6
CONTINUOUS
 62
    7
 10
984.68166667155856
 20
395.69137923775179
 11
985.4303853776828
 21
395.69137923775179
  0
ARC
  8
_0-b_細線5
  6
CONTINUOUS
 62
    7
 10
999.72166666802786
 20
394.09137923775188
 40
1.6000000000000003
 50
0
 51
89.999999999999915
  0
ARC
  8
_0-b_細線5
  6
CONTINUOUS
 62
    7
 10
998.97294796190363
 20
397.29137923775124
 40
1.6000000000000003
 50
209.99999999998522
 51
269.99999999999977
  0
ARC
  8
_0-b_細線5
  6
CONTINUOUS
 62
    7
 10
996.20166666979321
 20
395.69137923775179
 40
1.6000000000000003
 50
29.999999999993712
 51
89.999999999999901
  0
LINE
  8
_0-b_細線5
  6
CONTINUOUS
 62
    7
 10
999.72166666802786
 20
395.69137923775179
 11
998.97294796190363
 21
395.69137923775179
  0
ARC
  8
_0-b_細線5
  6
CONTINUOUS
 62
    7
 10
983.88166667155883
 20
391.8513792377521
 40
0.8000000000000001
 50
179.99999999999983
 51
269.99999999999977
  0
LINE
  8
_0-b_細線5
  6
CONTINUOUS
 62
    7
 10
983.08166667155911
 20
394.09137923775188
 11
983.08166667155911
 21
391.8513792377521
  0
ARC
  8
_0-b_細線5
  6
CONTINUOUS
 62
    7
 10
1000.5216666680271
 20
391.8513792377521
 40
0.8000000000000001
 50
269.99999999999977
 51
359.99999999999966
  0
LINE
  8
_0-b_細線5
  6
CONTINUOUS
 62
    7
 10
1001.3216666680273
 20
394.09137923775188
 11
1001.3216666680273
 21
391.8513792377521
  0
ARC
  8
_0-b_細線5
  6
CONTINUOUS
 62
    7
 10
987.88166667155883
 20
389.45137923775201
 40
1.6000000000000003
 50
0
 51
89.999999999999915
  0
LINE
  8
_0-b_細線5
  6
CONTINUOUS
 62
    7
 10
987.88166667155883
 20
391.05137923775146
 11
983.88166667155883
 21
391.05137923775146
  0
ARC
  8
_0-b_細線5
  6
CONTINUOUS
 62
    7
 10
996.52166667155871
 20
389.45137923775201
 40
1.6000000000000003
 50
89.999999999999915
 51
179.99999999999983
  0
LINE
  8
_0-b_細線5
  6
CONTINUOUS
 62
    7
 10
996.52166666802714
 20
391.05137923775146
 11
1000.5216666680271
 21
391.05137923775146
  0
LINE
  8
_0-b_細線5
  6
CONTINUOUS
 62
    7
 10
996.20166666979321
 20
397.29137923775124
 11
988.20166666979276
 21
397.29137923775124
  0
LINE
  8
_0-b_細線5
  6
CONTINUOUS
 62
    7
 10
989.48166666979341
 20
357.2913792377517
 11
989.48166667155874
 21
389.45137923775201
  0
LINE
  8
_0-b_細線5
  6
CONTINUOUS
 62
    7
 10
994.92166666979301
 20
357.2913792377517
 11
994.92166667155925
 21
389.45137923775201
  0
LINE
  8
_0-b_細線5
  6
CONTINUOUS
 62
    7
 10
994.92166666979301
 20
357.2913792377517
 11
989.48166666979341
 21
357.2913792377517
  0
ARC
  8
_0-b_細線5
  6
CONTINUOUS
 62
    7
 10
646.1216669681744
 20
394.09137923775188
 40
1.6000000000000003
 50
0
 51
89.999999999999915
  0
ARC
  8
_0-b_細線5
  6
CONTINUOUS
 62
    7
 10
645.37294826205016
 20
397.29137923775124
 40
1.6000000000000003
 50
209.99999999999335
 51
269.99999999999977
  0
ARC
  8
_0-b_細線5
  6
CONTINUOUS
 62
    7
 10
642.6016669699402
 20
395.69137923775179
 40
1.6000000000000003
 50
29.999999999993712
 51
89.999999999999901
  0
LINE
  8
_0-b_細線5
  6
CONTINUOUS
 62
    7
 10
646.1216669681744
 20
395.69137923775179
 11
645.37294826205016
 21
395.69137923775179
  0
ARC
  8
_0-b_細線5
  6
CONTINUOUS
 62
    7
 10
631.08166697170554
 20
394.09137923775188
 40
1.6000000000000003
 50
89.999999999999915
 51
179.99999999999983
  0
ARC
  8
_0-b_細線5
  6
CONTINUOUS
 62
    7
 10
631.83038567782978
 20
397.29137923775124
 40
1.6000000000000003
 50
269.99999999999977
 51
330.00000000000591
  0
ARC
  8
_0-b_細線5
  6
CONTINUOUS
 62
    7
 10
634.6016669699402
 20
395.69137923775179
 40
1.6000000000000003
 50
90.000000000016286
 51
150.00000000001444
  0
LINE
  8
_0-b_細線5
  6
CONTINUOUS
 62
    7
 10
631.08166697170554
 20
395.69137923775179
 11
631.83038567782978
 21
395.69137923775179
  0
ARC
  8
_0-b_細線5
  6
CONTINUOUS
 62
    7
 10
646.92166696817412
 20
391.8513792377521
 40
0.8000000000000001
 50
269.99999999999977
 51
359.99999999999966
  0
LINE
  8
_0-b_細線5
  6
CONTINUOUS
 62
    7
 10
647.7216669681743
 20
394.09137923775188
 11
647.7216669681743
 21
391.8513792377521
  0
ARC
  8
_0-b_細線5
  6
CONTINUOUS
 62
    7
 10
630.28166697170582
 20
391.8513792377521
 40
0.8000000000000001
 50
179.99999999999983
 51
269.99999999999977
  0
LINE
  8
_0-b_細線5
  6
CONTINUOUS
 62
    7
 10
629.48166697170564
 20
394.09137923775188
 11
629.48166697170564
 21
391.8513792377521
  0
ARC
  8
_0-b_細線5
  6
CONTINUOUS
 62
    7
 10
642.92166696817412
 20
389.45137923775201
 40
1.6000000000000003
 50
89.999999999999915
 51
179.99999999999983
  0
LINE
  8
_0-b_細線5
  6
CONTINUOUS
 62
    7
 10
642.92166696817412
 20
391.05137923775146
 11
646.92166696817412
 21
391.05137923775146
  0
ARC
  8
_0-b_細線5
  6
CONTINUOUS
 62
    7
 10
634.28166696817425
 20
389.45137923775201
 40
1.6000000000000003
 50
0
 51
89.999999999999915
  0
LINE
  8
_0-b_細線5
  6
CONTINUOUS
 62
    7
 10
634.28166697170582
 20
391.05137923775146
 11
630.28166697170582
 21
391.05137923775146
  0
LINE
  8
_0-b_細線5
  6
CONTINUOUS
 62
    7
 10
634.6016669699402
 20
397.29137923775124
 11
642.6016669699402
 21
397.29137923775124
  0
LINE
  8
_0-b_細線5
  6
CONTINUOUS
 62
    7
 10
641.32166696994
 20
357.2913792377517
 11
641.32166696817421
 21
389.45137923775201
  0
LINE
  8
_0-b_細線5
  6
CONTINUOUS
 62
    7
 10
635.88166696993994
 20
357.2913792377517
 11
635.88166696817416
 21
389.45137923775201
  0
LINE
  8
_0-b_細線5
  6
CONTINUOUS
 62
    7
 10
635.88166696993994
 20
357.2913792377517
 11
641.32166696994
 21
357.2913792377517
  0
ARC
  8
_0-b_細線5
  6
CONTINUOUS
 62
    7
 10
618.92166696789945
 20
394.09137923775188
 40
1.6000000000000003
 50
0
 51
89.999999999999915
  0
ARC
  8
_0-b_細線5
  6
CONTINUOUS
 62
    7
 10
618.17294826177522
 20
397.29137923775124
 40
1.6000000000000003
 50
209.99999999999335
 51
269.99999999999977
  0
ARC
  8
_0-b_細線5
  6
CONTINUOUS
 62
    7
 10
615.40166696966526
 20
395.69137923775179
 40
1.6000000000000003
 50
29.999999999993712
 51
89.999999999999901
  0
LINE
  8
_0-b_細線5
  6
CONTINUOUS
 62
    7
 10
618.92166696789945
 20
395.69137923775179
 11
618.17294826177522
 21
395.69137923775179
  0
ARC
  8
_0-b_細線5
  6
CONTINUOUS
 62
    7
 10
603.88166697143106
 20
394.09137923775188
 40
1.6000000000000003
 50
89.999999999999915
 51
179.99999999999983
  0
ARC
  8
_0-b_細線5
  6
CONTINUOUS
 62
    7
 10
604.63038567755484
 20
397.29137923775124
 40
1.6000000000000003
 50
269.99999999999977
 51
330.0000000000141
  0
ARC
  8
_0-b_細線5
  6
CONTINUOUS
 62
    7
 10
607.40166696966526
 20
395.69137923775179
 40
1.6000000000000003
 50
90.000000000016286
 51
150.00000000000628
  0
LINE
  8
_0-b_細線5
  6
CONTINUOUS
 62
    7
 10
603.88166697143106
 20
395.69137923775179
 11
604.63038567755484
 21
395.69137923775179
  0
ARC
  8
_0-b_細線5
  6
CONTINUOUS
 62
    7
 10
619.72166696789964
 20
391.8513792377521
 40
0.8000000000000001
 50
269.99999999999977
 51
359.99999999999966
  0
LINE
  8
_0-b_細線5
  6
CONTINUOUS
 62
    7
 10
620.52166696789936
 20
394.09137923775188
 11
620.52166696789936
 21
391.8513792377521
  0
ARC
  8
_0-b_細線5
  6
CONTINUOUS
 62
    7
 10
603.08166697143042
 20
391.8513792377521
 40
0.8000000000000001
 50
179.99999999999983
 51
269.99999999999977
  0
LINE
  8
_0-b_細線5
  6
CONTINUOUS
 62
    7
 10
602.28166697143115
 20
394.09137923775188
 11
602.28166697143115
 21
391.8513792377521
  0
ARC
  8
_0-b_細線5
  6
CONTINUOUS
 62
    7
 10
615.72166696789918
 20
389.45137923775201
 40
1.6000000000000003
 50
89.999999999999915
 51
179.99999999999983
  0
LINE
  8
_0-b_細線5
  6
CONTINUOUS
 62
    7
 10
615.72166696789918
 20
391.05137923775146
 11
619.72166696789964
 21
391.05137923775146
  0
ARC
  8
_0-b_細線5
  6
CONTINUOUS
 62
    7
 10
607.08166696789931
 20
389.45137923775201
 40
1.6000000000000003
 50
0
 51
89.999999999999915
  0
LINE
  8
_0-b_細線5
  6
CONTINUOUS
 62
    7
 10
607.08166697143088
 20
391.05137923775146
 11
603.08166697143042
 21
391.05137923775146
  0
LINE
  8
_0-b_細線5
  6
CONTINUOUS
 62
    7
 10
607.40166696966526
 20
397.29137923775124
 11
615.40166696966526
 21
397.29137923775124
  0
LINE
  8
_0-b_細線5
  6
CONTINUOUS
 62
    7
 10
614.12166696966506
 20
357.2913792377517
 11
614.12166696789927
 21
389.45137923775201
  0
LINE
  8
_0-b_細線5
  6
CONTINUOUS
 62
    7
 10
608.681666969665
 20
357.2913792377517
 11
608.68166696789922
 21
389.45137923775201
  0
LINE
  8
_0-b_細線5
  6
CONTINUOUS
 62
    7
 10
608.681666969665
 20
357.2913792377517
 11
614.12166696966506
 21
357.2913792377517
  0
ARC
  8
_0-b_細線5
  6
CONTINUOUS
 62
    7
 10
591.72166696762451
 20
394.09137923775188
 40
1.6000000000000003
 50
0
 51
89.999999999999915
  0
ARC
  8
_0-b_細線5
  6
CONTINUOUS
 62
    7
 10
590.97294826150028
 20
397.29137923775124
 40
1.6000000000000003
 50
209.99999999999335
 51
269.99999999999977
  0
ARC
  8
_0-b_細線5
  6
CONTINUOUS
 62
    7
 10
588.20166696939032
 20
395.69137923775179
 40
1.6000000000000003
 50
29.999999999993712
 51
89.999999999999901
  0
LINE
  8
_0-b_細線5
  6
CONTINUOUS
 62
    7
 10
591.72166696762451
 20
395.69137923775179
 11
590.97294826150028
 21
395.69137923775179
  0
ARC
  8
_0-b_細線5
  6
CONTINUOUS
 62
    7
 10
576.68166697115566
 20
394.09137923775188
 40
1.6000000000000003
 50
89.999999999999915
 51
179.99999999999983
  0
ARC
  8
_0-b_細線5
  6
CONTINUOUS
 62
    7
 10
577.4303856772799
 20
397.29137923775124
 40
1.6000000000000003
 50
269.99999999999977
 51
330.0000000000141
  0
ARC
  8
_0-b_細線5
  6
CONTINUOUS
 62
    7
 10
580.20166696939032
 20
395.69137923775179
 40
1.6000000000000003
 50
90.000000000016286
 51
150.00000000000628
  0
LINE
  8
_0-b_細線5
  6
CONTINUOUS
 62
    7
 10
576.68166697115566
 20
395.69137923775179
 11
577.4303856772799
 21
395.69137923775179
  0
ARC
  8
_0-b_細線5
  6
CONTINUOUS
 62
    7
 10
592.5216669676247
 20
391.8513792377521
 40
0.8000000000000001
 50
269.99999999999977
 51
359.99999999999966
  0
LINE
  8
_0-b_細線5
  6
CONTINUOUS
 62
    7
 10
593.32166696762442
 20
394.09137923775188
 11
593.32166696762442
 21
391.8513792377521
  0
ARC
  8
_0-b_細線5
  6
CONTINUOUS
 62
    7
 10
575.88166697115594
 20
391.8513792377521
 40
0.8000000000000001
 50
179.99999999999983
 51
269.99999999999977
  0
LINE
  8
_0-b_細線5
  6
CONTINUOUS
 62
    7
 10
575.08166697115576
 20
394.09137923775188
 11
575.08166697115576
 21
391.8513792377521
  0
ARC
  8
_0-b_細線5
  6
CONTINUOUS
 62
    7
 10
588.5216669676247
 20
389.45137923775201
 40
1.6000000000000003
 50
89.999999999999915
 51
179.99999999999983
  0
LINE
  8
_0-b_細線5
  6
CONTINUOUS
 62
    7
 10
588.5216669676247
 20
391.05137923775146
 11
592.5216669676247
 21
391.05137923775146
  0
ARC
  8
_0-b_細線5
  6
CONTINUOUS
 62
    7
 10
579.88166696762437
 20
389.45137923775201
 40
1.6000000000000003
 50
0
 51
89.999999999999915
  0
LINE
  8
_0-b_細線5
  6
CONTINUOUS
 62
    7
 10
579.88166697115639
 20
391.05137923775146
 11
575.88166697115594
 21
391.05137923775146
  0
LINE
  8
_0-b_細線5
  6
CONTINUOUS
 62
    7
 10
580.20166696939032
 20
397.29137923775124
 11
588.20166696939032
 21
397.29137923775124
  0
LINE
  8
_0-b_細線5
  6
CONTINUOUS
 62
    7
 10
586.92166696939012
 20
357.2913792377517
 11
586.92166696762479
 21
389.45137923775201
  0
LINE
  8
_0-b_細線5
  6
CONTINUOUS
 62
    7
 10
581.48166696939006
 20
357.2913792377517
 11
581.48166696762428
 21
389.45137923775201
  0
LINE
  8
_0-b_細線5
  6
CONTINUOUS
 62
    7
 10
581.48166696939006
 20
357.2913792377517
 11
586.92166696939012
 21
357.2913792377517
  0
ARC
  8
_0-b_細線5
  6
CONTINUOUS
 62
    7
 10
564.52166696735003
 20
394.09137923775188
 40
1.6000000000000003
 50
0
 51
89.999999999999915
  0
ARC
  8
_0-b_細線5
  6
CONTINUOUS
 62
    7
 10
563.77294826122579
 20
397.29137923775124
 40
1.6000000000000003
 50
209.99999999999335
 51
269.99999999999977
  0
ARC
  8
_0-b_細線5
  6
CONTINUOUS
 62
    7
 10
561.00166696911538
 20
395.69137923775179
 40
1.6000000000000003
 50
29.999999999985572
 51
89.999999999999901
  0
LINE
  8
_0-b_細線5
  6
CONTINUOUS
 62
    7
 10
564.52166696735003
 20
395.69137923775179
 11
563.77294826122579
 21
395.69137923775179
  0
ARC
  8
_0-b_細線5
  6
CONTINUOUS
 62
    7
 10
549.48166697088072
 20
394.09137923775188
 40
1.6000000000000003
 50
89.999999999999915
 51
179.99999999999983
  0
ARC
  8
_0-b_細線5
  6
CONTINUOUS
 62
    7
 10
550.23038567700496
 20
397.29137923775124
 40
1.6000000000000003
 50
269.99999999999977
 51
330.0000000000141
  0
ARC
  8
_0-b_細線5
  6
CONTINUOUS
 62
    7
 10
553.00166696911538
 20
395.69137923775179
 40
1.6000000000000003
 50
89.999999999999915
 51
150.00000000000628
  0
LINE
  8
_0-b_細線5
  6
CONTINUOUS
 62
    7
 10
549.48166697088072
 20
395.69137923775179
 11
550.23038567700496
 21
395.69137923775179
  0
ARC
  8
_0-b_細線5
  6
CONTINUOUS
 62
    7
 10
565.32166696734976
 20
391.8513792377521
 40
0.8000000000000001
 50
269.99999999999977
 51
359.99999999999966
  0
LINE
  8
_0-b_細線5
  6
CONTINUOUS
 62
    7
 10
566.12166696734948
 20
394.09137923775188
 11
566.12166696734948
 21
391.8513792377521
  0
ARC
  8
_0-b_細線5
  6
CONTINUOUS
 62
    7
 10
548.681666970881
 20
391.8513792377521
 40
0.8000000000000001
 50
179.99999999999983
 51
269.99999999999977
  0
LINE
  8
_0-b_細線5
  6
CONTINUOUS
 62
    7
 10
547.88166697088127
 20
394.09137923775188
 11
547.88166697088127
 21
391.8513792377521
  0
ARC
  8
_0-b_細線5
  6
CONTINUOUS
 62
    7
 10
561.32166696734976
 20
389.45137923775201
 40
1.6000000000000003
 50
89.999999999999915
 51
179.99999999999983
  0
LINE
  8
_0-b_細線5
  6
CONTINUOUS
 62
    7
 10
561.32166696734976
 20
391.05137923775146
 11
565.32166696734976
 21
391.05137923775146
  0
ARC
  8
_0-b_細線5
  6
CONTINUOUS
 62
    7
 10
552.68166696734988
 20
389.45137923775201
 40
1.6000000000000003
 50
0
 51
89.999999999999915
  0
LINE
  8
_0-b_細線5
  6
CONTINUOUS
 62
    7
 10
552.68166697088145
 20
391.05137923775146
 11
548.681666970881
 21
391.05137923775146
  0
LINE
  8
_0-b_細線5
  6
CONTINUOUS
 62
    7
 10
553.00166696911538
 20
397.29137923775124
 11
561.00166696911538
 21
397.29137923775124
  0
LINE
  8
_0-b_細線5
  6
CONTINUOUS
 62
    7
 10
559.72166696911518
 20
357.2913792377517
 11
559.72166696734985
 21
389.45137923775201
  0
LINE
  8
_0-b_細線5
  6
CONTINUOUS
 62
    7
 10
554.28166696911558
 20
357.2913792377517
 11
554.28166696734934
 21
389.45137923775201
  0
LINE
  8
_0-b_細線5
  6
CONTINUOUS
 62
    7
 10
554.28166696911558
 20
357.2913792377517
 11
559.72166696911518
 21
357.2913792377517
  0
ARC
  8
_0-b_細線5
  6
CONTINUOUS
 62
    7
 10
510.60166666365649
 20
394.09137923775188
 40
1.6000000000000003
 50
0
 51
89.999999999999915
  0
ARC
  8
_0-b_細線5
  6
CONTINUOUS
 62
    7
 10
509.85294795753225
 20
397.29137923775124
 40
1.6000000000000003
 50
209.99999999999335
 51
269.99999999999977
  0
ARC
  8
_0-b_細線5
  6
CONTINUOUS
 62
    7
 10
507.08166666542229
 20
395.69137923775179
 40
1.6000000000000003
 50
29.999999999993712
 51
89.999999999999901
  0
LINE
  8
_0-b_細線5
  6
CONTINUOUS
 62
    7
 10
510.60166666365649
 20
395.69137923775179
 11
509.85294795753225
 21
395.69137923775179
  0
ARC
  8
_0-b_細線5
  6
CONTINUOUS
 62
    7
 10
495.56166666718764
 20
394.09137923775188
 40
1.6000000000000003
 50
89.999999999999915
 51
179.99999999999983
  0
ARC
  8
_0-b_細線5
  6
CONTINUOUS
 62
    7
 10
496.31038537331187
 20
397.29137923775124
 40
1.6000000000000003
 50
269.99999999999977
 51
330.0000000000141
  0
ARC
  8
_0-b_細線5
  6
CONTINUOUS
 62
    7
 10
499.08166666542229
 20
395.69137923775179
 40
1.6000000000000003
 50
90.000000000016286
 51
150.00000000000628
  0
LINE
  8
_0-b_細線5
  6
CONTINUOUS
 62
    7
 10
495.56166666718764
 20
395.69137923775179
 11
496.31038537331187
 21
395.69137923775179
  0
ARC
  8
_0-b_細線5
  6
CONTINUOUS
 62
    7
 10
511.40166666365621
 20
391.8513792377521
 40
0.8000000000000001
 50
269.99999999999977
 51
359.99999999999966
  0
LINE
  8
_0-b_細線5
  6
CONTINUOUS
 62
    7
 10
512.2016666636564
 20
394.09137923775188
 11
512.2016666636564
 21
391.8513792377521
  0
ARC
  8
_0-b_細線5
  6
CONTINUOUS
 62
    7
 10
494.76166666718746
 20
391.8513792377521
 40
0.8000000000000001
 50
179.99999999999983
 51
269.99999999999977
  0
LINE
  8
_0-b_細線5
  6
CONTINUOUS
 62
    7
 10
493.96166666718773
 20
394.09137923775188
 11
493.96166666718773
 21
391.8513792377521
  0
ARC
  8
_0-b_細線5
  6
CONTINUOUS
 62
    7
 10
507.40166666365621
 20
389.45137923775201
 40
1.6000000000000003
 50
89.999999999999915
 51
179.99999999999983
  0
LINE
  8
_0-b_細線5
  6
CONTINUOUS
 62
    7
 10
507.40166666365621
 20
391.05137923775146
 11
511.40166666365621
 21
391.05137923775146
  0
ARC
  8
_0-b_細線5
  6
CONTINUOUS
 62
    7
 10
498.76166666365634
 20
389.45137923775201
 40
1.6000000000000003
 50
0
 51
89.999999999999915
  0
LINE
  8
_0-b_細線5
  6
CONTINUOUS
 62
    7
 10
498.76166666718836
 20
391.05137923775146
 11
494.76166666718746
 21
391.05137923775146
  0
LINE
  8
_0-b_細線5
  6
CONTINUOUS
 62
    7
 10
499.08166666542229
 20
397.29137923775124
 11
507.08166666542229
 21
397.29137923775124
  0
LINE
  8
_0-b_細線5
  6
CONTINUOUS
 62
    7
 10
505.80166666542209
 20
357.2913792377517
 11
505.80166666365676
 21
389.45137923775201
  0
LINE
  8
_0-b_細線5
  6
CONTINUOUS
 62
    7
 10
500.36166666542204
 20
357.2913792377517
 11
500.36166666365625
 21
389.45137923775201
  0
LINE
  8
_0-b_細線5
  6
CONTINUOUS
 62
    7
 10
500.36166666542204
 20
357.2913792377517
 11
505.80166666542209
 21
357.2913792377517
  0
ARC
  8
_0-b_細線5
  6
CONTINUOUS
 62
    7
 10
484.04166666313586
 20
394.09137923775188
 40
1.6000000000000003
 50
0
 51
89.999999999999915
  0
ARC
  8
_0-b_細線5
  6
CONTINUOUS
 62
    7
 10
483.29294795701162
 20
397.29137923775124
 40
1.6000000000000003
 50
209.99999999999335
 51
269.99999999999977
  0
ARC
  8
_0-b_細線5
  6
CONTINUOUS
 62
    7
 10
480.52166666490211
 20
395.69137923775179
 40
1.6000000000000003
 50
30.000000000001855
 51
89.999999999999901
  0
LINE
  8
_0-b_細線5
  6
CONTINUOUS
 62
    7
 10
484.04166666313586
 20
395.69137923775179
 11
483.29294795701162
 21
395.69137923775179
  0
ARC
  8
_0-b_細線5
  6
CONTINUOUS
 62
    7
 10
469.00166666666701
 20
394.09137923775188
 40
1.6000000000000003
 50
89.999999999999915
 51
179.99999999999983
  0
ARC
  8
_0-b_細線5
  6
CONTINUOUS
 62
    7
 10
469.75038537279124
 20
397.29137923775124
 40
1.6000000000000003
 50
269.99999999999977
 51
330.0000000000141
  0
ARC
  8
_0-b_細線5
  6
CONTINUOUS
 62
    7
 10
472.52166666490166
 20
395.69137923775179
 40
1.6000000000000003
 50
90.000000000016286
 51
150.00000000000628
  0
LINE
  8
_0-b_細線5
  6
CONTINUOUS
 62
    7
 10
469.00166666666701
 20
395.69137923775179
 11
469.75038537279124
 21
395.69137923775179
  0
ARC
  8
_0-b_細線5
  6
CONTINUOUS
 62
    7
 10
484.84166666313604
 20
391.8513792377521
 40
0.8000000000000001
 50
269.99999999999977
 51
359.99999999999966
  0
LINE
  8
_0-b_細線5
  6
CONTINUOUS
 62
    7
 10
485.64166666313577
 20
394.09137923775188
 11
485.64166666313577
 21
391.8513792377521
  0
ARC
  8
_0-b_細線5
  6
CONTINUOUS
 62
    7
 10
468.20166666666682
 20
391.8513792377521
 40
0.8000000000000001
 50
179.99999999999983
 51
269.99999999999977
  0
LINE
  8
_0-b_細線5
  6
CONTINUOUS
 62
    7
 10
467.40166666666755
 20
394.09137923775188
 11
467.40166666666755
 21
391.8513792377521
  0
ARC
  8
_0-b_細線5
  6
CONTINUOUS
 62
    7
 10
480.84166666313558
 20
389.45137923775201
 40
1.6000000000000003
 50
89.999999999999915
 51
179.99999999999983
  0
LINE
  8
_0-b_細線5
  6
CONTINUOUS
 62
    7
 10
480.84166666313558
 20
391.05137923775146
 11
484.84166666313604
 21
391.05137923775146
  0
ARC
  8
_0-b_細線5
  6
CONTINUOUS
 62
    7
 10
472.20166666313571
 20
389.45137923775201
 40
1.6000000000000003
 50
0
 51
89.999999999999915
  0
LINE
  8
_0-b_細線5
  6
CONTINUOUS
 62
    7
 10
472.20166666666773
 20
391.05137923775146
 11
468.20166666666682
 21
391.05137923775146
  0
LINE
  8
_0-b_細線5
  6
CONTINUOUS
 62
    7
 10
472.52166666490166
 20
397.29137923775124
 11
480.52166666490211
 21
397.29137923775124
  0
LINE
  8
_0-b_細線5
  6
CONTINUOUS
 62
    7
 10
479.24166666490146
 20
357.2913792377517
 11
479.24166666313613
 21
389.45137923775201
  0
LINE
  8
_0-b_細線5
  6
CONTINUOUS
 62
    7
 10
473.8016666649014
 20
357.2913792377517
 11
473.80166666313562
 21
389.45137923775201
  0
LINE
  8
_0-b_細線5
  6
CONTINUOUS
 62
    7
 10
473.8016666649014
 20
357.2913792377517
 11
479.24166666490146
 21
357.2913792377517
  0
ARC
  8
_0-b_細線5
  6
CONTINUOUS
 62
    7
 10
537.32166666511876
 20
394.09137923775188
 40
1.6000000000000003
 50
0
 51
89.999999999999915
  0
ARC
  8
_0-b_細線5
  6
CONTINUOUS
 62
    7
 10
536.57294795899452
 20
397.29137923775124
 40
1.6000000000000003
 50
209.99999999998522
 51
269.99999999999977
  0
ARC
  8
_0-b_細線5
  6
CONTINUOUS
 62
    7
 10
533.8016666668841
 20
395.69137923775179
 40
1.6000000000000003
 50
29.999999999993712
 51
89.999999999999901
  0
LINE
  8
_0-b_細線5
  6
CONTINUOUS
 62
    7
 10
537.32166666511876
 20
395.69137923775179
 11
536.57294795899452
 21
395.69137923775179
  0
ARC
  8
_0-b_細線5
  6
CONTINUOUS
 62
    7
 10
522.28166666864945
 20
394.09137923775188
 40
1.6000000000000003
 50
89.999999999999915
 51
179.99999999999983
  0
ARC
  8
_0-b_細線5
  6
CONTINUOUS
 62
    7
 10
523.03038537477369
 20
397.29137923775124
 40
1.6000000000000003
 50
269.99999999999977
 51
330.0000000000141
  0
ARC
  8
_0-b_細線5
  6
CONTINUOUS
 62
    7
 10
525.80166666688365
 20
395.69137923775179
 40
1.6000000000000003
 50
89.999999999999915
 51
149.99999999999815
  0
LINE
  8
_0-b_細線5
  6
CONTINUOUS
 62
    7
 10
522.28166666864945
 20
395.69137923775179
 11
523.03038537477369
 21
395.69137923775179
  0
ARC
  8
_0-b_細線5
  6
CONTINUOUS
 62
    7
 10
538.12166666511803
 20
391.8513792377521
 40
0.8000000000000001
 50
269.99999999999977
 51
359.99999999999966
  0
LINE
  8
_0-b_細線5
  6
CONTINUOUS
 62
    7
 10
538.92166666511821
 20
394.09137923775188
 11
538.92166666511821
 21
391.8513792377521
  0
ARC
  8
_0-b_細線5
  6
CONTINUOUS
 62
    7
 10
521.48166666864972
 20
391.8513792377521
 40
0.8000000000000001
 50
179.99999999999983
 51
269.99999999999977
  0
LINE
  8
_0-b_細線5
  6
CONTINUOUS
 62
    7
 10
520.68166666865
 20
394.09137923775188
 11
520.68166666865
 21
391.8513792377521
  0
ARC
  8
_0-b_細線5
  6
CONTINUOUS
 62
    7
 10
534.12166666511803
 20
389.45137923775201
 40
1.6000000000000003
 50
89.999999999999915
 51
179.99999999999983
  0
LINE
  8
_0-b_細線5
  6
CONTINUOUS
 62
    7
 10
534.12166666511803
 20
391.05137923775146
 11
538.12166666511803
 21
391.05137923775146
  0
ARC
  8
_0-b_細線5
  6
CONTINUOUS
 62
    7
 10
525.48166666511861
 20
389.45137923775201
 40
1.6000000000000003
 50
0
 51
89.999999999999915
  0
LINE
  8
_0-b_細線5
  6
CONTINUOUS
 62
    7
 10
525.48166666865018
 20
391.05137923775146
 11
521.48166666864972
 21
391.05137923775146
  0
LINE
  8
_0-b_細線5
  6
CONTINUOUS
 62
    7
 10
525.80166666688365
 20
397.29137923775124
 11
533.8016666668841
 21
397.29137923775124
  0
LINE
  8
_0-b_細線5
  6
CONTINUOUS
 62
    7
 10
532.5216666668839
 20
357.2913792377517
 11
532.52166666511857
 21
389.45137923775201
  0
LINE
  8
_0-b_細線5
  6
CONTINUOUS
 62
    7
 10
527.0816666668843
 20
357.2913792377517
 11
527.08166666511806
 21
389.45137923775201
  0
LINE
  8
_0-b_細線5
  6
CONTINUOUS
 62
    7
 10
527.0816666668843
 20
357.2913792377517
 11
532.5216666668839
 21
357.2913792377517
  0
ARC
  8
_0-b_細線5
  6
CONTINUOUS
 62
    7
 10
1065.8016666696785
 20
394.09137923775188
 40
1.6000000000000003
 50
89.999999999999915
 51
179.99999999999983
  0
ARC
  8
_0-b_細線5
  6
CONTINUOUS
 62
    7
 10
1066.5503853758028
 20
397.29137923775124
 40
1.6000000000000003
 50
269.99999999999977
 51
330.0000000000141
  0
ARC
  8
_0-b_細線5
  6
CONTINUOUS
 62
    7
 10
1069.3216666679127
 20
395.69137923775179
 40
1.6000000000000003
 50
89.999999999999915
 51
149.99999999999815
  0
LINE
  8
_0-b_細線5
  6
CONTINUOUS
 62
    7
 10
1065.8016666696785
 20
395.69137923775179
 11
1066.5503853758028
 21
395.69137923775179
  0
ARC
  8
_0-b_細線5
  6
CONTINUOUS
 62
    7
 10
1080.8416666661478
 20
394.09137923775188
 40
1.6000000000000003
 50
0
 51
89.999999999999915
  0
ARC
  8
_0-b_細線5
  6
CONTINUOUS
 62
    7
 10
1080.0929479600236
 20
397.29137923775124
 40
1.6000000000000003
 50
209.99999999998522
 51
269.99999999999977
  0
ARC
  8
_0-b_細線5
  6
CONTINUOUS
 62
    7
 10
1077.3216666679127
 20
395.69137923775179
 40
1.6000000000000003
 50
29.999999999985572
 51
89.999999999967429
  0
LINE
  8
_0-b_細線5
  6
CONTINUOUS
 62
    7
 10
1080.8416666661478
 20
395.69137923775179
 11
1080.0929479600236
 21
395.69137923775179
  0
ARC
  8
_0-b_細線5
  6
CONTINUOUS
 62
    7
 10
1065.0016666696788
 20
391.8513792377521
 40
0.8000000000000001
 50
179.99999999999983
 51
269.99999999999977
  0
LINE
  8
_0-b_細線5
  6
CONTINUOUS
 62
    7
 10
1064.2016666696791
 20
394.09137923775188
 11
1064.2016666696791
 21
391.8513792377521
  0
ARC
  8
_0-b_細線5
  6
CONTINUOUS
 62
    7
 10
1081.6416666661476
 20
391.8513792377521
 40
0.8000000000000001
 50
269.99999999999977
 51
359.99999999999966
  0
LINE
  8
_0-b_細線5
  6
CONTINUOUS
 62
    7
 10
1082.4416666661473
 20
394.09137923775188
 11
1082.4416666661473
 21
391.8513792377521
  0
ARC
  8
_0-b_細線5
  6
CONTINUOUS
 62
    7
 10
1069.0016666696788
 20
389.45137923775201
 40
1.6000000000000003
 50
0
 51
89.999999999999915
  0
LINE
  8
_0-b_細線5
  6
CONTINUOUS
 62
    7
 10
1069.0016666696788
 20
391.05137923775146
 11
1065.0016666696788
 21
391.05137923775146
  0
ARC
  8
_0-b_細線5
  6
CONTINUOUS
 62
    7
 10
1077.6416666696787
 20
389.45137923775201
 40
1.6000000000000003
 50
89.999999999999915
 51
179.99999999999983
  0
LINE
  8
_0-b_細線5
  6
CONTINUOUS
 62
    7
 10
1077.6416666661471
 20
391.05137923775146
 11
1081.6416666661476
 21
391.05137923775146
  0
LINE
  8
_0-b_細線5
  6
CONTINUOUS
 62
    7
 10
1077.3216666679127
 20
397.29137923775124
 11
1069.3216666679127
 21
397.29137923775124
  0
LINE
  8
_0-b_細線5
  6
CONTINUOUS
 62
    7
 10
1070.6016666679134
 20
357.2913792377517
 11
1070.6016666696787
 21
389.45137923775201
  0
LINE
  8
_0-b_細線5
  6
CONTINUOUS
 62
    7
 10
1076.041666667913
 20
357.2913792377517
 11
1076.0416666696792
 21
389.45137923775201
  0
LINE
  8
_0-b_細線5
  6
CONTINUOUS
 62
    7
 10
1076.041666667913
 20
357.2913792377517
 11
1070.6016666679134
 21
357.2913792377517
  0
ARC
  8
_0-b_細線5
  6
CONTINUOUS
 62
    7
 10
1092.3616666701992
 20
394.09137923775188
 40
1.6000000000000003
 50
89.999999999999915
 51
179.99999999999983
  0
ARC
  8
_0-b_細線5
  6
CONTINUOUS
 62
    7
 10
1093.1103853763234
 20
397.29137923775124
 40
1.6000000000000003
 50
269.99999999999977
 51
330.0000000000141
  0
ARC
  8
_0-b_細線5
  6
CONTINUOUS
 62
    7
 10
1095.8816666684334
 20
395.69137923775179
 40
1.6000000000000003
 50
89.999999999999915
 51
149.99999999999815
  0
LINE
  8
_0-b_細線5
  6
CONTINUOUS
 62
    7
 10
1092.3616666701992
 20
395.69137923775179
 11
1093.1103853763234
 21
395.69137923775179
  0
ARC
  8
_0-b_細線5
  6
CONTINUOUS
 62
    7
 10
1107.401666666668
 20
394.09137923775188
 40
1.6000000000000003
 50
0
 51
89.999999999999915
  0
ARC
  8
_0-b_細線5
  6
CONTINUOUS
 62
    7
 10
1106.6529479605438
 20
397.29137923775124
 40
1.6000000000000003
 50
209.99999999999335
 51
269.99999999999977
  0
ARC
  8
_0-b_細線5
  6
CONTINUOUS
 62
    7
 10
1103.8816666684334
 20
395.69137923775179
 40
1.6000000000000003
 50
29.999999999985572
 51
89.999999999967429
  0
LINE
  8
_0-b_細線5
  6
CONTINUOUS
 62
    7
 10
1107.401666666668
 20
395.69137923775179
 11
1106.6529479605438
 21
395.69137923775179
  0
ARC
  8
_0-b_細線5
  6
CONTINUOUS
 62
    7
 10
1091.561666670199
 20
391.8513792377521
 40
0.8000000000000001
 50
179.99999999999983
 51
269.99999999999977
  0
LINE
  8
_0-b_細線5
  6
CONTINUOUS
 62
    7
 10
1090.7616666701997
 20
394.09137923775188
 11
1090.7616666701997
 21
391.8513792377521
  0
ARC
  8
_0-b_細線5
  6
CONTINUOUS
 62
    7
 10
1108.2016666666682
 20
391.8513792377521
 40
0.8000000000000001
 50
269.99999999999977
 51
359.99999999999966
  0
LINE
  8
_0-b_細線5
  6
CONTINUOUS
 62
    7
 10
1109.0016666666679
 20
394.09137923775188
 11
1109.0016666666679
 21
391.8513792377521
  0
ARC
  8
_0-b_細線5
  6
CONTINUOUS
 62
    7
 10
1095.5616666701999
 20
389.45137923775201
 40
1.6000000000000003
 50
0
 51
89.999999999999915
  0
LINE
  8
_0-b_細線5
  6
CONTINUOUS
 62
    7
 10
1095.5616666701999
 20
391.05137923775146
 11
1091.561666670199
 21
391.05137923775146
  0
ARC
  8
_0-b_細線5
  6
CONTINUOUS
 62
    7
 10
1104.2016666701993
 20
389.45137923775201
 40
1.6000000000000003
 50
89.999999999999915
 51
179.99999999999983
  0
LINE
  8
_0-b_細線5
  6
CONTINUOUS
 62
    7
 10
1104.2016666666677
 20
391.05137923775146
 11
1108.2016666666682
 21
391.05137923775146
  0
LINE
  8
_0-b_細線5
  6
CONTINUOUS
 62
    7
 10
1103.8816666684334
 20
397.29137923775124
 11
1095.8816666684334
 21
397.29137923775124
  0
LINE
  8
_0-b_細線5
  6
CONTINUOUS
 62
    7
 10
1097.1616666684336
 20
357.2913792377517
 11
1097.1616666701993
 21
389.45137923775201
  0
LINE
  8
_0-b_細線5
  6
CONTINUOUS
 62
    7
 10
1102.6016666684336
 20
357.2913792377517
 11
1102.6016666701998
 21
389.45137923775201
  0
LINE
  8
_0-b_細線5
  6
CONTINUOUS
 62
    7
 10
1102.6016666684336
 20
357.2913792377517
 11
1097.1616666684336
 21
357.2913792377517
  0
ARC
  8
_0-b_細線5
  6
CONTINUOUS
 62
    7
 10
1011.8816666688249
 20
394.09137923775188
 40
1.6000000000000003
 50
89.999999999999915
 51
179.99999999999983
  0
ARC
  8
_0-b_細線5
  6
CONTINUOUS
 62
    7
 10
1012.6303853749491
 20
397.29137923775124
 40
1.6000000000000003
 50
269.99999999999977
 51
330.00000000000591
  0
ARC
  8
_0-b_細線5
  6
CONTINUOUS
 62
    7
 10
1015.4016666670591
 20
395.69137923775179
 40
1.6000000000000003
 50
89.999999999999915
 51
150.00000000000628
  0
LINE
  8
_0-b_細線5
  6
CONTINUOUS
 62
    7
 10
1011.8816666688249
 20
395.69137923775179
 11
1012.6303853749491
 21
395.69137923775179
  0
ARC
  8
_0-b_細線5
  6
CONTINUOUS
 62
    7
 10
1026.9216666652937
 20
394.09137923775188
 40
1.6000000000000003
 50
0
 51
89.999999999999915
  0
ARC
  8
_0-b_細線5
  6
CONTINUOUS
 62
    7
 10
1026.1729479591695
 20
397.29137923775124
 40
1.6000000000000003
 50
209.99999999999335
 51
269.99999999999977
  0
ARC
  8
_0-b_細線5
  6
CONTINUOUS
 62
    7
 10
1023.4016666670591
 20
395.69137923775179
 40
1.6000000000000003
 50
29.999999999985572
 51
89.999999999983714
  0
LINE
  8
_0-b_細線5
  6
CONTINUOUS
 62
    7
 10
1026.9216666652937
 20
395.69137923775179
 11
1026.1729479591695
 21
395.69137923775179
  0
ARC
  8
_0-b_細線5
  6
CONTINUOUS
 62
    7
 10
1011.0816666688252
 20
391.8513792377521
 40
0.8000000000000001
 50
179.99999999999983
 51
269.99999999999977
  0
LINE
  8
_0-b_細線5
  6
CONTINUOUS
 62
    7
 10
1010.281666668825
 20
394.09137923775188
 11
1010.281666668825
 21
391.8513792377521
  0
ARC
  8
_0-b_細線5
  6
CONTINUOUS
 62
    7
 10
1027.7216666652939
 20
391.8513792377521
 40
0.8000000000000001
 50
269.99999999999977
 51
359.99999999999966
  0
LINE
  8
_0-b_細線5
  6
CONTINUOUS
 62
    7
 10
1028.5216666652937
 20
394.09137923775188
 11
1028.5216666652937
 21
391.8513792377521
  0
ARC
  8
_0-b_細線5
  6
CONTINUOUS
 62
    7
 10
1015.0816666688252
 20
389.45137923775201
 40
1.6000000000000003
 50
0
 51
89.999999999999915
  0
LINE
  8
_0-b_細線5
  6
CONTINUOUS
 62
    7
 10
1015.0816666688252
 20
391.05137923775146
 11
1011.0816666688252
 21
391.05137923775146
  0
ARC
  8
_0-b_細線5
  6
CONTINUOUS
 62
    7
 10
1023.721666668825
 20
389.45137923775201
 40
1.6000000000000003
 50
89.999999999999915
 51
179.99999999999983
  0
LINE
  8
_0-b_細線5
  6
CONTINUOUS
 62
    7
 10
1023.7216666652935
 20
391.05137923775146
 11
1027.7216666652939
 21
391.05137923775146
  0
LINE
  8
_0-b_細線5
  6
CONTINUOUS
 62
    7
 10
1023.4016666670591
 20
397.29137923775124
 11
1015.4016666670591
 21
397.29137923775124
  0
LINE
  8
_0-b_細線5
  6
CONTINUOUS
 62
    7
 10
1016.6816666670593
 20
357.2913792377517
 11
1016.6816666688251
 21
389.45137923775201
  0
LINE
  8
_0-b_細線5
  6
CONTINUOUS
 62
    7
 10
1022.1216666670593
 20
357.2913792377517
 11
1022.1216666688251
 21
389.45137923775201
  0
LINE
  8
_0-b_細線5
  6
CONTINUOUS
 62
    7
 10
1022.1216666670593
 20
357.2913792377517
 11
1016.6816666670593
 21
357.2913792377517
  0
ARC
  8
_0-b_細線5
  6
CONTINUOUS
 62
    7
 10
1039.0816666690998
 20
394.09137923775188
 40
1.6000000000000003
 50
89.999999999999915
 51
179.99999999999983
  0
ARC
  8
_0-b_細線5
  6
CONTINUOUS
 62
    7
 10
1039.8303853752241
 20
397.29137923775124
 40
1.6000000000000003
 50
269.99999999999977
 51
330.00000000000591
  0
ARC
  8
_0-b_細線5
  6
CONTINUOUS
 62
    7
 10
1042.601666667334
 20
395.69137923775179
 40
1.6000000000000003
 50
89.999999999999915
 51
150.00000000000628
  0
LINE
  8
_0-b_細線5
  6
CONTINUOUS
 62
    7
 10
1039.0816666690998
 20
395.69137923775179
 11
1039.8303853752241
 21
395.69137923775179
  0
ARC
  8
_0-b_細線5
  6
CONTINUOUS
 62
    7
 10
1054.1216666655687
 20
394.09137923775188
 40
1.6000000000000003
 50
0
 51
89.999999999999915
  0
ARC
  8
_0-b_細線5
  6
CONTINUOUS
 62
    7
 10
1053.3729479594444
 20
397.29137923775124
 40
1.6000000000000003
 50
209.99999999999335
 51
269.99999999999977
  0
ARC
  8
_0-b_細線5
  6
CONTINUOUS
 62
    7
 10
1050.6016666673345
 20
395.69137923775179
 40
1.6000000000000003
 50
29.999999999993712
 51
89.999999999999901
  0
LINE
  8
_0-b_細線5
  6
CONTINUOUS
 62
    7
 10
1054.1216666655687
 20
395.69137923775179
 11
1053.3729479594444
 21
395.69137923775179
  0
ARC
  8
_0-b_細線5
  6
CONTINUOUS
 62
    7
 10
1038.2816666691001
 20
391.8513792377521
 40
0.8000000000000001
 50
179.99999999999983
 51
269.99999999999977
  0
LINE
  8
_0-b_細線5
  6
CONTINUOUS
 62
    7
 10
1037.4816666690999
 20
394.09137923775188
 11
1037.4816666690999
 21
391.8513792377521
  0
ARC
  8
_0-b_細線5
  6
CONTINUOUS
 62
    7
 10
1054.9216666655684
 20
391.8513792377521
 40
0.8000000000000001
 50
269.99999999999977
 51
359.99999999999966
  0
LINE
  8
_0-b_細線5
  6
CONTINUOUS
 62
    7
 10
1055.7216666655686
 20
394.09137923775188
 11
1055.7216666655686
 21
391.8513792377521
  0
ARC
  8
_0-b_細線5
  6
CONTINUOUS
 62
    7
 10
1042.2816666691001
 20
389.45137923775201
 40
1.6000000000000003
 50
0
 51
89.999999999999915
  0
LINE
  8
_0-b_細線5
  6
CONTINUOUS
 62
    7
 10
1042.2816666691001
 20
391.05137923775146
 11
1038.2816666691001
 21
391.05137923775146
  0
ARC
  8
_0-b_細線5
  6
CONTINUOUS
 62
    7
 10
1050.9216666691
 20
389.45137923775201
 40
1.6000000000000003
 50
89.999999999999915
 51
179.99999999999983
  0
LINE
  8
_0-b_細線5
  6
CONTINUOUS
 62
    7
 10
1050.921666665568
 20
391.05137923775146
 11
1054.9216666655684
 21
391.05137923775146
  0
LINE
  8
_0-b_細線5
  6
CONTINUOUS
 62
    7
 10
1050.6016666673345
 20
397.29137923775124
 11
1042.601666667334
 21
397.29137923775124
  0
LINE
  8
_0-b_細線5
  6
CONTINUOUS
 62
    7
 10
1043.8816666673342
 20
357.2913792377517
 11
1043.8816666690996
 21
389.45137923775201
  0
LINE
  8
_0-b_細線5
  6
CONTINUOUS
 62
    7
 10
1049.3216666673343
 20
357.2913792377517
 11
1049.3216666691001
 21
389.45137923775201
  0
LINE
  8
_0-b_細線5
  6
CONTINUOUS
 62
    7
 10
1049.3216666673343
 20
357.2913792377517
 11
1043.8816666673342
 21
357.2913792377517
  0
LINE
  8
_0-a_極細5
  6
CENTER1
 62
    7
 10
788.20166666666773
 20
349.75333333333106
 11
788.20166666666773
 21
410.665333333337
  0
LINE
  8
_0-d_寸法5
  6
CONTINUOUS
 62
    7
 10
761.49523395775441
 20
366.46860221936822
 11
730.1782724428208
 21
388.39697474594777
  0
LINE
  8
_0-d_寸法5
  6
CONTINUOUS
 62
    7
 10
736.7314887971329
 20
383.80836325513928
 11
732.59038407549269
 21
399.26317647576434
  0
LINE
  8
_0-d_寸法5
  6
CONTINUOUS
 62
    7
 10
736.7314887971329
 20
383.80836325513928
 11
740.8725935187731
 21
399.26317647576434
  0
LINE
  8
_0-d_寸法5
  6
CONTINUOUS
 62
    7
 10
761.49523395775441
 20
406.46860221936822
 11
730.17827244282125
 21
428.39697474594868
  0
LINE
  8
_0-d_寸法5
  6
CONTINUOUS
 62
    7
 10
736.7314887971329
 20
423.80836325514019
 11
740.8725935187731
 21
408.35355003451514
  0
LINE
  8
_0-d_寸法5
  6
CONTINUOUS
 62
    7
 10
736.7314887971329
 20
423.80836325514019
 11
732.59038407549269
 21
408.35355003451514
  0
LINE
  8
_0-d_寸法5
  6
CONTINUOUS
 62
    7
 10
736.7314887971329
 20
383.80836325513928
 11
736.7314887971329
 21
423.80836325514019
  0
TEXT
  8
_0-d_寸法5
 62
    7
 10
736.7314887971329
 20
397.51279995081177
 40
24
 41
1
 50
90
  1
25
  0
TEXT
  8
_0-7_枠細線
 62
    5
 10
1536.8000000000002
 20
176
 40
32
 41
0.6
 50
0
  1
ＧＲＳＫ－２５Ｗ４００　ＳＥＴ
  0
LINE
  8
_0-b_細線5
  6
CONTINUOUS
 62
    7
 10
831.72166666841895
 20
368.97137923775182
 11
853.48166666841917
 21
368.97137923775182
  0
LINE
  8
_0-b_細線5
  6
CONTINUOUS
 62
    7
 10
804.52166666783978
 20
368.97137923775182
 11
826.28166666784
 21
368.97137923775182
  0
LINE
  8
_0-b_細線5
  6
CONTINUOUS
 62
    7
 10
750.12166666668236
 20
368.97137923775182
 11
771.88166666668212
 21
368.97137923775182
  0
LINE
  8
_0-b_細線5
  6
CONTINUOUS
 62
    7
 10
722.92166666610365
 20
368.97137923775182
 11
744.68166666610341
 21
368.97137923775182
  0
LINE
  8
_0-b_細線5
  6
CONTINUOUS
 62
    7
 10
695.72166666552403
 20
368.97137923775182
 11
717.4816666655247
 21
368.97137923775182
  0
LINE
  8
_0-b_細線5
  6
CONTINUOUS
 62
    7
 10
858.92166666869343
 20
368.97137923775182
 11
880.68166666869365
 21
368.97137923775182
  0
LINE
  8
_0-b_細線5
  6
CONTINUOUS
 62
    7
 10
886.12166666927214
 20
368.97137923775182
 11
907.88166666927282
 21
368.97137923775182
  0
LINE
  8
_0-b_細線5
  6
CONTINUOUS
 62
    7
 10
668.52166666552421
 20
368.97137923775182
 11
690.28166666552443
 21
368.97137923775182
  0
LINE
  8
_0-b_細線5
  6
CONTINUOUS
 62
    7
 10
913.32166666954708
 20
368.97137923775182
 11
935.0816666695473
 21
368.97137923775182
  0
LINE
  8
_0-b_細線5
  6
CONTINUOUS
 62
    7
 10
940.52166666982248
 20
368.97137923775182
 11
962.2816666698227
 21
368.97137923775182
  0
LINE
  8
_0-b_細線5
  6
CONTINUOUS
 62
    7
 10
967.72166667009742
 20
368.97137923775182
 11
989.48166667009764
 21
368.97137923775182
  0
LINE
  8
_0-b_細線5
  6
CONTINUOUS
 62
    7
 10
831.72166666841895
 20
389.77137923775155
 11
853.48166666841917
 21
389.77137923775155
  0
LINE
  8
_0-b_細線5
  6
CONTINUOUS
 62
    7
 10
804.52166666784024
 20
389.77137923775155
 11
826.28166666784
 21
389.77137923775155
  0
LINE
  8
_0-b_細線5
  6
CONTINUOUS
 62
    7
 10
750.12166666668236
 20
389.77137923775155
 11
771.88166666668258
 21
389.77137923775155
  0
LINE
  8
_0-b_細線5
  6
CONTINUOUS
 62
    7
 10
722.9216666661041
 20
389.77137923775155
 11
744.68166666610387
 21
389.77137923775155
  0
LINE
  8
_0-b_細線5
  6
CONTINUOUS
 62
    7
 10
695.72166666552448
 20
389.77137923775155
 11
717.4816666655247
 21
389.77137923775155
  0
LINE
  8
_0-b_細線5
  6
CONTINUOUS
 62
    7
 10
858.92166666869343
 20
389.77137923775155
 11
880.68166666869365
 21
389.77137923775155
  0
LINE
  8
_0-b_細線5
  6
CONTINUOUS
 62
    7
 10
886.1216666692726
 20
389.77137923775155
 11
907.88166666927282
 21
389.77137923775155
  0
LINE
  8
_0-b_細線5
  6
CONTINUOUS
 62
    7
 10
668.52166666552421
 20
389.77137923775155
 11
690.28166666552443
 21
389.77137923775155
  0
LINE
  8
_0-b_細線5
  6
CONTINUOUS
 62
    7
 10
913.32166666954708
 20
389.77137923775155
 11
935.0816666695473
 21
389.77137923775155
  0
LINE
  8
_0-b_細線5
  6
CONTINUOUS
 62
    7
 10
940.52166666982248
 20
389.77137923775155
 11
962.2816666698227
 21
389.77137923775155
  0
LINE
  8
_0-b_細線5
  6
CONTINUOUS
 62
    7
 10
967.72166667009697
 20
389.77137923775155
 11
989.48166667009718
 21
389.77137923775155
  0
LINE
  8
_0-b_細線5
  6
CONTINUOUS
 62
    7
 10
663.08166696963644
 20
368.97137923775182
 11
641.32166696963577
 21
368.97137923775182
  0
LINE
  8
_0-b_細線5
  6
CONTINUOUS
 62
    7
 10
635.88166696936105
 20
368.97137923775182
 11
614.12166696936129
 21
368.97137923775182
  0
LINE
  8
_0-b_細線5
  6
CONTINUOUS
 62
    7
 10
608.68166696908565
 20
368.97137923775182
 11
586.92166696908589
 21
368.97137923775182
  0
LINE
  8
_0-b_細線5
  6
CONTINUOUS
 62
    7
 10
581.48166696881117
 20
368.97137923775182
 11
559.72166696881095
 21
368.97137923775182
  0
LINE
  8
_0-b_細線5
  6
CONTINUOUS
 62
    7
 10
663.08166696963599
 20
389.77137923775155
 11
641.32166696963577
 21
389.77137923775155
  0
LINE
  8
_0-b_細線5
  6
CONTINUOUS
 62
    7
 10
635.88166696936105
 20
389.77137923775155
 11
614.12166696936083
 21
389.77137923775155
  0
LINE
  8
_0-b_細線5
  6
CONTINUOUS
 62
    7
 10
608.68166696908611
 20
389.77137923775155
 11
586.92166696908589
 21
389.77137923775155
  0
LINE
  8
_0-b_細線5
  6
CONTINUOUS
 62
    7
 10
581.48166696881117
 20
389.77137923775155
 11
559.72166696881095
 21
389.77137923775155
  0
LINE
  8
_0-b_細線5
  6
CONTINUOUS
 62
    7
 10
527.08166666511761
 20
368.97137923775182
 11
505.80166666511786
 21
368.97137923775182
  0
LINE
  8
_0-b_細線5
  6
CONTINUOUS
 62
    7
 10
527.08166666511806
 20
389.77137923775155
 11
505.80166666511786
 21
389.77137923775155
  0
LINE
  8
_0-b_細線5
  6
CONTINUOUS
 62
    7
 10
500.36166666484314
 20
368.97137923775182
 11
479.2416666648428
 21
368.97137923775182
  0
LINE
  8
_0-b_細線5
  6
CONTINUOUS
 62
    7
 10
500.36166666484314
 20
389.77137923775155
 11
479.24166666484325
 21
389.77137923775155
  0
LINE
  8
_0-b_細線5
  6
CONTINUOUS
 62
    7
 10
554.28166666657944
 20
368.97137923775182
 11
532.52166666657922
 21
368.97137923775182
  0
LINE
  8
_0-b_細線5
  6
CONTINUOUS
 62
    7
 10
554.28166666657989
 20
389.77137923775155
 11
532.52166666657968
 21
389.77137923775155
  0
LINE
  8
_0-b_細線5
  6
CONTINUOUS
 62
    7
 10
1049.3216666682174
 20
368.97137923775182
 11
1070.6016666682171
 21
368.97137923775182
  0
LINE
  8
_0-b_細線5
  6
CONTINUOUS
 62
    7
 10
1049.3216666682174
 20
389.77137923775155
 11
1070.6016666682171
 21
389.77137923775155
  0
LINE
  8
_0-b_細線5
  6
CONTINUOUS
 62
    7
 10
1076.0416666684923
 20
368.97137923775182
 11
1097.1616666684922
 21
368.97137923775182
  0
LINE
  8
_0-b_細線5
  6
CONTINUOUS
 62
    7
 10
1076.0416666684923
 20
389.77137923775155
 11
1097.1616666684922
 21
389.77137923775155
  0
LINE
  8
_0-b_細線5
  6
CONTINUOUS
 62
    7
 10
994.92166666736375
 20
368.97137923775182
 11
1016.6816666673635
 21
368.97137923775182
  0
LINE
  8
_0-b_細線5
  6
CONTINUOUS
 62
    7
 10
1022.1216666676387
 20
368.97137923775182
 11
1043.8816666676389
 21
368.97137923775182
  0
LINE
  8
_0-b_細線5
  6
CONTINUOUS
 62
    7
 10
994.9216666673633
 20
389.77137923775155
 11
1016.6816666673635
 21
389.77137923775155
  0
LINE
  8
_0-b_細線5
  6
CONTINUOUS
 62
    7
 10
1022.1216666676382
 20
389.77137923775155
 11
1043.8816666676385
 21
389.77137923775155
  0
LINE
  8
_0-b_細線5
  6
CONTINUOUS
 62
    7
 10
472.20166666444868
 20
379.37137923775146
 11
467.3944410644491
 21
379.37137923775146
  0
LINE
  8
_0-b_細線5
  6
CONTINUOUS
 62
    7
 10
472.20166666444868
 20
373.771379237752
 11
467.39442186444978
 21
373.771379237752
  0
ARC
  8
_0-b_細線5
  6
CONTINUOUS
 62
    7
 10
467.39442186444978
 20
374.09137923775171
 40
0.3200000000000001
 50
179.99999999999983
 51
269.99999999999977
  0
ARC
  8
_0-b_細線5
  6
CONTINUOUS
 62
    7
 10
479.48718986444885
 20
376.57114563775241
 40
12.4127296
 50
166.96197800000544
 51
193.03567000000001
  0
ARC
  8
_0-b_細線5
  6
CONTINUOUS
 62
    7
 10
467.39442186444978
 20
384.65137923775256
 40
0.3200000000000001
 50
89.999999999999915
 51
179.99999999999983
  0
ARC
  8
_0-b_細線5
  6
CONTINUOUS
 62
    7
 10
479.48718986444885
 20
382.17160963775115
 40
12.4127296
 50
166.96432999999965
 51
193.03802199999825
  0
LINE
  8
_0-b_細線5
  6
CONTINUOUS
 62
    7
 10
472.20166666444868
 20
384.97137923775227
 11
467.39442186444978
 21
384.97137923775227
  0
LINE
  8
_0-b_細線5
  6
CONTINUOUS
 62
    7
 10
467.07442186444962
 20
374.09137923775171
 11
467.07442186444962
 21
384.65137923775256
  0
ARC
  8
_0-b_細線5
  6
CONTINUOUS
 62
    7
 10
472.5216666644493
 20
369.29137923775153
 40
0.3200000000000001
 50
179.99999999999983
 51
269.99999999999977
  0
ARC
  8
_0-b_細線5
  6
CONTINUOUS
 62
    7
 10
472.5216666644493
 20
389.45137923775184
 40
0.3200000000000001
 50
89.999999999999915
 51
179.99999999999983
  0
LINE
  8
_0-b_細線5
  6
CONTINUOUS
 62
    7
 10
472.20166666444868
 20
378.57137923775173
 11
472.20166666444868
 21
369.29137923775153
  0
LINE
  8
_0-b_細線5
  6
CONTINUOUS
 62
    7
 10
472.20166666444868
 20
389.45137923775184
 11
472.20166666444868
 21
378.57137923775173
  0
LINE
  8
_0-b_細線5
  6
CONTINUOUS
 62
    7
 10
473.80166666313562
 20
389.771379237752
 11
472.5216666644493
 21
389.771379237752
  0
LINE
  8
_0-b_細線5
  6
CONTINUOUS
 62
    7
 10
473.80166666427772
 20
368.97137923775182
 11
472.5216666644493
 21
368.97137923775182
  0
LINE
  8
_0-b_細線5
  6
CONTINUOUS
 62
    7
 10
1104.2016666698084
 20
379.37137923775146
 11
1109.0088922698085
 21
379.37137923775146
  0
LINE
  8
_0-b_細線5
  6
CONTINUOUS
 62
    7
 10
1104.2016666698084
 20
373.771379237752
 11
1109.0089114698073
 21
373.771379237752
  0
ARC
  8
_0-b_細線5
  6
CONTINUOUS
 62
    7
 10
1109.0089114698073
 20
374.09137923775171
 40
0.3200000000000001
 50
269.99999999999977
 51
359.99999999999966
  0
ARC
  8
_0-b_細線5
  6
CONTINUOUS
 62
    7
 10
1096.9161434698083
 20
376.57114563775241
 40
12.4127296
 50
346.96432999999979
 51
13.038021999994166
  0
ARC
  8
_0-b_細線5
  6
CONTINUOUS
 62
    7
 10
1109.0089114698073
 20
384.65137923775256
 40
0.3200000000000001
 50
0
 51
89.999999999999915
  0
ARC
  8
_0-b_細線5
  6
CONTINUOUS
 62
    7
 10
1096.9161434698083
 20
382.17160963775115
 40
12.4127296
 50
346.96197800000101
 51
13.035669999999524
  0
LINE
  8
_0-b_細線5
  6
CONTINUOUS
 62
    7
 10
1104.2016666698084
 20
384.97137923775227
 11
1109.0089114698073
 21
384.97137923775227
  0
LINE
  8
_0-b_細線5
  6
CONTINUOUS
 62
    7
 10
1109.328911469808
 20
374.09137923775171
 11
1109.328911469808
 21
384.65137923775256
  0
ARC
  8
_0-b_細線5
  6
CONTINUOUS
 62
    7
 10
1103.8816666698083
 20
369.29137923775153
 40
0.3200000000000001
 50
269.99999999999977
 51
359.99999999999966
  0
ARC
  8
_0-b_細線5
  6
CONTINUOUS
 62
    7
 10
1103.8816666698083
 20
389.45137923775184
 40
0.3200000000000001
 50
0
 51
89.999999999999915
  0
LINE
  8
_0-b_細線5
  6
CONTINUOUS
 62
    7
 10
1104.2016666698084
 20
378.57137923775173
 11
1104.2016666698084
 21
369.29137923775153
  0
LINE
  8
_0-b_細線5
  6
CONTINUOUS
 62
    7
 10
1104.2016666698084
 20
389.45137923775184
 11
1104.2016666698084
 21
378.57137923775173
  0
LINE
  8
_0-b_細線5
  6
CONTINUOUS
 62
    7
 10
1102.6016666690575
 20
368.97137923775182
 11
1103.8816666698083
 21
368.97137923775182
  0
LINE
  8
_0-b_細線5
  6
CONTINUOUS
 62
    7
 10
1102.6016666701998
 20
389.771379237752
 11
1103.8816666698083
 21
389.771379237752
  0
LINE
  8
_0-a_極細5
  6
CENTER1
 62
    7
 10
1118.1216666666678
 20
379.37137923775146
 11
455.38331504343751
 21
379.37137923775146
  0
TEXT
  8
_0-7_枠細線
 62
    5
 10
1726.0453960905379
 20
688
 40
24
 41
0.8000000000000001
 50
0
  1
品　　番
  0
LINE
  8
_0-7_枠細線
  6
CONTINUOUS
 62
    5
 10
1668.4453960905375
 20
600
 11
2180.445396090538
 21
600
  0
LINE
  8
_0-7_枠細線
  6
CONTINUOUS
 62
    5
 10
1668.4453960905375
 20
640
 11
2180.445396090538
 21
640
  0
LINE
  8
_0-7_枠細線
  6
CONTINUOUS
 62
    5
 10
1668.4453960905375
 20
680
 11
2180.445396090538
 21
680
  0
TEXT
  8
_0-7_枠細線
 62
    5
 10
1930.8453960905381
 20
688
 40
24
 41
0.8000000000000001
 50
0
  1
色
  0
TEXT
  8
_0-7_枠細線
 62
    5
 10
2062.0453960905384
 20
688
 40
24
 41
0.8000000000000001
 50
0
  1
備　　考
  0
LINE
  8
_0-7_枠細線
  6
CONTINUOUS
 62
    5
 10
1668.4453960905375
 20
720
 11
2180.445396090538
 21
720
  0
LINE
  8
_0-7_枠細線
  6
CONTINUOUS
 62
    5
 10
1668.4453960905375
 20
360
 11
2180.445396090538
 21
360
  0
LINE
  8
_0-7_枠細線
  6
CONTINUOUS
 62
    5
 10
1668.4453960905375
 20
560
 11
2180.445396090538
 21
560
  0
LINE
  8
_0-7_枠細線
  6
CONTINUOUS
 62
    5
 10
1668.4453960905375
 20
520
 11
2180.445396090538
 21
520
  0
LINE
  8
_0-7_枠細線
  6
CONTINUOUS
 62
    5
 10
1668.4453960905375
 20
480
 11
2180.445396090538
 21
480
  0
LINE
  8
_0-7_枠細線
  6
CONTINUOUS
 62
    5
 10
1668.4453960905375
 20
440
 11
2180.445396090538
 21
440
  0
LINE
  8
_0-7_枠細線
  6
CONTINUOUS
 62
    5
 10
1668.4453960905375
 20
400
 11
2180.445396090538
 21
400
  0
TEXT
  8
_0-7_枠細線
 62
    5
 10
1826.4453960905375
 20
728
 40
28
 41
1
 50
0
  1
品番表
  0
LINE
  8
_0-7_枠細線
  6
CONTINUOUS
 62
    5
 10
1668.4453960905375
 20
320
 11
2180.445396090538
 21
320
  0
LINE
  8
_0-7_枠細線
  6
CONTINUOUS
 62
    5
 10
2180.445396090538
 20
720
 11
2180.445396090538
 21
320
  0
LINE
  8
_0-7_枠細線
  6
CONTINUOUS
 62
    5
 10
2020.4453960905375
 20
720
 11
2020.4453960905375
 21
320
  0
LINE
  8
_0-7_枠細線
  6
CONTINUOUS
 62
    5
 10
1860.4453960905385
 20
720
 11
1860.4453960905385
 21
320
  0
LINE
  8
_0-7_枠細線
  6
CONTINUOUS
 62
    5
 10
1668.4453960905375
 20
720
 11
1668.4453960905375
 21
320
  0
LINE
  8
_0-7_枠細線
  6
CONTINUOUS
 62
    5
 10
1661.6656491420354
 20
368.532854836659
 11
1649.6656491420354
 21
392.532854836659
  0
LINE
  8
_0-7_枠細線
  6
CONTINUOUS
 62
    5
 10
1637.6656491420354
 20
368.532854836659
 11
1661.6656491420354
 21
368.532854836659
  0
LINE
  8
_0-7_枠細線
  6
CONTINUOUS
 62
    5
 10
1649.6656491420354
 20
392.532854836659
 11
1637.6656491420354
 21
368.532854836659
  0
TEXT
  8
_0-7_枠細線
 62
    5
 10
1641.4498911710725
 20
367.01474289289899
 40
20
 41
0.8
 50
0
  1
４
  0
LINE
  8
_0-7_枠細線
  6
CONTINUOUS
 62
    5
 10
1668.4453960905375
 20
768.00000000000011
 11
1668.4453960905375
 21
896.00000000000011
  0
TEXT
  8
_0-7_枠細線
 62
    5
 10
1704.4453960905375
 20
860.00000000000011
 40
24
 41
1
 50
0
  1
耐荷重
  0
TEXT
  8
_0-7_枠細線
 62
    5
 10
1680.4453960905375
 20
780.00000000000011
 40
24
 41
1
 50
0
  1
（歩道用）
  0
LINE
  8
_0-7_枠細線
  6
CONTINUOUS
 62
    5
 10
1812.4453960905375
 20
768.00000000000011
 11
1812.4453960905375
 21
896.00000000000011
  0
TEXT
  8
_0-7_枠細線
 62
    5
 10
1848.4453960905375
 20
860.00000000000011
 40
24
 41
1
 50
0
  1
蓋重量
  0
LINE
  8
_0-7_枠細線
  6
CONTINUOUS
 62
    5
 10
1956.4453960905375
 20
768.00000000000011
 11
1956.4453960905375
 21
896.00000000000011
  0
TEXT
  8
_0-7_枠細線
 62
    5
 10
1992.4453960905375
 20
860.00000000000011
 40
24
 41
1
 50
0
  1
枠重量
  0
LINE
  8
_0-7_枠細線
  6
CONTINUOUS
 62
    5
 10
1668.4453960905375
 20
848.00000000000011
 11
2100.4453960905375
 21
848.00000000000011
  0
LINE
  8
_0-7_枠細線
  6
CONTINUOUS
 62
    5
 10
1668.4453960905375
 20
896.00000000000011
 11
2100.4453960905375
 21
896.00000000000011
  0
LINE
  8
_0-7_枠細線
  6
CONTINUOUS
 62
    5
 10
1668.4453960905375
 20
768.00000000000011
 11
2100.4453960905375
 21
768.00000000000011
  0
LINE
  8
_0-7_枠細線
  6
CONTINUOUS
 62
    5
 10
2100.4453960905375
 20
768.00000000000011
 11
2100.4453960905375
 21
896.00000000000011
  0
TEXT
  8
_0-7_枠細線
 62
    5
 10
1692.4453960905375
 20
812.00000000000011
 40
24
 41
1
 50
0
  1
5.0kN/㎡
  0
TEXT
  8
_0-7_枠細線
 62
    5
 10
1980.4453960905375
 20
798.00000000000011
 40
24
 41
0.8000000000000001
 50
0
  1
2.6kg/ｍ組
  0
TEXT
  8
_0-7_枠細線
 62
    5
 10
1846.045396090537
 20
798.00000000000011
 40
24
 41
0.8000000000000001
 50
0
  1
6.8kg/ｍ
  0
LINE
  8
_0-a_極細5
  6
CONTINUOUS
 62
    7
 10
1116.2016666666677
 20
397.29172963936344
 11
1209.8123039259776
 21
397.29172963936344
  0
LINE
  8
_0-a_極細5
  6
CONTINUOUS
 62
    7
 10
460.20166666666773
 20
397.29172963936344
 11
366.59102940735784
 21
397.29172963936344
  0
ARC
  8
_0-0_計極細
  6
CONTINUOUS
 62
    2
 10
323.93776933599338
 20
794.89768403112635
 40
11.295514677412786
 50
138.39585046827415
 51
221.60414953172548
  0
ARC
  8
_0-0_計極細
  6
CONTINUOUS
 62
    2
 10
307.04532702262304
 20
779.89768403112453
 40
11.295514677412786
 50
318.39585046827534
 51
41.604149531723962
  0
LINE
  8
_0-1_計細線
  6
CONTINUOUS
 62
    3
 10
1357.4915481793091
 20
772.39768403112726
 11
315.49154817930821
 21
772.39768403112726
  0
ARC
  8
_0-0_計極細
  6
CONTINUOUS
 62
    2
 10
1365.9377693359947
 20
794.89768403112635
 40
11.295514677412786
 50
138.39585046827494
 51
221.60414953172469
  0
ARC
  8
_0-0_計極細
  6
CONTINUOUS
 62
    2
 10
1349.0453270226242
 20
779.89768403112453
 40
11.295514677412786
 50
318.39585046827455
 51
41.604149531724723
  0
LINE
  8
_0-1_計細線
  6
CONTINUOUS
 62
    3
 10
1359.4057638776837
 20
775.39768403112726
 11
317.40576387768397
 21
775.39768403112726
  0
LINE
  8
_0-1_計細線
  6
CONTINUOUS
 62
    3
 10
1335.9915481793091
 20
802.39768403112726
 11
1357.4915481793091
 21
802.39768403112726
  0
LINE
  8
_0-1_計細線
  6
CONTINUOUS
 62
    3
 10
315.49154817930821
 20
802.39768403112726
 11
336.99154817930912
 21
802.39768403112726
  0
ARC
  8
_0-0_計極細
  6
CONTINUOUS
 62
    2
 10
323.93776933599338
 20
1174.8976840311227
 40
11.295514677412786
 50
138.39585046827571
 51
221.60414953172395
  0
LINE
  8
_0-1_計細線
  6
CONTINUOUS
 62
    3
 10
315.4915481793073
 20
1182.3976840311227
 11
1357.4915481793087
 21
1182.3976840311227
  0
ARC
  8
_0-0_計極細
  6
CONTINUOUS
 62
    2
 10
1365.9377693359943
 20
1174.8976840311227
 40
11.295514677412786
 50
138.39585046827494
 51
221.60414953172469
  0
LINE
  8
_0-1_計細線
  6
CONTINUOUS
 62
    3
 10
313.57733248093473
 20
1179.3976840311227
 11
1355.5773324809361
 21
1179.3976840311227
  0
LINE
  8
_0-1_計細線
  6
CONTINUOUS
 62
    3
 10
336.99154817930912
 20
1161.2976840311187
 11
1335.9915481793091
 21
1161.2976840311187
  0
LINE
  8
_0-1_計細線
  6
CONTINUOUS
 62
    3
 10
336.99154817930912
 20
1149.8976840311182
 11
1335.9915481793091
 21
1149.8976840311182
  0
LINE
  8
_0-1_計細線
  6
CONTINUOUS
 62
    3
 10
336.99154817930912
 20
1161.2976840311187
 11
336.99154817930912
 21
1149.8976840311182
  0
LINE
  8
_0-1_計細線
  6
CONTINUOUS
 62
    3
 10
1335.9915481793091
 20
1161.2976840311187
 11
1335.9915481793091
 21
1149.8976840311182
  0
LINE
  8
_0-0_計極細
  6
CONTINUOUS
 62
    2
 10
336.99154817930912
 20
1153.097684031118
 11
1335.9915481793091
 21
1153.097684031118
  0
LINE
  8
_0-0_計極細
  6
CONTINUOUS
 62
    2
 10
336.99154817930912
 20
1158.097684031118
 11
1335.9915481793091
 21
1158.097684031118
  0
LINE
  8
_0-1_計細線
  6
CONTINUOUS
 62
    3
 10
336.99154817930912
 20
1177.8976840311227
 11
1335.9915481793091
 21
1177.8976840311227
  0
LINE
  8
_0-1_計細線
  6
CONTINUOUS
 62
    3
 10
336.99154817930912
 20
1166.4976840311222
 11
1335.9915481793091
 21
1166.4976840311222
  0
LINE
  8
_0-1_計細線
  6
CONTINUOUS
 62
    3
 10
336.99154817930912
 20
1177.8976840311227
 11
336.99154817930912
 21
1166.4976840311222
  0
LINE
  8
_0-1_計細線
  6
CONTINUOUS
 62
    3
 10
1335.9915481793091
 20
1177.8976840311227
 11
1335.9915481793091
 21
1166.4976840311222
  0
LINE
  8
_0-0_計極細
  6
CONTINUOUS
 62
    2
 10
336.99154817930912
 20
1169.697684031122
 11
1335.9915481793091
 21
1169.697684031122
  0
LINE
  8
_0-0_計極細
  6
CONTINUOUS
 62
    2
 10
336.99154817930912
 20
1174.697684031122
 11
1335.9915481793091
 21
1174.697684031122
  0
ARC
  8
_0-0_計極細
  6
CONTINUOUS
 62
    2
 10
307.04532702262236
 20
1159.8976840311209
 40
11.295514677412786
 50
318.39585046827227
 51
41.60414953172549
  0
ARC
  8
_0-0_計極細
  6
CONTINUOUS
 62
    2
 10
1349.045327022623
 20
1159.8976840311209
 40
11.295514677412786
 50
318.39585046827381
 51
41.60414953172549
  0
LINE
  8
_0-1_計細線
  6
CONTINUOUS
 62
    3
 10
1335.9915481793082
 20
1152.3976840311227
 11
1357.4915481793078
 21
1152.3976840311227
  0
LINE
  8
_0-1_計細線
  6
CONTINUOUS
 62
    3
 10
315.49154817930662
 20
1152.3976840311227
 11
336.99154817930844
 21
1152.3976840311227
  0
LINE
  8
_0-5_寸法線
  6
CONTINUOUS
 62
    7
 10
299.4915481793073
 20
1182.3976840311227
 11
227.49154817930662
 21
1182.3976840311227
  0
LINE
  8
_0-5_寸法線
  6
CONTINUOUS
 62
    7
 10
235.49154817930662
 20
1182.3976840311227
 11
239.63265290094682
 21
1166.9428708104977
  0
LINE
  8
_0-5_寸法線
  6
CONTINUOUS
 62
    7
 10
235.49154817930662
 20
1182.3976840311227
 11
231.35044345766619
 21
1166.9428708104977
  0
LINE
  8
_0-5_寸法線
  6
CONTINUOUS
 62
    7
 10
299.49154817930935
 20
1152.3976840311227
 11
227.49154817930707
 21
1152.3976840311227
  0
LINE
  8
_0-5_寸法線
  6
CONTINUOUS
 62
    7
 10
235.49154817930707
 20
1152.3976840311227
 11
231.35044345766676
 21
1167.8524972517478
  0
LINE
  8
_0-5_寸法線
  6
CONTINUOUS
 62
    7
 10
235.49154817930707
 20
1152.3976840311227
 11
239.63265290094739
 21
1167.8524972517478
  0
LINE
  8
_0-5_寸法線
  6
CONTINUOUS
 62
    7
 10
235.49154817930662
 20
1182.3976840311227
 11
235.49154817930707
 21
1152.3976840311227
  0
TEXT
  8
_0-5_寸法線
 62
    7
 10
235.49154817930707
 20
1155.3976840311227
 40
24
 41
1
 50
90
  1
30
  0
LINE
  8
_0-5_寸法線
  6
CONTINUOUS
 62
    7
 10
235.49154817930707
 20
1152.3976840311227
 11
239.63265290094739
 21
1136.9428708104977
  0
LINE
  8
_0-5_寸法線
  6
CONTINUOUS
 62
    7
 10
235.49154817930707
 20
1152.3976840311227
 11
231.35044345766676
 21
1136.9428708104977
  0
LINE
  8
_0-5_寸法線
  6
CONTINUOUS
 62
    7
 10
299.49154817930821
 20
802.39768403112635
 11
227.49154817930821
 21
802.39768403112635
  0
LINE
  8
_0-5_寸法線
  6
CONTINUOUS
 62
    7
 10
235.49154817930821
 20
802.39768403112635
 11
231.35044345766789
 21
817.8524972517514
  0
LINE
  8
_0-5_寸法線
  6
CONTINUOUS
 62
    7
 10
235.49154817930821
 20
802.39768403112635
 11
239.63265290094853
 21
817.8524972517514
  0
LINE
  8
_0-5_寸法線
  6
CONTINUOUS
 62
    7
 10
235.49154817930707
 20
1152.3976840311227
 11
235.49154817930821
 21
802.39768403112635
  0
TEXT
  8
_0-5_寸法線
 62
    7
 10
235.49154817930821
 20
959.39768403112453
 40
24
 41
1
 50
90
  1
350
  0
LINE
  8
_0-5_寸法線
  6
CONTINUOUS
 62
    7
 10
235.49154817930821
 20
802.39768403112635
 11
239.63265290094853
 21
786.94287081050129
  0
LINE
  8
_0-5_寸法線
  6
CONTINUOUS
 62
    7
 10
235.49154817930821
 20
802.39768403112635
 11
231.35044345766789
 21
786.94287081050129
  0
LINE
  8
_0-5_寸法線
  6
CONTINUOUS
 62
    7
 10
299.49154817931276
 20
772.39768403112907
 11
227.49154817930821
 21
772.39768403112907
  0
LINE
  8
_0-5_寸法線
  6
CONTINUOUS
 62
    7
 10
235.49154817930821
 20
772.39768403112907
 11
231.35044345766789
 21
787.85249725175413
  0
LINE
  8
_0-5_寸法線
  6
CONTINUOUS
 62
    7
 10
235.49154817930821
 20
772.39768403112907
 11
239.63265290094853
 21
787.85249725175413
  0
LINE
  8
_0-5_寸法線
  6
CONTINUOUS
 62
    7
 10
235.49154817930821
 20
802.39768403112635
 11
235.49154817930821
 21
772.39768403112907
  0
TEXT
  8
_0-5_寸法線
 62
    7
 10
235.49154817930821
 20
775.39768403112816
 40
24
 41
1
 50
90
  1
30
  0
LINE
  8
_0-1_計細線
  6
CONTINUOUS
 62
    3
 10
336.99154817930912
 20
1144.5976840311198
 11
1335.9915481793091
 21
1144.5976840311198
  0
LINE
  8
_0-1_計細線
  6
CONTINUOUS
 62
    3
 10
336.99154817930912
 20
1133.1976840311193
 11
1335.9915481793091
 21
1133.1976840311193
  0
LINE
  8
_0-1_計細線
  6
CONTINUOUS
 62
    3
 10
336.99154817930912
 20
1144.5976840311198
 11
336.99154817930912
 21
1133.1976840311193
  0
LINE
  8
_0-1_計細線
  6
CONTINUOUS
 62
    3
 10
1335.9915481793091
 20
1144.5976840311198
 11
1335.9915481793091
 21
1133.1976840311193
  0
LINE
  8
_0-0_計極細
  6
CONTINUOUS
 62
    2
 10
336.99154817930912
 20
1136.39768403112
 11
1335.9915481793091
 21
1136.39768403112
  0
LINE
  8
_0-0_計極細
  6
CONTINUOUS
 62
    2
 10
336.99154817930912
 20
1141.39768403112
 11
1335.9915481793091
 21
1141.39768403112
  0
LINE
  8
_0-1_計細線
  6
CONTINUOUS
 62
    3
 10
336.99154817930912
 20
1110.5976840311171
 11
1335.9915481793091
 21
1110.5976840311171
  0
LINE
  8
_0-1_計細線
  6
CONTINUOUS
 62
    3
 10
336.99154817930912
 20
1099.1976840311165
 11
1335.9915481793091
 21
1099.1976840311165
  0
LINE
  8
_0-1_計細線
  6
CONTINUOUS
 62
    3
 10
336.99154817930912
 20
1110.5976840311171
 11
336.99154817930912
 21
1099.1976840311165
  0
LINE
  8
_0-1_計細線
  6
CONTINUOUS
 62
    3
 10
1335.9915481793091
 20
1110.5976840311171
 11
1335.9915481793091
 21
1099.1976840311165
  0
LINE
  8
_0-0_計極細
  6
CONTINUOUS
 62
    2
 10
336.99154817930912
 20
1102.3976840311173
 11
1335.9915481793091
 21
1102.3976840311173
  0
LINE
  8
_0-0_計極細
  6
CONTINUOUS
 62
    2
 10
336.99154817930912
 20
1107.3976840311173
 11
1335.9915481793091
 21
1107.3976840311173
  0
LINE
  8
_0-1_計細線
  6
CONTINUOUS
 62
    3
 10
336.99154817930912
 20
1127.5976840311162
 11
1335.9915481793091
 21
1127.5976840311162
  0
LINE
  8
_0-1_計細線
  6
CONTINUOUS
 62
    3
 10
336.99154817930912
 20
1116.1976840311156
 11
1335.9915481793091
 21
1116.1976840311156
  0
LINE
  8
_0-1_計細線
  6
CONTINUOUS
 62
    3
 10
336.99154817930912
 20
1127.5976840311162
 11
336.99154817930912
 21
1116.1976840311156
  0
LINE
  8
_0-1_計細線
  6
CONTINUOUS
 62
    3
 10
1335.9915481793091
 20
1127.5976840311162
 11
1335.9915481793091
 21
1116.1976840311156
  0
LINE
  8
_0-0_計極細
  6
CONTINUOUS
 62
    2
 10
336.99154817930912
 20
1119.3976840311163
 11
1335.9915481793091
 21
1119.3976840311163
  0
LINE
  8
_0-0_計極細
  6
CONTINUOUS
 62
    2
 10
336.99154817930912
 20
1124.3976840311163
 11
1335.9915481793091
 21
1124.3976840311163
  0
LINE
  8
_0-1_計細線
  6
CONTINUOUS
 62
    3
 10
336.99154817930912
 20
929.19768403113562
 11
1335.9915481793091
 21
929.19768403113562
  0
LINE
  8
_0-1_計細線
  6
CONTINUOUS
 62
    3
 10
336.99154817930912
 20
940.59768403113617
 11
1335.9915481793091
 21
940.59768403113617
  0
LINE
  8
_0-1_計細線
  6
CONTINUOUS
 62
    3
 10
336.99154817930912
 20
929.19768403113562
 11
336.99154817930912
 21
940.59768403113617
  0
LINE
  8
_0-1_計細線
  6
CONTINUOUS
 62
    3
 10
1335.9915481793091
 20
929.19768403113562
 11
1335.9915481793091
 21
940.59768403113617
  0
LINE
  8
_0-0_計極細
  6
CONTINUOUS
 62
    2
 10
336.99154817930912
 20
937.39768403113635
 11
1335.9915481793091
 21
937.39768403113635
  0
LINE
  8
_0-0_計極細
  6
CONTINUOUS
 62
    2
 10
336.99154817930912
 20
932.39768403113635
 11
1335.9915481793091
 21
932.39768403113635
  0
LINE
  8
_0-1_計細線
  6
CONTINUOUS
 62
    3
 10
336.99154817930912
 20
957.59768403113253
 11
1335.9915481793091
 21
957.59768403113253
  0
LINE
  8
_0-1_計細線
  6
CONTINUOUS
 62
    3
 10
336.99154817930912
 20
946.19768403113198
 11
1335.9915481793091
 21
946.19768403113198
  0
LINE
  8
_0-1_計細線
  6
CONTINUOUS
 62
    3
 10
336.99154817930912
 20
957.59768403113253
 11
336.99154817930912
 21
946.19768403113198
  0
LINE
  8
_0-1_計細線
  6
CONTINUOUS
 62
    3
 10
1335.9915481793091
 20
957.59768403113253
 11
1335.9915481793091
 21
946.19768403113198
  0
LINE
  8
_0-0_計極細
  6
CONTINUOUS
 62
    2
 10
336.99154817930912
 20
949.3976840311318
 11
1335.9915481793091
 21
949.3976840311318
  0
LINE
  8
_0-0_計極細
  6
CONTINUOUS
 62
    2
 10
336.99154817930912
 20
954.3976840311318
 11
1335.9915481793091
 21
954.3976840311318
  0
LINE
  8
_0-1_計細線
  6
CONTINUOUS
 62
    3
 10
336.99154817930912
 20
1025.5976840311334
 11
1335.9915481793091
 21
1025.5976840311334
  0
LINE
  8
_0-1_計細線
  6
CONTINUOUS
 62
    3
 10
336.99154817930912
 20
1014.1976840311329
 11
1335.9915481793091
 21
1014.1976840311329
  0
LINE
  8
_0-1_計細線
  6
CONTINUOUS
 62
    3
 10
336.99154817930912
 20
1025.5976840311334
 11
336.99154817930912
 21
1014.1976840311329
  0
LINE
  8
_0-1_計細線
  6
CONTINUOUS
 62
    3
 10
1335.9915481793091
 20
1025.5976840311334
 11
1335.9915481793091
 21
1014.1976840311329
  0
LINE
  8
_0-0_計極細
  6
CONTINUOUS
 62
    2
 10
336.99154817930912
 20
1017.3976840311336
 11
1335.9915481793091
 21
1017.3976840311336
  0
LINE
  8
_0-0_計極細
  6
CONTINUOUS
 62
    2
 10
336.99154817930912
 20
1022.3976840311336
 11
1335.9915481793091
 21
1022.3976840311336
  0
LINE
  8
_0-1_計細線
  6
CONTINUOUS
 62
    3
 10
336.99154817930912
 20
1008.5976840311343
 11
1335.9915481793091
 21
1008.5976840311343
  0
LINE
  8
_0-1_計細線
  6
CONTINUOUS
 62
    3
 10
336.99154817930912
 20
997.1976840311338
 11
1335.9915481793091
 21
997.1976840311338
  0
LINE
  8
_0-1_計細線
  6
CONTINUOUS
 62
    3
 10
336.99154817930912
 20
1008.5976840311343
 11
336.99154817930912
 21
997.1976840311338
  0
LINE
  8
_0-1_計細線
  6
CONTINUOUS
 62
    3
 10
1335.9915481793091
 20
1008.5976840311343
 11
1335.9915481793091
 21
997.1976840311338
  0
LINE
  8
_0-0_計極細
  6
CONTINUOUS
 62
    2
 10
336.99154817930912
 20
1000.3976840311345
 11
1335.9915481793091
 21
1000.3976840311345
  0
LINE
  8
_0-0_計極細
  6
CONTINUOUS
 62
    2
 10
336.99154817930912
 20
1005.3976840311345
 11
1335.9915481793091
 21
1005.3976840311345
  0
LINE
  8
_0-1_計細線
  6
CONTINUOUS
 62
    3
 10
336.99154817930912
 20
1093.5976840311343
 11
1335.9915481793091
 21
1093.5976840311343
  0
LINE
  8
_0-1_計細線
  6
CONTINUOUS
 62
    3
 10
336.99154817930912
 20
1082.1976840311338
 11
1335.9915481793091
 21
1082.1976840311338
  0
LINE
  8
_0-1_計細線
  6
CONTINUOUS
 62
    3
 10
336.99154817930912
 20
1093.5976840311343
 11
336.99154817930912
 21
1082.1976840311338
  0
LINE
  8
_0-1_計細線
  6
CONTINUOUS
 62
    3
 10
1335.9915481793091
 20
1093.5976840311343
 11
1335.9915481793091
 21
1082.1976840311338
  0
LINE
  8
_0-0_計極細
  6
CONTINUOUS
 62
    2
 10
336.99154817930912
 20
1085.3976840311345
 11
1335.9915481793091
 21
1085.3976840311345
  0
LINE
  8
_0-0_計極細
  6
CONTINUOUS
 62
    2
 10
336.99154817930912
 20
1090.3976840311345
 11
1335.9915481793091
 21
1090.3976840311345
  0
LINE
  8
_0-1_計細線
  6
CONTINUOUS
 62
    3
 10
336.99154817930912
 20
1042.5976840311325
 11
1335.9915481793091
 21
1042.5976840311325
  0
LINE
  8
_0-1_計細線
  6
CONTINUOUS
 62
    3
 10
336.99154817930912
 20
1031.197684031132
 11
1335.9915481793091
 21
1031.197684031132
  0
LINE
  8
_0-1_計細線
  6
CONTINUOUS
 62
    3
 10
336.99154817930912
 20
1042.5976840311325
 11
336.99154817930912
 21
1031.197684031132
  0
LINE
  8
_0-1_計細線
  6
CONTINUOUS
 62
    3
 10
1335.9915481793091
 20
1042.5976840311325
 11
1335.9915481793091
 21
1031.197684031132
  0
LINE
  8
_0-0_計極細
  6
CONTINUOUS
 62
    2
 10
336.99154817930912
 20
1034.3976840311327
 11
1335.9915481793091
 21
1034.3976840311327
  0
LINE
  8
_0-0_計極細
  6
CONTINUOUS
 62
    2
 10
336.99154817930912
 20
1039.3976840311327
 11
1335.9915481793091
 21
1039.3976840311327
  0
LINE
  8
_0-1_計細線
  6
CONTINUOUS
 62
    3
 10
336.99154817930912
 20
1059.5976840311316
 11
1335.9915481793091
 21
1059.5976840311316
  0
LINE
  8
_0-1_計細線
  6
CONTINUOUS
 62
    3
 10
336.99154817930912
 20
1048.1976840311311
 11
1335.9915481793091
 21
1048.1976840311311
  0
LINE
  8
_0-1_計細線
  6
CONTINUOUS
 62
    3
 10
336.99154817930912
 20
1059.5976840311316
 11
336.99154817930912
 21
1048.1976840311311
  0
LINE
  8
_0-1_計細線
  6
CONTINUOUS
 62
    3
 10
1335.9915481793091
 20
1059.5976840311316
 11
1335.9915481793091
 21
1048.1976840311311
  0
LINE
  8
_0-0_計極細
  6
CONTINUOUS
 62
    2
 10
336.99154817930912
 20
1051.3976840311318
 11
1335.9915481793091
 21
1051.3976840311318
  0
LINE
  8
_0-0_計極細
  6
CONTINUOUS
 62
    2
 10
336.99154817930912
 20
1056.3976840311318
 11
1335.9915481793091
 21
1056.3976840311318
  0
LINE
  8
_0-1_計細線
  6
CONTINUOUS
 62
    3
 10
336.99154817930912
 20
1076.5976840311307
 11
1335.9915481793091
 21
1076.5976840311307
  0
LINE
  8
_0-1_計細線
  6
CONTINUOUS
 62
    3
 10
336.99154817930912
 20
1065.1976840311302
 11
1335.9915481793091
 21
1065.1976840311302
  0
LINE
  8
_0-1_計細線
  6
CONTINUOUS
 62
    3
 10
336.99154817930912
 20
1076.5976840311307
 11
336.99154817930912
 21
1065.1976840311302
  0
LINE
  8
_0-1_計細線
  6
CONTINUOUS
 62
    3
 10
1335.9915481793091
 20
1076.5976840311307
 11
1335.9915481793091
 21
1065.1976840311302
  0
LINE
  8
_0-0_計極細
  6
CONTINUOUS
 62
    2
 10
336.99154817930912
 20
1068.3976840311309
 11
1335.9915481793091
 21
1068.3976840311309
  0
LINE
  8
_0-0_計極細
  6
CONTINUOUS
 62
    2
 10
336.99154817930912
 20
1073.3976840311309
 11
1335.9915481793091
 21
1073.3976840311309
  0
LINE
  8
_0-1_計細線
  6
CONTINUOUS
 62
    3
 10
336.99154817930912
 20
878.19768403113017
 11
1335.9915481793091
 21
878.19768403113017
  0
LINE
  8
_0-1_計細線
  6
CONTINUOUS
 62
    3
 10
336.99154817930912
 20
889.59768403113071
 11
1335.9915481793091
 21
889.59768403113071
  0
LINE
  8
_0-1_計細線
  6
CONTINUOUS
 62
    3
 10
336.99154817930912
 20
878.19768403113017
 11
336.99154817930912
 21
889.59768403113071
  0
LINE
  8
_0-1_計細線
  6
CONTINUOUS
 62
    3
 10
1335.9915481793091
 20
878.19768403113017
 11
1335.9915481793091
 21
889.59768403113071
  0
LINE
  8
_0-0_計極細
  6
CONTINUOUS
 62
    2
 10
336.99154817930912
 20
886.39768403113089
 11
1335.9915481793091
 21
886.39768403113089
  0
LINE
  8
_0-0_計極細
  6
CONTINUOUS
 62
    2
 10
336.99154817930912
 20
881.39768403113089
 11
1335.9915481793091
 21
881.39768403113089
  0
LINE
  8
_0-1_計細線
  6
CONTINUOUS
 62
    3
 10
336.99154817930912
 20
912.19768403113017
 11
1335.9915481793091
 21
912.19768403113017
  0
LINE
  8
_0-1_計細線
  6
CONTINUOUS
 62
    3
 10
336.99154817930912
 20
923.59768403113071
 11
1335.9915481793091
 21
923.59768403113071
  0
LINE
  8
_0-1_計細線
  6
CONTINUOUS
 62
    3
 10
336.99154817930912
 20
912.19768403113017
 11
336.99154817930912
 21
923.59768403113071
  0
LINE
  8
_0-1_計細線
  6
CONTINUOUS
 62
    3
 10
1335.9915481793091
 20
912.19768403113017
 11
1335.9915481793091
 21
923.59768403113071
  0
LINE
  8
_0-0_計極細
  6
CONTINUOUS
 62
    2
 10
336.99154817930912
 20
920.39768403113089
 11
1335.9915481793091
 21
920.39768403113089
  0
LINE
  8
_0-0_計極細
  6
CONTINUOUS
 62
    2
 10
336.99154817930912
 20
915.39768403113089
 11
1335.9915481793091
 21
915.39768403113089
  0
LINE
  8
_0-1_計細線
  6
CONTINUOUS
 62
    3
 10
336.99154817930912
 20
895.19768403112926
 11
1335.9915481793091
 21
895.19768403112926
  0
LINE
  8
_0-1_計細線
  6
CONTINUOUS
 62
    3
 10
336.99154817930912
 20
906.5976840311298
 11
1335.9915481793091
 21
906.5976840311298
  0
LINE
  8
_0-1_計細線
  6
CONTINUOUS
 62
    3
 10
336.99154817930912
 20
895.19768403112926
 11
336.99154817930912
 21
906.5976840311298
  0
LINE
  8
_0-1_計細線
  6
CONTINUOUS
 62
    3
 10
1335.9915481793091
 20
895.19768403112926
 11
1335.9915481793091
 21
906.5976840311298
  0
LINE
  8
_0-0_計極細
  6
CONTINUOUS
 62
    2
 10
336.99154817930912
 20
903.39768403112998
 11
1335.9915481793091
 21
903.39768403112998
  0
LINE
  8
_0-0_計極細
  6
CONTINUOUS
 62
    2
 10
336.99154817930912
 20
898.39768403112998
 11
1335.9915481793091
 21
898.39768403112998
  0
LINE
  8
_0-1_計細線
  6
CONTINUOUS
 62
    3
 10
336.99154817930912
 20
810.19768403113017
 11
1335.9915481793091
 21
810.19768403113017
  0
LINE
  8
_0-1_計細線
  6
CONTINUOUS
 62
    3
 10
336.99154817930912
 20
821.59768403113071
 11
1335.9915481793091
 21
821.59768403113071
  0
LINE
  8
_0-1_計細線
  6
CONTINUOUS
 62
    3
 10
336.99154817930912
 20
810.19768403113017
 11
336.99154817930912
 21
821.59768403113071
  0
LINE
  8
_0-1_計細線
  6
CONTINUOUS
 62
    3
 10
1335.9915481793091
 20
810.19768403113017
 11
1335.9915481793091
 21
821.59768403113071
  0
LINE
  8
_0-0_計極細
  6
CONTINUOUS
 62
    2
 10
336.99154817930912
 20
818.39768403112998
 11
1335.9915481793091
 21
818.39768403112998
  0
LINE
  8
_0-0_計極細
  6
CONTINUOUS
 62
    2
 10
336.99154817930912
 20
813.39768403112998
 11
1335.9915481793091
 21
813.39768403112998
  0
LINE
  8
_0-1_計細線
  6
CONTINUOUS
 62
    3
 10
336.99154817930912
 20
861.19768403113108
 11
1335.9915481793091
 21
861.19768403113108
  0
LINE
  8
_0-1_計細線
  6
CONTINUOUS
 62
    3
 10
336.99154817930912
 20
872.59768403113162
 11
1335.9915481793091
 21
872.59768403113162
  0
LINE
  8
_0-1_計細線
  6
CONTINUOUS
 62
    3
 10
336.99154817930912
 20
861.19768403113108
 11
336.99154817930912
 21
872.59768403113162
  0
LINE
  8
_0-1_計細線
  6
CONTINUOUS
 62
    3
 10
1335.9915481793091
 20
861.19768403113108
 11
1335.9915481793091
 21
872.59768403113162
  0
LINE
  8
_0-0_計極細
  6
CONTINUOUS
 62
    2
 10
336.99154817930912
 20
869.3976840311318
 11
1335.9915481793091
 21
869.3976840311318
  0
LINE
  8
_0-0_計極細
  6
CONTINUOUS
 62
    2
 10
336.99154817930912
 20
864.3976840311318
 11
1335.9915481793091
 21
864.3976840311318
  0
LINE
  8
_0-1_計細線
  6
CONTINUOUS
 62
    3
 10
336.99154817930912
 20
844.19768403113198
 11
1335.9915481793091
 21
844.19768403113198
  0
LINE
  8
_0-1_計細線
  6
CONTINUOUS
 62
    3
 10
336.99154817930912
 20
855.59768403113253
 11
1335.9915481793091
 21
855.59768403113253
  0
LINE
  8
_0-1_計細線
  6
CONTINUOUS
 62
    3
 10
336.99154817930912
 20
844.19768403113198
 11
336.99154817930912
 21
855.59768403113253
  0
LINE
  8
_0-1_計細線
  6
CONTINUOUS
 62
    3
 10
1335.9915481793091
 20
844.19768403113198
 11
1335.9915481793091
 21
855.59768403113253
  0
LINE
  8
_0-0_計極細
  6
CONTINUOUS
 62
    2
 10
336.99154817930912
 20
852.39768403113271
 11
1335.9915481793091
 21
852.39768403113271
  0
LINE
  8
_0-0_計極細
  6
CONTINUOUS
 62
    2
 10
336.99154817930912
 20
847.39768403113271
 11
1335.9915481793091
 21
847.39768403113271
  0
LINE
  8
_0-1_計細線
  6
CONTINUOUS
 62
    3
 10
336.99154817930912
 20
827.19768403113289
 11
1335.9915481793091
 21
827.19768403113289
  0
LINE
  8
_0-1_計細線
  6
CONTINUOUS
 62
    3
 10
336.99154817930912
 20
838.59768403113344
 11
1335.9915481793091
 21
838.59768403113344
  0
LINE
  8
_0-1_計細線
  6
CONTINUOUS
 62
    3
 10
336.99154817930912
 20
827.19768403113289
 11
336.99154817930912
 21
838.59768403113344
  0
LINE
  8
_0-1_計細線
  6
CONTINUOUS
 62
    3
 10
1335.9915481793091
 20
827.19768403113289
 11
1335.9915481793091
 21
838.59768403113344
  0
LINE
  8
_0-0_計極細
  6
CONTINUOUS
 62
    2
 10
336.99154817930912
 20
835.39768403113362
 11
1335.9915481793091
 21
835.39768403113362
  0
LINE
  8
_0-0_計極細
  6
CONTINUOUS
 62
    2
 10
336.99154817930912
 20
830.39768403113362
 11
1335.9915481793091
 21
830.39768403113362
  0
LINE
  8
_0-1_計細線
  6
CONTINUOUS
 62
    3
 10
336.99154817930912
 20
793.49768403113126
 11
1335.9915481793091
 21
793.49768403113126
  0
LINE
  8
_0-1_計細線
  6
CONTINUOUS
 62
    3
 10
336.99154817930912
 20
804.8976840311318
 11
1335.9915481793091
 21
804.8976840311318
  0
LINE
  8
_0-1_計細線
  6
CONTINUOUS
 62
    3
 10
336.99154817930912
 20
793.49768403113126
 11
336.99154817930912
 21
804.8976840311318
  0
LINE
  8
_0-1_計細線
  6
CONTINUOUS
 62
    3
 10
1335.9915481793091
 20
793.49768403113126
 11
1335.9915481793091
 21
804.8976840311318
  0
LINE
  8
_0-0_計極細
  6
CONTINUOUS
 62
    2
 10
336.99154817930912
 20
801.69768403113108
 11
1335.9915481793091
 21
801.69768403113108
  0
LINE
  8
_0-0_計極細
  6
CONTINUOUS
 62
    2
 10
336.99154817930912
 20
796.69768403113108
 11
1335.9915481793091
 21
796.69768403113108
  0
LINE
  8
_0-1_計細線
  6
CONTINUOUS
 62
    3
 10
336.99154817930912
 20
776.89768403112726
 11
1335.9915481793091
 21
776.89768403112726
  0
LINE
  8
_0-1_計細線
  6
CONTINUOUS
 62
    3
 10
336.99154817930912
 20
788.2976840311278
 11
1335.9915481793091
 21
788.2976840311278
  0
LINE
  8
_0-1_計細線
  6
CONTINUOUS
 62
    3
 10
336.99154817930912
 20
776.89768403112726
 11
336.99154817930912
 21
788.2976840311278
  0
LINE
  8
_0-1_計細線
  6
CONTINUOUS
 62
    3
 10
1335.9915481793091
 20
776.89768403112726
 11
1335.9915481793091
 21
788.2976840311278
  0
LINE
  8
_0-0_計極細
  6
CONTINUOUS
 62
    2
 10
336.99154817930912
 20
785.09768403112707
 11
1335.9915481793091
 21
785.09768403112707
  0
LINE
  8
_0-0_計極細
  6
CONTINUOUS
 62
    2
 10
336.99154817930912
 20
780.09768403112707
 11
1335.9915481793091
 21
780.09768403112707
  0
LINE
  8
_0-0_計極細
  6
CENTER2
 62
    2
 10
321.1029486422899
 20
977.3976840311268
 11
1352.0362819756672
 21
977.3976840311268
  0
LINE
  8
_0-0_計極細
  6
CENTER1
 62
    2
 10
351.49154817930912
 20
1186.1484034555908
 11
351.49154817930912
 21
769.83986029011544
  0
LINE
  8
_0-0_計極細
  6
CONTINUOUS
 62
    2
 10
344.99154817930912
 20
1149.8976840311191
 11
344.99154817930912
 21
1144.5976840311198
  0
LINE
  8
_0-0_計極細
  6
CONTINUOUS
 62
    2
 10
357.99154817930912
 20
1149.8976840311191
 11
357.99154817930912
 21
1144.5976840311198
  0
LINE
  8
_0-0_計極細
  6
CONTINUOUS
 62
    2
 10
344.99154817930912
 20
1166.4976840311185
 11
344.99154817930912
 21
1161.2976840311187
  0
LINE
  8
_0-0_計極細
  6
CONTINUOUS
 62
    2
 10
357.99154817930912
 20
1166.4976840311185
 11
357.99154817930912
 21
1161.2976840311187
  0
LINE
  8
_0-0_計極細
  6
CONTINUOUS
 62
    2
 10
344.99154817930912
 20
1116.1976840311174
 11
344.99154817930912
 21
1110.5976840311171
  0
LINE
  8
_0-0_計極細
  6
CONTINUOUS
 62
    2
 10
357.99154817930912
 20
1116.1976840311174
 11
357.99154817930912
 21
1110.5976840311171
  0
LINE
  8
_0-0_計極細
  6
CONTINUOUS
 62
    2
 10
344.99154817930912
 20
1133.1976840311165
 11
344.99154817930912
 21
1127.5976840311162
  0
LINE
  8
_0-0_計極細
  6
CONTINUOUS
 62
    2
 10
357.99154817930912
 20
1133.1976840311165
 11
357.99154817930912
 21
1127.5976840311162
  0
LINE
  8
_0-0_計極細
  6
CONTINUOUS
 62
    2
 10
344.99154817930912
 20
946.19768403113198
 11
344.99154817930912
 21
940.59768403113162
  0
LINE
  8
_0-0_計極細
  6
CONTINUOUS
 62
    2
 10
357.99154817930912
 20
946.19768403113198
 11
357.99154817930912
 21
940.59768403113162
  0
LINE
  8
_0-0_計極細
  6
CONTINUOUS
 62
    2
 10
344.99154817930912
 20
963.19768403113289
 11
344.99154817930912
 21
957.59768403113253
  0
LINE
  8
_0-0_計極細
  6
CONTINUOUS
 62
    2
 10
357.99154817930912
 20
963.19768403113289
 11
357.99154817930912
 21
957.59768403113253
  0
LINE
  8
_0-0_計極細
  6
CONTINUOUS
 62
    2
 10
344.99154817930912
 20
980.19768403113289
 11
344.99154817930912
 21
974.59768403113344
  0
LINE
  8
_0-0_計極細
  6
CONTINUOUS
 62
    2
 10
357.99154817930912
 20
980.19768403113289
 11
357.99154817930912
 21
974.59768403113344
  0
LINE
  8
_0-0_計極細
  6
CONTINUOUS
 62
    2
 10
344.99154817930912
 20
997.1976840311338
 11
344.99154817930912
 21
991.59768403113344
  0
LINE
  8
_0-0_計極細
  6
CONTINUOUS
 62
    2
 10
357.99154817930912
 20
997.1976840311338
 11
357.99154817930912
 21
991.59768403113344
  0
LINE
  8
_0-0_計極細
  6
CONTINUOUS
 62
    2
 10
344.99154817930912
 20
1014.1976840311347
 11
344.99154817930912
 21
1008.5976840311343
  0
LINE
  8
_0-0_計極細
  6
CONTINUOUS
 62
    2
 10
357.99154817930912
 20
1014.1976840311347
 11
357.99154817930912
 21
1008.5976840311343
  0
LINE
  8
_0-0_計極細
  6
CONTINUOUS
 62
    2
 10
344.99154817930912
 20
1031.1976840311338
 11
344.99154817930912
 21
1025.5976840311334
  0
LINE
  8
_0-0_計極細
  6
CONTINUOUS
 62
    2
 10
357.99154817930912
 20
1031.1976840311338
 11
357.99154817930912
 21
1025.5976840311334
  0
LINE
  8
_0-0_計極細
  6
CONTINUOUS
 62
    2
 10
344.99154817930912
 20
1048.1976840311329
 11
344.99154817930912
 21
1042.5976840311325
  0
LINE
  8
_0-0_計極細
  6
CONTINUOUS
 62
    2
 10
357.99154817930912
 20
1048.1976840311329
 11
357.99154817930912
 21
1042.5976840311325
  0
LINE
  8
_0-0_計極細
  6
CONTINUOUS
 62
    2
 10
344.99154817930912
 20
1065.197684031132
 11
344.99154817930912
 21
1059.5976840311316
  0
LINE
  8
_0-0_計極細
  6
CONTINUOUS
 62
    2
 10
357.99154817930912
 20
1065.197684031132
 11
357.99154817930912
 21
1059.5976840311316
  0
LINE
  8
_0-0_計極細
  6
CONTINUOUS
 62
    2
 10
344.99154817930912
 20
1082.1976840311311
 11
344.99154817930912
 21
1076.5976840311307
  0
LINE
  8
_0-0_計極細
  6
CONTINUOUS
 62
    2
 10
357.99154817930912
 20
1082.1976840311311
 11
357.99154817930912
 21
1076.5976840311307
  0
LINE
  8
_0-0_計極細
  6
CONTINUOUS
 62
    2
 10
344.99154817930912
 20
923.59768403113071
 11
344.99154817930912
 21
929.19768403113108
  0
LINE
  8
_0-0_計極細
  6
CONTINUOUS
 62
    2
 10
357.99154817930912
 20
923.59768403113071
 11
357.99154817930912
 21
929.19768403113108
  0
LINE
  8
_0-0_計極細
  6
CONTINUOUS
 62
    2
 10
344.99154817930912
 20
906.5976840311298
 11
344.99154817930912
 21
912.19768403113017
  0
LINE
  8
_0-0_計極細
  6
CONTINUOUS
 62
    2
 10
357.99154817930912
 20
906.5976840311298
 11
357.99154817930912
 21
912.19768403113017
  0
LINE
  8
_0-0_計極細
  6
CONTINUOUS
 62
    2
 10
344.99154817930912
 20
889.5976840311298
 11
344.99154817930912
 21
895.19768403112926
  0
LINE
  8
_0-0_計極細
  6
CONTINUOUS
 62
    2
 10
357.99154817930912
 20
889.5976840311298
 11
357.99154817930912
 21
895.19768403112926
  0
LINE
  8
_0-0_計極細
  6
CONTINUOUS
 62
    2
 10
344.99154817930912
 20
872.59768403113071
 11
344.99154817930912
 21
878.19768403113017
  0
LINE
  8
_0-0_計極細
  6
CONTINUOUS
 62
    2
 10
357.99154817930912
 20
872.59768403113071
 11
357.99154817930912
 21
878.19768403113017
  0
LINE
  8
_0-0_計極細
  6
CONTINUOUS
 62
    2
 10
344.99154817930912
 20
855.59768403113162
 11
344.99154817930912
 21
861.19768403113108
  0
LINE
  8
_0-0_計極細
  6
CONTINUOUS
 62
    2
 10
357.99154817930912
 20
855.59768403113162
 11
357.99154817930912
 21
861.19768403113108
  0
LINE
  8
_0-0_計極細
  6
CONTINUOUS
 62
    2
 10
344.99154817930912
 20
838.59768403113253
 11
344.99154817930912
 21
844.19768403113198
  0
LINE
  8
_0-0_計極細
  6
CONTINUOUS
 62
    2
 10
357.99154817930912
 20
838.59768403113253
 11
357.99154817930912
 21
844.19768403113198
  0
LINE
  8
_0-0_計極細
  6
CONTINUOUS
 62
    2
 10
344.99154817930912
 20
821.59768403113344
 11
344.99154817930912
 21
827.19768403113289
  0
LINE
  8
_0-0_計極細
  6
CONTINUOUS
 62
    2
 10
357.99154817930912
 20
821.59768403113344
 11
357.99154817930912
 21
827.19768403113289
  0
LINE
  8
_0-0_計極細
  6
CONTINUOUS
 62
    2
 10
344.99154817930912
 20
804.89768403112998
 11
344.99154817930912
 21
810.19768403113017
  0
LINE
  8
_0-0_計極細
  6
CONTINUOUS
 62
    2
 10
357.99154817930912
 20
804.89768403112998
 11
357.99154817930912
 21
810.19768403113017
  0
LINE
  8
_0-0_計極細
  6
CONTINUOUS
 62
    2
 10
344.99154817930912
 20
788.29768403113144
 11
344.99154817930912
 21
793.49768403113126
  0
LINE
  8
_0-0_計極細
  6
CONTINUOUS
 62
    2
 10
357.99154817930912
 20
788.29768403113144
 11
357.99154817930912
 21
793.49768403113126
  0
LINE
  8
_0-0_計極細
  6
CENTER1
 62
    2
 10
1321.4915481793091
 20
1186.1484034555908
 11
1321.4915481793091
 21
769.83986029011544
  0
LINE
  8
_0-0_計極細
  6
CONTINUOUS
 62
    2
 10
1314.9915481793091
 20
1149.8976840311191
 11
1314.9915481793091
 21
1144.5976840311198
  0
LINE
  8
_0-0_計極細
  6
CONTINUOUS
 62
    2
 10
1327.9915481793091
 20
1149.8976840311191
 11
1327.9915481793091
 21
1144.5976840311198
  0
LINE
  8
_0-0_計極細
  6
CONTINUOUS
 62
    2
 10
1314.9915481793091
 20
1166.4976840311185
 11
1314.9915481793091
 21
1161.2976840311187
  0
LINE
  8
_0-0_計極細
  6
CONTINUOUS
 62
    2
 10
1327.9915481793091
 20
1166.4976840311185
 11
1327.9915481793091
 21
1161.2976840311187
  0
LINE
  8
_0-0_計極細
  6
CONTINUOUS
 62
    2
 10
1314.9915481793091
 20
1116.1976840311174
 11
1314.9915481793091
 21
1110.5976840311171
  0
LINE
  8
_0-0_計極細
  6
CONTINUOUS
 62
    2
 10
1327.9915481793091
 20
1116.1976840311174
 11
1327.9915481793091
 21
1110.5976840311171
  0
LINE
  8
_0-0_計極細
  6
CONTINUOUS
 62
    2
 10
1314.9915481793091
 20
1133.1976840311165
 11
1314.9915481793091
 21
1127.5976840311162
  0
LINE
  8
_0-0_計極細
  6
CONTINUOUS
 62
    2
 10
1327.9915481793091
 20
1133.1976840311165
 11
1327.9915481793091
 21
1127.5976840311162
  0
LINE
  8
_0-0_計極細
  6
CONTINUOUS
 62
    2
 10
1314.9915481793091
 20
946.19768403113198
 11
1314.9915481793091
 21
940.59768403113162
  0
LINE
  8
_0-0_計極細
  6
CONTINUOUS
 62
    2
 10
1327.9915481793091
 20
946.19768403113198
 11
1327.9915481793091
 21
940.59768403113162
  0
LINE
  8
_0-0_計極細
  6
CONTINUOUS
 62
    2
 10
1314.9915481793091
 20
963.19768403113289
 11
1314.9915481793091
 21
957.59768403113253
  0
LINE
  8
_0-0_計極細
  6
CONTINUOUS
 62
    2
 10
1327.9915481793091
 20
963.19768403113289
 11
1327.9915481793091
 21
957.59768403113253
  0
LINE
  8
_0-0_計極細
  6
CONTINUOUS
 62
    2
 10
1314.9915481793091
 20
980.19768403113289
 11
1314.9915481793091
 21
974.59768403113344
  0
LINE
  8
_0-0_計極細
  6
CONTINUOUS
 62
    2
 10
1327.9915481793091
 20
980.19768403113289
 11
1327.9915481793091
 21
974.59768403113344
  0
LINE
  8
_0-0_計極細
  6
CONTINUOUS
 62
    2
 10
1314.9915481793091
 20
997.1976840311338
 11
1314.9915481793091
 21
991.59768403113344
  0
LINE
  8
_0-0_計極細
  6
CONTINUOUS
 62
    2
 10
1327.9915481793091
 20
997.1976840311338
 11
1327.9915481793091
 21
991.59768403113344
  0
LINE
  8
_0-0_計極細
  6
CONTINUOUS
 62
    2
 10
1314.9915481793091
 20
1014.1976840311347
 11
1314.9915481793091
 21
1008.5976840311343
  0
LINE
  8
_0-0_計極細
  6
CONTINUOUS
 62
    2
 10
1327.9915481793091
 20
1014.1976840311347
 11
1327.9915481793091
 21
1008.5976840311343
  0
LINE
  8
_0-0_計極細
  6
CONTINUOUS
 62
    2
 10
1314.9915481793091
 20
1031.1976840311338
 11
1314.9915481793091
 21
1025.5976840311334
  0
LINE
  8
_0-0_計極細
  6
CONTINUOUS
 62
    2
 10
1327.9915481793091
 20
1031.1976840311338
 11
1327.9915481793091
 21
1025.5976840311334
  0
LINE
  8
_0-0_計極細
  6
CONTINUOUS
 62
    2
 10
1314.9915481793091
 20
1048.1976840311329
 11
1314.9915481793091
 21
1042.5976840311325
  0
LINE
  8
_0-0_計極細
  6
CONTINUOUS
 62
    2
 10
1327.9915481793091
 20
1048.1976840311329
 11
1327.9915481793091
 21
1042.5976840311325
  0
LINE
  8
_0-0_計極細
  6
CONTINUOUS
 62
    2
 10
1314.9915481793091
 20
1065.197684031132
 11
1314.9915481793091
 21
1059.5976840311316
  0
LINE
  8
_0-0_計極細
  6
CONTINUOUS
 62
    2
 10
1327.9915481793091
 20
1065.197684031132
 11
1327.9915481793091
 21
1059.5976840311316
  0
LINE
  8
_0-0_計極細
  6
CONTINUOUS
 62
    2
 10
1314.9915481793091
 20
1082.1976840311311
 11
1314.9915481793091
 21
1076.5976840311307
  0
LINE
  8
_0-0_計極細
  6
CONTINUOUS
 62
    2
 10
1327.9915481793091
 20
1082.1976840311311
 11
1327.9915481793091
 21
1076.5976840311307
  0
LINE
  8
_0-0_計極細
  6
CONTINUOUS
 62
    2
 10
1314.9915481793091
 20
923.59768403113071
 11
1314.9915481793091
 21
929.19768403113108
  0
LINE
  8
_0-0_計極細
  6
CONTINUOUS
 62
    2
 10
1327.9915481793091
 20
923.59768403113071
 11
1327.9915481793091
 21
929.19768403113108
  0
LINE
  8
_0-0_計極細
  6
CONTINUOUS
 62
    2
 10
1314.9915481793091
 20
906.5976840311298
 11
1314.9915481793091
 21
912.19768403113017
  0
LINE
  8
_0-0_計極細
  6
CONTINUOUS
 62
    2
 10
1327.9915481793091
 20
906.5976840311298
 11
1327.9915481793091
 21
912.19768403113017
  0
LINE
  8
_0-0_計極細
  6
CONTINUOUS
 62
    2
 10
1314.9915481793091
 20
889.5976840311298
 11
1314.9915481793091
 21
895.19768403112926
  0
LINE
  8
_0-0_計極細
  6
CONTINUOUS
 62
    2
 10
1327.9915481793091
 20
889.5976840311298
 11
1327.9915481793091
 21
895.19768403112926
  0
LINE
  8
_0-0_計極細
  6
CONTINUOUS
 62
    2
 10
1314.9915481793091
 20
872.59768403113071
 11
1314.9915481793091
 21
878.19768403113017
  0
LINE
  8
_0-0_計極細
  6
CONTINUOUS
 62
    2
 10
1327.9915481793091
 20
872.59768403113071
 11
1327.9915481793091
 21
878.19768403113017
  0
LINE
  8
_0-0_計極細
  6
CONTINUOUS
 62
    2
 10
1314.9915481793091
 20
855.59768403113162
 11
1314.9915481793091
 21
861.19768403113108
  0
LINE
  8
_0-0_計極細
  6
CONTINUOUS
 62
    2
 10
1327.9915481793091
 20
855.59768403113162
 11
1327.9915481793091
 21
861.19768403113108
  0
LINE
  8
_0-0_計極細
  6
CONTINUOUS
 62
    2
 10
1314.9915481793091
 20
838.59768403113253
 11
1314.9915481793091
 21
844.19768403113198
  0
LINE
  8
_0-0_計極細
  6
CONTINUOUS
 62
    2
 10
1327.9915481793091
 20
838.59768403113253
 11
1327.9915481793091
 21
844.19768403113198
  0
LINE
  8
_0-0_計極細
  6
CONTINUOUS
 62
    2
 10
1314.9915481793091
 20
821.59768403113344
 11
1314.9915481793091
 21
827.19768403113289
  0
LINE
  8
_0-0_計極細
  6
CONTINUOUS
 62
    2
 10
1327.9915481793091
 20
821.59768403113344
 11
1327.9915481793091
 21
827.19768403113289
  0
LINE
  8
_0-0_計極細
  6
CONTINUOUS
 62
    2
 10
1314.9915481793091
 20
804.89768403112998
 11
1314.9915481793091
 21
810.19768403113017
  0
LINE
  8
_0-0_計極細
  6
CONTINUOUS
 62
    2
 10
1327.9915481793091
 20
804.89768403112998
 11
1327.9915481793091
 21
810.19768403113017
  0
LINE
  8
_0-0_計極細
  6
CONTINUOUS
 62
    2
 10
1314.9915481793091
 20
788.29768403113144
 11
1314.9915481793091
 21
793.49768403113126
  0
LINE
  8
_0-0_計極細
  6
CONTINUOUS
 62
    2
 10
1327.9915481793091
 20
788.29768403113144
 11
1327.9915481793091
 21
793.49768403113126
  0
LINE
  8
_0-5_寸法線
  6
CONTINUOUS
 62
    7
 10
1373.4915481793087
 20
1182.3976840311227
 11
1501.4915481793078
 21
1182.3976840311227
  0
LINE
  8
_0-5_寸法線
  6
CONTINUOUS
 62
    7
 10
1493.4915481793078
 20
1182.3976840311227
 11
1497.632652900948
 21
1166.9428708104977
  0
LINE
  8
_0-5_寸法線
  6
CONTINUOUS
 62
    7
 10
1493.4915481793078
 20
1182.3976840311227
 11
1489.3504434576673
 21
1166.9428708104977
  0
LINE
  8
_0-5_寸法線
  6
CONTINUOUS
 62
    7
 10
1373.4915481793082
 20
772.39768403112271
 11
1501.4915481793084
 21
772.39768403112271
  0
LINE
  8
_0-5_寸法線
  6
CONTINUOUS
 62
    7
 10
1493.4915481793084
 20
772.39768403112271
 11
1489.350443457668
 21
787.85249725174776
  0
LINE
  8
_0-5_寸法線
  6
CONTINUOUS
 62
    7
 10
1493.4915481793084
 20
772.39768403112271
 11
1497.6326529009486
 21
787.85249725174776
  0
LINE
  8
_0-5_寸法線
  6
CONTINUOUS
 62
    7
 10
1493.4915481793078
 20
1182.3976840311227
 11
1493.4915481793084
 21
772.39768403112271
  0
TEXT
  8
_0-5_寸法線
 62
    7
 10
1493.4915481793087
 20
959.39768403112271
 40
24
 41
1
 50
90
  1
410
  0
LINE
  8
_0-0_計極細
  6
CENTER1
 62
    2
 10
1224.4915481793091
 20
1186.1484034555908
 11
1224.4915481793091
 21
769.83986029011544
  0
LINE
  8
_0-0_計極細
  6
CONTINUOUS
 62
    2
 10
1217.9915481793091
 20
1149.8976840311191
 11
1217.9915481793091
 21
1144.5976840311198
  0
LINE
  8
_0-0_計極細
  6
CONTINUOUS
 62
    2
 10
1230.9915481793091
 20
1149.8976840311191
 11
1230.9915481793091
 21
1144.5976840311198
  0
LINE
  8
_0-0_計極細
  6
CONTINUOUS
 62
    2
 10
1217.9915481793091
 20
1166.4976840311185
 11
1217.9915481793091
 21
1161.2976840311187
  0
LINE
  8
_0-0_計極細
  6
CONTINUOUS
 62
    2
 10
1230.9915481793091
 20
1166.4976840311185
 11
1230.9915481793091
 21
1161.2976840311187
  0
LINE
  8
_0-0_計極細
  6
CONTINUOUS
 62
    2
 10
1217.9915481793091
 20
1116.1976840311174
 11
1217.9915481793091
 21
1110.5976840311171
  0
LINE
  8
_0-0_計極細
  6
CONTINUOUS
 62
    2
 10
1230.9915481793091
 20
1116.1976840311174
 11
1230.9915481793091
 21
1110.5976840311171
  0
LINE
  8
_0-0_計極細
  6
CONTINUOUS
 62
    2
 10
1217.9915481793091
 20
1133.1976840311165
 11
1217.9915481793091
 21
1127.5976840311162
  0
LINE
  8
_0-0_計極細
  6
CONTINUOUS
 62
    2
 10
1230.9915481793091
 20
1133.1976840311165
 11
1230.9915481793091
 21
1127.5976840311162
  0
LINE
  8
_0-0_計極細
  6
CONTINUOUS
 62
    2
 10
1217.9915481793091
 20
946.19768403113198
 11
1217.9915481793091
 21
940.59768403113162
  0
LINE
  8
_0-0_計極細
  6
CONTINUOUS
 62
    2
 10
1230.9915481793091
 20
946.19768403113198
 11
1230.9915481793091
 21
940.59768403113162
  0
LINE
  8
_0-0_計極細
  6
CONTINUOUS
 62
    2
 10
1217.9915481793091
 20
963.19768403113289
 11
1217.9915481793091
 21
957.59768403113253
  0
LINE
  8
_0-0_計極細
  6
CONTINUOUS
 62
    2
 10
1230.9915481793091
 20
963.19768403113289
 11
1230.9915481793091
 21
957.59768403113253
  0
LINE
  8
_0-0_計極細
  6
CONTINUOUS
 62
    2
 10
1217.9915481793091
 20
980.19768403113289
 11
1217.9915481793091
 21
974.59768403113344
  0
LINE
  8
_0-0_計極細
  6
CONTINUOUS
 62
    2
 10
1230.9915481793091
 20
980.19768403113289
 11
1230.9915481793091
 21
974.59768403113344
  0
LINE
  8
_0-0_計極細
  6
CONTINUOUS
 62
    2
 10
1217.9915481793091
 20
997.1976840311338
 11
1217.9915481793091
 21
991.59768403113344
  0
LINE
  8
_0-0_計極細
  6
CONTINUOUS
 62
    2
 10
1230.9915481793091
 20
997.1976840311338
 11
1230.9915481793091
 21
991.59768403113344
  0
LINE
  8
_0-0_計極細
  6
CONTINUOUS
 62
    2
 10
1217.9915481793091
 20
1014.1976840311347
 11
1217.9915481793091
 21
1008.5976840311343
  0
LINE
  8
_0-0_計極細
  6
CONTINUOUS
 62
    2
 10
1230.9915481793091
 20
1014.1976840311347
 11
1230.9915481793091
 21
1008.5976840311343
  0
LINE
  8
_0-0_計極細
  6
CONTINUOUS
 62
    2
 10
1217.9915481793091
 20
1031.1976840311338
 11
1217.9915481793091
 21
1025.5976840311334
  0
LINE
  8
_0-0_計極細
  6
CONTINUOUS
 62
    2
 10
1230.9915481793091
 20
1031.1976840311338
 11
1230.9915481793091
 21
1025.5976840311334
  0
LINE
  8
_0-0_計極細
  6
CONTINUOUS
 62
    2
 10
1217.9915481793091
 20
1048.1976840311329
 11
1217.9915481793091
 21
1042.5976840311325
  0
LINE
  8
_0-0_計極細
  6
CONTINUOUS
 62
    2
 10
1230.9915481793091
 20
1048.1976840311329
 11
1230.9915481793091
 21
1042.5976840311325
  0
LINE
  8
_0-0_計極細
  6
CONTINUOUS
 62
    2
 10
1217.9915481793091
 20
1065.197684031132
 11
1217.9915481793091
 21
1059.5976840311316
  0
LINE
  8
_0-0_計極細
  6
CONTINUOUS
 62
    2
 10
1230.9915481793091
 20
1065.197684031132
 11
1230.9915481793091
 21
1059.5976840311316
  0
LINE
  8
_0-0_計極細
  6
CONTINUOUS
 62
    2
 10
1217.9915481793091
 20
1082.1976840311311
 11
1217.9915481793091
 21
1076.5976840311307
  0
LINE
  8
_0-0_計極細
  6
CONTINUOUS
 62
    2
 10
1230.9915481793091
 20
1082.1976840311311
 11
1230.9915481793091
 21
1076.5976840311307
  0
LINE
  8
_0-0_計極細
  6
CONTINUOUS
 62
    2
 10
1217.9915481793091
 20
923.59768403113071
 11
1217.9915481793091
 21
929.19768403113108
  0
LINE
  8
_0-0_計極細
  6
CONTINUOUS
 62
    2
 10
1230.9915481793091
 20
923.59768403113071
 11
1230.9915481793091
 21
929.19768403113108
  0
LINE
  8
_0-0_計極細
  6
CONTINUOUS
 62
    2
 10
1217.9915481793091
 20
906.5976840311298
 11
1217.9915481793091
 21
912.19768403113017
  0
LINE
  8
_0-0_計極細
  6
CONTINUOUS
 62
    2
 10
1230.9915481793091
 20
906.5976840311298
 11
1230.9915481793091
 21
912.19768403113017
  0
LINE
  8
_0-0_計極細
  6
CONTINUOUS
 62
    2
 10
1217.9915481793091
 20
889.5976840311298
 11
1217.9915481793091
 21
895.19768403112926
  0
LINE
  8
_0-0_計極細
  6
CONTINUOUS
 62
    2
 10
1230.9915481793091
 20
889.5976840311298
 11
1230.9915481793091
 21
895.19768403112926
  0
LINE
  8
_0-0_計極細
  6
CONTINUOUS
 62
    2
 10
1217.9915481793091
 20
872.59768403113071
 11
1217.9915481793091
 21
878.19768403113017
  0
LINE
  8
_0-0_計極細
  6
CONTINUOUS
 62
    2
 10
1230.9915481793091
 20
872.59768403113071
 11
1230.9915481793091
 21
878.19768403113017
  0
LINE
  8
_0-0_計極細
  6
CONTINUOUS
 62
    2
 10
1217.9915481793091
 20
855.59768403113162
 11
1217.9915481793091
 21
861.19768403113108
  0
LINE
  8
_0-0_計極細
  6
CONTINUOUS
 62
    2
 10
1230.9915481793091
 20
855.59768403113162
 11
1230.9915481793091
 21
861.19768403113108
  0
LINE
  8
_0-0_計極細
  6
CONTINUOUS
 62
    2
 10
1217.9915481793091
 20
838.59768403113253
 11
1217.9915481793091
 21
844.19768403113198
  0
LINE
  8
_0-0_計極細
  6
CONTINUOUS
 62
    2
 10
1230.9915481793091
 20
838.59768403113253
 11
1230.9915481793091
 21
844.19768403113198
  0
LINE
  8
_0-0_計極細
  6
CONTINUOUS
 62
    2
 10
1217.9915481793091
 20
821.59768403113344
 11
1217.9915481793091
 21
827.19768403113289
  0
LINE
  8
_0-0_計極細
  6
CONTINUOUS
 62
    2
 10
1230.9915481793091
 20
821.59768403113344
 11
1230.9915481793091
 21
827.19768403113289
  0
LINE
  8
_0-0_計極細
  6
CONTINUOUS
 62
    2
 10
1217.9915481793091
 20
804.89768403112998
 11
1217.9915481793091
 21
810.19768403113017
  0
LINE
  8
_0-0_計極細
  6
CONTINUOUS
 62
    2
 10
1230.9915481793091
 20
804.89768403112998
 11
1230.9915481793091
 21
810.19768403113017
  0
LINE
  8
_0-0_計極細
  6
CONTINUOUS
 62
    2
 10
1217.9915481793091
 20
788.29768403113144
 11
1217.9915481793091
 21
793.49768403113126
  0
LINE
  8
_0-0_計極細
  6
CONTINUOUS
 62
    2
 10
1230.9915481793091
 20
788.29768403113144
 11
1230.9915481793091
 21
793.49768403113126
  0
LINE
  8
_0-0_計極細
  6
CENTER1
 62
    2
 10
448.49154817930901
 20
1186.1484034555908
 11
448.49154817930901
 21
769.83986029011544
  0
LINE
  8
_0-0_計極細
  6
CONTINUOUS
 62
    2
 10
441.99154817930901
 20
1149.8976840311191
 11
441.99154817930901
 21
1144.5976840311198
  0
LINE
  8
_0-0_計極細
  6
CONTINUOUS
 62
    2
 10
454.99154817930901
 20
1149.8976840311191
 11
454.99154817930901
 21
1144.5976840311198
  0
LINE
  8
_0-0_計極細
  6
CONTINUOUS
 62
    2
 10
441.99154817930901
 20
1166.4976840311185
 11
441.99154817930901
 21
1161.2976840311187
  0
LINE
  8
_0-0_計極細
  6
CONTINUOUS
 62
    2
 10
454.99154817930901
 20
1166.4976840311185
 11
454.99154817930901
 21
1161.2976840311187
  0
LINE
  8
_0-0_計極細
  6
CONTINUOUS
 62
    2
 10
441.99154817930901
 20
1116.1976840311174
 11
441.99154817930901
 21
1110.5976840311171
  0
LINE
  8
_0-0_計極細
  6
CONTINUOUS
 62
    2
 10
454.99154817930901
 20
1116.1976840311174
 11
454.99154817930901
 21
1110.5976840311171
  0
LINE
  8
_0-0_計極細
  6
CONTINUOUS
 62
    2
 10
441.99154817930901
 20
1133.1976840311165
 11
441.99154817930901
 21
1127.5976840311162
  0
LINE
  8
_0-0_計極細
  6
CONTINUOUS
 62
    2
 10
454.99154817930901
 20
1133.1976840311165
 11
454.99154817930901
 21
1127.5976840311162
  0
LINE
  8
_0-0_計極細
  6
CONTINUOUS
 62
    2
 10
441.99154817930901
 20
946.19768403113198
 11
441.99154817930901
 21
940.59768403113162
  0
LINE
  8
_0-0_計極細
  6
CONTINUOUS
 62
    2
 10
454.99154817930901
 20
946.19768403113198
 11
454.99154817930901
 21
940.59768403113162
  0
LINE
  8
_0-0_計極細
  6
CONTINUOUS
 62
    2
 10
441.99154817930901
 20
997.1976840311338
 11
441.99154817930901
 21
991.59768403113344
  0
LINE
  8
_0-0_計極細
  6
CONTINUOUS
 62
    2
 10
454.99154817930901
 20
997.1976840311338
 11
454.99154817930901
 21
991.59768403113344
  0
LINE
  8
_0-0_計極細
  6
CONTINUOUS
 62
    2
 10
441.99154817930901
 20
1014.1976840311347
 11
441.99154817930901
 21
1008.5976840311343
  0
LINE
  8
_0-0_計極細
  6
CONTINUOUS
 62
    2
 10
454.99154817930901
 20
1014.1976840311347
 11
454.99154817930901
 21
1008.5976840311343
  0
LINE
  8
_0-0_計極細
  6
CONTINUOUS
 62
    2
 10
441.99154817930901
 20
1031.1976840311338
 11
441.99154817930901
 21
1025.5976840311334
  0
LINE
  8
_0-0_計極細
  6
CONTINUOUS
 62
    2
 10
454.99154817930901
 20
1031.1976840311338
 11
454.99154817930901
 21
1025.5976840311334
  0
LINE
  8
_0-0_計極細
  6
CONTINUOUS
 62
    2
 10
441.99154817930901
 20
1048.1976840311329
 11
441.99154817930901
 21
1042.5976840311325
  0
LINE
  8
_0-0_計極細
  6
CONTINUOUS
 62
    2
 10
454.99154817930901
 20
1048.1976840311329
 11
454.99154817930901
 21
1042.5976840311325
  0
LINE
  8
_0-0_計極細
  6
CONTINUOUS
 62
    2
 10
441.99154817930901
 20
1065.197684031132
 11
441.99154817930901
 21
1059.5976840311316
  0
LINE
  8
_0-0_計極細
  6
CONTINUOUS
 62
    2
 10
454.99154817930901
 20
1065.197684031132
 11
454.99154817930901
 21
1059.5976840311316
  0
LINE
  8
_0-0_計極細
  6
CONTINUOUS
 62
    2
 10
441.99154817930901
 20
1082.1976840311311
 11
441.99154817930901
 21
1076.5976840311307
  0
LINE
  8
_0-0_計極細
  6
CONTINUOUS
 62
    2
 10
454.99154817930901
 20
1082.1976840311311
 11
454.99154817930901
 21
1076.5976840311307
  0
LINE
  8
_0-0_計極細
  6
CONTINUOUS
 62
    2
 10
441.99154817930901
 20
923.59768403113071
 11
441.99154817930901
 21
929.19768403113108
  0
LINE
  8
_0-0_計極細
  6
CONTINUOUS
 62
    2
 10
454.99154817930901
 20
923.59768403113071
 11
454.99154817930901
 21
929.19768403113108
  0
LINE
  8
_0-0_計極細
  6
CONTINUOUS
 62
    2
 10
441.99154817930901
 20
906.5976840311298
 11
441.99154817930901
 21
912.19768403113017
  0
LINE
  8
_0-0_計極細
  6
CONTINUOUS
 62
    2
 10
454.99154817930901
 20
906.5976840311298
 11
454.99154817930901
 21
912.19768403113017
  0
LINE
  8
_0-0_計極細
  6
CONTINUOUS
 62
    2
 10
441.99154817930901
 20
889.5976840311298
 11
441.99154817930901
 21
895.19768403112926
  0
LINE
  8
_0-0_計極細
  6
CONTINUOUS
 62
    2
 10
454.99154817930901
 20
889.5976840311298
 11
454.99154817930901
 21
895.19768403112926
  0
LINE
  8
_0-0_計極細
  6
CONTINUOUS
 62
    2
 10
441.99154817930901
 20
872.59768403113071
 11
441.99154817930901
 21
878.19768403113017
  0
LINE
  8
_0-0_計極細
  6
CONTINUOUS
 62
    2
 10
454.99154817930901
 20
872.59768403113071
 11
454.99154817930901
 21
878.19768403113017
  0
LINE
  8
_0-0_計極細
  6
CONTINUOUS
 62
    2
 10
441.99154817930901
 20
855.59768403113162
 11
441.99154817930901
 21
861.19768403113108
  0
LINE
  8
_0-0_計極細
  6
CONTINUOUS
 62
    2
 10
454.99154817930901
 20
855.59768403113162
 11
454.99154817930901
 21
861.19768403113108
  0
LINE
  8
_0-0_計極細
  6
CONTINUOUS
 62
    2
 10
441.99154817930901
 20
838.59768403113253
 11
441.99154817930901
 21
844.19768403113198
  0
LINE
  8
_0-0_計極細
  6
CONTINUOUS
 62
    2
 10
454.99154817930901
 20
838.59768403113253
 11
454.99154817930901
 21
844.19768403113198
  0
LINE
  8
_0-0_計極細
  6
CONTINUOUS
 62
    2
 10
441.99154817930901
 20
821.59768403113344
 11
441.99154817930901
 21
827.19768403113289
  0
LINE
  8
_0-0_計極細
  6
CONTINUOUS
 62
    2
 10
454.99154817930901
 20
821.59768403113344
 11
454.99154817930901
 21
827.19768403113289
  0
LINE
  8
_0-0_計極細
  6
CONTINUOUS
 62
    2
 10
441.99154817930901
 20
804.89768403112998
 11
441.99154817930901
 21
810.19768403113017
  0
LINE
  8
_0-0_計極細
  6
CONTINUOUS
 62
    2
 10
454.99154817930901
 20
804.89768403112998
 11
454.99154817930901
 21
810.19768403113017
  0
LINE
  8
_0-0_計極細
  6
CONTINUOUS
 62
    2
 10
441.99154817930901
 20
788.29768403113144
 11
441.99154817930901
 21
793.49768403113126
  0
LINE
  8
_0-0_計極細
  6
CONTINUOUS
 62
    2
 10
454.99154817930901
 20
788.29768403113144
 11
454.99154817930901
 21
793.49768403113126
  0
LINE
  8
_0-0_計極細
  6
CONTINUOUS
 62
    2
 10
441.99154817930901
 20
963.19768403113289
 11
441.99154817930901
 21
957.59768403113344
  0
LINE
  8
_0-0_計極細
  6
CONTINUOUS
 62
    2
 10
454.99154817930901
 20
963.19768403113289
 11
454.99154817930901
 21
957.59768403113344
  0
LINE
  8
_0-0_計極細
  6
CENTER1
 62
    2
 10
496.99154817930901
 20
1186.1484034555908
 11
496.99154817930901
 21
769.83986029011544
  0
LINE
  8
_0-0_計極細
  6
CONTINUOUS
 62
    2
 10
490.49154817930901
 20
1149.8976840311191
 11
490.49154817930901
 21
1144.5976840311198
  0
LINE
  8
_0-0_計極細
  6
CONTINUOUS
 62
    2
 10
503.49154817930901
 20
1149.8976840311191
 11
503.49154817930901
 21
1144.5976840311198
  0
LINE
  8
_0-0_計極細
  6
CONTINUOUS
 62
    2
 10
490.49154817930901
 20
1166.4976840311185
 11
490.49154817930901
 21
1161.2976840311187
  0
LINE
  8
_0-0_計極細
  6
CONTINUOUS
 62
    2
 10
503.49154817930901
 20
1166.4976840311185
 11
503.49154817930901
 21
1161.2976840311187
  0
LINE
  8
_0-0_計極細
  6
CONTINUOUS
 62
    2
 10
490.49154817930901
 20
1116.1976840311174
 11
490.49154817930901
 21
1110.5976840311171
  0
LINE
  8
_0-0_計極細
  6
CONTINUOUS
 62
    2
 10
503.49154817930901
 20
1116.1976840311174
 11
503.49154817930901
 21
1110.5976840311171
  0
LINE
  8
_0-0_計極細
  6
CONTINUOUS
 62
    2
 10
490.49154817930901
 20
1133.1976840311165
 11
490.49154817930901
 21
1127.5976840311162
  0
LINE
  8
_0-0_計極細
  6
CONTINUOUS
 62
    2
 10
503.49154817930901
 20
1133.1976840311165
 11
503.49154817930901
 21
1127.5976840311162
  0
LINE
  8
_0-0_計極細
  6
CONTINUOUS
 62
    2
 10
490.49154817930901
 20
946.19768403113198
 11
490.49154817930901
 21
940.59768403113162
  0
LINE
  8
_0-0_計極細
  6
CONTINUOUS
 62
    2
 10
503.49154817930901
 20
946.19768403113198
 11
503.49154817930901
 21
940.59768403113162
  0
LINE
  8
_0-0_計極細
  6
CONTINUOUS
 62
    2
 10
490.49154817930901
 20
963.19768403113289
 11
490.49154817930901
 21
957.59768403113253
  0
LINE
  8
_0-0_計極細
  6
CONTINUOUS
 62
    2
 10
503.49154817930901
 20
963.19768403113289
 11
503.49154817930901
 21
957.59768403113253
  0
LINE
  8
_0-0_計極細
  6
CONTINUOUS
 62
    2
 10
490.49154817930901
 20
980.19768403113289
 11
490.49154817930901
 21
974.59768403113344
  0
LINE
  8
_0-0_計極細
  6
CONTINUOUS
 62
    2
 10
503.49154817930901
 20
980.19768403113289
 11
503.49154817930901
 21
974.59768403113344
  0
LINE
  8
_0-0_計極細
  6
CONTINUOUS
 62
    2
 10
490.49154817930901
 20
997.1976840311338
 11
490.49154817930901
 21
991.59768403113344
  0
LINE
  8
_0-0_計極細
  6
CONTINUOUS
 62
    2
 10
503.49154817930901
 20
997.1976840311338
 11
503.49154817930901
 21
991.59768403113344
  0
LINE
  8
_0-0_計極細
  6
CONTINUOUS
 62
    2
 10
490.49154817930901
 20
1014.1976840311347
 11
490.49154817930901
 21
1008.5976840311343
  0
LINE
  8
_0-0_計極細
  6
CONTINUOUS
 62
    2
 10
503.49154817930901
 20
1014.1976840311347
 11
503.49154817930901
 21
1008.5976840311343
  0
LINE
  8
_0-0_計極細
  6
CONTINUOUS
 62
    2
 10
490.49154817930901
 20
1031.1976840311338
 11
490.49154817930901
 21
1025.5976840311334
  0
LINE
  8
_0-0_計極細
  6
CONTINUOUS
 62
    2
 10
503.49154817930901
 20
1031.1976840311338
 11
503.49154817930901
 21
1025.5976840311334
  0
LINE
  8
_0-0_計極細
  6
CONTINUOUS
 62
    2
 10
490.49154817930901
 20
1048.1976840311329
 11
490.49154817930901
 21
1042.5976840311325
  0
LINE
  8
_0-0_計極細
  6
CONTINUOUS
 62
    2
 10
503.49154817930901
 20
1048.1976840311329
 11
503.49154817930901
 21
1042.5976840311325
  0
LINE
  8
_0-0_計極細
  6
CONTINUOUS
 62
    2
 10
490.49154817930901
 20
1065.197684031132
 11
490.49154817930901
 21
1059.5976840311316
  0
LINE
  8
_0-0_計極細
  6
CONTINUOUS
 62
    2
 10
503.49154817930901
 20
1065.197684031132
 11
503.49154817930901
 21
1059.5976840311316
  0
LINE
  8
_0-0_計極細
  6
CONTINUOUS
 62
    2
 10
490.49154817930901
 20
1082.1976840311311
 11
490.49154817930901
 21
1076.5976840311307
  0
LINE
  8
_0-0_計極細
  6
CONTINUOUS
 62
    2
 10
503.49154817930901
 20
1082.1976840311311
 11
503.49154817930901
 21
1076.5976840311307
  0
LINE
  8
_0-0_計極細
  6
CONTINUOUS
 62
    2
 10
490.49154817930901
 20
923.59768403113071
 11
490.49154817930901
 21
929.19768403113108
  0
LINE
  8
_0-0_計極細
  6
CONTINUOUS
 62
    2
 10
503.49154817930901
 20
923.59768403113071
 11
503.49154817930901
 21
929.19768403113108
  0
LINE
  8
_0-0_計極細
  6
CONTINUOUS
 62
    2
 10
490.49154817930901
 20
906.5976840311298
 11
490.49154817930901
 21
912.19768403113017
  0
LINE
  8
_0-0_計極細
  6
CONTINUOUS
 62
    2
 10
503.49154817930901
 20
906.5976840311298
 11
503.49154817930901
 21
912.19768403113017
  0
LINE
  8
_0-0_計極細
  6
CONTINUOUS
 62
    2
 10
490.49154817930901
 20
889.5976840311298
 11
490.49154817930901
 21
895.19768403112926
  0
LINE
  8
_0-0_計極細
  6
CONTINUOUS
 62
    2
 10
503.49154817930901
 20
889.5976840311298
 11
503.49154817930901
 21
895.19768403112926
  0
LINE
  8
_0-0_計極細
  6
CONTINUOUS
 62
    2
 10
490.49154817930901
 20
872.59768403113071
 11
490.49154817930901
 21
878.19768403113017
  0
LINE
  8
_0-0_計極細
  6
CONTINUOUS
 62
    2
 10
503.49154817930901
 20
872.59768403113071
 11
503.49154817930901
 21
878.19768403113017
  0
LINE
  8
_0-0_計極細
  6
CONTINUOUS
 62
    2
 10
490.49154817930901
 20
855.59768403113162
 11
490.49154817930901
 21
861.19768403113108
  0
LINE
  8
_0-0_計極細
  6
CONTINUOUS
 62
    2
 10
503.49154817930901
 20
855.59768403113162
 11
503.49154817930901
 21
861.19768403113108
  0
LINE
  8
_0-0_計極細
  6
CONTINUOUS
 62
    2
 10
490.49154817930901
 20
838.59768403113253
 11
490.49154817930901
 21
844.19768403113198
  0
LINE
  8
_0-0_計極細
  6
CONTINUOUS
 62
    2
 10
503.49154817930901
 20
838.59768403113253
 11
503.49154817930901
 21
844.19768403113198
  0
LINE
  8
_0-0_計極細
  6
CONTINUOUS
 62
    2
 10
490.49154817930901
 20
821.59768403113344
 11
490.49154817930901
 21
827.19768403113289
  0
LINE
  8
_0-0_計極細
  6
CONTINUOUS
 62
    2
 10
503.49154817930901
 20
821.59768403113344
 11
503.49154817930901
 21
827.19768403113289
  0
LINE
  8
_0-0_計極細
  6
CONTINUOUS
 62
    2
 10
490.49154817930901
 20
804.89768403112998
 11
490.49154817930901
 21
810.19768403113017
  0
LINE
  8
_0-0_計極細
  6
CONTINUOUS
 62
    2
 10
503.49154817930901
 20
804.89768403112998
 11
503.49154817930901
 21
810.19768403113017
  0
LINE
  8
_0-0_計極細
  6
CONTINUOUS
 62
    2
 10
490.49154817930901
 20
788.29768403113144
 11
490.49154817930901
 21
793.49768403113126
  0
LINE
  8
_0-0_計極細
  6
CONTINUOUS
 62
    2
 10
503.49154817930901
 20
788.29768403113144
 11
503.49154817930901
 21
793.49768403113126
  0
LINE
  8
_0-0_計極細
  6
CENTER1
 62
    2
 10
545.49154817930901
 20
1186.1484034555908
 11
545.49154817930901
 21
769.83986029011544
  0
LINE
  8
_0-0_計極細
  6
CONTINUOUS
 62
    2
 10
538.99154817930901
 20
1149.8976840311191
 11
538.99154817930901
 21
1144.5976840311198
  0
LINE
  8
_0-0_計極細
  6
CONTINUOUS
 62
    2
 10
551.99154817930901
 20
1149.8976840311191
 11
551.99154817930901
 21
1144.5976840311198
  0
LINE
  8
_0-0_計極細
  6
CONTINUOUS
 62
    2
 10
538.99154817930901
 20
1166.4976840311185
 11
538.99154817930901
 21
1161.2976840311187
  0
LINE
  8
_0-0_計極細
  6
CONTINUOUS
 62
    2
 10
551.99154817930901
 20
1166.4976840311185
 11
551.99154817930901
 21
1161.2976840311187
  0
LINE
  8
_0-0_計極細
  6
CONTINUOUS
 62
    2
 10
538.99154817930901
 20
1116.1976840311174
 11
538.99154817930901
 21
1110.5976840311171
  0
LINE
  8
_0-0_計極細
  6
CONTINUOUS
 62
    2
 10
551.99154817930901
 20
1116.1976840311174
 11
551.99154817930901
 21
1110.5976840311171
  0
LINE
  8
_0-0_計極細
  6
CONTINUOUS
 62
    2
 10
538.99154817930901
 20
1133.1976840311165
 11
538.99154817930901
 21
1127.5976840311162
  0
LINE
  8
_0-0_計極細
  6
CONTINUOUS
 62
    2
 10
551.99154817930901
 20
1133.1976840311165
 11
551.99154817930901
 21
1127.5976840311162
  0
LINE
  8
_0-0_計極細
  6
CONTINUOUS
 62
    2
 10
538.99154817930901
 20
946.19768403113198
 11
538.99154817930901
 21
940.59768403113162
  0
LINE
  8
_0-0_計極細
  6
CONTINUOUS
 62
    2
 10
551.99154817930901
 20
946.19768403113198
 11
551.99154817930901
 21
940.59768403113162
  0
LINE
  8
_0-0_計極細
  6
CONTINUOUS
 62
    2
 10
538.99154817930901
 20
963.19768403113289
 11
538.99154817930901
 21
957.59768403113253
  0
LINE
  8
_0-0_計極細
  6
CONTINUOUS
 62
    2
 10
551.99154817930901
 20
963.19768403113289
 11
551.99154817930901
 21
957.59768403113253
  0
LINE
  8
_0-0_計極細
  6
CONTINUOUS
 62
    2
 10
538.99154817930901
 20
980.19768403113289
 11
538.99154817930901
 21
974.59768403113344
  0
LINE
  8
_0-0_計極細
  6
CONTINUOUS
 62
    2
 10
551.99154817930901
 20
980.19768403113289
 11
551.99154817930901
 21
974.59768403113344
  0
LINE
  8
_0-0_計極細
  6
CONTINUOUS
 62
    2
 10
538.99154817930901
 20
997.1976840311338
 11
538.99154817930901
 21
991.59768403113344
  0
LINE
  8
_0-0_計極細
  6
CONTINUOUS
 62
    2
 10
551.99154817930901
 20
997.1976840311338
 11
551.99154817930901
 21
991.59768403113344
  0
LINE
  8
_0-0_計極細
  6
CONTINUOUS
 62
    2
 10
538.99154817930901
 20
1014.1976840311347
 11
538.99154817930901
 21
1008.5976840311343
  0
LINE
  8
_0-0_計極細
  6
CONTINUOUS
 62
    2
 10
551.99154817930901
 20
1014.1976840311347
 11
551.99154817930901
 21
1008.5976840311343
  0
LINE
  8
_0-0_計極細
  6
CONTINUOUS
 62
    2
 10
538.99154817930901
 20
1031.1976840311338
 11
538.99154817930901
 21
1025.5976840311334
  0
LINE
  8
_0-0_計極細
  6
CONTINUOUS
 62
    2
 10
551.99154817930901
 20
1031.1976840311338
 11
551.99154817930901
 21
1025.5976840311334
  0
LINE
  8
_0-0_計極細
  6
CONTINUOUS
 62
    2
 10
538.99154817930901
 20
1048.1976840311329
 11
538.99154817930901
 21
1042.5976840311325
  0
LINE
  8
_0-0_計極細
  6
CONTINUOUS
 62
    2
 10
551.99154817930901
 20
1048.1976840311329
 11
551.99154817930901
 21
1042.5976840311325
  0
LINE
  8
_0-0_計極細
  6
CONTINUOUS
 62
    2
 10
538.99154817930901
 20
1065.197684031132
 11
538.99154817930901
 21
1059.5976840311316
  0
LINE
  8
_0-0_計極細
  6
CONTINUOUS
 62
    2
 10
551.99154817930901
 20
1065.197684031132
 11
551.99154817930901
 21
1059.5976840311316
  0
LINE
  8
_0-0_計極細
  6
CONTINUOUS
 62
    2
 10
538.99154817930901
 20
1082.1976840311311
 11
538.99154817930901
 21
1076.5976840311307
  0
LINE
  8
_0-0_計極細
  6
CONTINUOUS
 62
    2
 10
551.99154817930901
 20
1082.1976840311311
 11
551.99154817930901
 21
1076.5976840311307
  0
LINE
  8
_0-0_計極細
  6
CONTINUOUS
 62
    2
 10
538.99154817930901
 20
923.59768403113071
 11
538.99154817930901
 21
929.19768403113108
  0
LINE
  8
_0-0_計極細
  6
CONTINUOUS
 62
    2
 10
551.99154817930901
 20
923.59768403113071
 11
551.99154817930901
 21
929.19768403113108
  0
LINE
  8
_0-0_計極細
  6
CONTINUOUS
 62
    2
 10
538.99154817930901
 20
906.5976840311298
 11
538.99154817930901
 21
912.19768403113017
  0
LINE
  8
_0-0_計極細
  6
CONTINUOUS
 62
    2
 10
551.99154817930901
 20
906.5976840311298
 11
551.99154817930901
 21
912.19768403113017
  0
LINE
  8
_0-0_計極細
  6
CONTINUOUS
 62
    2
 10
538.99154817930901
 20
889.5976840311298
 11
538.99154817930901
 21
895.19768403112926
  0
LINE
  8
_0-0_計極細
  6
CONTINUOUS
 62
    2
 10
551.99154817930901
 20
889.5976840311298
 11
551.99154817930901
 21
895.19768403112926
  0
LINE
  8
_0-0_計極細
  6
CONTINUOUS
 62
    2
 10
538.99154817930901
 20
872.59768403113071
 11
538.99154817930901
 21
878.19768403113017
  0
LINE
  8
_0-0_計極細
  6
CONTINUOUS
 62
    2
 10
551.99154817930901
 20
872.59768403113071
 11
551.99154817930901
 21
878.19768403113017
  0
LINE
  8
_0-0_計極細
  6
CONTINUOUS
 62
    2
 10
538.99154817930901
 20
855.59768403113162
 11
538.99154817930901
 21
861.19768403113108
  0
LINE
  8
_0-0_計極細
  6
CONTINUOUS
 62
    2
 10
551.99154817930901
 20
855.59768403113162
 11
551.99154817930901
 21
861.19768403113108
  0
LINE
  8
_0-0_計極細
  6
CONTINUOUS
 62
    2
 10
538.99154817930901
 20
838.59768403113253
 11
538.99154817930901
 21
844.19768403113198
  0
LINE
  8
_0-0_計極細
  6
CONTINUOUS
 62
    2
 10
551.99154817930901
 20
838.59768403113253
 11
551.99154817930901
 21
844.19768403113198
  0
LINE
  8
_0-0_計極細
  6
CONTINUOUS
 62
    2
 10
538.99154817930901
 20
821.59768403113344
 11
538.99154817930901
 21
827.19768403113289
  0
LINE
  8
_0-0_計極細
  6
CONTINUOUS
 62
    2
 10
551.99154817930901
 20
821.59768403113344
 11
551.99154817930901
 21
827.19768403113289
  0
LINE
  8
_0-0_計極細
  6
CONTINUOUS
 62
    2
 10
538.99154817930901
 20
804.89768403112998
 11
538.99154817930901
 21
810.19768403113017
  0
LINE
  8
_0-0_計極細
  6
CONTINUOUS
 62
    2
 10
551.99154817930901
 20
804.89768403112998
 11
551.99154817930901
 21
810.19768403113017
  0
LINE
  8
_0-0_計極細
  6
CONTINUOUS
 62
    2
 10
538.99154817930901
 20
788.29768403113144
 11
538.99154817930901
 21
793.49768403113126
  0
LINE
  8
_0-0_計極細
  6
CONTINUOUS
 62
    2
 10
551.99154817930901
 20
788.29768403113144
 11
551.99154817930901
 21
793.49768403113126
  0
LINE
  8
_0-0_計極細
  6
CENTER1
 62
    2
 10
593.99154817930901
 20
1186.1484034555908
 11
593.99154817930901
 21
769.83986029011544
  0
LINE
  8
_0-0_計極細
  6
CONTINUOUS
 62
    2
 10
587.49154817930901
 20
1149.8976840311191
 11
587.49154817930901
 21
1144.5976840311198
  0
LINE
  8
_0-0_計極細
  6
CONTINUOUS
 62
    2
 10
600.49154817930901
 20
1149.8976840311191
 11
600.49154817930901
 21
1144.5976840311198
  0
LINE
  8
_0-0_計極細
  6
CONTINUOUS
 62
    2
 10
587.49154817930901
 20
1166.4976840311185
 11
587.49154817930901
 21
1161.2976840311187
  0
LINE
  8
_0-0_計極細
  6
CONTINUOUS
 62
    2
 10
600.49154817930901
 20
1166.4976840311185
 11
600.49154817930901
 21
1161.2976840311187
  0
LINE
  8
_0-0_計極細
  6
CONTINUOUS
 62
    2
 10
587.49154817930901
 20
1116.1976840311174
 11
587.49154817930901
 21
1110.5976840311171
  0
LINE
  8
_0-0_計極細
  6
CONTINUOUS
 62
    2
 10
600.49154817930901
 20
1116.1976840311174
 11
600.49154817930901
 21
1110.5976840311171
  0
LINE
  8
_0-0_計極細
  6
CONTINUOUS
 62
    2
 10
587.49154817930901
 20
1133.1976840311165
 11
587.49154817930901
 21
1127.5976840311162
  0
LINE
  8
_0-0_計極細
  6
CONTINUOUS
 62
    2
 10
600.49154817930901
 20
1133.1976840311165
 11
600.49154817930901
 21
1127.5976840311162
  0
LINE
  8
_0-0_計極細
  6
CONTINUOUS
 62
    2
 10
587.49154817930901
 20
946.19768403113198
 11
587.49154817930901
 21
940.59768403113162
  0
LINE
  8
_0-0_計極細
  6
CONTINUOUS
 62
    2
 10
600.49154817930901
 20
946.19768403113198
 11
600.49154817930901
 21
940.59768403113162
  0
LINE
  8
_0-0_計極細
  6
CONTINUOUS
 62
    2
 10
587.49154817930901
 20
963.19768403113289
 11
587.49154817930901
 21
957.59768403113253
  0
LINE
  8
_0-0_計極細
  6
CONTINUOUS
 62
    2
 10
600.49154817930901
 20
963.19768403113289
 11
600.49154817930901
 21
957.59768403113253
  0
LINE
  8
_0-0_計極細
  6
CONTINUOUS
 62
    2
 10
587.49154817930901
 20
980.19768403113289
 11
587.49154817930901
 21
974.59768403113344
  0
LINE
  8
_0-0_計極細
  6
CONTINUOUS
 62
    2
 10
600.49154817930901
 20
980.19768403113289
 11
600.49154817930901
 21
974.59768403113344
  0
LINE
  8
_0-0_計極細
  6
CONTINUOUS
 62
    2
 10
587.49154817930901
 20
997.1976840311338
 11
587.49154817930901
 21
991.59768403113344
  0
LINE
  8
_0-0_計極細
  6
CONTINUOUS
 62
    2
 10
600.49154817930901
 20
997.1976840311338
 11
600.49154817930901
 21
991.59768403113344
  0
LINE
  8
_0-0_計極細
  6
CONTINUOUS
 62
    2
 10
587.49154817930901
 20
1014.1976840311347
 11
587.49154817930901
 21
1008.5976840311343
  0
LINE
  8
_0-0_計極細
  6
CONTINUOUS
 62
    2
 10
600.49154817930901
 20
1014.1976840311347
 11
600.49154817930901
 21
1008.5976840311343
  0
LINE
  8
_0-0_計極細
  6
CONTINUOUS
 62
    2
 10
587.49154817930901
 20
1031.1976840311338
 11
587.49154817930901
 21
1025.5976840311334
  0
LINE
  8
_0-0_計極細
  6
CONTINUOUS
 62
    2
 10
600.49154817930901
 20
1031.1976840311338
 11
600.49154817930901
 21
1025.5976840311334
  0
LINE
  8
_0-0_計極細
  6
CONTINUOUS
 62
    2
 10
587.49154817930901
 20
1048.1976840311329
 11
587.49154817930901
 21
1042.5976840311325
  0
LINE
  8
_0-0_計極細
  6
CONTINUOUS
 62
    2
 10
600.49154817930901
 20
1048.1976840311329
 11
600.49154817930901
 21
1042.5976840311325
  0
LINE
  8
_0-0_計極細
  6
CONTINUOUS
 62
    2
 10
587.49154817930901
 20
1065.197684031132
 11
587.49154817930901
 21
1059.5976840311316
  0
LINE
  8
_0-0_計極細
  6
CONTINUOUS
 62
    2
 10
600.49154817930901
 20
1065.197684031132
 11
600.49154817930901
 21
1059.5976840311316
  0
LINE
  8
_0-0_計極細
  6
CONTINUOUS
 62
    2
 10
587.49154817930901
 20
1082.1976840311311
 11
587.49154817930901
 21
1076.5976840311307
  0
LINE
  8
_0-0_計極細
  6
CONTINUOUS
 62
    2
 10
600.49154817930901
 20
1082.1976840311311
 11
600.49154817930901
 21
1076.5976840311307
  0
LINE
  8
_0-0_計極細
  6
CONTINUOUS
 62
    2
 10
587.49154817930901
 20
923.59768403113071
 11
587.49154817930901
 21
929.19768403113108
  0
LINE
  8
_0-0_計極細
  6
CONTINUOUS
 62
    2
 10
600.49154817930901
 20
923.59768403113071
 11
600.49154817930901
 21
929.19768403113108
  0
LINE
  8
_0-0_計極細
  6
CONTINUOUS
 62
    2
 10
587.49154817930901
 20
906.5976840311298
 11
587.49154817930901
 21
912.19768403113017
  0
LINE
  8
_0-0_計極細
  6
CONTINUOUS
 62
    2
 10
600.49154817930901
 20
906.5976840311298
 11
600.49154817930901
 21
912.19768403113017
  0
LINE
  8
_0-0_計極細
  6
CONTINUOUS
 62
    2
 10
587.49154817930901
 20
889.5976840311298
 11
587.49154817930901
 21
895.19768403112926
  0
LINE
  8
_0-0_計極細
  6
CONTINUOUS
 62
    2
 10
600.49154817930901
 20
889.5976840311298
 11
600.49154817930901
 21
895.19768403112926
  0
LINE
  8
_0-0_計極細
  6
CONTINUOUS
 62
    2
 10
587.49154817930901
 20
872.59768403113071
 11
587.49154817930901
 21
878.19768403113017
  0
LINE
  8
_0-0_計極細
  6
CONTINUOUS
 62
    2
 10
600.49154817930901
 20
872.59768403113071
 11
600.49154817930901
 21
878.19768403113017
  0
LINE
  8
_0-0_計極細
  6
CONTINUOUS
 62
    2
 10
587.49154817930901
 20
855.59768403113162
 11
587.49154817930901
 21
861.19768403113108
  0
LINE
  8
_0-0_計極細
  6
CONTINUOUS
 62
    2
 10
600.49154817930901
 20
855.59768403113162
 11
600.49154817930901
 21
861.19768403113108
  0
LINE
  8
_0-0_計極細
  6
CONTINUOUS
 62
    2
 10
587.49154817930901
 20
838.59768403113253
 11
587.49154817930901
 21
844.19768403113198
  0
LINE
  8
_0-0_計極細
  6
CONTINUOUS
 62
    2
 10
600.49154817930901
 20
838.59768403113253
 11
600.49154817930901
 21
844.19768403113198
  0
LINE
  8
_0-0_計極細
  6
CONTINUOUS
 62
    2
 10
587.49154817930901
 20
821.59768403113344
 11
587.49154817930901
 21
827.19768403113289
  0
LINE
  8
_0-0_計極細
  6
CONTINUOUS
 62
    2
 10
600.49154817930901
 20
821.59768403113344
 11
600.49154817930901
 21
827.19768403113289
  0
LINE
  8
_0-0_計極細
  6
CONTINUOUS
 62
    2
 10
587.49154817930901
 20
804.89768403112998
 11
587.49154817930901
 21
810.19768403113017
  0
LINE
  8
_0-0_計極細
  6
CONTINUOUS
 62
    2
 10
600.49154817930901
 20
804.89768403112998
 11
600.49154817930901
 21
810.19768403113017
  0
LINE
  8
_0-0_計極細
  6
CONTINUOUS
 62
    2
 10
587.49154817930901
 20
788.29768403113144
 11
587.49154817930901
 21
793.49768403113126
  0
LINE
  8
_0-0_計極細
  6
CONTINUOUS
 62
    2
 10
600.49154817930901
 20
788.29768403113144
 11
600.49154817930901
 21
793.49768403113126
  0
LINE
  8
_0-0_計極細
  6
CENTER1
 62
    2
 10
642.49154817930901
 20
1186.1484034555908
 11
642.49154817930901
 21
769.83986029011544
  0
LINE
  8
_0-0_計極細
  6
CONTINUOUS
 62
    2
 10
635.99154817930901
 20
1149.8976840311191
 11
635.99154817930901
 21
1144.5976840311198
  0
LINE
  8
_0-0_計極細
  6
CONTINUOUS
 62
    2
 10
648.99154817930901
 20
1149.8976840311191
 11
648.99154817930901
 21
1144.5976840311198
  0
LINE
  8
_0-0_計極細
  6
CONTINUOUS
 62
    2
 10
635.99154817930901
 20
1166.4976840311185
 11
635.99154817930901
 21
1161.2976840311187
  0
LINE
  8
_0-0_計極細
  6
CONTINUOUS
 62
    2
 10
648.99154817930901
 20
1166.4976840311185
 11
648.99154817930901
 21
1161.2976840311187
  0
LINE
  8
_0-0_計極細
  6
CONTINUOUS
 62
    2
 10
635.99154817930901
 20
1116.1976840311174
 11
635.99154817930901
 21
1110.5976840311171
  0
LINE
  8
_0-0_計極細
  6
CONTINUOUS
 62
    2
 10
648.99154817930901
 20
1116.1976840311174
 11
648.99154817930901
 21
1110.5976840311171
  0
LINE
  8
_0-0_計極細
  6
CONTINUOUS
 62
    2
 10
635.99154817930901
 20
1133.1976840311165
 11
635.99154817930901
 21
1127.5976840311162
  0
LINE
  8
_0-0_計極細
  6
CONTINUOUS
 62
    2
 10
648.99154817930901
 20
1133.1976840311165
 11
648.99154817930901
 21
1127.5976840311162
  0
LINE
  8
_0-0_計極細
  6
CONTINUOUS
 62
    2
 10
635.99154817930901
 20
946.19768403113198
 11
635.99154817930901
 21
940.59768403113162
  0
LINE
  8
_0-0_計極細
  6
CONTINUOUS
 62
    2
 10
648.99154817930901
 20
946.19768403113198
 11
648.99154817930901
 21
940.59768403113162
  0
LINE
  8
_0-0_計極細
  6
CONTINUOUS
 62
    2
 10
635.99154817930901
 20
963.19768403113289
 11
635.99154817930901
 21
957.59768403113253
  0
LINE
  8
_0-0_計極細
  6
CONTINUOUS
 62
    2
 10
648.99154817930901
 20
963.19768403113289
 11
648.99154817930901
 21
957.59768403113253
  0
LINE
  8
_0-0_計極細
  6
CONTINUOUS
 62
    2
 10
635.99154817930901
 20
980.19768403113289
 11
635.99154817930901
 21
974.59768403113344
  0
LINE
  8
_0-0_計極細
  6
CONTINUOUS
 62
    2
 10
648.99154817930901
 20
980.19768403113289
 11
648.99154817930901
 21
974.59768403113344
  0
LINE
  8
_0-0_計極細
  6
CONTINUOUS
 62
    2
 10
635.99154817930901
 20
997.1976840311338
 11
635.99154817930901
 21
991.59768403113344
  0
LINE
  8
_0-0_計極細
  6
CONTINUOUS
 62
    2
 10
648.99154817930901
 20
997.1976840311338
 11
648.99154817930901
 21
991.59768403113344
  0
LINE
  8
_0-0_計極細
  6
CONTINUOUS
 62
    2
 10
635.99154817930901
 20
1014.1976840311347
 11
635.99154817930901
 21
1008.5976840311343
  0
LINE
  8
_0-0_計極細
  6
CONTINUOUS
 62
    2
 10
648.99154817930901
 20
1014.1976840311347
 11
648.99154817930901
 21
1008.5976840311343
  0
LINE
  8
_0-0_計極細
  6
CONTINUOUS
 62
    2
 10
635.99154817930901
 20
1031.1976840311338
 11
635.99154817930901
 21
1025.5976840311334
  0
LINE
  8
_0-0_計極細
  6
CONTINUOUS
 62
    2
 10
648.99154817930901
 20
1031.1976840311338
 11
648.99154817930901
 21
1025.5976840311334
  0
LINE
  8
_0-0_計極細
  6
CONTINUOUS
 62
    2
 10
635.99154817930901
 20
1048.1976840311329
 11
635.99154817930901
 21
1042.5976840311325
  0
LINE
  8
_0-0_計極細
  6
CONTINUOUS
 62
    2
 10
648.99154817930901
 20
1048.1976840311329
 11
648.99154817930901
 21
1042.5976840311325
  0
LINE
  8
_0-0_計極細
  6
CONTINUOUS
 62
    2
 10
635.99154817930901
 20
1065.197684031132
 11
635.99154817930901
 21
1059.5976840311316
  0
LINE
  8
_0-0_計極細
  6
CONTINUOUS
 62
    2
 10
648.99154817930901
 20
1065.197684031132
 11
648.99154817930901
 21
1059.5976840311316
  0
LINE
  8
_0-0_計極細
  6
CONTINUOUS
 62
    2
 10
635.99154817930901
 20
1082.1976840311311
 11
635.99154817930901
 21
1076.5976840311307
  0
LINE
  8
_0-0_計極細
  6
CONTINUOUS
 62
    2
 10
648.99154817930901
 20
1082.1976840311311
 11
648.99154817930901
 21
1076.5976840311307
  0
LINE
  8
_0-0_計極細
  6
CONTINUOUS
 62
    2
 10
635.99154817930901
 20
923.59768403113071
 11
635.99154817930901
 21
929.19768403113108
  0
LINE
  8
_0-0_計極細
  6
CONTINUOUS
 62
    2
 10
648.99154817930901
 20
923.59768403113071
 11
648.99154817930901
 21
929.19768403113108
  0
LINE
  8
_0-0_計極細
  6
CONTINUOUS
 62
    2
 10
635.99154817930901
 20
906.5976840311298
 11
635.99154817930901
 21
912.19768403113017
  0
LINE
  8
_0-0_計極細
  6
CONTINUOUS
 62
    2
 10
648.99154817930901
 20
906.5976840311298
 11
648.99154817930901
 21
912.19768403113017
  0
LINE
  8
_0-0_計極細
  6
CONTINUOUS
 62
    2
 10
635.99154817930901
 20
889.5976840311298
 11
635.99154817930901
 21
895.19768403112926
  0
LINE
  8
_0-0_計極細
  6
CONTINUOUS
 62
    2
 10
648.99154817930901
 20
889.5976840311298
 11
648.99154817930901
 21
895.19768403112926
  0
LINE
  8
_0-0_計極細
  6
CONTINUOUS
 62
    2
 10
635.99154817930901
 20
872.59768403113071
 11
635.99154817930901
 21
878.19768403113017
  0
LINE
  8
_0-0_計極細
  6
CONTINUOUS
 62
    2
 10
648.99154817930901
 20
872.59768403113071
 11
648.99154817930901
 21
878.19768403113017
  0
LINE
  8
_0-0_計極細
  6
CONTINUOUS
 62
    2
 10
635.99154817930901
 20
855.59768403113162
 11
635.99154817930901
 21
861.19768403113108
  0
LINE
  8
_0-0_計極細
  6
CONTINUOUS
 62
    2
 10
648.99154817930901
 20
855.59768403113162
 11
648.99154817930901
 21
861.19768403113108
  0
LINE
  8
_0-0_計極細
  6
CONTINUOUS
 62
    2
 10
635.99154817930901
 20
838.59768403113253
 11
635.99154817930901
 21
844.19768403113198
  0
LINE
  8
_0-0_計極細
  6
CONTINUOUS
 62
    2
 10
648.99154817930901
 20
838.59768403113253
 11
648.99154817930901
 21
844.19768403113198
  0
LINE
  8
_0-0_計極細
  6
CONTINUOUS
 62
    2
 10
635.99154817930901
 20
821.59768403113344
 11
635.99154817930901
 21
827.19768403113289
  0
LINE
  8
_0-0_計極細
  6
CONTINUOUS
 62
    2
 10
648.99154817930901
 20
821.59768403113344
 11
648.99154817930901
 21
827.19768403113289
  0
LINE
  8
_0-0_計極細
  6
CONTINUOUS
 62
    2
 10
635.99154817930901
 20
804.89768403112998
 11
635.99154817930901
 21
810.19768403113017
  0
LINE
  8
_0-0_計極細
  6
CONTINUOUS
 62
    2
 10
648.99154817930901
 20
804.89768403112998
 11
648.99154817930901
 21
810.19768403113017
  0
LINE
  8
_0-0_計極細
  6
CONTINUOUS
 62
    2
 10
635.99154817930901
 20
788.29768403113144
 11
635.99154817930901
 21
793.49768403113126
  0
LINE
  8
_0-0_計極細
  6
CONTINUOUS
 62
    2
 10
648.99154817930901
 20
788.29768403113144
 11
648.99154817930901
 21
793.49768403113126
  0
LINE
  8
_0-0_計極細
  6
CENTER1
 62
    2
 10
690.99154817930901
 20
1186.1484034555908
 11
690.99154817930901
 21
769.83986029011544
  0
LINE
  8
_0-0_計極細
  6
CONTINUOUS
 62
    2
 10
684.49154817930901
 20
1149.8976840311191
 11
684.49154817930901
 21
1144.5976840311198
  0
LINE
  8
_0-0_計極細
  6
CONTINUOUS
 62
    2
 10
697.49154817930901
 20
1149.8976840311191
 11
697.49154817930901
 21
1144.5976840311198
  0
LINE
  8
_0-0_計極細
  6
CONTINUOUS
 62
    2
 10
684.49154817930901
 20
1166.4976840311185
 11
684.49154817930901
 21
1161.2976840311187
  0
LINE
  8
_0-0_計極細
  6
CONTINUOUS
 62
    2
 10
697.49154817930901
 20
1166.4976840311185
 11
697.49154817930901
 21
1161.2976840311187
  0
LINE
  8
_0-0_計極細
  6
CONTINUOUS
 62
    2
 10
684.49154817930901
 20
1116.1976840311174
 11
684.49154817930901
 21
1110.5976840311171
  0
LINE
  8
_0-0_計極細
  6
CONTINUOUS
 62
    2
 10
697.49154817930901
 20
1116.1976840311174
 11
697.49154817930901
 21
1110.5976840311171
  0
LINE
  8
_0-0_計極細
  6
CONTINUOUS
 62
    2
 10
684.49154817930901
 20
1133.1976840311165
 11
684.49154817930901
 21
1127.5976840311162
  0
LINE
  8
_0-0_計極細
  6
CONTINUOUS
 62
    2
 10
697.49154817930901
 20
1133.1976840311165
 11
697.49154817930901
 21
1127.5976840311162
  0
LINE
  8
_0-0_計極細
  6
CONTINUOUS
 62
    2
 10
684.49154817930901
 20
946.19768403113198
 11
684.49154817930901
 21
940.59768403113162
  0
LINE
  8
_0-0_計極細
  6
CONTINUOUS
 62
    2
 10
697.49154817930901
 20
946.19768403113198
 11
697.49154817930901
 21
940.59768403113162
  0
LINE
  8
_0-0_計極細
  6
CONTINUOUS
 62
    2
 10
684.49154817930901
 20
963.19768403113289
 11
684.49154817930901
 21
957.59768403113253
  0
LINE
  8
_0-0_計極細
  6
CONTINUOUS
 62
    2
 10
697.49154817930901
 20
963.19768403113289
 11
697.49154817930901
 21
957.59768403113253
  0
LINE
  8
_0-0_計極細
  6
CONTINUOUS
 62
    2
 10
684.49154817930901
 20
980.19768403113289
 11
684.49154817930901
 21
974.59768403113344
  0
LINE
  8
_0-0_計極細
  6
CONTINUOUS
 62
    2
 10
697.49154817930901
 20
980.19768403113289
 11
697.49154817930901
 21
974.59768403113344
  0
LINE
  8
_0-0_計極細
  6
CONTINUOUS
 62
    2
 10
684.49154817930901
 20
997.1976840311338
 11
684.49154817930901
 21
991.59768403113344
  0
LINE
  8
_0-0_計極細
  6
CONTINUOUS
 62
    2
 10
697.49154817930901
 20
997.1976840311338
 11
697.49154817930901
 21
991.59768403113344
  0
LINE
  8
_0-0_計極細
  6
CONTINUOUS
 62
    2
 10
684.49154817930901
 20
1014.1976840311347
 11
684.49154817930901
 21
1008.5976840311343
  0
LINE
  8
_0-0_計極細
  6
CONTINUOUS
 62
    2
 10
697.49154817930901
 20
1014.1976840311347
 11
697.49154817930901
 21
1008.5976840311343
  0
LINE
  8
_0-0_計極細
  6
CONTINUOUS
 62
    2
 10
684.49154817930901
 20
1031.1976840311338
 11
684.49154817930901
 21
1025.5976840311334
  0
LINE
  8
_0-0_計極細
  6
CONTINUOUS
 62
    2
 10
697.49154817930901
 20
1031.1976840311338
 11
697.49154817930901
 21
1025.5976840311334
  0
LINE
  8
_0-0_計極細
  6
CONTINUOUS
 62
    2
 10
684.49154817930901
 20
1048.1976840311329
 11
684.49154817930901
 21
1042.5976840311325
  0
LINE
  8
_0-0_計極細
  6
CONTINUOUS
 62
    2
 10
697.49154817930901
 20
1048.1976840311329
 11
697.49154817930901
 21
1042.5976840311325
  0
LINE
  8
_0-0_計極細
  6
CONTINUOUS
 62
    2
 10
684.49154817930901
 20
1065.197684031132
 11
684.49154817930901
 21
1059.5976840311316
  0
LINE
  8
_0-0_計極細
  6
CONTINUOUS
 62
    2
 10
697.49154817930901
 20
1065.197684031132
 11
697.49154817930901
 21
1059.5976840311316
  0
LINE
  8
_0-0_計極細
  6
CONTINUOUS
 62
    2
 10
684.49154817930901
 20
1082.1976840311311
 11
684.49154817930901
 21
1076.5976840311307
  0
LINE
  8
_0-0_計極細
  6
CONTINUOUS
 62
    2
 10
697.49154817930901
 20
1082.1976840311311
 11
697.49154817930901
 21
1076.5976840311307
  0
LINE
  8
_0-0_計極細
  6
CONTINUOUS
 62
    2
 10
684.49154817930901
 20
923.59768403113071
 11
684.49154817930901
 21
929.19768403113108
  0
LINE
  8
_0-0_計極細
  6
CONTINUOUS
 62
    2
 10
697.49154817930901
 20
923.59768403113071
 11
697.49154817930901
 21
929.19768403113108
  0
LINE
  8
_0-0_計極細
  6
CONTINUOUS
 62
    2
 10
684.49154817930901
 20
906.5976840311298
 11
684.49154817930901
 21
912.19768403113017
  0
LINE
  8
_0-0_計極細
  6
CONTINUOUS
 62
    2
 10
697.49154817930901
 20
906.5976840311298
 11
697.49154817930901
 21
912.19768403113017
  0
LINE
  8
_0-0_計極細
  6
CONTINUOUS
 62
    2
 10
684.49154817930901
 20
889.5976840311298
 11
684.49154817930901
 21
895.19768403112926
  0
LINE
  8
_0-0_計極細
  6
CONTINUOUS
 62
    2
 10
697.49154817930901
 20
889.5976840311298
 11
697.49154817930901
 21
895.19768403112926
  0
LINE
  8
_0-0_計極細
  6
CONTINUOUS
 62
    2
 10
684.49154817930901
 20
872.59768403113071
 11
684.49154817930901
 21
878.19768403113017
  0
LINE
  8
_0-0_計極細
  6
CONTINUOUS
 62
    2
 10
697.49154817930901
 20
872.59768403113071
 11
697.49154817930901
 21
878.19768403113017
  0
LINE
  8
_0-0_計極細
  6
CONTINUOUS
 62
    2
 10
684.49154817930901
 20
855.59768403113162
 11
684.49154817930901
 21
861.19768403113108
  0
LINE
  8
_0-0_計極細
  6
CONTINUOUS
 62
    2
 10
697.49154817930901
 20
855.59768403113162
 11
697.49154817930901
 21
861.19768403113108
  0
LINE
  8
_0-0_計極細
  6
CONTINUOUS
 62
    2
 10
684.49154817930901
 20
838.59768403113253
 11
684.49154817930901
 21
844.19768403113198
  0
LINE
  8
_0-0_計極細
  6
CONTINUOUS
 62
    2
 10
697.49154817930901
 20
838.59768403113253
 11
697.49154817930901
 21
844.19768403113198
  0
LINE
  8
_0-0_計極細
  6
CONTINUOUS
 62
    2
 10
684.49154817930901
 20
821.59768403113344
 11
684.49154817930901
 21
827.19768403113289
  0
LINE
  8
_0-0_計極細
  6
CONTINUOUS
 62
    2
 10
697.49154817930901
 20
821.59768403113344
 11
697.49154817930901
 21
827.19768403113289
  0
LINE
  8
_0-0_計極細
  6
CONTINUOUS
 62
    2
 10
684.49154817930901
 20
804.89768403112998
 11
684.49154817930901
 21
810.19768403113017
  0
LINE
  8
_0-0_計極細
  6
CONTINUOUS
 62
    2
 10
697.49154817930901
 20
804.89768403112998
 11
697.49154817930901
 21
810.19768403113017
  0
LINE
  8
_0-0_計極細
  6
CONTINUOUS
 62
    2
 10
684.49154817930901
 20
788.29768403113144
 11
684.49154817930901
 21
793.49768403113126
  0
LINE
  8
_0-0_計極細
  6
CONTINUOUS
 62
    2
 10
697.49154817930901
 20
788.29768403113144
 11
697.49154817930901
 21
793.49768403113126
  0
LINE
  8
_0-0_計極細
  6
CENTER1
 62
    2
 10
739.49154817930901
 20
1186.1484034555908
 11
739.49154817930901
 21
769.83986029011544
  0
LINE
  8
_0-0_計極細
  6
CONTINUOUS
 62
    2
 10
732.99154817930901
 20
1149.8976840311191
 11
732.99154817930901
 21
1144.5976840311198
  0
LINE
  8
_0-0_計極細
  6
CONTINUOUS
 62
    2
 10
745.99154817930901
 20
1149.8976840311191
 11
745.99154817930901
 21
1144.5976840311198
  0
LINE
  8
_0-0_計極細
  6
CONTINUOUS
 62
    2
 10
732.99154817930901
 20
1166.4976840311185
 11
732.99154817930901
 21
1161.2976840311187
  0
LINE
  8
_0-0_計極細
  6
CONTINUOUS
 62
    2
 10
745.99154817930901
 20
1166.4976840311185
 11
745.99154817930901
 21
1161.2976840311187
  0
LINE
  8
_0-0_計極細
  6
CONTINUOUS
 62
    2
 10
732.99154817930901
 20
1116.1976840311174
 11
732.99154817930901
 21
1110.5976840311171
  0
LINE
  8
_0-0_計極細
  6
CONTINUOUS
 62
    2
 10
745.99154817930901
 20
1116.1976840311174
 11
745.99154817930901
 21
1110.5976840311171
  0
LINE
  8
_0-0_計極細
  6
CONTINUOUS
 62
    2
 10
732.99154817930901
 20
1133.1976840311165
 11
732.99154817930901
 21
1127.5976840311162
  0
LINE
  8
_0-0_計極細
  6
CONTINUOUS
 62
    2
 10
745.99154817930901
 20
1133.1976840311165
 11
745.99154817930901
 21
1127.5976840311162
  0
LINE
  8
_0-0_計極細
  6
CONTINUOUS
 62
    2
 10
732.99154817930901
 20
946.19768403113198
 11
732.99154817930901
 21
940.59768403113162
  0
LINE
  8
_0-0_計極細
  6
CONTINUOUS
 62
    2
 10
745.99154817930901
 20
946.19768403113198
 11
745.99154817930901
 21
940.59768403113162
  0
LINE
  8
_0-0_計極細
  6
CONTINUOUS
 62
    2
 10
732.99154817930901
 20
963.19768403113289
 11
732.99154817930901
 21
957.59768403113253
  0
LINE
  8
_0-0_計極細
  6
CONTINUOUS
 62
    2
 10
745.99154817930901
 20
963.19768403113289
 11
745.99154817930901
 21
957.59768403113253
  0
LINE
  8
_0-0_計極細
  6
CONTINUOUS
 62
    2
 10
732.99154817930901
 20
980.19768403113289
 11
732.99154817930901
 21
974.59768403113344
  0
LINE
  8
_0-0_計極細
  6
CONTINUOUS
 62
    2
 10
745.99154817930901
 20
980.19768403113289
 11
745.99154817930901
 21
974.59768403113344
  0
LINE
  8
_0-0_計極細
  6
CONTINUOUS
 62
    2
 10
732.99154817930901
 20
997.1976840311338
 11
732.99154817930901
 21
991.59768403113344
  0
LINE
  8
_0-0_計極細
  6
CONTINUOUS
 62
    2
 10
745.99154817930901
 20
997.1976840311338
 11
745.99154817930901
 21
991.59768403113344
  0
LINE
  8
_0-0_計極細
  6
CONTINUOUS
 62
    2
 10
732.99154817930901
 20
1014.1976840311347
 11
732.99154817930901
 21
1008.5976840311343
  0
LINE
  8
_0-0_計極細
  6
CONTINUOUS
 62
    2
 10
745.99154817930901
 20
1014.1976840311347
 11
745.99154817930901
 21
1008.5976840311343
  0
LINE
  8
_0-0_計極細
  6
CONTINUOUS
 62
    2
 10
732.99154817930901
 20
1031.1976840311338
 11
732.99154817930901
 21
1025.5976840311334
  0
LINE
  8
_0-0_計極細
  6
CONTINUOUS
 62
    2
 10
745.99154817930901
 20
1031.1976840311338
 11
745.99154817930901
 21
1025.5976840311334
  0
LINE
  8
_0-0_計極細
  6
CONTINUOUS
 62
    2
 10
732.99154817930901
 20
1048.1976840311329
 11
732.99154817930901
 21
1042.5976840311325
  0
LINE
  8
_0-0_計極細
  6
CONTINUOUS
 62
    2
 10
745.99154817930901
 20
1048.1976840311329
 11
745.99154817930901
 21
1042.5976840311325
  0
LINE
  8
_0-0_計極細
  6
CONTINUOUS
 62
    2
 10
732.99154817930901
 20
1065.197684031132
 11
732.99154817930901
 21
1059.5976840311316
  0
LINE
  8
_0-0_計極細
  6
CONTINUOUS
 62
    2
 10
745.99154817930901
 20
1065.197684031132
 11
745.99154817930901
 21
1059.5976840311316
  0
LINE
  8
_0-0_計極細
  6
CONTINUOUS
 62
    2
 10
732.99154817930901
 20
1082.1976840311311
 11
732.99154817930901
 21
1076.5976840311307
  0
LINE
  8
_0-0_計極細
  6
CONTINUOUS
 62
    2
 10
745.99154817930901
 20
1082.1976840311311
 11
745.99154817930901
 21
1076.5976840311307
  0
LINE
  8
_0-0_計極細
  6
CONTINUOUS
 62
    2
 10
732.99154817930901
 20
923.59768403113071
 11
732.99154817930901
 21
929.19768403113108
  0
LINE
  8
_0-0_計極細
  6
CONTINUOUS
 62
    2
 10
745.99154817930901
 20
923.59768403113071
 11
745.99154817930901
 21
929.19768403113108
  0
LINE
  8
_0-0_計極細
  6
CONTINUOUS
 62
    2
 10
732.99154817930901
 20
906.5976840311298
 11
732.99154817930901
 21
912.19768403113017
  0
LINE
  8
_0-0_計極細
  6
CONTINUOUS
 62
    2
 10
745.99154817930901
 20
906.5976840311298
 11
745.99154817930901
 21
912.19768403113017
  0
LINE
  8
_0-0_計極細
  6
CONTINUOUS
 62
    2
 10
732.99154817930901
 20
889.5976840311298
 11
732.99154817930901
 21
895.19768403112926
  0
LINE
  8
_0-0_計極細
  6
CONTINUOUS
 62
    2
 10
745.99154817930901
 20
889.5976840311298
 11
745.99154817930901
 21
895.19768403112926
  0
LINE
  8
_0-0_計極細
  6
CONTINUOUS
 62
    2
 10
732.99154817930901
 20
872.59768403113071
 11
732.99154817930901
 21
878.19768403113017
  0
LINE
  8
_0-0_計極細
  6
CONTINUOUS
 62
    2
 10
745.99154817930901
 20
872.59768403113071
 11
745.99154817930901
 21
878.19768403113017
  0
LINE
  8
_0-0_計極細
  6
CONTINUOUS
 62
    2
 10
732.99154817930901
 20
855.59768403113162
 11
732.99154817930901
 21
861.19768403113108
  0
LINE
  8
_0-0_計極細
  6
CONTINUOUS
 62
    2
 10
745.99154817930901
 20
855.59768403113162
 11
745.99154817930901
 21
861.19768403113108
  0
LINE
  8
_0-0_計極細
  6
CONTINUOUS
 62
    2
 10
732.99154817930901
 20
838.59768403113253
 11
732.99154817930901
 21
844.19768403113198
  0
LINE
  8
_0-0_計極細
  6
CONTINUOUS
 62
    2
 10
745.99154817930901
 20
838.59768403113253
 11
745.99154817930901
 21
844.19768403113198
  0
LINE
  8
_0-0_計極細
  6
CONTINUOUS
 62
    2
 10
732.99154817930901
 20
821.59768403113344
 11
732.99154817930901
 21
827.19768403113289
  0
LINE
  8
_0-0_計極細
  6
CONTINUOUS
 62
    2
 10
745.99154817930901
 20
821.59768403113344
 11
745.99154817930901
 21
827.19768403113289
  0
LINE
  8
_0-0_計極細
  6
CONTINUOUS
 62
    2
 10
732.99154817930901
 20
804.89768403112998
 11
732.99154817930901
 21
810.19768403113017
  0
LINE
  8
_0-0_計極細
  6
CONTINUOUS
 62
    2
 10
745.99154817930901
 20
804.89768403112998
 11
745.99154817930901
 21
810.19768403113017
  0
LINE
  8
_0-0_計極細
  6
CONTINUOUS
 62
    2
 10
732.99154817930901
 20
788.29768403113144
 11
732.99154817930901
 21
793.49768403113126
  0
LINE
  8
_0-0_計極細
  6
CONTINUOUS
 62
    2
 10
745.99154817930901
 20
788.29768403113144
 11
745.99154817930901
 21
793.49768403113126
  0
LINE
  8
_0-0_計極細
  6
CENTER1
 62
    2
 10
787.99154817930901
 20
1186.1484034555908
 11
787.99154817930901
 21
769.83986029011544
  0
LINE
  8
_0-0_計極細
  6
CONTINUOUS
 62
    2
 10
781.49154817930901
 20
1149.8976840311191
 11
781.49154817930901
 21
1144.5976840311198
  0
LINE
  8
_0-0_計極細
  6
CONTINUOUS
 62
    2
 10
794.49154817930901
 20
1149.8976840311191
 11
794.49154817930901
 21
1144.5976840311198
  0
LINE
  8
_0-0_計極細
  6
CONTINUOUS
 62
    2
 10
781.49154817930901
 20
1166.4976840311185
 11
781.49154817930901
 21
1161.2976840311187
  0
LINE
  8
_0-0_計極細
  6
CONTINUOUS
 62
    2
 10
794.49154817930901
 20
1166.4976840311185
 11
794.49154817930901
 21
1161.2976840311187
  0
LINE
  8
_0-0_計極細
  6
CONTINUOUS
 62
    2
 10
781.49154817930901
 20
1116.1976840311174
 11
781.49154817930901
 21
1110.5976840311171
  0
LINE
  8
_0-0_計極細
  6
CONTINUOUS
 62
    2
 10
794.49154817930901
 20
1116.1976840311174
 11
794.49154817930901
 21
1110.5976840311171
  0
LINE
  8
_0-0_計極細
  6
CONTINUOUS
 62
    2
 10
781.49154817930901
 20
1133.1976840311165
 11
781.49154817930901
 21
1127.5976840311162
  0
LINE
  8
_0-0_計極細
  6
CONTINUOUS
 62
    2
 10
794.49154817930901
 20
1133.1976840311165
 11
794.49154817930901
 21
1127.5976840311162
  0
LINE
  8
_0-0_計極細
  6
CONTINUOUS
 62
    2
 10
781.49154817930901
 20
946.19768403113198
 11
781.49154817930901
 21
940.59768403113162
  0
LINE
  8
_0-0_計極細
  6
CONTINUOUS
 62
    2
 10
794.49154817930901
 20
946.19768403113198
 11
794.49154817930901
 21
940.59768403113162
  0
LINE
  8
_0-0_計極細
  6
CONTINUOUS
 62
    2
 10
781.49154817930901
 20
963.19768403113289
 11
781.49154817930901
 21
957.59768403113253
  0
LINE
  8
_0-0_計極細
  6
CONTINUOUS
 62
    2
 10
794.49154817930901
 20
963.19768403113289
 11
794.49154817930901
 21
957.59768403113253
  0
LINE
  8
_0-0_計極細
  6
CONTINUOUS
 62
    2
 10
781.49154817930901
 20
980.19768403113289
 11
781.49154817930901
 21
974.59768403113344
  0
LINE
  8
_0-0_計極細
  6
CONTINUOUS
 62
    2
 10
794.49154817930901
 20
980.19768403113289
 11
794.49154817930901
 21
974.59768403113344
  0
LINE
  8
_0-0_計極細
  6
CONTINUOUS
 62
    2
 10
781.49154817930901
 20
997.1976840311338
 11
781.49154817930901
 21
991.59768403113344
  0
LINE
  8
_0-0_計極細
  6
CONTINUOUS
 62
    2
 10
794.49154817930901
 20
997.1976840311338
 11
794.49154817930901
 21
991.59768403113344
  0
LINE
  8
_0-0_計極細
  6
CONTINUOUS
 62
    2
 10
781.49154817930901
 20
1014.1976840311347
 11
781.49154817930901
 21
1008.5976840311343
  0
LINE
  8
_0-0_計極細
  6
CONTINUOUS
 62
    2
 10
794.49154817930901
 20
1014.1976840311347
 11
794.49154817930901
 21
1008.5976840311343
  0
LINE
  8
_0-0_計極細
  6
CONTINUOUS
 62
    2
 10
781.49154817930901
 20
1031.1976840311338
 11
781.49154817930901
 21
1025.5976840311334
  0
LINE
  8
_0-0_計極細
  6
CONTINUOUS
 62
    2
 10
794.49154817930901
 20
1031.1976840311338
 11
794.49154817930901
 21
1025.5976840311334
  0
LINE
  8
_0-0_計極細
  6
CONTINUOUS
 62
    2
 10
781.49154817930901
 20
1048.1976840311329
 11
781.49154817930901
 21
1042.5976840311325
  0
LINE
  8
_0-0_計極細
  6
CONTINUOUS
 62
    2
 10
794.49154817930901
 20
1048.1976840311329
 11
794.49154817930901
 21
1042.5976840311325
  0
LINE
  8
_0-0_計極細
  6
CONTINUOUS
 62
    2
 10
781.49154817930901
 20
1065.197684031132
 11
781.49154817930901
 21
1059.5976840311316
  0
LINE
  8
_0-0_計極細
  6
CONTINUOUS
 62
    2
 10
794.49154817930901
 20
1065.197684031132
 11
794.49154817930901
 21
1059.5976840311316
  0
LINE
  8
_0-0_計極細
  6
CONTINUOUS
 62
    2
 10
781.49154817930901
 20
1082.1976840311311
 11
781.49154817930901
 21
1076.5976840311307
  0
LINE
  8
_0-0_計極細
  6
CONTINUOUS
 62
    2
 10
794.49154817930901
 20
1082.1976840311311
 11
794.49154817930901
 21
1076.5976840311307
  0
LINE
  8
_0-0_計極細
  6
CONTINUOUS
 62
    2
 10
781.49154817930901
 20
923.59768403113071
 11
781.49154817930901
 21
929.19768403113108
  0
LINE
  8
_0-0_計極細
  6
CONTINUOUS
 62
    2
 10
794.49154817930901
 20
923.59768403113071
 11
794.49154817930901
 21
929.19768403113108
  0
LINE
  8
_0-0_計極細
  6
CONTINUOUS
 62
    2
 10
781.49154817930901
 20
906.5976840311298
 11
781.49154817930901
 21
912.19768403113017
  0
LINE
  8
_0-0_計極細
  6
CONTINUOUS
 62
    2
 10
794.49154817930901
 20
906.5976840311298
 11
794.49154817930901
 21
912.19768403113017
  0
LINE
  8
_0-0_計極細
  6
CONTINUOUS
 62
    2
 10
781.49154817930901
 20
889.5976840311298
 11
781.49154817930901
 21
895.19768403112926
  0
LINE
  8
_0-0_計極細
  6
CONTINUOUS
 62
    2
 10
794.49154817930901
 20
889.5976840311298
 11
794.49154817930901
 21
895.19768403112926
  0
LINE
  8
_0-0_計極細
  6
CONTINUOUS
 62
    2
 10
781.49154817930901
 20
872.59768403113071
 11
781.49154817930901
 21
878.19768403113017
  0
LINE
  8
_0-0_計極細
  6
CONTINUOUS
 62
    2
 10
794.49154817930901
 20
872.59768403113071
 11
794.49154817930901
 21
878.19768403113017
  0
LINE
  8
_0-0_計極細
  6
CONTINUOUS
 62
    2
 10
781.49154817930901
 20
855.59768403113162
 11
781.49154817930901
 21
861.19768403113108
  0
LINE
  8
_0-0_計極細
  6
CONTINUOUS
 62
    2
 10
794.49154817930901
 20
855.59768403113162
 11
794.49154817930901
 21
861.19768403113108
  0
LINE
  8
_0-0_計極細
  6
CONTINUOUS
 62
    2
 10
781.49154817930901
 20
838.59768403113253
 11
781.49154817930901
 21
844.19768403113198
  0
LINE
  8
_0-0_計極細
  6
CONTINUOUS
 62
    2
 10
794.49154817930901
 20
838.59768403113253
 11
794.49154817930901
 21
844.19768403113198
  0
LINE
  8
_0-0_計極細
  6
CONTINUOUS
 62
    2
 10
781.49154817930901
 20
821.59768403113344
 11
781.49154817930901
 21
827.19768403113289
  0
LINE
  8
_0-0_計極細
  6
CONTINUOUS
 62
    2
 10
794.49154817930901
 20
821.59768403113344
 11
794.49154817930901
 21
827.19768403113289
  0
LINE
  8
_0-0_計極細
  6
CONTINUOUS
 62
    2
 10
781.49154817930901
 20
804.89768403112998
 11
781.49154817930901
 21
810.19768403113017
  0
LINE
  8
_0-0_計極細
  6
CONTINUOUS
 62
    2
 10
794.49154817930901
 20
804.89768403112998
 11
794.49154817930901
 21
810.19768403113017
  0
LINE
  8
_0-0_計極細
  6
CONTINUOUS
 62
    2
 10
781.49154817930901
 20
788.29768403113144
 11
781.49154817930901
 21
793.49768403113126
  0
LINE
  8
_0-0_計極細
  6
CONTINUOUS
 62
    2
 10
794.49154817930901
 20
788.29768403113144
 11
794.49154817930901
 21
793.49768403113126
  0
LINE
  8
_0-0_計極細
  6
CENTER1
 62
    2
 10
836.49154817930901
 20
1186.1484034555908
 11
836.49154817930901
 21
769.83986029011544
  0
LINE
  8
_0-0_計極細
  6
CONTINUOUS
 62
    2
 10
829.99154817930901
 20
1149.8976840311191
 11
829.99154817930901
 21
1144.5976840311198
  0
LINE
  8
_0-0_計極細
  6
CONTINUOUS
 62
    2
 10
842.99154817930901
 20
1149.8976840311191
 11
842.99154817930901
 21
1144.5976840311198
  0
LINE
  8
_0-0_計極細
  6
CONTINUOUS
 62
    2
 10
829.99154817930901
 20
1166.4976840311185
 11
829.99154817930901
 21
1161.2976840311187
  0
LINE
  8
_0-0_計極細
  6
CONTINUOUS
 62
    2
 10
842.99154817930901
 20
1166.4976840311185
 11
842.99154817930901
 21
1161.2976840311187
  0
LINE
  8
_0-0_計極細
  6
CONTINUOUS
 62
    2
 10
829.99154817930901
 20
1116.1976840311174
 11
829.99154817930901
 21
1110.5976840311171
  0
LINE
  8
_0-0_計極細
  6
CONTINUOUS
 62
    2
 10
842.99154817930901
 20
1116.1976840311174
 11
842.99154817930901
 21
1110.5976840311171
  0
LINE
  8
_0-0_計極細
  6
CONTINUOUS
 62
    2
 10
829.99154817930901
 20
1133.1976840311165
 11
829.99154817930901
 21
1127.5976840311162
  0
LINE
  8
_0-0_計極細
  6
CONTINUOUS
 62
    2
 10
842.99154817930901
 20
1133.1976840311165
 11
842.99154817930901
 21
1127.5976840311162
  0
LINE
  8
_0-0_計極細
  6
CONTINUOUS
 62
    2
 10
829.99154817930901
 20
946.19768403113198
 11
829.99154817930901
 21
940.59768403113162
  0
LINE
  8
_0-0_計極細
  6
CONTINUOUS
 62
    2
 10
842.99154817930901
 20
946.19768403113198
 11
842.99154817930901
 21
940.59768403113162
  0
LINE
  8
_0-0_計極細
  6
CONTINUOUS
 62
    2
 10
829.99154817930901
 20
963.19768403113289
 11
829.99154817930901
 21
957.59768403113253
  0
LINE
  8
_0-0_計極細
  6
CONTINUOUS
 62
    2
 10
842.99154817930901
 20
963.19768403113289
 11
842.99154817930901
 21
957.59768403113253
  0
LINE
  8
_0-0_計極細
  6
CONTINUOUS
 62
    2
 10
829.99154817930901
 20
980.19768403113289
 11
829.99154817930901
 21
974.59768403113344
  0
LINE
  8
_0-0_計極細
  6
CONTINUOUS
 62
    2
 10
842.99154817930901
 20
980.19768403113289
 11
842.99154817930901
 21
974.59768403113344
  0
LINE
  8
_0-0_計極細
  6
CONTINUOUS
 62
    2
 10
829.99154817930901
 20
997.1976840311338
 11
829.99154817930901
 21
991.59768403113344
  0
LINE
  8
_0-0_計極細
  6
CONTINUOUS
 62
    2
 10
842.99154817930901
 20
997.1976840311338
 11
842.99154817930901
 21
991.59768403113344
  0
LINE
  8
_0-0_計極細
  6
CONTINUOUS
 62
    2
 10
829.99154817930901
 20
1014.1976840311347
 11
829.99154817930901
 21
1008.5976840311343
  0
LINE
  8
_0-0_計極細
  6
CONTINUOUS
 62
    2
 10
842.99154817930901
 20
1014.1976840311347
 11
842.99154817930901
 21
1008.5976840311343
  0
LINE
  8
_0-0_計極細
  6
CONTINUOUS
 62
    2
 10
829.99154817930901
 20
1031.1976840311338
 11
829.99154817930901
 21
1025.5976840311334
  0
LINE
  8
_0-0_計極細
  6
CONTINUOUS
 62
    2
 10
842.99154817930901
 20
1031.1976840311338
 11
842.99154817930901
 21
1025.5976840311334
  0
LINE
  8
_0-0_計極細
  6
CONTINUOUS
 62
    2
 10
829.99154817930901
 20
1048.1976840311329
 11
829.99154817930901
 21
1042.5976840311325
  0
LINE
  8
_0-0_計極細
  6
CONTINUOUS
 62
    2
 10
842.99154817930901
 20
1048.1976840311329
 11
842.99154817930901
 21
1042.5976840311325
  0
LINE
  8
_0-0_計極細
  6
CONTINUOUS
 62
    2
 10
829.99154817930901
 20
1065.197684031132
 11
829.99154817930901
 21
1059.5976840311316
  0
LINE
  8
_0-0_計極細
  6
CONTINUOUS
 62
    2
 10
842.99154817930901
 20
1065.197684031132
 11
842.99154817930901
 21
1059.5976840311316
  0
LINE
  8
_0-0_計極細
  6
CONTINUOUS
 62
    2
 10
829.99154817930901
 20
1082.1976840311311
 11
829.99154817930901
 21
1076.5976840311307
  0
LINE
  8
_0-0_計極細
  6
CONTINUOUS
 62
    2
 10
842.99154817930901
 20
1082.1976840311311
 11
842.99154817930901
 21
1076.5976840311307
  0
LINE
  8
_0-0_計極細
  6
CONTINUOUS
 62
    2
 10
829.99154817930901
 20
923.59768403113071
 11
829.99154817930901
 21
929.19768403113108
  0
LINE
  8
_0-0_計極細
  6
CONTINUOUS
 62
    2
 10
842.99154817930901
 20
923.59768403113071
 11
842.99154817930901
 21
929.19768403113108
  0
LINE
  8
_0-0_計極細
  6
CONTINUOUS
 62
    2
 10
829.99154817930901
 20
906.5976840311298
 11
829.99154817930901
 21
912.19768403113017
  0
LINE
  8
_0-0_計極細
  6
CONTINUOUS
 62
    2
 10
842.99154817930901
 20
906.5976840311298
 11
842.99154817930901
 21
912.19768403113017
  0
LINE
  8
_0-0_計極細
  6
CONTINUOUS
 62
    2
 10
829.99154817930901
 20
889.5976840311298
 11
829.99154817930901
 21
895.19768403112926
  0
LINE
  8
_0-0_計極細
  6
CONTINUOUS
 62
    2
 10
842.99154817930901
 20
889.5976840311298
 11
842.99154817930901
 21
895.19768403112926
  0
LINE
  8
_0-0_計極細
  6
CONTINUOUS
 62
    2
 10
829.99154817930901
 20
872.59768403113071
 11
829.99154817930901
 21
878.19768403113017
  0
LINE
  8
_0-0_計極細
  6
CONTINUOUS
 62
    2
 10
842.99154817930901
 20
872.59768403113071
 11
842.99154817930901
 21
878.19768403113017
  0
LINE
  8
_0-0_計極細
  6
CONTINUOUS
 62
    2
 10
829.99154817930901
 20
855.59768403113162
 11
829.99154817930901
 21
861.19768403113108
  0
LINE
  8
_0-0_計極細
  6
CONTINUOUS
 62
    2
 10
842.99154817930901
 20
855.59768403113162
 11
842.99154817930901
 21
861.19768403113108
  0
LINE
  8
_0-0_計極細
  6
CONTINUOUS
 62
    2
 10
829.99154817930901
 20
838.59768403113253
 11
829.99154817930901
 21
844.19768403113198
  0
LINE
  8
_0-0_計極細
  6
CONTINUOUS
 62
    2
 10
842.99154817930901
 20
838.59768403113253
 11
842.99154817930901
 21
844.19768403113198
  0
LINE
  8
_0-0_計極細
  6
CONTINUOUS
 62
    2
 10
829.99154817930901
 20
821.59768403113344
 11
829.99154817930901
 21
827.19768403113289
  0
LINE
  8
_0-0_計極細
  6
CONTINUOUS
 62
    2
 10
842.99154817930901
 20
821.59768403113344
 11
842.99154817930901
 21
827.19768403113289
  0
LINE
  8
_0-0_計極細
  6
CONTINUOUS
 62
    2
 10
829.99154817930901
 20
804.89768403112998
 11
829.99154817930901
 21
810.19768403113017
  0
LINE
  8
_0-0_計極細
  6
CONTINUOUS
 62
    2
 10
842.99154817930901
 20
804.89768403112998
 11
842.99154817930901
 21
810.19768403113017
  0
LINE
  8
_0-0_計極細
  6
CONTINUOUS
 62
    2
 10
829.99154817930901
 20
788.29768403113144
 11
829.99154817930901
 21
793.49768403113126
  0
LINE
  8
_0-0_計極細
  6
CONTINUOUS
 62
    2
 10
842.99154817930901
 20
788.29768403113144
 11
842.99154817930901
 21
793.49768403113126
  0
LINE
  8
_0-0_計極細
  6
CENTER1
 62
    2
 10
884.99154817930912
 20
1186.1484034555908
 11
884.99154817930912
 21
769.83986029011544
  0
LINE
  8
_0-0_計極細
  6
CONTINUOUS
 62
    2
 10
878.49154817930912
 20
1149.8976840311191
 11
878.49154817930912
 21
1144.5976840311198
  0
LINE
  8
_0-0_計極細
  6
CONTINUOUS
 62
    2
 10
891.49154817930912
 20
1149.8976840311191
 11
891.49154817930912
 21
1144.5976840311198
  0
LINE
  8
_0-0_計極細
  6
CONTINUOUS
 62
    2
 10
878.49154817930912
 20
1166.4976840311185
 11
878.49154817930912
 21
1161.2976840311187
  0
LINE
  8
_0-0_計極細
  6
CONTINUOUS
 62
    2
 10
891.49154817930912
 20
1166.4976840311185
 11
891.49154817930912
 21
1161.2976840311187
  0
LINE
  8
_0-0_計極細
  6
CONTINUOUS
 62
    2
 10
878.49154817930912
 20
1116.1976840311174
 11
878.49154817930912
 21
1110.5976840311171
  0
LINE
  8
_0-0_計極細
  6
CONTINUOUS
 62
    2
 10
891.49154817930912
 20
1116.1976840311174
 11
891.49154817930912
 21
1110.5976840311171
  0
LINE
  8
_0-0_計極細
  6
CONTINUOUS
 62
    2
 10
878.49154817930912
 20
1133.1976840311165
 11
878.49154817930912
 21
1127.5976840311162
  0
LINE
  8
_0-0_計極細
  6
CONTINUOUS
 62
    2
 10
891.49154817930912
 20
1133.1976840311165
 11
891.49154817930912
 21
1127.5976840311162
  0
LINE
  8
_0-0_計極細
  6
CONTINUOUS
 62
    2
 10
878.49154817930912
 20
946.19768403113198
 11
878.49154817930912
 21
940.59768403113162
  0
LINE
  8
_0-0_計極細
  6
CONTINUOUS
 62
    2
 10
891.49154817930912
 20
946.19768403113198
 11
891.49154817930912
 21
940.59768403113162
  0
LINE
  8
_0-0_計極細
  6
CONTINUOUS
 62
    2
 10
878.49154817930912
 20
963.19768403113289
 11
878.49154817930912
 21
957.59768403113253
  0
LINE
  8
_0-0_計極細
  6
CONTINUOUS
 62
    2
 10
891.49154817930912
 20
963.19768403113289
 11
891.49154817930912
 21
957.59768403113253
  0
LINE
  8
_0-0_計極細
  6
CONTINUOUS
 62
    2
 10
878.49154817930912
 20
980.19768403113289
 11
878.49154817930912
 21
974.59768403113344
  0
LINE
  8
_0-0_計極細
  6
CONTINUOUS
 62
    2
 10
891.49154817930912
 20
980.19768403113289
 11
891.49154817930912
 21
974.59768403113344
  0
LINE
  8
_0-0_計極細
  6
CONTINUOUS
 62
    2
 10
878.49154817930912
 20
997.1976840311338
 11
878.49154817930912
 21
991.59768403113344
  0
LINE
  8
_0-0_計極細
  6
CONTINUOUS
 62
    2
 10
891.49154817930912
 20
997.1976840311338
 11
891.49154817930912
 21
991.59768403113344
  0
LINE
  8
_0-0_計極細
  6
CONTINUOUS
 62
    2
 10
878.49154817930912
 20
1014.1976840311347
 11
878.49154817930912
 21
1008.5976840311343
  0
LINE
  8
_0-0_計極細
  6
CONTINUOUS
 62
    2
 10
891.49154817930912
 20
1014.1976840311347
 11
891.49154817930912
 21
1008.5976840311343
  0
LINE
  8
_0-0_計極細
  6
CONTINUOUS
 62
    2
 10
878.49154817930912
 20
1031.1976840311338
 11
878.49154817930912
 21
1025.5976840311334
  0
LINE
  8
_0-0_計極細
  6
CONTINUOUS
 62
    2
 10
891.49154817930912
 20
1031.1976840311338
 11
891.49154817930912
 21
1025.5976840311334
  0
LINE
  8
_0-0_計極細
  6
CONTINUOUS
 62
    2
 10
878.49154817930912
 20
1048.1976840311329
 11
878.49154817930912
 21
1042.5976840311325
  0
LINE
  8
_0-0_計極細
  6
CONTINUOUS
 62
    2
 10
891.49154817930912
 20
1048.1976840311329
 11
891.49154817930912
 21
1042.5976840311325
  0
LINE
  8
_0-0_計極細
  6
CONTINUOUS
 62
    2
 10
878.49154817930912
 20
1065.197684031132
 11
878.49154817930912
 21
1059.5976840311316
  0
LINE
  8
_0-0_計極細
  6
CONTINUOUS
 62
    2
 10
891.49154817930912
 20
1065.197684031132
 11
891.49154817930912
 21
1059.5976840311316
  0
LINE
  8
_0-0_計極細
  6
CONTINUOUS
 62
    2
 10
878.49154817930912
 20
1082.1976840311311
 11
878.49154817930912
 21
1076.5976840311307
  0
LINE
  8
_0-0_計極細
  6
CONTINUOUS
 62
    2
 10
891.49154817930912
 20
1082.1976840311311
 11
891.49154817930912
 21
1076.5976840311307
  0
LINE
  8
_0-0_計極細
  6
CONTINUOUS
 62
    2
 10
878.49154817930912
 20
923.59768403113071
 11
878.49154817930912
 21
929.19768403113108
  0
LINE
  8
_0-0_計極細
  6
CONTINUOUS
 62
    2
 10
891.49154817930912
 20
923.59768403113071
 11
891.49154817930912
 21
929.19768403113108
  0
LINE
  8
_0-0_計極細
  6
CONTINUOUS
 62
    2
 10
878.49154817930912
 20
906.5976840311298
 11
878.49154817930912
 21
912.19768403113017
  0
LINE
  8
_0-0_計極細
  6
CONTINUOUS
 62
    2
 10
891.49154817930912
 20
906.5976840311298
 11
891.49154817930912
 21
912.19768403113017
  0
LINE
  8
_0-0_計極細
  6
CONTINUOUS
 62
    2
 10
878.49154817930912
 20
889.5976840311298
 11
878.49154817930912
 21
895.19768403112926
  0
LINE
  8
_0-0_計極細
  6
CONTINUOUS
 62
    2
 10
891.49154817930912
 20
889.5976840311298
 11
891.49154817930912
 21
895.19768403112926
  0
LINE
  8
_0-0_計極細
  6
CONTINUOUS
 62
    2
 10
878.49154817930912
 20
872.59768403113071
 11
878.49154817930912
 21
878.19768403113017
  0
LINE
  8
_0-0_計極細
  6
CONTINUOUS
 62
    2
 10
891.49154817930912
 20
872.59768403113071
 11
891.49154817930912
 21
878.19768403113017
  0
LINE
  8
_0-0_計極細
  6
CONTINUOUS
 62
    2
 10
878.49154817930912
 20
855.59768403113162
 11
878.49154817930912
 21
861.19768403113108
  0
LINE
  8
_0-0_計極細
  6
CONTINUOUS
 62
    2
 10
891.49154817930912
 20
855.59768403113162
 11
891.49154817930912
 21
861.19768403113108
  0
LINE
  8
_0-0_計極細
  6
CONTINUOUS
 62
    2
 10
878.49154817930912
 20
838.59768403113253
 11
878.49154817930912
 21
844.19768403113198
  0
LINE
  8
_0-0_計極細
  6
CONTINUOUS
 62
    2
 10
891.49154817930912
 20
838.59768403113253
 11
891.49154817930912
 21
844.19768403113198
  0
LINE
  8
_0-0_計極細
  6
CONTINUOUS
 62
    2
 10
878.49154817930912
 20
821.59768403113344
 11
878.49154817930912
 21
827.19768403113289
  0
LINE
  8
_0-0_計極細
  6
CONTINUOUS
 62
    2
 10
891.49154817930912
 20
821.59768403113344
 11
891.49154817930912
 21
827.19768403113289
  0
LINE
  8
_0-0_計極細
  6
CONTINUOUS
 62
    2
 10
878.49154817930912
 20
804.89768403112998
 11
878.49154817930912
 21
810.19768403113017
  0
LINE
  8
_0-0_計極細
  6
CONTINUOUS
 62
    2
 10
891.49154817930912
 20
804.89768403112998
 11
891.49154817930912
 21
810.19768403113017
  0
LINE
  8
_0-0_計極細
  6
CONTINUOUS
 62
    2
 10
878.49154817930912
 20
788.29768403113144
 11
878.49154817930912
 21
793.49768403113126
  0
LINE
  8
_0-0_計極細
  6
CONTINUOUS
 62
    2
 10
891.49154817930912
 20
788.29768403113144
 11
891.49154817930912
 21
793.49768403113126
  0
LINE
  8
_0-0_計極細
  6
CENTER1
 62
    2
 10
933.49154817930912
 20
1186.1484034555908
 11
933.49154817930912
 21
769.83986029011544
  0
LINE
  8
_0-0_計極細
  6
CONTINUOUS
 62
    2
 10
926.99154817930912
 20
1149.8976840311191
 11
926.99154817930912
 21
1144.5976840311198
  0
LINE
  8
_0-0_計極細
  6
CONTINUOUS
 62
    2
 10
939.99154817930912
 20
1149.8976840311191
 11
939.99154817930912
 21
1144.5976840311198
  0
LINE
  8
_0-0_計極細
  6
CONTINUOUS
 62
    2
 10
926.99154817930912
 20
1166.4976840311185
 11
926.99154817930912
 21
1161.2976840311187
  0
LINE
  8
_0-0_計極細
  6
CONTINUOUS
 62
    2
 10
939.99154817930912
 20
1166.4976840311185
 11
939.99154817930912
 21
1161.2976840311187
  0
LINE
  8
_0-0_計極細
  6
CONTINUOUS
 62
    2
 10
926.99154817930912
 20
1116.1976840311174
 11
926.99154817930912
 21
1110.5976840311171
  0
LINE
  8
_0-0_計極細
  6
CONTINUOUS
 62
    2
 10
939.99154817930912
 20
1116.1976840311174
 11
939.99154817930912
 21
1110.5976840311171
  0
LINE
  8
_0-0_計極細
  6
CONTINUOUS
 62
    2
 10
926.99154817930912
 20
1133.1976840311165
 11
926.99154817930912
 21
1127.5976840311162
  0
LINE
  8
_0-0_計極細
  6
CONTINUOUS
 62
    2
 10
939.99154817930912
 20
1133.1976840311165
 11
939.99154817930912
 21
1127.5976840311162
  0
LINE
  8
_0-0_計極細
  6
CONTINUOUS
 62
    2
 10
926.99154817930912
 20
946.19768403113198
 11
926.99154817930912
 21
940.59768403113162
  0
LINE
  8
_0-0_計極細
  6
CONTINUOUS
 62
    2
 10
939.99154817930912
 20
946.19768403113198
 11
939.99154817930912
 21
940.59768403113162
  0
LINE
  8
_0-0_計極細
  6
CONTINUOUS
 62
    2
 10
926.99154817930912
 20
963.19768403113289
 11
926.99154817930912
 21
957.59768403113253
  0
LINE
  8
_0-0_計極細
  6
CONTINUOUS
 62
    2
 10
939.99154817930912
 20
963.19768403113289
 11
939.99154817930912
 21
957.59768403113253
  0
LINE
  8
_0-0_計極細
  6
CONTINUOUS
 62
    2
 10
926.99154817930912
 20
980.19768403113289
 11
926.99154817930912
 21
974.59768403113344
  0
LINE
  8
_0-0_計極細
  6
CONTINUOUS
 62
    2
 10
939.99154817930912
 20
980.19768403113289
 11
939.99154817930912
 21
974.59768403113344
  0
LINE
  8
_0-0_計極細
  6
CONTINUOUS
 62
    2
 10
926.99154817930912
 20
997.1976840311338
 11
926.99154817930912
 21
991.59768403113344
  0
LINE
  8
_0-0_計極細
  6
CONTINUOUS
 62
    2
 10
939.99154817930912
 20
997.1976840311338
 11
939.99154817930912
 21
991.59768403113344
  0
LINE
  8
_0-0_計極細
  6
CONTINUOUS
 62
    2
 10
926.99154817930912
 20
1014.1976840311347
 11
926.99154817930912
 21
1008.5976840311343
  0
LINE
  8
_0-0_計極細
  6
CONTINUOUS
 62
    2
 10
939.99154817930912
 20
1014.1976840311347
 11
939.99154817930912
 21
1008.5976840311343
  0
LINE
  8
_0-0_計極細
  6
CONTINUOUS
 62
    2
 10
926.99154817930912
 20
1031.1976840311338
 11
926.99154817930912
 21
1025.5976840311334
  0
LINE
  8
_0-0_計極細
  6
CONTINUOUS
 62
    2
 10
939.99154817930912
 20
1031.1976840311338
 11
939.99154817930912
 21
1025.5976840311334
  0
LINE
  8
_0-0_計極細
  6
CONTINUOUS
 62
    2
 10
926.99154817930912
 20
1048.1976840311329
 11
926.99154817930912
 21
1042.5976840311325
  0
LINE
  8
_0-0_計極細
  6
CONTINUOUS
 62
    2
 10
939.99154817930912
 20
1048.1976840311329
 11
939.99154817930912
 21
1042.5976840311325
  0
LINE
  8
_0-0_計極細
  6
CONTINUOUS
 62
    2
 10
926.99154817930912
 20
1065.197684031132
 11
926.99154817930912
 21
1059.5976840311316
  0
LINE
  8
_0-0_計極細
  6
CONTINUOUS
 62
    2
 10
939.99154817930912
 20
1065.197684031132
 11
939.99154817930912
 21
1059.5976840311316
  0
LINE
  8
_0-0_計極細
  6
CONTINUOUS
 62
    2
 10
926.99154817930912
 20
1082.1976840311311
 11
926.99154817930912
 21
1076.5976840311307
  0
LINE
  8
_0-0_計極細
  6
CONTINUOUS
 62
    2
 10
939.99154817930912
 20
1082.1976840311311
 11
939.99154817930912
 21
1076.5976840311307
  0
LINE
  8
_0-0_計極細
  6
CONTINUOUS
 62
    2
 10
926.99154817930912
 20
923.59768403113071
 11
926.99154817930912
 21
929.19768403113108
  0
LINE
  8
_0-0_計極細
  6
CONTINUOUS
 62
    2
 10
939.99154817930912
 20
923.59768403113071
 11
939.99154817930912
 21
929.19768403113108
  0
LINE
  8
_0-0_計極細
  6
CONTINUOUS
 62
    2
 10
926.99154817930912
 20
906.5976840311298
 11
926.99154817930912
 21
912.19768403113017
  0
LINE
  8
_0-0_計極細
  6
CONTINUOUS
 62
    2
 10
939.99154817930912
 20
906.5976840311298
 11
939.99154817930912
 21
912.19768403113017
  0
LINE
  8
_0-0_計極細
  6
CONTINUOUS
 62
    2
 10
926.99154817930912
 20
889.5976840311298
 11
926.99154817930912
 21
895.19768403112926
  0
LINE
  8
_0-0_計極細
  6
CONTINUOUS
 62
    2
 10
939.99154817930912
 20
889.5976840311298
 11
939.99154817930912
 21
895.19768403112926
  0
LINE
  8
_0-0_計極細
  6
CONTINUOUS
 62
    2
 10
926.99154817930912
 20
872.59768403113071
 11
926.99154817930912
 21
878.19768403113017
  0
LINE
  8
_0-0_計極細
  6
CONTINUOUS
 62
    2
 10
939.99154817930912
 20
872.59768403113071
 11
939.99154817930912
 21
878.19768403113017
  0
LINE
  8
_0-0_計極細
  6
CONTINUOUS
 62
    2
 10
926.99154817930912
 20
855.59768403113162
 11
926.99154817930912
 21
861.19768403113108
  0
LINE
  8
_0-0_計極細
  6
CONTINUOUS
 62
    2
 10
939.99154817930912
 20
855.59768403113162
 11
939.99154817930912
 21
861.19768403113108
  0
LINE
  8
_0-0_計極細
  6
CONTINUOUS
 62
    2
 10
926.99154817930912
 20
838.59768403113253
 11
926.99154817930912
 21
844.19768403113198
  0
LINE
  8
_0-0_計極細
  6
CONTINUOUS
 62
    2
 10
939.99154817930912
 20
838.59768403113253
 11
939.99154817930912
 21
844.19768403113198
  0
LINE
  8
_0-0_計極細
  6
CONTINUOUS
 62
    2
 10
926.99154817930912
 20
821.59768403113344
 11
926.99154817930912
 21
827.19768403113289
  0
LINE
  8
_0-0_計極細
  6
CONTINUOUS
 62
    2
 10
939.99154817930912
 20
821.59768403113344
 11
939.99154817930912
 21
827.19768403113289
  0
LINE
  8
_0-0_計極細
  6
CONTINUOUS
 62
    2
 10
926.99154817930912
 20
804.89768403112998
 11
926.99154817930912
 21
810.19768403113017
  0
LINE
  8
_0-0_計極細
  6
CONTINUOUS
 62
    2
 10
939.99154817930912
 20
804.89768403112998
 11
939.99154817930912
 21
810.19768403113017
  0
LINE
  8
_0-0_計極細
  6
CONTINUOUS
 62
    2
 10
926.99154817930912
 20
788.29768403113144
 11
926.99154817930912
 21
793.49768403113126
  0
LINE
  8
_0-0_計極細
  6
CONTINUOUS
 62
    2
 10
939.99154817930912
 20
788.29768403113144
 11
939.99154817930912
 21
793.49768403113126
  0
LINE
  8
_0-0_計極細
  6
CENTER1
 62
    2
 10
981.99154817930912
 20
1186.1484034555908
 11
981.99154817930912
 21
769.83986029011544
  0
LINE
  8
_0-0_計極細
  6
CONTINUOUS
 62
    2
 10
975.49154817930912
 20
1149.8976840311191
 11
975.49154817930912
 21
1144.5976840311198
  0
LINE
  8
_0-0_計極細
  6
CONTINUOUS
 62
    2
 10
988.49154817930912
 20
1149.8976840311191
 11
988.49154817930912
 21
1144.5976840311198
  0
LINE
  8
_0-0_計極細
  6
CONTINUOUS
 62
    2
 10
975.49154817930912
 20
1166.4976840311185
 11
975.49154817930912
 21
1161.2976840311187
  0
LINE
  8
_0-0_計極細
  6
CONTINUOUS
 62
    2
 10
988.49154817930912
 20
1166.4976840311185
 11
988.49154817930912
 21
1161.2976840311187
  0
LINE
  8
_0-0_計極細
  6
CONTINUOUS
 62
    2
 10
975.49154817930912
 20
1116.1976840311174
 11
975.49154817930912
 21
1110.5976840311171
  0
LINE
  8
_0-0_計極細
  6
CONTINUOUS
 62
    2
 10
988.49154817930912
 20
1116.1976840311174
 11
988.49154817930912
 21
1110.5976840311171
  0
LINE
  8
_0-0_計極細
  6
CONTINUOUS
 62
    2
 10
975.49154817930912
 20
1133.1976840311165
 11
975.49154817930912
 21
1127.5976840311162
  0
LINE
  8
_0-0_計極細
  6
CONTINUOUS
 62
    2
 10
988.49154817930912
 20
1133.1976840311165
 11
988.49154817930912
 21
1127.5976840311162
  0
LINE
  8
_0-0_計極細
  6
CONTINUOUS
 62
    2
 10
975.49154817930912
 20
946.19768403113198
 11
975.49154817930912
 21
940.59768403113162
  0
LINE
  8
_0-0_計極細
  6
CONTINUOUS
 62
    2
 10
988.49154817930912
 20
946.19768403113198
 11
988.49154817930912
 21
940.59768403113162
  0
LINE
  8
_0-0_計極細
  6
CONTINUOUS
 62
    2
 10
975.49154817930912
 20
963.19768403113289
 11
975.49154817930912
 21
957.59768403113253
  0
LINE
  8
_0-0_計極細
  6
CONTINUOUS
 62
    2
 10
988.49154817930912
 20
963.19768403113289
 11
988.49154817930912
 21
957.59768403113253
  0
LINE
  8
_0-0_計極細
  6
CONTINUOUS
 62
    2
 10
975.49154817930912
 20
980.19768403113289
 11
975.49154817930912
 21
974.59768403113344
  0
LINE
  8
_0-0_計極細
  6
CONTINUOUS
 62
    2
 10
988.49154817930912
 20
980.19768403113289
 11
988.49154817930912
 21
974.59768403113344
  0
LINE
  8
_0-0_計極細
  6
CONTINUOUS
 62
    2
 10
975.49154817930912
 20
997.1976840311338
 11
975.49154817930912
 21
991.59768403113344
  0
LINE
  8
_0-0_計極細
  6
CONTINUOUS
 62
    2
 10
988.49154817930912
 20
997.1976840311338
 11
988.49154817930912
 21
991.59768403113344
  0
LINE
  8
_0-0_計極細
  6
CONTINUOUS
 62
    2
 10
975.49154817930912
 20
1014.1976840311347
 11
975.49154817930912
 21
1008.5976840311343
  0
LINE
  8
_0-0_計極細
  6
CONTINUOUS
 62
    2
 10
988.49154817930912
 20
1014.1976840311347
 11
988.49154817930912
 21
1008.5976840311343
  0
LINE
  8
_0-0_計極細
  6
CONTINUOUS
 62
    2
 10
975.49154817930912
 20
1031.1976840311338
 11
975.49154817930912
 21
1025.5976840311334
  0
LINE
  8
_0-0_計極細
  6
CONTINUOUS
 62
    2
 10
988.49154817930912
 20
1031.1976840311338
 11
988.49154817930912
 21
1025.5976840311334
  0
LINE
  8
_0-0_計極細
  6
CONTINUOUS
 62
    2
 10
975.49154817930912
 20
1048.1976840311329
 11
975.49154817930912
 21
1042.5976840311325
  0
LINE
  8
_0-0_計極細
  6
CONTINUOUS
 62
    2
 10
988.49154817930912
 20
1048.1976840311329
 11
988.49154817930912
 21
1042.5976840311325
  0
LINE
  8
_0-0_計極細
  6
CONTINUOUS
 62
    2
 10
975.49154817930912
 20
1065.197684031132
 11
975.49154817930912
 21
1059.5976840311316
  0
LINE
  8
_0-0_計極細
  6
CONTINUOUS
 62
    2
 10
988.49154817930912
 20
1065.197684031132
 11
988.49154817930912
 21
1059.5976840311316
  0
LINE
  8
_0-0_計極細
  6
CONTINUOUS
 62
    2
 10
975.49154817930912
 20
1082.1976840311311
 11
975.49154817930912
 21
1076.5976840311307
  0
LINE
  8
_0-0_計極細
  6
CONTINUOUS
 62
    2
 10
988.49154817930912
 20
1082.1976840311311
 11
988.49154817930912
 21
1076.5976840311307
  0
LINE
  8
_0-0_計極細
  6
CONTINUOUS
 62
    2
 10
975.49154817930912
 20
923.59768403113071
 11
975.49154817930912
 21
929.19768403113108
  0
LINE
  8
_0-0_計極細
  6
CONTINUOUS
 62
    2
 10
988.49154817930912
 20
923.59768403113071
 11
988.49154817930912
 21
929.19768403113108
  0
LINE
  8
_0-0_計極細
  6
CONTINUOUS
 62
    2
 10
975.49154817930912
 20
906.5976840311298
 11
975.49154817930912
 21
912.19768403113017
  0
LINE
  8
_0-0_計極細
  6
CONTINUOUS
 62
    2
 10
988.49154817930912
 20
906.5976840311298
 11
988.49154817930912
 21
912.19768403113017
  0
LINE
  8
_0-0_計極細
  6
CONTINUOUS
 62
    2
 10
975.49154817930912
 20
889.5976840311298
 11
975.49154817930912
 21
895.19768403112926
  0
LINE
  8
_0-0_計極細
  6
CONTINUOUS
 62
    2
 10
988.49154817930912
 20
889.5976840311298
 11
988.49154817930912
 21
895.19768403112926
  0
LINE
  8
_0-0_計極細
  6
CONTINUOUS
 62
    2
 10
975.49154817930912
 20
872.59768403113071
 11
975.49154817930912
 21
878.19768403113017
  0
LINE
  8
_0-0_計極細
  6
CONTINUOUS
 62
    2
 10
988.49154817930912
 20
872.59768403113071
 11
988.49154817930912
 21
878.19768403113017
  0
LINE
  8
_0-0_計極細
  6
CONTINUOUS
 62
    2
 10
975.49154817930912
 20
855.59768403113162
 11
975.49154817930912
 21
861.19768403113108
  0
LINE
  8
_0-0_計極細
  6
CONTINUOUS
 62
    2
 10
988.49154817930912
 20
855.59768403113162
 11
988.49154817930912
 21
861.19768403113108
  0
LINE
  8
_0-0_計極細
  6
CONTINUOUS
 62
    2
 10
975.49154817930912
 20
838.59768403113253
 11
975.49154817930912
 21
844.19768403113198
  0
LINE
  8
_0-0_計極細
  6
CONTINUOUS
 62
    2
 10
988.49154817930912
 20
838.59768403113253
 11
988.49154817930912
 21
844.19768403113198
  0
LINE
  8
_0-0_計極細
  6
CONTINUOUS
 62
    2
 10
975.49154817930912
 20
821.59768403113344
 11
975.49154817930912
 21
827.19768403113289
  0
LINE
  8
_0-0_計極細
  6
CONTINUOUS
 62
    2
 10
988.49154817930912
 20
821.59768403113344
 11
988.49154817930912
 21
827.19768403113289
  0
LINE
  8
_0-0_計極細
  6
CONTINUOUS
 62
    2
 10
975.49154817930912
 20
804.89768403112998
 11
975.49154817930912
 21
810.19768403113017
  0
LINE
  8
_0-0_計極細
  6
CONTINUOUS
 62
    2
 10
988.49154817930912
 20
804.89768403112998
 11
988.49154817930912
 21
810.19768403113017
  0
LINE
  8
_0-0_計極細
  6
CONTINUOUS
 62
    2
 10
975.49154817930912
 20
788.29768403113144
 11
975.49154817930912
 21
793.49768403113126
  0
LINE
  8
_0-0_計極細
  6
CONTINUOUS
 62
    2
 10
988.49154817930912
 20
788.29768403113144
 11
988.49154817930912
 21
793.49768403113126
  0
LINE
  8
_0-0_計極細
  6
CENTER1
 62
    2
 10
1030.4915481793091
 20
1186.1484034555908
 11
1030.4915481793091
 21
769.83986029011544
  0
LINE
  8
_0-0_計極細
  6
CONTINUOUS
 62
    2
 10
1023.9915481793091
 20
1149.8976840311191
 11
1023.9915481793091
 21
1144.5976840311198
  0
LINE
  8
_0-0_計極細
  6
CONTINUOUS
 62
    2
 10
1036.9915481793091
 20
1149.8976840311191
 11
1036.9915481793091
 21
1144.5976840311198
  0
LINE
  8
_0-0_計極細
  6
CONTINUOUS
 62
    2
 10
1023.9915481793091
 20
1166.4976840311185
 11
1023.9915481793091
 21
1161.2976840311187
  0
LINE
  8
_0-0_計極細
  6
CONTINUOUS
 62
    2
 10
1036.9915481793091
 20
1166.4976840311185
 11
1036.9915481793091
 21
1161.2976840311187
  0
LINE
  8
_0-0_計極細
  6
CONTINUOUS
 62
    2
 10
1023.9915481793091
 20
1116.1976840311174
 11
1023.9915481793091
 21
1110.5976840311171
  0
LINE
  8
_0-0_計極細
  6
CONTINUOUS
 62
    2
 10
1036.9915481793091
 20
1116.1976840311174
 11
1036.9915481793091
 21
1110.5976840311171
  0
LINE
  8
_0-0_計極細
  6
CONTINUOUS
 62
    2
 10
1023.9915481793091
 20
1133.1976840311165
 11
1023.9915481793091
 21
1127.5976840311162
  0
LINE
  8
_0-0_計極細
  6
CONTINUOUS
 62
    2
 10
1036.9915481793091
 20
1133.1976840311165
 11
1036.9915481793091
 21
1127.5976840311162
  0
LINE
  8
_0-0_計極細
  6
CONTINUOUS
 62
    2
 10
1023.9915481793091
 20
946.19768403113198
 11
1023.9915481793091
 21
940.59768403113162
  0
LINE
  8
_0-0_計極細
  6
CONTINUOUS
 62
    2
 10
1036.9915481793091
 20
946.19768403113198
 11
1036.9915481793091
 21
940.59768403113162
  0
LINE
  8
_0-0_計極細
  6
CONTINUOUS
 62
    2
 10
1023.9915481793091
 20
963.19768403113289
 11
1023.9915481793091
 21
957.59768403113253
  0
LINE
  8
_0-0_計極細
  6
CONTINUOUS
 62
    2
 10
1036.9915481793091
 20
963.19768403113289
 11
1036.9915481793091
 21
957.59768403113253
  0
LINE
  8
_0-0_計極細
  6
CONTINUOUS
 62
    2
 10
1023.9915481793091
 20
980.19768403113289
 11
1023.9915481793091
 21
974.59768403113344
  0
LINE
  8
_0-0_計極細
  6
CONTINUOUS
 62
    2
 10
1036.9915481793091
 20
980.19768403113289
 11
1036.9915481793091
 21
974.59768403113344
  0
LINE
  8
_0-0_計極細
  6
CONTINUOUS
 62
    2
 10
1023.9915481793091
 20
997.1976840311338
 11
1023.9915481793091
 21
991.59768403113344
  0
LINE
  8
_0-0_計極細
  6
CONTINUOUS
 62
    2
 10
1036.9915481793091
 20
997.1976840311338
 11
1036.9915481793091
 21
991.59768403113344
  0
LINE
  8
_0-0_計極細
  6
CONTINUOUS
 62
    2
 10
1023.9915481793091
 20
1014.1976840311347
 11
1023.9915481793091
 21
1008.5976840311343
  0
LINE
  8
_0-0_計極細
  6
CONTINUOUS
 62
    2
 10
1036.9915481793091
 20
1014.1976840311347
 11
1036.9915481793091
 21
1008.5976840311343
  0
LINE
  8
_0-0_計極細
  6
CONTINUOUS
 62
    2
 10
1023.9915481793091
 20
1031.1976840311338
 11
1023.9915481793091
 21
1025.5976840311334
  0
LINE
  8
_0-0_計極細
  6
CONTINUOUS
 62
    2
 10
1036.9915481793091
 20
1031.1976840311338
 11
1036.9915481793091
 21
1025.5976840311334
  0
LINE
  8
_0-0_計極細
  6
CONTINUOUS
 62
    2
 10
1023.9915481793091
 20
1048.1976840311329
 11
1023.9915481793091
 21
1042.5976840311325
  0
LINE
  8
_0-0_計極細
  6
CONTINUOUS
 62
    2
 10
1036.9915481793091
 20
1048.1976840311329
 11
1036.9915481793091
 21
1042.5976840311325
  0
LINE
  8
_0-0_計極細
  6
CONTINUOUS
 62
    2
 10
1023.9915481793091
 20
1065.197684031132
 11
1023.9915481793091
 21
1059.5976840311316
  0
LINE
  8
_0-0_計極細
  6
CONTINUOUS
 62
    2
 10
1036.9915481793091
 20
1065.197684031132
 11
1036.9915481793091
 21
1059.5976840311316
  0
LINE
  8
_0-0_計極細
  6
CONTINUOUS
 62
    2
 10
1023.9915481793091
 20
1082.1976840311311
 11
1023.9915481793091
 21
1076.5976840311307
  0
LINE
  8
_0-0_計極細
  6
CONTINUOUS
 62
    2
 10
1036.9915481793091
 20
1082.1976840311311
 11
1036.9915481793091
 21
1076.5976840311307
  0
LINE
  8
_0-0_計極細
  6
CONTINUOUS
 62
    2
 10
1023.9915481793091
 20
923.59768403113071
 11
1023.9915481793091
 21
929.19768403113108
  0
LINE
  8
_0-0_計極細
  6
CONTINUOUS
 62
    2
 10
1036.9915481793091
 20
923.59768403113071
 11
1036.9915481793091
 21
929.19768403113108
  0
LINE
  8
_0-0_計極細
  6
CONTINUOUS
 62
    2
 10
1023.9915481793091
 20
906.5976840311298
 11
1023.9915481793091
 21
912.19768403113017
  0
LINE
  8
_0-0_計極細
  6
CONTINUOUS
 62
    2
 10
1036.9915481793091
 20
906.5976840311298
 11
1036.9915481793091
 21
912.19768403113017
  0
LINE
  8
_0-0_計極細
  6
CONTINUOUS
 62
    2
 10
1023.9915481793091
 20
889.5976840311298
 11
1023.9915481793091
 21
895.19768403112926
  0
LINE
  8
_0-0_計極細
  6
CONTINUOUS
 62
    2
 10
1036.9915481793091
 20
889.5976840311298
 11
1036.9915481793091
 21
895.19768403112926
  0
LINE
  8
_0-0_計極細
  6
CONTINUOUS
 62
    2
 10
1023.9915481793091
 20
872.59768403113071
 11
1023.9915481793091
 21
878.19768403113017
  0
LINE
  8
_0-0_計極細
  6
CONTINUOUS
 62
    2
 10
1036.9915481793091
 20
872.59768403113071
 11
1036.9915481793091
 21
878.19768403113017
  0
LINE
  8
_0-0_計極細
  6
CONTINUOUS
 62
    2
 10
1023.9915481793091
 20
855.59768403113162
 11
1023.9915481793091
 21
861.19768403113108
  0
LINE
  8
_0-0_計極細
  6
CONTINUOUS
 62
    2
 10
1036.9915481793091
 20
855.59768403113162
 11
1036.9915481793091
 21
861.19768403113108
  0
LINE
  8
_0-0_計極細
  6
CONTINUOUS
 62
    2
 10
1023.9915481793091
 20
838.59768403113253
 11
1023.9915481793091
 21
844.19768403113198
  0
LINE
  8
_0-0_計極細
  6
CONTINUOUS
 62
    2
 10
1036.9915481793091
 20
838.59768403113253
 11
1036.9915481793091
 21
844.19768403113198
  0
LINE
  8
_0-0_計極細
  6
CONTINUOUS
 62
    2
 10
1023.9915481793091
 20
821.59768403113344
 11
1023.9915481793091
 21
827.19768403113289
  0
LINE
  8
_0-0_計極細
  6
CONTINUOUS
 62
    2
 10
1036.9915481793091
 20
821.59768403113344
 11
1036.9915481793091
 21
827.19768403113289
  0
LINE
  8
_0-0_計極細
  6
CONTINUOUS
 62
    2
 10
1023.9915481793091
 20
804.89768403112998
 11
1023.9915481793091
 21
810.19768403113017
  0
LINE
  8
_0-0_計極細
  6
CONTINUOUS
 62
    2
 10
1036.9915481793091
 20
804.89768403112998
 11
1036.9915481793091
 21
810.19768403113017
  0
LINE
  8
_0-0_計極細
  6
CONTINUOUS
 62
    2
 10
1023.9915481793091
 20
788.29768403113144
 11
1023.9915481793091
 21
793.49768403113126
  0
LINE
  8
_0-0_計極細
  6
CONTINUOUS
 62
    2
 10
1036.9915481793091
 20
788.29768403113144
 11
1036.9915481793091
 21
793.49768403113126
  0
LINE
  8
_0-0_計極細
  6
CENTER1
 62
    2
 10
1078.9915481793091
 20
1186.1484034555908
 11
1078.9915481793091
 21
769.83986029011544
  0
LINE
  8
_0-0_計極細
  6
CONTINUOUS
 62
    2
 10
1072.4915481793091
 20
1149.8976840311191
 11
1072.4915481793091
 21
1144.5976840311198
  0
LINE
  8
_0-0_計極細
  6
CONTINUOUS
 62
    2
 10
1085.4915481793091
 20
1149.8976840311191
 11
1085.4915481793091
 21
1144.5976840311198
  0
LINE
  8
_0-0_計極細
  6
CONTINUOUS
 62
    2
 10
1072.4915481793091
 20
1166.4976840311185
 11
1072.4915481793091
 21
1161.2976840311187
  0
LINE
  8
_0-0_計極細
  6
CONTINUOUS
 62
    2
 10
1085.4915481793091
 20
1166.4976840311185
 11
1085.4915481793091
 21
1161.2976840311187
  0
LINE
  8
_0-0_計極細
  6
CONTINUOUS
 62
    2
 10
1072.4915481793091
 20
1116.1976840311174
 11
1072.4915481793091
 21
1110.5976840311171
  0
LINE
  8
_0-0_計極細
  6
CONTINUOUS
 62
    2
 10
1085.4915481793091
 20
1116.1976840311174
 11
1085.4915481793091
 21
1110.5976840311171
  0
LINE
  8
_0-0_計極細
  6
CONTINUOUS
 62
    2
 10
1072.4915481793091
 20
1133.1976840311165
 11
1072.4915481793091
 21
1127.5976840311162
  0
LINE
  8
_0-0_計極細
  6
CONTINUOUS
 62
    2
 10
1085.4915481793091
 20
1133.1976840311165
 11
1085.4915481793091
 21
1127.5976840311162
  0
LINE
  8
_0-0_計極細
  6
CONTINUOUS
 62
    2
 10
1072.4915481793091
 20
946.19768403113198
 11
1072.4915481793091
 21
940.59768403113162
  0
LINE
  8
_0-0_計極細
  6
CONTINUOUS
 62
    2
 10
1085.4915481793091
 20
946.19768403113198
 11
1085.4915481793091
 21
940.59768403113162
  0
LINE
  8
_0-0_計極細
  6
CONTINUOUS
 62
    2
 10
1072.4915481793091
 20
963.19768403113289
 11
1072.4915481793091
 21
957.59768403113253
  0
LINE
  8
_0-0_計極細
  6
CONTINUOUS
 62
    2
 10
1085.4915481793091
 20
963.19768403113289
 11
1085.4915481793091
 21
957.59768403113253
  0
LINE
  8
_0-0_計極細
  6
CONTINUOUS
 62
    2
 10
1072.4915481793091
 20
980.19768403113289
 11
1072.4915481793091
 21
974.59768403113344
  0
LINE
  8
_0-0_計極細
  6
CONTINUOUS
 62
    2
 10
1085.4915481793091
 20
980.19768403113289
 11
1085.4915481793091
 21
974.59768403113344
  0
LINE
  8
_0-0_計極細
  6
CONTINUOUS
 62
    2
 10
1072.4915481793091
 20
997.1976840311338
 11
1072.4915481793091
 21
991.59768403113344
  0
LINE
  8
_0-0_計極細
  6
CONTINUOUS
 62
    2
 10
1085.4915481793091
 20
997.1976840311338
 11
1085.4915481793091
 21
991.59768403113344
  0
LINE
  8
_0-0_計極細
  6
CONTINUOUS
 62
    2
 10
1072.4915481793091
 20
1014.1976840311347
 11
1072.4915481793091
 21
1008.5976840311343
  0
LINE
  8
_0-0_計極細
  6
CONTINUOUS
 62
    2
 10
1085.4915481793091
 20
1014.1976840311347
 11
1085.4915481793091
 21
1008.5976840311343
  0
LINE
  8
_0-0_計極細
  6
CONTINUOUS
 62
    2
 10
1072.4915481793091
 20
1031.1976840311338
 11
1072.4915481793091
 21
1025.5976840311334
  0
LINE
  8
_0-0_計極細
  6
CONTINUOUS
 62
    2
 10
1085.4915481793091
 20
1031.1976840311338
 11
1085.4915481793091
 21
1025.5976840311334
  0
LINE
  8
_0-0_計極細
  6
CONTINUOUS
 62
    2
 10
1072.4915481793091
 20
1048.1976840311329
 11
1072.4915481793091
 21
1042.5976840311325
  0
LINE
  8
_0-0_計極細
  6
CONTINUOUS
 62
    2
 10
1085.4915481793091
 20
1048.1976840311329
 11
1085.4915481793091
 21
1042.5976840311325
  0
LINE
  8
_0-0_計極細
  6
CONTINUOUS
 62
    2
 10
1072.4915481793091
 20
1065.197684031132
 11
1072.4915481793091
 21
1059.5976840311316
  0
LINE
  8
_0-0_計極細
  6
CONTINUOUS
 62
    2
 10
1085.4915481793091
 20
1065.197684031132
 11
1085.4915481793091
 21
1059.5976840311316
  0
LINE
  8
_0-0_計極細
  6
CONTINUOUS
 62
    2
 10
1072.4915481793091
 20
1082.1976840311311
 11
1072.4915481793091
 21
1076.5976840311307
  0
LINE
  8
_0-0_計極細
  6
CONTINUOUS
 62
    2
 10
1085.4915481793091
 20
1082.1976840311311
 11
1085.4915481793091
 21
1076.5976840311307
  0
LINE
  8
_0-0_計極細
  6
CONTINUOUS
 62
    2
 10
1072.4915481793091
 20
923.59768403113071
 11
1072.4915481793091
 21
929.19768403113108
  0
LINE
  8
_0-0_計極細
  6
CONTINUOUS
 62
    2
 10
1085.4915481793091
 20
923.59768403113071
 11
1085.4915481793091
 21
929.19768403113108
  0
LINE
  8
_0-0_計極細
  6
CONTINUOUS
 62
    2
 10
1072.4915481793091
 20
906.5976840311298
 11
1072.4915481793091
 21
912.19768403113017
  0
LINE
  8
_0-0_計極細
  6
CONTINUOUS
 62
    2
 10
1085.4915481793091
 20
906.5976840311298
 11
1085.4915481793091
 21
912.19768403113017
  0
LINE
  8
_0-0_計極細
  6
CONTINUOUS
 62
    2
 10
1072.4915481793091
 20
889.5976840311298
 11
1072.4915481793091
 21
895.19768403112926
  0
LINE
  8
_0-0_計極細
  6
CONTINUOUS
 62
    2
 10
1085.4915481793091
 20
889.5976840311298
 11
1085.4915481793091
 21
895.19768403112926
  0
LINE
  8
_0-0_計極細
  6
CONTINUOUS
 62
    2
 10
1072.4915481793091
 20
872.59768403113071
 11
1072.4915481793091
 21
878.19768403113017
  0
LINE
  8
_0-0_計極細
  6
CONTINUOUS
 62
    2
 10
1085.4915481793091
 20
872.59768403113071
 11
1085.4915481793091
 21
878.19768403113017
  0
LINE
  8
_0-0_計極細
  6
CONTINUOUS
 62
    2
 10
1072.4915481793091
 20
855.59768403113162
 11
1072.4915481793091
 21
861.19768403113108
  0
LINE
  8
_0-0_計極細
  6
CONTINUOUS
 62
    2
 10
1085.4915481793091
 20
855.59768403113162
 11
1085.4915481793091
 21
861.19768403113108
  0
LINE
  8
_0-0_計極細
  6
CONTINUOUS
 62
    2
 10
1072.4915481793091
 20
838.59768403113253
 11
1072.4915481793091
 21
844.19768403113198
  0
LINE
  8
_0-0_計極細
  6
CONTINUOUS
 62
    2
 10
1085.4915481793091
 20
838.59768403113253
 11
1085.4915481793091
 21
844.19768403113198
  0
LINE
  8
_0-0_計極細
  6
CONTINUOUS
 62
    2
 10
1072.4915481793091
 20
821.59768403113344
 11
1072.4915481793091
 21
827.19768403113289
  0
LINE
  8
_0-0_計極細
  6
CONTINUOUS
 62
    2
 10
1085.4915481793091
 20
821.59768403113344
 11
1085.4915481793091
 21
827.19768403113289
  0
LINE
  8
_0-0_計極細
  6
CONTINUOUS
 62
    2
 10
1072.4915481793091
 20
804.89768403112998
 11
1072.4915481793091
 21
810.19768403113017
  0
LINE
  8
_0-0_計極細
  6
CONTINUOUS
 62
    2
 10
1085.4915481793091
 20
804.89768403112998
 11
1085.4915481793091
 21
810.19768403113017
  0
LINE
  8
_0-0_計極細
  6
CONTINUOUS
 62
    2
 10
1072.4915481793091
 20
788.29768403113144
 11
1072.4915481793091
 21
793.49768403113126
  0
LINE
  8
_0-0_計極細
  6
CONTINUOUS
 62
    2
 10
1085.4915481793091
 20
788.29768403113144
 11
1085.4915481793091
 21
793.49768403113126
  0
LINE
  8
_0-0_計極細
  6
CENTER1
 62
    2
 10
1127.4915481793091
 20
1186.1484034555908
 11
1127.4915481793091
 21
769.83986029011544
  0
LINE
  8
_0-0_計極細
  6
CONTINUOUS
 62
    2
 10
1120.9915481793091
 20
1149.8976840311191
 11
1120.9915481793091
 21
1144.5976840311198
  0
LINE
  8
_0-0_計極細
  6
CONTINUOUS
 62
    2
 10
1133.9915481793091
 20
1149.8976840311191
 11
1133.9915481793091
 21
1144.5976840311198
  0
LINE
  8
_0-0_計極細
  6
CONTINUOUS
 62
    2
 10
1120.9915481793091
 20
1166.4976840311185
 11
1120.9915481793091
 21
1161.2976840311187
  0
LINE
  8
_0-0_計極細
  6
CONTINUOUS
 62
    2
 10
1133.9915481793091
 20
1166.4976840311185
 11
1133.9915481793091
 21
1161.2976840311187
  0
LINE
  8
_0-0_計極細
  6
CONTINUOUS
 62
    2
 10
1120.9915481793091
 20
1116.1976840311174
 11
1120.9915481793091
 21
1110.5976840311171
  0
LINE
  8
_0-0_計極細
  6
CONTINUOUS
 62
    2
 10
1133.9915481793091
 20
1116.1976840311174
 11
1133.9915481793091
 21
1110.5976840311171
  0
LINE
  8
_0-0_計極細
  6
CONTINUOUS
 62
    2
 10
1120.9915481793091
 20
1133.1976840311165
 11
1120.9915481793091
 21
1127.5976840311162
  0
LINE
  8
_0-0_計極細
  6
CONTINUOUS
 62
    2
 10
1133.9915481793091
 20
1133.1976840311165
 11
1133.9915481793091
 21
1127.5976840311162
  0
LINE
  8
_0-0_計極細
  6
CONTINUOUS
 62
    2
 10
1120.9915481793091
 20
946.19768403113198
 11
1120.9915481793091
 21
940.59768403113162
  0
LINE
  8
_0-0_計極細
  6
CONTINUOUS
 62
    2
 10
1133.9915481793091
 20
946.19768403113198
 11
1133.9915481793091
 21
940.59768403113162
  0
LINE
  8
_0-0_計極細
  6
CONTINUOUS
 62
    2
 10
1120.9915481793091
 20
963.19768403113289
 11
1120.9915481793091
 21
957.59768403113253
  0
LINE
  8
_0-0_計極細
  6
CONTINUOUS
 62
    2
 10
1133.9915481793091
 20
963.19768403113289
 11
1133.9915481793091
 21
957.59768403113253
  0
LINE
  8
_0-0_計極細
  6
CONTINUOUS
 62
    2
 10
1120.9915481793091
 20
980.19768403113289
 11
1120.9915481793091
 21
974.59768403113344
  0
LINE
  8
_0-0_計極細
  6
CONTINUOUS
 62
    2
 10
1133.9915481793091
 20
980.19768403113289
 11
1133.9915481793091
 21
974.59768403113344
  0
LINE
  8
_0-0_計極細
  6
CONTINUOUS
 62
    2
 10
1120.9915481793091
 20
997.1976840311338
 11
1120.9915481793091
 21
991.59768403113344
  0
LINE
  8
_0-0_計極細
  6
CONTINUOUS
 62
    2
 10
1133.9915481793091
 20
997.1976840311338
 11
1133.9915481793091
 21
991.59768403113344
  0
LINE
  8
_0-0_計極細
  6
CONTINUOUS
 62
    2
 10
1120.9915481793091
 20
1014.1976840311347
 11
1120.9915481793091
 21
1008.5976840311343
  0
LINE
  8
_0-0_計極細
  6
CONTINUOUS
 62
    2
 10
1133.9915481793091
 20
1014.1976840311347
 11
1133.9915481793091
 21
1008.5976840311343
  0
LINE
  8
_0-0_計極細
  6
CONTINUOUS
 62
    2
 10
1120.9915481793091
 20
1031.1976840311338
 11
1120.9915481793091
 21
1025.5976840311334
  0
LINE
  8
_0-0_計極細
  6
CONTINUOUS
 62
    2
 10
1133.9915481793091
 20
1031.1976840311338
 11
1133.9915481793091
 21
1025.5976840311334
  0
LINE
  8
_0-0_計極細
  6
CONTINUOUS
 62
    2
 10
1120.9915481793091
 20
1048.1976840311329
 11
1120.9915481793091
 21
1042.5976840311325
  0
LINE
  8
_0-0_計極細
  6
CONTINUOUS
 62
    2
 10
1133.9915481793091
 20
1048.1976840311329
 11
1133.9915481793091
 21
1042.5976840311325
  0
LINE
  8
_0-0_計極細
  6
CONTINUOUS
 62
    2
 10
1120.9915481793091
 20
1065.197684031132
 11
1120.9915481793091
 21
1059.5976840311316
  0
LINE
  8
_0-0_計極細
  6
CONTINUOUS
 62
    2
 10
1133.9915481793091
 20
1065.197684031132
 11
1133.9915481793091
 21
1059.5976840311316
  0
LINE
  8
_0-0_計極細
  6
CONTINUOUS
 62
    2
 10
1120.9915481793091
 20
1082.1976840311311
 11
1120.9915481793091
 21
1076.5976840311307
  0
LINE
  8
_0-0_計極細
  6
CONTINUOUS
 62
    2
 10
1133.9915481793091
 20
1082.1976840311311
 11
1133.9915481793091
 21
1076.5976840311307
  0
LINE
  8
_0-0_計極細
  6
CONTINUOUS
 62
    2
 10
1120.9915481793091
 20
923.59768403113071
 11
1120.9915481793091
 21
929.19768403113108
  0
LINE
  8
_0-0_計極細
  6
CONTINUOUS
 62
    2
 10
1133.9915481793091
 20
923.59768403113071
 11
1133.9915481793091
 21
929.19768403113108
  0
LINE
  8
_0-0_計極細
  6
CONTINUOUS
 62
    2
 10
1120.9915481793091
 20
906.5976840311298
 11
1120.9915481793091
 21
912.19768403113017
  0
LINE
  8
_0-0_計極細
  6
CONTINUOUS
 62
    2
 10
1133.9915481793091
 20
906.5976840311298
 11
1133.9915481793091
 21
912.19768403113017
  0
LINE
  8
_0-0_計極細
  6
CONTINUOUS
 62
    2
 10
1120.9915481793091
 20
889.5976840311298
 11
1120.9915481793091
 21
895.19768403112926
  0
LINE
  8
_0-0_計極細
  6
CONTINUOUS
 62
    2
 10
1133.9915481793091
 20
889.5976840311298
 11
1133.9915481793091
 21
895.19768403112926
  0
LINE
  8
_0-0_計極細
  6
CONTINUOUS
 62
    2
 10
1120.9915481793091
 20
872.59768403113071
 11
1120.9915481793091
 21
878.19768403113017
  0
LINE
  8
_0-0_計極細
  6
CONTINUOUS
 62
    2
 10
1133.9915481793091
 20
872.59768403113071
 11
1133.9915481793091
 21
878.19768403113017
  0
LINE
  8
_0-0_計極細
  6
CONTINUOUS
 62
    2
 10
1120.9915481793091
 20
855.59768403113162
 11
1120.9915481793091
 21
861.19768403113108
  0
LINE
  8
_0-0_計極細
  6
CONTINUOUS
 62
    2
 10
1133.9915481793091
 20
855.59768403113162
 11
1133.9915481793091
 21
861.19768403113108
  0
LINE
  8
_0-0_計極細
  6
CONTINUOUS
 62
    2
 10
1120.9915481793091
 20
838.59768403113253
 11
1120.9915481793091
 21
844.19768403113198
  0
LINE
  8
_0-0_計極細
  6
CONTINUOUS
 62
    2
 10
1133.9915481793091
 20
838.59768403113253
 11
1133.9915481793091
 21
844.19768403113198
  0
LINE
  8
_0-0_計極細
  6
CONTINUOUS
 62
    2
 10
1120.9915481793091
 20
821.59768403113344
 11
1120.9915481793091
 21
827.19768403113289
  0
LINE
  8
_0-0_計極細
  6
CONTINUOUS
 62
    2
 10
1133.9915481793091
 20
821.59768403113344
 11
1133.9915481793091
 21
827.19768403113289
  0
LINE
  8
_0-0_計極細
  6
CONTINUOUS
 62
    2
 10
1120.9915481793091
 20
804.89768403112998
 11
1120.9915481793091
 21
810.19768403113017
  0
LINE
  8
_0-0_計極細
  6
CONTINUOUS
 62
    2
 10
1133.9915481793091
 20
804.89768403112998
 11
1133.9915481793091
 21
810.19768403113017
  0
LINE
  8
_0-0_計極細
  6
CONTINUOUS
 62
    2
 10
1120.9915481793091
 20
788.29768403113144
 11
1120.9915481793091
 21
793.49768403113126
  0
LINE
  8
_0-0_計極細
  6
CONTINUOUS
 62
    2
 10
1133.9915481793091
 20
788.29768403113144
 11
1133.9915481793091
 21
793.49768403113126
  0
LINE
  8
_0-0_計極細
  6
CENTER1
 62
    2
 10
1175.9915481793091
 20
1186.1484034555908
 11
1175.9915481793091
 21
769.83986029011544
  0
LINE
  8
_0-0_計極細
  6
CONTINUOUS
 62
    2
 10
1169.4915481793091
 20
1149.8976840311191
 11
1169.4915481793091
 21
1144.5976840311198
  0
LINE
  8
_0-0_計極細
  6
CONTINUOUS
 62
    2
 10
1182.4915481793091
 20
1149.8976840311191
 11
1182.4915481793091
 21
1144.5976840311198
  0
LINE
  8
_0-0_計極細
  6
CONTINUOUS
 62
    2
 10
1169.4915481793091
 20
1166.4976840311185
 11
1169.4915481793091
 21
1161.2976840311187
  0
LINE
  8
_0-0_計極細
  6
CONTINUOUS
 62
    2
 10
1182.4915481793091
 20
1166.4976840311185
 11
1182.4915481793091
 21
1161.2976840311187
  0
LINE
  8
_0-0_計極細
  6
CONTINUOUS
 62
    2
 10
1169.4915481793091
 20
1116.1976840311174
 11
1169.4915481793091
 21
1110.5976840311171
  0
LINE
  8
_0-0_計極細
  6
CONTINUOUS
 62
    2
 10
1182.4915481793091
 20
1116.1976840311174
 11
1182.4915481793091
 21
1110.5976840311171
  0
LINE
  8
_0-0_計極細
  6
CONTINUOUS
 62
    2
 10
1169.4915481793091
 20
1133.1976840311165
 11
1169.4915481793091
 21
1127.5976840311162
  0
LINE
  8
_0-0_計極細
  6
CONTINUOUS
 62
    2
 10
1182.4915481793091
 20
1133.1976840311165
 11
1182.4915481793091
 21
1127.5976840311162
  0
LINE
  8
_0-0_計極細
  6
CONTINUOUS
 62
    2
 10
1169.4915481793091
 20
946.19768403113198
 11
1169.4915481793091
 21
940.59768403113162
  0
LINE
  8
_0-0_計極細
  6
CONTINUOUS
 62
    2
 10
1182.4915481793091
 20
946.19768403113198
 11
1182.4915481793091
 21
940.59768403113162
  0
LINE
  8
_0-0_計極細
  6
CONTINUOUS
 62
    2
 10
1169.4915481793091
 20
963.19768403113289
 11
1169.4915481793091
 21
957.59768403113253
  0
LINE
  8
_0-0_計極細
  6
CONTINUOUS
 62
    2
 10
1182.4915481793091
 20
963.19768403113289
 11
1182.4915481793091
 21
957.59768403113253
  0
LINE
  8
_0-0_計極細
  6
CONTINUOUS
 62
    2
 10
1169.4915481793091
 20
980.19768403113289
 11
1169.4915481793091
 21
974.59768403113344
  0
LINE
  8
_0-0_計極細
  6
CONTINUOUS
 62
    2
 10
1182.4915481793091
 20
980.19768403113289
 11
1182.4915481793091
 21
974.59768403113344
  0
LINE
  8
_0-0_計極細
  6
CONTINUOUS
 62
    2
 10
1169.4915481793091
 20
997.1976840311338
 11
1169.4915481793091
 21
991.59768403113344
  0
LINE
  8
_0-0_計極細
  6
CONTINUOUS
 62
    2
 10
1182.4915481793091
 20
997.1976840311338
 11
1182.4915481793091
 21
991.59768403113344
  0
LINE
  8
_0-0_計極細
  6
CONTINUOUS
 62
    2
 10
1169.4915481793091
 20
1014.1976840311347
 11
1169.4915481793091
 21
1008.5976840311343
  0
LINE
  8
_0-0_計極細
  6
CONTINUOUS
 62
    2
 10
1182.4915481793091
 20
1014.1976840311347
 11
1182.4915481793091
 21
1008.5976840311343
  0
LINE
  8
_0-0_計極細
  6
CONTINUOUS
 62
    2
 10
1169.4915481793091
 20
1031.1976840311338
 11
1169.4915481793091
 21
1025.5976840311334
  0
LINE
  8
_0-0_計極細
  6
CONTINUOUS
 62
    2
 10
1182.4915481793091
 20
1031.1976840311338
 11
1182.4915481793091
 21
1025.5976840311334
  0
LINE
  8
_0-0_計極細
  6
CONTINUOUS
 62
    2
 10
1169.4915481793091
 20
1048.1976840311329
 11
1169.4915481793091
 21
1042.5976840311325
  0
LINE
  8
_0-0_計極細
  6
CONTINUOUS
 62
    2
 10
1182.4915481793091
 20
1048.1976840311329
 11
1182.4915481793091
 21
1042.5976840311325
  0
LINE
  8
_0-0_計極細
  6
CONTINUOUS
 62
    2
 10
1169.4915481793091
 20
1065.197684031132
 11
1169.4915481793091
 21
1059.5976840311316
  0
LINE
  8
_0-0_計極細
  6
CONTINUOUS
 62
    2
 10
1182.4915481793091
 20
1065.197684031132
 11
1182.4915481793091
 21
1059.5976840311316
  0
LINE
  8
_0-0_計極細
  6
CONTINUOUS
 62
    2
 10
1169.4915481793091
 20
1082.1976840311311
 11
1169.4915481793091
 21
1076.5976840311307
  0
LINE
  8
_0-0_計極細
  6
CONTINUOUS
 62
    2
 10
1182.4915481793091
 20
1082.1976840311311
 11
1182.4915481793091
 21
1076.5976840311307
  0
LINE
  8
_0-0_計極細
  6
CONTINUOUS
 62
    2
 10
1169.4915481793091
 20
923.59768403113071
 11
1169.4915481793091
 21
929.19768403113108
  0
LINE
  8
_0-0_計極細
  6
CONTINUOUS
 62
    2
 10
1182.4915481793091
 20
923.59768403113071
 11
1182.4915481793091
 21
929.19768403113108
  0
LINE
  8
_0-0_計極細
  6
CONTINUOUS
 62
    2
 10
1169.4915481793091
 20
906.5976840311298
 11
1169.4915481793091
 21
912.19768403113017
  0
LINE
  8
_0-0_計極細
  6
CONTINUOUS
 62
    2
 10
1182.4915481793091
 20
906.5976840311298
 11
1182.4915481793091
 21
912.19768403113017
  0
LINE
  8
_0-0_計極細
  6
CONTINUOUS
 62
    2
 10
1169.4915481793091
 20
889.5976840311298
 11
1169.4915481793091
 21
895.19768403112926
  0
LINE
  8
_0-0_計極細
  6
CONTINUOUS
 62
    2
 10
1182.4915481793091
 20
889.5976840311298
 11
1182.4915481793091
 21
895.19768403112926
  0
LINE
  8
_0-0_計極細
  6
CONTINUOUS
 62
    2
 10
1169.4915481793091
 20
872.59768403113071
 11
1169.4915481793091
 21
878.19768403113017
  0
LINE
  8
_0-0_計極細
  6
CONTINUOUS
 62
    2
 10
1182.4915481793091
 20
872.59768403113071
 11
1182.4915481793091
 21
878.19768403113017
  0
LINE
  8
_0-0_計極細
  6
CONTINUOUS
 62
    2
 10
1169.4915481793091
 20
855.59768403113162
 11
1169.4915481793091
 21
861.19768403113108
  0
LINE
  8
_0-0_計極細
  6
CONTINUOUS
 62
    2
 10
1182.4915481793091
 20
855.59768403113162
 11
1182.4915481793091
 21
861.19768403113108
  0
LINE
  8
_0-0_計極細
  6
CONTINUOUS
 62
    2
 10
1169.4915481793091
 20
838.59768403113253
 11
1169.4915481793091
 21
844.19768403113198
  0
LINE
  8
_0-0_計極細
  6
CONTINUOUS
 62
    2
 10
1182.4915481793091
 20
838.59768403113253
 11
1182.4915481793091
 21
844.19768403113198
  0
LINE
  8
_0-0_計極細
  6
CONTINUOUS
 62
    2
 10
1169.4915481793091
 20
821.59768403113344
 11
1169.4915481793091
 21
827.19768403113289
  0
LINE
  8
_0-0_計極細
  6
CONTINUOUS
 62
    2
 10
1182.4915481793091
 20
821.59768403113344
 11
1182.4915481793091
 21
827.19768403113289
  0
LINE
  8
_0-0_計極細
  6
CONTINUOUS
 62
    2
 10
1169.4915481793091
 20
804.89768403112998
 11
1169.4915481793091
 21
810.19768403113017
  0
LINE
  8
_0-0_計極細
  6
CONTINUOUS
 62
    2
 10
1182.4915481793091
 20
804.89768403112998
 11
1182.4915481793091
 21
810.19768403113017
  0
LINE
  8
_0-0_計極細
  6
CONTINUOUS
 62
    2
 10
1169.4915481793091
 20
788.29768403113144
 11
1169.4915481793091
 21
793.49768403113126
  0
LINE
  8
_0-0_計極細
  6
CONTINUOUS
 62
    2
 10
1182.4915481793091
 20
788.29768403113144
 11
1182.4915481793091
 21
793.49768403113126
  0
LINE
  8
_0-0_計極細
  6
CONTINUOUS
 62
    2
 10
344.99154817930912
 20
1099.1976840311347
 11
344.99154817930912
 21
1093.5976840311343
  0
LINE
  8
_0-0_計極細
  6
CONTINUOUS
 62
    2
 10
357.99154817930912
 20
1099.1976840311347
 11
357.99154817930912
 21
1093.5976840311343
  0
LINE
  8
_0-0_計極細
  6
CONTINUOUS
 62
    2
 10
1314.9915481793091
 20
1099.1976840311347
 11
1314.9915481793091
 21
1093.5976840311343
  0
LINE
  8
_0-0_計極細
  6
CONTINUOUS
 62
    2
 10
1327.9915481793091
 20
1099.1976840311347
 11
1327.9915481793091
 21
1093.5976840311343
  0
LINE
  8
_0-0_計極細
  6
CONTINUOUS
 62
    2
 10
1217.9915481793091
 20
1099.1976840311347
 11
1217.9915481793091
 21
1093.5976840311343
  0
LINE
  8
_0-0_計極細
  6
CONTINUOUS
 62
    2
 10
1230.9915481793091
 20
1099.1976840311347
 11
1230.9915481793091
 21
1093.5976840311343
  0
LINE
  8
_0-0_計極細
  6
CONTINUOUS
 62
    2
 10
441.99154817930901
 20
1099.1976840311347
 11
441.99154817930901
 21
1093.5976840311343
  0
LINE
  8
_0-0_計極細
  6
CONTINUOUS
 62
    2
 10
454.99154817930901
 20
1099.1976840311347
 11
454.99154817930901
 21
1093.5976840311343
  0
LINE
  8
_0-0_計極細
  6
CONTINUOUS
 62
    2
 10
490.49154817930901
 20
1099.1976840311347
 11
490.49154817930901
 21
1093.5976840311343
  0
LINE
  8
_0-0_計極細
  6
CONTINUOUS
 62
    2
 10
503.49154817930901
 20
1099.1976840311347
 11
503.49154817930901
 21
1093.5976840311343
  0
LINE
  8
_0-0_計極細
  6
CONTINUOUS
 62
    2
 10
538.99154817930901
 20
1099.1976840311347
 11
538.99154817930901
 21
1093.5976840311343
  0
LINE
  8
_0-0_計極細
  6
CONTINUOUS
 62
    2
 10
551.99154817930901
 20
1099.1976840311347
 11
551.99154817930901
 21
1093.5976840311343
  0
LINE
  8
_0-0_計極細
  6
CONTINUOUS
 62
    2
 10
587.49154817930901
 20
1099.1976840311347
 11
587.49154817930901
 21
1093.5976840311343
  0
LINE
  8
_0-0_計極細
  6
CONTINUOUS
 62
    2
 10
600.49154817930901
 20
1099.1976840311347
 11
600.49154817930901
 21
1093.5976840311343
  0
LINE
  8
_0-0_計極細
  6
CONTINUOUS
 62
    2
 10
635.99154817930901
 20
1099.1976840311347
 11
635.99154817930901
 21
1093.5976840311343
  0
LINE
  8
_0-0_計極細
  6
CONTINUOUS
 62
    2
 10
648.99154817930901
 20
1099.1976840311347
 11
648.99154817930901
 21
1093.5976840311343
  0
LINE
  8
_0-0_計極細
  6
CONTINUOUS
 62
    2
 10
684.49154817930901
 20
1099.1976840311347
 11
684.49154817930901
 21
1093.5976840311343
  0
LINE
  8
_0-0_計極細
  6
CONTINUOUS
 62
    2
 10
697.49154817930901
 20
1099.1976840311347
 11
697.49154817930901
 21
1093.5976840311343
  0
LINE
  8
_0-0_計極細
  6
CONTINUOUS
 62
    2
 10
732.99154817930901
 20
1099.1976840311347
 11
732.99154817930901
 21
1093.5976840311343
  0
LINE
  8
_0-0_計極細
  6
CONTINUOUS
 62
    2
 10
745.99154817930901
 20
1099.1976840311347
 11
745.99154817930901
 21
1093.5976840311343
  0
LINE
  8
_0-0_計極細
  6
CONTINUOUS
 62
    2
 10
781.49154817930901
 20
1099.1976840311347
 11
781.49154817930901
 21
1093.5976840311343
  0
LINE
  8
_0-0_計極細
  6
CONTINUOUS
 62
    2
 10
794.49154817930901
 20
1099.1976840311347
 11
794.49154817930901
 21
1093.5976840311343
  0
LINE
  8
_0-0_計極細
  6
CONTINUOUS
 62
    2
 10
829.99154817930901
 20
1099.1976840311347
 11
829.99154817930901
 21
1093.5976840311343
  0
LINE
  8
_0-0_計極細
  6
CONTINUOUS
 62
    2
 10
842.99154817930901
 20
1099.1976840311347
 11
842.99154817930901
 21
1093.5976840311343
  0
LINE
  8
_0-0_計極細
  6
CONTINUOUS
 62
    2
 10
878.49154817930912
 20
1099.1976840311347
 11
878.49154817930912
 21
1093.5976840311343
  0
LINE
  8
_0-0_計極細
  6
CONTINUOUS
 62
    2
 10
891.49154817930912
 20
1099.1976840311347
 11
891.49154817930912
 21
1093.5976840311343
  0
LINE
  8
_0-0_計極細
  6
CONTINUOUS
 62
    2
 10
926.99154817930912
 20
1099.1976840311347
 11
926.99154817930912
 21
1093.5976840311343
  0
LINE
  8
_0-0_計極細
  6
CONTINUOUS
 62
    2
 10
939.99154817930912
 20
1099.1976840311347
 11
939.99154817930912
 21
1093.5976840311343
  0
LINE
  8
_0-0_計極細
  6
CONTINUOUS
 62
    2
 10
975.49154817930912
 20
1099.1976840311347
 11
975.49154817930912
 21
1093.5976840311343
  0
LINE
  8
_0-0_計極細
  6
CONTINUOUS
 62
    2
 10
988.49154817930912
 20
1099.1976840311347
 11
988.49154817930912
 21
1093.5976840311343
  0
LINE
  8
_0-0_計極細
  6
CONTINUOUS
 62
    2
 10
1023.9915481793091
 20
1099.1976840311347
 11
1023.9915481793091
 21
1093.5976840311343
  0
LINE
  8
_0-0_計極細
  6
CONTINUOUS
 62
    2
 10
1036.9915481793091
 20
1099.1976840311347
 11
1036.9915481793091
 21
1093.5976840311343
  0
LINE
  8
_0-0_計極細
  6
CONTINUOUS
 62
    2
 10
1072.4915481793091
 20
1099.1976840311347
 11
1072.4915481793091
 21
1093.5976840311343
  0
LINE
  8
_0-0_計極細
  6
CONTINUOUS
 62
    2
 10
1085.4915481793091
 20
1099.1976840311347
 11
1085.4915481793091
 21
1093.5976840311343
  0
LINE
  8
_0-0_計極細
  6
CONTINUOUS
 62
    2
 10
1120.9915481793091
 20
1099.1976840311347
 11
1120.9915481793091
 21
1093.5976840311343
  0
LINE
  8
_0-0_計極細
  6
CONTINUOUS
 62
    2
 10
1133.9915481793091
 20
1099.1976840311347
 11
1133.9915481793091
 21
1093.5976840311343
  0
LINE
  8
_0-0_計極細
  6
CONTINUOUS
 62
    2
 10
1169.4915481793091
 20
1099.1976840311347
 11
1169.4915481793091
 21
1093.5976840311343
  0
LINE
  8
_0-0_計極細
  6
CONTINUOUS
 62
    2
 10
1182.4915481793091
 20
1099.1976840311347
 11
1182.4915481793091
 21
1093.5976840311343
  0
LINE
  8
_0-1_計細線
  6
CONTINUOUS
 62
    3
 10
336.99154817930912
 20
991.59768403113344
 11
1335.9915481793091
 21
991.59768403113344
  0
LINE
  8
_0-1_計細線
  6
CONTINUOUS
 62
    3
 10
1335.9915481793091
 20
991.59768403113344
 11
1335.9915481793091
 21
980.19768403113289
  0
LINE
  8
_0-0_計極細
  6
CONTINUOUS
 62
    2
 10
336.99154817930912
 20
983.39768403113362
 11
1335.9915481793091
 21
983.39768403113362
  0
LINE
  8
_0-0_計極細
  6
CONTINUOUS
 62
    2
 10
336.99154817930912
 20
988.39768403113362
 11
1335.9915481793091
 21
988.39768403113362
  0
LINE
  8
_0-1_計細線
  6
CONTINUOUS
 62
    3
 10
336.99154817930912
 20
980.19768403113289
 11
1335.9915481793091
 21
980.19768403113289
  0
LINE
  8
_0-1_計細線
  6
CONTINUOUS
 62
    3
 10
336.99154817930912
 20
991.59768403113344
 11
336.99154817930912
 21
980.19768403113289
  0
LINE
  8
_0-1_計細線
  6
CONTINUOUS
 62
    3
 10
336.99154817930912
 20
963.19768403113289
 11
1335.9915481793091
 21
963.19768403113289
  0
LINE
  8
_0-1_計細線
  6
CONTINUOUS
 62
    3
 10
1335.9915481793091
 20
974.59768403113344
 11
1335.9915481793091
 21
963.19768403113289
  0
LINE
  8
_0-0_計極細
  6
CONTINUOUS
 62
    2
 10
336.99154817930912
 20
966.39768403113271
 11
1335.9915481793091
 21
966.39768403113271
  0
LINE
  8
_0-0_計極細
  6
CONTINUOUS
 62
    2
 10
336.99154817930912
 20
971.39768403113271
 11
1335.9915481793091
 21
971.39768403113271
  0
LINE
  8
_0-1_計細線
  6
CONTINUOUS
 62
    3
 10
336.99154817930912
 20
974.59768403113344
 11
336.99154817930912
 21
963.19768403113289
  0
LINE
  8
_0-1_計細線
  6
CONTINUOUS
 62
    3
 10
336.99154817930912
 20
974.59768403113344
 11
1335.9915481793091
 21
974.59768403113344
  0
LINE
  8
_0-b_細線5
  6
CONTINUOUS
 62
    7
 10
777.32166666726152
 20
389.77137923775155
 11
784.44166666755109
 21
389.77137923775155
  0
LINE
  8
_0-b_細線5
  6
CONTINUOUS
 62
    7
 10
791.96166666755153
 20
397.61176525344348
 11
791.96166666755153
 21
365.61176525344285
  0
LINE
  8
_0-b_細線5
  6
CONTINUOUS
 62
    7
 10
784.44166666755098
 20
365.61176525344285
 11
784.44166666755098
 21
397.61176525344348
  0
LINE
  8
_0-b_細線5
  6
CONTINUOUS
 62
    7
 10
791.96166666755153
 20
365.61176525344285
 11
784.44166666755098
 21
365.61176525344285
  0
LINE
  8
_0-b_細線5
  6
CONTINUOUS
 62
    7
 10
784.44166666755098
 20
397.61176525344348
 11
791.96166666755153
 21
397.61176525344348
  0
LINE
  8
_0-b_細線5
  6
DASHED2
 62
    7
 10
784.44166666755098
 20
370.41176525344287
 11
791.96166666755153
 21
370.41176525344287
  0
LINE
  8
_0-b_細線5
  6
DASHED2
 62
    7
 10
784.44166666755098
 20
392.81176525344347
 11
791.96166666755153
 21
392.81176525344347
  0
LINE
  8
_0-b_細線5
  6
CONTINUOUS
 62
    7
 10
791.96166666755153
 20
389.77137923775155
 11
799.08166666726129
 21
389.77137923775155
  0
LINE
  8
_0-b_細線5
  6
CONTINUOUS
 62
    7
 10
777.32166666700209
 20
368.97137923775182
 11
784.44166666755098
 21
368.97137923775182
  0
LINE
  8
_0-b_細線5
  6
CONTINUOUS
 62
    7
 10
791.96166666755153
 20
368.97137923775182
 11
799.08166666726129
 21
368.97137923775182
  0
LINE
  8
_0-0_計極細
  6
CONTINUOUS
 62
    2
 10
441.99154817930901
 20
980.19768403113289
 11
441.99154817930901
 21
979.74768403113262
  0
LINE
  8
_0-0_計極細
  6
CONTINUOUS
 62
    2
 10
441.99154817930901
 20
975.0476840311328
 11
441.99154817930901
 21
974.59768403113344
  0
LINE
  8
_0-0_計極細
  6
CONTINUOUS
 62
    2
 10
454.99154817930901
 20
980.19768403113289
 11
454.99154817930901
 21
979.74768403113262
  0
LINE
  8
_0-0_計極細
  6
CONTINUOUS
 62
    2
 10
454.99154817930901
 20
975.0476840311328
 11
454.99154817930901
 21
974.59768403113344
  0
TEXT
  8
_0-7_枠細線
 62
    5
 10
1676.0453960905384
 20
328
 40
24
 41
0.5666666666666667
 50
0
  1
ＧＲＳＫ－２５Ｗ４００－Ｋ
  0
TEXT
  8
_0-7_枠細線
 62
    5
 10
1676.0453960905384
 20
648
 40
24
 41
0.5666666666666667
 50
0
  1
ＧＲＳＫ－２５Ｗ４００－Ｂ
  0
TEXT
  8
_0-7_枠細線
 62
    5
 10
1676.0453960905384
 20
608
 40
24
 41
0.5666666666666667
 50
0
  1
ＧＲＳＫ－２５Ｗ４００－Ｇ
  0
TEXT
  8
_0-7_枠細線
 62
    5
 10
1676.0453960905384
 20
568
 40
24
 41
0.5666666666666667
 50
0
  1
ＧＲＳＫ－２５Ｗ４００－Ｓ
  0
TEXT
  8
_0-7_枠細線
 62
    5
 10
1676.0453960905384
 20
528
 40
24
 41
0.5666666666666667
 50
0
  1
ＧＲＳＫ－２５Ｗ４００－Ｐ
  0
TEXT
  8
_0-7_枠細線
 62
    5
 10
1676.0453960905384
 20
488
 40
24
 41
0.5666666666666667
 50
0
  1
ＧＲＳＫ－２５Ｗ４００－Ａ
  0
TEXT
  8
_0-7_枠細線
 62
    5
 10
1676.0453960905384
 20
448
 40
24
 41
0.5666666666666667
 50
0
  1
ＧＲＳＫ－２５Ｗ４００－Ｄ
  0
TEXT
  8
_0-7_枠細線
 62
    5
 10
1676.0453960905384
 20
408
 40
24
 41
0.5666666666666667
 50
0
  1
ＧＲＳＫ－２５Ｗ４００－Ｍ
  0
TEXT
  8
_0-7_枠細線
 62
    5
 10
1676.0453960905384
 20
368
 40
24
 41
0.5666666666666667
 50
0
  1
ＧＲＳＫ－２５Ｗ４００－Ｃ
  0
LINE
  8
_0-9_枠極太
  6
CONTINUOUS
 62
    5
 10
96
 20
96
 11
96
 21
1536
  0
LINE
  8
_0-9_枠極太
  6
CONTINUOUS
 62
    5
 10
96
 20
1536
 11
2280
 21
1536
  0
LINE
  8
_0-9_枠極太
  6
CONTINUOUS
 62
    5
 10
2280
 20
1536
 11
2280
 21
96
  0
LINE
  8
_0-9_枠極太
  6
CONTINUOUS
 62
    5
 10
2280
 20
96
 11
96
 21
96
  0
LINE
  8
_0-7_枠細線
  6
CONTINUOUS
 62
    5
 10
2280
 20
1508
 11
1424
 21
1508
  0
TEXT
  8
_0-7_枠細線
 62
    5
 10
1432
 20
1512
 40
20
 41
1
 50
0
  1
記号
  0
TEXT
  8
_0-7_枠細線
 62
    5
 10
1595
 20
1512
 40
20
 41
1
 50
0
  1
訂　 正　 記　 事
  0
TEXT
  8
_0-7_枠細線
 62
    5
 10
1890
 20
1512
 40
20
 41
1
 50
0
  1
訂 正 年 月 日
  0
TEXT
  8
_0-7_枠細線
 62
    5
 10
2090
 20
1512
 40
20
 41
1
 50
0
  1
備　　　　　考
  0
LINE
  8
_0-7_枠細線
  6
CONTINUOUS
 62
    5
 10
2280
 20
1480
 11
1424
 21
1480
  0
TEXT
  8
_0-7_枠細線
 62
    5
 10
1502.1605925925924
 20
1484
 40
20
 41
1
 50
0
  1
品番・色記号変更
  0
TEXT
  8
_0-7_枠細線
 62
    5
 10
1888
 20
1484
 40
20
 41
0.7199999999999999
 50
0
  1
２０１３．０３．１３
  0
LINE
  8
_0-7_枠細線
  6
CONTINUOUS
 62
    5
 10
2280
 20
1452
 11
1424
 21
1452
  0
LINE
  8
_0-7_枠細線
  6
CONTINUOUS
 62
    5
 10
2280
 20
1424
 11
1424
 21
1424
  0
TEXT
  8
_0-7_枠細線
 62
    5
 10
1502.1605925925924
 20
1456
 40
20
 41
1
 50
0
  1
クロスバーピッチ変更
  0
TEXT
  8
_0-7_枠細線
 62
    5
 10
1502.1605925925924
 20
1428
 40
20
 41
1
 50
0
  1
取外具形状変更
  0
TEXT
  8
_0-7_枠細線
 62
    5
 10
1888
 20
1456
 40
20
 41
0.7199999999999999
 50
0
  1
２０１５．１１．２０
  0
LINE
  8
_0-7_枠細線
  6
CONTINUOUS
 62
    5
 10
1464
 20
1454.307734354795
 11
1452
 21
1478.307734354795
  0
LINE
  8
_0-7_枠細線
  6
CONTINUOUS
 62
    5
 10
1440
 20
1454.307734354795
 11
1464
 21
1454.307734354795
  0
LINE
  8
_0-7_枠細線
  6
CONTINUOUS
 62
    5
 10
1452
 20
1478.307734354795
 11
1440
 21
1454.307734354795
  0
TEXT
  8
_0-7_枠細線
 62
    5
 10
1443.7842420290369
 20
1453.8165307621864
 40
20
 41
0.8
 50
0
  1
１
  0
TEXT
  8
_0-7_枠細線
 62
    5
 10
1443.7842420290369
 20
1425.8165307621864
 40
20
 41
0.8
 50
0
  1
２
  0
LINE
  8
_0-7_枠細線
  6
CONTINUOUS
 62
    5
 10
2280
 20
1396
 11
1424
 21
1396
  0
LINE
  8
_0-7_枠細線
  6
CONTINUOUS
 62
    5
 10
1452
 20
1450.307734354795
 11
1440
 21
1426.307734354795
  0
LINE
  8
_0-7_枠細線
  6
CONTINUOUS
 62
    5
 10
1440
 20
1426.307734354795
 11
1464
 21
1426.307734354795
  0
LINE
  8
_0-7_枠細線
  6
CONTINUOUS
 62
    5
 10
1464
 20
1426.307734354795
 11
1452
 21
1450.307734354795
  0
TEXT
  8
_0-7_枠細線
 62
    5
 10
1443.7842420290369
 20
1397.4314401305048
 40
20
 41
0.8
 50
0
  1
３
  0
TEXT
  8
_0-7_枠細線
 62
    5
 10
1888
 20
1400
 40
20
 41
0.7199999999999999
 50
0
  1
２０１７．０４．０１
  0
LINE
  8
_0-7_枠細線
  6
CONTINUOUS
 62
    5
 10
1464
 20
1370.307734354795
 11
1452
 21
1394.307734354795
  0
LINE
  8
_0-7_枠細線
  6
CONTINUOUS
 62
    5
 10
1440
 20
1370.307734354795
 11
1464
 21
1370.307734354795
  0
LINE
  8
_0-7_枠細線
  6
CONTINUOUS
 62
    5
 10
1452
 20
1394.307734354795
 11
1440
 21
1370.307734354795
  0
TEXT
  8
_0-7_枠細線
 62
    5
 10
1888
 20
1372
 40
20
 41
0.7199999999999999
 50
0
  1
２０１７．０４．０１
  0
TEXT
  8
_0-7_枠細線
 62
    5
 10
1502.1605925925924
 20
1372
 40
20
 41
1
 50
0
  1
ブラウン色（Ｃ）追加
  0
LINE
  8
_0-7_枠細線
  6
CONTINUOUS
 62
    5
 10
2280
 20
1368
 11
1424
 21
1368
  0
LINE
  8
_0-7_枠細線
  6
CONTINUOUS
 62
    5
 10
1452
 20
1422.307734354795
 11
1440
 21
1398.307734354795
  0
LINE
  8
_0-7_枠細線
  6
CONTINUOUS
 62
    5
 10
1440
 20
1398.307734354795
 11
1464
 21
1398.307734354795
  0
LINE
  8
_0-7_枠細線
  6
CONTINUOUS
 62
    5
 10
1464
 20
1398.307734354795
 11
1452
 21
1422.307734354795
  0
TEXT
  8
_0-7_枠細線
 62
    5
 10
1443.7842420290369
 20
1368.789622411035
 40
20
 41
0.8
 50
0
  1
４
  0
TEXT
  8
_0-7_枠細線
 62
    5
 10
1502.1605925925924
 20
1400
 40
20
 41
1
 50
0
  1
取外具形状変更
  0
TEXT
  8
_0-7_枠細線
 62
    5
 10
1888
 20
1428
 40
20
 41
0.7199999999999999
 50
0
  1
２０１５．１１．２０
  0
LINE
  8
_0-7_枠細線
  6
CONTINUOUS
 62
    5
 10
1464
 20
1342.307734354795
 11
1452
 21
1366.307734354795
  0
LINE
  8
_0-7_枠細線
  6
CONTINUOUS
 62
    5
 10
1440
 20
1342.307734354795
 11
1464
 21
1342.307734354795
  0
LINE
  8
_0-7_枠細線
  6
CONTINUOUS
 62
    5
 10
1452
 20
1366.307734354795
 11
1440
 21
1342.307734354795
  0
LINE
  8
_0-7_枠細線
  6
CONTINUOUS
 62
    5
 10
2280
 20
1340
 11
1424
 21
1340
  0
TEXT
  8
_0-7_枠細線
 62
    5
 10
1888
 20
1344
 40
20
 41
0.7199999999999999
 50
0
  1
２０１９．０９．０１
  0
TEXT
  8
_0-7_枠細線
 62
    5
 10
1443.7842420290369
 20
1340.789622411035
 40
20
 41
0.8
 50
0
  1
５
  0
LINE
  8
_0-b_細線5
  6
CONTINUOUS
 62
    7
 10
460.20166666666796
 20
371.69172963936302
 11
460.20166666666796
 21
315.69172963936307
  0
LINE
  8
_0-b_細線5
  6
CONTINUOUS
 62
    7
 10
460.20166666666796
 20
315.69172963936307
 11
456.5216666666679
 21
315.69172963936307
  0
LINE
  8
_0-b_細線5
  6
CONTINUOUS
 62
    7
 10
456.5216666666679
 20
315.69172963936307
 11
456.5216666666679
 21
371.69172963936302
  0
LINE
  8
_0-b_細線5
  6
CONTINUOUS
 62
    7
 10
456.5216666666679
 20
371.69172963936302
 11
460.20166666666796
 21
371.69172963936302
  0
LINE
  8
_0-a_極細5
  6
CONTINUOUS
 62
    7
 10
456.5216666666679
 20
346.091729639363
 11
460.20166666666796
 21
346.091729639363
  0
LINE
  8
_0-a_極細5
  6
CONTINUOUS
 62
    7
 10
456.5216666666679
 20
349.29172963936304
 11
460.20166666666796
 21
349.29172963936304
  0
LINE
  8
_0-a_極細5
  6
CONTINUOUS
 62
    7
 10
456.5216666666679
 20
342.89172963936301
 11
460.20166666666796
 21
342.89172963936301
  0
LINE
  8
_0-a_極細5
  6
CONTINUOUS
 62
    7
 10
456.5216666666679
 20
352.49172963936297
 11
460.20166666666796
 21
352.49172963936297
  0
LINE
  8
_0-a_極細5
  6
CONTINUOUS
 62
    7
 10
460.20166666666796
 20
320.49172963936303
 11
456.5216666666679
 21
320.49172963936303
  0
LINE
  8
_0-a_極細5
  6
CONTINUOUS
 62
    7
 10
456.5216666666679
 20
368.49172963936303
 11
460.20166666666796
 21
368.49172963936303
  0
LINE
  8
_0-b_細線5
  6
CONTINUOUS
 62
    7
 10
1116.2016666666677
 20
371.69137923775173
 11
1116.2016666666677
 21
315.69137923775179
  0
LINE
  8
_0-b_細線5
  6
CONTINUOUS
 62
    7
 10
1116.2016666666677
 20
315.69137923775179
 11
1119.8816666666678
 21
315.69137923775179
  0
LINE
  8
_0-b_細線5
  6
CONTINUOUS
 62
    7
 10
1119.8816666666678
 20
315.69137923775179
 11
1119.8816666666678
 21
371.69137923775173
  0
LINE
  8
_0-b_細線5
  6
CONTINUOUS
 62
    7
 10
1119.8816666666678
 20
371.69137923775173
 11
1116.2016666666677
 21
371.69137923775173
  0
LINE
  8
_0-a_極細5
  6
CONTINUOUS
 62
    7
 10
1119.8816666666678
 20
346.09137923775171
 11
1116.2016666666677
 21
346.09137923775171
  0
LINE
  8
_0-a_極細5
  6
CONTINUOUS
 62
    7
 10
1119.8816666666678
 20
349.29137923775176
 11
1116.2016666666677
 21
349.29137923775176
  0
LINE
  8
_0-a_極細5
  6
CONTINUOUS
 62
    7
 10
1119.8816666666678
 20
342.89137923775172
 11
1116.2016666666677
 21
342.89137923775172
  0
LINE
  8
_0-a_極細5
  6
CONTINUOUS
 62
    7
 10
1119.8816666666678
 20
352.49137923775169
 11
1116.2016666666677
 21
352.49137923775169
  0
LINE
  8
_0-a_極細5
  6
CONTINUOUS
 62
    7
 10
1116.2016666666677
 20
320.49137923775174
 11
1119.8816666666678
 21
320.49137923775174
  0
LINE
  8
_0-a_極細5
  6
CONTINUOUS
 62
    7
 10
1119.8816666666678
 20
368.49137923775174
 11
1116.2016666666677
 21
368.49137923775174
  0
LINE
  8
_0-7_枠細線
  6
CONTINUOUS
 62
    5
 10
1149.3717721054588
 20
351.95896882882369
 11
1137.3717721054588
 21
375.95896882882369
  0
LINE
  8
_0-7_枠細線
  6
CONTINUOUS
 62
    5
 10
1125.3717721054588
 20
351.95896882882369
 11
1149.3717721054588
 21
351.95896882882369
  0
LINE
  8
_0-7_枠細線
  6
CONTINUOUS
 62
    5
 10
1137.3717721054588
 20
375.95896882882369
 11
1125.3717721054588
 21
351.95896882882369
  0
TEXT
  8
_0-7_枠細線
 62
    5
 10
1129.156014134496
 20
350.44085688506385
 40
20
 41
0.8
 50
0
  1
５
  0
TEXT
  8
_0-7_枠細線
 62
    5
 10
1502.1605925925924
 20
1344
 40
20
 41
1
 50
0
  1
アンカー材質･厚み変更
  0
LINE
  8
_0-d_寸法5
  6
CONTINUOUS
 62
    7
 10
1116.2016666666677
 20
299.69172963936307
 11
1116.2016666666677
 21
264.4917296393628
  0
LINE
  8
_0-d_寸法5
  6
CONTINUOUS
 62
    7
 10
1116.2016666666677
 20
272.4917296393628
 11
1100.7468534460427
 21
268.3506249177226
  0
LINE
  8
_0-d_寸法5
  6
CONTINUOUS
 62
    7
 10
1116.2016666666677
 20
272.4917296393628
 11
1100.7468534460427
 21
276.63283436100323
  0
LINE
  8
_0-d_寸法5
  6
CONTINUOUS
 62
    7
 10
1068.2016666666677
 20
336.4917296393628
 11
1068.201666666668
 21
264.4917296393628
  0
LINE
  8
_0-d_寸法5
  6
CONTINUOUS
 62
    7
 10
1068.201666666668
 20
272.4917296393628
 11
1083.656479887293
 21
276.63283436100312
  0
LINE
  8
_0-d_寸法5
  6
CONTINUOUS
 62
    7
 10
1068.201666666668
 20
272.4917296393628
 11
1083.656479887293
 21
268.35062491772248
  0
LINE
  8
_0-d_寸法5
  6
CONTINUOUS
 62
    7
 10
1116.2016666666677
 20
272.4917296393628
 11
1068.201666666668
 21
272.4917296393628
  0
TEXT
  8
_0-d_寸法5
 62
    7
 10
1080.2016666666675
 20
272.4917296393628
 40
24
 41
1
 50
0
  1
30
  0
LINE
  8
_0-d_寸法5
  6
CONTINUOUS
 62
    7
 10
460.20166666666751
 20
299.69172963936307
 11
460.20166666666705
 21
264.4917296393628
  0
LINE
  8
_0-d_寸法5
  6
CONTINUOUS
 62
    7
 10
460.20166666666728
 20
272.4917296393628
 11
475.65647988729233
 21
276.63283436100312
  0
LINE
  8
_0-d_寸法5
  6
CONTINUOUS
 62
    7
 10
460.20166666666728
 20
272.4917296393628
 11
475.65647988729233
 21
268.35062491772248
  0
LINE
  8
_0-d_寸法5
  6
CONTINUOUS
 62
    7
 10
508.20166666666751
 20
336.4917296393628
 11
508.20166666666671
 21
264.4917296393628
  0
LINE
  8
_0-d_寸法5
  6
CONTINUOUS
 62
    7
 10
508.20166666666682
 20
272.4917296393628
 11
492.74685344604177
 21
268.3506249177226
  0
LINE
  8
_0-d_寸法5
  6
CONTINUOUS
 62
    7
 10
508.20166666666682
 20
272.4917296393628
 11
492.74685344604177
 21
276.63283436100323
  0
LINE
  8
_0-d_寸法5
  6
CONTINUOUS
 62
    7
 10
460.20166666666728
 20
272.4917296393628
 11
508.20166666666682
 21
272.4917296393628
  0
TEXT
  8
_0-d_寸法5
 62
    7
 10
472.20166666666682
 20
272.4917296393628
 40
24
 41
1
 50
0
  1
30
  0
LINE
  8
_0-d_寸法5
  6
CONTINUOUS
 62
    7
 10
508.20166666666773
 20
344.4917296393628
 11
508.20166666666773
 21
264.4917296393628
  0
LINE
  8
_0-d_寸法5
  6
CONTINUOUS
 62
    7
 10
508.20166666666773
 20
272.4917296393628
 11
523.65647988729279
 21
276.63283436100312
  0
LINE
  8
_0-d_寸法5
  6
CONTINUOUS
 62
    7
 10
508.20166666666773
 20
272.4917296393628
 11
523.65647988729279
 21
268.35062491772248
  0
LINE
  8
_0-d_寸法5
  6
CONTINUOUS
 62
    7
 10
1068.2016666666673
 20
344.4917296393628
 11
1068.2016666666671
 21
264.4917296393628
  0
LINE
  8
_0-d_寸法5
  6
CONTINUOUS
 62
    7
 10
1068.2016666666671
 20
272.4917296393628
 11
1052.746853446042
 21
268.3506249177226
  0
LINE
  8
_0-d_寸法5
  6
CONTINUOUS
 62
    7
 10
1068.2016666666671
 20
272.4917296393628
 11
1052.746853446042
 21
276.63283436100323
  0
LINE
  8
_0-d_寸法5
  6
CONTINUOUS
 62
    7
 10
508.20166666666773
 20
272.4917296393628
 11
1068.2016666666671
 21
272.4917296393628
  0
TEXT
  8
_0-d_寸法5
 62
    7
 10
770.20166666666739
 20
272.4917296393628
 40
24
 41
1
 50
0
  1
350
  0
LINE
  8
_0-5_寸法線
  6
CONTINUOUS
 62
    7
 10
1371.5773324809361
 20
1182.3976840311263
 11
1445.4915481793066
 21
1182.3976840311263
  0
LINE
  8
_0-5_寸法線
  6
CONTINUOUS
 62
    7
 10
1437.4915481793066
 20
1182.3976840311263
 11
1433.3504434576664
 21
1197.8524972517514
  0
LINE
  8
_0-5_寸法線
  6
CONTINUOUS
 62
    7
 10
1437.4915481793066
 20
1182.3976840311263
 11
1441.6326529009471
 21
1197.8524972517514
  0
LINE
  8
_0-5_寸法線
  6
CONTINUOUS
 62
    7
 10
1371.5773324809411
 20
1179.3976840311341
 11
1445.4915481793066
 21
1179.3976840311341
  0
CIRCLE
  8
_0-5_寸法線
  6
CONTINUOUS
 62
    1
 10
1437.4915481793066
 20
1179.3976840311341
 40
2.3999999999999999
  0
LINE
  8
_0-5_寸法線
  6
CONTINUOUS
 62
    7
 10
1437.4915481793066
 20
1222.3976840311263
 11
1437.4915481793066
 21
1179.3976840311341
  0
TEXT
  8
_0-5_寸法線
 62
    7
 10
1437.4915481793066
 20
1203.3575549390052
 40
24
 41
1
 50
90
  1
3
  0
LINE
  8
_0-5_寸法線
  6
CONTINUOUS
 62
    7
 10
1371.5773324809361
 20
1177.8976840311227
 11
1445.4915481793064
 21
1177.8976840311227
  0
LINE
  8
_0-5_寸法線
  6
CONTINUOUS
 62
    7
 10
1437.4915481793066
 20
1179.3976840311341
 11
1437.4915481793064
 21
1177.8976840311227
  0
TEXT
  8
_0-5_寸法線
 62
    7
 10
1469.9619794189753
 20
1141.5775458375535
 40
24
 41
1
 50
90
  1
1.5
  0
LINE
  8
_0-5_寸法線
  6
CONTINUOUS
 62
    7
 10
1437.4915481793064
 20
1177.8976840311227
 11
1441.6326529009466
 21
1162.4428708104977
  0
LINE
  8
_0-5_寸法線
  6
CONTINUOUS
 62
    7
 10
1437.4915481793064
 20
1177.8976840311227
 11
1433.350443457666
 21
1162.4428708104977
  0
LINE
  8
_0-5_寸法線
  6
CONTINUOUS
 62
    7
 10
1371.5773324809361
 20
776.89768403112726
 11
1445.4915481793073
 21
776.89768403112726
  0
LINE
  8
_0-5_寸法線
  6
CONTINUOUS
 62
    7
 10
1437.4915481793073
 20
776.89768403112726
 11
1433.3504434576669
 21
792.35249725175231
  0
LINE
  8
_0-5_寸法線
  6
CONTINUOUS
 62
    7
 10
1437.4915481793073
 20
776.89768403112726
 11
1441.6326529009475
 21
792.35249725175231
  0
LINE
  8
_0-5_寸法線
  6
CONTINUOUS
 62
    7
 10
1437.4915481793064
 20
1177.8976840311227
 11
1437.4915481793073
 21
776.89768403112726
  0
TEXT
  8
_0-5_寸法線
 62
    7
 10
1437.4915481793068
 20
959.39768403112498
 40
24
 41
1
 50
90
  1
401
  0
LINE
  8
_0-5_寸法線
  6
CONTINUOUS
 62
    7
 10
1371.5773324809361
 20
775.39768403112726
 11
1445.4915481793073
 21
775.39768403112726
  0
CIRCLE
  8
_0-5_寸法線
  6
CONTINUOUS
 62
    1
 10
1437.4915481793073
 20
775.39768403112726
 40
2.3999999999999999
  0
LINE
  8
_0-5_寸法線
  6
CONTINUOUS
 62
    7
 10
1437.4915481793073
 20
776.89768403112726
 11
1437.4915481793073
 21
775.39768403112726
  0
TEXT
  8
_0-5_寸法線
 62
    7
 10
1468.712438161507
 20
775.00330294622813
 40
24
 41
1
 50
90
  1
1.5
  0
LINE
  8
_0-5_寸法線
  6
CONTINUOUS
 62
    7
 10
1371.5773324809361
 20
772.39768403112726
 11
1445.4915481793073
 21
772.39768403112726
  0
LINE
  8
_0-5_寸法線
  6
CONTINUOUS
 62
    7
 10
1437.4915481793073
 20
772.39768403112726
 11
1441.6326529009475
 21
756.9428708105022
  0
LINE
  8
_0-5_寸法線
  6
CONTINUOUS
 62
    7
 10
1437.4915481793073
 20
772.39768403112726
 11
1433.3504434576669
 21
756.9428708105022
  0
LINE
  8
_0-5_寸法線
  6
CONTINUOUS
 62
    7
 10
1437.4915481793073
 20
775.39768403112726
 11
1437.4915481793073
 21
732.39768403112726
  0
TEXT
  8
_0-5_寸法線
 62
    7
 10
1437.4915481793073
 20
735.64492594060584
 40
24
 41
1
 50
90
  1
3
  0
LINE
  8
_0-d_寸法5
  6
CONTINUOUS
 62
    7
 10
460.20166666666773
 20
413.29172963936298
 11
460.20166666666819
 21
525.2913792377517
  0
LINE
  8
_0-d_寸法5
  6
CONTINUOUS
 62
    7
 10
460.20166666666819
 20
517.2913792377517
 11
444.74685344604313
 21
513.15027451611138
  0
LINE
  8
_0-d_寸法5
  6
CONTINUOUS
 62
    7
 10
460.20166666666819
 20
517.2913792377517
 11
444.74685344604313
 21
521.43248395939213
  0
LINE
  8
_0-d_寸法5
  6
CONTINUOUS
 62
    7
 10
465.00166666666792
 20
413.29172963936344
 11
465.00166666666792
 21
525.2913792377517
  0
CIRCLE
  8
_0-d_寸法5
  6
CONTINUOUS
 62
    1
 10
465.00166666666792
 20
517.2913792377517
 40
2.3999999999999999
  0
LINE
  8
_0-d_寸法5
  6
CONTINUOUS
 62
    7
 10
420.20166666666819
 20
517.2913792377517
 11
465.00166666666792
 21
517.2913792377517
  0
TEXT
  8
_0-d_寸法5
 62
    7
 10
424.10359996672582
 20
517.2913792377517
 40
24
 41
1
 50
0
  1
3
  0
LINE
  8
_0-d_寸法5
  6
CONTINUOUS
 62
    7
 10
467.40166666666755
 20
413.29172963936344
 11
467.40166666666755
 21
525.2913792377517
  0
LINE
  8
_0-d_寸法5
  6
CONTINUOUS
 62
    7
 10
465.00166666666792
 20
517.2913792377517
 11
467.40166666666755
 21
517.2913792377517
  0
TEXT
  8
_0-d_寸法5
 62
    7
 10
471.55506132319579
 20
517.2913792377517
 40
24
 41
1
 50
0
  1
1.5
  0
LINE
  8
_0-d_寸法5
  6
CONTINUOUS
 62
    7
 10
467.40166666666755
 20
517.2913792377517
 11
482.85647988729261
 21
521.43248395939202
  0
LINE
  8
_0-d_寸法5
  6
CONTINUOUS
 62
    7
 10
467.40166666666755
 20
517.2913792377517
 11
482.85647988729261
 21
513.15027451611138
  0
LINE
  8
_0-d_寸法5
  6
CONTINUOUS
 62
    7
 10
1109.0016666666679
 20
413.29172963936344
 11
1109.0016666666679
 21
525.2913792377517
  0
LINE
  8
_0-d_寸法5
  6
CONTINUOUS
 62
    7
 10
1109.0016666666679
 20
517.2913792377517
 11
1093.5468534460429
 21
513.15027451611138
  0
LINE
  8
_0-d_寸法5
  6
CONTINUOUS
 62
    7
 10
1109.0016666666679
 20
517.2913792377517
 11
1093.5468534460429
 21
521.43248395939213
  0
LINE
  8
_0-d_寸法5
  6
CONTINUOUS
 62
    7
 10
467.40166666666755
 20
517.2913792377517
 11
1109.0016666666679
 21
517.2913792377517
  0
TEXT
  8
_0-d_寸法5
 62
    7
 10
770.20166666666773
 20
517.2913792377517
 40
24
 41
1
 50
0
  1
401
  0
LINE
  8
_0-d_寸法5
  6
CONTINUOUS
 62
    7
 10
1111.4016666666676
 20
413.29172963936344
 11
1111.4016666666676
 21
525.2913792377517
  0
CIRCLE
  8
_0-d_寸法5
  6
CONTINUOUS
 62
    1
 10
1111.4016666666676
 20
517.2913792377517
 40
2.3999999999999999
  0
LINE
  8
_0-d_寸法5
  6
CONTINUOUS
 62
    7
 10
1109.0016666666679
 20
517.2913792377517
 11
1111.4016666666676
 21
517.2913792377517
  0
TEXT
  8
_0-d_寸法5
 62
    7
 10
1073.27043176288
 20
517.2913792377517
 40
24
 41
1
 50
0
  1
1.5
  0
LINE
  8
_0-d_寸法5
  6
CONTINUOUS
 62
    7
 10
1116.2016666666677
 20
413.29172963936344
 11
1116.2016666666677
 21
525.2913792377517
  0
LINE
  8
_0-d_寸法5
  6
CONTINUOUS
 62
    7
 10
1116.2016666666677
 20
517.2913792377517
 11
1131.6564798872928
 21
521.4324839593919
  0
LINE
  8
_0-d_寸法5
  6
CONTINUOUS
 62
    7
 10
1116.2016666666677
 20
517.2913792377517
 11
1131.6564798872928
 21
513.15027451611127
  0
LINE
  8
_0-d_寸法5
  6
CONTINUOUS
 62
    7
 10
1111.4016666666676
 20
517.2913792377517
 11
1156.2016666666677
 21
517.2913792377517
  0
TEXT
  8
_0-d_寸法5
 62
    7
 10
1137.4689156060547
 20
517.2913792377517
 40
24
 41
1
 50
0
  1
3
  0
LINE
  8
_0-5_寸法線
  6
CONTINUOUS
 62
    7
 10
836.49154817930923
 20
1198.3976840311227
 11
836.49154817930923
 21
1270.3976840311227
  0
LINE
  8
_0-5_寸法線
  6
CONTINUOUS
 62
    7
 10
836.49154817930923
 20
1262.3976840311227
 11
851.94636139993429
 21
1266.5387887527631
  0
LINE
  8
_0-5_寸法線
  6
CONTINUOUS
 62
    7
 10
836.49154817930923
 20
1262.3976840311227
 11
851.94636139993429
 21
1258.2565793094823
  0
LINE
  8
_0-5_寸法線
  6
CONTINUOUS
 62
    7
 10
884.99154817930923
 20
1198.3976840311227
 11
884.99154817930923
 21
1270.3976840311227
  0
LINE
  8
_0-5_寸法線
  6
CONTINUOUS
 62
    7
 10
884.99154817930923
 20
1262.3976840311227
 11
869.53673495868418
 21
1258.2565793094825
  0
LINE
  8
_0-5_寸法線
  6
CONTINUOUS
 62
    7
 10
884.99154817930923
 20
1262.3976840311227
 11
869.53673495868418
 21
1266.5387887527631
  0
LINE
  8
_0-5_寸法線
  6
CONTINUOUS
 62
    7
 10
836.49154817930923
 20
1262.3976840311227
 11
884.99154817930923
 21
1262.3976840311227
  0
TEXT
  8
_0-5_寸法線
 62
    7
 10
848.74154817931014
 20
1262.3976840311227
 40
24
 41
1
 50
0
  1
Ｂ
  0
LINE
  8
_0-5_寸法線
  6
CONTINUOUS
 62
    7
 10
336.99154817930923
 20
1198.3976840311227
 11
336.99154817930923
 21
1270.3976840311227
  0
LINE
  8
_0-5_寸法線
  6
CONTINUOUS
 62
    7
 10
336.99154817930923
 20
1262.3976840311227
 11
352.4463613999344
 21
1266.5387887527631
  0
LINE
  8
_0-5_寸法線
  6
CONTINUOUS
 62
    7
 10
336.99154817930923
 20
1262.3976840311227
 11
352.4463613999344
 21
1258.2565793094823
  0
LINE
  8
_0-5_寸法線
  6
CONTINUOUS
 62
    7
 10
351.49154817930923
 20
1198.3976840311227
 11
351.49154817930923
 21
1270.3976840311227
  0
LINE
  8
_0-5_寸法線
  6
CONTINUOUS
 62
    7
 10
351.49154817930923
 20
1262.3976840311227
 11
336.03673495868406
 21
1258.2565793094825
  0
LINE
  8
_0-5_寸法線
  6
CONTINUOUS
 62
    7
 10
351.49154817930923
 20
1262.3976840311227
 11
336.03673495868418
 21
1266.5387887527631
  0
LINE
  8
_0-5_寸法線
  6
CONTINUOUS
 62
    7
 10
336.99154817930923
 20
1262.3976840311227
 11
351.49154817930923
 21
1262.3976840311227
  0
TEXT
  8
_0-5_寸法線
 62
    7
 10
332.24154817930923
 20
1262.3976840311227
 40
24
 41
1
 50
0
  1
Ａ
  0
LINE
  8
_0-5_寸法線
  6
CONTINUOUS
 62
    7
 10
1321.4915481793091
 20
1198.3976840311227
 11
1321.4915481793091
 21
1270.3976840311227
  0
LINE
  8
_0-5_寸法線
  6
CONTINUOUS
 62
    7
 10
1321.4915481793091
 20
1262.3976840311227
 11
1336.9463613999342
 21
1266.5387887527631
  0
LINE
  8
_0-5_寸法線
  6
CONTINUOUS
 62
    7
 10
1321.4915481793091
 20
1262.3976840311227
 11
1336.9463613999342
 21
1258.2565793094823
  0
LINE
  8
_0-5_寸法線
  6
CONTINUOUS
 62
    7
 10
1335.9915481793091
 20
1198.3976840311227
 11
1335.9915481793091
 21
1270.3976840311227
  0
LINE
  8
_0-5_寸法線
  6
CONTINUOUS
 62
    7
 10
1335.9915481793091
 20
1262.3976840311227
 11
1320.5367349586841
 21
1258.2565793094825
  0
LINE
  8
_0-5_寸法線
  6
CONTINUOUS
 62
    7
 10
1335.9915481793091
 20
1262.3976840311227
 11
1320.5367349586841
 21
1266.5387887527631
  0
LINE
  8
_0-5_寸法線
  6
CONTINUOUS
 62
    7
 10
1321.4915481793091
 20
1262.3976840311227
 11
1335.9915481793091
 21
1262.3976840311227
  0
TEXT
  8
_0-5_寸法線
 62
    7
 10
1316.7415481793091
 20
1262.3976840311227
 40
24
 41
1
 50
0
  1
Ａ
  0
LINE
  8
_0-5_寸法線
  6
CONTINUOUS
 62
    7
 10
336.99154817930935
 20
1198.3976840311218
 11
336.99154817931003
 21
1326.3976840311227
  0
LINE
  8
_0-5_寸法線
  6
CONTINUOUS
 62
    7
 10
336.99154817930992
 20
1318.3976840311227
 11
348.58265809477871
 21
1321.503512572353
  0
LINE
  8
_0-5_寸法線
  6
CONTINUOUS
 62
    7
 10
336.99154817930992
 20
1318.3976840311227
 11
348.58265809477871
 21
1315.2918554898924
  0
LINE
  8
_0-5_寸法線
  6
CONTINUOUS
 62
    7
 10
1335.9915481793091
 20
1198.3976840311218
 11
1335.9915481793091
 21
1326.3976840311227
  0
LINE
  8
_0-5_寸法線
  6
CONTINUOUS
 62
    7
 10
1335.9915481793091
 20
1318.3976840311227
 11
1324.4004382638402
 21
1315.2918554898924
  0
LINE
  8
_0-5_寸法線
  6
CONTINUOUS
 62
    7
 10
1335.9915481793091
 20
1318.3976840311227
 11
1324.4004382638402
 21
1321.503512572353
  0
LINE
  8
_0-5_寸法線
  6
CONTINUOUS
 62
    7
 10
336.99154817930992
 20
1318.3976840311227
 11
1335.9915481793091
 21
1318.3976840311227
  0
TEXT
  8
_0-5_寸法線
 62
    7
 10
824.49154817931003
 20
1318.3976840311227
 40
24
 41
1
 50
0
  1
Ｌ
  0
LINE
  8
_0-5_寸法線
  6
CONTINUOUS
 62
    7
 10
739.49154817931014
 20
1198.3976840311227
 11
739.49154817931014
 21
1270.3976840311227
  0
LINE
  8
_0-5_寸法線
  6
CONTINUOUS
 62
    7
 10
739.49154817931014
 20
1262.3976840311227
 11
754.9463613999352
 21
1266.5387887527631
  0
LINE
  8
_0-5_寸法線
  6
CONTINUOUS
 62
    7
 10
739.49154817931014
 20
1262.3976840311227
 11
754.9463613999352
 21
1258.2565793094823
  0
LINE
  8
_0-5_寸法線
  6
CONTINUOUS
 62
    7
 10
787.99154817931014
 20
1198.3976840311227
 11
787.99154817931014
 21
1270.3976840311227
  0
LINE
  8
_0-5_寸法線
  6
CONTINUOUS
 62
    7
 10
787.99154817931014
 20
1262.3976840311227
 11
772.53673495868509
 21
1258.2565793094825
  0
LINE
  8
_0-5_寸法線
  6
CONTINUOUS
 62
    7
 10
787.99154817931014
 20
1262.3976840311227
 11
772.53673495868509
 21
1266.5387887527631
  0
LINE
  8
_0-5_寸法線
  6
CONTINUOUS
 62
    7
 10
739.49154817931014
 20
1262.3976840311227
 11
787.99154817931014
 21
1262.3976840311227
  0
TEXT
  8
_0-5_寸法線
 62
    7
 10
739.74154817931014
 20
1262.3976840311227
 40
24
 41
1
 50
0
  1
48.5
  0
LINE
  8
_0-5_寸法線
  6
CONTINUOUS
 62
    7
 10
787.99154817931014
 20
1262.3976840311227
 11
803.44636139993531
 21
1266.5387887527629
  0
LINE
  8
_0-5_寸法線
  6
CONTINUOUS
 62
    7
 10
787.99154817931014
 20
1262.3976840311227
 11
803.4463613999352
 21
1258.2565793094823
  0
LINE
  8
_0-5_寸法線
  6
CONTINUOUS
 62
    7
 10
836.49154817931014
 20
1198.3976840311227
 11
836.49154817931014
 21
1270.3976840311227
  0
LINE
  8
_0-5_寸法線
  6
CONTINUOUS
 62
    7
 10
836.49154817931014
 20
1262.3976840311227
 11
821.03673495868509
 21
1258.2565793094825
  0
LINE
  8
_0-5_寸法線
  6
CONTINUOUS
 62
    7
 10
836.49154817931014
 20
1262.3976840311227
 11
821.03673495868509
 21
1266.5387887527631
  0
LINE
  8
_0-5_寸法線
  6
CONTINUOUS
 62
    7
 10
787.99154817931014
 20
1262.3976840311227
 11
836.49154817931014
 21
1262.3976840311227
  0
TEXT
  8
_0-5_寸法線
 62
    7
 10
789.11808090589659
 20
1238.3976840311227
 40
24
 41
1
 50
0
  1
48.5
  0
LINE
  8
_0-7_枠細線
  6
CONTINUOUS
 62
    5
 10
777.52570136135694
 20
1290.8820222487175
 11
765.52570136135694
 21
1314.8820222487175
  0
LINE
  8
_0-7_枠細線
  6
CONTINUOUS
 62
    5
 10
753.52570136135694
 20
1290.8820222487175
 11
777.52570136135694
 21
1290.8820222487175
  0
LINE
  8
_0-7_枠細線
  6
CONTINUOUS
 62
    5
 10
765.52570136135694
 20
1314.8820222487175
 11
753.52570136135694
 21
1290.8820222487175
  0
TEXT
  8
_0-7_枠細線
 62
    5
 10
757.30994339039387
 20
1290.3908186561086
 40
20
 41
0.8
 50
0
  1
１
  0
LINE
  8
_0-7_枠細線
  6
CONTINUOUS
 62
    5
 10
793.94218089087792
 20
1314.8820222487175
 11
781.94218089087792
 21
1290.8820222487175
  0
LINE
  8
_0-7_枠細線
  6
CONTINUOUS
 62
    5
 10
781.94218089087792
 20
1290.8820222487175
 11
805.94218089087792
 21
1290.8820222487175
  0
LINE
  8
_0-7_枠細線
  6
CONTINUOUS
 62
    5
 10
805.94218089087792
 20
1290.8820222487175
 11
793.94218089087792
 21
1314.8820222487175
  0
LINE
  8
_0-7_枠細線
  6
CONTINUOUS
 62
    5
 10
1464
 20
1314.307734354795
 11
1452
 21
1338.307734354795
  0
LINE
  8
_0-7_枠細線
  6
CONTINUOUS
 62
    5
 10
1440
 20
1314.307734354795
 11
1464
 21
1314.307734354795
  0
LINE
  8
_0-7_枠細線
  6
CONTINUOUS
 62
    5
 10
1452
 20
1338.307734354795
 11
1440
 21
1314.307734354795
  0
LINE
  8
_0-7_枠細線
  6
CONTINUOUS
 62
    5
 10
2280
 20
1312
 11
1424
 21
1312
  0
LINE
  8
_0-7_枠細線
  6
CONTINUOUS
 62
    5
 10
1464
 20
1286.307734354795
 11
1452
 21
1310.307734354795
  0
LINE
  8
_0-7_枠細線
  6
CONTINUOUS
 62
    5
 10
1440
 20
1286.307734354795
 11
1464
 21
1286.307734354795
  0
LINE
  8
_0-7_枠細線
  6
CONTINUOUS
 62
    5
 10
1452
 20
1310.307734354795
 11
1440
 21
1286.307734354795
  0
LINE
  8
_0-7_枠細線
  6
CONTINUOUS
 62
    5
 10
2280
 20
1284
 11
1424
 21
1284
  0
TEXT
  8
_0-7_枠細線
 62
    5
 10
1443.7842420290372
 20
1312.7896224110355
 40
20
 41
0.8
 50
0
  1
６
  0
TEXT
  8
_0-7_枠細線
 62
    5
 10
1443.7842420290372
 20
1284.7896224110352
 40
20
 41
0.8
 50
0
  1
７
  0
LINE
  8
_0-7_枠細線
  6
CONTINUOUS
 62
    5
 10
1424
 20
1284
 11
1424
 21
1535.9999999999986
  0
LINE
  8
_0-7_枠細線
  6
CONTINUOUS
 62
    5
 10
1480
 20
1284
 11
1480
 21
1535.9999999999986
  0
LINE
  8
_0-7_枠細線
  6
CONTINUOUS
 62
    5
 10
1880
 20
1284
 11
1880
 21
1535.9999999999986
  0
LINE
  8
_0-7_枠細線
  6
CONTINUOUS
 62
    5
 10
2040
 20
1284
 11
2040
 21
1535.9999999999986
  0
LINE
  8
_0-7_枠細線
  6
CONTINUOUS
 62
    5
 10
1668.4453960905375
 20
1133.8946910356817
 11
1668.4453960905375
 21
1013.8946910356818
  0
TEXT
  8
_0-7_枠細線
 62
    5
 10
1671.7225259619295
 20
980.73377816458583
 40
24
 41
0.8000000000000001
 50
0
  1
※ 特寸品はAが20以下となるようBにて調整
  0
TEXT
  8
_0-7_枠細線
 62
    5
 10
1671.7225259619295
 20
949.54143699835436
 40
24
 41
0.8000000000000001
 50
0
  1
※ 角型の場合は、集水マス補強仕様による
  0
TEXT
  8
_0-7_枠細線
 62
    5
 10
1709.6453960905396
 20
1101.8946910356817
 40
24
 41
0.8000000000000001
 50
0
  1
種　別
  0
TEXT
  8
_0-7_枠細線
 62
    5
 10
1709.645396090539
 20
1061.8946910356817
 40
24
 41
0.8000000000000001
 50
0
  1
定尺品
  0
TEXT
  8
_0-7_枠細線
 62
    5
 10
1709.645396090539
 20
1021.8946910356818
 40
24
 41
0.8000000000000001
 50
0
  1
特寸品
  0
LINE
  8
_0-7_枠細線
  6
CONTINUOUS
 62
    5
 10
1808.4453960905398
 20
1133.8946910356817
 11
1808.4453960905398
 21
1013.8946910356818
  0
TEXT
  8
_0-7_枠細線
 62
    5
 10
1856.845396090542
 20
1061.8946910356817
 40
24
 41
0.5999999999999999
 50
0
  1
９９９
  0
TEXT
  8
_0-7_枠細線
 62
    5
 10
1868.845396090542
 20
1101.8946910356817
 40
24
 41
0.8000000000000001
 50
0
  1
Ｌ
  0
TEXT
  8
_0-7_枠細線
 62
    5
 10
1820.8453960905404
 20
1021.8946910356818
 40
24
 41
0.5999999999999999
 50
0
  1
３０５～１３０５
  0
LINE
  8
_0-7_枠細線
  6
CONTINUOUS
 62
    5
 10
1948.4453960905398
 20
1133.8946910356817
 11
1948.4453960905398
 21
1013.8946910356818
  0
TEXT
  8
_0-7_枠細線
 62
    5
 10
1849.2540219487705
 20
1141.8946910356817
 40
28
 41
1
 50
0
  1
寸法表
  0
LINE
  8
_0-7_枠細線
  6
CONTINUOUS
 62
    5
 10
2228.4453960905412
 20
1133.8946910356817
 11
2228.4453960905412
 21
1013.8946910356818
  0
LINE
  8
_0-7_枠細線
  6
CONTINUOUS
 62
    5
 10
1668.4453960905375
 20
1133.8946910356817
 11
2228.4453960905412
 21
1133.8946910356817
  0
LINE
  8
_0-7_枠細線
  6
CONTINUOUS
 62
    5
 10
1668.4453960905375
 20
1093.8946910356817
 11
2228.4453960905412
 21
1093.8946910356817
  0
LINE
  8
_0-7_枠細線
  6
CONTINUOUS
 62
    5
 10
1668.4453960905375
 20
1053.8946910356817
 11
2228.4453960905412
 21
1053.8946910356817
  0
LINE
  8
_0-7_枠細線
  6
CONTINUOUS
 62
    5
 10
1668.4453960905375
 20
1013.8946910356818
 11
2228.4453960905412
 21
1013.8946910356818
  0
LINE
  8
_0-7_枠細線
  6
CONTINUOUS
 62
    5
 10
2088.4453960905407
 20
1133.8946910356817
 11
2088.4453960905407
 21
1013.8946910356818
  0
TEXT
  8
_0-7_枠細線
 62
    5
 10
1989.6453960905442
 20
1021.8946910356818
 40
24
 41
0.5999999999999999
 50
0
  1
７～２０
  0
TEXT
  8
_0-7_枠細線
 62
    5
 10
2008.8453960905454
 20
1101.8946910356817
 40
24
 41
0.8000000000000001
 50
0
  1
Ａ
  0
TEXT
  8
_0-7_枠細線
 62
    5
 10
2148.8453960905426
 20
1101.8946910356817
 40
24
 41
0.8000000000000001
 50
0
  1
Ｂ
  0
TEXT
  8
_0-7_枠細線
 62
    5
 10
2129.6453960905392
 20
1061.8946910356817
 40
24
 41
0.5999999999999999
 50
0
  1
４８．５
  0
TEXT
  8
_0-7_枠細線
 62
    5
 10
1989.6453960905401
 20
1061.8946910356817
 40
24
 41
0.5999999999999999
 50
0
  1
１４．５
  0
TEXT
  8
_0-7_枠細線
 62
    5
 10
2093.645396090541
 20
1021.8946910356818
 40
24
 41
0.5999999999999999
 50
0
  1
２６．５～４８．５
  0
TEXT
  8
_0-7_枠細線
 62
    5
 10
1882.8453960905383
 20
608
 40
24
 41
0.7999999999999999
 50
0
  1
ライトグレー
  0
TEXT
  8
_0-7_枠細線
 62
    5
 10
1902.0453960905381
 20
648
 40
24
 41
0.7999999999999999
 50
0
  1
ベージュ
  0
TEXT
  8
_0-7_枠細線
 62
    5
 10
1902.0453960905381
 20
567.99999999999977
 40
24
 41
0.7999999999999999
 50
0
  1
ホワイト
  0
TEXT
  8
_0-7_枠細線
 62
    5
 10
1911.6453960905383
 20
527.99999999999977
 40
24
 41
0.7999999999999999
 50
0
  1
ピンク
  0
TEXT
  8
_0-7_枠細線
 62
    5
 10
1911.6453960905383
 20
487.99999999999977
 40
24
 41
0.7999999999999999
 50
0
  1
ブルー
  0
TEXT
  8
_0-7_枠細線
 62
    5
 10
1882.8453960905383
 20
447.99999999999977
 40
24
 41
0.7999999999999999
 50
0
  1
ダークグレー
  0
TEXT
  8
_0-7_枠細線
 62
    5
 10
1911.6453960905383
 20
407.99999999999977
 40
24
 41
0.7999999999999999
 50
0
  1
ウッド
  0
TEXT
  8
_0-7_枠細線
 62
    5
 10
1902.0453960905381
 20
327.99999999999977
 40
24
 41
0.7999999999999999
 50
0
  1
ブラック
  0
TEXT
  8
_0-7_枠細線
 62
    5
 10
1902.0453960905381
 20
367.99999999999977
 40
24
 41
0.7999999999999999
 50
0
  1
ブラウン
  0
LINE
  8
_0-0_計極細
  6
CENTER1
 62
    2
 10
399.99154817930912
 20
1186.1484034555908
 11
399.99154817930912
 21
769.83986029011544
  0
LINE
  8
_0-0_計極細
  6
CONTINUOUS
 62
    2
 10
393.49154817930912
 20
1149.8976840311191
 11
393.49154817930912
 21
1144.5976840311198
  0
LINE
  8
_0-0_計極細
  6
CONTINUOUS
 62
    2
 10
406.49154817930912
 20
1149.8976840311191
 11
406.49154817930912
 21
1144.5976840311198
  0
LINE
  8
_0-0_計極細
  6
CONTINUOUS
 62
    2
 10
393.49154817930912
 20
1166.4976840311185
 11
393.49154817930912
 21
1161.2976840311187
  0
LINE
  8
_0-0_計極細
  6
CONTINUOUS
 62
    2
 10
406.49154817930912
 20
1166.4976840311185
 11
406.49154817930912
 21
1161.2976840311187
  0
LINE
  8
_0-0_計極細
  6
CONTINUOUS
 62
    2
 10
393.49154817930912
 20
1116.1976840311174
 11
393.49154817930912
 21
1110.5976840311171
  0
LINE
  8
_0-0_計極細
  6
CONTINUOUS
 62
    2
 10
406.49154817930912
 20
1116.1976840311174
 11
406.49154817930912
 21
1110.5976840311171
  0
LINE
  8
_0-0_計極細
  6
CONTINUOUS
 62
    2
 10
393.49154817930912
 20
1133.1976840311165
 11
393.49154817930912
 21
1127.5976840311162
  0
LINE
  8
_0-0_計極細
  6
CONTINUOUS
 62
    2
 10
406.49154817930912
 20
1133.1976840311165
 11
406.49154817930912
 21
1127.5976840311162
  0
LINE
  8
_0-0_計極細
  6
CONTINUOUS
 62
    2
 10
393.49154817930912
 20
946.19768403113198
 11
393.49154817930912
 21
940.59768403113162
  0
LINE
  8
_0-0_計極細
  6
CONTINUOUS
 62
    2
 10
406.49154817930912
 20
946.19768403113198
 11
406.49154817930912
 21
940.59768403113162
  0
LINE
  8
_0-0_計極細
  6
CONTINUOUS
 62
    2
 10
393.49154817930912
 20
963.19768403113289
 11
393.49154817930912
 21
957.59768403113253
  0
LINE
  8
_0-0_計極細
  6
CONTINUOUS
 62
    2
 10
406.49154817930912
 20
963.19768403113289
 11
406.49154817930912
 21
957.59768403113253
  0
LINE
  8
_0-0_計極細
  6
CONTINUOUS
 62
    2
 10
393.49154817930912
 20
980.19768403113289
 11
393.49154817930912
 21
974.59768403113344
  0
LINE
  8
_0-0_計極細
  6
CONTINUOUS
 62
    2
 10
406.49154817930912
 20
980.19768403113289
 11
406.49154817930912
 21
974.59768403113344
  0
LINE
  8
_0-0_計極細
  6
CONTINUOUS
 62
    2
 10
393.49154817930912
 20
997.1976840311338
 11
393.49154817930912
 21
991.59768403113344
  0
LINE
  8
_0-0_計極細
  6
CONTINUOUS
 62
    2
 10
406.49154817930912
 20
997.1976840311338
 11
406.49154817930912
 21
991.59768403113344
  0
LINE
  8
_0-0_計極細
  6
CONTINUOUS
 62
    2
 10
393.49154817930912
 20
1014.1976840311347
 11
393.49154817930912
 21
1008.5976840311343
  0
LINE
  8
_0-0_計極細
  6
CONTINUOUS
 62
    2
 10
406.49154817930912
 20
1014.1976840311347
 11
406.49154817930912
 21
1008.5976840311343
  0
LINE
  8
_0-0_計極細
  6
CONTINUOUS
 62
    2
 10
393.49154817930912
 20
1031.1976840311338
 11
393.49154817930912
 21
1025.5976840311334
  0
LINE
  8
_0-0_計極細
  6
CONTINUOUS
 62
    2
 10
406.49154817930912
 20
1031.1976840311338
 11
406.49154817930912
 21
1025.5976840311334
  0
LINE
  8
_0-0_計極細
  6
CONTINUOUS
 62
    2
 10
393.49154817930912
 20
1048.1976840311329
 11
393.49154817930912
 21
1042.5976840311325
  0
LINE
  8
_0-0_計極細
  6
CONTINUOUS
 62
    2
 10
406.49154817930912
 20
1048.1976840311329
 11
406.49154817930912
 21
1042.5976840311325
  0
LINE
  8
_0-0_計極細
  6
CONTINUOUS
 62
    2
 10
393.49154817930912
 20
1065.197684031132
 11
393.49154817930912
 21
1059.5976840311316
  0
LINE
  8
_0-0_計極細
  6
CONTINUOUS
 62
    2
 10
406.49154817930912
 20
1065.197684031132
 11
406.49154817930912
 21
1059.5976840311316
  0
LINE
  8
_0-0_計極細
  6
CONTINUOUS
 62
    2
 10
393.49154817930912
 20
1082.1976840311311
 11
393.49154817930912
 21
1076.5976840311307
  0
LINE
  8
_0-0_計極細
  6
CONTINUOUS
 62
    2
 10
406.49154817930912
 20
1082.1976840311311
 11
406.49154817930912
 21
1076.5976840311307
  0
LINE
  8
_0-0_計極細
  6
CONTINUOUS
 62
    2
 10
393.49154817930912
 20
923.59768403113071
 11
393.49154817930912
 21
929.19768403113108
  0
LINE
  8
_0-0_計極細
  6
CONTINUOUS
 62
    2
 10
406.49154817930912
 20
923.59768403113071
 11
406.49154817930912
 21
929.19768403113108
  0
LINE
  8
_0-0_計極細
  6
CONTINUOUS
 62
    2
 10
393.49154817930912
 20
906.5976840311298
 11
393.49154817930912
 21
912.19768403113017
  0
LINE
  8
_0-0_計極細
  6
CONTINUOUS
 62
    2
 10
406.49154817930912
 20
906.5976840311298
 11
406.49154817930912
 21
912.19768403113017
  0
LINE
  8
_0-0_計極細
  6
CONTINUOUS
 62
    2
 10
393.49154817930912
 20
889.5976840311298
 11
393.49154817930912
 21
895.19768403112926
  0
LINE
  8
_0-0_計極細
  6
CONTINUOUS
 62
    2
 10
406.49154817930912
 20
889.5976840311298
 11
406.49154817930912
 21
895.19768403112926
  0
LINE
  8
_0-0_計極細
  6
CONTINUOUS
 62
    2
 10
393.49154817930912
 20
872.59768403113071
 11
393.49154817930912
 21
878.19768403113017
  0
LINE
  8
_0-0_計極細
  6
CONTINUOUS
 62
    2
 10
406.49154817930912
 20
872.59768403113071
 11
406.49154817930912
 21
878.19768403113017
  0
LINE
  8
_0-0_計極細
  6
CONTINUOUS
 62
    2
 10
393.49154817930912
 20
855.59768403113162
 11
393.49154817930912
 21
861.19768403113108
  0
LINE
  8
_0-0_計極細
  6
CONTINUOUS
 62
    2
 10
406.49154817930912
 20
855.59768403113162
 11
406.49154817930912
 21
861.19768403113108
  0
LINE
  8
_0-0_計極細
  6
CONTINUOUS
 62
    2
 10
393.49154817930912
 20
838.59768403113253
 11
393.49154817930912
 21
844.19768403113198
  0
LINE
  8
_0-0_計極細
  6
CONTINUOUS
 62
    2
 10
406.49154817930912
 20
838.59768403113253
 11
406.49154817930912
 21
844.19768403113198
  0
LINE
  8
_0-0_計極細
  6
CONTINUOUS
 62
    2
 10
393.49154817930912
 20
821.59768403113344
 11
393.49154817930912
 21
827.19768403113289
  0
LINE
  8
_0-0_計極細
  6
CONTINUOUS
 62
    2
 10
406.49154817930912
 20
821.59768403113344
 11
406.49154817930912
 21
827.19768403113289
  0
LINE
  8
_0-0_計極細
  6
CONTINUOUS
 62
    2
 10
393.49154817930912
 20
804.89768403112998
 11
393.49154817930912
 21
810.19768403113017
  0
LINE
  8
_0-0_計極細
  6
CONTINUOUS
 62
    2
 10
406.49154817930912
 20
804.89768403112998
 11
406.49154817930912
 21
810.19768403113017
  0
LINE
  8
_0-0_計極細
  6
CONTINUOUS
 62
    2
 10
393.49154817930912
 20
788.29768403113144
 11
393.49154817930912
 21
793.49768403113126
  0
LINE
  8
_0-0_計極細
  6
CONTINUOUS
 62
    2
 10
406.49154817930912
 20
788.29768403113144
 11
406.49154817930912
 21
793.49768403113126
  0
LINE
  8
_0-0_計極細
  6
CENTER1
 62
    2
 10
1272.9915481793091
 20
1186.1484034555908
 11
1272.9915481793091
 21
769.83986029011544
  0
LINE
  8
_0-0_計極細
  6
CONTINUOUS
 62
    2
 10
1266.4915481793091
 20
1149.8976840311191
 11
1266.4915481793091
 21
1144.5976840311198
  0
LINE
  8
_0-0_計極細
  6
CONTINUOUS
 62
    2
 10
1279.4915481793091
 20
1149.8976840311191
 11
1279.4915481793091
 21
1144.5976840311198
  0
LINE
  8
_0-0_計極細
  6
CONTINUOUS
 62
    2
 10
1266.4915481793091
 20
1166.4976840311185
 11
1266.4915481793091
 21
1161.2976840311187
  0
LINE
  8
_0-0_計極細
  6
CONTINUOUS
 62
    2
 10
1279.4915481793091
 20
1166.4976840311185
 11
1279.4915481793091
 21
1161.2976840311187
  0
LINE
  8
_0-0_計極細
  6
CONTINUOUS
 62
    2
 10
1266.4915481793091
 20
1116.1976840311174
 11
1266.4915481793091
 21
1110.5976840311171
  0
LINE
  8
_0-0_計極細
  6
CONTINUOUS
 62
    2
 10
1279.4915481793091
 20
1116.1976840311174
 11
1279.4915481793091
 21
1110.5976840311171
  0
LINE
  8
_0-0_計極細
  6
CONTINUOUS
 62
    2
 10
1266.4915481793091
 20
1133.1976840311165
 11
1266.4915481793091
 21
1127.5976840311162
  0
LINE
  8
_0-0_計極細
  6
CONTINUOUS
 62
    2
 10
1279.4915481793091
 20
1133.1976840311165
 11
1279.4915481793091
 21
1127.5976840311162
  0
LINE
  8
_0-0_計極細
  6
CONTINUOUS
 62
    2
 10
1266.4915481793091
 20
946.19768403113198
 11
1266.4915481793091
 21
940.59768403113162
  0
LINE
  8
_0-0_計極細
  6
CONTINUOUS
 62
    2
 10
1279.4915481793091
 20
946.19768403113198
 11
1279.4915481793091
 21
940.59768403113162
  0
LINE
  8
_0-0_計極細
  6
CONTINUOUS
 62
    2
 10
1266.4915481793091
 20
963.19768403113289
 11
1266.4915481793091
 21
957.59768403113253
  0
LINE
  8
_0-0_計極細
  6
CONTINUOUS
 62
    2
 10
1279.4915481793091
 20
963.19768403113289
 11
1279.4915481793091
 21
957.59768403113253
  0
LINE
  8
_0-0_計極細
  6
CONTINUOUS
 62
    2
 10
1266.4915481793091
 20
980.19768403113289
 11
1266.4915481793091
 21
974.59768403113344
  0
LINE
  8
_0-0_計極細
  6
CONTINUOUS
 62
    2
 10
1279.4915481793091
 20
980.19768403113289
 11
1279.4915481793091
 21
974.59768403113344
  0
LINE
  8
_0-0_計極細
  6
CONTINUOUS
 62
    2
 10
1266.4915481793091
 20
997.1976840311338
 11
1266.4915481793091
 21
991.59768403113344
  0
LINE
  8
_0-0_計極細
  6
CONTINUOUS
 62
    2
 10
1279.4915481793091
 20
997.1976840311338
 11
1279.4915481793091
 21
991.59768403113344
  0
LINE
  8
_0-0_計極細
  6
CONTINUOUS
 62
    2
 10
1266.4915481793091
 20
1014.1976840311347
 11
1266.4915481793091
 21
1008.5976840311343
  0
LINE
  8
_0-0_計極細
  6
CONTINUOUS
 62
    2
 10
1279.4915481793091
 20
1014.1976840311347
 11
1279.4915481793091
 21
1008.5976840311343
  0
LINE
  8
_0-0_計極細
  6
CONTINUOUS
 62
    2
 10
1266.4915481793091
 20
1031.1976840311338
 11
1266.4915481793091
 21
1025.5976840311334
  0
LINE
  8
_0-0_計極細
  6
CONTINUOUS
 62
    2
 10
1279.4915481793091
 20
1031.1976840311338
 11
1279.4915481793091
 21
1025.5976840311334
  0
LINE
  8
_0-0_計極細
  6
CONTINUOUS
 62
    2
 10
1266.4915481793091
 20
1048.1976840311329
 11
1266.4915481793091
 21
1042.5976840311325
  0
LINE
  8
_0-0_計極細
  6
CONTINUOUS
 62
    2
 10
1279.4915481793091
 20
1048.1976840311329
 11
1279.4915481793091
 21
1042.5976840311325
  0
LINE
  8
_0-0_計極細
  6
CONTINUOUS
 62
    2
 10
1266.4915481793091
 20
1065.197684031132
 11
1266.4915481793091
 21
1059.5976840311316
  0
LINE
  8
_0-0_計極細
  6
CONTINUOUS
 62
    2
 10
1279.4915481793091
 20
1065.197684031132
 11
1279.4915481793091
 21
1059.5976840311316
  0
LINE
  8
_0-0_計極細
  6
CONTINUOUS
 62
    2
 10
1266.4915481793091
 20
1082.1976840311311
 11
1266.4915481793091
 21
1076.5976840311307
  0
LINE
  8
_0-0_計極細
  6
CONTINUOUS
 62
    2
 10
1279.4915481793091
 20
1082.1976840311311
 11
1279.4915481793091
 21
1076.5976840311307
  0
LINE
  8
_0-0_計極細
  6
CONTINUOUS
 62
    2
 10
1266.4915481793091
 20
923.59768403113071
 11
1266.4915481793091
 21
929.19768403113108
  0
LINE
  8
_0-0_計極細
  6
CONTINUOUS
 62
    2
 10
1279.4915481793091
 20
923.59768403113071
 11
1279.4915481793091
 21
929.19768403113108
  0
LINE
  8
_0-0_計極細
  6
CONTINUOUS
 62
    2
 10
1266.4915481793091
 20
906.5976840311298
 11
1266.4915481793091
 21
912.19768403113017
  0
LINE
  8
_0-0_計極細
  6
CONTINUOUS
 62
    2
 10
1279.4915481793091
 20
906.5976840311298
 11
1279.4915481793091
 21
912.19768403113017
  0
LINE
  8
_0-0_計極細
  6
CONTINUOUS
 62
    2
 10
1266.4915481793091
 20
889.5976840311298
 11
1266.4915481793091
 21
895.19768403112926
  0
LINE
  8
_0-0_計極細
  6
CONTINUOUS
 62
    2
 10
1279.4915481793091
 20
889.5976840311298
 11
1279.4915481793091
 21
895.19768403112926
  0
LINE
  8
_0-0_計極細
  6
CONTINUOUS
 62
    2
 10
1266.4915481793091
 20
872.59768403113071
 11
1266.4915481793091
 21
878.19768403113017
  0
LINE
  8
_0-0_計極細
  6
CONTINUOUS
 62
    2
 10
1279.4915481793091
 20
872.59768403113071
 11
1279.4915481793091
 21
878.19768403113017
  0
LINE
  8
_0-0_計極細
  6
CONTINUOUS
 62
    2
 10
1266.4915481793091
 20
855.59768403113162
 11
1266.4915481793091
 21
861.19768403113108
  0
LINE
  8
_0-0_計極細
  6
CONTINUOUS
 62
    2
 10
1279.4915481793091
 20
855.59768403113162
 11
1279.4915481793091
 21
861.19768403113108
  0
LINE
  8
_0-0_計極細
  6
CONTINUOUS
 62
    2
 10
1266.4915481793091
 20
838.59768403113253
 11
1266.4915481793091
 21
844.19768403113198
  0
LINE
  8
_0-0_計極細
  6
CONTINUOUS
 62
    2
 10
1279.4915481793091
 20
838.59768403113253
 11
1279.4915481793091
 21
844.19768403113198
  0
LINE
  8
_0-0_計極細
  6
CONTINUOUS
 62
    2
 10
1266.4915481793091
 20
821.59768403113344
 11
1266.4915481793091
 21
827.19768403113289
  0
LINE
  8
_0-0_計極細
  6
CONTINUOUS
 62
    2
 10
1279.4915481793091
 20
821.59768403113344
 11
1279.4915481793091
 21
827.19768403113289
  0
LINE
  8
_0-0_計極細
  6
CONTINUOUS
 62
    2
 10
1266.4915481793091
 20
804.89768403112998
 11
1266.4915481793091
 21
810.19768403113017
  0
LINE
  8
_0-0_計極細
  6
CONTINUOUS
 62
    2
 10
1279.4915481793091
 20
804.89768403112998
 11
1279.4915481793091
 21
810.19768403113017
  0
LINE
  8
_0-0_計極細
  6
CONTINUOUS
 62
    2
 10
1266.4915481793091
 20
788.29768403113144
 11
1266.4915481793091
 21
793.49768403113126
  0
LINE
  8
_0-0_計極細
  6
CONTINUOUS
 62
    2
 10
1279.4915481793091
 20
788.29768403113144
 11
1279.4915481793091
 21
793.49768403113126
  0
LINE
  8
_0-0_計極細
  6
CONTINUOUS
 62
    2
 10
393.49154817930912
 20
1099.1976840311347
 11
393.49154817930912
 21
1093.5976840311343
  0
LINE
  8
_0-0_計極細
  6
CONTINUOUS
 62
    2
 10
406.49154817930912
 20
1099.1976840311347
 11
406.49154817930912
 21
1093.5976840311343
  0
LINE
  8
_0-0_計極細
  6
CONTINUOUS
 62
    2
 10
1266.4915481793091
 20
1099.1976840311347
 11
1266.4915481793091
 21
1093.5976840311343
  0
LINE
  8
_0-0_計極細
  6
CONTINUOUS
 62
    2
 10
1279.4915481793091
 20
1099.1976840311347
 11
1279.4915481793091
 21
1093.5976840311343
  0
TEXT
  8
_0-7_枠細線
 62
    5
 10
892.90454714096359
 20
154.44391307124488
 40
32
 41
0.6
 50
0
  1
Ｓ＝１：５
  0
LINE
  8
_0-1_計細線
  6
CONTINUOUS
 62
    3
 10
409.49154817930855
 20
975.0476840311328
 11
462.49154817930855
 21
975.0476840311328
  0
LINE
  8
_0-1_計細線
  6
CONTINUOUS
 62
    3
 10
462.49154817930855
 20
979.74768403113262
 11
409.49154817930855
 21
979.74768403113262
  0
LINE
  8
_0-1_計細線
  6
CONTINUOUS
 62
    3
 10
409.49154817930855
 20
979.74768403113262
 11
409.49154817930855
 21
975.0476840311328
  0
LINE
  8
_0-1_計細線
  6
CONTINUOUS
 62
    3
 10
452.49154817930855
 20
979.74768403113262
 11
452.49154817930855
 21
975.0476840311328
  0
LINE
  8
_0-1_計細線
  6
CONTINUOUS
 62
    3
 10
460.49154817930855
 20
979.74768403113262
 11
460.49154817930855
 21
975.0476840311328
  0
LINE
  8
_0-1_計細線
  6
CONTINUOUS
 62
    3
 10
462.49154817930855
 20
979.74768403113262
 11
462.49154817930855
 21
975.0476840311328
  0
LINE
  8
_0-1_計細線
  6
CONTINUOUS
 62
    3
 10
458.49154817930855
 20
979.74768403113262
 11
458.49154817930855
 21
975.0476840311328
  0
LINE
  8
_0-1_計細線
  6
CONTINUOUS
 62
    3
 10
456.49154817930855
 20
979.74768403113262
 11
456.49154817930855
 21
975.0476840311328
  0
LINE
  8
_0-1_計細線
  6
CONTINUOUS
 62
    3
 10
454.49154817930855
 20
979.74768403113262
 11
454.49154817930855
 21
975.0476840311328
  0
TEXT
  8
_0-5_寸法線
 62
    7
 10
894.34752633030939
 20
667.77360664965545
 40
24
 41
0.7999999999999999
 50
0
  1
ＧＲＳＫ－２５Ｗ４００
  0
LINE
  8
_0-5_寸法線
  6
CONTINUOUS
 62
    7
 10
860.81241630473232
 20
816.58495382684578
 11
868.81241630473221
 21
802.72854736629472
  0
LINE
  8
_0-5_寸法線
  6
CONTINUOUS
 62
    7
 10
860.81241630473232
 20
816.58495382684578
 11
860.81241630473221
 21
800.58495382684578
  0
LINE
  8
_0-5_寸法線
  6
CONTINUOUS
 62
    7
 10
860.81241630473232
 20
816.58495382684578
 11
894.25551598710035
 21
691.77360664965545
  0
LINE
  8
_0-5_寸法線
  6
CONTINUOUS
 62
    7
 10
894.25551598710035
 20
691.77360664965545
 11
1182.2555159871004
 21
691.77360664965545
  0
TEXT
  8
_0-5_寸法線
 62
    7
 10
894.25551598710035
 20
691.77360664965545
 40
24
 41
0.8000000000000001
 50
0
  1
セーフティグレーチング補強仕様
  0
TEXT
  8
_0-5_寸法線
 62
    7
 10
496.66898608747715
 20
667.77360664965545
 40
24
 41
0.7999999999999999
 50
0
  1
(標準付属)
  0
TEXT
  8
_0-7_枠細線
 62
    5
 10
498.30448356421198
 20
720.10281475122019
 40
20
 41
0.8
 50
0
  1
２
  0
LINE
  8
_0-7_枠細線
  6
CONTINUOUS
 62
    5
 10
518.52024153517505
 20
720.59401834382902
 11
506.52024153517505
 21
744.59401834382902
  0
LINE
  8
_0-7_枠細線
  6
CONTINUOUS
 62
    5
 10
494.52024153517505
 20
720.59401834382902
 11
518.52024153517505
 21
720.59401834382902
  0
LINE
  8
_0-7_枠細線
  6
CONTINUOUS
 62
    5
 10
506.52024153517505
 20
744.59401834382902
 11
494.52024153517505
 21
720.59401834382902
  0
LINE
  8
_0-7_枠細線
  6
CONTINUOUS
 62
    5
 10
548.4626157986886
 20
720.59401834382902
 11
536.4626157986886
 21
744.59401834382902
  0
LINE
  8
_0-7_枠細線
  6
CONTINUOUS
 62
    5
 10
524.4626157986886
 20
720.59401834382902
 11
548.4626157986886
 21
720.59401834382902
  0
LINE
  8
_0-7_枠細線
  6
CONTINUOUS
 62
    5
 10
536.4626157986886
 20
744.59401834382902
 11
524.4626157986886
 21
720.59401834382902
  0
TEXT
  8
_0-7_枠細線
 62
    5
 10
528.24685782772576
 20
719.71772411953884
 40
20
 41
0.8
 50
0
  1
３
  0
LINE
  8
_0-7_枠細線
  6
CONTINUOUS
 62
    5
 10
564.87909532820959
 20
744.59401834382902
 11
552.87909532820959
 21
720.59401834382902
  0
LINE
  8
_0-7_枠細線
  6
CONTINUOUS
 62
    5
 10
552.87909532820959
 20
720.59401834382902
 11
576.87909532820959
 21
720.59401834382902
  0
LINE
  8
_0-7_枠細線
  6
CONTINUOUS
 62
    5
 10
576.87909532820959
 20
720.59401834382902
 11
564.87909532820959
 21
744.59401834382902
  0
LINE
  8
_0-5_寸法線
  6
CONTINUOUS
 62
    7
 10
420.41688430309296
 20
976.3503246307373
 11
428.41688430384954
 21
962.49391817062315
  0
LINE
  8
_0-5_寸法線
  6
CONTINUOUS
 62
    7
 10
420.41688430309296
 20
976.3503246307373
 11
420.41688430396653
 21
960.3503246307373
  0
LINE
  8
_0-5_寸法線
  6
CONTINUOUS
 62
    7
 10
420.41688430309296
 20
976.3503246307373
 11
496.66898608747715
 21
691.77360664965545
  0
LINE
  8
_0-5_寸法線
  6
CONTINUOUS
 62
    7
 10
496.66898608747715
 20
691.77360664965545
 11
592.66898608747715
 21
691.77360664965545
  0
TEXT
  8
_0-5_寸法線
 62
    7
 10
496.66898608747715
 20
691.77360664965545
 40
24
 41
0.8000000000000001
 50
0
  1
取　外　具
  0
TEXT
  8
_0-5_寸法線
 62
    7
 10
651.66122938632498
 20
667.77360664965545
 40
24
 41
0.7999999999999999
 50
0
  1
ＧＳＬ－２５
  0
LINE
  8
_0-5_寸法線
  6
CONTINUOUS
 62
    7
 10
629.73424332738841
 20
773.60623267846358
 11
637.7342433273883
 21
759.74982621791253
  0
LINE
  8
_0-5_寸法線
  6
CONTINUOUS
 62
    7
 10
629.73424332738841
 20
773.60623267846358
 11
629.7342433273883
 21
757.60623267846358
  0
LINE
  8
_0-5_寸法線
  6
CONTINUOUS
 62
    7
 10
629.73424332738841
 20
773.60623267846358
 11
651.66122938632498
 21
691.77360664965545
  0
LINE
  8
_0-5_寸法線
  6
CONTINUOUS
 62
    7
 10
651.66122938632498
 20
691.77360664965545
 11
825.78156472279534
 21
691.77360664965545
  0
TEXT
  8
_0-5_寸法線
 62
    7
 10
652.98156472279538
 20
692.73360664965548
 40
24
 41
0.8000000000000001
 50
0
  1
ＳＵＳアングル受枠
  0
TEXT
  8
_0-7_枠細線
 62
    5
 10
1502.1605925925924
 20
1316
 40
20
 41
1
 50
0
  1
クロスバーピッチ変更
  0
TEXT
  8
_0-7_枠細線
 62
    5
 10
1502.1605925925924
 20
1288
 40
20
 41
1
 50
0
  1
取外具形状変更
  0
TEXT
  8
_0-7_枠細線
 62
    5
 10
1888
 20
1316
 40
20
 41
0.7199999999999999
 50
0
  1
２０２０．０９．０１
  0
TEXT
  8
_0-7_枠細線
 62
    5
 10
1888
 20
1288
 40
20
 41
0.7199999999999999
 50
0
  1
２０２０．１０．０１
  0
TEXT
  8
_0-7_枠細線
 62
    5
 10
785.72642291991508
 20
1290.0057280244273
 40
20
 41
0.8
 50
0
  1
６
  0
TEXT
  8
_0-7_枠細線
 62
    5
 10
556.66333735724675
 20
719.71772411953884
 40
20
 41
0.8
 50
0
  1
７
  0
ENDSEC
  0
EOF
