  0
SECTION
  2
HEADER
  9
$ACADVER
  1
AC1009
  9
$INSBASE
 10
0
 20
0
 30
0
  9
$EXTMIN
 10
0
 20
0
  9
$EXTMAX
 10
1485
 20
1050
  9
$LIMMIN
 10
0
 20
0
  9
$LIMMAX
 10
1485
 20
1050
  9
$LTSCALE
 40
5
  0
ENDSEC
  0
SECTION
  2
TABLES
  0
TABLE
  2
LTYPE
 70
     9
  0
LTYPE
  2
CONTINUOUS
 70
    64
  3
実線
 72
    65
 73
     0
 40
0.0
  0
LTYPE
  2
DASHED1
 70
    64
  3
--  --  --  --  --  --  --  --  
 72
    65
 73
     2
 40
2.5
 49
1.25
 49
-1.25
  0
LTYPE
  2
DASHED2
 70
    64
  3
----    ----    ----    ----    
 72
    65
 73
     2
 40
5.0
 49
2.5
 49
-2.5
  0
LTYPE
  2
DASHED3
 70
    64
  3
------  ------  ------  ------  
 72
    65
 73
     2
 40
5.0
 49
3.75
 49
-1.25
  0
LTYPE
  2
CENTER1
 70
    64
  3
----- - ----- - ----- - ----- - 
 72
    65
 73
     4
 40
10.0
 49
6.25
 49
-1.25
 49
1.25
 49
-1.25
  0
LTYPE
  2
CENTER2
 70
    64
  3
----------  --  ----------  --  
 72
    65
 73
     4
 40
20.0
 49
12.5
 49
-2.5
 49
2.5
 49
-2.5
  0
LTYPE
  2
PHANTOM1
 70
    64
  3
--- - - --- - - --- - - --- - - 
 72
    65
 73
     6
 40
10.0
 49
3.25
 49
-1.25
 49
1.25
 49
-1.25
 49
1.25
 49
-1.25
  0
LTYPE
  2
PHANTOM2
 70
    64
  3
--------  -  -  --------  -  -  
 72
    65
 73
     6
 40
20.0
 49
10.0
 49
-2.5
 49
1.25
 49
-2.5
 49
1.25
 49
-2.5
  0
LTYPE
  2
DOT
 70
    64
  3
-   -   -   -   -   -   -   -   
 72
    65
 73
     2
 40
2.5
 49
0.625
 49
-1.875
  0
LTYPE
  2
DUMMY
 70
    64
  3
ダミー
 72
    65
 73
     0
 40
0.0
  0
LTYPE
  2
RAND1
 70
    64
  3
ランダム線1
 72
    65
 73
     4
 40
10.0
 49
1.0
 49
-2.0
 49
3.0
 49
-4.0
  0
LTYPE
  2
RAND2
 70
    64
  3
ランダム線2
 72
    65
 73
     4
 40
14.0
 49
2.0
 49
-3.0
 49
4.0
 49
-5.0
  0
LTYPE
  2
RAND3
 70
    64
  3
ランダム線3
 72
    65
 73
     4
 40
18.0
 49
3.0
 49
-4.0
 49
5.0
 49
-6.0
  0
LTYPE
  2
RAND4
 70
    64
  3
ランダム線4
 72
    65
 73
     4
 40
22.0
 49
4.0
 49
-5.0
 49
6.0
 49
-7.0
  0
LTYPE
  2
RAND5
 70
    64
  3
ランダム線5
 72
    65
 73
     4
 40
26.0
 49
5.0
 49
-6.0
 49
7.0
 49
-8.0
  0
LTYPE
  2
LONG1
 70
    64
  3
----------  --  ----------  --  
 72
    65
 73
     4
 40
40.0
 49
32.5
 49
-2.5
 49
2.5
 49
-2.5
  0
LTYPE
  2
LONG2
 70
    64
  3
--------  -  -  --------  -  -  
 72
    65
 73
     6
 40
40.0
 49
30.0
 49
-2.5
 49
1.25
 49
-2.5
 49
1.25
 49
-2.5
  0
LTYPE
  2
LONG3
 70
    64
  3
+++++++++++++++..+++++++++++++++
 72
    65
 73
     2
 40
40.0
 49
37.5
 49
-2.5
  0
LTYPE
  2
LONG4
 70
    64
  3
+++++++++++++++..+++++++++++++++
 72
    65
 73
     2
 40
80.0
 49
75.0
 49
-5.0
  0
LTYPE
  2
LONG5
 70
    64
  3
----------  --  ----------  --  
 72
    65
 73
     4
 40
60.0
 49
37.5
 49
-7.5
 49
7.5
 49
-7.5
  0
LTYPE
  2
dashed
 70
   64
  3
-------   -------------   ------
 72
   65
 73
    2
 40
7.5
 49
6
 49
-1.5
  0
LTYPE
  2
dashed_spaced
 70
   64
  3
----        --------        ----
 72
   65
 73
    2
 40
12
 49
6
 49
-6
  0
LTYPE
  2
long_dashed_dotted
 70
   64
  3
------------- --- --------------
 72
   65
 73
    4
 40
15.25
 49
12
 49
-1.5
 49
0.25
 49
-1.5
  0
LTYPE
  2
long_dashed_double-dotted
 70
   64
  3
----------- --- --- ------------
 72
   65
 73
    6
 40
17
 49
12
 49
-1.5
 49
0.25
 49
-1.5
 49
0.25
 49
-1.5
  0
LTYPE
  2
long_dashed_triplicate-dotted
 70
   64
  3
--------- --- --- --- ----------
 72
   65
 73
    8
 40
18.75
 49
12
 49
-1.5
 49
0.25
 49
-1.5
 49
0.25
 49
-1.5
 49
0.25
 49
-1.5
  0
LTYPE
  2
dotted
 70
   64
  3
   -       -       -       -    
 72
   65
 73
    2
 40
1.75
 49
0.25
 49
-1.5
  0
LTYPE
  2
chain
 70
   64
  3
-------------- -- --------------
 72
   65
 73
    4
 40
18.5
 49
12
 49
-1.5
 49
3.5
 49
-1.5
  0
LTYPE
  2
chain_double_dash
 70
   64
  3
------------ -- -- -------------
 72
   65
 73
    6
 40
23.5
 49
12
 49
-1.5
 49
3.5
 49
-1.5
 49
3.5
 49
-1.5
  0
LTYPE
  2
dashed_dotted
 70
   64
  3
-----------     -     ----------
 72
   65
 73
    4
 40
9.25
 49
6
 49
-1.5
 49
0.25
 49
-1.5
  0
LTYPE
  2
double-dashed_dotted
 70
   64
  3
------   -----------   -   -----
 72
   65
 73
    6
 40
16.75
 49
6
 49
-1.5
 49
6
 49
-1.5
 49
0.25
 49
-1.5
  0
LTYPE
  2
dashed_double-dotted
 70
   64
  3
---------    -    -    ---------
 72
   65
 73
    6
 40
11
 49
6
 49
-1.5
 49
0.25
 49
-1.5
 49
0.25
 49
-1.5
  0
LTYPE
  2
double-dashed_double-dotted
 70
   64
  3
-----   ---------   -   -   ----
 72
   65
 73
    8
 40
18.5
 49
6
 49
-1.5
 49
6
 49
-1.5
 49
0.25
 49
-1.5
 49
0.25
 49
-1.5
  0
LTYPE
  2
dashed_triplicate-dotted
 70
   64
  3
-------    -    -    -    ------
 72
   65
 73
    8
 40
12.75
 49
6
 49
-1.5
 49
0.25
 49
-1.5
 49
0.25
 49
-1.5
 49
0.25
 49
-1.5
  0
LTYPE
  2
double-dashed_triplicate-dotted
 70
   64
  3
-----  ---------  -  -  -  -----
 72
   65
 73
   10
 40
20.25
 49
6
 49
-1.5
 49
6
 49
-1.5
 49
0.25
 49
-1.5
 49
0.25
 49
-1.5
 49
0.25
 49
-1.5
  0
LTYPE
  2
undefined
 70
   64
  3
--------------------------------
 72
   65
 73
    0
 40
0
  0
ENDTAB
  0
TABLE
  2
STYLE
  5
3
100
AcDbSymbolTable
 70
     1
  0
STYLE
  5
10
100
AcDbSymbolTableRecord
100
AcDbTextStyleTableRecord
  2
STANDARD
 70
     0
 40
0.0
 41
1.0
 50
0.0
 71
     0
 42
0.2
  3
txt
  4
bigfont.shx
  0
STYLE
  5
26
100
AcDbSymbolTableRecord
100
AcDbTextStyleTableRecord
  2
TATEGAKI
 70
    68
 40
0.0
 41
1.0
 50
0.0
 71
     0
 42
1.0
  3
txt
  4
bigfont.shx
  0
ENDTAB
  0
TABLE
  2
LAYER
 70
   10
  0
LAYER
  2
_0-0_計極細
 70
   64
 62
    7
  6
CONTINUOUS
  0
LAYER
  2
_0-1_計細線
 70
   64
 62
    7
  6
CONTINUOUS
  0
LAYER
  2
_0-5_寸法線
 70
   64
 62
    7
  6
CONTINUOUS
  0
LAYER
  2
_0-7_枠細線
 70
   64
 62
    7
  6
CONTINUOUS
  0
LAYER
  2
_0-8_枠中線
 70
   64
 62
    7
  6
CONTINUOUS
  0
LAYER
  2
_0-9_枠極太
 70
   64
 62
    7
  6
CONTINUOUS
  0
LAYER
  2
_0-a_極細3
 70
   64
 62
    7
  6
CONTINUOUS
  0
LAYER
  2
_0-b_細線3
 70
   64
 62
    7
  6
CONTINUOUS
  0
LAYER
  2
_0-d_寸法3
 70
   64
 62
    7
  6
CONTINUOUS
  0
LAYER
  2
ADD_LINE
 70
   64
 62
    7
  6
CONTINUOUS
  0
ENDTAB
  0
ENDSEC
  0
SECTION
  2
BLOCKS
  0
ENDSEC
  0
SECTION
  2
ENTITIES
  0
LINE
  8
_0-7_枠細線
  6
CONTINUOUS
 62
    5
 10
1425
 20
942.5
 11
890
 21
942.5
  0
TEXT
  8
_0-7_枠細線
 62
    5
 10
895
 20
945
 40
12.5
 41
1
 50
0
  1
記号
  0
TEXT
  8
_0-7_枠細線
 62
    5
 10
996.875
 20
945
 40
12.5
 41
1
 50
0
  1
訂　 正　 記　 事
  0
TEXT
  8
_0-7_枠細線
 62
    5
 10
1181.25
 20
945
 40
12.5
 41
1
 50
0
  1
訂 正 年 月 日
  0
TEXT
  8
_0-7_枠細線
 62
    5
 10
1306.25
 20
945
 40
12.5
 41
1
 50
0
  1
備　　　　　考
  0
LINE
  8
_0-7_枠細線
  6
CONTINUOUS
 62
    5
 10
1185
 20
180
 11
1185
 21
100
  0
TEXT
  8
_0-7_枠細線
 62
    5
 10
937.5
 20
97.5
 40
17.5
 41
1
 50
0
  1
備考
  7
TATEGAKI
  0
TEXT
  8
_0-7_枠細線
 62
    5
 10
937.5
 20
137.5
 40
17.5
 41
1
 50
0
  1
品番
  7
TATEGAKI
  0
TEXT
  8
_0-7_枠細線
 62
    5
 10
937.5
 20
177.5
 40
17.5
 41
1
 50
0
  1
品名
  7
TATEGAKI
  0
LINE
  8
_0-7_枠細線
  6
CONTINUOUS
 62
    5
 10
1185
 20
140
 11
925
 21
140
  0
LINE
  8
_0-7_枠細線
  6
CONTINUOUS
 62
    5
 10
950
 20
180
 11
950
 21
60
  0
LINE
  8
_0-8_枠中線
  6
CONTINUOUS
 62
    5
 10
1425
 20
180
 11
925
 21
180
  0
LINE
  8
_0-8_枠中線
  6
CONTINUOUS
 62
    5
 10
925
 20
180
 11
925
 21
60
  0
LINE
  8
_0-7_枠細線
  6
CONTINUOUS
 62
    5
 10
1245
 20
180
 11
1245
 21
60
  0
TEXT
  8
_0-7_枠細線
 62
    5
 10
1192.5
 20
160
 40
15
 41
1
 50
0
  1
縮　尺
  0
TEXT
  8
_0-7_枠細線
 62
    5
 10
1194
 20
117.5
 40
20
 41
0.7
 50
0
  1
１：５
  0
LINE
  8
_0-7_枠細線
  6
CONTINUOUS
 62
    5
 10
1185
 20
155
 11
1245
 21
155
  0
LINE
  8
_0-7_枠細線
  6
CONTINUOUS
 62
    5
 10
1245
 20
100
 11
925
 21
100
  0
LINE
  8
_0-7_枠細線
  6
CONTINUOUS
 62
    5
 10
1425
 20
90
 11
1245
 21
90
  0
LINE
  8
_0-7_枠細線
  6
CONTINUOUS
 62
    5
 10
1245
 20
120
 11
1425
 21
120
  0
LINE
  8
_0-7_枠細線
  6
CONTINUOUS
 62
    5
 10
1425
 20
140
 11
1245
 21
140
  0
TEXT
  8
_0-7_枠細線
 62
    5
 10
1255
 20
147.5
 40
25
 41
0.8
 50
0
  1
株式会社シマブン
  0
TEXT
  8
_0-7_枠細線
 62
    5
 10
1252.5
 20
60
 40
15
 41
1
 50
0
  1
年月日
  0
TEXT
  8
_0-7_枠細線
 62
    5
 10
1252.5
 20
75
 40
15
 41
1
 50
0
  1
作　成
  0
TEXT
  8
_0-7_枠細線
 62
    5
 10
1250
 20
95
 40
20
 41
1
 50
0
  1
島 英
  0
TEXT
  8
_0-7_枠細線
 62
    5
 10
1256.25
 20
122.5
 40
15
 41
1
 50
0
  1
承 認
  0
LINE
  8
_0-7_枠細線
  6
CONTINUOUS
 62
    5
 10
1305
 20
140
 11
1305
 21
60
  0
TEXT
  8
_0-7_枠細線
 62
    5
 10
1315
 20
95
 40
20
 41
1
 50
0
  1
隠塚
  0
TEXT
  8
_0-7_枠細線
 62
    5
 10
1316.25
 20
122.5
 40
15
 41
1
 50
0
  1
検 図
  0
LINE
  8
_0-7_枠細線
  6
CONTINUOUS
 62
    5
 10
1365
 20
140
 11
1365
 21
90
  0
TEXT
  8
_0-7_枠細線
 62
    5
 10
1375
 20
95
 40
20
 41
1
 50
0
  1
藤戸
  0
TEXT
  8
_0-7_枠細線
 62
    5
 10
1376.25
 20
122.5
 40
15
 41
1
 50
0
  1
設 計
  0
TEXT
  8
_0-7_枠細線
 62
    5
 10
965.50000000000011
 20
150
 40
20
 41
0.6
 50
0
  1
セーフティグレーチングＨ２０タイプ
  0
TEXT
  8
_0-7_枠細線
 62
    5
 10
965.49999999999977
 20
70
 40
20
 41
0.5999999999999998
 50
0
  1
色については品番表参照のこと
  0
TEXT
  8
_0-7_枠細線
 62
    5
 10
1310
 20
67.5
 40
15
 41
0.6666666666666666
 50
0
  1
２００９年０１月１６日
  0
TEXT
  8
_0-7_枠細線
 62
    5
 10
965.50000000000011
 20
110
 40
20
 41
0.6
 50
0
  1
ＧＲＳＪ－２０Ｗ１５１　ＳＥＴ
  0
LINE
  8
_0-7_枠細線
  6
CONTINUOUS
 62
    5
 10
1425
 20
925
 11
890
 21
925
  0
TEXT
  8
_0-7_枠細線
 62
    5
 10
938.85037037037023
 20
927.5
 40
12.5
 41
1
 50
0
  1
品番・色記号変更
  0
TEXT
  8
_0-7_枠細線
 62
    5
 10
1180
 20
927.5
 40
12.5
 41
0.7199999999999999
 50
0
  1
２０１３．０３．１３
  0
LINE
  8
_0-7_枠細線
  6
CONTINUOUS
 62
    5
 10
915
 20
908.75
 11
907.5
 21
923.75
  0
LINE
  8
_0-7_枠細線
  6
CONTINUOUS
 62
    5
 10
900
 20
908.75
 11
915
 21
908.75
  0
LINE
  8
_0-7_枠細線
  6
CONTINUOUS
 62
    5
 10
907.5
 20
923.75
 11
900
 21
908.75
  0
TEXT
  8
_0-7_枠細線
 62
    5
 10
902.36515126814822
 20
908.44299775461946
 40
12.5
 41
0.8
 50
0
  1
１
  0
LINE
  8
_0-d_寸法3
  6
CONTINUOUS
 62
    7
 10
363.46758651983487
 20
303.26245819900873
 11
363.46758651983487
 21
242.78443296476991
  0
LINE
  8
_0-d_寸法3
  6
CONTINUOUS
 62
    7
 10
363.46758651983487
 20
247.78443296476991
 11
373.12684478272553
 21
250.37262341579509
  0
LINE
  8
_0-d_寸法3
  6
CONTINUOUS
 62
    7
 10
363.46758651983487
 20
247.78443296476991
 11
373.12684478272553
 21
245.19624251374466
  0
LINE
  8
_0-d_寸法3
  6
CONTINUOUS
 62
    7
 10
530.13425318650195
 20
303.26245819900873
 11
530.13425318650195
 21
242.78443296476991
  0
LINE
  8
_0-d_寸法3
  6
CONTINUOUS
 62
    7
 10
530.13425318650195
 20
247.78443296476991
 11
520.47499492361123
 21
245.19624251374469
  0
LINE
  8
_0-d_寸法3
  6
CONTINUOUS
 62
    7
 10
530.13425318650195
 20
247.78443296476991
 11
520.47499492361123
 21
250.37262341579515
  0
LINE
  8
_0-d_寸法3
  6
CONTINUOUS
 62
    7
 10
363.46758651983487
 20
247.78443296476991
 11
530.13425318650195
 21
247.78443296476991
  0
TEXT
  8
_0-d_寸法3
 62
    7
 10
435.55091985316886
 20
247.78443296476991
 40
15
 41
1
 50
0
  1
100
  0
LINE
  8
_0-d_寸法3
  6
CONTINUOUS
 62
    7
 10
313.46758651983492
 20
259.92912486567525
 11
313.46758651983492
 21
242.78443296476991
  0
LINE
  8
_0-d_寸法3
  6
CONTINUOUS
 62
    7
 10
313.46758651983492
 20
247.78443296476991
 11
323.12684478272553
 21
250.37262341579509
  0
LINE
  8
_0-d_寸法3
  6
CONTINUOUS
 62
    7
 10
313.46758651983492
 20
247.78443296476991
 11
323.12684478272553
 21
245.19624251374466
  0
LINE
  8
_0-d_寸法3
  6
CONTINUOUS
 62
    7
 10
363.4675865198347
 20
298.26245819900873
 11
363.46758651983396
 21
242.78443296476991
  0
LINE
  8
_0-d_寸法3
  6
CONTINUOUS
 62
    7
 10
363.46758651983401
 20
247.78443296476991
 11
353.80832825694324
 21
245.19624251374469
  0
LINE
  8
_0-d_寸法3
  6
CONTINUOUS
 62
    7
 10
363.46758651983401
 20
247.78443296476991
 11
353.80832825694335
 21
250.37262341579515
  0
LINE
  8
_0-d_寸法3
  6
CONTINUOUS
 62
    7
 10
313.46758651983492
 20
247.78443296476991
 11
363.46758651983401
 21
247.78443296476991
  0
TEXT
  8
_0-d_寸法3
 62
    7
 10
330.96758651983487
 20
247.78443296476991
 40
15
 41
1
 50
0
  1
30
  0
LINE
  8
_0-d_寸法3
  6
CONTINUOUS
 62
    7
 10
580.13425318650195
 20
259.92912486567525
 11
580.13425318650195
 21
242.78443296476991
  0
LINE
  8
_0-d_寸法3
  6
CONTINUOUS
 62
    7
 10
580.13425318650195
 20
247.78443296476991
 11
570.47499492361123
 21
245.19624251374466
  0
LINE
  8
_0-d_寸法3
  6
CONTINUOUS
 62
    7
 10
580.13425318650195
 20
247.78443296476991
 11
570.47499492361123
 21
250.37262341579509
  0
LINE
  8
_0-d_寸法3
  6
CONTINUOUS
 62
    7
 10
530.13425318650206
 20
298.26245819900873
 11
530.13425318650297
 21
242.78443296476991
  0
LINE
  8
_0-d_寸法3
  6
CONTINUOUS
 62
    7
 10
530.13425318650297
 20
247.78443296476991
 11
539.79351144939358
 21
250.37262341579515
  0
LINE
  8
_0-d_寸法3
  6
CONTINUOUS
 62
    7
 10
530.13425318650297
 20
247.78443296476991
 11
539.79351144939358
 21
245.19624251374469
  0
LINE
  8
_0-d_寸法3
  6
CONTINUOUS
 62
    7
 10
580.13425318650195
 20
247.78443296476991
 11
530.13425318650297
 21
247.78443296476991
  0
TEXT
  8
_0-d_寸法3
 62
    7
 10
547.63425318650195
 20
247.78443296476985
 40
15
 41
1
 50
0.0000000000002714
  1
30
  0
LINE
  8
_0-a_極細3
  6
CONTINUOUS
 62
    7
 10
246.80091985316793
 20
293.26245819900873
 11
246.80091985316793
 21
224.92912486567531
  0
LINE
  8
_0-a_極細3
  6
CONTINUOUS
 62
    7
 10
330.13425318650093
 20
224.92912486567531
 11
246.80091985316793
 21
224.92912486567531
  0
LINE
  8
_0-a_極細3
  6
CONTINUOUS
 62
    7
 10
246.80091985316793
 20
293.26245819900873
 11
215.95650604138683
 21
293.26245819900873
  0
LINE
  8
_0-a_極細3
  6
CONTINUOUS
 62
    7
 10
330.13425318650093
 20
224.92912486567531
 11
330.13425318650093
 21
198.68752457089599
  0
LINE
  8
_0-a_極細3
  6
CONTINUOUS
 62
    7
 10
292.71227862151113
 20
198.68752468733305
 11
318.95387879985424
 21
224.92912486567531
  0
LINE
  8
_0-a_極細3
  6
CONTINUOUS
 62
    7
 10
222.00160072287034
 20
198.68752490734622
 11
248.24320068119937
 21
224.92912486567531
  0
LINE
  8
_0-a_極細3
  6
CONTINUOUS
 62
    7
 10
215.95650604138683
 20
263.35310834451752
 11
245.86585589587841
 21
293.26245819900873
  0
LINE
  8
_0-a_極細3
  6
CONTINUOUS
 62
    7
 10
285.64121083164696
 20
198.68752470933424
 11
311.88281098798853
 21
224.92912486567531
  0
LINE
  8
_0-a_極細3
  6
CONTINUOUS
 62
    7
 10
215.95650604138683
 20
199.71349803772847
 11
246.80091985316793
 21
230.55791184950959
  0
LINE
  8
_0-a_極細3
  6
CONTINUOUS
 62
    7
 10
215.95650604138683
 20
270.42417615638283
 11
238.79478808401174
 21
293.26245819900873
  0
LINE
  8
_0-a_極細3
  6
CONTINUOUS
 62
    7
 10
278.57014304178279
 20
198.6875247313354
 11
304.81174317612272
 21
224.92912486567531
  0
LINE
  8
_0-a_極細3
  6
CONTINUOUS
 62
    7
 10
215.95650604138683
 20
206.78456584959378
 11
246.80091985316793
 21
237.62897966137487
  0
LINE
  8
_0-a_極細3
  6
CONTINUOUS
 62
    7
 10
215.95650604138683
 20
277.49524396824813
 11
231.72372027214692
 21
293.26245819900873
  0
CIRCLE
  8
_0-a_極細3
  6
CONTINUOUS
 62
    7
 10
223.52152968702356
 20
298.51031306011305
 40
0.5530864197530718
  0
CIRCLE
  8
_0-a_極細3
  6
CONTINUOUS
 62
    7
 10
234.12893709443026
 20
299.57697972677965
 40
0.5530864197530718
  0
CIRCLE
  8
_0-a_極細3
  6
CONTINUOUS
 62
    7
 10
246.7511593166526
 20
301.5325352823354
 40
0.5530864197530718
  0
CIRCLE
  8
_0-a_極細3
  6
CONTINUOUS
 62
    7
 10
253.6956037610978
 20
294.27697972677993
 40
0.5530864197530718
  0
CIRCLE
  8
_0-a_極細3
  6
CONTINUOUS
 62
    7
 10
274.14004820554123
 20
293.03253528233495
 40
0.5530864197530718
  0
CIRCLE
  8
_0-a_極細3
  6
CONTINUOUS
 62
    7
 10
299.20671487220784
 20
289.29920194900183
 40
0.5530864197530718
  0
CIRCLE
  8
_0-a_極細3
  6
CONTINUOUS
 62
    7
 10
286.58449264998467
 20
283.61031306011296
 40
0.5530864197530718
  0
CIRCLE
  8
_0-a_極細3
  6
CONTINUOUS
 62
    7
 10
271.82893709443107
 20
270.09920194900201
 40
0.5530864197530718
  0
CIRCLE
  8
_0-a_極細3
  6
CONTINUOUS
 62
    7
 10
299.20671487220784
 20
277.38809083789124
 40
0.5530864197530718
  0
CIRCLE
  8
_0-a_極細3
  6
CONTINUOUS
 62
    7
 10
253.11782598331931
 20
263.9658686156688
 40
0.5530864197530718
  0
CIRCLE
  8
_0-a_極細3
  6
CONTINUOUS
 62
    7
 10
258.09560376109744
 20
250.27697972677998
 40
0.5530864197530718
  0
CIRCLE
  8
_0-a_極細3
  6
CONTINUOUS
 62
    7
 10
252.40671487220766
 20
232.32142417122469
 40
0.5530864197530718
  0
CIRCLE
  8
_0-a_極細3
  6
CONTINUOUS
 62
    7
 10
261.11782598331934
 20
239.07697972678017
 40
0.5530864197530718
  0
CIRCLE
  8
_0-a_極細3
  6
CONTINUOUS
 62
    7
 10
267.34004820554196
 20
230.54364639344683
 40
0.5530864197530718
  0
CIRCLE
  8
_0-a_極細3
  6
CONTINUOUS
 62
    7
 10
306.64004820554123
 20
248.432535282336
 40
0.5530864197530718
  0
CIRCLE
  8
_0-a_極細3
  6
CONTINUOUS
 62
    7
 10
295.44004820554051
 20
242.92142417122415
 40
0.5530864197530718
  0
CIRCLE
  8
_0-a_極細3
  6
CONTINUOUS
 62
    7
 10
301.66227042776313
 20
240.432535282336
 40
0.5530864197530718
  0
CIRCLE
  8
_0-a_極細3
  6
CONTINUOUS
 62
    7
 10
298.10671487220844
 20
231.18809083789145
 40
0.5530864197530718
  0
CIRCLE
  8
_0-a_極細3
  6
CONTINUOUS
 62
    7
 10
318.01782598331897
 20
232.25475750455809
 40
0.5530864197530718
  0
CIRCLE
  8
_0-a_極細3
  6
CONTINUOUS
 62
    7
 10
330.99560376109707
 20
235.4547575045579
 40
0.5530864197530718
  0
CIRCLE
  8
_0-a_極細3
  6
CONTINUOUS
 62
    7
 10
344.68449264998503
 20
220.52142417122451
 40
0.5530864197530718
  0
CIRCLE
  8
_0-a_極細3
  6
CONTINUOUS
 62
    7
 10
337.75115931665255
 20
205.58809083789157
 40
0.5530864197530718
  0
CIRCLE
  8
_0-a_極細3
  6
CONTINUOUS
 62
    7
 10
321.08449264998563
 20
249.20290565270605
 40
0.5530864197530718
  0
CIRCLE
  8
_0-a_極細3
  6
CONTINUOUS
 62
    7
 10
335.84004820554014
 20
283.33623898603923
 40
0.5530864197530718
  0
CIRCLE
  8
_0-a_極細3
  6
CONTINUOUS
 62
    7
 10
350.95115931665146
 20
273.38068343048394
 40
0.5530864197530718
  0
CIRCLE
  8
_0-a_極細3
  6
CONTINUOUS
 62
    7
 10
351.48449264998527
 20
255.42512787492825
 40
0.5530864197530718
  0
CIRCLE
  8
_0-a_極細3
  6
CONTINUOUS
 62
    7
 10
316.2400482055416
 20
285.15846120826131
 40
0.5530864197530718
  0
CIRCLE
  8
_0-a_極細3
  6
CONTINUOUS
 62
    7
 10
293.12893709443028
 20
274.2090784922118
 40
1.825531472681392
  0
CIRCLE
  8
_0-a_極細3
  6
CONTINUOUS
 62
    7
 10
270.72893709443065
 20
284.34241182554501
 40
1.825531472681392
  0
CIRCLE
  8
_0-a_極細3
  6
CONTINUOUS
 62
    7
 10
251.12893709443028
 20
246.34241182554598
 40
1.825531472681392
  0
CIRCLE
  8
_0-a_極細3
  6
CONTINUOUS
 62
    7
 10
304.32893709442919
 20
233.54241182554577
 40
1.825531472681392
  0
CIRCLE
  8
_0-a_極細3
  6
CONTINUOUS
 62
    7
 10
340.30671487220729
 20
229.94241182554589
 40
1.825531472681392
  0
CIRCLE
  8
_0-a_極細3
  6
CONTINUOUS
 62
    7
 10
345.10671487220657
 20
211.27574515887937
 40
1.825531472681392
  0
LINE
  8
_0-a_極細3
  6
CONTINUOUS
 62
    7
 10
362.63425318650093
 20
299.92912486567525
 11
363.46758651983487
 21
299.92912486567525
  0
LINE
  8
_0-a_極細3
  6
CONTINUOUS
 62
    7
 10
363.46758651983487
 20
299.92912486567525
 11
363.46758651983487
 21
198.68752457089599
  0
CIRCLE
  8
_0-a_極細3
  6
CONTINUOUS
 62
    7
 10
356.58015237220548
 20
283.94241182554538
 40
1.825531472681392
  0
CIRCLE
  8
_0-a_極細3
  6
CONTINUOUS
 62
    7
 10
355.58819635368832
 20
229.23253528233573
 40
0.5530864197530718
  0
CIRCLE
  8
_0-a_極細3
  6
CONTINUOUS
 62
    7
 10
356.92152968702226
 20
206.57646424916609
 40
0.5530864197530718
  0
CIRCLE
  8
_0-a_極細3
  6
CONTINUOUS
 62
    7
 10
344.55115931664818
 20
264.83130071443497
 40
1.825531472681392
  0
LINE
  8
_0-a_極細3
  6
CONTINUOUS
 62
    7
 10
646.80091985316812
 20
293.26245819900873
 11
646.80091985316812
 21
224.92912486567531
  0
LINE
  8
_0-a_極細3
  6
CONTINUOUS
 62
    7
 10
563.46758651983498
 20
224.92912486567531
 11
646.80091985316812
 21
224.92912486567531
  0
LINE
  8
_0-a_極細3
  6
CONTINUOUS
 62
    7
 10
646.80091985316812
 20
293.26245819900873
 11
677.64533366494959
 21
293.26245819900873
  0
LINE
  8
_0-a_極細3
  6
CONTINUOUS
 62
    7
 10
563.46758651983498
 20
224.92912486567531
 11
563.46758651983498
 21
198.68752457089599
  0
LINE
  8
_0-a_極細3
  6
CONTINUOUS
 62
    7
 10
655.09092226776136
 20
198.68752457089599
 11
677.64533370648996
 21
221.24193600962536
  0
LINE
  8
_0-a_極細3
  6
CONTINUOUS
 62
    7
 10
584.38024414910603
 20
198.68752457089599
 11
610.62184444388538
 21
224.92912486567531
  0
LINE
  8
_0-a_極細3
  6
CONTINUOUS
 62
    7
 10
646.80091985316812
 20
261.10820027495788
 11
677.64533366570492
 21
291.95261408749479
  0
LINE
  8
_0-a_極細3
  6
CONTINUOUS
 62
    7
 10
648.01985445589605
 20
198.68752457089599
 11
677.64533370241168
 21
228.31300381741201
  0
LINE
  8
_0-a_極細3
  6
CONTINUOUS
 62
    7
 10
577.30917633724118
 20
198.68752457089599
 11
603.55077663202053
 21
224.92912486567531
  0
LINE
  8
_0-a_極細3
  6
CONTINUOUS
 62
    7
 10
646.80091985316812
 20
268.17926808682364
 11
671.88410978580293
 21
293.26245801945811
  0
LINE
  8
_0-a_極細3
  6
CONTINUOUS
 62
    7
 10
640.94878664403029
 20
198.68752457089599
 11
677.64533369833305
 21
235.38407162519871
  0
LINE
  8
_0-a_極細3
  6
CONTINUOUS
 62
    7
 10
570.23810852537633
 20
198.68752457089599
 11
596.47970882015477
 21
224.92912486567531
  0
LINE
  8
_0-a_極細3
  6
CONTINUOUS
 62
    7
 10
646.80091985316812
 20
275.25033589868895
 11
664.81304202455374
 21
293.26245807007422
  0
CIRCLE
  8
_0-a_極細3
  6
CONTINUOUS
 62
    7
 10
549.8733815388731
 20
283.78346120826131
 40
0.5530864197530718
  0
CIRCLE
  8
_0-a_極細3
  6
CONTINUOUS
 62
    7
 10
559.82893709442749
 20
288.5834612082615
 40
0.5530864197530718
  0
CIRCLE
  8
_0-a_極細3
  6
CONTINUOUS
 62
    7
 10
555.74004820554001
 20
263.6056834304834
 40
0.5530864197530718
  0
CIRCLE
  8
_0-a_極細3
  6
CONTINUOUS
 62
    7
 10
573.27338153887274
 20
246.58346120826153
 40
0.5530864197530718
  0
CIRCLE
  8
_0-a_極細3
  6
CONTINUOUS
 62
    7
 10
555.4400482055388
 20
223.28346120826183
 40
0.5530864197530718
  0
CIRCLE
  8
_0-a_極細3
  6
CONTINUOUS
 62
    7
 10
546.10671487220668
 20
205.41679454159549
 40
0.5530864197530718
  0
CIRCLE
  8
_0-a_極細3
  6
CONTINUOUS
 62
    7
 10
557.57338153887201
 20
235.28346120826137
 40
0.5530864197530718
  0
CIRCLE
  8
_0-a_極細3
  6
CONTINUOUS
 62
    7
 10
571.4400482055388
 20
230.4834612082621
 40
0.5530864197530718
  0
CIRCLE
  8
_0-a_極細3
  6
CONTINUOUS
 62
    7
 10
598.3733815388722
 20
230.75012787492852
 40
0.5530864197530718
  0
CIRCLE
  8
_0-a_極細3
  6
CONTINUOUS
 62
    7
 10
586.3733815388731
 20
239.81679454159513
 40
0.5530864197530718
  0
CIRCLE
  8
_0-a_極細3
  6
CONTINUOUS
 62
    7
 10
597.57338153887201
 20
245.41679454159458
 40
0.5530864197530718
  0
CIRCLE
  8
_0-a_極細3
  6
CONTINUOUS
 62
    7
 10
585.59560376109391
 20
299.7056834304833
 40
0.5530864197530718
  0
CIRCLE
  8
_0-a_極細3
  6
CONTINUOUS
 62
    7
 10
606.12893709442676
 20
298.99457231937208
 40
0.5530864197530718
  0
CIRCLE
  8
_0-a_極細3
  6
CONTINUOUS
 62
    7
 10
594.52893709442731
 20
284.99457231937254
 40
0.5530864197530718
  0
CIRCLE
  8
_0-a_極細3
  6
CONTINUOUS
 62
    7
 10
633.72893709442712
 20
231.79457231937278
 40
0.5530864197530718
  0
CIRCLE
  8
_0-a_極細3
  6
CONTINUOUS
 62
    7
 10
640.92893709442694
 20
245.79457231937278
 40
0.5530864197530718
  0
CIRCLE
  8
_0-a_極細3
  6
CONTINUOUS
 62
    7
 10
639.32893709442749
 20
266.59457231937245
 40
0.5530864197530718
  0
CIRCLE
  8
_0-a_極細3
  6
CONTINUOUS
 62
    7
 10
618.52893709442731
 20
268.19457231937281
 40
0.5530864197530718
  0
CIRCLE
  8
_0-a_極細3
  6
CONTINUOUS
 62
    7
 10
598.92893709442785
 20
273.79457231937226
 40
0.5530864197530718
  0
CIRCLE
  8
_0-a_極細3
  6
CONTINUOUS
 62
    7
 10
621.3289370944276
 20
287.79457231937226
 40
0.5530864197530718
  0
CIRCLE
  8
_0-a_極細3
  6
CONTINUOUS
 62
    7
 10
635.32893709442749
 20
280.59457231937245
 40
0.5530864197530718
  0
CIRCLE
  8
_0-a_極細3
  6
CONTINUOUS
 62
    7
 10
664.92893709442694
 20
301.79457231937226
 40
0.5530864197530718
  0
CIRCLE
  8
_0-a_極細3
  6
CONTINUOUS
 62
    7
 10
644.4844926499826
 20
300.09796738110094
 40
1.825531472681392
  0
CIRCLE
  8
_0-a_極細3
  6
CONTINUOUS
 62
    7
 10
621.06227042776015
 20
274.67574515887895
 40
1.825531472681392
  0
CIRCLE
  8
_0-a_極細3
  6
CONTINUOUS
 62
    7
 10
550.6678259833169
 20
230.12574515887928
 40
1.825531472681392
  0
CIRCLE
  8
_0-a_極細3
  6
CONTINUOUS
 62
    7
 10
560.89004820553873
 20
259.99241182554556
 40
1.825531472681392
  0
CIRCLE
  8
_0-a_極細3
  6
CONTINUOUS
 62
    7
 10
596.09004820553855
 20
237.59241182554598
 40
1.825531472681392
  0
CIRCLE
  8
_0-a_極細3
  6
CONTINUOUS
 62
    7
 10
642.35524084082215
 20
227.40535943357628
 40
1.825531472681392
  0
CIRCLE
  8
_0-a_極細3
  6
CONTINUOUS
 62
    7
 10
591.6900482055388
 20
280.79241182554529
 40
1.825531472681392
  0
CIRCLE
  8
_0-a_極細3
  6
CONTINUOUS
 62
    7
 10
544.22399882282377
 20
275.36920641850907
 40
0.5530864197530718
  0
CIRCLE
  8
_0-a_極細3
  6
CONTINUOUS
 62
    7
 10
544.42399882282359
 20
251.4136508629538
 40
0.5530864197530718
  0
LINE
  8
_0-a_極細3
  6
CONTINUOUS
 62
    7
 10
530.96758651983407
 20
299.92912486567525
 11
530.13425318650104
 21
299.92912486567525
  0
LINE
  8
_0-a_極細3
  6
CONTINUOUS
 62
    7
 10
530.13425318650104
 20
299.92912486567525
 11
530.13425318650104
 21
198.68752457089599
  0
CIRCLE
  8
_0-a_極細3
  6
CONTINUOUS
 62
    7
 10
536.11864902858531
 20
259.87235009715027
 40
0.5530864197530718
  0
CIRCLE
  8
_0-a_極細3
  6
CONTINUOUS
 62
    7
 10
537.4252333907242
 20
220.61679454159531
 40
0.5530864197530718
  0
CIRCLE
  8
_0-a_極細3
  6
CONTINUOUS
 62
    7
 10
536.78634450183472
 20
286.57018960332357
 40
1.825531472681392
  0
CIRCLE
  8
_0-a_極細3
  6
CONTINUOUS
 62
    7
 10
539.73449264998351
 20
213.94796738110088
 40
1.825531472681392
  0
LINE
  8
_0-b_細線3
  6
CONTINUOUS
 62
    7
 10
465.21758652013597
 20
304.9294898673536
 11
457.38425318680197
 21
304.9294898673536
  0
LINE
  8
_0-d_寸法3
  6
CONTINUOUS
 62
    7
 10
313.46758651983492
 20
343.26245819900873
 11
313.46758651983492
 21
453.26245653066394
  0
LINE
  8
_0-d_寸法3
  6
CONTINUOUS
 62
    7
 10
313.46758651983492
 20
448.26245653066394
 11
323.12684478272553
 21
450.85064698168912
  0
LINE
  8
_0-d_寸法3
  6
CONTINUOUS
 62
    7
 10
313.46758651983492
 20
448.26245653066394
 11
323.12684478272553
 21
445.67426607963881
  0
LINE
  8
_0-d_寸法3
  6
CONTINUOUS
 62
    7
 10
580.13425318650195
 20
343.26245819900873
 11
580.13425318650195
 21
453.26245653066394
  0
LINE
  8
_0-d_寸法3
  6
CONTINUOUS
 62
    7
 10
580.13425318650195
 20
448.26245653066394
 11
570.47499492361123
 21
445.67426607963881
  0
LINE
  8
_0-d_寸法3
  6
CONTINUOUS
 62
    7
 10
580.13425318650195
 20
448.26245653066394
 11
570.47499492361123
 21
450.85064698168924
  0
LINE
  8
_0-d_寸法3
  6
CONTINUOUS
 62
    7
 10
313.46758651983492
 20
448.26245653066394
 11
580.13425318650195
 21
448.26245653066394
  0
TEXT
  8
_0-d_寸法3
 62
    7
 10
435.55091985316886
 20
448.26245653066394
 40
15
 41
1
 50
0
  1
160
  0
CIRCLE
  8
_0-a_極細3
  6
CONTINUOUS
 62
    7
 10
233.85239388455352
 20
308.4658686156688
 40
0.5530864197530718
  0
CIRCLE
  8
_0-a_極細3
  6
CONTINUOUS
 62
    7
 10
275.19560376109695
 20
313.26586861566807
 40
0.5530864197530718
  0
CIRCLE
  8
_0-a_極細3
  6
CONTINUOUS
 62
    7
 10
300.08449264998558
 20
323.22142417122387
 40
0.5530864197530718
  0
CIRCLE
  8
_0-a_極細3
  6
CONTINUOUS
 62
    7
 10
305.77338153887445
 20
307.04364639344635
 40
0.5530864197530718
  0
CIRCLE
  8
_0-a_極細3
  6
CONTINUOUS
 62
    7
 10
280.88449264998576
 20
306.51031306011259
 40
0.5530864197530718
  0
CIRCLE
  8
_0-a_極細3
  6
CONTINUOUS
 62
    7
 10
269.15115931665218
 20
321.44364639344599
 40
0.5530864197530718
  0
CIRCLE
  8
_0-a_極細3
  6
CONTINUOUS
 62
    7
 10
295.95115931665237
 20
307.1424118255452
 40
1.825531472681392
  0
CIRCLE
  8
_0-a_極細3
  6
CONTINUOUS
 62
    7
 10
244.18903961521735
 20
314.07202610024319
 40
1.825531472681392
  0
CIRCLE
  8
_0-a_極細3
  6
CONTINUOUS
 62
    7
 10
223.99196007413749
 20
314.96463404776728
 40
1.825531472681392
  0
CIRCLE
  8
_0-a_極細3
  6
CONTINUOUS
 62
    7
 10
588.08449264998308
 20
319.43901676381643
 40
0.5530864197530718
  0
CIRCLE
  8
_0-a_極細3
  6
CONTINUOUS
 62
    7
 10
638.12893709442676
 20
307.39457231937217
 40
0.5530864197530718
  0
CIRCLE
  8
_0-a_極細3
  6
CONTINUOUS
 62
    7
 10
660.12893709442642
 20
315.56463404776719
 40
1.825531472681392
  0
CIRCLE
  8
_0-a_極細3
  6
CONTINUOUS
 62
    7
 10
589.06227042776106
 20
306.67574515887804
 40
1.825531472681392
  0
CIRCLE
  8
_0-a_極細3
  6
CONTINUOUS
 62
    7
 10
652.12893709442687
 20
323.52790565270493
 40
0.5530864197530718
  0
CIRCLE
  8
_0-a_極細3
  6
CONTINUOUS
 62
    7
 10
621.3289370944276
 20
318.46123898603923
 40
0.5530864197530718
  0
CIRCLE
  8
_0-a_極細3
  6
CONTINUOUS
 62
    7
 10
621.46227042776081
 20
312.1424118255452
 40
1.825531472681392
  0
CIRCLE
  8
_0-a_極細3
  6
CONTINUOUS
 62
    7
 10
600.12893709442676
 20
324.46123898603838
 40
0.5530864197530718
  0
LINE
  8
_0-a_極細3
  6
CENTER1
 62
    7
 10
446.8009198531679
 20
288.74329538022562
 11
446.8009198531679
 21
352.1932953802314
  0
LINE
  8
_0-a_極細3
  6
CONTINUOUS
 62
    7
 10
305.13425318650093
 20
338.26245819900873
 11
305.13425318650093
 21
326.59579153234131
  0
LINE
  8
_0-a_極細3
  6
CONTINUOUS
 62
    7
 10
305.13425318650093
 20
338.26245819900873
 11
215.95650604138683
 21
338.26245819900873
  0
LINE
  8
_0-a_極細3
  6
CONTINUOUS
 62
    7
 10
313.46758651983492
 20
326.59579153234131
 11
215.95650604138683
 21
326.59579153234131
  0
LINE
  8
_0-a_極細3
  6
CONTINUOUS
 62
    7
 10
313.46758651983492
 20
338.26245819900873
 11
305.13425318650093
 21
338.26245819900873
  0
LINE
  8
_0-a_極細3
  6
CONTINUOUS
 62
    7
 10
313.46758651983492
 20
337.42912486567485
 11
313.46758651983492
 21
338.26245819900873
  0
LINE
  8
_0-a_極細3
  6
CONTINUOUS
 62
    7
 10
313.26949626347482
 20
326.59579153234131
 11
313.46758651983492
 21
326.79388178870136
  0
LINE
  8
_0-a_極細3
  6
CONTINUOUS
 62
    7
 10
309.02685557635579
 20
326.59579153234131
 11
313.46758651983492
 21
331.03652247582045
  0
LINE
  8
_0-a_極細3
  6
CONTINUOUS
 62
    7
 10
305.13425318650093
 20
326.94582982960651
 11
313.46758651983492
 21
335.27916316293954
  0
LINE
  8
_0-a_極細3
  6
CONTINUOUS
 62
    7
 10
305.13425318650093
 20
331.1884705167256
 11
312.20824086878366
 21
338.26245819900873
  0
LINE
  8
_0-a_極細3
  6
CONTINUOUS
 62
    7
 10
305.13425318650093
 20
335.43111120384475
 11
307.96560018166542
 21
338.26245819900873
  0
LINE
  8
_0-a_極細3
  6
CONTINUOUS
 62
    7
 10
313.46758651983492
 20
335.98149132674985
 11
311.18661964757649
 21
338.26245819900873
  0
LINE
  8
_0-a_極細3
  6
CONTINUOUS
 62
    7
 10
313.46758651983492
 20
331.73885063963036
 11
306.94397896045643
 21
338.26245819900873
  0
LINE
  8
_0-a_極細3
  6
CONTINUOUS
 62
    7
 10
305.13425318650093
 20
335.82954328584469
 11
313.46758651983492
 21
327.49620995251172
  0
LINE
  8
_0-a_極細3
  6
CONTINUOUS
 62
    7
 10
305.13425318650093
 20
331.58690259872566
 11
310.12536425288431
 21
326.59579153234131
  0
LINE
  8
_0-a_極細3
  6
CONTINUOUS
 62
    7
 10
305.13425318650093
 20
327.34426191160651
 11
305.88272356576522
 21
326.59579153234131
  0
LINE
  8
_0-a_極細3
  6
CONTINUOUS
 62
    7
 10
296.29893350887028
 20
326.59579152621455
 11
305.13425318650093
 21
335.43111120384475
  0
LINE
  8
_0-a_極細3
  6
CONTINUOUS
 62
    7
 10
275.08573005856283
 20
326.59579151150297
 11
286.75239674606905
 21
338.26245819900828
  0
LINE
  8
_0-a_極細3
  6
CONTINUOUS
 62
    7
 10
253.87252660825538
 20
326.59579149679189
 11
265.53919331047183
 21
338.26245819900873
  0
LINE
  8
_0-a_極細3
  6
CONTINUOUS
 62
    7
 10
232.659323157947
 20
326.59579148208081
 11
244.32598987487538
 21
338.26245819900873
  0
LINE
  8
_0-a_極細3
  6
CONTINUOUS
 62
    7
 10
215.95650604138683
 20
331.10617780111602
 11
223.11278643927906
 21
338.26245819900828
  0
LINE
  8
_0-a_極細3
  6
DASHED2
 62
    7
 10
285.69233178371701
 20
326.59579151885902
 11
297.35899846386729
 21
338.26245819900873
  0
LINE
  8
_0-a_極細3
  6
DASHED2
 62
    7
 10
264.47912833340865
 20
326.59579150414794
 11
276.14579502826996
 21
338.26245819900873
  0
LINE
  8
_0-a_極細3
  6
DASHED2
 62
    7
 10
243.26592488310212
 20
326.59579148943686
 11
254.93259159267268
 21
338.26245819900873
  0
LINE
  8
_0-a_極細3
  6
DASHED2
 62
    7
 10
222.05272143279373
 20
326.59579147472482
 11
233.71938815707722
 21
338.26245819900873
  0
LINE
  8
_0-a_極細3
  6
CONTINUOUS
 62
    7
 10
588.46758651983498
 20
338.26245819900873
 11
588.46758651983498
 21
326.59579153234131
  0
LINE
  8
_0-a_極細3
  6
CONTINUOUS
 62
    7
 10
588.46758651983498
 20
338.26245819900873
 11
677.64533366494959
 21
338.26245819900873
  0
LINE
  8
_0-a_極細3
  6
CONTINUOUS
 62
    7
 10
580.13425318650104
 20
326.59579153234131
 11
677.64533366494959
 21
326.59579153234131
  0
LINE
  8
_0-a_極細3
  6
CONTINUOUS
 62
    7
 10
580.13425318650104
 20
338.26245819900873
 11
588.46758651983498
 21
338.26245819900873
  0
LINE
  8
_0-a_極細3
  6
CONTINUOUS
 62
    7
 10
580.13425318650104
 20
337.42912486567485
 11
580.13425318650104
 21
338.26245819900873
  0
LINE
  8
_0-a_極細3
  6
CONTINUOUS
 62
    7
 10
588.46758651983498
 20
330.26487781306679
 11
584.79850023911047
 21
326.59579153234131
  0
LINE
  8
_0-a_極細3
  6
CONTINUOUS
 62
    7
 10
588.46758651983498
 20
334.50751850018543
 11
580.55585955199047
 21
326.59579153234131
  0
LINE
  8
_0-a_極細3
  6
CONTINUOUS
 62
    7
 10
580.13425318650104
 20
330.41682585397189
 11
587.97988553153834
 21
338.26245819900873
  0
LINE
  8
_0-a_極細3
  6
CONTINUOUS
 62
    7
 10
580.13425318650104
 20
334.65946654109098
 11
583.73724484441834
 21
338.26245819900828
  0
LINE
  8
_0-a_極細3
  6
CONTINUOUS
 62
    7
 10
588.46758651983498
 20
336.75313598950265
 11
586.95826431032947
 21
338.26245819900873
  0
LINE
  8
_0-a_極細3
  6
CONTINUOUS
 62
    7
 10
588.46758651983498
 20
332.51049530238402
 11
582.71562362321117
 21
338.26245819900873
  0
LINE
  8
_0-a_極細3
  6
CONTINUOUS
 62
    7
 10
588.46758651983498
 20
328.26785461526447
 11
580.13425318650104
 21
336.60118794859795
  0
LINE
  8
_0-a_極細3
  6
CONTINUOUS
 62
    7
 10
585.89700891563905
 20
326.59579153234131
 11
580.13425318650104
 21
332.35854726147841
  0
LINE
  8
_0-a_極細3
  6
CONTINUOUS
 62
    7
 10
581.65436822851905
 20
326.59579153234131
 11
580.13425318650104
 21
328.11590657435937
  0
LINE
  8
_0-a_極細3
  6
CONTINUOUS
 62
    7
 10
656.92339192013776
 20
326.59579153234131
 11
668.59005796001554
 21
338.26245757222006
  0
LINE
  8
_0-a_極細3
  6
CONTINUOUS
 62
    7
 10
635.7101884845415
 20
326.59579153234228
 11
647.3768546903683
 21
338.26245773816822
  0
LINE
  8
_0-a_極細3
  6
CONTINUOUS
 62
    7
 10
614.49698504894502
 20
326.59579153234131
 11
626.16365142072016
 21
338.26245790411645
  0
LINE
  8
_0-a_極細3
  6
CONTINUOUS
 62
    7
 10
593.28378161334865
 20
326.59579153234131
 11
604.95044815107212
 21
338.26245807006512
  0
LINE
  8
_0-a_極細3
  6
DASHED2
 62
    7
 10
667.52999363793595
 20
326.59579153234228
 11
677.64533366494959
 21
336.71113155935495
  0
LINE
  8
_0-a_極細3
  6
DASHED2
 62
    7
 10
646.31679020233958
 20
326.59579153234131
 11
657.98345632519147
 21
338.26245765519411
  0
LINE
  8
_0-a_極細3
  6
DASHED2
 62
    7
 10
625.10358676674321
 20
326.59579153234131
 11
636.77025305554423
 21
338.26245782114233
  0
LINE
  8
_0-a_極細3
  6
DASHED2
 62
    7
 10
603.89038333114684
 20
326.59579153234131
 11
615.55704978589608
 21
338.26245798709061
  0
LINE
  8
_0-a_極細3
  6
DASHED2
 62
    7
 10
588.46758651983498
 20
332.38619815662628
 11
594.34384651624794
 21
338.26245815303929
  0
CIRCLE
  8
_0-a_極細3
  6
CONTINUOUS
 62
    7
 10
283.64745561294853
 20
318.65352293665478
 40
1.825531472681392
  0
LINE
  8
_0-a_極細3
  6
CENTER1
 62
    7
 10
578.25452781522915
 20
319.26242110100861
 11
311.8135940752943
 21
319.26242110100861
  0
LINE
  8
_0-a_極細3
  6
CONTINUOUS
 62
    7
 10
572.63425318650104
 20
336.59579153234228
 11
320.96758651983487
 21
336.59579153234228
  0
CIRCLE
  8
_0-a_極細3
  6
CONTINUOUS
 62
    7
 10
356.8009198531679
 20
319.26245819900873
 40
3.333333333333333
  0
CIRCLE
  8
_0-a_極細3
  6
CONTINUOUS
 62
    7
 10
536.80091985316812
 20
319.26245819900873
 40
3.333333333333333
  0
ARC
  8
_0-b_細線3
  6
CONTINUOUS
 62
    7
 10
318.46758651983492
 20
304.92912486567525
 40
4.9999999999999991
 50
179.99999999999983
 51
269.99999999999977
  0
LINE
  8
_0-b_細線3
  6
CONTINUOUS
 62
    7
 10
313.46758651983492
 20
304.92912486567525
 11
313.46758651983492
 21
337.42912486567485
  0
LINE
  8
_0-b_細線3
  6
CONTINUOUS
 62
    7
 10
318.46758651983492
 20
299.92912486567525
 11
362.63425318650093
 21
299.92912486567525
  0
LINE
  8
_0-b_細線3
  6
CONTINUOUS
 62
    7
 10
363.46758651983487
 20
300.76245819900873
 11
362.63425318650093
 21
299.92912486567525
  0
LINE
  8
_0-b_細線3
  6
CONTINUOUS
 62
    7
 10
363.46758651983487
 20
304.09579153234222
 11
363.46758651983487
 21
300.76245819900873
  0
LINE
  8
_0-b_細線3
  6
CONTINUOUS
 62
    7
 10
362.63425318650093
 20
304.92912486567525
 11
363.46758651983487
 21
304.09579153234222
  0
LINE
  8
_0-b_細線3
  6
CONTINUOUS
 62
    7
 10
318.46758651983492
 20
304.92912486567525
 11
362.63425318650093
 21
304.92912486567525
  0
LINE
  8
_0-b_細線3
  6
CONTINUOUS
 62
    7
 10
314.3009198531679
 20
338.26245819900873
 11
313.46758651983492
 21
337.42912486567485
  0
LINE
  8
_0-b_細線3
  6
CONTINUOUS
 62
    7
 10
317.63425318650093
 20
338.26245819900873
 11
314.3009198531679
 21
338.26245819900873
  0
LINE
  8
_0-b_細線3
  6
CONTINUOUS
 62
    7
 10
318.46758651983492
 20
337.42912486567485
 11
317.63425318650093
 21
338.26245819900873
  0
LINE
  8
_0-b_細線3
  6
CONTINUOUS
 62
    7
 10
318.46758651983492
 20
304.92912486567525
 11
318.46758651983492
 21
337.42912486567485
  0
ARC
  8
_0-b_細線3
  6
CONTINUOUS
 62
    7
 10
575.13425318650104
 20
304.92912486567525
 40
4.9999999999999991
 50
269.99999999999977
 51
359.99999999999966
  0
LINE
  8
_0-b_細線3
  6
CONTINUOUS
 62
    7
 10
580.13425318650104
 20
304.92912486567525
 11
580.13425318650104
 21
337.42912486567485
  0
LINE
  8
_0-b_細線3
  6
CONTINUOUS
 62
    7
 10
575.13425318650104
 20
299.92912486567525
 11
530.96758651983407
 21
299.92912486567525
  0
LINE
  8
_0-b_細線3
  6
CONTINUOUS
 62
    7
 10
530.13425318650104
 20
300.76245819900873
 11
530.96758651983407
 21
299.92912486567525
  0
LINE
  8
_0-b_細線3
  6
CONTINUOUS
 62
    7
 10
530.13425318650104
 20
304.09579153234222
 11
530.13425318650104
 21
300.76245819900873
  0
LINE
  8
_0-b_細線3
  6
CONTINUOUS
 62
    7
 10
530.96758651983407
 20
304.92912486567525
 11
530.13425318650104
 21
304.09579153234222
  0
LINE
  8
_0-b_細線3
  6
CONTINUOUS
 62
    7
 10
575.13425318650104
 20
304.92912486567525
 11
530.96758651983407
 21
304.92912486567525
  0
LINE
  8
_0-b_細線3
  6
CONTINUOUS
 62
    7
 10
579.30091985316892
 20
338.26245819900873
 11
580.13425318650104
 21
337.42912486567485
  0
LINE
  8
_0-b_細線3
  6
CONTINUOUS
 62
    7
 10
575.96758651983498
 20
338.26245819900873
 11
579.30091985316892
 21
338.26245819900873
  0
LINE
  8
_0-b_細線3
  6
CONTINUOUS
 62
    7
 10
575.13425318650104
 20
337.42912486567485
 11
575.96758651983498
 21
338.26245819900873
  0
LINE
  8
_0-b_細線3
  6
CONTINUOUS
 62
    7
 10
575.13425318650104
 20
304.92912486567525
 11
575.13425318650104
 21
337.42912486567485
  0
LINE
  8
_0-b_細線3
  6
CONTINUOUS
 62
    7
 10
457.38425318680197
 20
338.26282320068754
 11
465.21758652013597
 21
338.26282320068754
  0
LINE
  8
_0-b_細線3
  6
CONTINUOUS
 62
    7
 10
320.96758651983487
 20
304.92912486567525
 11
320.96758651983487
 21
338.26245819900828
  0
LINE
  8
_0-b_細線3
  6
CONTINUOUS
 62
    7
 10
320.96758651983487
 20
338.26245819900828
 11
572.63425318650104
 21
338.26245819900828
  0
LINE
  8
_0-b_細線3
  6
CONTINUOUS
 62
    7
 10
572.63425318650104
 20
338.26245819900828
 11
572.63425318650104
 21
304.92912486567525
  0
LINE
  8
_0-b_細線3
  6
CONTINUOUS
 62
    7
 10
572.63425318650104
 20
304.92912486567525
 11
320.96758651983487
 21
304.92912486567525
  0
LINE
  8
_0-b_細線3
  6
CONTINUOUS
 62
    7
 10
320.96758651983487
 20
331.76245819900879
 11
572.63425318650104
 21
331.76245819900879
  0
CIRCLE
  8
_0-b_細線3
  6
CONTINUOUS
 62
    7
 10
356.8009198531679
 20
319.26245819900873
 40
10.833333333333332
  0
LINE
  8
_0-b_細線3
  6
CONTINUOUS
 62
    7
 10
363.46758651983487
 20
319.26245819900873
 11
360.13425318650093
 21
325.03596089090456
  0
LINE
  8
_0-b_細線3
  6
CONTINUOUS
 62
    7
 10
360.13425318650093
 20
325.03596089090456
 11
353.46758651983487
 21
325.03596089090456
  0
LINE
  8
_0-b_細線3
  6
CONTINUOUS
 62
    7
 10
353.46758651983487
 20
325.03596089090456
 11
350.13425318650093
 21
319.26245819900873
  0
LINE
  8
_0-b_細線3
  6
CONTINUOUS
 62
    7
 10
350.13425318650093
 20
319.26245819900873
 11
353.46758651983487
 21
313.488955507112
  0
LINE
  8
_0-b_細線3
  6
CONTINUOUS
 62
    7
 10
353.46758651983487
 20
313.488955507112
 11
360.13425318650093
 21
313.488955507112
  0
LINE
  8
_0-b_細線3
  6
CONTINUOUS
 62
    7
 10
360.13425318650093
 20
313.488955507112
 11
363.46758651983487
 21
319.26245819900873
  0
CIRCLE
  8
_0-b_細線3
  6
CONTINUOUS
 62
    7
 10
536.80091985316812
 20
319.26245819900873
 40
10.833333333333332
  0
LINE
  8
_0-b_細線3
  6
CONTINUOUS
 62
    7
 10
530.13425318650104
 20
319.26245819900873
 11
533.46758651983498
 21
325.03596089090456
  0
LINE
  8
_0-b_細線3
  6
CONTINUOUS
 62
    7
 10
533.46758651983498
 20
325.03596089090456
 11
540.13425318650104
 21
325.03596089090456
  0
LINE
  8
_0-b_細線3
  6
CONTINUOUS
 62
    7
 10
540.13425318650104
 20
325.03596089090456
 11
543.46758651983498
 21
319.26245819900873
  0
LINE
  8
_0-b_細線3
  6
CONTINUOUS
 62
    7
 10
543.46758651983498
 20
319.26245819900873
 11
540.13425318650104
 21
313.488955507112
  0
LINE
  8
_0-b_細線3
  6
CONTINUOUS
 62
    7
 10
540.13425318650104
 20
313.488955507112
 11
533.46758651983498
 21
313.488955507112
  0
LINE
  8
_0-b_細線3
  6
CONTINUOUS
 62
    7
 10
533.46758651983498
 20
313.488955507112
 11
530.13425318650104
 21
319.26245819900873
  0
LINE
  8
_0-d_寸法3
  6
CONTINUOUS
 62
    7
 10
303.46758651983492
 20
338.26245819900885
 11
257.51755544124512
 21
338.26245819900873
  0
LINE
  8
_0-d_寸法3
  6
CONTINUOUS
 62
    7
 10
262.51755544124512
 20
338.26245819900873
 11
265.10574589227031
 21
328.60319993611802
  0
LINE
  8
_0-d_寸法3
  6
CONTINUOUS
 62
    7
 10
262.51755544124512
 20
338.26245819900873
 11
259.92936499021994
 21
328.60319993611813
  0
LINE
  8
_0-d_寸法3
  6
CONTINUOUS
 62
    7
 10
301.46758651983487
 20
299.92912486567536
 11
257.51755544124512
 21
299.92912486567525
  0
LINE
  8
_0-d_寸法3
  6
CONTINUOUS
 62
    7
 10
262.51755544124512
 20
299.92912486567525
 11
259.92936499021994
 21
309.58838312856591
  0
LINE
  8
_0-d_寸法3
  6
CONTINUOUS
 62
    7
 10
262.51755544124512
 20
299.92912486567525
 11
265.10574589227031
 21
309.58838312856597
  0
LINE
  8
_0-d_寸法3
  6
CONTINUOUS
 62
    7
 10
262.51755544124512
 20
338.26245819900873
 11
262.51755544124512
 21
299.92912486567525
  0
TEXT
  8
_0-d_寸法3
 62
    7
 10
262.51755544124512
 20
311.59579153234222
 40
15
 41
1
 50
90
  1
23
  0
LINE
  8
_0-d_寸法3
  6
CONTINUOUS
 62
    7
 10
303.46758651983492
 20
299.92912486567536
 11
257.51755544124512
 21
299.92912486567525
  0
LINE
  8
_0-d_寸法3
  6
CONTINUOUS
 62
    7
 10
262.51755544124512
 20
299.92912486567525
 11
265.10574589227031
 21
290.26986660278453
  0
LINE
  8
_0-d_寸法3
  6
CONTINUOUS
 62
    7
 10
262.51755544124512
 20
299.92912486567525
 11
259.92936499021994
 21
290.26986660278459
  0
LINE
  8
_0-d_寸法3
  6
CONTINUOUS
 62
    7
 10
301.46758651983487
 20
261.59579153234182
 11
257.51755544124603
 21
261.59579153234176
  0
LINE
  8
_0-d_寸法3
  6
CONTINUOUS
 62
    7
 10
262.51755544124603
 20
261.59579153234176
 11
259.92936499022079
 21
271.25504979523242
  0
LINE
  8
_0-d_寸法3
  6
CONTINUOUS
 62
    7
 10
262.51755544124603
 20
261.59579153234176
 11
265.10574589227122
 21
271.25504979523248
  0
LINE
  8
_0-d_寸法3
  6
CONTINUOUS
 62
    7
 10
262.51755544124512
 20
299.92912486567525
 11
262.51755544124603
 21
261.59579153234176
  0
TEXT
  8
_0-d_寸法3
 62
    7
 10
262.51755544124603
 20
273.26245819900873
 40
15
 41
1
 50
90
  1
23
  0
LINE
  8
_0-a_極細3
  6
CONTINUOUS
 62
    7
 10
269.82751829934955
 20
249.81082602817861
 11
264.69721614946434
 21
263.9062153399675
  0
LINE
  8
_0-a_極細3
  6
CONTINUOUS
 62
    7
 10
319.82156097314629
 20
283.96983603921331
 11
324.95186312303099
 21
269.87444672742481
  0
LINE
  8
_0-a_極細3
  6
CONTINUOUS
 62
    7
 10
264.69721614946434
 20
263.9062153399675
 11
319.82156097314629
 21
283.96983603921376
  0
LINE
  8
_0-a_極細3
  6
CONTINUOUS
 62
    7
 10
269.82751829934955
 20
249.81082602817861
 11
324.95186312303099
 21
269.87444672742481
  0
LINE
  8
_0-a_極細3
  6
CENTER1
 62
    7
 10
262.30693383241419
 20
255.05489064404338
 11
326.33795431498015
 21
278.36027612907833
  0
LINE
  8
_0-a_極細3
  6
CONTINUOUS
 62
    7
 10
288.46758651983492
 20
224.92912486567531
 11
288.46758651983492
 21
269.01468621399113
  0
LINE
  8
_0-a_極細3
  6
CONTINUOUS
 62
    7
 10
288.46758651983492
 20
269.01468621399113
 11
273.46758651983492
 21
269.01468621399113
  0
LINE
  8
_0-a_極細3
  6
CONTINUOUS
 62
    7
 10
273.46758651983492
 20
269.01468621399113
 11
273.46758651983492
 21
224.92912486567531
  0
LINE
  8
_0-a_極細3
  6
CENTER1
 62
    7
 10
280.96758651983492
 20
216.65238458122241
 11
280.96758651983492
 21
273.29040637860066
  0
LINE
  8
_0-a_極細3
  6
CONTINUOUS
 62
    7
 10
623.77432140698636
 20
249.81082602817861
 11
628.90462355687168
 21
263.9062153399675
  0
LINE
  8
_0-a_極細3
  6
CONTINUOUS
 62
    7
 10
573.78027873319013
 20
283.96983603921331
 11
568.64997658330537
 21
269.87444672742481
  0
LINE
  8
_0-a_極細3
  6
CONTINUOUS
 62
    7
 10
628.90462355687168
 20
263.9062153399675
 11
573.78027873319013
 21
283.96983603921376
  0
LINE
  8
_0-a_極細3
  6
CONTINUOUS
 62
    7
 10
623.77432140698636
 20
249.81082602817861
 11
568.64997658330537
 21
269.87444672742481
  0
LINE
  8
_0-a_極細3
  6
CENTER1
 62
    7
 10
631.29490587392172
 20
255.05489064404338
 11
567.26388539135598
 21
278.36027612907833
  0
LINE
  8
_0-a_極細3
  6
CONTINUOUS
 62
    7
 10
605.13425318650104
 20
224.92912486567531
 11
605.13425318650104
 21
269.01468621399113
  0
LINE
  8
_0-a_極細3
  6
CONTINUOUS
 62
    7
 10
605.13425318650104
 20
269.01468621399113
 11
620.13425318650104
 21
269.01468621399113
  0
LINE
  8
_0-a_極細3
  6
CONTINUOUS
 62
    7
 10
620.13425318650104
 20
269.01468621399113
 11
620.13425318650104
 21
224.92912486567531
  0
LINE
  8
_0-a_極細3
  6
CENTER1
 62
    7
 10
612.63425318650104
 20
216.65238458122241
 11
612.63425318650104
 21
273.29040637860066
  0
LINE
  8
_0-d_寸法3
  6
CONTINUOUS
 62
    7
 10
438.609399410278
 20
310.66488922918575
 11
403.2570576845925
 21
335.41886539887651
  0
LINE
  8
_0-d_寸法3
  6
CONTINUOUS
 62
    7
 10
407.3528179060375
 20
332.55098321712126
 11
404.76462745501232
 21
342.21024148001192
  0
LINE
  8
_0-d_寸法3
  6
CONTINUOUS
 62
    7
 10
407.3528179060375
 20
332.55098321712126
 11
409.94100835706269
 21
342.21024148001192
  0
LINE
  8
_0-d_寸法3
  6
CONTINUOUS
 62
    7
 10
438.609399410278
 20
343.99822256251923
 11
403.2570576845925
 21
368.75219873220999
  0
LINE
  8
_0-d_寸法3
  6
CONTINUOUS
 62
    7
 10
407.3528179060375
 20
365.88431655045474
 11
409.94100835706263
 21
356.22505828756402
  0
LINE
  8
_0-d_寸法3
  6
CONTINUOUS
 62
    7
 10
407.3528179060375
 20
365.88431655045474
 11
404.76462745501226
 21
356.22505828756408
  0
LINE
  8
_0-d_寸法3
  6
CONTINUOUS
 62
    7
 10
407.3528179060375
 20
332.55098321712126
 11
407.3528179060375
 21
365.88431655045474
  0
TEXT
  8
_0-d_寸法3
 62
    7
 10
407.3528179060375
 20
341.71764988378777
 40
15
 41
1
 50
90
  1
20
  0
TEXT
  8
_0-7_枠細線
 62
    5
 10
396.87887221393407
 20
163.26209319733039
 40
25
 41
0.8
 50
0
  1
断面詳細図
  0
TEXT
  8
_0-7_枠細線
 62
    5
 10
511.82784196310223
 20
163.26209319733039
 40
20
 41
0.6
 50
0
  1
Ｓ＝１：３
  0
LINE
  8
_0-5_寸法線
  6
CONTINUOUS
 62
    7
 10
230.1632812499939
 20
742.60000000000014
 11
230.16328124999382
 21
822.60000000000014
  0
LINE
  8
_0-5_寸法線
  6
CONTINUOUS
 62
    7
 10
230.16328124999382
 20
817.60000000000014
 11
237.40772494716182
 21
819.54114283826914
  0
LINE
  8
_0-5_寸法線
  6
CONTINUOUS
 62
    7
 10
230.16328124999382
 20
817.60000000000014
 11
237.40772494716182
 21
815.65885716173125
  0
LINE
  8
_0-5_寸法線
  6
CONTINUOUS
 62
    7
 10
1229.1632812499938
 20
742.60000000000014
 11
1229.1632812499938
 21
822.60000000000014
  0
LINE
  8
_0-5_寸法線
  6
CONTINUOUS
 62
    7
 10
1229.1632812499938
 20
817.60000000000014
 11
1221.9188375528258
 21
815.65885716173125
  0
LINE
  8
_0-5_寸法線
  6
CONTINUOUS
 62
    7
 10
1229.1632812499938
 20
817.60000000000014
 11
1221.9188375528258
 21
819.54114283826914
  0
LINE
  8
_0-5_寸法線
  6
CONTINUOUS
 62
    7
 10
230.16328124999382
 20
817.60000000000014
 11
1229.1632812499938
 21
817.60000000000014
  0
TEXT
  8
_0-5_寸法線
 62
    7
 10
718.41328124999382
 20
817.60000000000014
 40
15
 41
1
 50
0
  1
999
  0
LINE
  8
_0-0_計極細
  6
CENTER2
 62
    2
 10
214.27468171297463
 20
652.60000000000105
 11
1245.2080150463519
 21
652.60000000000105
  0
ARC
  8
_0-0_計極細
  6
CONTINUOUS
 62
    2
 10
217.10950240667813
 20
725.10000000000105
 40
11.295514677412786
 50
138.39585046827571
 51
221.60414953172395
  0
ARC
  8
_0-0_計極細
  6
CONTINUOUS
 62
    2
 10
200.21706009330771
 20
710.0999999999998
 40
11.295514677412786
 50
318.39585046827381
 51
41.604149531723962
  0
ARC
  8
_0-0_計極細
  6
CONTINUOUS
 62
    2
 10
217.10950240667813
 20
595.09999999999968
 40
11.295514677412786
 50
138.39585046827571
 51
221.60414953172395
  0
ARC
  8
_0-0_計極細
  6
CONTINUOUS
 62
    2
 10
200.21706009330771
 20
580.09999999999832
 40
11.295514677412786
 50
318.39585046827381
 51
41.604149531723962
  0
LINE
  8
_0-1_計細線
  6
CONTINUOUS
 62
    3
 10
208.66328124999242
 20
732.60000000000105
 11
1250.6632812499936
 21
732.60000000000105
  0
LINE
  8
_0-1_計細線
  6
CONTINUOUS
 62
    3
 10
1250.6632812499936
 20
572.60000000000105
 11
208.66328124999242
 21
572.60000000000105
  0
ARC
  8
_0-0_計極細
  6
CONTINUOUS
 62
    2
 10
1259.1095024066792
 20
725.10000000000105
 40
11.295514677412786
 50
138.39585046827494
 51
221.60414953172469
  0
ARC
  8
_0-0_計極細
  6
CONTINUOUS
 62
    2
 10
1242.2170600933086
 20
710.0999999999998
 40
11.295514677412786
 50
318.39585046827455
 51
41.604149531724723
  0
ARC
  8
_0-0_計極細
  6
CONTINUOUS
 62
    2
 10
1259.1095024066792
 20
595.09999999999968
 40
11.295514677412786
 50
138.39585046827494
 51
221.60414953172469
  0
ARC
  8
_0-0_計極細
  6
CONTINUOUS
 62
    2
 10
1242.2170600933086
 20
580.09999999999832
 40
11.295514677412786
 50
318.39585046827455
 51
41.604149531724723
  0
LINE
  8
_0-1_計細線
  6
CONTINUOUS
 62
    3
 10
206.74906555161988
 20
729.60000000000105
 11
1248.7490655516212
 21
729.60000000000105
  0
LINE
  8
_0-1_計細線
  6
CONTINUOUS
 62
    3
 10
1252.5774969483682
 20
575.60000000000105
 11
210.57749694836821
 21
575.60000000000105
  0
LINE
  8
_0-5_寸法線
  6
CONTINUOUS
 62
    7
 10
198.663281249992
 20
732.60000000000105
 11
153.66328124999745
 21
732.60000000000105
  0
LINE
  8
_0-5_寸法線
  6
CONTINUOUS
 62
    7
 10
158.66328124999745
 20
732.60000000000105
 11
161.25147170102267
 21
722.94074173711033
  0
LINE
  8
_0-5_寸法線
  6
CONTINUOUS
 62
    7
 10
158.66328124999745
 20
732.60000000000105
 11
156.07509079897221
 21
722.94074173711033
  0
LINE
  8
_0-5_寸法線
  6
CONTINUOUS
 62
    7
 10
198.6632812499947
 20
702.60000000000105
 11
153.66328124999745
 21
702.60000000000105
  0
LINE
  8
_0-5_寸法線
  6
CONTINUOUS
 62
    7
 10
158.66328124999745
 20
702.60000000000105
 11
156.07509079897227
 21
712.25925826289188
  0
LINE
  8
_0-5_寸法線
  6
CONTINUOUS
 62
    7
 10
158.66328124999745
 20
702.60000000000105
 11
161.25147170102267
 21
712.25925826289188
  0
LINE
  8
_0-5_寸法線
  6
CONTINUOUS
 62
    7
 10
158.66328124999745
 20
732.60000000000105
 11
158.66328124999745
 21
702.60000000000105
  0
TEXT
  8
_0-5_寸法線
 62
    7
 10
158.66328124999745
 20
710.10000000000105
 40
15
 41
1
 50
90
  1
30
  0
LINE
  8
_0-5_寸法線
  6
CONTINUOUS
 62
    7
 10
158.66328124999745
 20
702.60000000000105
 11
161.25147170102267
 21
692.94074173711033
  0
LINE
  8
_0-5_寸法線
  6
CONTINUOUS
 62
    7
 10
158.66328124999745
 20
702.60000000000105
 11
156.07509079897227
 21
692.94074173711033
  0
LINE
  8
_0-5_寸法線
  6
CONTINUOUS
 62
    7
 10
198.66328124999242
 20
602.59999999999968
 11
153.66328124999745
 21
602.59999999999968
  0
LINE
  8
_0-5_寸法線
  6
CONTINUOUS
 62
    7
 10
158.66328124999745
 20
602.59999999999968
 11
156.07509079897227
 21
612.2592582628904
  0
LINE
  8
_0-5_寸法線
  6
CONTINUOUS
 62
    7
 10
158.66328124999745
 20
602.59999999999968
 11
161.25147170102267
 21
612.2592582628904
  0
LINE
  8
_0-5_寸法線
  6
CONTINUOUS
 62
    7
 10
158.66328124999745
 20
702.60000000000105
 11
158.66328124999745
 21
602.59999999999968
  0
TEXT
  8
_0-5_寸法線
 62
    7
 10
158.6632812499974
 20
641.35000000000059
 40
15
 41
1
 50
89.999999999999815
  1
100
  0
LINE
  8
_0-5_寸法線
  6
CONTINUOUS
 62
    7
 10
158.66328124999745
 20
602.59999999999968
 11
161.25147170102267
 21
592.94074173710897
  0
LINE
  8
_0-5_寸法線
  6
CONTINUOUS
 62
    7
 10
158.66328124999745
 20
602.59999999999968
 11
156.07509079897227
 21
592.94074173710897
  0
LINE
  8
_0-5_寸法線
  6
CONTINUOUS
 62
    7
 10
198.66328124999745
 20
572.60000000000286
 11
153.66328124999745
 21
572.60000000000286
  0
LINE
  8
_0-5_寸法線
  6
CONTINUOUS
 62
    7
 10
158.66328124999745
 20
572.60000000000286
 11
156.07509079897227
 21
582.25925826289358
  0
LINE
  8
_0-5_寸法線
  6
CONTINUOUS
 62
    7
 10
158.66328124999745
 20
572.60000000000286
 11
161.25147170102267
 21
582.25925826289358
  0
LINE
  8
_0-5_寸法線
  6
CONTINUOUS
 62
    7
 10
158.66328124999745
 20
602.59999999999968
 11
158.66328124999745
 21
572.60000000000286
  0
TEXT
  8
_0-5_寸法線
 62
    7
 10
158.66328124999745
 20
580.10000000000105
 40
15
 41
1
 50
90
  1
30
  0
LINE
  8
_0-1_計細線
  6
CONTINUOUS
 62
    3
 10
1229.1632812499938
 20
602.60000000000105
 11
1250.6632812499936
 21
602.60000000000105
  0
LINE
  8
_0-1_計細線
  6
CONTINUOUS
 62
    3
 10
1229.1632812499938
 20
702.60000000000105
 11
1250.6632812499936
 21
702.60000000000105
  0
LINE
  8
_0-1_計細線
  6
CONTINUOUS
 62
    3
 10
208.66328124999242
 20
702.60000000000105
 11
230.16328124999382
 21
702.60000000000105
  0
LINE
  8
_0-1_計細線
  6
CONTINUOUS
 62
    3
 10
208.66328124999242
 20
602.60000000000105
 11
230.16328124999382
 21
602.60000000000105
  0
LINE
  8
_0-1_計細線
  6
CONTINUOUS
 62
    3
 10
1229.1632812499943
 20
577.10000000000105
 11
1229.1632812499934
 21
728.10000000000105
  0
LINE
  8
_0-1_計細線
  6
CONTINUOUS
 62
    3
 10
1217.7632812499937
 20
577.10000000000105
 11
1217.7632812499928
 21
728.10000000000105
  0
LINE
  8
_0-1_計細線
  6
CONTINUOUS
 62
    3
 10
1229.1632812499943
 20
577.10000000000105
 11
1217.7632812499937
 21
577.10000000000105
  0
LINE
  8
_0-1_計細線
  6
CONTINUOUS
 62
    3
 10
1229.1632812499934
 20
728.10000000000105
 11
1217.7632812499928
 21
728.10000000000105
  0
LINE
  8
_0-0_計極細
  6
CONTINUOUS
 62
    2
 10
1220.963281249994
 20
577.10000000000105
 11
1220.9632812499931
 21
728.10000000000105
  0
LINE
  8
_0-0_計極細
  6
CONTINUOUS
 62
    2
 10
1225.963281249994
 20
577.10000000000105
 11
1225.9632812499931
 21
728.10000000000105
  0
LINE
  8
_0-0_計極細
  6
CONTINUOUS
 62
    2
 10
1200.7632812499942
 20
592.10000000000105
 11
1195.1632812499936
 21
592.10000000000105
  0
LINE
  8
_0-0_計極細
  6
CONTINUOUS
 62
    2
 10
1200.7632812499942
 20
605.10000000000105
 11
1195.1632812499936
 21
605.10000000000105
  0
LINE
  8
_0-0_計極細
  6
CONTINUOUS
 62
    2
 10
1200.7632812499942
 20
700.10000000000105
 11
1195.1632812499938
 21
700.10000000000105
  0
LINE
  8
_0-0_計極細
  6
CONTINUOUS
 62
    2
 10
1200.7632812499942
 20
713.10000000000105
 11
1195.1632812499938
 21
713.10000000000105
  0
LINE
  8
_0-1_計細線
  6
CONTINUOUS
 62
    3
 10
1195.1632812499934
 20
577.10000000000105
 11
1195.1632812499925
 21
728.10000000000105
  0
LINE
  8
_0-1_計細線
  6
CONTINUOUS
 62
    3
 10
1183.7632812499928
 20
577.10000000000127
 11
1183.7632812499919
 21
728.10000000000127
  0
LINE
  8
_0-1_計細線
  6
CONTINUOUS
 62
    3
 10
1195.1632812499934
 20
577.10000000000105
 11
1183.7632812499928
 21
577.10000000000127
  0
LINE
  8
_0-1_計細線
  6
CONTINUOUS
 62
    3
 10
1195.1632812499925
 20
728.10000000000105
 11
1183.7632812499919
 21
728.10000000000127
  0
LINE
  8
_0-0_計極細
  6
CONTINUOUS
 62
    2
 10
1186.9632812499935
 20
577.10000000000127
 11
1186.9632812499926
 21
728.10000000000127
  0
LINE
  8
_0-0_計極細
  6
CONTINUOUS
 62
    2
 10
1191.9632812499935
 20
577.10000000000105
 11
1191.9632812499926
 21
728.10000000000127
  0
LINE
  8
_0-0_計極細
  6
CONTINUOUS
 62
    2
 10
1183.763281249993
 20
592.10000000000127
 11
1178.1632812499929
 21
592.10000000000127
  0
LINE
  8
_0-0_計極細
  6
CONTINUOUS
 62
    2
 10
1183.763281249993
 20
605.10000000000127
 11
1178.1632812499929
 21
605.10000000000127
  0
LINE
  8
_0-0_計極細
  6
CONTINUOUS
 62
    2
 10
1183.7632812499933
 20
700.10000000000127
 11
1178.1632812499931
 21
700.10000000000127
  0
LINE
  8
_0-0_計極細
  6
CONTINUOUS
 62
    2
 10
1183.7632812499933
 20
713.10000000000127
 11
1178.1632812499931
 21
713.10000000000127
  0
LINE
  8
_0-1_計細線
  6
CONTINUOUS
 62
    3
 10
1178.1632812499929
 20
577.10000000000127
 11
1178.163281249992
 21
728.10000000000127
  0
LINE
  8
_0-1_計細線
  6
CONTINUOUS
 62
    3
 10
1166.7632812499924
 20
577.10000000000127
 11
1166.7632812499912
 21
728.10000000000127
  0
LINE
  8
_0-1_計細線
  6
CONTINUOUS
 62
    3
 10
1178.1632812499929
 20
577.10000000000127
 11
1166.7632812499924
 21
577.10000000000127
  0
LINE
  8
_0-1_計細線
  6
CONTINUOUS
 62
    3
 10
1178.163281249992
 20
728.10000000000127
 11
1166.7632812499912
 21
728.10000000000127
  0
LINE
  8
_0-0_計極細
  6
CONTINUOUS
 62
    2
 10
1169.9632812499926
 20
577.10000000000127
 11
1169.9632812499915
 21
728.10000000000127
  0
LINE
  8
_0-0_計極細
  6
CONTINUOUS
 62
    2
 10
1174.9632812499926
 20
577.10000000000127
 11
1174.9632812499915
 21
728.10000000000127
  0
LINE
  8
_0-0_計極細
  6
CONTINUOUS
 62
    2
 10
1161.163281249997
 20
592.10000000000127
 11
1166.7632812499969
 21
592.10000000000127
  0
LINE
  8
_0-0_計極細
  6
CONTINUOUS
 62
    2
 10
1161.163281249997
 20
605.10000000000127
 11
1166.7632812499969
 21
605.10000000000127
  0
LINE
  8
_0-0_計極細
  6
CONTINUOUS
 62
    2
 10
1161.163281249997
 20
700.10000000000127
 11
1166.7632812499971
 21
700.10000000000127
  0
LINE
  8
_0-0_計極細
  6
CONTINUOUS
 62
    2
 10
1161.163281249997
 20
713.10000000000127
 11
1166.7632812499971
 21
713.10000000000127
  0
LINE
  8
_0-0_計極細
  6
CONTINUOUS
 62
    2
 10
1144.1632812499963
 20
592.10000000000105
 11
1149.7632812499965
 21
592.10000000000105
  0
LINE
  8
_0-0_計極細
  6
CONTINUOUS
 62
    2
 10
1144.1632812499965
 20
605.10000000000105
 11
1149.7632812499965
 21
605.10000000000105
  0
LINE
  8
_0-0_計極細
  6
CONTINUOUS
 62
    2
 10
1127.1632812499959
 20
592.10000000000105
 11
1132.7632812499958
 21
592.10000000000105
  0
LINE
  8
_0-0_計極細
  6
CONTINUOUS
 62
    2
 10
1127.1632812499959
 20
605.10000000000105
 11
1132.763281249996
 21
605.10000000000105
  0
LINE
  8
_0-0_計極細
  6
CONTINUOUS
 62
    2
 10
1127.1632812499961
 20
700.10000000000105
 11
1132.763281249996
 21
700.10000000000105
  0
LINE
  8
_0-0_計極細
  6
CONTINUOUS
 62
    2
 10
1127.1632812499961
 20
713.10000000000105
 11
1132.763281249996
 21
713.10000000000105
  0
LINE
  8
_0-1_計細線
  6
CONTINUOUS
 62
    3
 10
1115.7632812499951
 20
577.10000000000127
 11
1115.7632812499942
 21
728.10000000000105
  0
LINE
  8
_0-1_計細線
  6
CONTINUOUS
 62
    3
 10
1127.1632812499956
 20
577.10000000000105
 11
1127.1632812499947
 21
728.10000000000127
  0
LINE
  8
_0-1_計細線
  6
CONTINUOUS
 62
    3
 10
1115.7632812499951
 20
577.10000000000127
 11
1127.1632812499956
 21
577.10000000000105
  0
LINE
  8
_0-1_計細線
  6
CONTINUOUS
 62
    3
 10
1115.7632812499942
 20
728.10000000000105
 11
1127.1632812499947
 21
728.10000000000127
  0
LINE
  8
_0-0_計極細
  6
CONTINUOUS
 62
    2
 10
1123.9632812499949
 20
577.10000000000105
 11
1123.963281249994
 21
728.10000000000105
  0
LINE
  8
_0-0_計極細
  6
CONTINUOUS
 62
    2
 10
1118.9632812499949
 20
577.10000000000127
 11
1118.963281249994
 21
728.10000000000105
  0
LINE
  8
_0-0_計極細
  6
CONTINUOUS
 62
    2
 10
1110.1632812499947
 20
592.10000000000127
 11
1115.7632812499953
 21
592.10000000000127
  0
LINE
  8
_0-0_計極細
  6
CONTINUOUS
 62
    2
 10
1110.1632812499947
 20
605.10000000000127
 11
1115.7632812499953
 21
605.10000000000127
  0
LINE
  8
_0-0_計極細
  6
CONTINUOUS
 62
    2
 10
1110.163281249995
 20
700.10000000000127
 11
1115.7632812499955
 21
700.10000000000127
  0
LINE
  8
_0-0_計極細
  6
CONTINUOUS
 62
    2
 10
1110.163281249995
 20
713.10000000000127
 11
1115.7632812499955
 21
713.10000000000127
  0
LINE
  8
_0-1_計細線
  6
CONTINUOUS
 62
    3
 10
1098.7632812499942
 20
577.10000000000127
 11
1098.763281249993
 21
728.10000000000105
  0
LINE
  8
_0-1_計細線
  6
CONTINUOUS
 62
    3
 10
1110.1632812499947
 20
577.10000000000127
 11
1110.1632812499936
 21
728.10000000000105
  0
LINE
  8
_0-1_計細線
  6
CONTINUOUS
 62
    3
 10
1098.7632812499942
 20
577.10000000000127
 11
1110.1632812499947
 21
577.10000000000127
  0
LINE
  8
_0-1_計細線
  6
CONTINUOUS
 62
    3
 10
1098.763281249993
 20
728.10000000000105
 11
1110.1632812499936
 21
728.10000000000105
  0
LINE
  8
_0-0_計極細
  6
CONTINUOUS
 62
    2
 10
1106.9632812499945
 20
577.10000000000127
 11
1106.9632812499933
 21
728.10000000000105
  0
LINE
  8
_0-0_計極細
  6
CONTINUOUS
 62
    2
 10
1101.9632812499945
 20
577.10000000000127
 11
1101.9632812499933
 21
728.10000000000105
  0
LINE
  8
_0-0_計極細
  6
CONTINUOUS
 62
    2
 10
1093.163281249995
 20
592.10000000000127
 11
1098.7632812499951
 21
592.10000000000127
  0
LINE
  8
_0-0_計極細
  6
CONTINUOUS
 62
    2
 10
1093.163281249995
 20
605.10000000000127
 11
1098.7632812499951
 21
605.10000000000127
  0
LINE
  8
_0-1_計細線
  6
CONTINUOUS
 62
    3
 10
1081.7632812499942
 20
577.10000000000127
 11
1081.7632812499933
 21
728.10000000000105
  0
LINE
  8
_0-1_計細線
  6
CONTINUOUS
 62
    3
 10
1093.1632812499947
 20
577.10000000000127
 11
1093.1632812499938
 21
728.10000000000105
  0
LINE
  8
_0-1_計細線
  6
CONTINUOUS
 62
    3
 10
1081.7632812499942
 20
577.10000000000127
 11
1093.1632812499947
 21
577.10000000000127
  0
LINE
  8
_0-1_計細線
  6
CONTINUOUS
 62
    3
 10
1081.7632812499933
 20
728.10000000000105
 11
1093.1632812499938
 21
728.10000000000105
  0
LINE
  8
_0-0_計極細
  6
CONTINUOUS
 62
    2
 10
1089.9632812499945
 20
577.10000000000127
 11
1089.9632812499935
 21
728.10000000000105
  0
LINE
  8
_0-0_計極細
  6
CONTINUOUS
 62
    2
 10
1084.9632812499945
 20
577.10000000000127
 11
1084.9632812499935
 21
728.10000000000105
  0
LINE
  8
_0-0_計極細
  6
CONTINUOUS
 62
    2
 10
1144.1632812499975
 20
700.10000000000105
 11
1149.7632812499974
 21
700.10000000000105
  0
LINE
  8
_0-0_計極細
  6
CONTINUOUS
 62
    2
 10
1144.1632812499975
 20
713.10000000000105
 11
1149.7632812499974
 21
713.10000000000105
  0
LINE
  8
_0-0_計極細
  6
CONTINUOUS
 62
    2
 10
1081.7632812499944
 20
592.10000000000105
 11
1076.1632812499943
 21
592.10000000000105
  0
LINE
  8
_0-0_計極細
  6
CONTINUOUS
 62
    2
 10
1081.7632812499944
 20
605.10000000000105
 11
1076.1632812499943
 21
605.10000000000105
  0
LINE
  8
_0-0_計極細
  6
CONTINUOUS
 62
    2
 10
1081.7632812499946
 20
700.10000000000105
 11
1076.1632812499943
 21
700.10000000000105
  0
LINE
  8
_0-0_計極細
  6
CONTINUOUS
 62
    2
 10
1081.7632812499946
 20
713.10000000000105
 11
1076.1632812499943
 21
713.10000000000105
  0
LINE
  8
_0-1_計細線
  6
CONTINUOUS
 62
    3
 10
1076.1632812499952
 20
577.10000000000105
 11
1076.163281249994
 21
728.10000000000105
  0
LINE
  8
_0-1_計細線
  6
CONTINUOUS
 62
    3
 10
1064.7632812499946
 20
577.10000000000105
 11
1064.7632812499935
 21
728.10000000000105
  0
LINE
  8
_0-1_計細線
  6
CONTINUOUS
 62
    3
 10
1076.1632812499952
 20
577.10000000000105
 11
1064.7632812499946
 21
577.10000000000105
  0
LINE
  8
_0-1_計細線
  6
CONTINUOUS
 62
    3
 10
1076.163281249994
 20
728.10000000000105
 11
1064.7632812499935
 21
728.10000000000105
  0
LINE
  8
_0-0_計極細
  6
CONTINUOUS
 62
    2
 10
1067.9632812499949
 20
577.10000000000105
 11
1067.9632812499938
 21
728.10000000000105
  0
LINE
  8
_0-0_計極細
  6
CONTINUOUS
 62
    2
 10
1072.9632812499949
 20
577.10000000000105
 11
1072.9632812499938
 21
728.10000000000105
  0
LINE
  8
_0-0_計極細
  6
CONTINUOUS
 62
    2
 10
1217.763281249996
 20
592.10000000000105
 11
1212.1632812499956
 21
592.10000000000105
  0
LINE
  8
_0-0_計極細
  6
CONTINUOUS
 62
    2
 10
1217.763281249996
 20
605.10000000000105
 11
1212.1632812499956
 21
605.10000000000105
  0
LINE
  8
_0-0_計極細
  6
CONTINUOUS
 62
    2
 10
1217.7632812499962
 20
700.10000000000105
 11
1212.1632812499959
 21
700.10000000000105
  0
LINE
  8
_0-0_計極細
  6
CONTINUOUS
 62
    2
 10
1217.7632812499962
 20
713.10000000000105
 11
1212.1632812499959
 21
713.10000000000105
  0
LINE
  8
_0-1_計細線
  6
CONTINUOUS
 62
    3
 10
1212.1632812499956
 20
577.10000000000105
 11
1212.1632812499945
 21
728.10000000000105
  0
LINE
  8
_0-1_計細線
  6
CONTINUOUS
 62
    3
 10
1200.7632812499951
 20
577.10000000000127
 11
1200.7632812499942
 21
728.10000000000127
  0
LINE
  8
_0-1_計細線
  6
CONTINUOUS
 62
    3
 10
1212.1632812499956
 20
577.10000000000105
 11
1200.7632812499951
 21
577.10000000000127
  0
LINE
  8
_0-1_計細線
  6
CONTINUOUS
 62
    3
 10
1212.1632812499945
 20
728.10000000000105
 11
1200.7632812499942
 21
728.10000000000127
  0
LINE
  8
_0-0_計極細
  6
CONTINUOUS
 62
    2
 10
1203.9632812499958
 20
577.10000000000127
 11
1203.9632812499947
 21
728.10000000000127
  0
LINE
  8
_0-0_計極細
  6
CONTINUOUS
 62
    2
 10
1208.9632812499958
 20
577.10000000000105
 11
1208.9632812499947
 21
728.10000000000127
  0
LINE
  8
_0-0_計極細
  6
CONTINUOUS
 62
    2
 10
1064.7632812499946
 20
592.10000000000105
 11
1059.1632812499945
 21
592.10000000000105
  0
LINE
  8
_0-0_計極細
  6
CONTINUOUS
 62
    2
 10
1064.7632812499946
 20
605.10000000000105
 11
1059.1632812499945
 21
605.10000000000105
  0
LINE
  8
_0-0_計極細
  6
CONTINUOUS
 62
    2
 10
1064.7632812499951
 20
700.10000000000105
 11
1059.1632812499947
 21
700.10000000000105
  0
LINE
  8
_0-0_計極細
  6
CONTINUOUS
 62
    2
 10
1064.7632812499951
 20
713.10000000000105
 11
1059.1632812499947
 21
713.10000000000105
  0
LINE
  8
_0-1_計細線
  6
CONTINUOUS
 62
    3
 10
1059.1632812499952
 20
577.10000000000105
 11
1059.1632812499943
 21
728.10000000000105
  0
LINE
  8
_0-1_計細線
  6
CONTINUOUS
 62
    3
 10
1047.7632812499946
 20
577.10000000000105
 11
1047.7632812499937
 21
728.10000000000105
  0
LINE
  8
_0-1_計細線
  6
CONTINUOUS
 62
    3
 10
1059.1632812499952
 20
577.10000000000105
 11
1047.7632812499946
 21
577.10000000000105
  0
LINE
  8
_0-1_計細線
  6
CONTINUOUS
 62
    3
 10
1059.1632812499943
 20
728.10000000000105
 11
1047.7632812499937
 21
728.10000000000105
  0
LINE
  8
_0-0_計極細
  6
CONTINUOUS
 62
    2
 10
1050.9632812499949
 20
577.10000000000105
 11
1050.963281249994
 21
728.10000000000105
  0
LINE
  8
_0-0_計極細
  6
CONTINUOUS
 62
    2
 10
1055.9632812499949
 20
577.10000000000105
 11
1055.963281249994
 21
728.10000000000105
  0
LINE
  8
_0-0_計極細
  6
CONTINUOUS
 62
    2
 10
1047.7632812499946
 20
592.10000000000105
 11
1042.1632812499945
 21
592.10000000000105
  0
LINE
  8
_0-0_計極細
  6
CONTINUOUS
 62
    2
 10
1047.7632812499946
 20
605.10000000000105
 11
1042.1632812499945
 21
605.10000000000105
  0
LINE
  8
_0-0_計極細
  6
CONTINUOUS
 62
    2
 10
1047.7632812499949
 20
700.10000000000105
 11
1042.1632812499947
 21
700.10000000000105
  0
LINE
  8
_0-0_計極細
  6
CONTINUOUS
 62
    2
 10
1047.7632812499949
 20
713.10000000000105
 11
1042.1632812499947
 21
713.10000000000105
  0
LINE
  8
_0-1_計細線
  6
CONTINUOUS
 62
    3
 10
1042.1632812499952
 20
577.10000000000105
 11
1042.1632812499943
 21
728.10000000000105
  0
LINE
  8
_0-1_計細線
  6
CONTINUOUS
 62
    3
 10
1030.7632812499946
 20
577.10000000000105
 11
1030.7632812499937
 21
728.10000000000105
  0
LINE
  8
_0-1_計細線
  6
CONTINUOUS
 62
    3
 10
1042.1632812499952
 20
577.10000000000105
 11
1030.7632812499946
 21
577.10000000000105
  0
LINE
  8
_0-1_計細線
  6
CONTINUOUS
 62
    3
 10
1042.1632812499943
 20
728.10000000000105
 11
1030.7632812499937
 21
728.10000000000105
  0
LINE
  8
_0-0_計極細
  6
CONTINUOUS
 62
    2
 10
1033.9632812499949
 20
577.10000000000105
 11
1033.963281249994
 21
728.10000000000105
  0
LINE
  8
_0-0_計極細
  6
CONTINUOUS
 62
    2
 10
1038.9632812499949
 20
577.10000000000105
 11
1038.963281249994
 21
728.10000000000105
  0
LINE
  8
_0-0_計極細
  6
CONTINUOUS
 62
    2
 10
1030.7632812499946
 20
592.10000000000105
 11
1025.1632812499947
 21
592.10000000000105
  0
LINE
  8
_0-0_計極細
  6
CONTINUOUS
 62
    2
 10
1030.7632812499946
 20
605.10000000000105
 11
1025.1632812499947
 21
605.10000000000105
  0
LINE
  8
_0-0_計極細
  6
CONTINUOUS
 62
    2
 10
1030.7632812499949
 20
700.10000000000105
 11
1025.1632812499947
 21
700.10000000000105
  0
LINE
  8
_0-0_計極細
  6
CONTINUOUS
 62
    2
 10
1030.7632812499949
 20
713.10000000000105
 11
1025.1632812499947
 21
713.10000000000105
  0
LINE
  8
_0-1_計細線
  6
CONTINUOUS
 62
    3
 10
1025.1632812499952
 20
577.10000000000105
 11
1025.1632812499943
 21
728.10000000000105
  0
LINE
  8
_0-1_計細線
  6
CONTINUOUS
 62
    3
 10
1013.7632812499947
 20
577.10000000000105
 11
1013.7632812499937
 21
728.10000000000105
  0
LINE
  8
_0-1_計細線
  6
CONTINUOUS
 62
    3
 10
1025.1632812499952
 20
577.10000000000105
 11
1013.7632812499947
 21
577.10000000000105
  0
LINE
  8
_0-1_計細線
  6
CONTINUOUS
 62
    3
 10
1025.1632812499943
 20
728.10000000000105
 11
1013.7632812499937
 21
728.10000000000105
  0
LINE
  8
_0-0_計極細
  6
CONTINUOUS
 62
    2
 10
1016.9632812499951
 20
577.10000000000105
 11
1016.9632812499941
 21
728.10000000000105
  0
LINE
  8
_0-0_計極細
  6
CONTINUOUS
 62
    2
 10
1021.9632812499951
 20
577.10000000000105
 11
1021.9632812499941
 21
728.10000000000105
  0
LINE
  8
_0-0_計極細
  6
CONTINUOUS
 62
    2
 10
1013.7632812499947
 20
592.10000000000105
 11
1008.1632812499946
 21
592.10000000000105
  0
LINE
  8
_0-0_計極細
  6
CONTINUOUS
 62
    2
 10
1013.7632812499947
 20
605.10000000000105
 11
1008.1632812499946
 21
605.10000000000105
  0
LINE
  8
_0-0_計極細
  6
CONTINUOUS
 62
    2
 10
1013.7632812499949
 20
700.10000000000105
 11
1008.1632812499947
 21
700.10000000000105
  0
LINE
  8
_0-0_計極細
  6
CONTINUOUS
 62
    2
 10
1013.7632812499949
 20
713.10000000000105
 11
1008.1632812499947
 21
713.10000000000105
  0
LINE
  8
_0-1_計細線
  6
CONTINUOUS
 62
    3
 10
1008.1632812499953
 20
577.10000000000105
 11
1008.1632812499943
 21
728.10000000000105
  0
LINE
  8
_0-1_計細線
  6
CONTINUOUS
 62
    3
 10
996.76328124999486
 20
577.10000000000105
 11
996.76328124999372
 21
728.10000000000105
  0
LINE
  8
_0-1_計細線
  6
CONTINUOUS
 62
    3
 10
1008.1632812499953
 20
577.10000000000105
 11
996.76328124999486
 21
577.10000000000105
  0
LINE
  8
_0-1_計細線
  6
CONTINUOUS
 62
    3
 10
1008.1632812499943
 20
728.10000000000105
 11
996.76328124999372
 21
728.10000000000105
  0
LINE
  8
_0-0_計極細
  6
CONTINUOUS
 62
    2
 10
999.96328124999513
 20
577.10000000000105
 11
999.96328124999411
 21
728.10000000000105
  0
LINE
  8
_0-0_計極細
  6
CONTINUOUS
 62
    2
 10
1004.9632812499951
 20
577.10000000000105
 11
1004.9632812499941
 21
728.10000000000105
  0
LINE
  8
_0-0_計極細
  6
CONTINUOUS
 62
    2
 10
996.76328124999475
 20
592.10000000000105
 11
991.1632812499945
 21
592.10000000000105
  0
LINE
  8
_0-0_計極細
  6
CONTINUOUS
 62
    2
 10
996.76328124999475
 20
605.10000000000105
 11
991.1632812499945
 21
605.10000000000105
  0
LINE
  8
_0-0_計極細
  6
CONTINUOUS
 62
    2
 10
996.76328124999486
 20
700.10000000000105
 11
991.16328124999472
 21
700.10000000000105
  0
LINE
  8
_0-0_計極細
  6
CONTINUOUS
 62
    2
 10
996.76328124999486
 20
713.10000000000105
 11
991.16328124999472
 21
713.10000000000105
  0
LINE
  8
_0-1_計細線
  6
CONTINUOUS
 62
    3
 10
991.16328124999541
 20
577.10000000000105
 11
991.16328124999427
 21
728.10000000000105
  0
LINE
  8
_0-1_計細線
  6
CONTINUOUS
 62
    3
 10
979.76328124999486
 20
577.10000000000105
 11
979.76328124999384
 21
728.10000000000105
  0
LINE
  8
_0-1_計細線
  6
CONTINUOUS
 62
    3
 10
991.16328124999541
 20
577.10000000000105
 11
979.76328124999486
 21
577.10000000000105
  0
LINE
  8
_0-1_計細線
  6
CONTINUOUS
 62
    3
 10
991.16328124999427
 20
728.10000000000105
 11
979.76328124999384
 21
728.10000000000105
  0
LINE
  8
_0-0_計極細
  6
CONTINUOUS
 62
    2
 10
982.96328124999502
 20
577.10000000000105
 11
982.963281249994
 21
728.10000000000105
  0
LINE
  8
_0-0_計極細
  6
CONTINUOUS
 62
    2
 10
987.96328124999502
 20
577.10000000000105
 11
987.963281249994
 21
728.10000000000105
  0
LINE
  8
_0-0_計極細
  6
CONTINUOUS
 62
    2
 10
979.76328124999463
 20
592.10000000000105
 11
974.1632812499945
 21
592.10000000000105
  0
LINE
  8
_0-0_計極細
  6
CONTINUOUS
 62
    2
 10
979.76328124999463
 20
605.10000000000105
 11
974.1632812499945
 21
605.10000000000105
  0
LINE
  8
_0-0_計極細
  6
CONTINUOUS
 62
    2
 10
979.76328124999498
 20
700.10000000000105
 11
974.16328124999472
 21
700.10000000000105
  0
LINE
  8
_0-0_計極細
  6
CONTINUOUS
 62
    2
 10
979.76328124999498
 20
713.10000000000105
 11
974.16328124999472
 21
713.10000000000105
  0
LINE
  8
_0-1_計細線
  6
CONTINUOUS
 62
    3
 10
974.16328124999541
 20
577.10000000000105
 11
974.16328124999438
 21
728.10000000000105
  0
LINE
  8
_0-1_計細線
  6
CONTINUOUS
 62
    3
 10
962.76328124999486
 20
577.10000000000105
 11
962.76328124999384
 21
728.10000000000105
  0
LINE
  8
_0-1_計細線
  6
CONTINUOUS
 62
    3
 10
974.16328124999541
 20
577.10000000000105
 11
962.76328124999486
 21
577.10000000000105
  0
LINE
  8
_0-1_計細線
  6
CONTINUOUS
 62
    3
 10
974.16328124999438
 20
728.10000000000105
 11
962.76328124999384
 21
728.10000000000105
  0
LINE
  8
_0-0_計極細
  6
CONTINUOUS
 62
    2
 10
965.96328124999502
 20
577.10000000000105
 11
965.963281249994
 21
728.10000000000105
  0
LINE
  8
_0-0_計極細
  6
CONTINUOUS
 62
    2
 10
970.96328124999502
 20
577.10000000000105
 11
970.963281249994
 21
728.10000000000105
  0
LINE
  8
_0-0_計極細
  6
CONTINUOUS
 62
    2
 10
962.76328124999463
 20
592.10000000000105
 11
957.1632812499945
 21
592.10000000000105
  0
LINE
  8
_0-0_計極細
  6
CONTINUOUS
 62
    2
 10
962.76328124999463
 20
605.10000000000105
 11
957.1632812499945
 21
605.10000000000105
  0
LINE
  8
_0-0_計極細
  6
CONTINUOUS
 62
    2
 10
962.76328124999498
 20
700.10000000000105
 11
957.16328124999461
 21
700.10000000000105
  0
LINE
  8
_0-0_計極細
  6
CONTINUOUS
 62
    2
 10
962.76328124999498
 20
713.10000000000105
 11
957.16328124999461
 21
713.10000000000105
  0
LINE
  8
_0-1_計細線
  6
CONTINUOUS
 62
    3
 10
957.16328124999541
 20
577.10000000000105
 11
957.16328124999438
 21
728.10000000000105
  0
LINE
  8
_0-1_計細線
  6
CONTINUOUS
 62
    3
 10
945.76328124999475
 20
577.10000000000105
 11
945.76328124999372
 21
728.10000000000105
  0
LINE
  8
_0-1_計細線
  6
CONTINUOUS
 62
    3
 10
957.16328124999541
 20
577.10000000000105
 11
945.76328124999475
 21
577.10000000000105
  0
LINE
  8
_0-1_計細線
  6
CONTINUOUS
 62
    3
 10
957.16328124999438
 20
728.10000000000105
 11
945.76328124999372
 21
728.10000000000105
  0
LINE
  8
_0-0_計極細
  6
CONTINUOUS
 62
    2
 10
948.96328124999513
 20
577.10000000000105
 11
948.963281249994
 21
728.10000000000105
  0
LINE
  8
_0-0_計極細
  6
CONTINUOUS
 62
    2
 10
953.96328124999513
 20
577.10000000000105
 11
953.963281249994
 21
728.10000000000105
  0
LINE
  8
_0-0_計極細
  6
CONTINUOUS
 62
    2
 10
945.76328124999463
 20
592.10000000000105
 11
940.16328124999461
 21
592.10000000000105
  0
LINE
  8
_0-0_計極細
  6
CONTINUOUS
 62
    2
 10
945.76328124999463
 20
605.10000000000105
 11
940.16328124999461
 21
605.10000000000105
  0
LINE
  8
_0-0_計極細
  6
CONTINUOUS
 62
    2
 10
945.76328124999486
 20
700.10000000000105
 11
940.16328124999461
 21
700.10000000000105
  0
LINE
  8
_0-0_計極細
  6
CONTINUOUS
 62
    2
 10
945.76328124999486
 20
713.10000000000105
 11
940.16328124999461
 21
713.10000000000105
  0
LINE
  8
_0-1_計細線
  6
CONTINUOUS
 62
    3
 10
940.16328124999529
 20
577.10000000000105
 11
940.16328124999427
 21
728.10000000000105
  0
LINE
  8
_0-1_計細線
  6
CONTINUOUS
 62
    3
 10
928.76328124999475
 20
577.10000000000105
 11
928.76328124999372
 21
728.10000000000105
  0
LINE
  8
_0-1_計細線
  6
CONTINUOUS
 62
    3
 10
940.16328124999529
 20
577.10000000000105
 11
928.76328124999475
 21
577.10000000000105
  0
LINE
  8
_0-1_計細線
  6
CONTINUOUS
 62
    3
 10
940.16328124999427
 20
728.10000000000105
 11
928.76328124999372
 21
728.10000000000105
  0
LINE
  8
_0-0_計極細
  6
CONTINUOUS
 62
    2
 10
931.96328124999513
 20
577.10000000000105
 11
931.96328124999411
 21
728.10000000000105
  0
LINE
  8
_0-0_計極細
  6
CONTINUOUS
 62
    2
 10
936.96328124999513
 20
577.10000000000105
 11
936.96328124999411
 21
728.10000000000105
  0
LINE
  8
_0-0_計極細
  6
CONTINUOUS
 62
    2
 10
928.76328124999475
 20
592.10000000000105
 11
923.16328124999461
 21
592.10000000000105
  0
LINE
  8
_0-0_計極細
  6
CONTINUOUS
 62
    2
 10
928.76328124999475
 20
605.10000000000105
 11
923.16328124999461
 21
605.10000000000105
  0
LINE
  8
_0-0_計極細
  6
CONTINUOUS
 62
    2
 10
928.76328124999486
 20
700.10000000000105
 11
923.16328124999472
 21
700.10000000000105
  0
LINE
  8
_0-0_計極細
  6
CONTINUOUS
 62
    2
 10
928.76328124999486
 20
713.10000000000105
 11
923.16328124999472
 21
713.10000000000105
  0
LINE
  8
_0-1_計細線
  6
CONTINUOUS
 62
    3
 10
923.16328124999529
 20
577.10000000000105
 11
923.16328124999427
 21
728.10000000000105
  0
LINE
  8
_0-1_計細線
  6
CONTINUOUS
 62
    3
 10
911.76328124999486
 20
577.10000000000105
 11
911.76328124999372
 21
728.10000000000105
  0
LINE
  8
_0-1_計細線
  6
CONTINUOUS
 62
    3
 10
923.16328124999529
 20
577.10000000000105
 11
911.76328124999486
 21
577.10000000000105
  0
LINE
  8
_0-1_計細線
  6
CONTINUOUS
 62
    3
 10
923.16328124999427
 20
728.10000000000105
 11
911.76328124999372
 21
728.10000000000105
  0
LINE
  8
_0-0_計極細
  6
CONTINUOUS
 62
    2
 10
914.96328124999513
 20
577.10000000000105
 11
914.96328124999411
 21
728.10000000000105
  0
LINE
  8
_0-0_計極細
  6
CONTINUOUS
 62
    2
 10
919.96328124999513
 20
577.10000000000105
 11
919.96328124999411
 21
728.10000000000105
  0
LINE
  8
_0-0_計極細
  6
CONTINUOUS
 62
    2
 10
911.76328124999475
 20
592.10000000000105
 11
906.1632812499945
 21
592.10000000000105
  0
LINE
  8
_0-0_計極細
  6
CONTINUOUS
 62
    2
 10
911.76328124999475
 20
605.10000000000105
 11
906.1632812499945
 21
605.10000000000105
  0
LINE
  8
_0-0_計極細
  6
CONTINUOUS
 62
    2
 10
911.76328124999486
 20
700.10000000000105
 11
906.16328124999472
 21
700.10000000000105
  0
LINE
  8
_0-0_計極細
  6
CONTINUOUS
 62
    2
 10
911.76328124999486
 20
713.10000000000105
 11
906.16328124999472
 21
713.10000000000105
  0
LINE
  8
_0-1_計細線
  6
CONTINUOUS
 62
    3
 10
906.16328124999541
 20
577.10000000000105
 11
906.16328124999427
 21
728.10000000000105
  0
LINE
  8
_0-1_計細線
  6
CONTINUOUS
 62
    3
 10
894.76328124999486
 20
577.10000000000105
 11
894.76328124999384
 21
728.10000000000105
  0
LINE
  8
_0-1_計細線
  6
CONTINUOUS
 62
    3
 10
906.16328124999541
 20
577.10000000000105
 11
894.76328124999486
 21
577.10000000000105
  0
LINE
  8
_0-1_計細線
  6
CONTINUOUS
 62
    3
 10
906.16328124999427
 20
728.10000000000105
 11
894.76328124999384
 21
728.10000000000105
  0
LINE
  8
_0-0_計極細
  6
CONTINUOUS
 62
    2
 10
897.96328124999502
 20
577.10000000000105
 11
897.963281249994
 21
728.10000000000105
  0
LINE
  8
_0-0_計極細
  6
CONTINUOUS
 62
    2
 10
902.96328124999502
 20
577.10000000000105
 11
902.963281249994
 21
728.10000000000105
  0
LINE
  8
_0-0_計極細
  6
CONTINUOUS
 62
    2
 10
894.76328124999463
 20
592.10000000000105
 11
889.1632812499945
 21
592.10000000000105
  0
LINE
  8
_0-0_計極細
  6
CONTINUOUS
 62
    2
 10
894.76328124999463
 20
605.10000000000105
 11
889.1632812499945
 21
605.10000000000105
  0
LINE
  8
_0-0_計極細
  6
CONTINUOUS
 62
    2
 10
894.76328124999498
 20
700.10000000000105
 11
889.16328124999472
 21
700.10000000000105
  0
LINE
  8
_0-0_計極細
  6
CONTINUOUS
 62
    2
 10
894.76328124999498
 20
713.10000000000105
 11
889.16328124999472
 21
713.10000000000105
  0
LINE
  8
_0-1_計細線
  6
CONTINUOUS
 62
    3
 10
889.16328124999541
 20
577.10000000000105
 11
889.16328124999438
 21
728.10000000000105
  0
LINE
  8
_0-1_計細線
  6
CONTINUOUS
 62
    3
 10
877.76328124999486
 20
577.10000000000105
 11
877.76328124999384
 21
728.10000000000105
  0
LINE
  8
_0-1_計細線
  6
CONTINUOUS
 62
    3
 10
889.16328124999541
 20
577.10000000000105
 11
877.76328124999486
 21
577.10000000000105
  0
LINE
  8
_0-1_計細線
  6
CONTINUOUS
 62
    3
 10
889.16328124999438
 20
728.10000000000105
 11
877.76328124999384
 21
728.10000000000105
  0
LINE
  8
_0-0_計極細
  6
CONTINUOUS
 62
    2
 10
880.96328124999502
 20
577.10000000000105
 11
880.963281249994
 21
728.10000000000105
  0
LINE
  8
_0-0_計極細
  6
CONTINUOUS
 62
    2
 10
885.96328124999502
 20
577.10000000000105
 11
885.963281249994
 21
728.10000000000105
  0
LINE
  8
_0-0_計極細
  6
CONTINUOUS
 62
    2
 10
877.76328124999463
 20
592.10000000000105
 11
872.1632812499945
 21
592.10000000000105
  0
LINE
  8
_0-0_計極細
  6
CONTINUOUS
 62
    2
 10
877.76328124999463
 20
605.10000000000105
 11
872.1632812499945
 21
605.10000000000105
  0
LINE
  8
_0-0_計極細
  6
CONTINUOUS
 62
    2
 10
877.76328124999498
 20
700.10000000000105
 11
872.16328124999461
 21
700.10000000000105
  0
LINE
  8
_0-0_計極細
  6
CONTINUOUS
 62
    2
 10
877.76328124999498
 20
713.10000000000105
 11
872.16328124999461
 21
713.10000000000105
  0
LINE
  8
_0-1_計細線
  6
CONTINUOUS
 62
    3
 10
872.16328124999541
 20
577.10000000000105
 11
872.16328124999438
 21
728.10000000000105
  0
LINE
  8
_0-1_計細線
  6
CONTINUOUS
 62
    3
 10
860.76328124999475
 20
577.10000000000105
 11
860.76328124999372
 21
728.10000000000105
  0
LINE
  8
_0-1_計細線
  6
CONTINUOUS
 62
    3
 10
872.16328124999541
 20
577.10000000000105
 11
860.76328124999475
 21
577.10000000000105
  0
LINE
  8
_0-1_計細線
  6
CONTINUOUS
 62
    3
 10
872.16328124999438
 20
728.10000000000105
 11
860.76328124999372
 21
728.10000000000105
  0
LINE
  8
_0-0_計極細
  6
CONTINUOUS
 62
    2
 10
863.96328124999513
 20
577.10000000000105
 11
863.963281249994
 21
728.10000000000105
  0
LINE
  8
_0-0_計極細
  6
CONTINUOUS
 62
    2
 10
868.96328124999513
 20
577.10000000000105
 11
868.963281249994
 21
728.10000000000105
  0
LINE
  8
_0-0_計極細
  6
CONTINUOUS
 62
    2
 10
860.76328124999463
 20
592.10000000000105
 11
855.16328124999461
 21
592.10000000000105
  0
LINE
  8
_0-0_計極細
  6
CONTINUOUS
 62
    2
 10
860.76328124999463
 20
605.10000000000105
 11
855.16328124999461
 21
605.10000000000105
  0
LINE
  8
_0-0_計極細
  6
CONTINUOUS
 62
    2
 10
860.76328124999486
 20
700.10000000000105
 11
855.16328124999461
 21
700.10000000000105
  0
LINE
  8
_0-0_計極細
  6
CONTINUOUS
 62
    2
 10
860.76328124999486
 20
713.10000000000105
 11
855.16328124999461
 21
713.10000000000105
  0
LINE
  8
_0-1_計細線
  6
CONTINUOUS
 62
    3
 10
855.16328124999529
 20
577.10000000000105
 11
855.16328124999427
 21
728.10000000000105
  0
LINE
  8
_0-1_計細線
  6
CONTINUOUS
 62
    3
 10
843.76328124999475
 20
577.10000000000105
 11
843.76328124999372
 21
728.10000000000105
  0
LINE
  8
_0-1_計細線
  6
CONTINUOUS
 62
    3
 10
855.16328124999529
 20
577.10000000000105
 11
843.76328124999475
 21
577.10000000000105
  0
LINE
  8
_0-1_計細線
  6
CONTINUOUS
 62
    3
 10
855.16328124999427
 20
728.10000000000105
 11
843.76328124999372
 21
728.10000000000105
  0
LINE
  8
_0-0_計極細
  6
CONTINUOUS
 62
    2
 10
846.96328124999513
 20
577.10000000000105
 11
846.96328124999411
 21
728.10000000000105
  0
LINE
  8
_0-0_計極細
  6
CONTINUOUS
 62
    2
 10
851.96328124999513
 20
577.10000000000105
 11
851.96328124999411
 21
728.10000000000105
  0
LINE
  8
_0-0_計極細
  6
CONTINUOUS
 62
    2
 10
843.76328124999475
 20
592.10000000000105
 11
838.16328124999461
 21
592.10000000000105
  0
LINE
  8
_0-0_計極細
  6
CONTINUOUS
 62
    2
 10
843.76328124999475
 20
605.10000000000105
 11
838.16328124999461
 21
605.10000000000105
  0
LINE
  8
_0-0_計極細
  6
CONTINUOUS
 62
    2
 10
843.76328124999486
 20
700.10000000000105
 11
838.16328124999472
 21
700.10000000000105
  0
LINE
  8
_0-0_計極細
  6
CONTINUOUS
 62
    2
 10
843.76328124999486
 20
713.10000000000105
 11
838.16328124999472
 21
713.10000000000105
  0
LINE
  8
_0-1_計細線
  6
CONTINUOUS
 62
    3
 10
838.16328124999529
 20
577.10000000000105
 11
838.16328124999427
 21
728.10000000000105
  0
LINE
  8
_0-1_計細線
  6
CONTINUOUS
 62
    3
 10
826.76328124999486
 20
577.10000000000105
 11
826.76328124999372
 21
728.10000000000105
  0
LINE
  8
_0-1_計細線
  6
CONTINUOUS
 62
    3
 10
838.16328124999529
 20
577.10000000000105
 11
826.76328124999486
 21
577.10000000000105
  0
LINE
  8
_0-1_計細線
  6
CONTINUOUS
 62
    3
 10
838.16328124999427
 20
728.10000000000105
 11
826.76328124999372
 21
728.10000000000105
  0
LINE
  8
_0-0_計極細
  6
CONTINUOUS
 62
    2
 10
829.96328124999513
 20
577.10000000000105
 11
829.96328124999411
 21
728.10000000000105
  0
LINE
  8
_0-0_計極細
  6
CONTINUOUS
 62
    2
 10
834.96328124999513
 20
577.10000000000105
 11
834.96328124999411
 21
728.10000000000105
  0
LINE
  8
_0-0_計極細
  6
CONTINUOUS
 62
    2
 10
826.76328124999475
 20
592.10000000000105
 11
821.1632812499945
 21
592.10000000000105
  0
LINE
  8
_0-0_計極細
  6
CONTINUOUS
 62
    2
 10
826.76328124999475
 20
605.10000000000105
 11
821.1632812499945
 21
605.10000000000105
  0
LINE
  8
_0-0_計極細
  6
CONTINUOUS
 62
    2
 10
826.76328124999486
 20
700.10000000000105
 11
821.16328124999472
 21
700.10000000000105
  0
LINE
  8
_0-0_計極細
  6
CONTINUOUS
 62
    2
 10
826.76328124999486
 20
713.10000000000105
 11
821.16328124999472
 21
713.10000000000105
  0
LINE
  8
_0-1_計細線
  6
CONTINUOUS
 62
    3
 10
821.16328124999541
 20
577.10000000000105
 11
821.16328124999427
 21
728.10000000000105
  0
LINE
  8
_0-1_計細線
  6
CONTINUOUS
 62
    3
 10
809.76328124999486
 20
577.10000000000105
 11
809.76328124999384
 21
728.10000000000105
  0
LINE
  8
_0-1_計細線
  6
CONTINUOUS
 62
    3
 10
821.16328124999541
 20
577.10000000000105
 11
809.76328124999486
 21
577.10000000000105
  0
LINE
  8
_0-1_計細線
  6
CONTINUOUS
 62
    3
 10
821.16328124999427
 20
728.10000000000105
 11
809.76328124999384
 21
728.10000000000105
  0
LINE
  8
_0-0_計極細
  6
CONTINUOUS
 62
    2
 10
812.96328124999502
 20
577.10000000000105
 11
812.963281249994
 21
728.10000000000105
  0
LINE
  8
_0-0_計極細
  6
CONTINUOUS
 62
    2
 10
817.96328124999502
 20
577.10000000000105
 11
817.963281249994
 21
728.10000000000105
  0
LINE
  8
_0-0_計極細
  6
CONTINUOUS
 62
    2
 10
809.76328124999463
 20
592.10000000000105
 11
804.1632812499945
 21
592.10000000000105
  0
LINE
  8
_0-0_計極細
  6
CONTINUOUS
 62
    2
 10
809.76328124999463
 20
605.10000000000105
 11
804.1632812499945
 21
605.10000000000105
  0
LINE
  8
_0-0_計極細
  6
CONTINUOUS
 62
    2
 10
809.76328124999498
 20
700.10000000000105
 11
804.16328124999472
 21
700.10000000000105
  0
LINE
  8
_0-0_計極細
  6
CONTINUOUS
 62
    2
 10
809.76328124999498
 20
713.10000000000105
 11
804.16328124999472
 21
713.10000000000105
  0
LINE
  8
_0-1_計細線
  6
CONTINUOUS
 62
    3
 10
804.16328124999541
 20
577.10000000000105
 11
804.16328124999438
 21
728.10000000000105
  0
LINE
  8
_0-1_計細線
  6
CONTINUOUS
 62
    3
 10
792.76328124999486
 20
577.10000000000105
 11
792.76328124999384
 21
728.10000000000105
  0
LINE
  8
_0-1_計細線
  6
CONTINUOUS
 62
    3
 10
804.16328124999541
 20
577.10000000000105
 11
792.76328124999486
 21
577.10000000000105
  0
LINE
  8
_0-1_計細線
  6
CONTINUOUS
 62
    3
 10
804.16328124999438
 20
728.10000000000105
 11
792.76328124999384
 21
728.10000000000105
  0
LINE
  8
_0-0_計極細
  6
CONTINUOUS
 62
    2
 10
795.96328124999502
 20
577.10000000000105
 11
795.963281249994
 21
728.10000000000105
  0
LINE
  8
_0-0_計極細
  6
CONTINUOUS
 62
    2
 10
800.96328124999502
 20
577.10000000000105
 11
800.963281249994
 21
728.10000000000105
  0
LINE
  8
_0-0_計極細
  6
CONTINUOUS
 62
    2
 10
792.76328124999463
 20
592.10000000000105
 11
787.1632812499945
 21
592.10000000000105
  0
LINE
  8
_0-0_計極細
  6
CONTINUOUS
 62
    2
 10
792.76328124999463
 20
605.10000000000105
 11
787.1632812499945
 21
605.10000000000105
  0
LINE
  8
_0-0_計極細
  6
CONTINUOUS
 62
    2
 10
792.76328124999498
 20
700.10000000000105
 11
787.16328124999461
 21
700.10000000000105
  0
LINE
  8
_0-0_計極細
  6
CONTINUOUS
 62
    2
 10
792.76328124999498
 20
713.10000000000105
 11
787.16328124999461
 21
713.10000000000105
  0
LINE
  8
_0-1_計細線
  6
CONTINUOUS
 62
    3
 10
787.16328124999541
 20
577.10000000000105
 11
787.16328124999438
 21
728.10000000000105
  0
LINE
  8
_0-1_計細線
  6
CONTINUOUS
 62
    3
 10
775.76328124999475
 20
577.10000000000105
 11
775.76328124999372
 21
728.10000000000105
  0
LINE
  8
_0-1_計細線
  6
CONTINUOUS
 62
    3
 10
787.16328124999541
 20
577.10000000000105
 11
775.76328124999475
 21
577.10000000000105
  0
LINE
  8
_0-1_計細線
  6
CONTINUOUS
 62
    3
 10
787.16328124999438
 20
728.10000000000105
 11
775.76328124999372
 21
728.10000000000105
  0
LINE
  8
_0-0_計極細
  6
CONTINUOUS
 62
    2
 10
778.96328124999513
 20
577.10000000000105
 11
778.963281249994
 21
728.10000000000105
  0
LINE
  8
_0-0_計極細
  6
CONTINUOUS
 62
    2
 10
783.96328124999513
 20
577.10000000000105
 11
783.963281249994
 21
728.10000000000105
  0
LINE
  8
_0-0_計極細
  6
CONTINUOUS
 62
    2
 10
775.76328124999463
 20
592.10000000000105
 11
770.16328124999461
 21
592.10000000000105
  0
LINE
  8
_0-0_計極細
  6
CONTINUOUS
 62
    2
 10
775.76328124999463
 20
605.10000000000105
 11
770.16328124999461
 21
605.10000000000105
  0
LINE
  8
_0-0_計極細
  6
CONTINUOUS
 62
    2
 10
775.76328124999486
 20
700.10000000000105
 11
770.16328124999461
 21
700.10000000000105
  0
LINE
  8
_0-0_計極細
  6
CONTINUOUS
 62
    2
 10
775.76328124999486
 20
713.10000000000105
 11
770.16328124999461
 21
713.10000000000105
  0
LINE
  8
_0-1_計細線
  6
CONTINUOUS
 62
    3
 10
770.16328124999529
 20
577.10000000000105
 11
770.16328124999427
 21
728.10000000000105
  0
LINE
  8
_0-1_計細線
  6
CONTINUOUS
 62
    3
 10
758.76328124999475
 20
577.10000000000105
 11
758.76328124999372
 21
728.10000000000105
  0
LINE
  8
_0-1_計細線
  6
CONTINUOUS
 62
    3
 10
770.16328124999529
 20
577.10000000000105
 11
758.76328124999475
 21
577.10000000000105
  0
LINE
  8
_0-1_計細線
  6
CONTINUOUS
 62
    3
 10
770.16328124999427
 20
728.10000000000105
 11
758.76328124999372
 21
728.10000000000105
  0
LINE
  8
_0-0_計極細
  6
CONTINUOUS
 62
    2
 10
761.96328124999513
 20
577.10000000000105
 11
761.963281249994
 21
728.10000000000105
  0
LINE
  8
_0-0_計極細
  6
CONTINUOUS
 62
    2
 10
766.96328124999513
 20
577.10000000000105
 11
766.963281249994
 21
728.10000000000105
  0
LINE
  8
_0-0_計極細
  6
CONTINUOUS
 62
    2
 10
758.76328124999463
 20
592.10000000000105
 11
753.16328124999461
 21
592.10000000000105
  0
LINE
  8
_0-0_計極細
  6
CONTINUOUS
 62
    2
 10
758.76328124999463
 20
605.10000000000105
 11
753.16328124999461
 21
605.10000000000105
  0
LINE
  8
_0-0_計極細
  6
CONTINUOUS
 62
    2
 10
758.76328124999486
 20
700.10000000000105
 11
753.16328124999461
 21
700.10000000000105
  0
LINE
  8
_0-0_計極細
  6
CONTINUOUS
 62
    2
 10
758.76328124999486
 20
713.10000000000105
 11
753.16328124999461
 21
713.10000000000105
  0
LINE
  8
_0-1_計細線
  6
CONTINUOUS
 62
    3
 10
753.16328124999529
 20
577.10000000000105
 11
753.16328124999427
 21
728.10000000000105
  0
LINE
  8
_0-1_計細線
  6
CONTINUOUS
 62
    3
 10
741.76328124999475
 20
577.10000000000105
 11
741.76328124999372
 21
728.10000000000105
  0
LINE
  8
_0-1_計細線
  6
CONTINUOUS
 62
    3
 10
753.16328124999529
 20
577.10000000000105
 11
741.76328124999475
 21
577.10000000000105
  0
LINE
  8
_0-1_計細線
  6
CONTINUOUS
 62
    3
 10
753.16328124999427
 20
728.10000000000105
 11
741.76328124999372
 21
728.10000000000105
  0
LINE
  8
_0-0_計極細
  6
CONTINUOUS
 62
    2
 10
744.96328124999513
 20
577.10000000000105
 11
744.96328124999411
 21
728.10000000000105
  0
LINE
  8
_0-0_計極細
  6
CONTINUOUS
 62
    2
 10
749.96328124999513
 20
577.10000000000105
 11
749.96328124999411
 21
728.10000000000105
  0
LINE
  8
_0-0_計極細
  6
CONTINUOUS
 62
    2
 10
741.76328124999475
 20
592.10000000000105
 11
736.1632812499945
 21
592.10000000000105
  0
LINE
  8
_0-0_計極細
  6
CONTINUOUS
 62
    2
 10
741.76328124999475
 20
605.10000000000105
 11
736.1632812499945
 21
605.10000000000105
  0
LINE
  8
_0-0_計極細
  6
CONTINUOUS
 62
    2
 10
741.76328124999486
 20
700.10000000000105
 11
736.16328124999472
 21
700.10000000000105
  0
LINE
  8
_0-0_計極細
  6
CONTINUOUS
 62
    2
 10
741.76328124999486
 20
713.10000000000105
 11
736.16328124999472
 21
713.10000000000105
  0
LINE
  8
_0-1_計細線
  6
CONTINUOUS
 62
    3
 10
736.16328124999529
 20
577.10000000000105
 11
736.16328124999427
 21
728.10000000000105
  0
LINE
  8
_0-1_計細線
  6
CONTINUOUS
 62
    3
 10
724.76328124999486
 20
577.10000000000105
 11
724.76328124999372
 21
728.10000000000105
  0
LINE
  8
_0-1_計細線
  6
CONTINUOUS
 62
    3
 10
736.16328124999529
 20
577.10000000000105
 11
724.76328124999486
 21
577.10000000000105
  0
LINE
  8
_0-1_計細線
  6
CONTINUOUS
 62
    3
 10
736.16328124999427
 20
728.10000000000105
 11
724.76328124999372
 21
728.10000000000105
  0
LINE
  8
_0-0_計極細
  6
CONTINUOUS
 62
    2
 10
727.96328124999502
 20
577.10000000000105
 11
727.963281249994
 21
728.10000000000105
  0
LINE
  8
_0-0_計極細
  6
CONTINUOUS
 62
    2
 10
732.96328124999502
 20
577.10000000000105
 11
732.963281249994
 21
728.10000000000105
  0
LINE
  8
_0-0_計極細
  6
CONTINUOUS
 62
    2
 10
724.76328124999463
 20
592.10000000000105
 11
719.1632812499945
 21
592.10000000000105
  0
LINE
  8
_0-0_計極細
  6
CONTINUOUS
 62
    2
 10
724.76328124999463
 20
605.10000000000105
 11
719.1632812499945
 21
605.10000000000105
  0
LINE
  8
_0-0_計極細
  6
CONTINUOUS
 62
    2
 10
724.76328124999486
 20
700.10000000000105
 11
719.16328124999472
 21
700.10000000000105
  0
LINE
  8
_0-0_計極細
  6
CONTINUOUS
 62
    2
 10
724.76328124999486
 20
713.10000000000105
 11
719.16328124999472
 21
713.10000000000105
  0
LINE
  8
_0-1_計細線
  6
CONTINUOUS
 62
    3
 10
719.16328124999541
 20
577.10000000000105
 11
719.16328124999427
 21
728.10000000000105
  0
LINE
  8
_0-1_計細線
  6
CONTINUOUS
 62
    3
 10
707.76328124999486
 20
577.10000000000105
 11
707.76328124999384
 21
728.10000000000105
  0
LINE
  8
_0-1_計細線
  6
CONTINUOUS
 62
    3
 10
719.16328124999541
 20
577.10000000000105
 11
707.76328124999486
 21
577.10000000000105
  0
LINE
  8
_0-1_計細線
  6
CONTINUOUS
 62
    3
 10
719.16328124999427
 20
728.10000000000105
 11
707.76328124999384
 21
728.10000000000105
  0
LINE
  8
_0-0_計極細
  6
CONTINUOUS
 62
    2
 10
710.96328124999502
 20
577.10000000000105
 11
710.963281249994
 21
728.10000000000105
  0
LINE
  8
_0-0_計極細
  6
CONTINUOUS
 62
    2
 10
715.96328124999502
 20
577.10000000000105
 11
715.963281249994
 21
728.10000000000105
  0
LINE
  8
_0-0_計極細
  6
CONTINUOUS
 62
    2
 10
707.76328124999463
 20
592.10000000000105
 11
702.1632812499945
 21
592.10000000000105
  0
LINE
  8
_0-0_計極細
  6
CONTINUOUS
 62
    2
 10
707.76328124999463
 20
605.10000000000105
 11
702.1632812499945
 21
605.10000000000105
  0
LINE
  8
_0-0_計極細
  6
CONTINUOUS
 62
    2
 10
707.76328124999498
 20
700.10000000000105
 11
702.16328124999461
 21
700.10000000000105
  0
LINE
  8
_0-0_計極細
  6
CONTINUOUS
 62
    2
 10
707.76328124999498
 20
713.10000000000105
 11
702.16328124999461
 21
713.10000000000105
  0
LINE
  8
_0-1_計細線
  6
CONTINUOUS
 62
    3
 10
702.16328124999541
 20
577.10000000000105
 11
702.16328124999438
 21
728.10000000000105
  0
LINE
  8
_0-1_計細線
  6
CONTINUOUS
 62
    3
 10
690.76328124999475
 20
577.10000000000105
 11
690.76328124999372
 21
728.10000000000105
  0
LINE
  8
_0-1_計細線
  6
CONTINUOUS
 62
    3
 10
702.16328124999541
 20
577.10000000000105
 11
690.76328124999475
 21
577.10000000000105
  0
LINE
  8
_0-1_計細線
  6
CONTINUOUS
 62
    3
 10
702.16328124999438
 20
728.10000000000105
 11
690.76328124999372
 21
728.10000000000105
  0
LINE
  8
_0-0_計極細
  6
CONTINUOUS
 62
    2
 10
693.96328124999502
 20
577.10000000000105
 11
693.963281249994
 21
728.10000000000105
  0
LINE
  8
_0-0_計極細
  6
CONTINUOUS
 62
    2
 10
698.96328124999502
 20
577.10000000000105
 11
698.963281249994
 21
728.10000000000105
  0
LINE
  8
_0-0_計極細
  6
CONTINUOUS
 62
    2
 10
690.76328124999463
 20
592.10000000000105
 11
685.1632812499945
 21
592.10000000000105
  0
LINE
  8
_0-0_計極細
  6
CONTINUOUS
 62
    2
 10
690.76328124999463
 20
605.10000000000105
 11
685.1632812499945
 21
605.10000000000105
  0
LINE
  8
_0-0_計極細
  6
CONTINUOUS
 62
    2
 10
690.76328124999486
 20
700.10000000000105
 11
685.16328124999461
 21
700.10000000000105
  0
LINE
  8
_0-0_計極細
  6
CONTINUOUS
 62
    2
 10
690.76328124999486
 20
713.10000000000105
 11
685.16328124999461
 21
713.10000000000105
  0
LINE
  8
_0-1_計細線
  6
CONTINUOUS
 62
    3
 10
685.16328124999529
 20
577.10000000000105
 11
685.16328124999427
 21
728.10000000000105
  0
LINE
  8
_0-1_計細線
  6
CONTINUOUS
 62
    3
 10
673.76328124999475
 20
577.10000000000105
 11
673.76328124999372
 21
728.10000000000105
  0
LINE
  8
_0-1_計細線
  6
CONTINUOUS
 62
    3
 10
685.16328124999529
 20
577.10000000000105
 11
673.76328124999475
 21
577.10000000000105
  0
LINE
  8
_0-1_計細線
  6
CONTINUOUS
 62
    3
 10
685.16328124999427
 20
728.10000000000105
 11
673.76328124999372
 21
728.10000000000105
  0
LINE
  8
_0-0_計極細
  6
CONTINUOUS
 62
    2
 10
676.96328124999513
 20
577.10000000000105
 11
676.963281249994
 21
728.10000000000105
  0
LINE
  8
_0-0_計極細
  6
CONTINUOUS
 62
    2
 10
681.96328124999513
 20
577.10000000000105
 11
681.963281249994
 21
728.10000000000105
  0
LINE
  8
_0-0_計極細
  6
CONTINUOUS
 62
    2
 10
673.76328124999463
 20
592.10000000000105
 11
668.16328124999461
 21
592.10000000000105
  0
LINE
  8
_0-0_計極細
  6
CONTINUOUS
 62
    2
 10
673.76328124999463
 20
605.10000000000105
 11
668.16328124999461
 21
605.10000000000105
  0
LINE
  8
_0-0_計極細
  6
CONTINUOUS
 62
    2
 10
673.76328124999486
 20
700.10000000000105
 11
668.16328124999461
 21
700.10000000000105
  0
LINE
  8
_0-0_計極細
  6
CONTINUOUS
 62
    2
 10
673.76328124999486
 20
713.10000000000105
 11
668.16328124999461
 21
713.10000000000105
  0
LINE
  8
_0-1_計細線
  6
CONTINUOUS
 62
    3
 10
668.16328124999529
 20
577.10000000000105
 11
668.16328124999427
 21
728.10000000000105
  0
LINE
  8
_0-1_計細線
  6
CONTINUOUS
 62
    3
 10
656.76328124999475
 20
577.10000000000105
 11
656.76328124999372
 21
728.10000000000105
  0
LINE
  8
_0-1_計細線
  6
CONTINUOUS
 62
    3
 10
668.16328124999529
 20
577.10000000000105
 11
656.76328124999475
 21
577.10000000000105
  0
LINE
  8
_0-1_計細線
  6
CONTINUOUS
 62
    3
 10
668.16328124999427
 20
728.10000000000105
 11
656.76328124999372
 21
728.10000000000105
  0
LINE
  8
_0-0_計極細
  6
CONTINUOUS
 62
    2
 10
659.96328124999513
 20
577.10000000000105
 11
659.96328124999411
 21
728.10000000000105
  0
LINE
  8
_0-0_計極細
  6
CONTINUOUS
 62
    2
 10
664.96328124999513
 20
577.10000000000105
 11
664.96328124999411
 21
728.10000000000105
  0
LINE
  8
_0-0_計極細
  6
CONTINUOUS
 62
    2
 10
656.76328124999475
 20
592.10000000000105
 11
651.1632812499945
 21
592.10000000000105
  0
LINE
  8
_0-0_計極細
  6
CONTINUOUS
 62
    2
 10
656.76328124999475
 20
605.10000000000105
 11
651.1632812499945
 21
605.10000000000105
  0
LINE
  8
_0-0_計極細
  6
CONTINUOUS
 62
    2
 10
656.76328124999486
 20
700.10000000000105
 11
651.16328124999472
 21
700.10000000000105
  0
LINE
  8
_0-0_計極細
  6
CONTINUOUS
 62
    2
 10
656.76328124999486
 20
713.10000000000105
 11
651.16328124999472
 21
713.10000000000105
  0
LINE
  8
_0-1_計細線
  6
CONTINUOUS
 62
    3
 10
651.16328124999529
 20
577.10000000000105
 11
651.16328124999427
 21
728.10000000000105
  0
LINE
  8
_0-1_計細線
  6
CONTINUOUS
 62
    3
 10
639.76328124999475
 20
577.10000000000105
 11
639.76328124999372
 21
728.10000000000105
  0
LINE
  8
_0-1_計細線
  6
CONTINUOUS
 62
    3
 10
651.16328124999529
 20
577.10000000000105
 11
639.76328124999475
 21
577.10000000000105
  0
LINE
  8
_0-1_計細線
  6
CONTINUOUS
 62
    3
 10
651.16328124999427
 20
728.10000000000105
 11
639.76328124999372
 21
728.10000000000105
  0
LINE
  8
_0-0_計極細
  6
CONTINUOUS
 62
    2
 10
642.96328124999502
 20
577.10000000000105
 11
642.963281249994
 21
728.10000000000105
  0
LINE
  8
_0-0_計極細
  6
CONTINUOUS
 62
    2
 10
647.96328124999502
 20
577.10000000000105
 11
647.963281249994
 21
728.10000000000105
  0
LINE
  8
_0-0_計極細
  6
CONTINUOUS
 62
    2
 10
639.76328124999463
 20
592.10000000000105
 11
634.1632812499945
 21
592.10000000000105
  0
LINE
  8
_0-0_計極細
  6
CONTINUOUS
 62
    2
 10
639.76328124999463
 20
605.10000000000105
 11
634.1632812499945
 21
605.10000000000105
  0
LINE
  8
_0-0_計極細
  6
CONTINUOUS
 62
    2
 10
639.76328124999486
 20
700.10000000000105
 11
634.16328124999472
 21
700.10000000000105
  0
LINE
  8
_0-0_計極細
  6
CONTINUOUS
 62
    2
 10
639.76328124999486
 20
713.10000000000105
 11
634.16328124999472
 21
713.10000000000105
  0
LINE
  8
_0-1_計細線
  6
CONTINUOUS
 62
    3
 10
634.16328124999529
 20
577.10000000000105
 11
634.16328124999427
 21
728.10000000000105
  0
LINE
  8
_0-1_計細線
  6
CONTINUOUS
 62
    3
 10
622.76328124999486
 20
577.10000000000105
 11
622.76328124999372
 21
728.10000000000105
  0
LINE
  8
_0-1_計細線
  6
CONTINUOUS
 62
    3
 10
634.16328124999529
 20
577.10000000000105
 11
622.76328124999486
 21
577.10000000000105
  0
LINE
  8
_0-1_計細線
  6
CONTINUOUS
 62
    3
 10
634.16328124999427
 20
728.10000000000105
 11
622.76328124999372
 21
728.10000000000105
  0
LINE
  8
_0-0_計極細
  6
CONTINUOUS
 62
    2
 10
625.96328124999502
 20
577.10000000000105
 11
625.963281249994
 21
728.10000000000105
  0
LINE
  8
_0-0_計極細
  6
CONTINUOUS
 62
    2
 10
630.96328124999502
 20
577.10000000000105
 11
630.963281249994
 21
728.10000000000105
  0
LINE
  8
_0-0_計極細
  6
CONTINUOUS
 62
    2
 10
622.76328124999463
 20
592.10000000000105
 11
617.1632812499945
 21
592.10000000000105
  0
LINE
  8
_0-0_計極細
  6
CONTINUOUS
 62
    2
 10
622.76328124999463
 20
605.10000000000105
 11
617.1632812499945
 21
605.10000000000105
  0
LINE
  8
_0-0_計極細
  6
CONTINUOUS
 62
    2
 10
622.76328124999486
 20
700.10000000000105
 11
617.16328124999461
 21
700.10000000000105
  0
LINE
  8
_0-0_計極細
  6
CONTINUOUS
 62
    2
 10
622.76328124999486
 20
713.10000000000105
 11
617.16328124999461
 21
713.10000000000105
  0
LINE
  8
_0-1_計細線
  6
CONTINUOUS
 62
    3
 10
617.16328124999541
 20
577.10000000000105
 11
617.16328124999427
 21
728.10000000000105
  0
LINE
  8
_0-1_計細線
  6
CONTINUOUS
 62
    3
 10
605.76328124999475
 20
577.10000000000105
 11
605.76328124999372
 21
728.10000000000105
  0
LINE
  8
_0-1_計細線
  6
CONTINUOUS
 62
    3
 10
617.16328124999541
 20
577.10000000000105
 11
605.76328124999475
 21
577.10000000000105
  0
LINE
  8
_0-1_計細線
  6
CONTINUOUS
 62
    3
 10
617.16328124999427
 20
728.10000000000105
 11
605.76328124999372
 21
728.10000000000105
  0
LINE
  8
_0-0_計極細
  6
CONTINUOUS
 62
    2
 10
608.96328124999502
 20
577.10000000000105
 11
608.963281249994
 21
728.10000000000105
  0
LINE
  8
_0-0_計極細
  6
CONTINUOUS
 62
    2
 10
613.96328124999502
 20
577.10000000000105
 11
613.963281249994
 21
728.10000000000105
  0
LINE
  8
_0-0_計極細
  6
CONTINUOUS
 62
    2
 10
605.76328124999463
 20
592.10000000000105
 11
600.1632812499945
 21
592.10000000000105
  0
LINE
  8
_0-0_計極細
  6
CONTINUOUS
 62
    2
 10
605.76328124999463
 20
605.10000000000105
 11
600.1632812499945
 21
605.10000000000105
  0
LINE
  8
_0-0_計極細
  6
CONTINUOUS
 62
    2
 10
605.76328124999486
 20
700.10000000000105
 11
600.16328124999461
 21
700.10000000000105
  0
LINE
  8
_0-0_計極細
  6
CONTINUOUS
 62
    2
 10
605.76328124999486
 20
713.10000000000105
 11
600.16328124999461
 21
713.10000000000105
  0
LINE
  8
_0-1_計細線
  6
CONTINUOUS
 62
    3
 10
600.16328124999529
 20
577.10000000000105
 11
600.16328124999427
 21
728.10000000000105
  0
LINE
  8
_0-1_計細線
  6
CONTINUOUS
 62
    3
 10
588.76328124999475
 20
577.10000000000105
 11
588.76328124999372
 21
728.10000000000105
  0
LINE
  8
_0-1_計細線
  6
CONTINUOUS
 62
    3
 10
600.16328124999529
 20
577.10000000000105
 11
588.76328124999475
 21
577.10000000000105
  0
LINE
  8
_0-1_計細線
  6
CONTINUOUS
 62
    3
 10
600.16328124999427
 20
728.10000000000105
 11
588.76328124999372
 21
728.10000000000105
  0
LINE
  8
_0-0_計極細
  6
CONTINUOUS
 62
    2
 10
591.96328124999502
 20
577.10000000000105
 11
591.963281249994
 21
728.10000000000105
  0
LINE
  8
_0-0_計極細
  6
CONTINUOUS
 62
    2
 10
596.96328124999502
 20
577.10000000000105
 11
596.963281249994
 21
728.10000000000105
  0
LINE
  8
_0-0_計極細
  6
CONTINUOUS
 62
    2
 10
588.76328124999463
 20
592.10000000000105
 11
583.1632812499945
 21
592.10000000000105
  0
LINE
  8
_0-0_計極細
  6
CONTINUOUS
 62
    2
 10
588.76328124999463
 20
605.10000000000105
 11
583.1632812499945
 21
605.10000000000105
  0
LINE
  8
_0-0_計極細
  6
CONTINUOUS
 62
    2
 10
588.76328124999486
 20
700.10000000000105
 11
583.16328124999461
 21
700.10000000000105
  0
LINE
  8
_0-0_計極細
  6
CONTINUOUS
 62
    2
 10
588.76328124999486
 20
713.10000000000105
 11
583.16328124999461
 21
713.10000000000105
  0
LINE
  8
_0-1_計細線
  6
CONTINUOUS
 62
    3
 10
583.16328124999529
 20
577.10000000000105
 11
583.16328124999427
 21
728.10000000000105
  0
LINE
  8
_0-1_計細線
  6
CONTINUOUS
 62
    3
 10
571.76328124999475
 20
577.10000000000105
 11
571.76328124999372
 21
728.10000000000105
  0
LINE
  8
_0-1_計細線
  6
CONTINUOUS
 62
    3
 10
583.16328124999529
 20
577.10000000000105
 11
571.76328124999475
 21
577.10000000000105
  0
LINE
  8
_0-1_計細線
  6
CONTINUOUS
 62
    3
 10
583.16328124999427
 20
728.10000000000105
 11
571.76328124999372
 21
728.10000000000105
  0
LINE
  8
_0-0_計極細
  6
CONTINUOUS
 62
    2
 10
574.96328124999513
 20
577.10000000000105
 11
574.963281249994
 21
728.10000000000105
  0
LINE
  8
_0-0_計極細
  6
CONTINUOUS
 62
    2
 10
579.96328124999513
 20
577.10000000000105
 11
579.963281249994
 21
728.10000000000105
  0
LINE
  8
_0-0_計極細
  6
CONTINUOUS
 62
    2
 10
571.76328124999463
 20
592.10000000000105
 11
566.1632812499945
 21
592.10000000000105
  0
LINE
  8
_0-0_計極細
  6
CONTINUOUS
 62
    2
 10
571.76328124999463
 20
605.10000000000105
 11
566.1632812499945
 21
605.10000000000105
  0
LINE
  8
_0-0_計極細
  6
CONTINUOUS
 62
    2
 10
571.76328124999486
 20
700.10000000000105
 11
566.16328124999461
 21
700.10000000000105
  0
LINE
  8
_0-0_計極細
  6
CONTINUOUS
 62
    2
 10
571.76328124999486
 20
713.10000000000105
 11
566.16328124999461
 21
713.10000000000105
  0
LINE
  8
_0-1_計細線
  6
CONTINUOUS
 62
    3
 10
566.16328124999529
 20
577.10000000000105
 11
566.16328124999427
 21
728.10000000000105
  0
LINE
  8
_0-1_計細線
  6
CONTINUOUS
 62
    3
 10
554.76328124999475
 20
577.10000000000105
 11
554.76328124999372
 21
728.10000000000105
  0
LINE
  8
_0-1_計細線
  6
CONTINUOUS
 62
    3
 10
566.16328124999529
 20
577.10000000000105
 11
554.76328124999475
 21
577.10000000000105
  0
LINE
  8
_0-1_計細線
  6
CONTINUOUS
 62
    3
 10
566.16328124999427
 20
728.10000000000105
 11
554.76328124999372
 21
728.10000000000105
  0
LINE
  8
_0-0_計極細
  6
CONTINUOUS
 62
    2
 10
557.96328124999502
 20
577.10000000000105
 11
557.963281249994
 21
728.10000000000105
  0
LINE
  8
_0-0_計極細
  6
CONTINUOUS
 62
    2
 10
562.96328124999502
 20
577.10000000000105
 11
562.963281249994
 21
728.10000000000105
  0
LINE
  8
_0-0_計極細
  6
CONTINUOUS
 62
    2
 10
554.76328124999463
 20
592.10000000000105
 11
549.1632812499945
 21
592.10000000000105
  0
LINE
  8
_0-0_計極細
  6
CONTINUOUS
 62
    2
 10
554.76328124999463
 20
605.10000000000105
 11
549.1632812499945
 21
605.10000000000105
  0
LINE
  8
_0-0_計極細
  6
CONTINUOUS
 62
    2
 10
554.76328124999486
 20
700.10000000000105
 11
549.16328124999472
 21
700.10000000000105
  0
LINE
  8
_0-0_計極細
  6
CONTINUOUS
 62
    2
 10
554.76328124999486
 20
713.10000000000105
 11
549.16328124999472
 21
713.10000000000105
  0
LINE
  8
_0-1_計細線
  6
CONTINUOUS
 62
    3
 10
549.16328124999529
 20
577.10000000000105
 11
549.16328124999427
 21
728.10000000000105
  0
LINE
  8
_0-1_計細線
  6
CONTINUOUS
 62
    3
 10
537.76328124999486
 20
577.10000000000105
 11
537.76328124999372
 21
728.10000000000105
  0
LINE
  8
_0-1_計細線
  6
CONTINUOUS
 62
    3
 10
549.16328124999529
 20
577.10000000000105
 11
537.76328124999486
 21
577.10000000000105
  0
LINE
  8
_0-1_計細線
  6
CONTINUOUS
 62
    3
 10
549.16328124999427
 20
728.10000000000105
 11
537.76328124999372
 21
728.10000000000105
  0
LINE
  8
_0-0_計極細
  6
CONTINUOUS
 62
    2
 10
540.96328124999502
 20
577.10000000000105
 11
540.963281249994
 21
728.10000000000105
  0
LINE
  8
_0-0_計極細
  6
CONTINUOUS
 62
    2
 10
545.96328124999502
 20
577.10000000000105
 11
545.963281249994
 21
728.10000000000105
  0
LINE
  8
_0-0_計極細
  6
CONTINUOUS
 62
    2
 10
537.76328124999463
 20
592.10000000000105
 11
532.1632812499945
 21
592.10000000000105
  0
LINE
  8
_0-0_計極細
  6
CONTINUOUS
 62
    2
 10
537.76328124999463
 20
605.10000000000105
 11
532.1632812499945
 21
605.10000000000105
  0
LINE
  8
_0-0_計極細
  6
CONTINUOUS
 62
    2
 10
537.76328124999486
 20
700.10000000000105
 11
532.16328124999461
 21
700.10000000000105
  0
LINE
  8
_0-0_計極細
  6
CONTINUOUS
 62
    2
 10
537.76328124999486
 20
713.10000000000105
 11
532.16328124999461
 21
713.10000000000105
  0
LINE
  8
_0-1_計細線
  6
CONTINUOUS
 62
    3
 10
532.16328124999541
 20
577.10000000000105
 11
532.16328124999427
 21
728.10000000000105
  0
LINE
  8
_0-1_計細線
  6
CONTINUOUS
 62
    3
 10
520.76328124999475
 20
577.10000000000105
 11
520.76328124999372
 21
728.10000000000105
  0
LINE
  8
_0-1_計細線
  6
CONTINUOUS
 62
    3
 10
532.16328124999541
 20
577.10000000000105
 11
520.76328124999475
 21
577.10000000000105
  0
LINE
  8
_0-1_計細線
  6
CONTINUOUS
 62
    3
 10
532.16328124999427
 20
728.10000000000105
 11
520.76328124999372
 21
728.10000000000105
  0
LINE
  8
_0-0_計極細
  6
CONTINUOUS
 62
    2
 10
523.96328124999502
 20
577.10000000000105
 11
523.963281249994
 21
728.10000000000105
  0
LINE
  8
_0-0_計極細
  6
CONTINUOUS
 62
    2
 10
528.96328124999502
 20
577.10000000000105
 11
528.963281249994
 21
728.10000000000105
  0
LINE
  8
_0-0_計極細
  6
CONTINUOUS
 62
    2
 10
520.76328124999463
 20
592.10000000000105
 11
515.1632812499945
 21
592.10000000000105
  0
LINE
  8
_0-0_計極細
  6
CONTINUOUS
 62
    2
 10
520.76328124999463
 20
605.10000000000105
 11
515.1632812499945
 21
605.10000000000105
  0
LINE
  8
_0-0_計極細
  6
CONTINUOUS
 62
    2
 10
520.76328124999486
 20
700.10000000000105
 11
515.16328124999461
 21
700.10000000000105
  0
LINE
  8
_0-0_計極細
  6
CONTINUOUS
 62
    2
 10
520.76328124999486
 20
713.10000000000105
 11
515.16328124999461
 21
713.10000000000105
  0
LINE
  8
_0-1_計細線
  6
CONTINUOUS
 62
    3
 10
515.16328124999529
 20
577.10000000000105
 11
515.16328124999427
 21
728.10000000000105
  0
LINE
  8
_0-1_計細線
  6
CONTINUOUS
 62
    3
 10
503.76328124999475
 20
577.10000000000105
 11
503.76328124999372
 21
728.10000000000105
  0
LINE
  8
_0-1_計細線
  6
CONTINUOUS
 62
    3
 10
515.16328124999529
 20
577.10000000000105
 11
503.76328124999475
 21
577.10000000000105
  0
LINE
  8
_0-1_計細線
  6
CONTINUOUS
 62
    3
 10
515.16328124999427
 20
728.10000000000105
 11
503.76328124999372
 21
728.10000000000105
  0
LINE
  8
_0-0_計極細
  6
CONTINUOUS
 62
    2
 10
506.96328124999502
 20
577.10000000000105
 11
506.96328124999405
 21
728.10000000000105
  0
LINE
  8
_0-0_計極細
  6
CONTINUOUS
 62
    2
 10
511.96328124999502
 20
577.10000000000105
 11
511.96328124999405
 21
728.10000000000105
  0
LINE
  8
_0-0_計極細
  6
CONTINUOUS
 62
    2
 10
503.76328124999469
 20
592.10000000000105
 11
498.1632812499945
 21
592.10000000000105
  0
LINE
  8
_0-0_計極細
  6
CONTINUOUS
 62
    2
 10
503.76328124999469
 20
605.10000000000105
 11
498.1632812499945
 21
605.10000000000105
  0
LINE
  8
_0-0_計極細
  6
CONTINUOUS
 62
    2
 10
503.76328124999486
 20
700.10000000000105
 11
498.16328124999467
 21
700.10000000000105
  0
LINE
  8
_0-0_計極細
  6
CONTINUOUS
 62
    2
 10
503.76328124999486
 20
713.10000000000105
 11
498.16328124999467
 21
713.10000000000105
  0
LINE
  8
_0-1_計細線
  6
CONTINUOUS
 62
    3
 10
498.16328124999529
 20
577.10000000000105
 11
498.16328124999427
 21
728.10000000000105
  0
LINE
  8
_0-1_計細線
  6
CONTINUOUS
 62
    3
 10
486.7632812499948
 20
577.10000000000105
 11
486.76328124999372
 21
728.10000000000105
  0
LINE
  8
_0-1_計細線
  6
CONTINUOUS
 62
    3
 10
498.16328124999529
 20
577.10000000000105
 11
486.7632812499948
 21
577.10000000000105
  0
LINE
  8
_0-1_計細線
  6
CONTINUOUS
 62
    3
 10
498.16328124999427
 20
728.10000000000105
 11
486.76328124999372
 21
728.10000000000105
  0
LINE
  8
_0-0_計極細
  6
CONTINUOUS
 62
    2
 10
489.96328124999508
 20
577.10000000000105
 11
489.963281249994
 21
728.10000000000105
  0
LINE
  8
_0-0_計極細
  6
CONTINUOUS
 62
    2
 10
494.96328124999508
 20
577.10000000000105
 11
494.963281249994
 21
728.10000000000105
  0
LINE
  8
_0-0_計極細
  6
CONTINUOUS
 62
    2
 10
486.76328124999463
 20
592.10000000000105
 11
481.16328124999455
 21
592.10000000000105
  0
LINE
  8
_0-0_計極細
  6
CONTINUOUS
 62
    2
 10
486.76328124999463
 20
605.10000000000105
 11
481.16328124999455
 21
605.10000000000105
  0
LINE
  8
_0-0_計極細
  6
CONTINUOUS
 62
    2
 10
486.76328124999486
 20
700.10000000000105
 11
481.16328124999461
 21
700.10000000000105
  0
LINE
  8
_0-0_計極細
  6
CONTINUOUS
 62
    2
 10
486.76328124999486
 20
713.10000000000105
 11
481.16328124999461
 21
713.10000000000105
  0
LINE
  8
_0-1_計細線
  6
CONTINUOUS
 62
    3
 10
481.16328124999535
 20
577.10000000000105
 11
481.16328124999427
 21
728.10000000000105
  0
LINE
  8
_0-1_計細線
  6
CONTINUOUS
 62
    3
 10
469.76328124999475
 20
577.10000000000105
 11
469.76328124999378
 21
728.10000000000105
  0
LINE
  8
_0-1_計細線
  6
CONTINUOUS
 62
    3
 10
481.16328124999535
 20
577.10000000000105
 11
469.76328124999475
 21
577.10000000000105
  0
LINE
  8
_0-1_計細線
  6
CONTINUOUS
 62
    3
 10
481.16328124999427
 20
728.10000000000105
 11
469.76328124999378
 21
728.10000000000105
  0
LINE
  8
_0-0_計極細
  6
CONTINUOUS
 62
    2
 10
472.96328124999502
 20
577.10000000000105
 11
472.96328124999405
 21
728.10000000000105
  0
LINE
  8
_0-0_計極細
  6
CONTINUOUS
 62
    2
 10
477.96328124999502
 20
577.10000000000105
 11
477.96328124999405
 21
728.10000000000105
  0
LINE
  8
_0-0_計極細
  6
CONTINUOUS
 62
    2
 10
469.76328124999469
 20
592.10000000000105
 11
464.1632812499945
 21
592.10000000000105
  0
LINE
  8
_0-0_計極細
  6
CONTINUOUS
 62
    2
 10
469.76328124999469
 20
605.10000000000105
 11
464.1632812499945
 21
605.10000000000105
  0
LINE
  8
_0-0_計極細
  6
CONTINUOUS
 62
    2
 10
469.76328124999492
 20
700.10000000000105
 11
464.16328124999467
 21
700.10000000000105
  0
LINE
  8
_0-0_計極細
  6
CONTINUOUS
 62
    2
 10
469.76328124999492
 20
713.10000000000105
 11
464.16328124999467
 21
713.10000000000105
  0
LINE
  8
_0-1_計細線
  6
CONTINUOUS
 62
    3
 10
464.16328124999529
 20
577.10000000000105
 11
464.16328124999433
 21
728.10000000000105
  0
LINE
  8
_0-1_計細線
  6
CONTINUOUS
 62
    3
 10
452.7632812499948
 20
577.10000000000105
 11
452.76328124999372
 21
728.10000000000105
  0
LINE
  8
_0-1_計細線
  6
CONTINUOUS
 62
    3
 10
464.16328124999529
 20
577.10000000000105
 11
452.7632812499948
 21
577.10000000000105
  0
LINE
  8
_0-1_計細線
  6
CONTINUOUS
 62
    3
 10
464.16328124999433
 20
728.10000000000105
 11
452.76328124999372
 21
728.10000000000105
  0
LINE
  8
_0-0_計極細
  6
CONTINUOUS
 62
    2
 10
455.96328124999502
 20
577.10000000000105
 11
455.963281249994
 21
728.10000000000105
  0
LINE
  8
_0-0_計極細
  6
CONTINUOUS
 62
    2
 10
460.96328124999502
 20
577.10000000000105
 11
460.963281249994
 21
728.10000000000105
  0
LINE
  8
_0-0_計極細
  6
CONTINUOUS
 62
    2
 10
452.76328124999463
 20
592.10000000000105
 11
447.1632812499945
 21
592.10000000000105
  0
LINE
  8
_0-0_計極細
  6
CONTINUOUS
 62
    2
 10
452.76328124999463
 20
605.10000000000105
 11
447.1632812499945
 21
605.10000000000105
  0
LINE
  8
_0-0_計極細
  6
CONTINUOUS
 62
    2
 10
452.76328124999486
 20
700.10000000000105
 11
447.16328124999461
 21
700.10000000000105
  0
LINE
  8
_0-0_計極細
  6
CONTINUOUS
 62
    2
 10
452.76328124999486
 20
713.10000000000105
 11
447.16328124999461
 21
713.10000000000105
  0
LINE
  8
_0-1_計細線
  6
CONTINUOUS
 62
    3
 10
447.16328124999535
 20
577.10000000000105
 11
447.16328124999427
 21
728.10000000000105
  0
LINE
  8
_0-1_計細線
  6
CONTINUOUS
 62
    3
 10
435.76328124999475
 20
577.10000000000105
 11
435.76328124999378
 21
728.10000000000105
  0
LINE
  8
_0-1_計細線
  6
CONTINUOUS
 62
    3
 10
447.16328124999535
 20
577.10000000000105
 11
435.76328124999475
 21
577.10000000000105
  0
LINE
  8
_0-1_計細線
  6
CONTINUOUS
 62
    3
 10
447.16328124999427
 20
728.10000000000105
 11
435.76328124999378
 21
728.10000000000105
  0
LINE
  8
_0-0_計極細
  6
CONTINUOUS
 62
    2
 10
438.96328124999508
 20
577.10000000000105
 11
438.963281249994
 21
728.10000000000105
  0
LINE
  8
_0-0_計極細
  6
CONTINUOUS
 62
    2
 10
443.96328124999508
 20
577.10000000000105
 11
443.963281249994
 21
728.10000000000105
  0
LINE
  8
_0-0_計極細
  6
CONTINUOUS
 62
    2
 10
435.76328124999463
 20
592.10000000000105
 11
430.16328124999455
 21
592.10000000000105
  0
LINE
  8
_0-0_計極細
  6
CONTINUOUS
 62
    2
 10
435.76328124999463
 20
605.10000000000105
 11
430.16328124999455
 21
605.10000000000105
  0
LINE
  8
_0-0_計極細
  6
CONTINUOUS
 62
    2
 10
435.76328124999492
 20
700.10000000000105
 11
430.16328124999461
 21
700.10000000000105
  0
LINE
  8
_0-0_計極細
  6
CONTINUOUS
 62
    2
 10
435.76328124999492
 20
713.10000000000105
 11
430.16328124999461
 21
713.10000000000105
  0
LINE
  8
_0-1_計細線
  6
CONTINUOUS
 62
    3
 10
430.16328124999529
 20
577.10000000000105
 11
430.16328124999433
 21
728.10000000000105
  0
LINE
  8
_0-1_計細線
  6
CONTINUOUS
 62
    3
 10
418.76328124999475
 20
577.10000000000105
 11
418.76328124999372
 21
728.10000000000105
  0
LINE
  8
_0-1_計細線
  6
CONTINUOUS
 62
    3
 10
430.16328124999529
 20
577.10000000000105
 11
418.76328124999475
 21
577.10000000000105
  0
LINE
  8
_0-1_計細線
  6
CONTINUOUS
 62
    3
 10
430.16328124999433
 20
728.10000000000105
 11
418.76328124999372
 21
728.10000000000105
  0
LINE
  8
_0-0_計極細
  6
CONTINUOUS
 62
    2
 10
421.96328124999502
 20
577.10000000000105
 11
421.96328124999405
 21
728.10000000000105
  0
LINE
  8
_0-0_計極細
  6
CONTINUOUS
 62
    2
 10
426.96328124999502
 20
577.10000000000105
 11
426.96328124999405
 21
728.10000000000105
  0
LINE
  8
_0-0_計極細
  6
CONTINUOUS
 62
    2
 10
418.76328124999469
 20
592.10000000000105
 11
413.1632812499945
 21
592.10000000000105
  0
LINE
  8
_0-0_計極細
  6
CONTINUOUS
 62
    2
 10
418.76328124999469
 20
605.10000000000105
 11
413.1632812499945
 21
605.10000000000105
  0
LINE
  8
_0-0_計極細
  6
CONTINUOUS
 62
    2
 10
418.76328124999486
 20
700.10000000000105
 11
413.16328124999467
 21
700.10000000000105
  0
LINE
  8
_0-0_計極細
  6
CONTINUOUS
 62
    2
 10
418.76328124999486
 20
713.10000000000105
 11
413.16328124999467
 21
713.10000000000105
  0
LINE
  8
_0-1_計細線
  6
CONTINUOUS
 62
    3
 10
413.16328124999529
 20
577.10000000000105
 11
413.16328124999427
 21
728.10000000000105
  0
LINE
  8
_0-1_計細線
  6
CONTINUOUS
 62
    3
 10
401.7632812499948
 20
577.10000000000105
 11
401.76328124999372
 21
728.10000000000105
  0
LINE
  8
_0-1_計細線
  6
CONTINUOUS
 62
    3
 10
413.16328124999529
 20
577.10000000000105
 11
401.7632812499948
 21
577.10000000000105
  0
LINE
  8
_0-1_計細線
  6
CONTINUOUS
 62
    3
 10
413.16328124999427
 20
728.10000000000105
 11
401.76328124999372
 21
728.10000000000105
  0
LINE
  8
_0-0_計極細
  6
CONTINUOUS
 62
    2
 10
404.96328124999508
 20
577.10000000000105
 11
404.963281249994
 21
728.10000000000105
  0
LINE
  8
_0-0_計極細
  6
CONTINUOUS
 62
    2
 10
409.96328124999508
 20
577.10000000000105
 11
409.963281249994
 21
728.10000000000105
  0
LINE
  8
_0-0_計極細
  6
CONTINUOUS
 62
    2
 10
401.76328124999463
 20
592.10000000000105
 11
396.16328124999455
 21
592.10000000000105
  0
LINE
  8
_0-0_計極細
  6
CONTINUOUS
 62
    2
 10
401.76328124999463
 20
605.10000000000105
 11
396.16328124999455
 21
605.10000000000105
  0
LINE
  8
_0-0_計極細
  6
CONTINUOUS
 62
    2
 10
401.76328124999486
 20
700.10000000000105
 11
396.16328124999461
 21
700.10000000000105
  0
LINE
  8
_0-0_計極細
  6
CONTINUOUS
 62
    2
 10
401.76328124999486
 20
713.10000000000105
 11
396.16328124999461
 21
713.10000000000105
  0
LINE
  8
_0-1_計細線
  6
CONTINUOUS
 62
    3
 10
396.16328124999535
 20
577.10000000000105
 11
396.16328124999427
 21
728.10000000000105
  0
LINE
  8
_0-1_計細線
  6
CONTINUOUS
 62
    3
 10
384.76328124999475
 20
577.10000000000105
 11
384.76328124999378
 21
728.10000000000105
  0
LINE
  8
_0-1_計細線
  6
CONTINUOUS
 62
    3
 10
396.16328124999535
 20
577.10000000000105
 11
384.76328124999475
 21
577.10000000000105
  0
LINE
  8
_0-1_計細線
  6
CONTINUOUS
 62
    3
 10
396.16328124999427
 20
728.10000000000105
 11
384.76328124999378
 21
728.10000000000105
  0
LINE
  8
_0-0_計極細
  6
CONTINUOUS
 62
    2
 10
387.96328124999502
 20
577.10000000000105
 11
387.96328124999405
 21
728.10000000000105
  0
LINE
  8
_0-0_計極細
  6
CONTINUOUS
 62
    2
 10
392.96328124999502
 20
577.10000000000105
 11
392.96328124999405
 21
728.10000000000105
  0
LINE
  8
_0-0_計極細
  6
CONTINUOUS
 62
    2
 10
384.76328124999469
 20
592.10000000000105
 11
379.1632812499945
 21
592.10000000000105
  0
LINE
  8
_0-0_計極細
  6
CONTINUOUS
 62
    2
 10
384.76328124999469
 20
605.10000000000105
 11
379.1632812499945
 21
605.10000000000105
  0
LINE
  8
_0-0_計極細
  6
CONTINUOUS
 62
    2
 10
384.76328124999492
 20
700.10000000000105
 11
379.16328124999461
 21
700.10000000000105
  0
LINE
  8
_0-0_計極細
  6
CONTINUOUS
 62
    2
 10
384.76328124999492
 20
713.10000000000105
 11
379.16328124999461
 21
713.10000000000105
  0
LINE
  8
_0-1_計細線
  6
CONTINUOUS
 62
    3
 10
379.16328124999529
 20
577.10000000000105
 11
379.16328124999433
 21
728.10000000000105
  0
LINE
  8
_0-1_計細線
  6
CONTINUOUS
 62
    3
 10
367.76328124999475
 20
577.10000000000105
 11
367.76328124999372
 21
728.10000000000105
  0
LINE
  8
_0-1_計細線
  6
CONTINUOUS
 62
    3
 10
379.16328124999529
 20
577.10000000000105
 11
367.76328124999475
 21
577.10000000000105
  0
LINE
  8
_0-1_計細線
  6
CONTINUOUS
 62
    3
 10
379.16328124999433
 20
728.10000000000105
 11
367.76328124999372
 21
728.10000000000105
  0
LINE
  8
_0-0_計極細
  6
CONTINUOUS
 62
    2
 10
370.96328124999502
 20
577.10000000000105
 11
370.963281249994
 21
728.10000000000105
  0
LINE
  8
_0-0_計極細
  6
CONTINUOUS
 62
    2
 10
375.96328124999502
 20
577.10000000000105
 11
375.963281249994
 21
728.10000000000105
  0
LINE
  8
_0-0_計極細
  6
CONTINUOUS
 62
    2
 10
367.76328124999463
 20
592.10000000000105
 11
362.1632812499945
 21
592.10000000000105
  0
LINE
  8
_0-0_計極細
  6
CONTINUOUS
 62
    2
 10
367.76328124999463
 20
605.10000000000105
 11
362.1632812499945
 21
605.10000000000105
  0
LINE
  8
_0-0_計極細
  6
CONTINUOUS
 62
    2
 10
367.76328124999486
 20
700.10000000000105
 11
362.16328124999461
 21
700.10000000000105
  0
LINE
  8
_0-0_計極細
  6
CONTINUOUS
 62
    2
 10
367.76328124999486
 20
713.10000000000105
 11
362.16328124999461
 21
713.10000000000105
  0
LINE
  8
_0-1_計細線
  6
CONTINUOUS
 62
    3
 10
362.16328124999529
 20
577.10000000000105
 11
362.16328124999427
 21
728.10000000000105
  0
LINE
  8
_0-1_計細線
  6
CONTINUOUS
 62
    3
 10
350.76328124999486
 20
577.10000000000105
 11
350.76328124999372
 21
728.10000000000105
  0
LINE
  8
_0-1_計細線
  6
CONTINUOUS
 62
    3
 10
362.16328124999529
 20
577.10000000000105
 11
350.76328124999486
 21
577.10000000000105
  0
LINE
  8
_0-1_計細線
  6
CONTINUOUS
 62
    3
 10
362.16328124999427
 20
728.10000000000105
 11
350.76328124999372
 21
728.10000000000105
  0
LINE
  8
_0-0_計極細
  6
CONTINUOUS
 62
    2
 10
353.96328124999508
 20
577.10000000000105
 11
353.963281249994
 21
728.10000000000105
  0
LINE
  8
_0-0_計極細
  6
CONTINUOUS
 62
    2
 10
358.96328124999508
 20
577.10000000000105
 11
358.963281249994
 21
728.10000000000105
  0
LINE
  8
_0-0_計極細
  6
CONTINUOUS
 62
    2
 10
350.76328124999463
 20
592.10000000000105
 11
345.16328124999455
 21
592.10000000000105
  0
LINE
  8
_0-0_計極細
  6
CONTINUOUS
 62
    2
 10
350.76328124999463
 20
605.10000000000105
 11
345.16328124999455
 21
605.10000000000105
  0
LINE
  8
_0-0_計極細
  6
CONTINUOUS
 62
    2
 10
350.76328124999486
 20
700.10000000000105
 11
345.16328124999455
 21
700.10000000000105
  0
LINE
  8
_0-0_計極細
  6
CONTINUOUS
 62
    2
 10
350.76328124999486
 20
713.10000000000105
 11
345.16328124999455
 21
713.10000000000105
  0
LINE
  8
_0-1_計細線
  6
CONTINUOUS
 62
    3
 10
345.16328124999541
 20
577.10000000000105
 11
345.16328124999427
 21
728.10000000000105
  0
LINE
  8
_0-1_計細線
  6
CONTINUOUS
 62
    3
 10
333.76328124999486
 20
577.10000000000105
 11
333.76328124999372
 21
728.10000000000105
  0
LINE
  8
_0-1_計細線
  6
CONTINUOUS
 62
    3
 10
345.16328124999541
 20
577.10000000000105
 11
333.76328124999486
 21
577.10000000000105
  0
LINE
  8
_0-1_計細線
  6
CONTINUOUS
 62
    3
 10
345.16328124999427
 20
728.10000000000105
 11
333.76328124999372
 21
728.10000000000105
  0
LINE
  8
_0-0_計極細
  6
CONTINUOUS
 62
    2
 10
336.96328124999519
 20
577.10000000000105
 11
336.96328124999405
 21
728.10000000000105
  0
LINE
  8
_0-0_計極細
  6
CONTINUOUS
 62
    2
 10
341.96328124999519
 20
577.10000000000105
 11
341.96328124999405
 21
728.10000000000105
  0
LINE
  8
_0-0_計極細
  6
CONTINUOUS
 62
    2
 10
333.76328124999469
 20
592.10000000000105
 11
328.1632812499945
 21
592.10000000000105
  0
LINE
  8
_0-0_計極細
  6
CONTINUOUS
 62
    2
 10
333.76328124999469
 20
605.10000000000105
 11
328.1632812499945
 21
605.10000000000105
  0
LINE
  8
_0-0_計極細
  6
CONTINUOUS
 62
    2
 10
333.76328124999486
 20
700.10000000000105
 11
328.1632812499945
 21
700.10000000000105
  0
LINE
  8
_0-0_計極細
  6
CONTINUOUS
 62
    2
 10
333.76328124999486
 20
713.10000000000105
 11
328.1632812499945
 21
713.10000000000105
  0
LINE
  8
_0-1_計細線
  6
CONTINUOUS
 62
    3
 10
328.16328124999541
 20
577.10000000000105
 11
328.16328124999427
 21
728.10000000000105
  0
LINE
  8
_0-1_計細線
  6
CONTINUOUS
 62
    3
 10
316.76328124999486
 20
577.10000000000105
 11
316.76328124999372
 21
728.10000000000105
  0
LINE
  8
_0-1_計細線
  6
CONTINUOUS
 62
    3
 10
328.16328124999541
 20
577.10000000000105
 11
316.76328124999486
 21
577.10000000000105
  0
LINE
  8
_0-1_計細線
  6
CONTINUOUS
 62
    3
 10
328.16328124999427
 20
728.10000000000105
 11
316.76328124999372
 21
728.10000000000105
  0
LINE
  8
_0-0_計極細
  6
CONTINUOUS
 62
    2
 10
319.96328124999513
 20
577.10000000000105
 11
319.963281249994
 21
728.10000000000105
  0
LINE
  8
_0-0_計極細
  6
CONTINUOUS
 62
    2
 10
324.96328124999513
 20
577.10000000000105
 11
324.963281249994
 21
728.10000000000105
  0
LINE
  8
_0-0_計極細
  6
CONTINUOUS
 62
    2
 10
316.76328124999463
 20
592.10000000000105
 11
311.16328124999455
 21
592.10000000000105
  0
LINE
  8
_0-0_計極細
  6
CONTINUOUS
 62
    2
 10
316.76328124999463
 20
605.10000000000105
 11
311.16328124999455
 21
605.10000000000105
  0
LINE
  8
_0-0_計極細
  6
CONTINUOUS
 62
    2
 10
316.76328124999486
 20
700.10000000000105
 11
311.16328124999455
 21
700.10000000000105
  0
LINE
  8
_0-0_計極細
  6
CONTINUOUS
 62
    2
 10
316.76328124999486
 20
713.10000000000105
 11
311.16328124999455
 21
713.10000000000105
  0
LINE
  8
_0-1_計細線
  6
CONTINUOUS
 62
    3
 10
311.16328124999541
 20
577.10000000000105
 11
311.16328124999427
 21
728.10000000000105
  0
LINE
  8
_0-1_計細線
  6
CONTINUOUS
 62
    3
 10
299.76328124999486
 20
577.10000000000105
 11
299.76328124999372
 21
728.10000000000105
  0
LINE
  8
_0-1_計細線
  6
CONTINUOUS
 62
    3
 10
311.16328124999541
 20
577.10000000000105
 11
299.76328124999486
 21
577.10000000000105
  0
LINE
  8
_0-1_計細線
  6
CONTINUOUS
 62
    3
 10
311.16328124999427
 20
728.10000000000105
 11
299.76328124999372
 21
728.10000000000105
  0
LINE
  8
_0-0_計極細
  6
CONTINUOUS
 62
    2
 10
302.96328124999519
 20
577.10000000000105
 11
302.96328124999405
 21
728.10000000000105
  0
LINE
  8
_0-0_計極細
  6
CONTINUOUS
 62
    2
 10
307.96328124999519
 20
577.10000000000105
 11
307.96328124999405
 21
728.10000000000105
  0
LINE
  8
_0-0_計極細
  6
CONTINUOUS
 62
    2
 10
299.76328124999469
 20
592.10000000000105
 11
293.76328124999446
 21
592.10000000000105
  0
LINE
  8
_0-0_計極細
  6
CONTINUOUS
 62
    2
 10
299.76328124999469
 20
605.10000000000105
 11
293.76328124999446
 21
605.10000000000105
  0
LINE
  8
_0-0_計極細
  6
CONTINUOUS
 62
    2
 10
299.76328124999486
 20
700.10000000000105
 11
293.76328124999463
 21
700.10000000000105
  0
LINE
  8
_0-0_計極細
  6
CONTINUOUS
 62
    2
 10
299.76328124999486
 20
713.10000000000105
 11
293.76328124999463
 21
713.10000000000105
  0
LINE
  8
_0-1_計細線
  6
CONTINUOUS
 62
    3
 10
293.76328124999532
 20
577.10000000000105
 11
293.76328124999418
 21
728.10000000000105
  0
LINE
  8
_0-1_計細線
  6
CONTINUOUS
 62
    3
 10
282.36328124999477
 20
577.10000000000105
 11
282.36328124999363
 21
728.10000000000105
  0
LINE
  8
_0-1_計細線
  6
CONTINUOUS
 62
    3
 10
293.76328124999532
 20
577.10000000000105
 11
282.36328124999477
 21
577.10000000000105
  0
LINE
  8
_0-1_計細線
  6
CONTINUOUS
 62
    3
 10
293.76328124999418
 20
728.10000000000105
 11
282.36328124999363
 21
728.10000000000105
  0
LINE
  8
_0-0_計極細
  6
CONTINUOUS
 62
    2
 10
285.5632812499951
 20
577.10000000000105
 11
285.56328124999396
 21
728.10000000000105
  0
LINE
  8
_0-0_計極細
  6
CONTINUOUS
 62
    2
 10
290.5632812499951
 20
577.10000000000105
 11
290.56328124999396
 21
728.10000000000105
  0
LINE
  8
_0-0_計極細
  6
CONTINUOUS
 62
    2
 10
282.36328124999477
 20
592.10000000000105
 11
276.36328124999454
 21
592.10000000000105
  0
LINE
  8
_0-0_計極細
  6
CONTINUOUS
 62
    2
 10
282.36328124999477
 20
605.10000000000105
 11
276.36328124999454
 21
605.10000000000105
  0
LINE
  8
_0-0_計極細
  6
CONTINUOUS
 62
    2
 10
282.363281249995
 20
700.10000000000105
 11
276.36328124999477
 21
700.10000000000105
  0
LINE
  8
_0-0_計極細
  6
CONTINUOUS
 62
    2
 10
282.363281249995
 20
713.10000000000105
 11
276.36328124999477
 21
713.10000000000105
  0
LINE
  8
_0-1_計細線
  6
CONTINUOUS
 62
    3
 10
276.36328124999551
 20
577.10000000000105
 11
276.36328124999437
 21
728.10000000000105
  0
LINE
  8
_0-1_計細線
  6
CONTINUOUS
 62
    3
 10
264.96328124999491
 20
577.10000000000105
 11
264.96328124999377
 21
728.10000000000105
  0
LINE
  8
_0-1_計細線
  6
CONTINUOUS
 62
    3
 10
276.36328124999551
 20
577.10000000000105
 11
264.96328124999491
 21
577.10000000000105
  0
LINE
  8
_0-1_計細線
  6
CONTINUOUS
 62
    3
 10
276.36328124999437
 20
728.10000000000105
 11
264.96328124999377
 21
728.10000000000105
  0
LINE
  8
_0-0_計極細
  6
CONTINUOUS
 62
    2
 10
268.16328124999518
 20
577.10000000000105
 11
268.16328124999404
 21
728.10000000000105
  0
LINE
  8
_0-0_計極細
  6
CONTINUOUS
 62
    2
 10
273.16328124999518
 20
577.10000000000105
 11
273.16328124999404
 21
728.10000000000105
  0
LINE
  8
_0-0_計極細
  6
CONTINUOUS
 62
    2
 10
264.96328124999491
 20
592.10000000000105
 11
258.96328124999468
 21
592.10000000000105
  0
LINE
  8
_0-0_計極細
  6
CONTINUOUS
 62
    2
 10
264.96328124999491
 20
605.10000000000105
 11
258.96328124999468
 21
605.10000000000105
  0
LINE
  8
_0-0_計極細
  6
CONTINUOUS
 62
    2
 10
264.96328124999513
 20
700.10000000000105
 11
258.96328124999491
 21
700.10000000000105
  0
LINE
  8
_0-0_計極細
  6
CONTINUOUS
 62
    2
 10
264.96328124999513
 20
713.10000000000105
 11
258.96328124999491
 21
713.10000000000105
  0
LINE
  8
_0-1_計細線
  6
CONTINUOUS
 62
    3
 10
258.96328124999559
 20
577.10000000000105
 11
258.96328124999445
 21
728.10000000000105
  0
LINE
  8
_0-1_計細線
  6
CONTINUOUS
 62
    3
 10
247.56328124999504
 20
577.10000000000105
 11
247.56328124999391
 21
728.10000000000105
  0
LINE
  8
_0-1_計細線
  6
CONTINUOUS
 62
    3
 10
258.96328124999559
 20
577.10000000000105
 11
247.56328124999504
 21
577.10000000000105
  0
LINE
  8
_0-1_計細線
  6
CONTINUOUS
 62
    3
 10
258.96328124999445
 20
728.10000000000105
 11
247.56328124999391
 21
728.10000000000105
  0
LINE
  8
_0-0_計極細
  6
CONTINUOUS
 62
    2
 10
250.76328124999534
 20
577.10000000000105
 11
250.76328124999421
 21
728.10000000000105
  0
LINE
  8
_0-0_計極細
  6
CONTINUOUS
 62
    2
 10
255.76328124999534
 20
577.10000000000105
 11
255.76328124999421
 21
728.10000000000105
  0
LINE
  8
_0-0_計極細
  6
CONTINUOUS
 62
    2
 10
247.56328124999504
 20
592.10000000000105
 11
241.56328124999482
 21
592.10000000000105
  0
LINE
  8
_0-0_計極細
  6
CONTINUOUS
 62
    2
 10
247.56328124999504
 20
605.10000000000105
 11
241.56328124999482
 21
605.10000000000105
  0
LINE
  8
_0-0_計極細
  6
CONTINUOUS
 62
    2
 10
247.56328124999527
 20
700.10000000000105
 11
241.56328124999504
 21
700.10000000000105
  0
LINE
  8
_0-0_計極細
  6
CONTINUOUS
 62
    2
 10
247.56328124999527
 20
713.10000000000105
 11
241.56328124999504
 21
713.10000000000105
  0
LINE
  8
_0-1_計細線
  6
CONTINUOUS
 62
    3
 10
241.56328124999575
 20
577.10000000000105
 11
241.56328124999462
 21
728.10000000000105
  0
LINE
  8
_0-1_計細線
  6
CONTINUOUS
 62
    3
 10
230.16328124999518
 20
577.10000000000105
 11
230.16328124999404
 21
728.10000000000105
  0
LINE
  8
_0-1_計細線
  6
CONTINUOUS
 62
    3
 10
241.56328124999575
 20
577.10000000000105
 11
230.16328124999518
 21
577.10000000000105
  0
LINE
  8
_0-1_計細線
  6
CONTINUOUS
 62
    3
 10
241.56328124999462
 20
728.10000000000105
 11
230.16328124999404
 21
728.10000000000105
  0
LINE
  8
_0-0_計極細
  6
CONTINUOUS
 62
    2
 10
233.36328124999545
 20
577.10000000000105
 11
233.36328124999432
 21
728.10000000000105
  0
LINE
  8
_0-0_計極細
  6
CONTINUOUS
 62
    2
 10
238.36328124999545
 20
577.10000000000105
 11
238.36328124999432
 21
728.10000000000105
  0
LINE
  8
_0-0_計極細
  6
CENTER1
 62
    2
 10
228.23909250678597
 20
706.60000000000127
 11
1236.9211049910073
 21
706.60000000000105
  0
LINE
  8
_0-0_計極細
  6
CENTER1
 62
    2
 10
227.15469607331514
 20
598.60000000000127
 11
1236.921104991007
 21
598.60000000000105
  0
LINE
  8
_0-5_寸法線
  6
CONTINUOUS
 62
    7
 10
1260.6632812499934
 20
732.60000000000105
 11
1340.6632812499922
 21
732.60000000000105
  0
LINE
  8
_0-5_寸法線
  6
CONTINUOUS
 62
    7
 10
1335.6632812499922
 20
732.60000000000105
 11
1338.2514717010176
 21
722.94074173711033
  0
LINE
  8
_0-5_寸法線
  6
CONTINUOUS
 62
    7
 10
1335.6632812499922
 20
732.60000000000105
 11
1333.075090798967
 21
722.94074173711033
  0
LINE
  8
_0-5_寸法線
  6
CONTINUOUS
 62
    7
 10
1260.6632812499954
 20
572.59999999999945
 11
1340.6632812499925
 21
572.59999999999945
  0
LINE
  8
_0-5_寸法線
  6
CONTINUOUS
 62
    7
 10
1335.6632812499925
 20
572.59999999999945
 11
1333.0750907989673
 21
582.25925826289017
  0
LINE
  8
_0-5_寸法線
  6
CONTINUOUS
 62
    7
 10
1335.6632812499925
 20
572.59999999999945
 11
1338.2514717010176
 21
582.25925826289017
  0
LINE
  8
_0-5_寸法線
  6
CONTINUOUS
 62
    7
 10
1335.6632812499922
 20
732.60000000000105
 11
1335.6632812499925
 21
572.59999999999945
  0
TEXT
  8
_0-5_寸法線
 62
    7
 10
1335.6632812499925
 20
641.35000000000036
 40
15
 41
1
 50
90
  1
160
  0
LINE
  8
_0-5_寸法線
  6
CONTINUOUS
 62
    7
 10
860.76328124999418
 20
742.60000000000105
 11
860.76328124999441
 21
787.60000000000014
  0
LINE
  8
_0-5_寸法線
  6
CONTINUOUS
 62
    7
 10
860.76328124999441
 20
782.60000000000014
 11
851.10402298710369
 21
780.01180954897507
  0
LINE
  8
_0-5_寸法線
  6
CONTINUOUS
 62
    7
 10
860.76328124999441
 20
782.60000000000014
 11
851.10402298710369
 21
785.18819045102532
  0
LINE
  8
_0-5_寸法線
  6
CONTINUOUS
 62
    7
 10
872.16328124999472
 20
742.60000000000105
 11
872.16328124999495
 21
787.60000000000014
  0
CIRCLE
  8
_0-5_寸法線
  6
CONTINUOUS
 62
    1
 10
872.16328124999495
 20
782.60000000000014
 40
1.5000000000000002
  0
LINE
  8
_0-5_寸法線
  6
CONTINUOUS
 62
    7
 10
835.76328124999441
 20
782.60000000000014
 11
872.16328124999495
 21
782.60000000000014
  0
TEXT
  8
_0-5_寸法線
 62
    7
 10
842.11649477551327
 20
782.60000000000014
 40
15
 41
1
 50
0
  1
11.4
  0
LINE
  8
_0-5_寸法線
  6
CONTINUOUS
 62
    7
 10
877.76328124999418
 20
742.60000000000105
 11
877.76328124999441
 21
787.60000000000014
  0
LINE
  8
_0-5_寸法線
  6
CONTINUOUS
 62
    7
 10
877.76328124999441
 20
782.60000000000014
 11
887.42253951288501
 21
785.18819045102532
  0
LINE
  8
_0-5_寸法線
  6
CONTINUOUS
 62
    7
 10
877.76328124999441
 20
782.60000000000014
 11
887.42253951288501
 21
780.01180954897495
  0
LINE
  8
_0-5_寸法線
  6
CONTINUOUS
 62
    7
 10
872.16328124999495
 20
782.60000000000014
 11
914.97760588662641
 21
782.60000000000014
  0
TEXT
  8
_0-5_寸法線
 62
    7
 10
877.47760588662641
 20
767.60000000000014
 40
15
 41
1
 50
0
  1
6以下
  0
LINE
  8
_0-5_寸法線
  6
CONTINUOUS
 62
    7
 10
527.67657200425333
 20
574.07500000000141
 11
534.44257266342788
 21
566.71149301758817
  0
LINE
  8
_0-5_寸法線
  6
CONTINUOUS
 62
    7
 10
527.67657200425333
 20
574.07500000000141
 11
529.85434696591415
 21
564.31501556270018
  0
LINE
  8
_0-5_寸法線
  6
CONTINUOUS
 62
    7
 10
527.67657200425333
 20
574.07500000000141
 11
550.75881747412791
 21
529.88240740740889
  0
LINE
  8
_0-5_寸法線
  6
CONTINUOUS
 62
    7
 10
550.75881747412791
 20
529.88240740740889
 11
658.75881747412791
 21
529.88240740740889
  0
TEXT
  8
_0-5_寸法線
 62
    7
 10
550.75881747412791
 20
530.4824074074088
 40
15
 41
0.8000000000000001
 50
0
  1
ＳＵＳアングル受枠
  0
LINE
  8
_0-5_寸法線
  6
CONTINUOUS
 62
    7
 10
746.84427834170151
 20
617.5537211483836
 11
753.91534615356693
 21
610.48265333651807
  0
LINE
  8
_0-5_寸法線
  6
CONTINUOUS
 62
    7
 10
746.84427834170151
 20
617.5537211483836
 11
749.43246879272681
 21
607.89446288549289
  0
LINE
  8
_0-5_寸法線
  6
CONTINUOUS
 62
    7
 10
746.84427834170151
 20
617.5537211483836
 11
797.17265979566605
 21
530.38240740740889
  0
LINE
  8
_0-5_寸法線
  6
CONTINUOUS
 62
    7
 10
797.17265979566605
 20
530.38240740740889
 11
929.17265979566605
 21
530.38240740740889
  0
TEXT
  8
_0-5_寸法線
 62
    7
 10
797.17265979566616
 20
530.38240740740889
 40
15
 41
0.8000000000000001
 50
0
  1
セーフティグレーチング
  0
TEXT
  8
_0-5_寸法線
 62
    7
 10
550.75881747412791
 20
514.88240740740889
 40
15
 41
0.8000000000000001
 50
0
  1
ＧＳＬ－２０
  0
TEXT
  8
_0-5_寸法線
 62
    7
 10
797.17265979566605
 20
515.38240740740889
 40
15
 41
0.8000000000000001
 50
0
  1
ＧＲＳＪ－２０Ｗ１５１
  0
LINE
  8
_0-1_計細線
  6
CONTINUOUS
 62
    3
 10
1132.7632812499958
 20
577.10000000000105
 11
1132.7632812499946
 21
728.10000000000127
  0
LINE
  8
_0-1_計細線
  6
CONTINUOUS
 62
    3
 10
1132.7632812499946
 20
728.10000000000127
 11
1144.1632812499952
 21
728.10000000000127
  0
LINE
  8
_0-0_計極細
  6
CONTINUOUS
 62
    2
 10
1140.9632812499963
 20
577.10000000000105
 11
1140.9632812499949
 21
728.10000000000127
  0
LINE
  8
_0-0_計極細
  6
CONTINUOUS
 62
    2
 10
1135.9632812499963
 20
577.10000000000105
 11
1135.9632812499949
 21
728.10000000000127
  0
LINE
  8
_0-1_計細線
  6
CONTINUOUS
 62
    3
 10
1144.1632812499984
 20
577.10000000000105
 11
1144.1632812499952
 21
728.10000000000127
  0
LINE
  8
_0-1_計細線
  6
CONTINUOUS
 62
    3
 10
1132.7632812499958
 20
577.10000000000105
 11
1144.1632812499984
 21
577.10000000000105
  0
LINE
  8
_0-1_計細線
  6
CONTINUOUS
 62
    3
 10
1161.163281249997
 20
577.10000000000127
 11
1161.1632812499961
 21
728.10000000000127
  0
LINE
  8
_0-1_計細線
  6
CONTINUOUS
 62
    3
 10
1149.7632812499953
 20
728.10000000000127
 11
1161.1632812499961
 21
728.10000000000127
  0
LINE
  8
_0-0_計極細
  6
CONTINUOUS
 62
    2
 10
1157.9632812499967
 20
577.10000000000105
 11
1157.9632812499956
 21
728.10000000000127
  0
LINE
  8
_0-0_計極細
  6
CONTINUOUS
 62
    2
 10
1152.9632812499967
 20
577.10000000000105
 11
1152.9632812499956
 21
728.10000000000127
  0
LINE
  8
_0-1_計細線
  6
CONTINUOUS
 62
    3
 10
1149.7632812499985
 20
577.10000000000105
 11
1149.7632812499953
 21
728.10000000000127
  0
LINE
  8
_0-1_計細線
  6
CONTINUOUS
 62
    3
 10
1149.7632812499985
 20
577.10000000000105
 11
1161.163281249997
 21
577.10000000000127
  0
LINE
  8
_0-1_計細線
  6
CONTINUOUS
 62
    3
 10
1098.3132812499932
 20
661.60000000000014
 11
1098.3132812499935
 21
720.60000000000014
  0
LINE
  8
_0-1_計細線
  6
CONTINUOUS
 62
    3
 10
1093.6132812499936
 20
720.60000000000014
 11
1093.6132812499934
 21
661.60000000000014
  0
LINE
  8
_0-1_計細線
  6
CONTINUOUS
 62
    3
 10
1093.6132812499934
 20
661.60000000000014
 11
1098.3132812499932
 21
661.60000000000014
  0
LINE
  8
_0-1_計細線
  6
CONTINUOUS
 62
    3
 10
1093.6132812499936
 20
710.60000000000014
 11
1098.3132812499935
 21
710.60000000000014
  0
LINE
  8
_0-1_計細線
  6
CONTINUOUS
 62
    3
 10
1093.6132812499936
 20
718.60000000000014
 11
1098.3132812499935
 21
718.60000000000014
  0
LINE
  8
_0-1_計細線
  6
CONTINUOUS
 62
    3
 10
1093.6132812499936
 20
720.60000000000014
 11
1098.3132812499935
 21
720.60000000000014
  0
LINE
  8
_0-1_計細線
  6
CONTINUOUS
 62
    3
 10
1093.6132812499936
 20
716.60000000000014
 11
1098.3132812499935
 21
716.60000000000014
  0
LINE
  8
_0-1_計細線
  6
CONTINUOUS
 62
    3
 10
1093.6132812499936
 20
714.60000000000025
 11
1098.3132812499935
 21
714.60000000000025
  0
LINE
  8
_0-1_計細線
  6
CONTINUOUS
 62
    3
 10
1093.6132812499936
 20
712.60000000000014
 11
1098.3132812499935
 21
712.60000000000014
  0
LINE
  8
_0-0_計極細
  6
CONTINUOUS
 62
    2
 10
1093.1632812499938
 20
713.10000000000105
 11
1093.6132812499936
 21
713.10000000000105
  0
LINE
  8
_0-0_計極細
  6
CONTINUOUS
 62
    2
 10
1098.3132812499935
 20
713.10000000000105
 11
1098.7632812499953
 21
713.10000000000105
  0
LINE
  8
_0-0_計極細
  6
CONTINUOUS
 62
    2
 10
1093.1632812499943
 20
700.10000000000105
 11
1093.6132812499936
 21
700.10000000000105
  0
LINE
  8
_0-0_計極細
  6
CONTINUOUS
 62
    2
 10
1098.3132812499935
 20
700.10000000000105
 11
1098.7632812499953
 21
700.10000000000105
  0
LINE
  8
_0-5_寸法線
  6
CONTINUOUS
 62
    7
 10
1095.5051792517136
 20
687.09363466430534
 11
1090.5051792517136
 21
695.75388870214965
  0
LINE
  8
_0-5_寸法線
  6
CONTINUOUS
 62
    7
 10
1095.5051792517136
 20
687.09363466430534
 11
1095.5051792517136
 21
697.09363466430534
  0
LINE
  8
_0-5_寸法線
  6
CONTINUOUS
 62
    7
 10
1095.5051792517136
 20
687.09363466430534
 11
1069.9143257879825
 21
782.60000000000014
  0
LINE
  8
_0-5_寸法線
  6
CONTINUOUS
 62
    7
 10
1069.9143257879825
 20
782.60000000000014
 11
1009.9143257879825
 21
782.60000000000014
  0
TEXT
  8
_0-5_寸法線
 62
    7
 10
1009.9143257879825
 20
782.60000000000014
 40
15
 41
0.8000000000000001
 50
0
  1
取　外　具
  0
TEXT
  8
_0-5_寸法線
 62
    7
 10
1009.43511016046
 20
766.1049853825931
 40
15
 41
0.8000000000000001
 50
-0.0000000000002714
  1
(標準付属)
  0
LINE
  8
_0-7_枠細線
  6
CONTINUOUS
 62
    5
 10
1026.7379968476748
 20
800.04705588804484
 11
1019.2379968476747
 21
815.04705588804484
  0
LINE
  8
_0-7_枠細線
  6
CONTINUOUS
 62
    5
 10
1011.7379968476747
 20
800.04705588804484
 11
1026.7379968476748
 21
800.04705588804484
  0
LINE
  8
_0-7_枠細線
  6
CONTINUOUS
 62
    5
 10
1019.2379968476747
 20
815.04705588804484
 11
1011.7379968476747
 21
800.04705588804484
  0
TEXT
  8
_0-7_枠細線
 62
    5
 10
1014.1031481158228
 20
799.74005364266418
 40
12.5
 41
0.8
 50
0
  1
１
  0
LINE
  8
_0-7_枠細線
  6
CONTINUOUS
 62
    5
 10
1037.6075398748912
 20
815.04705588804484
 11
1030.1075398748912
 21
800.04705588804484
  0
LINE
  8
_0-7_枠細線
  6
CONTINUOUS
 62
    5
 10
1030.1075398748912
 20
800.04705588804484
 11
1045.1075398748912
 21
800.04705588804484
  0
LINE
  8
_0-7_枠細線
  6
CONTINUOUS
 62
    5
 10
1045.1075398748912
 20
800.04705588804484
 11
1037.6075398748912
 21
815.04705588804484
  0
TEXT
  8
_0-7_枠細線
 62
    5
 10
1032.5930319654399
 20
799.49937199786348
 40
12.5
 41
0.8
 50
0
  1
２
  0
LINE
  8
_0-7_枠細線
  6
CONTINUOUS
 62
    5
 10
1424.9999999999998
 20
907.5
 11
890
 21
907.5
  0
TEXT
  8
_0-7_枠細線
 62
    5
 10
938.85037037037011
 20
910
 40
12.500000000000002
 41
1
 50
0
  1
取外具形状変更
  0
TEXT
  8
_0-7_枠細線
 62
    5
 10
1180
 20
910
 40
12.500000000000002
 41
0.7199999999999998
 50
0
  1
２０１５．１１．２０
  0
LINE
  8
_0-7_枠細線
  6
CONTINUOUS
 62
    5
 10
1425
 20
890
 11
890
 21
890
  0
TEXT
  8
_0-7_枠細線
 62
    5
 10
1180
 20
892.5
 40
12.5
 41
0.7199999999999999
 50
0
  1
２０１７．０４．０１
  0
LINE
  8
_0-7_枠細線
  6
CONTINUOUS
 62
    5
 10
915
 20
873.94233397174685
 11
907.5
 21
888.94233397174685
  0
LINE
  8
_0-7_枠細線
  6
CONTINUOUS
 62
    5
 10
900
 20
873.94233397174685
 11
915
 21
873.94233397174685
  0
LINE
  8
_0-7_枠細線
  6
CONTINUOUS
 62
    5
 10
907.5
 20
888.94233397174685
 11
900
 21
873.94233397174685
  0
TEXT
  8
_0-7_枠細線
 62
    5
 10
1180
 20
875
 40
12.5
 41
0.7199999999999999
 50
0
  1
２０１７．０４．０１
  0
TEXT
  8
_0-7_枠細線
 62
    5
 10
938.85037037037023
 20
875
 40
12.5
 41
1
 50
0
  1
ブラウン色（Ｃ）追加
  0
LINE
  8
_0-7_枠細線
  6
CONTINUOUS
 62
    5
 10
1425
 20
872.5
 11
890
 21
872.5
  0
LINE
  8
_0-7_枠細線
  6
CONTINUOUS
 62
    5
 10
907.5
 20
906.44233397174685
 11
900
 21
891.44233397174685
  0
LINE
  8
_0-7_枠細線
  6
CONTINUOUS
 62
    5
 10
900
 20
891.44233397174685
 11
915
 21
891.44233397174685
  0
LINE
  8
_0-7_枠細線
  6
CONTINUOUS
 62
    5
 10
915
 20
891.44233397174685
 11
907.5
 21
906.44233397174685
  0
TEXT
  8
_0-7_枠細線
 62
    5
 10
938.85037037037023
 20
892.5
 40
12.5
 41
1
 50
0
  1
取外具形状変更
  0
TEXT
  8
_0-7_枠細線
 62
    5
 10
902.48549209054841
 20
890.89465008156549
 40
12.5
 41
0.8
 50
0
  1
２
  0
TEXT
  8
_0-7_枠細線
 62
    5
 10
902.36515126814811
 20
872.99351400689704
 40
12.5
 41
0.8
 50
0
  1
３
  0
LINE
  8
_0-9_枠極太
  6
CONTINUOUS
 62
    5
 10
60
 20
60
 11
60
 21
960
  0
LINE
  8
_0-9_枠極太
  6
CONTINUOUS
 62
    5
 10
60
 20
960
 11
1425
 21
960
  0
LINE
  8
_0-9_枠極太
  6
CONTINUOUS
 62
    5
 10
1425
 20
960
 11
1425
 21
60
  0
LINE
  8
_0-9_枠極太
  6
CONTINUOUS
 62
    5
 10
1425
 20
60
 11
60
 21
60
  0
LINE
  8
_0-7_枠細線
  6
CONTINUOUS
 62
    5
 10
915
 20
856.44233397174685
 11
907.5
 21
871.44233397174685
  0
LINE
  8
_0-7_枠細線
  6
CONTINUOUS
 62
    5
 10
900
 20
856.44233397174685
 11
915
 21
856.44233397174685
  0
LINE
  8
_0-7_枠細線
  6
CONTINUOUS
 62
    5
 10
907.5
 20
871.44233397174685
 11
900
 21
856.44233397174685
  0
LINE
  8
_0-7_枠細線
  6
CONTINUOUS
 62
    5
 10
1425
 20
855
 11
890
 21
855
  0
TEXT
  8
_0-7_枠細線
 62
    5
 10
1180
 20
857.5
 40
12.5
 41
0.7199999999999999
 50
0
  1
２０１９．０９．０１
  0
TEXT
  8
_0-7_枠細線
 62
    5
 10
902.36515126814811
 20
855.49351400689704
 40
12.5
 41
0.8
 50
0
  1
４
  0
LINE
  8
_0-7_枠細線
  6
CONTINUOUS
 62
    5
 10
890
 20
855
 11
890
 21
959.99999999999943
  0
LINE
  8
_0-7_枠細線
  6
CONTINUOUS
 62
    5
 10
925
 20
855
 11
925
 21
959.99999999999943
  0
LINE
  8
_0-7_枠細線
  6
CONTINUOUS
 62
    5
 10
1175
 20
855
 11
1175
 21
959.99999999999943
  0
LINE
  8
_0-7_枠細線
  6
CONTINUOUS
 62
    5
 10
1275
 20
855
 11
1275
 21
959.99999999999943
  0
LINE
  8
_0-b_細線3
  6
CONTINUOUS
 62
    7
 10
313.46758651983492
 20
319.92912486567525
 11
313.46758651983492
 21
261.59579153234199
  0
LINE
  8
_0-b_細線3
  6
CONTINUOUS
 62
    7
 10
313.46758651983492
 20
261.59579153234199
 11
309.6342531865015
 21
261.59579153234199
  0
LINE
  8
_0-b_細線3
  6
CONTINUOUS
 62
    7
 10
309.6342531865015
 20
261.59579153234199
 11
309.6342531865015
 21
319.92912486567525
  0
LINE
  8
_0-b_細線3
  6
CONTINUOUS
 62
    7
 10
309.6342531865015
 20
319.92912486567525
 11
313.46758651983492
 21
319.92912486567525
  0
LINE
  8
_0-a_極細3
  6
CONTINUOUS
 62
    7
 10
309.6342531865015
 20
293.26245819900862
 11
313.46758651983492
 21
293.26245819900862
  0
LINE
  8
_0-a_極細3
  6
CONTINUOUS
 62
    7
 10
309.6342531865015
 20
296.59579153234199
 11
313.46758651983492
 21
296.59579153234199
  0
LINE
  8
_0-a_極細3
  6
CONTINUOUS
 62
    7
 10
309.6342531865015
 20
289.92912486567525
 11
313.46758651983492
 21
289.92912486567525
  0
LINE
  8
_0-a_極細3
  6
CONTINUOUS
 62
    7
 10
309.6342531865015
 20
299.92912486567525
 11
313.46758651983492
 21
299.92912486567525
  0
LINE
  8
_0-a_極細3
  6
CONTINUOUS
 62
    7
 10
313.46758651983492
 20
266.59579153234199
 11
309.6342531865015
 21
266.59579153234199
  0
LINE
  8
_0-a_極細3
  6
CONTINUOUS
 62
    7
 10
309.6342531865015
 20
316.59579153234199
 11
313.46758651983492
 21
316.59579153234199
  0
LINE
  8
_0-b_細線3
  6
CONTINUOUS
 62
    7
 10
580.13425318650127
 20
319.92912486567525
 11
580.13425318650127
 21
261.59579153234199
  0
LINE
  8
_0-b_細線3
  6
CONTINUOUS
 62
    7
 10
580.13425318650127
 20
261.59579153234199
 11
583.96758651983464
 21
261.59579153234199
  0
LINE
  8
_0-b_細線3
  6
CONTINUOUS
 62
    7
 10
583.96758651983464
 20
261.59579153234199
 11
583.96758651983464
 21
319.92912486567525
  0
LINE
  8
_0-b_細線3
  6
CONTINUOUS
 62
    7
 10
583.96758651983464
 20
319.92912486567525
 11
580.13425318650127
 21
319.92912486567525
  0
LINE
  8
_0-a_極細3
  6
CONTINUOUS
 62
    7
 10
583.96758651983464
 20
293.26245819900862
 11
580.13425318650127
 21
293.26245819900862
  0
LINE
  8
_0-a_極細3
  6
CONTINUOUS
 62
    7
 10
583.96758651983464
 20
296.59579153234199
 11
580.13425318650127
 21
296.59579153234199
  0
LINE
  8
_0-a_極細3
  6
CONTINUOUS
 62
    7
 10
583.96758651983464
 20
289.92912486567525
 11
580.13425318650127
 21
289.92912486567525
  0
LINE
  8
_0-a_極細3
  6
CONTINUOUS
 62
    7
 10
583.96758651983464
 20
299.92912486567525
 11
580.13425318650127
 21
299.92912486567525
  0
LINE
  8
_0-a_極細3
  6
CONTINUOUS
 62
    7
 10
580.13425318650127
 20
266.59579153234199
 11
583.96758651983464
 21
266.59579153234199
  0
LINE
  8
_0-a_極細3
  6
CONTINUOUS
 62
    7
 10
583.96758651983464
 20
316.59579153234199
 11
580.13425318650127
 21
316.59579153234199
  0
LINE
  8
_0-7_枠細線
  6
CONTINUOUS
 62
    5
 10
601.89830336045691
 20
309.26244666561513
 11
594.39830336045691
 21
324.26244666561513
  0
LINE
  8
_0-7_枠細線
  6
CONTINUOUS
 62
    5
 10
586.89830336045691
 20
309.26244666561513
 11
601.89830336045691
 21
309.26244666561513
  0
LINE
  8
_0-7_枠細線
  6
CONTINUOUS
 62
    5
 10
594.39830336045691
 20
324.26244666561513
 11
586.89830336045691
 21
309.26244666561513
  0
TEXT
  8
_0-7_枠細線
 62
    5
 10
589.26345462860502
 20
308.31362670076521
 40
12.5
 41
0.8
 50
0
  1
４
  0
LINE
  8
_0-7_枠細線
  6
CONTINUOUS
 62
    5
 10
1074.9999999999995
 20
286.80454176804574
 11
1374.9999999999998
 21
286.80454176804574
  0
LINE
  8
_0-7_枠細線
  6
CONTINUOUS
 62
    5
 10
1074.9999999999995
 20
311.80454176804574
 11
1374.9999999999998
 21
311.80454176804574
  0
LINE
  8
_0-7_枠細線
  6
CONTINUOUS
 62
    5
 10
1074.9999999999995
 20
336.80454176804574
 11
1374.9999999999998
 21
336.80454176804574
  0
LINE
  8
_0-7_枠細線
  6
CONTINUOUS
 62
    5
 10
1074.9999999999995
 20
361.80454176804585
 11
1374.9999999999998
 21
361.80454176804585
  0
LINE
  8
_0-7_枠細線
  6
CONTINUOUS
 62
    5
 10
1074.9999999999995
 20
386.80454176804574
 11
1374.9999999999998
 21
386.80454176804574
  0
LINE
  8
_0-7_枠細線
  6
CONTINUOUS
 62
    5
 10
1074.9999999999995
 20
411.80454176804568
 11
1374.9999999999998
 21
411.80454176804568
  0
LINE
  8
_0-7_枠細線
  6
CONTINUOUS
 62
    5
 10
1074.9999999999995
 20
436.80454176804568
 11
1374.9999999999998
 21
436.80454176804568
  0
TEXT
  8
_0-7_枠細線
 62
    5
 10
1163.7499999999995
 20
441.80454176804568
 40
17.5
 41
1
 50
0
  1
品番表
  0
TEXT
  8
_0-7_枠細線
 62
    5
 10
1306
 20
416.80454176804568
 40
15
 41
0.8000000000000001
 50
0
  1
備　　考
  0
TEXT
  8
_0-7_枠細線
 62
    5
 10
1213
 20
366.80454176804585
 40
15
 41
0.5999999999999999
 50
0
  1
ライトグレー
  0
TEXT
  8
_0-7_枠細線
 62
    5
 10
1222
 20
391.80454176804568
 40
15
 41
0.5999999999999999
 50
0
  1
ベージュ
  0
TEXT
  8
_0-7_枠細線
 62
    5
 10
1234
 20
416.80454176804568
 40
15
 41
0.8000000000000001
 50
0
  1
色
  0
TEXT
  8
_0-7_枠細線
 62
    5
 10
1110.9999999999998
 20
416.80454176804568
 40
15
 41
0.8000000000000001
 50
0
  1
品　　番
  0
LINE
  8
_0-7_枠細線
  6
CONTINUOUS
 62
    5
 10
1074.9999999999995
 20
211.80454176804551
 11
1374.9999999999998
 21
211.80454176804551
  0
LINE
  8
_0-7_枠細線
  6
CONTINUOUS
 62
    5
 10
1074.9999999999995
 20
236.80454176804577
 11
1374.9999999999998
 21
236.80454176804577
  0
LINE
  8
_0-7_枠細線
  6
CONTINUOUS
 62
    5
 10
1074.9999999999995
 20
261.80454176804585
 11
1374.9999999999998
 21
261.80454176804585
  0
TEXT
  8
_0-7_枠細線
 62
    5
 10
1222.0000000000005
 20
341.80454176804585
 40
15
 41
0.5999999999999999
 50
0
  1
ホワイト
  0
TEXT
  8
_0-7_枠細線
 62
    5
 10
1226.4999999999998
 20
316.80454176804574
 40
15
 41
0.5999999999999999
 50
0
  1
ピンク
  0
TEXT
  8
_0-7_枠細線
 62
    5
 10
1226.4999999999998
 20
291.80454176804574
 40
15
 41
0.5999999999999999
 50
0
  1
ブルー
  0
TEXT
  8
_0-7_枠細線
 62
    5
 10
1212.9999999999995
 20
266.80454176804574
 40
15
 41
0.5999999999999999
 50
0
  1
ダークグレー
  0
TEXT
  8
_0-7_枠細線
 62
    5
 10
1079.7499999999998
 20
391.80454176804568
 40
15
 41
0.5666666666666667
 50
0
  1
ＧＲＳＪ－２０Ｗ１５１－Ｂ
  0
TEXT
  8
_0-7_枠細線
 62
    5
 10
1079.7499999999998
 20
366.80454176804574
 40
15
 41
0.5666666666666667
 50
0
  1
ＧＲＳＪ－２０Ｗ１５１－Ｇ
  0
TEXT
  8
_0-7_枠細線
 62
    5
 10
1079.7499999999998
 20
341.80454176804585
 40
15
 41
0.5666666666666667
 50
0
  1
ＧＲＳＪ－２０Ｗ１５１－Ｓ
  0
TEXT
  8
_0-7_枠細線
 62
    5
 10
1079.7499999999998
 20
316.80454176804574
 40
15
 41
0.5666666666666667
 50
0
  1
ＧＲＳＪ－２０Ｗ１５１－Ｐ
  0
TEXT
  8
_0-7_枠細線
 62
    5
 10
1079.7499999999998
 20
291.80454176804574
 40
15
 41
0.5666666666666667
 50
0
  1
ＧＲＳＪ－２０Ｗ１５１－Ａ
  0
TEXT
  8
_0-7_枠細線
 62
    5
 10
1079.7499999999998
 20
266.80454176804574
 40
15
 41
0.5666666666666667
 50
0
  1
ＧＲＳＪ－２０Ｗ１５１－Ｄ
  0
TEXT
  8
_0-7_枠細線
 62
    5
 10
1079.7499999999998
 20
241.80454176804568
 40
15
 41
0.5666666666666667
 50
0
  1
ＧＲＳＪ－２０Ｗ１５１－Ｍ
  0
TEXT
  8
_0-7_枠細線
 62
    5
 10
1226.4999999999998
 20
241.80454176804568
 40
15
 41
0.5999999999999999
 50
0
  1
ウッド
  0
LINE
  8
_0-7_枠細線
  6
CONTINUOUS
 62
    5
 10
1074.9999999999995
 20
186.80454176804531
 11
1374.9999999999998
 21
186.80454176804531
  0
TEXT
  8
_0-7_枠細線
 62
    5
 10
1222.0000000000005
 20
191.80454176804545
 40
15
 41
0.5999999999999999
 50
0
  1
ブラック
  0
TEXT
  8
_0-7_枠細線
 62
    5
 10
1079.7499999999998
 20
191.80454176804545
 40
15
 41
0.5666666666666667
 50
0
  1
ＧＲＳＪ－２０Ｗ１５１－Ｋ
  0
LINE
  8
_0-7_枠細線
  6
CONTINUOUS
 62
    5
 10
1195
 20
436.80454176804568
 11
1195
 21
186.80454176804531
  0
LINE
  8
_0-7_枠細線
  6
CONTINUOUS
 62
    5
 10
1284.9999999999998
 20
436.80454176804568
 11
1284.9999999999998
 21
186.80454176804531
  0
LINE
  8
_0-7_枠細線
  6
CONTINUOUS
 62
    5
 10
1374.9999999999998
 20
436.80454176804568
 11
1374.9999999999998
 21
186.80454176804531
  0
LINE
  8
_0-7_枠細線
  6
CONTINUOUS
 62
    5
 10
1074.9999999999995
 20
436.80454176804568
 11
1074.9999999999995
 21
186.80454176804531
  0
TEXT
  8
_0-7_枠細線
 62
    5
 10
1079.7499999999998
 20
216.80454176804574
 40
15
 41
0.5666666666666667
 50
0
  1
ＧＲＳＪ－２０Ｗ１５１－Ｃ
  0
LINE
  8
_0-7_枠細線
  6
CONTINUOUS
 62
    5
 10
1068.6456150812833
 20
217.78173697178087
 11
1061.1456150812833
 21
232.78173697178087
  0
LINE
  8
_0-7_枠細線
  6
CONTINUOUS
 62
    5
 10
1053.6456150812833
 20
217.78173697178087
 11
1068.6456150812833
 21
217.78173697178087
  0
LINE
  8
_0-7_枠細線
  6
CONTINUOUS
 62
    5
 10
1061.1456150812833
 20
232.78173697178087
 11
1053.6456150812833
 21
217.78173697178087
  0
TEXT
  8
_0-7_枠細線
 62
    5
 10
1056.0107663494314
 20
216.83291700693093
 40
12.5
 41
0.8
 50
0
  1
３
  0
TEXT
  8
_0-7_枠細線
 62
    5
 10
1222
 20
216.80454176804574
 40
15
 41
0.5999999999999999
 50
0
  1
ブラウン
  0
ARC
  8
_0-b_細線3
  6
CONTINUOUS
 62
    7
 10
815.76798083934489
 20
271.50477272200925
 40
1.666666666666667
 50
89.999999999999915
 51
179.99999999999983
  0
ARC
  8
_0-b_細線3
  6
CONTINUOUS
 62
    7
 10
816.54789615822381
 20
274.83810605534273
 40
1.666666666666667
 50
269.99999999999977
 51
330.00000000000301
  0
ARC
  8
_0-b_細線3
  6
CONTINUOUS
 62
    7
 10
819.43464750417206
 20
273.17143938867622
 40
1.666666666666667
 50
89.999999999999915
 51
150.00000000000134
  0
LINE
  8
_0-b_細線3
  6
CONTINUOUS
 62
    7
 10
815.76798083934489
 20
273.17143938867622
 11
816.54789615822381
 21
273.17143938867622
  0
ARC
  8
_0-b_細線3
  6
CONTINUOUS
 62
    7
 10
831.43464750233306
 20
271.50477272200925
 40
1.666666666666667
 50
0
 51
89.999999999999915
  0
ARC
  8
_0-b_細線3
  6
CONTINUOUS
 62
    7
 10
830.65473218345358
 20
274.83810605534273
 40
1.666666666666667
 50
210.00000000000404
 51
269.99999999999977
  0
ARC
  8
_0-b_細線3
  6
CONTINUOUS
 62
    7
 10
827.76798083750555
 20
273.17143938867622
 40
1.666666666666667
 50
29.999999999990862
 51
89.999999999984354
  0
LINE
  8
_0-b_細線3
  6
CONTINUOUS
 62
    7
 10
831.43464750233306
 20
273.17143938867622
 11
830.65473218345358
 21
273.17143938867622
  0
ARC
  8
_0-b_細線3
  6
CONTINUOUS
 62
    7
 10
814.93464750601152
 20
269.17143938867628
 40
0.8333333333333334
 50
179.99999999999983
 51
269.99999999999977
  0
LINE
  8
_0-b_細線3
  6
CONTINUOUS
 62
    7
 10
814.10131417267792
 20
271.50477272200925
 11
814.10131417267792
 21
269.17143938867628
  0
ARC
  8
_0-b_細線3
  6
CONTINUOUS
 62
    7
 10
832.26798083566609
 20
269.17143938867628
 40
0.8333333333333334
 50
269.99999999999977
 51
359.99999999999966
  0
LINE
  8
_0-b_細線3
  6
CONTINUOUS
 62
    7
 10
833.10131416899947
 20
271.50477272200925
 11
833.10131416899947
 21
269.17143938867628
  0
ARC
  8
_0-b_細線3
  6
CONTINUOUS
 62
    7
 10
819.10131417267792
 20
266.67143938867628
 40
1.666666666666667
 50
0
 51
89.999999999999915
  0
LINE
  8
_0-b_細線3
  6
CONTINUOUS
 62
    7
 10
819.10131417267792
 20
268.33810605534273
 11
814.93464750601152
 21
268.33810605534273
  0
ARC
  8
_0-b_細線3
  6
CONTINUOUS
 62
    7
 10
828.10131417267837
 20
266.67143938867628
 40
1.666666666666667
 50
89.999999999999915
 51
179.99999999999983
  0
LINE
  8
_0-b_細線3
  6
CONTINUOUS
 62
    7
 10
828.10131416899947
 20
268.33810605534273
 11
832.26798083566609
 21
268.33810605534273
  0
LINE
  8
_0-b_細線3
  6
CONTINUOUS
 62
    7
 10
827.76798083750555
 20
274.83810605534273
 11
819.43464750417206
 21
274.83810605534273
  0
LINE
  8
_0-b_細線3
  6
CONTINUOUS
 62
    7
 10
820.76798083750543
 20
241.50477272200928
 11
820.76798083934489
 21
266.67143938867628
  0
LINE
  8
_0-b_細線3
  6
CONTINUOUS
 62
    7
 10
826.43464750417195
 20
241.50477272200928
 11
826.43464750601197
 21
266.67143938867628
  0
LINE
  8
_0-b_細線3
  6
CONTINUOUS
 62
    7
 10
826.43464750417195
 20
241.50477272200928
 11
820.76798083750543
 21
241.50477272200928
  0
ARC
  8
_0-b_細線3
  6
CONTINUOUS
 62
    7
 10
844.767980839948
 20
271.50477272200925
 40
1.666666666666667
 50
89.999999999999915
 51
179.99999999999983
  0
ARC
  8
_0-b_細線3
  6
CONTINUOUS
 62
    7
 10
845.5478961588268
 20
274.83810605534273
 40
1.666666666666667
 50
269.99999999999977
 51
329.99999999999523
  0
ARC
  8
_0-b_細線3
  6
CONTINUOUS
 62
    7
 10
848.43464750477494
 20
273.17143938867622
 40
1.666666666666667
 50
89.999999999999915
 51
150.00000000000915
  0
LINE
  8
_0-b_細線3
  6
CONTINUOUS
 62
    7
 10
844.767980839948
 20
273.17143938867622
 11
845.5478961588268
 21
273.17143938867622
  0
ARC
  8
_0-b_細線3
  6
CONTINUOUS
 62
    7
 10
860.43464750293595
 20
271.50477272200925
 40
1.666666666666667
 50
0
 51
89.999999999999915
  0
ARC
  8
_0-b_細線3
  6
CONTINUOUS
 62
    7
 10
859.65473218405668
 20
274.83810605534273
 40
1.666666666666667
 50
209.99999999999622
 51
269.99999999999977
  0
ARC
  8
_0-b_細線3
  6
CONTINUOUS
 62
    7
 10
856.76798083810854
 20
273.17143938867622
 40
1.666666666666667
 50
29.999999999998682
 51
89.999999999999915
  0
LINE
  8
_0-b_細線3
  6
CONTINUOUS
 62
    7
 10
860.43464750293595
 20
273.17143938867622
 11
859.65473218405668
 21
273.17143938867622
  0
ARC
  8
_0-b_細線3
  6
CONTINUOUS
 62
    7
 10
843.93464750661497
 20
269.17143938867628
 40
0.8333333333333334
 50
179.99999999999983
 51
269.99999999999977
  0
LINE
  8
_0-b_細線3
  6
CONTINUOUS
 62
    7
 10
843.10131417328091
 20
271.50477272200925
 11
843.10131417328091
 21
269.17143938867628
  0
ARC
  8
_0-b_細線3
  6
CONTINUOUS
 62
    7
 10
861.26798083626909
 20
269.17143938867628
 40
0.8333333333333334
 50
269.99999999999977
 51
359.99999999999966
  0
LINE
  8
_0-b_細線3
  6
CONTINUOUS
 62
    7
 10
862.10131416960257
 20
271.50477272200925
 11
862.10131416960257
 21
269.17143938867628
  0
ARC
  8
_0-b_細線3
  6
CONTINUOUS
 62
    7
 10
848.10131417328091
 20
266.67143938867628
 40
1.666666666666667
 50
0
 51
89.999999999999915
  0
LINE
  8
_0-b_細線3
  6
CONTINUOUS
 62
    7
 10
848.10131417328091
 20
268.33810605534273
 11
843.93464750661497
 21
268.33810605534273
  0
ARC
  8
_0-b_細線3
  6
CONTINUOUS
 62
    7
 10
857.10131417328148
 20
266.67143938867628
 40
1.666666666666667
 50
89.999999999999915
 51
179.99999999999983
  0
LINE
  8
_0-b_細線3
  6
CONTINUOUS
 62
    7
 10
857.10131416960257
 20
268.33810605534273
 11
861.26798083626909
 21
268.33810605534273
  0
LINE
  8
_0-b_細線3
  6
CONTINUOUS
 62
    7
 10
856.76798083810854
 20
274.83810605534273
 11
848.43464750477494
 21
274.83810605534273
  0
LINE
  8
_0-b_細線3
  6
CONTINUOUS
 62
    7
 10
849.76798083810854
 20
241.50477272200928
 11
849.767980839948
 21
266.67143938867628
  0
LINE
  8
_0-b_細線3
  6
CONTINUOUS
 62
    7
 10
855.43464750477494
 20
241.50477272200928
 11
855.43464750661485
 21
266.67143938867628
  0
LINE
  8
_0-b_細線3
  6
CONTINUOUS
 62
    7
 10
855.43464750477494
 20
241.50477272200928
 11
849.76798083810854
 21
241.50477272200928
  0
ARC
  8
_0-b_細線3
  6
CONTINUOUS
 62
    7
 10
873.76798084055099
 20
271.50477272200925
 40
1.666666666666667
 50
89.999999999999915
 51
179.99999999999983
  0
ARC
  8
_0-b_細線3
  6
CONTINUOUS
 62
    7
 10
874.54789615942991
 20
274.83810605534273
 40
1.666666666666667
 50
269.99999999999977
 51
329.99999999999523
  0
ARC
  8
_0-b_細線3
  6
CONTINUOUS
 62
    7
 10
877.43464750537794
 20
273.17143938867622
 40
1.666666666666667
 50
89.999999999999915
 51
150.00000000000915
  0
LINE
  8
_0-b_細線3
  6
CONTINUOUS
 62
    7
 10
873.76798084055099
 20
273.17143938867622
 11
874.54789615942991
 21
273.17143938867622
  0
ARC
  8
_0-b_細線3
  6
CONTINUOUS
 62
    7
 10
889.43464750353894
 20
271.50477272200925
 40
1.666666666666667
 50
0
 51
89.999999999999915
  0
ARC
  8
_0-b_細線3
  6
CONTINUOUS
 62
    7
 10
888.65473218465968
 20
274.83810605534273
 40
1.666666666666667
 50
210.00000000000404
 51
269.99999999999977
  0
ARC
  8
_0-b_細線3
  6
CONTINUOUS
 62
    7
 10
885.76798083871154
 20
273.17143938867622
 40
1.666666666666667
 50
29.999999999990862
 51
89.999999999984354
  0
LINE
  8
_0-b_細線3
  6
CONTINUOUS
 62
    7
 10
889.43464750353894
 20
273.17143938867622
 11
888.65473218465968
 21
273.17143938867622
  0
ARC
  8
_0-b_細線3
  6
CONTINUOUS
 62
    7
 10
872.93464750721739
 20
269.17143938867628
 40
0.8333333333333334
 50
179.99999999999983
 51
269.99999999999977
  0
LINE
  8
_0-b_細線3
  6
CONTINUOUS
 62
    7
 10
872.10131417388402
 20
271.50477272200925
 11
872.10131417388402
 21
269.17143938867628
  0
ARC
  8
_0-b_細線3
  6
CONTINUOUS
 62
    7
 10
890.26798083687197
 20
269.17143938867628
 40
0.8333333333333334
 50
269.99999999999977
 51
359.99999999999966
  0
LINE
  8
_0-b_細線3
  6
CONTINUOUS
 62
    7
 10
891.10131417020557
 20
271.50477272200925
 11
891.10131417020557
 21
269.17143938867628
  0
ARC
  8
_0-b_細線3
  6
CONTINUOUS
 62
    7
 10
877.10131417388402
 20
266.67143938867628
 40
1.666666666666667
 50
0
 51
89.999999999999915
  0
LINE
  8
_0-b_細線3
  6
CONTINUOUS
 62
    7
 10
877.10131417388402
 20
268.33810605534273
 11
872.93464750721739
 21
268.33810605534273
  0
ARC
  8
_0-b_細線3
  6
CONTINUOUS
 62
    7
 10
886.10131417388402
 20
266.67143938867628
 40
1.666666666666667
 50
89.999999999999915
 51
179.99999999999983
  0
LINE
  8
_0-b_細線3
  6
CONTINUOUS
 62
    7
 10
886.10131417020511
 20
268.33810605534273
 11
890.26798083687197
 21
268.33810605534273
  0
LINE
  8
_0-b_細線3
  6
CONTINUOUS
 62
    7
 10
885.76798083871154
 20
274.83810605534273
 11
877.43464750537794
 21
274.83810605534273
  0
LINE
  8
_0-b_細線3
  6
CONTINUOUS
 62
    7
 10
878.76798083871154
 20
241.50477272200928
 11
878.76798084055099
 21
266.67143938867628
  0
LINE
  8
_0-b_細線3
  6
CONTINUOUS
 62
    7
 10
884.43464750537805
 20
241.50477272200928
 11
884.43464750721785
 21
266.67143938867628
  0
LINE
  8
_0-b_細線3
  6
CONTINUOUS
 62
    7
 10
884.43464750537805
 20
241.50477272200928
 11
878.76798083871154
 21
241.50477272200928
  0
LINE
  8
_0-d_寸法3
  6
CONTINUOUS
 62
    7
 10
823.60131417083892
 20
284.83810605534273
 11
823.60131417083892
 21
326.50477272200925
  0
LINE
  8
_0-d_寸法3
  6
CONTINUOUS
 62
    7
 10
823.60131417083892
 20
321.50477272200925
 11
833.26057243372975
 21
324.09296317303443
  0
LINE
  8
_0-d_寸法3
  6
CONTINUOUS
 62
    7
 10
823.60131417083892
 20
321.50477272200925
 11
833.26057243372975
 21
318.91658227098407
  0
LINE
  8
_0-d_寸法3
  6
CONTINUOUS
 62
    7
 10
852.60131417144191
 20
284.83810605534273
 11
852.60131417144191
 21
326.50477272200925
  0
LINE
  8
_0-d_寸法3
  6
CONTINUOUS
 62
    7
 10
852.60131417144191
 20
321.50477272200925
 11
842.94205590855131
 21
318.91658227098407
  0
LINE
  8
_0-d_寸法3
  6
CONTINUOUS
 62
    7
 10
852.60131417144191
 20
321.50477272200925
 11
842.94205590855131
 21
324.09296317303449
  0
LINE
  8
_0-d_寸法3
  6
CONTINUOUS
 62
    7
 10
823.60131417083892
 20
321.50477272200925
 11
852.60131417144191
 21
321.50477272200925
  0
TEXT
  8
_0-d_寸法3
 62
    7
 10
812.05513626119773
 20
306.50477272200925
 40
15
 41
1
 50
0
  1
(17.4)
  0
LINE
  8
_0-d_寸法3
  6
CONTINUOUS
 62
    7
 10
852.60131417144191
 20
321.50477272200925
 11
862.26057243433274
 21
324.09296317303438
  0
LINE
  8
_0-d_寸法3
  6
CONTINUOUS
 62
    7
 10
852.60131417144191
 20
321.50477272200925
 11
862.26057243433274
 21
318.91658227098401
  0
LINE
  8
_0-d_寸法3
  6
CONTINUOUS
 62
    7
 10
881.60131417204502
 20
284.83810605534273
 11
881.60131417204502
 21
326.50477272200925
  0
LINE
  8
_0-d_寸法3
  6
CONTINUOUS
 62
    7
 10
881.60131417204502
 20
321.50477272200925
 11
871.94205590915431
 21
318.91658227098407
  0
LINE
  8
_0-d_寸法3
  6
CONTINUOUS
 62
    7
 10
881.60131417204502
 20
321.50477272200925
 11
871.94205590915431
 21
324.09296317303449
  0
LINE
  8
_0-d_寸法3
  6
CONTINUOUS
 62
    7
 10
852.60131417144191
 20
321.50477272200925
 11
881.60131417204502
 21
321.50477272200925
  0
TEXT
  8
_0-d_寸法3
 62
    7
 10
849.12180292786434
 20
321.50477272200925
 40
15
 41
1
 50
0
  1
(17.4)
  0
ARC
  8
_0-b_細線3
  6
CONTINUOUS
 62
    7
 10
757.76798083782194
 20
271.50477272200925
 40
1.666666666666667
 50
89.999999999999915
 51
179.99999999999983
  0
ARC
  8
_0-b_細線3
  6
CONTINUOUS
 62
    7
 10
758.54789615670086
 20
274.83810605534273
 40
1.666666666666667
 50
269.99999999999977
 51
330.00000000000301
  0
ARC
  8
_0-b_細線3
  6
CONTINUOUS
 62
    7
 10
761.434647502649
 20
273.17143938867622
 40
1.666666666666667
 50
89.999999999999915
 51
150.00000000000134
  0
LINE
  8
_0-b_細線3
  6
CONTINUOUS
 62
    7
 10
757.76798083782194
 20
273.17143938867622
 11
758.54789615670086
 21
273.17143938867622
  0
ARC
  8
_0-b_細線3
  6
CONTINUOUS
 62
    7
 10
773.43464750081012
 20
271.50477272200925
 40
1.666666666666667
 50
0
 51
89.999999999999915
  0
ARC
  8
_0-b_細線3
  6
CONTINUOUS
 62
    7
 10
772.65473218193108
 20
274.83810605534273
 40
1.666666666666667
 50
209.99999999999622
 51
269.99999999999977
  0
ARC
  8
_0-b_細線3
  6
CONTINUOUS
 62
    7
 10
769.7679808359826
 20
273.17143938867622
 40
1.666666666666667
 50
29.999999999990862
 51
89.999999999984354
  0
LINE
  8
_0-b_細線3
  6
CONTINUOUS
 62
    7
 10
773.43464750081012
 20
273.17143938867622
 11
772.65473218193108
 21
273.17143938867622
  0
ARC
  8
_0-b_細線3
  6
CONTINUOUS
 62
    7
 10
756.93464750448902
 20
269.17143938867628
 40
0.8333333333333334
 50
179.99999999999983
 51
269.99999999999977
  0
LINE
  8
_0-b_細線3
  6
CONTINUOUS
 62
    7
 10
756.10131417115497
 20
271.50477272200925
 11
756.10131417115497
 21
269.17143938867628
  0
ARC
  8
_0-b_細線3
  6
CONTINUOUS
 62
    7
 10
774.26798083414315
 20
269.17143938867628
 40
0.8333333333333334
 50
269.99999999999977
 51
359.99999999999966
  0
LINE
  8
_0-b_細線3
  6
CONTINUOUS
 62
    7
 10
775.10131416747697
 20
271.50477272200925
 11
775.10131416747697
 21
269.17143938867628
  0
ARC
  8
_0-b_細線3
  6
CONTINUOUS
 62
    7
 10
761.10131417115497
 20
266.67143938867628
 40
1.666666666666667
 50
0
 51
89.999999999999915
  0
LINE
  8
_0-b_細線3
  6
CONTINUOUS
 62
    7
 10
761.10131417115497
 20
268.33810605534273
 11
756.93464750448902
 21
268.33810605534273
  0
ARC
  8
_0-b_細線3
  6
CONTINUOUS
 62
    7
 10
770.10131417115542
 20
266.67143938867628
 40
1.666666666666667
 50
89.999999999999915
 51
179.99999999999983
  0
LINE
  8
_0-b_細線3
  6
CONTINUOUS
 62
    7
 10
770.10131416747652
 20
268.33810605534273
 11
774.26798083414315
 21
268.33810605534273
  0
LINE
  8
_0-b_細線3
  6
CONTINUOUS
 62
    7
 10
769.7679808359826
 20
274.83810605534273
 11
761.434647502649
 21
274.83810605534273
  0
LINE
  8
_0-b_細線3
  6
CONTINUOUS
 62
    7
 10
762.76798083598294
 20
241.50477272200928
 11
762.76798083782194
 21
266.67143938867628
  0
LINE
  8
_0-b_細線3
  6
CONTINUOUS
 62
    7
 10
768.434647502649
 20
241.50477272200928
 11
768.43464750448902
 21
266.67143938867628
  0
LINE
  8
_0-b_細線3
  6
CONTINUOUS
 62
    7
 10
768.434647502649
 20
241.50477272200928
 11
762.76798083598294
 21
241.50477272200928
  0
ARC
  8
_0-b_細線3
  6
CONTINUOUS
 62
    7
 10
786.76798083842505
 20
271.50477272200925
 40
1.666666666666667
 50
89.999999999999915
 51
179.99999999999983
  0
ARC
  8
_0-b_細線3
  6
CONTINUOUS
 62
    7
 10
787.54789615730431
 20
274.83810605534273
 40
1.666666666666667
 50
269.99999999999977
 51
329.99999999998744
  0
ARC
  8
_0-b_細線3
  6
CONTINUOUS
 62
    7
 10
790.43464750325199
 20
273.17143938867622
 40
1.666666666666667
 50
89.999999999999915
 51
150.00000000000915
  0
LINE
  8
_0-b_細線3
  6
CONTINUOUS
 62
    7
 10
786.76798083842505
 20
273.17143938867622
 11
787.54789615730431
 21
273.17143938867622
  0
ARC
  8
_0-b_細線3
  6
CONTINUOUS
 62
    7
 10
802.434647501413
 20
271.50477272200925
 40
1.666666666666667
 50
0
 51
89.999999999999915
  0
ARC
  8
_0-b_細線3
  6
CONTINUOUS
 62
    7
 10
801.65473218253373
 20
274.83810605534273
 40
1.666666666666667
 50
210.00000000000404
 51
269.99999999999977
  0
ARC
  8
_0-b_細線3
  6
CONTINUOUS
 62
    7
 10
798.76798083658605
 20
273.17143938867622
 40
1.666666666666667
 50
29.999999999998682
 51
89.999999999999915
  0
LINE
  8
_0-b_細線3
  6
CONTINUOUS
 62
    7
 10
802.434647501413
 20
273.17143938867622
 11
801.65473218253373
 21
273.17143938867622
  0
ARC
  8
_0-b_細線3
  6
CONTINUOUS
 62
    7
 10
785.93464750509202
 20
269.17143938867628
 40
0.8333333333333334
 50
179.99999999999983
 51
269.99999999999977
  0
LINE
  8
_0-b_細線3
  6
CONTINUOUS
 62
    7
 10
785.10131417175842
 20
271.50477272200925
 11
785.10131417175842
 21
269.17143938867628
  0
ARC
  8
_0-b_細線3
  6
CONTINUOUS
 62
    7
 10
803.26798083474614
 20
269.17143938867628
 40
0.8333333333333334
 50
269.99999999999977
 51
359.99999999999966
  0
LINE
  8
_0-b_細線3
  6
CONTINUOUS
 62
    7
 10
804.10131416807963
 20
271.50477272200925
 11
804.10131416807963
 21
269.17143938867628
  0
ARC
  8
_0-b_細線3
  6
CONTINUOUS
 62
    7
 10
790.10131417175842
 20
266.67143938867628
 40
1.666666666666667
 50
0
 51
89.999999999999915
  0
LINE
  8
_0-b_細線3
  6
CONTINUOUS
 62
    7
 10
790.10131417175842
 20
268.33810605534273
 11
785.93464750509202
 21
268.33810605534273
  0
ARC
  8
_0-b_細線3
  6
CONTINUOUS
 62
    7
 10
799.10131417175853
 20
266.67143938867628
 40
1.666666666666667
 50
89.999999999999915
 51
179.99999999999983
  0
LINE
  8
_0-b_細線3
  6
CONTINUOUS
 62
    7
 10
799.10131416807963
 20
268.33810605534273
 11
803.26798083474614
 21
268.33810605534273
  0
LINE
  8
_0-b_細線3
  6
CONTINUOUS
 62
    7
 10
798.76798083658605
 20
274.83810605534273
 11
790.43464750325199
 21
274.83810605534273
  0
LINE
  8
_0-b_細線3
  6
CONTINUOUS
 62
    7
 10
791.76798083658559
 20
241.50477272200928
 11
791.76798083842505
 21
266.67143938867628
  0
LINE
  8
_0-b_細線3
  6
CONTINUOUS
 62
    7
 10
797.43464750325245
 20
241.50477272200928
 11
797.4346475050919
 21
266.67143938867628
  0
LINE
  8
_0-b_細線3
  6
CONTINUOUS
 62
    7
 10
797.43464750325245
 20
241.50477272200928
 11
791.76798083658559
 21
241.50477272200928
  0
LINE
  8
_0-d_寸法3
  6
CONTINUOUS
 62
    7
 10
775.10131416747697
 20
281.50477272200925
 11
775.10131416747697
 21
326.50477272200925
  0
LINE
  8
_0-d_寸法3
  6
CONTINUOUS
 62
    7
 10
775.10131416747697
 20
321.50477272200925
 11
765.44205590458637
 21
318.91658227098407
  0
LINE
  8
_0-d_寸法3
  6
CONTINUOUS
 62
    7
 10
775.10131416747697
 20
321.50477272200925
 11
765.44205590458637
 21
324.09296317303449
  0
LINE
  8
_0-d_寸法3
  6
CONTINUOUS
 62
    7
 10
785.10131417175842
 20
281.50477272200925
 11
785.10131417175842
 21
326.50477272200925
  0
LINE
  8
_0-d_寸法3
  6
CONTINUOUS
 62
    7
 10
750.72735848431012
 20
321.50477272200925
 11
785.10131417175842
 21
321.50477272200925
  0
TEXT
  8
_0-d_寸法3
 62
    7
 10
750.72735848431012
 20
306.50477272200925
 40
15
 41
1
 50
0
  1
(6)
  0
LINE
  8
_0-d_寸法3
  6
CONTINUOUS
 62
    7
 10
785.10131417175842
 20
321.50477272200925
 11
794.76057243464925
 21
324.09296317303443
  0
LINE
  8
_0-d_寸法3
  6
CONTINUOUS
 62
    7
 10
785.10131417175842
 20
321.50477272200925
 11
794.76057243464925
 21
318.91658227098407
  0
LINE
  8
_0-d_寸法3
  6
CONTINUOUS
 62
    7
 10
804.10131416807963
 20
281.50477272200925
 11
804.10131416807963
 21
326.50477272200925
  0
LINE
  8
_0-d_寸法3
  6
CONTINUOUS
 62
    7
 10
804.10131416807963
 20
321.50477272200925
 11
794.44205590518891
 21
318.91658227098407
  0
LINE
  8
_0-d_寸法3
  6
CONTINUOUS
 62
    7
 10
804.10131416807963
 20
321.50477272200925
 11
794.44205590518891
 21
324.09296317303449
  0
LINE
  8
_0-d_寸法3
  6
CONTINUOUS
 62
    7
 10
785.10131417175842
 20
321.50477272200925
 11
804.10131416807963
 21
321.50477272200925
  0
TEXT
  8
_0-d_寸法3
 62
    7
 10
775.83661774356915
 20
321.50477272200925
 40
15
 41
1
 50
0
  1
11.4
  0
ARC
  8
_0-a_極細3
  6
CONTINUOUS
 62
    7
 10
912.4307174965752
 20
263.32482356365773
 40
17.558839598481345
 50
150.03871396148165
 51
205.23810402387883
  0
ARC
  8
_0-a_極細3
  6
CONTINUOUS
 62
    7
 10
880.6652423066771
 20
248.35131435102707
 40
17.558839598481345
 50
330.03871396148202
 51
25.238104023878222
  0
ARC
  8
_0-a_極細3
  6
CONTINUOUS
 62
    7
 10
767.5109020582413
 20
263.32482356365773
 40
17.558839598481345
 50
150.03871396148165
 51
205.23810402387883
  0
ARC
  8
_0-a_極細3
  6
CONTINUOUS
 62
    7
 10
735.74542686834309
 20
248.35131435102707
 40
17.558839598481345
 50
330.03871396148202
 51
25.238104023878222
  0
LINE
  8
_0-a_極細3
  6
CENTER1
 62
    7
 10
902.40008116113484
 20
255.83806895734261
 11
739.82153853320915
 21
255.83806895734261
  0
LINE
  8
_0-d_寸法3
  6
CONTINUOUS
 62
    7
 10
889.79283461525085
 20
247.24053708551975
 11
925.14517634093636
 21
271.99451325521056
  0
LINE
  8
_0-d_寸法3
  6
CONTINUOUS
 62
    7
 10
921.04941611949141
 20
269.12663107345526
 11
918.46122566846634
 21
278.78588933634592
  0
LINE
  8
_0-d_寸法3
  6
CONTINUOUS
 62
    7
 10
921.04941611949141
 20
269.12663107345526
 11
923.63760657051671
 21
278.78588933634592
  0
LINE
  8
_0-d_寸法3
  6
CONTINUOUS
 62
    7
 10
889.79283461525085
 20
280.57387041885323
 11
925.14517634093636
 21
305.32784658854399
  0
LINE
  8
_0-d_寸法3
  6
CONTINUOUS
 62
    7
 10
921.04941611949141
 20
302.45996440678874
 11
923.63760657051671
 21
292.80070614389803
  0
LINE
  8
_0-d_寸法3
  6
CONTINUOUS
 62
    7
 10
921.04941611949141
 20
302.45996440678874
 11
918.46122566846611
 21
292.80070614389808
  0
LINE
  8
_0-d_寸法3
  6
CONTINUOUS
 62
    7
 10
921.04941611949141
 20
269.12663107345526
 11
921.04941611949141
 21
302.45996440678874
  0
TEXT
  8
_0-d_寸法3
 62
    7
 10
921.04941611949141
 20
278.29329774012268
 40
15
 41
1
 50
90
  1
20
  0
LINE
  8
_0-b_細線3
  6
CONTINUOUS
 62
    7
 10
826.43464750509202
 20
245.00473562400927
 11
849.76798083842539
 21
245.00473562400927
  0
LINE
  8
_0-b_細線3
  6
CONTINUOUS
 62
    7
 10
855.43464750569501
 20
245.00473562400927
 11
878.76798083902838
 21
245.00473562400927
  0
LINE
  8
_0-b_細線3
  6
CONTINUOUS
 62
    7
 10
768.43464750356907
 20
245.00473562400927
 11
791.76798083690244
 21
245.00473562400927
  0
LINE
  8
_0-b_細線3
  6
CONTINUOUS
 62
    7
 10
797.43464750417252
 20
245.00473562400927
 11
820.76798083750543
 21
245.00473562400927
  0
LINE
  8
_0-b_細線3
  6
CONTINUOUS
 62
    7
 10
826.43464750509202
 20
266.67140229067587
 11
849.76798083842539
 21
266.67140229067587
  0
LINE
  8
_0-b_細線3
  6
CONTINUOUS
 62
    7
 10
855.43464750569501
 20
266.67140229067587
 11
878.76798083902838
 21
266.67140229067587
  0
LINE
  8
_0-b_細線3
  6
CONTINUOUS
 62
    7
 10
768.43464750356907
 20
266.67140229067587
 11
791.76798083690244
 21
266.67140229067587
  0
LINE
  8
_0-b_細線3
  6
CONTINUOUS
 62
    7
 10
797.43464750417252
 20
266.67140229067587
 11
820.76798083750543
 21
266.67140229067587
  0
LINE
  8
_0-b_細線3
  6
CONTINUOUS
 62
    7
 10
884.43464750629801
 20
266.67140229067587
 11
895.1937438970981
 21
266.67140229067587
  0
LINE
  8
_0-b_細線3
  6
CONTINUOUS
 62
    7
 10
884.43464750629801
 20
245.00473562400927
 11
897.9022159061542
 21
245.00473562400927
  0
LINE
  8
_0-b_細線3
  6
CONTINUOUS
 62
    7
 10
750.2739284587642
 20
266.67140229067587
 11
762.76798083629944
 21
266.67140229067587
  0
LINE
  8
_0-b_細線3
  6
CONTINUOUS
 62
    7
 10
752.9824004678203
 20
245.00473562400927
 11
762.76798083629944
 21
245.00473562400927
  0
TEXT
  8
_0-7_枠細線
 62
    5
 10
778.11727366227842
 20
201.15372028340161
 40
25
 41
0.8
 50
0
  1
側面詳細図
  0
TEXT
  8
_0-7_枠細線
 62
    5
 10
893.06624341144641
 20
201.15372028340161
 40
20
 41
0.6
 50
0
  1
Ｓ＝１：３
  0
LINE
  8
_0-7_枠細線
  6
CONTINUOUS
 62
    5
 10
785.16995454985135
 20
356.80454176804568
 11
785.16995454985135
 21
436.80454176804568
  0
TEXT
  8
_0-7_枠細線
 62
    5
 10
807.66995454985135
 20
414.30454176804568
 40
15
 41
1
 50
0
  1
耐荷重
  0
TEXT
  8
_0-7_枠細線
 62
    5
 10
800.16995454985135
 20
384.30454176804568
 40
15
 41
1
 50
0
  1
3.5kN/㎡
  0
TEXT
  8
_0-7_枠細線
 62
    5
 10
792.66995454985135
 20
364.30454176804568
 40
15
 41
1
 50
0
  1
（歩道用）
  0
LINE
  8
_0-7_枠細線
  6
CONTINUOUS
 62
    5
 10
875.16995454985135
 20
356.80454176804568
 11
875.16995454985135
 21
436.80454176804568
  0
TEXT
  8
_0-7_枠細線
 62
    5
 10
897.66995454985135
 20
414.30454176804568
 40
15
 41
1
 50
0
  1
蓋重量
  0
LINE
  8
_0-7_枠細線
  6
CONTINUOUS
 62
    5
 10
965.16995454985135
 20
356.80454176804568
 11
965.16995454985135
 21
436.80454176804568
  0
TEXT
  8
_0-7_枠細線
 62
    5
 10
987.66995454985135
 20
414.30454176804568
 40
15
 41
1
 50
0
  1
枠重量
  0
LINE
  8
_0-7_枠細線
  6
CONTINUOUS
 62
    5
 10
785.16995454985135
 20
406.80454176804568
 11
1055.1699545498514
 21
406.80454176804568
  0
LINE
  8
_0-7_枠細線
  6
CONTINUOUS
 62
    5
 10
785.16995454985135
 20
436.80454176804568
 11
1055.1699545498514
 21
436.80454176804568
  0
LINE
  8
_0-7_枠細線
  6
CONTINUOUS
 62
    5
 10
785.16995454985135
 20
356.80454176804568
 11
1055.1699545498514
 21
356.80454176804568
  0
LINE
  8
_0-7_枠細線
  6
CONTINUOUS
 62
    5
 10
1055.1699545498514
 20
356.80454176804568
 11
1055.1699545498514
 21
436.80454176804568
  0
TEXT
  8
_0-7_枠細線
 62
    5
 10
980.16995454985135
 20
375.55454176804568
 40
15
 41
0.8000000000000001
 50
0
  1
2.4kg/ｍ組
  0
TEXT
  8
_0-7_枠細線
 62
    5
 10
896.16995454985158
 20
375.55454176804568
 40
15
 41
0.8000000000000001
 50
0
  1
1.6kg/枚
  0
TEXT
  8
_0-7_枠細線
 62
    5
 10
938.85037037037023
 20
857.5
 40
12.5
 41
1
 50
0
  1
アンカー材質･厚み変更
  0
LINE
  8
_0-5_寸法線
  6
CONTINUOUS
 62
    7
 10
1300.6632812499922
 20
732.60000000000105
 11
1298.075090798967
 21
742.25925826289188
  0
LINE
  8
_0-5_寸法線
  6
CONTINUOUS
 62
    7
 10
1300.6632812499922
 20
732.60000000000105
 11
1303.2514717010176
 21
742.25925826289188
  0
LINE
  8
_0-5_寸法線
  6
CONTINUOUS
 62
    7
 10
1258.7490655516212
 20
729.60000000000105
 11
1305.6632812499922
 21
729.60000000000105
  0
CIRCLE
  8
_0-5_寸法線
  6
CONTINUOUS
 62
    1
 10
1300.6632812499922
 20
729.60000000000105
 40
1.5000000000000002
  0
LINE
  8
_0-5_寸法線
  6
CONTINUOUS
 62
    7
 10
1300.6632812499922
 20
757.60000000000105
 11
1300.6632812499922
 21
729.60000000000105
  0
TEXT
  8
_0-5_寸法線
 62
    7
 10
1300.6632812499922
 20
746.11793719998241
 40
15
 41
1
 50
90
  1
3
  0
LINE
  8
_0-5_寸法線
  6
CONTINUOUS
 62
    7
 10
1258.2196607261199
 20
728.10000000000105
 11
1305.6632812499922
 21
728.10000000000105
  0
LINE
  8
_0-5_寸法線
  6
CONTINUOUS
 62
    7
 10
1300.6632812499922
 20
729.60000000000105
 11
1300.6632812499922
 21
728.10000000000105
  0
TEXT
  8
_0-5_寸法線
 62
    7
 10
1318.9877570793149
 20
705.60000000000105
 40
15
 41
1
 50
90
  1
1.5
  0
LINE
  8
_0-5_寸法線
  6
CONTINUOUS
 62
    7
 10
1300.6632812499922
 20
728.10000000000105
 11
1303.2514717010176
 21
718.44074173711033
  0
LINE
  8
_0-5_寸法線
  6
CONTINUOUS
 62
    7
 10
1300.6632812499922
 20
728.10000000000105
 11
1298.075090798967
 21
718.44074173711033
  0
LINE
  8
_0-5_寸法線
  6
CONTINUOUS
 62
    7
 10
1263.1069017738687
 20
577.10000000000105
 11
1305.6632812499927
 21
577.10000000000105
  0
LINE
  8
_0-5_寸法線
  6
CONTINUOUS
 62
    7
 10
1300.6632812499927
 20
577.10000000000105
 11
1298.0750907989677
 21
586.75925826289176
  0
LINE
  8
_0-5_寸法線
  6
CONTINUOUS
 62
    7
 10
1300.6632812499927
 20
577.10000000000105
 11
1303.2514717010179
 21
586.75925826289176
  0
LINE
  8
_0-5_寸法線
  6
CONTINUOUS
 62
    7
 10
1300.6632812499922
 20
728.10000000000105
 11
1300.6632812499927
 21
577.10000000000105
  0
TEXT
  8
_0-5_寸法線
 62
    7
 10
1300.6632812499925
 20
641.35000000000105
 40
15
 41
1
 50
90
  1
151
  0
LINE
  8
_0-5_寸法線
  6
CONTINUOUS
 62
    7
 10
1262.5774969483673
 20
575.59999999999945
 11
1305.6632812499925
 21
575.59999999999945
  0
CIRCLE
  8
_0-5_寸法線
  6
CONTINUOUS
 62
    1
 10
1300.6632812499925
 20
575.59999999999945
 40
1.5000000000000002
  0
LINE
  8
_0-5_寸法線
  6
CONTINUOUS
 62
    7
 10
1300.6632812499927
 20
577.10000000000105
 11
1300.6632812499925
 21
575.59999999999945
  0
TEXT
  8
_0-5_寸法線
 62
    7
 10
1320.6632812499925
 20
575.59999999999945
 40
15
 41
1
 50
90
  1
1.5
  0
LINE
  8
_0-5_寸法線
  6
CONTINUOUS
 62
    7
 10
1300.6632812499925
 20
572.59999999999945
 11
1303.2514717010176
 21
562.94074173710874
  0
LINE
  8
_0-5_寸法線
  6
CONTINUOUS
 62
    7
 10
1300.6632812499925
 20
572.59999999999945
 11
1298.0750907989673
 21
562.94074173710874
  0
LINE
  8
_0-5_寸法線
  6
CONTINUOUS
 62
    7
 10
1300.6632812499925
 20
575.59999999999945
 11
1300.6632812499925
 21
547.59999999999945
  0
TEXT
  8
_0-5_寸法線
 62
    7
 10
1300.6632812499925
 20
550.44688862465318
 40
15
 41
1
 50
90
  1
3
  0
LINE
  8
_0-d_寸法3
  6
CONTINUOUS
 62
    7
 10
313.46758651983492
 20
353.26245819900873
 11
313.46758651983492
 21
418.26245653066445
  0
LINE
  8
_0-d_寸法3
  6
CONTINUOUS
 62
    7
 10
313.46758651983492
 20
413.26245653066445
 11
303.80832825694415
 21
410.67426607963921
  0
LINE
  8
_0-d_寸法3
  6
CONTINUOUS
 62
    7
 10
313.46758651983492
 20
413.26245653066445
 11
303.80832825694426
 21
415.85064698168964
  0
LINE
  8
_0-d_寸法3
  6
CONTINUOUS
 62
    7
 10
318.46758651983492
 20
352.42912486567485
 11
318.46758651983492
 21
418.26245653066445
  0
CIRCLE
  8
_0-d_寸法3
  6
CONTINUOUS
 62
    1
 10
318.46758651983492
 20
413.26245653066445
 40
1.5000000000000002
  0
LINE
  8
_0-d_寸法3
  6
CONTINUOUS
 62
    7
 10
288.46758651983492
 20
413.26245653066445
 11
318.46758651983492
 21
413.26245653066445
  0
TEXT
  8
_0-d_寸法3
 62
    7
 10
293.50021057628032
 20
413.26245653066445
 40
15
 41
1
 50
0
  1
3
  0
LINE
  8
_0-d_寸法3
  6
CONTINUOUS
 62
    7
 10
320.96758651983487
 20
353.26245819900828
 11
320.96758651983487
 21
418.26245653066445
  0
LINE
  8
_0-d_寸法3
  6
CONTINUOUS
 62
    7
 10
318.46758651983492
 20
413.26245653066445
 11
320.96758651983487
 21
413.26245653066445
  0
TEXT
  8
_0-d_寸法3
 62
    7
 10
322.77503755572235
 20
395.74130346491296
 40
15
 41
1
 50
0
  1
1.5
  0
LINE
  8
_0-d_寸法3
  6
CONTINUOUS
 62
    7
 10
320.96758651983487
 20
413.26245653066445
 11
330.62684478272553
 21
415.85064698168964
  0
LINE
  8
_0-d_寸法3
  6
CONTINUOUS
 62
    7
 10
320.96758651983487
 20
413.26245653066445
 11
330.62684478272553
 21
410.67426607963921
  0
LINE
  8
_0-d_寸法3
  6
CONTINUOUS
 62
    7
 10
572.63425318650104
 20
353.26245819900828
 11
572.63425318650104
 21
418.26245653066445
  0
LINE
  8
_0-d_寸法3
  6
CONTINUOUS
 62
    7
 10
572.63425318650104
 20
413.26245653066445
 11
562.97499492361032
 21
410.67426607963921
  0
LINE
  8
_0-d_寸法3
  6
CONTINUOUS
 62
    7
 10
572.63425318650104
 20
413.26245653066445
 11
562.97499492361032
 21
415.85064698168964
  0
LINE
  8
_0-d_寸法3
  6
CONTINUOUS
 62
    7
 10
320.96758651983487
 20
413.26245653066445
 11
572.63425318650104
 21
413.26245653066445
  0
TEXT
  8
_0-d_寸法3
 62
    7
 10
435.5509198531679
 20
413.26245653066445
 40
15
 41
1
 50
0
  1
151
  0
LINE
  8
_0-d_寸法3
  6
CONTINUOUS
 62
    7
 10
575.13425318650104
 20
352.42912486567485
 11
575.13425318650104
 21
418.26245653066445
  0
CIRCLE
  8
_0-d_寸法3
  6
CONTINUOUS
 62
    1
 10
575.13425318650104
 20
413.26245653066445
 40
1.5000000000000002
  0
LINE
  8
_0-d_寸法3
  6
CONTINUOUS
 62
    7
 10
572.63425318650104
 20
413.26245653066445
 11
575.13425318650104
 21
413.26245653066445
  0
TEXT
  8
_0-d_寸法3
 62
    7
 10
547.10053923655505
 20
395.4227526509203
 40
15
 41
1
 50
0
  1
1.5
  0
LINE
  8
_0-d_寸法3
  6
CONTINUOUS
 62
    7
 10
580.13425318650104
 20
353.26245819900873
 11
580.13425318650104
 21
418.26245653066445
  0
LINE
  8
_0-d_寸法3
  6
CONTINUOUS
 62
    7
 10
580.13425318650104
 20
413.26245653066445
 11
589.79351144939176
 21
415.85064698168958
  0
LINE
  8
_0-d_寸法3
  6
CONTINUOUS
 62
    7
 10
580.13425318650104
 20
413.26245653066445
 11
589.79351144939176
 21
410.67426607963915
  0
LINE
  8
_0-d_寸法3
  6
CONTINUOUS
 62
    7
 10
575.13425318650104
 20
413.26245653066445
 11
605.13425318650104
 21
413.26245653066445
  0
TEXT
  8
_0-d_寸法3
 62
    7
 10
595.03771057628092
 20
413.26245653066445
 40
15
 41
1
 50
0
  1
3
  0
ENDSEC
  0
EOF
