  0
SECTION
  2
HEADER
  9
$ACADVER
  1
AC1009
  9
$INSBASE
 10
0
 20
0
 30
0
  9
$EXTMIN
 10
0
 20
0
  9
$EXTMAX
 10
1485
 20
1050
  9
$LIMMIN
 10
0
 20
0
  9
$LIMMAX
 10
1485
 20
1050
  9
$LTSCALE
 40
5
  0
ENDSEC
  0
SECTION
  2
TABLES
  0
TABLE
  2
LTYPE
 70
     9
  0
LTYPE
  2
CONTINUOUS
 70
    64
  3
実線
 72
    65
 73
     0
 40
0.0
  0
LTYPE
  2
DASHED1
 70
    64
  3
--  --  --  --  --  --  --  --  
 72
    65
 73
     2
 40
2.5
 49
1.25
 49
-1.25
  0
LTYPE
  2
DASHED2
 70
    64
  3
----    ----    ----    ----    
 72
    65
 73
     2
 40
5.0
 49
2.5
 49
-2.5
  0
LTYPE
  2
DASHED3
 70
    64
  3
------  ------  ------  ------  
 72
    65
 73
     2
 40
5.0
 49
3.75
 49
-1.25
  0
LTYPE
  2
CENTER1
 70
    64
  3
----- - ----- - ----- - ----- - 
 72
    65
 73
     4
 40
10.0
 49
6.25
 49
-1.25
 49
1.25
 49
-1.25
  0
LTYPE
  2
CENTER2
 70
    64
  3
----------  --  ----------  --  
 72
    65
 73
     4
 40
20.0
 49
12.5
 49
-2.5
 49
2.5
 49
-2.5
  0
LTYPE
  2
PHANTOM1
 70
    64
  3
--- - - --- - - --- - - --- - - 
 72
    65
 73
     6
 40
10.0
 49
3.25
 49
-1.25
 49
1.25
 49
-1.25
 49
1.25
 49
-1.25
  0
LTYPE
  2
PHANTOM2
 70
    64
  3
--------  -  -  --------  -  -  
 72
    65
 73
     6
 40
20.0
 49
10.0
 49
-2.5
 49
1.25
 49
-2.5
 49
1.25
 49
-2.5
  0
LTYPE
  2
DOT
 70
    64
  3
-   -   -   -   -   -   -   -   
 72
    65
 73
     2
 40
2.5
 49
0.625
 49
-1.875
  0
LTYPE
  2
DUMMY
 70
    64
  3
ダミー
 72
    65
 73
     0
 40
0.0
  0
LTYPE
  2
RAND1
 70
    64
  3
ランダム線1
 72
    65
 73
     4
 40
10.0
 49
1.0
 49
-2.0
 49
3.0
 49
-4.0
  0
LTYPE
  2
RAND2
 70
    64
  3
ランダム線2
 72
    65
 73
     4
 40
14.0
 49
2.0
 49
-3.0
 49
4.0
 49
-5.0
  0
LTYPE
  2
RAND3
 70
    64
  3
ランダム線3
 72
    65
 73
     4
 40
18.0
 49
3.0
 49
-4.0
 49
5.0
 49
-6.0
  0
LTYPE
  2
RAND4
 70
    64
  3
ランダム線4
 72
    65
 73
     4
 40
22.0
 49
4.0
 49
-5.0
 49
6.0
 49
-7.0
  0
LTYPE
  2
RAND5
 70
    64
  3
ランダム線5
 72
    65
 73
     4
 40
26.0
 49
5.0
 49
-6.0
 49
7.0
 49
-8.0
  0
LTYPE
  2
LONG1
 70
    64
  3
----------  --  ----------  --  
 72
    65
 73
     4
 40
40.0
 49
32.5
 49
-2.5
 49
2.5
 49
-2.5
  0
LTYPE
  2
LONG2
 70
    64
  3
--------  -  -  --------  -  -  
 72
    65
 73
     6
 40
40.0
 49
30.0
 49
-2.5
 49
1.25
 49
-2.5
 49
1.25
 49
-2.5
  0
LTYPE
  2
LONG3
 70
    64
  3
+++++++++++++++..+++++++++++++++
 72
    65
 73
     2
 40
40.0
 49
37.5
 49
-2.5
  0
LTYPE
  2
LONG4
 70
    64
  3
+++++++++++++++..+++++++++++++++
 72
    65
 73
     2
 40
80.0
 49
75.0
 49
-5.0
  0
LTYPE
  2
LONG5
 70
    64
  3
----------  --  ----------  --  
 72
    65
 73
     4
 40
60.0
 49
37.5
 49
-7.5
 49
7.5
 49
-7.5
  0
LTYPE
  2
dashed
 70
   64
  3
-------   -------------   ------
 72
   65
 73
    2
 40
7.5
 49
6
 49
-1.5
  0
LTYPE
  2
dashed_spaced
 70
   64
  3
----        --------        ----
 72
   65
 73
    2
 40
12
 49
6
 49
-6
  0
LTYPE
  2
long_dashed_dotted
 70
   64
  3
------------- --- --------------
 72
   65
 73
    4
 40
15.25
 49
12
 49
-1.5
 49
0.25
 49
-1.5
  0
LTYPE
  2
long_dashed_double-dotted
 70
   64
  3
----------- --- --- ------------
 72
   65
 73
    6
 40
17
 49
12
 49
-1.5
 49
0.25
 49
-1.5
 49
0.25
 49
-1.5
  0
LTYPE
  2
long_dashed_triplicate-dotted
 70
   64
  3
--------- --- --- --- ----------
 72
   65
 73
    8
 40
18.75
 49
12
 49
-1.5
 49
0.25
 49
-1.5
 49
0.25
 49
-1.5
 49
0.25
 49
-1.5
  0
LTYPE
  2
dotted
 70
   64
  3
   -       -       -       -    
 72
   65
 73
    2
 40
1.75
 49
0.25
 49
-1.5
  0
LTYPE
  2
chain
 70
   64
  3
-------------- -- --------------
 72
   65
 73
    4
 40
18.5
 49
12
 49
-1.5
 49
3.5
 49
-1.5
  0
LTYPE
  2
chain_double_dash
 70
   64
  3
------------ -- -- -------------
 72
   65
 73
    6
 40
23.5
 49
12
 49
-1.5
 49
3.5
 49
-1.5
 49
3.5
 49
-1.5
  0
LTYPE
  2
dashed_dotted
 70
   64
  3
-----------     -     ----------
 72
   65
 73
    4
 40
9.25
 49
6
 49
-1.5
 49
0.25
 49
-1.5
  0
LTYPE
  2
double-dashed_dotted
 70
   64
  3
------   -----------   -   -----
 72
   65
 73
    6
 40
16.75
 49
6
 49
-1.5
 49
6
 49
-1.5
 49
0.25
 49
-1.5
  0
LTYPE
  2
dashed_double-dotted
 70
   64
  3
---------    -    -    ---------
 72
   65
 73
    6
 40
11
 49
6
 49
-1.5
 49
0.25
 49
-1.5
 49
0.25
 49
-1.5
  0
LTYPE
  2
double-dashed_double-dotted
 70
   64
  3
-----   ---------   -   -   ----
 72
   65
 73
    8
 40
18.5
 49
6
 49
-1.5
 49
6
 49
-1.5
 49
0.25
 49
-1.5
 49
0.25
 49
-1.5
  0
LTYPE
  2
dashed_triplicate-dotted
 70
   64
  3
-------    -    -    -    ------
 72
   65
 73
    8
 40
12.75
 49
6
 49
-1.5
 49
0.25
 49
-1.5
 49
0.25
 49
-1.5
 49
0.25
 49
-1.5
  0
LTYPE
  2
double-dashed_triplicate-dotted
 70
   64
  3
-----  ---------  -  -  -  -----
 72
   65
 73
   10
 40
20.25
 49
6
 49
-1.5
 49
6
 49
-1.5
 49
0.25
 49
-1.5
 49
0.25
 49
-1.5
 49
0.25
 49
-1.5
  0
LTYPE
  2
undefined
 70
   64
  3
--------------------------------
 72
   65
 73
    0
 40
0
  0
ENDTAB
  0
TABLE
  2
STYLE
  5
3
100
AcDbSymbolTable
 70
     1
  0
STYLE
  5
10
100
AcDbSymbolTableRecord
100
AcDbTextStyleTableRecord
  2
STANDARD
 70
     0
 40
0.0
 41
1.0
 50
0.0
 71
     0
 42
0.2
  3
txt
  4
bigfont.shx
  0
STYLE
  5
26
100
AcDbSymbolTableRecord
100
AcDbTextStyleTableRecord
  2
TATEGAKI
 70
    68
 40
0.0
 41
1.0
 50
0.0
 71
     0
 42
1.0
  3
txt
  4
bigfont.shx
  0
ENDTAB
  0
TABLE
  2
LAYER
 70
   10
  0
LAYER
  2
_0-0_計極細
 70
   64
 62
    7
  6
CONTINUOUS
  0
LAYER
  2
_0-1_計細線
 70
   64
 62
    7
  6
CONTINUOUS
  0
LAYER
  2
_0-5_寸法線
 70
   64
 62
    7
  6
CONTINUOUS
  0
LAYER
  2
_0-7_枠細線
 70
   64
 62
    7
  6
CONTINUOUS
  0
LAYER
  2
_0-8_枠中線
 70
   64
 62
    7
  6
CONTINUOUS
  0
LAYER
  2
_0-9_枠極太
 70
   64
 62
    7
  6
CONTINUOUS
  0
LAYER
  2
_0-a_極細3
 70
   64
 62
    7
  6
CONTINUOUS
  0
LAYER
  2
_0-b_細線3
 70
   64
 62
    7
  6
CONTINUOUS
  0
LAYER
  2
_0-d_寸法3
 70
   64
 62
    7
  6
CONTINUOUS
  0
LAYER
  2
ADD_LINE
 70
   64
 62
    7
  6
CONTINUOUS
  0
ENDTAB
  0
ENDSEC
  0
SECTION
  2
BLOCKS
  0
ENDSEC
  0
SECTION
  2
ENTITIES
  0
LINE
  8
_0-7_枠細線
  6
CONTINUOUS
 62
    5
 10
1185
 20
180
 11
1185
 21
100
  0
TEXT
  8
_0-7_枠細線
 62
    5
 10
937.5
 20
97.5
 40
17.5
 41
1
 50
0
  1
備考
  7
TATEGAKI
  0
TEXT
  8
_0-7_枠細線
 62
    5
 10
937.5
 20
137.5
 40
17.5
 41
1
 50
0
  1
品番
  7
TATEGAKI
  0
TEXT
  8
_0-7_枠細線
 62
    5
 10
937.5
 20
177.5
 40
17.5
 41
1
 50
0
  1
品名
  7
TATEGAKI
  0
LINE
  8
_0-7_枠細線
  6
CONTINUOUS
 62
    5
 10
1185
 20
140
 11
925
 21
140
  0
LINE
  8
_0-7_枠細線
  6
CONTINUOUS
 62
    5
 10
950
 20
180
 11
950
 21
60
  0
LINE
  8
_0-8_枠中線
  6
CONTINUOUS
 62
    5
 10
1425
 20
180
 11
925
 21
180
  0
LINE
  8
_0-8_枠中線
  6
CONTINUOUS
 62
    5
 10
925
 20
180
 11
925
 21
60
  0
LINE
  8
_0-7_枠細線
  6
CONTINUOUS
 62
    5
 10
1245
 20
180
 11
1245
 21
60
  0
TEXT
  8
_0-7_枠細線
 62
    5
 10
1192.5
 20
160
 40
15
 41
1
 50
0
  1
縮　尺
  0
TEXT
  8
_0-7_枠細線
 62
    5
 10
1194
 20
117.5
 40
20
 41
0.7
 50
0
  1
１：５
  0
LINE
  8
_0-7_枠細線
  6
CONTINUOUS
 62
    5
 10
1185
 20
155
 11
1245
 21
155
  0
LINE
  8
_0-7_枠細線
  6
CONTINUOUS
 62
    5
 10
1245
 20
100
 11
925
 21
100
  0
LINE
  8
_0-7_枠細線
  6
CONTINUOUS
 62
    5
 10
1425
 20
90
 11
1245
 21
90
  0
LINE
  8
_0-7_枠細線
  6
CONTINUOUS
 62
    5
 10
1245
 20
120
 11
1425
 21
120
  0
LINE
  8
_0-7_枠細線
  6
CONTINUOUS
 62
    5
 10
1425
 20
140
 11
1245
 21
140
  0
TEXT
  8
_0-7_枠細線
 62
    5
 10
1255
 20
147.5
 40
25
 41
0.8
 50
0
  1
株式会社シマブン
  0
TEXT
  8
_0-7_枠細線
 62
    5
 10
1252.5
 20
60
 40
15
 41
1
 50
0
  1
年月日
  0
TEXT
  8
_0-7_枠細線
 62
    5
 10
1252.5
 20
75
 40
15
 41
1
 50
0
  1
作　成
  0
TEXT
  8
_0-7_枠細線
 62
    5
 10
1250
 20
95
 40
20
 41
1
 50
0
  1
島 英
  0
TEXT
  8
_0-7_枠細線
 62
    5
 10
1256.25
 20
122.5
 40
15
 41
1
 50
0
  1
承 認
  0
LINE
  8
_0-7_枠細線
  6
CONTINUOUS
 62
    5
 10
1305
 20
140
 11
1305
 21
60
  0
TEXT
  8
_0-7_枠細線
 62
    5
 10
1315
 20
95
 40
20
 41
1
 50
0
  1
隠塚
  0
TEXT
  8
_0-7_枠細線
 62
    5
 10
1316.25
 20
122.5
 40
15
 41
1
 50
0
  1
検 図
  0
LINE
  8
_0-7_枠細線
  6
CONTINUOUS
 62
    5
 10
1365
 20
140
 11
1365
 21
90
  0
TEXT
  8
_0-7_枠細線
 62
    5
 10
1375
 20
95
 40
20
 41
1
 50
0
  1
藤戸
  0
TEXT
  8
_0-7_枠細線
 62
    5
 10
1376.25
 20
122.5
 40
15
 41
1
 50
0
  1
設 計
  0
TEXT
  8
_0-7_枠細線
 62
    5
 10
965.50000000000011
 20
150
 40
20
 41
0.6
 50
0
  1
セーフティグレーチングＨ２０タイプ
  0
TEXT
  8
_0-7_枠細線
 62
    5
 10
965.49999999999977
 20
70
 40
20
 41
0.5999999999999998
 50
0
  1
色については品番表参照のこと
  0
TEXT
  8
_0-7_枠細線
 62
    5
 10
1310
 20
67.5
 40
15
 41
0.6666666666666666
 50
0
  1
２００９年０１月１６日
  0
LINE
  8
_0-d_寸法3
  6
CONTINUOUS
 62
    7
 10
663.46758651983453
 20
234.92912486567505
 11
663.46758651983453
 21
217.78443296476965
  0
LINE
  8
_0-d_寸法3
  6
CONTINUOUS
 62
    7
 10
663.46758651983453
 20
222.78443296476965
 11
653.80832825694381
 21
220.19624251374441
  0
LINE
  8
_0-d_寸法3
  6
CONTINUOUS
 62
    7
 10
663.46758651983453
 20
222.78443296476965
 11
653.80832825694381
 21
225.37262341579486
  0
LINE
  8
_0-d_寸法3
  6
CONTINUOUS
 62
    7
 10
613.46758651983498
 20
273.26245819900851
 11
613.46758651983498
 21
217.78443296476965
  0
LINE
  8
_0-d_寸法3
  6
CONTINUOUS
 62
    7
 10
613.46758651983498
 20
222.78443296476965
 11
623.1268447827257
 21
225.37262341579489
  0
LINE
  8
_0-d_寸法3
  6
CONTINUOUS
 62
    7
 10
613.46758651983498
 20
222.78443296476965
 11
623.1268447827257
 21
220.19624251374444
  0
LINE
  8
_0-d_寸法3
  6
CONTINUOUS
 62
    7
 10
663.46758651983453
 20
222.78443296476965
 11
613.46758651983498
 21
222.78443296476965
  0
TEXT
  8
_0-d_寸法3
 62
    7
 10
630.96758651983328
 20
222.78443296476962
 40
15
 41
1
 50
0.0000000000001357
  1
30
  0
LINE
  8
_0-d_寸法3
  6
CONTINUOUS
 62
    7
 10
230.13425318650107
 20
234.92912486567505
 11
230.13425318650107
 21
217.78443296476965
  0
LINE
  8
_0-d_寸法3
  6
CONTINUOUS
 62
    7
 10
230.13425318650107
 20
222.78443296476965
 11
239.79351144939173
 21
225.37262341579486
  0
LINE
  8
_0-d_寸法3
  6
CONTINUOUS
 62
    7
 10
230.13425318650107
 20
222.78443296476965
 11
239.79351144939173
 21
220.19624251374441
  0
LINE
  8
_0-d_寸法3
  6
CONTINUOUS
 62
    7
 10
280.13425318650093
 20
273.26245819900851
 11
280.13425318650008
 21
217.78443296476965
  0
LINE
  8
_0-d_寸法3
  6
CONTINUOUS
 62
    7
 10
280.13425318650013
 20
222.78443296476965
 11
270.47499492360942
 21
220.19624251374444
  0
LINE
  8
_0-d_寸法3
  6
CONTINUOUS
 62
    7
 10
280.13425318650013
 20
222.78443296476965
 11
270.47499492360947
 21
225.37262341579489
  0
LINE
  8
_0-d_寸法3
  6
CONTINUOUS
 62
    7
 10
230.13425318650107
 20
222.78443296476965
 11
280.13425318650013
 21
222.78443296476965
  0
TEXT
  8
_0-d_寸法3
 62
    7
 10
247.63425318650107
 20
222.78443296476965
 40
15
 41
1
 50
0
  1
30
  0
LINE
  8
_0-d_寸法3
  6
CONTINUOUS
 62
    7
 10
280.13425318650104
 20
278.26245819900851
 11
280.13425318650104
 21
217.78443296476965
  0
LINE
  8
_0-d_寸法3
  6
CONTINUOUS
 62
    7
 10
280.13425318650104
 20
222.78443296476965
 11
289.79351144939176
 21
225.37262341579486
  0
LINE
  8
_0-d_寸法3
  6
CONTINUOUS
 62
    7
 10
280.13425318650104
 20
222.78443296476965
 11
289.79351144939176
 21
220.19624251374441
  0
LINE
  8
_0-d_寸法3
  6
CONTINUOUS
 62
    7
 10
613.46758651983498
 20
278.26245819900851
 11
613.46758651983498
 21
217.78443296476965
  0
LINE
  8
_0-d_寸法3
  6
CONTINUOUS
 62
    7
 10
613.46758651983498
 20
222.78443296476965
 11
603.80832825694426
 21
220.19624251374444
  0
LINE
  8
_0-d_寸法3
  6
CONTINUOUS
 62
    7
 10
613.46758651983498
 20
222.78443296476965
 11
603.80832825694426
 21
225.37262341579489
  0
LINE
  8
_0-d_寸法3
  6
CONTINUOUS
 62
    7
 10
280.13425318650104
 20
222.78443296476965
 11
613.46758651983498
 21
222.78443296476965
  0
TEXT
  8
_0-d_寸法3
 62
    7
 10
435.55091985316716
 20
222.78443296476965
 40
15
 41
1
 50
0
  1
200
  0
LINE
  8
_0-a_極細3
  6
CONTINUOUS
 62
    7
 10
163.46758651983498
 20
268.26245819900805
 11
163.46758651983498
 21
199.92912486567462
  0
LINE
  8
_0-a_極細3
  6
CONTINUOUS
 62
    7
 10
246.80091985316807
 20
199.92912486567462
 11
163.46758651983498
 21
199.92912486567462
  0
LINE
  8
_0-a_極細3
  6
CONTINUOUS
 62
    7
 10
163.46758651983498
 20
268.26245819900805
 11
132.62317270805383
 21
268.26245819900805
  0
LINE
  8
_0-a_極細3
  6
CONTINUOUS
 62
    7
 10
246.80091985316807
 20
199.92912486567462
 11
246.80091985316807
 21
173.6875245708957
  0
LINE
  8
_0-a_極細3
  6
CONTINUOUS
 62
    7
 10
209.37894528817822
 20
173.68752468733234
 11
235.62054546652135
 21
199.92912486567462
  0
LINE
  8
_0-a_極細3
  6
CONTINUOUS
 62
    7
 10
138.66826738953739
 20
173.68752490734551
 11
164.90986734786645
 21
199.92912486567462
  0
LINE
  8
_0-a_極細3
  6
CONTINUOUS
 62
    7
 10
132.62317270805383
 20
238.35310834451687
 11
162.53252256254555
 21
268.26245819900805
  0
LINE
  8
_0-a_極細3
  6
CONTINUOUS
 62
    7
 10
202.30787749831407
 20
173.68752470933401
 11
228.54947765465468
 21
199.92912486567462
  0
LINE
  8
_0-a_極細3
  6
CONTINUOUS
 62
    7
 10
132.62317270805383
 20
174.71349803772773
 11
163.46758651983498
 21
205.55791184950888
  0
LINE
  8
_0-a_極細3
  6
CONTINUOUS
 62
    7
 10
132.62317270805383
 20
245.4241761563826
 11
155.46145475067888
 21
268.26245819900805
  0
LINE
  8
_0-a_極細3
  6
CONTINUOUS
 62
    7
 10
195.23680970844993
 20
173.68752473133512
 11
221.47840984278986
 21
199.92912486567462
  0
LINE
  8
_0-a_極細3
  6
CONTINUOUS
 62
    7
 10
132.62317270805383
 20
181.78456584959306
 11
163.46758651983498
 21
212.62897966137461
  0
LINE
  8
_0-a_極細3
  6
CONTINUOUS
 62
    7
 10
132.62317270805383
 20
252.49524396824839
 11
148.390386938814
 21
268.26245819900805
  0
CIRCLE
  8
_0-a_極細3
  6
CONTINUOUS
 62
    7
 10
140.18819635369061
 20
273.51031306011282
 40
0.5530864197530718
  0
CIRCLE
  8
_0-a_極細3
  6
CONTINUOUS
 62
    7
 10
150.7956037610974
 20
274.57697972677943
 40
0.5530864197530718
  0
CIRCLE
  8
_0-a_極細3
  6
CONTINUOUS
 62
    7
 10
163.4178259833196
 20
276.53253528233472
 40
0.5530864197530718
  0
CIRCLE
  8
_0-a_極細3
  6
CONTINUOUS
 62
    7
 10
170.36227042776403
 20
269.27697972677925
 40
0.5530864197530718
  0
CIRCLE
  8
_0-a_極細3
  6
CONTINUOUS
 62
    7
 10
190.80671487220741
 20
268.03253528233472
 40
0.5530864197530718
  0
CIRCLE
  8
_0-a_極細3
  6
CONTINUOUS
 62
    7
 10
215.87338153887492
 20
264.2992019490016
 40
0.5530864197530718
  0
CIRCLE
  8
_0-a_極細3
  6
CONTINUOUS
 62
    7
 10
203.25115931665181
 20
258.61031306011228
 40
0.5530864197530718
  0
CIRCLE
  8
_0-a_極細3
  6
CONTINUOUS
 62
    7
 10
188.49560376109721
 20
245.09920194900133
 40
0.5530864197530718
  0
CIRCLE
  8
_0-a_極細3
  6
CONTINUOUS
 62
    7
 10
215.87338153887492
 20
252.38809083789056
 40
0.5530864197530718
  0
CIRCLE
  8
_0-a_極細3
  6
CONTINUOUS
 62
    7
 10
169.78449264998551
 20
238.96586861566814
 40
0.5530864197530718
  0
CIRCLE
  8
_0-a_極細3
  6
CONTINUOUS
 62
    7
 10
174.76227042776358
 20
225.27697972677927
 40
0.5530864197530718
  0
CIRCLE
  8
_0-a_極細3
  6
CONTINUOUS
 62
    7
 10
169.0733815388748
 20
207.32142417122395
 40
0.5530864197530718
  0
CIRCLE
  8
_0-a_極細3
  6
CONTINUOUS
 62
    7
 10
177.78449264998642
 20
214.07697972677943
 40
0.5530864197530718
  0
CIRCLE
  8
_0-a_極細3
  6
CONTINUOUS
 62
    7
 10
184.00671487220819
 20
205.54364639344658
 40
0.5530864197530718
  0
CIRCLE
  8
_0-a_極細3
  6
CONTINUOUS
 62
    7
 10
223.30671487220741
 20
223.43253528233529
 40
0.5530864197530718
  0
CIRCLE
  8
_0-a_極細3
  6
CONTINUOUS
 62
    7
 10
212.10671487220765
 20
217.92142417122434
 40
0.5530864197530718
  0
CIRCLE
  8
_0-a_極細3
  6
CONTINUOUS
 62
    7
 10
218.32893709443027
 20
215.43253528233527
 40
0.5530864197530718
  0
CIRCLE
  8
_0-a_極細3
  6
CONTINUOUS
 62
    7
 10
214.77338153887459
 20
206.18809083789074
 40
0.5530864197530718
  0
CIRCLE
  8
_0-a_極細3
  6
CONTINUOUS
 62
    7
 10
234.68449264998512
 20
207.25475750455735
 40
0.5530864197530718
  0
CIRCLE
  8
_0-a_極細3
  6
CONTINUOUS
 62
    7
 10
247.66227042776322
 20
210.45475750455765
 40
0.5530864197530718
  0
CIRCLE
  8
_0-a_極細3
  6
CONTINUOUS
 62
    7
 10
261.35115931665212
 20
195.52142417122425
 40
0.5530864197530718
  0
CIRCLE
  8
_0-a_極細3
  6
CONTINUOUS
 62
    7
 10
254.41782598331869
 20
180.58809083789086
 40
0.5530864197530718
  0
CIRCLE
  8
_0-a_極細3
  6
CONTINUOUS
 62
    7
 10
237.75115931665269
 20
224.20290565270534
 40
0.5530864197530718
  0
CIRCLE
  8
_0-a_極細3
  6
CONTINUOUS
 62
    7
 10
252.50671487220728
 20
258.33623898603855
 40
0.5530864197530718
  0
CIRCLE
  8
_0-a_極細3
  6
CONTINUOUS
 62
    7
 10
267.61782598331854
 20
248.38068343048326
 40
0.5530864197530718
  0
CIRCLE
  8
_0-a_極細3
  6
CONTINUOUS
 62
    7
 10
268.1511593166523
 20
230.42512787492797
 40
0.5530864197530718
  0
CIRCLE
  8
_0-a_極細3
  6
CONTINUOUS
 62
    7
 10
232.90671487220777
 20
260.15846120826063
 40
0.5530864197530718
  0
CIRCLE
  8
_0-a_極細3
  6
CONTINUOUS
 62
    7
 10
209.79560376109646
 20
249.20907849221157
 40
1.825531472681392
  0
CIRCLE
  8
_0-a_極細3
  6
CONTINUOUS
 62
    7
 10
187.39560376109679
 20
259.34241182554479
 40
1.825531472681392
  0
CIRCLE
  8
_0-a_極細3
  6
CONTINUOUS
 62
    7
 10
167.79560376109742
 20
221.34241182554524
 40
1.825531472681392
  0
CIRCLE
  8
_0-a_極細3
  6
CONTINUOUS
 62
    7
 10
220.99560376109628
 20
208.54241182554551
 40
1.825531472681392
  0
CIRCLE
  8
_0-a_極細3
  6
CONTINUOUS
 62
    7
 10
256.97338153887347
 20
204.94241182554561
 40
1.825531472681392
  0
CIRCLE
  8
_0-a_極細3
  6
CONTINUOUS
 62
    7
 10
261.77338153887365
 20
186.27574515887915
 40
1.825531472681392
  0
LINE
  8
_0-a_極細3
  6
CONTINUOUS
 62
    7
 10
279.30091985316807
 20
274.92912486567457
 11
280.13425318650104
 21
274.92912486567457
  0
LINE
  8
_0-a_極細3
  6
CONTINUOUS
 62
    7
 10
280.13425318650104
 20
274.92912486567457
 11
280.13425318650104
 21
173.6875245708957
  0
CIRCLE
  8
_0-a_極細3
  6
CONTINUOUS
 62
    7
 10
273.24681903887256
 20
258.94241182554515
 40
1.825531472681392
  0
CIRCLE
  8
_0-a_極細3
  6
CONTINUOUS
 62
    7
 10
272.2548630203554
 20
204.23253528233545
 40
0.5530864197530718
  0
CIRCLE
  8
_0-a_極細3
  6
CONTINUOUS
 62
    7
 10
273.58819635368934
 20
181.57646424916584
 40
0.5530864197530718
  0
CIRCLE
  8
_0-a_極細3
  6
CONTINUOUS
 62
    7
 10
261.21782598331436
 20
239.83130071443429
 40
1.825531472681392
  0
LINE
  8
_0-a_極細3
  6
CONTINUOUS
 62
    7
 10
730.13425318650104
 20
268.26245819900805
 11
730.13425318650104
 21
199.92912486567462
  0
LINE
  8
_0-a_極細3
  6
CONTINUOUS
 62
    7
 10
646.80091985316812
 20
199.92912486567462
 11
730.13425318650104
 21
199.92912486567462
  0
LINE
  8
_0-a_極細3
  6
CONTINUOUS
 62
    7
 10
730.13425318650104
 20
268.26245819900805
 11
760.97866699828319
 21
268.26245819900805
  0
LINE
  8
_0-a_極細3
  6
CONTINUOUS
 62
    7
 10
646.80091985316812
 20
199.92912486567462
 11
646.80091985316812
 21
173.6875245708957
  0
LINE
  8
_0-a_極細3
  6
CONTINUOUS
 62
    7
 10
738.42425560109496
 20
173.6875245708957
 11
760.97866703982334
 21
196.24193600962462
  0
LINE
  8
_0-a_極細3
  6
CONTINUOUS
 62
    7
 10
667.71357748243963
 20
173.6875245708957
 11
693.95517777721898
 21
199.92912486567462
  0
LINE
  8
_0-a_極細3
  6
CONTINUOUS
 62
    7
 10
730.13425318650104
 20
236.1082002749572
 11
760.97866699903852
 21
266.95261408749411
  0
LINE
  8
_0-a_極細3
  6
CONTINUOUS
 62
    7
 10
731.35318778922863
 20
173.6875245708957
 11
760.97866703574527
 21
203.3130038174113
  0
LINE
  8
_0-a_極細3
  6
CONTINUOUS
 62
    7
 10
660.6425096705733
 20
173.6875245708957
 11
686.88410996535356
 21
199.92912486567462
  0
LINE
  8
_0-a_極細3
  6
CONTINUOUS
 62
    7
 10
730.13425318650104
 20
243.17926808682299
 11
755.21744311913596
 21
268.26245801945788
  0
LINE
  8
_0-a_極細3
  6
CONTINUOUS
 62
    7
 10
724.28211997736389
 20
173.6875245708957
 11
760.97866703166619
 21
210.38407162519846
  0
LINE
  8
_0-a_極細3
  6
CONTINUOUS
 62
    7
 10
653.57144185870936
 20
173.6875245708957
 11
679.81304215348791
 21
199.92912486567462
  0
LINE
  8
_0-a_極細3
  6
CONTINUOUS
 62
    7
 10
730.13425318650104
 20
250.25033589868872
 11
748.14637535788722
 21
268.26245807007399
  0
CIRCLE
  8
_0-a_極細3
  6
CONTINUOUS
 62
    7
 10
633.20671487220523
 20
258.78346120826063
 40
0.5530864197530718
  0
CIRCLE
  8
_0-a_極細3
  6
CONTINUOUS
 62
    7
 10
643.16227042776154
 20
263.58346120826081
 40
0.5530864197530718
  0
CIRCLE
  8
_0-a_極細3
  6
CONTINUOUS
 62
    7
 10
639.07338153887292
 20
238.60568343048362
 40
0.5530864197530718
  0
CIRCLE
  8
_0-a_極細3
  6
CONTINUOUS
 62
    7
 10
656.60671487220588
 20
221.58346120826081
 40
0.5530864197530718
  0
CIRCLE
  8
_0-a_極細3
  6
CONTINUOUS
 62
    7
 10
638.77338153887285
 20
198.28346120826154
 40
0.5530864197530718
  0
CIRCLE
  8
_0-a_極細3
  6
CONTINUOUS
 62
    7
 10
629.44004820553971
 20
180.41679454159478
 40
0.5530864197530718
  0
CIRCLE
  8
_0-a_極細3
  6
CONTINUOUS
 62
    7
 10
640.90671487220607
 20
210.28346120826157
 40
0.5530864197530718
  0
CIRCLE
  8
_0-a_極細3
  6
CONTINUOUS
 62
    7
 10
654.77338153887194
 20
205.48346120826139
 40
0.5530864197530718
  0
CIRCLE
  8
_0-a_極細3
  6
CONTINUOUS
 62
    7
 10
681.70671487220477
 20
205.75012787492781
 40
0.5530864197530718
  0
CIRCLE
  8
_0-a_極細3
  6
CONTINUOUS
 62
    7
 10
669.70671487220613
 20
214.81679454159439
 40
0.5530864197530718
  0
CIRCLE
  8
_0-a_極細3
  6
CONTINUOUS
 62
    7
 10
680.90671487220504
 20
220.41679454159478
 40
0.5530864197530718
  0
CIRCLE
  8
_0-a_極細3
  6
CONTINUOUS
 62
    7
 10
668.92893709442751
 20
274.70568343048308
 40
0.5530864197530718
  0
CIRCLE
  8
_0-a_極細3
  6
CONTINUOUS
 62
    7
 10
689.46227042776036
 20
273.9945723193714
 40
0.5530864197530718
  0
CIRCLE
  8
_0-a_極細3
  6
CONTINUOUS
 62
    7
 10
677.86227042776034
 20
259.99457231937185
 40
0.5530864197530718
  0
CIRCLE
  8
_0-a_極細3
  6
CONTINUOUS
 62
    7
 10
717.06227042776027
 20
206.79457231937249
 40
0.5530864197530718
  0
CIRCLE
  8
_0-a_極細3
  6
CONTINUOUS
 62
    7
 10
724.26227042776009
 20
220.79457231937252
 40
0.5530864197530718
  0
CIRCLE
  8
_0-a_極細3
  6
CONTINUOUS
 62
    7
 10
722.66227042776052
 20
241.59457231937225
 40
0.5530864197530718
  0
CIRCLE
  8
_0-a_極細3
  6
CONTINUOUS
 62
    7
 10
701.86227042776045
 20
243.19457231937213
 40
0.5530864197530718
  0
CIRCLE
  8
_0-a_極細3
  6
CONTINUOUS
 62
    7
 10
682.26227042776088
 20
248.79457231937252
 40
0.5530864197530718
  0
CIRCLE
  8
_0-a_極細3
  6
CONTINUOUS
 62
    7
 10
704.66227042776052
 20
262.79457231937158
 40
0.5530864197530718
  0
CIRCLE
  8
_0-a_極細3
  6
CONTINUOUS
 62
    7
 10
718.66227042776063
 20
255.59457231937222
 40
0.5530864197530718
  0
CIRCLE
  8
_0-a_極細3
  6
CONTINUOUS
 62
    7
 10
748.26227042775952
 20
276.79457231937158
 40
0.5530864197530718
  0
CIRCLE
  8
_0-a_極細3
  6
CONTINUOUS
 62
    7
 10
727.81782598331563
 20
275.09796738110026
 40
1.825531472681392
  0
CIRCLE
  8
_0-a_極細3
  6
CONTINUOUS
 62
    7
 10
704.3956037610933
 20
249.6757451588783
 40
1.825531472681392
  0
CIRCLE
  8
_0-a_極細3
  6
CONTINUOUS
 62
    7
 10
634.00115931665084
 20
205.12574515887903
 40
1.825531472681392
  0
CIRCLE
  8
_0-a_極細3
  6
CONTINUOUS
 62
    7
 10
644.22338153887165
 20
234.99241182554533
 40
1.825531472681392
  0
CIRCLE
  8
_0-a_極細3
  6
CONTINUOUS
 62
    7
 10
679.42338153887192
 20
212.59241182554524
 40
1.825531472681392
  0
CIRCLE
  8
_0-a_極細3
  6
CONTINUOUS
 62
    7
 10
725.68857417415518
 20
202.40535943357557
 40
1.825531472681392
  0
CIRCLE
  8
_0-a_極細3
  6
CONTINUOUS
 62
    7
 10
675.02338153887183
 20
255.79241182554509
 40
1.825531472681392
  0
CIRCLE
  8
_0-a_極細3
  6
CONTINUOUS
 62
    7
 10
627.5573321561568
 20
250.36920641850884
 40
0.5530864197530718
  0
CIRCLE
  8
_0-a_極細3
  6
CONTINUOUS
 62
    7
 10
627.75733215615764
 20
226.41365086295355
 40
0.5530864197530718
  0
LINE
  8
_0-a_極細3
  6
CONTINUOUS
 62
    7
 10
614.3009198531671
 20
274.92912486567457
 11
613.46758651983498
 21
274.92912486567457
  0
LINE
  8
_0-a_極細3
  6
CONTINUOUS
 62
    7
 10
613.46758651983498
 20
274.92912486567457
 11
613.46758651983498
 21
173.6875245708957
  0
CIRCLE
  8
_0-a_極細3
  6
CONTINUOUS
 62
    7
 10
619.45198236191743
 20
234.87235009715008
 40
0.5530864197530718
  0
CIRCLE
  8
_0-a_極細3
  6
CONTINUOUS
 62
    7
 10
620.75856672405826
 20
195.6167945415946
 40
0.5530864197530718
  0
CIRCLE
  8
_0-a_極細3
  6
CONTINUOUS
 62
    7
 10
620.11967783516764
 20
261.57018960332334
 40
1.825531472681392
  0
CIRCLE
  8
_0-a_極細3
  6
CONTINUOUS
 62
    7
 10
623.06782598331654
 20
188.94796738110108
 40
1.825531472681392
  0
LINE
  8
_0-b_細線3
  6
CONTINUOUS
 62
    7
 10
465.21758652013602
 20
279.92948986735337
 11
457.38425318680214
 21
279.92948986735337
  0
LINE
  8
_0-d_寸法3
  6
CONTINUOUS
 62
    7
 10
230.13425318650192
 20
318.26245819900851
 11
230.13425318650192
 21
428.26245653066371
  0
LINE
  8
_0-d_寸法3
  6
CONTINUOUS
 62
    7
 10
230.13425318650192
 20
423.26245653066371
 11
239.79351144939267
 21
425.8506469816889
  0
LINE
  8
_0-d_寸法3
  6
CONTINUOUS
 62
    7
 10
230.13425318650192
 20
423.26245653066371
 11
239.79351144939267
 21
420.67426607963853
  0
LINE
  8
_0-d_寸法3
  6
CONTINUOUS
 62
    7
 10
663.46758651983509
 20
318.26245819900851
 11
663.46758651983509
 21
428.26245653066371
  0
LINE
  8
_0-d_寸法3
  6
CONTINUOUS
 62
    7
 10
663.46758651983509
 20
423.26245653066371
 11
653.80832825694426
 21
420.67426607963853
  0
LINE
  8
_0-d_寸法3
  6
CONTINUOUS
 62
    7
 10
663.46758651983509
 20
423.26245653066371
 11
653.80832825694426
 21
425.85064698168901
  0
LINE
  8
_0-d_寸法3
  6
CONTINUOUS
 62
    7
 10
230.13425318650192
 20
423.26245653066371
 11
663.46758651983509
 21
423.26245653066371
  0
TEXT
  8
_0-d_寸法3
 62
    7
 10
435.55091985316892
 20
423.26245653066371
 40
15
 41
1
 50
0
  1
260
  0
LINE
  8
_0-a_極細3
  6
CENTER1
 62
    7
 10
446.80091985316807
 20
263.74329538022494
 11
446.80091985316807
 21
327.19329538023158
  0
CIRCLE
  8
_0-a_極細3
  6
CONTINUOUS
 62
    7
 10
150.5190605512206
 20
283.46586861566811
 40
0.5530864197530718
  0
CIRCLE
  8
_0-a_極細3
  6
CONTINUOUS
 62
    7
 10
191.86227042776395
 20
288.2658686156683
 40
0.5530864197530718
  0
CIRCLE
  8
_0-a_極細3
  6
CONTINUOUS
 62
    7
 10
216.75115931665266
 20
298.22142417122359
 40
0.5530864197530718
  0
CIRCLE
  8
_0-a_極細3
  6
CONTINUOUS
 62
    7
 10
222.44004820554153
 20
282.04364639344567
 40
0.5530864197530718
  0
CIRCLE
  8
_0-a_極細3
  6
CONTINUOUS
 62
    7
 10
197.55115931665193
 20
281.51031306011282
 40
0.5530864197530718
  0
CIRCLE
  8
_0-a_極細3
  6
CONTINUOUS
 62
    7
 10
185.81782598331927
 20
296.44364639344622
 40
0.5530864197530718
  0
CIRCLE
  8
_0-a_極細3
  6
CONTINUOUS
 62
    7
 10
212.61782598331948
 20
282.14241182554451
 40
1.825531472681392
  0
CIRCLE
  8
_0-a_極細3
  6
CONTINUOUS
 62
    7
 10
160.8557062818835
 20
289.07202610024251
 40
1.825531472681392
  0
CIRCLE
  8
_0-a_極細3
  6
CONTINUOUS
 62
    7
 10
140.65862674080464
 20
289.96463404776705
 40
1.825531472681392
  0
LINE
  8
_0-a_極細3
  6
CONTINUOUS
 62
    7
 10
221.80091985316807
 20
313.26245819900805
 11
221.80091985316807
 21
301.59579153234154
  0
LINE
  8
_0-a_極細3
  6
CONTINUOUS
 62
    7
 10
221.80091985316807
 20
313.26245819900805
 11
132.62317270805383
 21
313.26245819900805
  0
LINE
  8
_0-a_極細3
  6
CONTINUOUS
 62
    7
 10
230.13425318650107
 20
301.59579153234154
 11
132.62317270805383
 21
301.59579153234154
  0
LINE
  8
_0-a_極細3
  6
CONTINUOUS
 62
    7
 10
230.13425318650107
 20
313.26245819900805
 11
221.80091985316807
 21
313.26245819900805
  0
LINE
  8
_0-a_極細3
  6
CONTINUOUS
 62
    7
 10
230.13425318650107
 20
312.42912486567457
 11
230.13425318650107
 21
313.26245819900805
  0
LINE
  8
_0-a_極細3
  6
CONTINUOUS
 62
    7
 10
229.9361629301419
 20
301.59579153234154
 11
230.13425318650107
 21
301.79388178870067
  0
LINE
  8
_0-a_極細3
  6
CONTINUOUS
 62
    7
 10
225.69352224302278
 20
301.59579153234154
 11
230.13425318650107
 21
306.03652247581977
  0
LINE
  8
_0-a_極細3
  6
CONTINUOUS
 62
    7
 10
221.80091985316807
 20
301.94582982960583
 11
230.13425318650107
 21
310.27916316293931
  0
LINE
  8
_0-a_極細3
  6
CONTINUOUS
 62
    7
 10
221.80091985316807
 20
306.18847051672537
 11
228.87490753545066
 21
313.26245819900805
  0
LINE
  8
_0-a_極細3
  6
CONTINUOUS
 62
    7
 10
221.80091985316807
 20
310.43111120384492
 11
224.6322668483316
 21
313.26245819900805
  0
LINE
  8
_0-a_極細3
  6
CONTINUOUS
 62
    7
 10
230.13425318650107
 20
310.98149132674916
 11
227.85328631424264
 21
313.26245819900805
  0
LINE
  8
_0-a_極細3
  6
CONTINUOUS
 62
    7
 10
230.13425318650107
 20
306.73885063963007
 11
223.61064562712357
 21
313.26245819900805
  0
LINE
  8
_0-a_極細3
  6
CONTINUOUS
 62
    7
 10
221.80091985316807
 20
310.82954328584447
 11
230.13425318650107
 21
302.49620995251098
  0
LINE
  8
_0-a_極細3
  6
CONTINUOUS
 62
    7
 10
221.80091985316807
 20
306.58690259872492
 11
226.79203091955145
 21
301.59579153234154
  0
LINE
  8
_0-a_極細3
  6
CONTINUOUS
 62
    7
 10
221.80091985316807
 20
302.34426191160583
 11
222.5493902324323
 21
301.59579153234154
  0
LINE
  8
_0-a_極細3
  6
CONTINUOUS
 62
    7
 10
212.96560017553736
 20
301.59579152621427
 11
221.80091985316807
 21
310.43111120384492
  0
LINE
  8
_0-a_極細3
  6
CONTINUOUS
 62
    7
 10
191.75239672522991
 20
301.59579151150274
 11
203.41906341273528
 21
313.2624581990076
  0
LINE
  8
_0-a_極細3
  6
CONTINUOUS
 62
    7
 10
170.53919327492252
 20
301.59579149679166
 11
182.20585997713883
 21
313.26245819900805
  0
LINE
  8
_0-a_極細3
  6
CONTINUOUS
 62
    7
 10
149.32598982461414
 20
301.59579148208013
 11
160.99265654154252
 21
313.26245819900805
  0
LINE
  8
_0-a_極細3
  6
CONTINUOUS
 62
    7
 10
132.62317270805383
 20
306.10617780111579
 11
139.77945310594612
 21
313.2624581990076
  0
LINE
  8
_0-a_極細3
  6
DASHED2
 62
    7
 10
202.35899845038318
 20
301.59579151885828
 11
214.02566513053344
 21
313.26245819900851
  0
LINE
  8
_0-a_極細3
  6
DASHED2
 62
    7
 10
181.14579500007579
 20
301.5957915041472
 11
192.81246169493704
 21
313.26245819900805
  0
LINE
  8
_0-a_極細3
  6
DASHED2
 62
    7
 10
159.93259154976826
 20
301.59579148943612
 11
171.59925825933982
 21
313.26245819900805
  0
LINE
  8
_0-a_極細3
  6
DASHED2
 62
    7
 10
138.71938809945993
 20
301.59579147472505
 11
150.3860548237443
 21
313.26245819900805
  0
CIRCLE
  8
_0-a_極細3
  6
CONTINUOUS
 62
    7
 10
200.31412227961567
 20
293.6535229366541
 40
1.825531472681392
  0
CIRCLE
  8
_0-a_極細3
  6
CONTINUOUS
 62
    7
 10
671.41782598331645
 20
294.4390167638162
 40
0.5530864197530718
  0
CIRCLE
  8
_0-a_極細3
  6
CONTINUOUS
 62
    7
 10
721.46227042776036
 20
282.39457231937149
 40
0.5530864197530718
  0
CIRCLE
  8
_0-a_極細3
  6
CONTINUOUS
 62
    7
 10
743.46227042775979
 20
290.56463404776696
 40
1.825531472681392
  0
CIRCLE
  8
_0-a_極細3
  6
CONTINUOUS
 62
    7
 10
672.39560376109409
 20
281.67574515887827
 40
1.825531472681392
  0
CIRCLE
  8
_0-a_極細3
  6
CONTINUOUS
 62
    7
 10
735.46227042776025
 20
298.52790565270516
 40
0.5530864197530718
  0
CIRCLE
  8
_0-a_極細3
  6
CONTINUOUS
 62
    7
 10
704.66227042776052
 20
293.46123898603855
 40
0.5530864197530718
  0
CIRCLE
  8
_0-a_極細3
  6
CONTINUOUS
 62
    7
 10
704.79560376109373
 20
287.14241182554451
 40
1.825531472681392
  0
CIRCLE
  8
_0-a_極細3
  6
CONTINUOUS
 62
    7
 10
683.46227042776025
 20
299.46123898603855
 40
0.5530864197530718
  0
LINE
  8
_0-a_極細3
  6
CONTINUOUS
 62
    7
 10
671.80091985316812
 20
313.26245819900805
 11
671.80091985316812
 21
301.59579153234154
  0
LINE
  8
_0-a_極細3
  6
CONTINUOUS
 62
    7
 10
671.80091985316812
 20
313.26245819900805
 11
760.97866699828319
 21
313.26245819900805
  0
LINE
  8
_0-a_極細3
  6
CONTINUOUS
 62
    7
 10
663.46758651983453
 20
301.59579153234154
 11
760.97866699828319
 21
301.59579153234154
  0
LINE
  8
_0-a_極細3
  6
CONTINUOUS
 62
    7
 10
663.46758651983453
 20
313.26245819900805
 11
671.80091985316812
 21
313.26245819900805
  0
LINE
  8
_0-a_極細3
  6
CONTINUOUS
 62
    7
 10
663.46758651983453
 20
312.42912486567457
 11
663.46758651983453
 21
313.26245819900805
  0
LINE
  8
_0-a_極細3
  6
CONTINUOUS
 62
    7
 10
671.80091985316812
 20
305.26487781306605
 11
668.13183357244361
 21
301.59579153234154
  0
LINE
  8
_0-a_極細3
  6
CONTINUOUS
 62
    7
 10
671.80091985316812
 20
309.50751850018514
 11
663.88919288532395
 21
301.59579153234154
  0
LINE
  8
_0-a_極細3
  6
CONTINUOUS
 62
    7
 10
663.46758651983453
 20
305.41682585397166
 11
671.31321886487149
 21
313.26245819900805
  0
LINE
  8
_0-a_極細3
  6
CONTINUOUS
 62
    7
 10
663.46758651983453
 20
309.6594665410903
 11
667.07057817775183
 21
313.2624581990076
  0
LINE
  8
_0-a_極細3
  6
CONTINUOUS
 62
    7
 10
671.80091985316812
 20
311.75313598950243
 11
670.29159764366284
 21
313.26245819900805
  0
LINE
  8
_0-a_極細3
  6
CONTINUOUS
 62
    7
 10
671.80091985316812
 20
307.51049530238288
 11
666.0489569565442
 21
313.26245819900805
  0
LINE
  8
_0-a_極細3
  6
CONTINUOUS
 62
    7
 10
671.80091985316812
 20
303.26785461526424
 11
663.46758651983453
 21
311.60118794859727
  0
LINE
  8
_0-a_極細3
  6
CONTINUOUS
 62
    7
 10
669.23034224897208
 20
301.59579153234154
 11
663.46758651983453
 21
307.35854726147818
  0
LINE
  8
_0-a_極細3
  6
CONTINUOUS
 62
    7
 10
664.98770156185265
 20
301.59579153234154
 11
663.46758651983453
 21
303.11590657435863
  0
LINE
  8
_0-a_極細3
  6
CONTINUOUS
 62
    7
 10
740.25672525347136
 20
301.59579153234154
 11
751.92339129334857
 21
313.26245757221886
  0
LINE
  8
_0-a_極細3
  6
CONTINUOUS
 62
    7
 10
719.04352181787488
 20
301.59579153234154
 11
730.71018802370133
 21
313.26245773816754
  0
LINE
  8
_0-a_極細3
  6
CONTINUOUS
 62
    7
 10
697.83031838227862
 20
301.59579153234154
 11
709.4969847540533
 21
313.26245790411622
  0
LINE
  8
_0-a_極細3
  6
CONTINUOUS
 62
    7
 10
676.61711494668168
 20
301.59579153234154
 11
688.28378148440549
 21
313.26245807006489
  0
LINE
  8
_0-a_極細3
  6
DASHED2
 62
    7
 10
750.86332697126954
 20
301.59579153234154
 11
760.97866699828319
 21
311.71113155935473
  0
LINE
  8
_0-a_極細3
  6
DASHED2
 62
    7
 10
729.65012353567261
 20
301.59579153234154
 11
741.31678965852507
 21
313.26245765519343
  0
LINE
  8
_0-a_極細3
  6
DASHED2
 62
    7
 10
708.43692010007635
 20
301.59579153234154
 11
720.10358638887726
 21
313.26245782114165
  0
LINE
  8
_0-a_極細3
  6
DASHED2
 62
    7
 10
687.22371666448043
 20
301.59579153234154
 11
698.89038311922877
 21
313.26245798709033
  0
LINE
  8
_0-a_極細3
  6
DASHED2
 62
    7
 10
671.80091985316812
 20
307.3861981566256
 11
677.67717984958097
 21
313.26245815303901
  0
LINE
  8
_0-a_極細3
  6
CENTER1
 62
    7
 10
661.58786114856173
 20
294.26242110100793
 11
228.48026074196048
 21
294.26242110100793
  0
LINE
  8
_0-a_極細3
  6
CONTINUOUS
 62
    7
 10
655.96758651983453
 20
311.59579153234154
 11
237.63425318650107
 21
311.59579153234154
  0
CIRCLE
  8
_0-a_極細3
  6
CONTINUOUS
 62
    7
 10
266.80091985316807
 20
294.26245819900851
 40
3.333333333333333
  0
CIRCLE
  8
_0-a_極細3
  6
CONTINUOUS
 62
    7
 10
626.80091985316812
 20
294.26245819900851
 40
3.333333333333333
  0
CIRCLE
  8
_0-a_極細3
  6
CONTINUOUS
 62
    7
 10
446.80091985316807
 20
294.26245819900851
 40
3.333333333333333
  0
LINE
  8
_0-b_細線3
  6
CONTINUOUS
 62
    7
 10
237.63425318650107
 20
279.92912486567457
 11
237.63425318650107
 21
313.2624581990076
  0
LINE
  8
_0-b_細線3
  6
CONTINUOUS
 62
    7
 10
237.63425318650107
 20
313.2624581990076
 11
655.96758651983453
 21
313.2624581990076
  0
LINE
  8
_0-b_細線3
  6
CONTINUOUS
 62
    7
 10
655.96758651983453
 20
313.2624581990076
 11
655.96758651983453
 21
279.92912486567457
  0
LINE
  8
_0-b_細線3
  6
CONTINUOUS
 62
    7
 10
655.96758651983453
 20
279.92912486567457
 11
237.63425318650107
 21
279.92912486567457
  0
LINE
  8
_0-b_細線3
  6
CONTINUOUS
 62
    7
 10
457.38425318680214
 20
313.26282320068731
 11
465.21758652013602
 21
313.26282320068731
  0
ARC
  8
_0-b_細線3
  6
CONTINUOUS
 62
    7
 10
235.13425318650107
 20
279.92912486567457
 40
4.9999999999999991
 50
179.99999999999983
 51
269.99999999999977
  0
LINE
  8
_0-b_細線3
  6
CONTINUOUS
 62
    7
 10
230.13425318650107
 20
279.92912486567457
 11
230.13425318650107
 21
312.42912486567457
  0
LINE
  8
_0-b_細線3
  6
CONTINUOUS
 62
    7
 10
235.13425318650107
 20
274.92912486567457
 11
279.30091985316807
 21
274.92912486567457
  0
LINE
  8
_0-b_細線3
  6
CONTINUOUS
 62
    7
 10
280.13425318650104
 20
275.76245819900805
 11
279.30091985316807
 21
274.92912486567457
  0
LINE
  8
_0-b_細線3
  6
CONTINUOUS
 62
    7
 10
280.13425318650104
 20
279.09579153234154
 11
280.13425318650104
 21
275.76245819900805
  0
LINE
  8
_0-b_細線3
  6
CONTINUOUS
 62
    7
 10
279.30091985316807
 20
279.92912486567457
 11
280.13425318650104
 21
279.09579153234154
  0
LINE
  8
_0-b_細線3
  6
CONTINUOUS
 62
    7
 10
235.13425318650107
 20
279.92912486567457
 11
279.30091985316807
 21
279.92912486567457
  0
LINE
  8
_0-b_細線3
  6
CONTINUOUS
 62
    7
 10
230.96758651983498
 20
313.26245819900805
 11
230.13425318650107
 21
312.42912486567457
  0
LINE
  8
_0-b_細線3
  6
CONTINUOUS
 62
    7
 10
234.30091985316807
 20
313.26245819900805
 11
230.96758651983498
 21
313.26245819900805
  0
LINE
  8
_0-b_細線3
  6
CONTINUOUS
 62
    7
 10
235.13425318650107
 20
312.42912486567457
 11
234.30091985316807
 21
313.26245819900805
  0
LINE
  8
_0-b_細線3
  6
CONTINUOUS
 62
    7
 10
235.13425318650107
 20
279.92912486567457
 11
235.13425318650107
 21
312.42912486567457
  0
ARC
  8
_0-b_細線3
  6
CONTINUOUS
 62
    7
 10
658.46758651983453
 20
279.92912486567457
 40
4.9999999999999991
 50
269.99999999999977
 51
359.99999999999966
  0
LINE
  8
_0-b_細線3
  6
CONTINUOUS
 62
    7
 10
663.46758651983453
 20
279.92912486567457
 11
663.46758651983453
 21
312.42912486567457
  0
LINE
  8
_0-b_細線3
  6
CONTINUOUS
 62
    7
 10
658.46758651983453
 20
274.92912486567457
 11
614.3009198531671
 21
274.92912486567457
  0
LINE
  8
_0-b_細線3
  6
CONTINUOUS
 62
    7
 10
613.46758651983498
 20
275.76245819900805
 11
614.3009198531671
 21
274.92912486567457
  0
LINE
  8
_0-b_細線3
  6
CONTINUOUS
 62
    7
 10
613.46758651983498
 20
279.09579153234154
 11
613.46758651983498
 21
275.76245819900805
  0
LINE
  8
_0-b_細線3
  6
CONTINUOUS
 62
    7
 10
614.3009198531671
 20
279.92912486567457
 11
613.46758651983498
 21
279.09579153234154
  0
LINE
  8
_0-b_細線3
  6
CONTINUOUS
 62
    7
 10
658.46758651983453
 20
279.92912486567457
 11
614.3009198531671
 21
279.92912486567457
  0
LINE
  8
_0-b_細線3
  6
CONTINUOUS
 62
    7
 10
662.63425318650104
 20
313.26245819900805
 11
663.46758651983453
 21
312.42912486567457
  0
LINE
  8
_0-b_細線3
  6
CONTINUOUS
 62
    7
 10
659.30091985316812
 20
313.26245819900805
 11
662.63425318650104
 21
313.26245819900805
  0
LINE
  8
_0-b_細線3
  6
CONTINUOUS
 62
    7
 10
658.46758651983453
 20
312.42912486567457
 11
659.30091985316812
 21
313.26245819900805
  0
LINE
  8
_0-b_細線3
  6
CONTINUOUS
 62
    7
 10
658.46758651983453
 20
279.92912486567457
 11
658.46758651983453
 21
312.42912486567457
  0
LINE
  8
_0-b_細線3
  6
CONTINUOUS
 62
    7
 10
237.63425318650107
 20
306.76245819900851
 11
655.96758651983453
 21
306.76245819900851
  0
CIRCLE
  8
_0-b_細線3
  6
CONTINUOUS
 62
    7
 10
266.80091985316807
 20
294.26245819900851
 40
10.833333333333332
  0
LINE
  8
_0-b_細線3
  6
CONTINUOUS
 62
    7
 10
273.46758651983498
 20
294.26245819900851
 11
270.13425318650104
 21
300.03596089090433
  0
LINE
  8
_0-b_細線3
  6
CONTINUOUS
 62
    7
 10
270.13425318650104
 20
300.03596089090433
 11
263.46758651983498
 21
300.03596089090433
  0
LINE
  8
_0-b_細線3
  6
CONTINUOUS
 62
    7
 10
263.46758651983498
 20
300.03596089090433
 11
260.13425318650104
 21
294.26245819900851
  0
LINE
  8
_0-b_細線3
  6
CONTINUOUS
 62
    7
 10
260.13425318650104
 20
294.26245819900851
 11
263.46758651983498
 21
288.48895550711177
  0
LINE
  8
_0-b_細線3
  6
CONTINUOUS
 62
    7
 10
263.46758651983498
 20
288.48895550711177
 11
270.13425318650104
 21
288.48895550711177
  0
LINE
  8
_0-b_細線3
  6
CONTINUOUS
 62
    7
 10
270.13425318650104
 20
288.48895550711177
 11
273.46758651983498
 21
294.26245819900851
  0
CIRCLE
  8
_0-b_細線3
  6
CONTINUOUS
 62
    7
 10
626.80091985316812
 20
294.26245819900851
 40
10.833333333333332
  0
LINE
  8
_0-b_細線3
  6
CONTINUOUS
 62
    7
 10
620.13425318650104
 20
294.26245819900851
 11
623.46758651983498
 21
300.03596089090433
  0
LINE
  8
_0-b_細線3
  6
CONTINUOUS
 62
    7
 10
623.46758651983498
 20
300.03596089090433
 11
630.13425318650104
 21
300.03596089090433
  0
LINE
  8
_0-b_細線3
  6
CONTINUOUS
 62
    7
 10
630.13425318650104
 20
300.03596089090433
 11
633.46758651983498
 21
294.26245819900851
  0
LINE
  8
_0-b_細線3
  6
CONTINUOUS
 62
    7
 10
633.46758651983498
 20
294.26245819900851
 11
630.13425318650104
 21
288.48895550711177
  0
LINE
  8
_0-b_細線3
  6
CONTINUOUS
 62
    7
 10
630.13425318650104
 20
288.48895550711177
 11
623.46758651983498
 21
288.48895550711177
  0
LINE
  8
_0-b_細線3
  6
CONTINUOUS
 62
    7
 10
623.46758651983498
 20
288.48895550711177
 11
620.13425318650104
 21
294.26245819900851
  0
CIRCLE
  8
_0-b_細線3
  6
CONTINUOUS
 62
    7
 10
446.80091985316807
 20
294.26245819900851
 40
10.833333333333332
  0
LINE
  8
_0-b_細線3
  6
CONTINUOUS
 62
    7
 10
440.13425318650104
 20
294.26245819900851
 11
443.46758651983498
 21
300.03596089090433
  0
LINE
  8
_0-b_細線3
  6
CONTINUOUS
 62
    7
 10
443.46758651983498
 20
300.03596089090433
 11
450.13425318650104
 21
300.03596089090433
  0
LINE
  8
_0-b_細線3
  6
CONTINUOUS
 62
    7
 10
450.13425318650104
 20
300.03596089090433
 11
453.46758651983498
 21
294.26245819900851
  0
LINE
  8
_0-b_細線3
  6
CONTINUOUS
 62
    7
 10
453.46758651983498
 20
294.26245819900851
 11
450.13425318650104
 21
288.48895550711177
  0
LINE
  8
_0-b_細線3
  6
CONTINUOUS
 62
    7
 10
450.13425318650104
 20
288.48895550711177
 11
443.46758651983498
 21
288.48895550711177
  0
LINE
  8
_0-b_細線3
  6
CONTINUOUS
 62
    7
 10
443.46758651983498
 20
288.48895550711177
 11
440.13425318650104
 21
294.26245819900851
  0
LINE
  8
_0-d_寸法3
  6
CONTINUOUS
 62
    7
 10
220.13425318650192
 20
313.26245819900811
 11
174.18422210791221
 21
313.26245819900805
  0
LINE
  8
_0-d_寸法3
  6
CONTINUOUS
 62
    7
 10
179.18422210791221
 20
313.26245819900805
 11
181.77241255893733
 21
303.60319993611733
  0
LINE
  8
_0-d_寸法3
  6
CONTINUOUS
 62
    7
 10
179.18422210791221
 20
313.26245819900805
 11
176.59603165688694
 21
303.60319993611739
  0
LINE
  8
_0-d_寸法3
  6
CONTINUOUS
 62
    7
 10
218.13425318650195
 20
274.92912486567462
 11
174.18422210791221
 21
274.92912486567457
  0
LINE
  8
_0-d_寸法3
  6
CONTINUOUS
 62
    7
 10
179.18422210791221
 20
274.92912486567457
 11
176.59603165688694
 21
284.58838312856523
  0
LINE
  8
_0-d_寸法3
  6
CONTINUOUS
 62
    7
 10
179.18422210791221
 20
274.92912486567457
 11
181.77241255893739
 21
284.58838312856528
  0
LINE
  8
_0-d_寸法3
  6
CONTINUOUS
 62
    7
 10
179.18422210791221
 20
313.26245819900805
 11
179.18422210791221
 21
274.92912486567457
  0
TEXT
  8
_0-d_寸法3
 62
    7
 10
179.18422210791221
 20
286.59579153234154
 40
15
 41
1
 50
90
  1
23
  0
LINE
  8
_0-d_寸法3
  6
CONTINUOUS
 62
    7
 10
220.13425318650192
 20
274.92912486567462
 11
174.18422210791221
 21
274.92912486567457
  0
LINE
  8
_0-d_寸法3
  6
CONTINUOUS
 62
    7
 10
179.18422210791221
 20
274.92912486567457
 11
181.77241255893733
 21
265.26986660278385
  0
LINE
  8
_0-d_寸法3
  6
CONTINUOUS
 62
    7
 10
179.18422210791221
 20
274.92912486567457
 11
176.59603165688694
 21
265.26986660278391
  0
LINE
  8
_0-d_寸法3
  6
CONTINUOUS
 62
    7
 10
218.13425318650195
 20
236.59579153234114
 11
174.18422210791311
 21
236.59579153234114
  0
LINE
  8
_0-d_寸法3
  6
CONTINUOUS
 62
    7
 10
179.18422210791311
 20
236.59579153234108
 11
176.59603165688793
 21
246.2550497952318
  0
LINE
  8
_0-d_寸法3
  6
CONTINUOUS
 62
    7
 10
179.18422210791311
 20
236.59579153234108
 11
181.77241255893833
 21
246.2550497952318
  0
LINE
  8
_0-d_寸法3
  6
CONTINUOUS
 62
    7
 10
179.18422210791221
 20
274.92912486567457
 11
179.18422210791311
 21
236.59579153234108
  0
TEXT
  8
_0-d_寸法3
 62
    7
 10
179.18422210791311
 20
248.26245819900763
 40
15
 41
1
 50
90
  1
23
  0
LINE
  8
_0-a_極細3
  6
CONTINUOUS
 62
    7
 10
186.49418496601569
 20
224.8108260281779
 11
181.36388281613051
 21
238.90621533996637
  0
LINE
  8
_0-a_極細3
  6
CONTINUOUS
 62
    7
 10
236.48822763981244
 20
258.96983603921308
 11
241.61852978969719
 21
244.87444672742458
  0
LINE
  8
_0-a_極細3
  6
CONTINUOUS
 62
    7
 10
181.36388281613051
 20
238.90621533996637
 11
236.48822763981244
 21
258.96983603921308
  0
LINE
  8
_0-a_極細3
  6
CONTINUOUS
 62
    7
 10
186.49418496601569
 20
224.8108260281779
 11
241.61852978969719
 21
244.87444672742458
  0
LINE
  8
_0-a_極細3
  6
CENTER1
 62
    7
 10
178.97360049908036
 20
230.05489064404264
 11
243.0046209816463
 21
253.36027612907768
  0
LINE
  8
_0-a_極細3
  6
CONTINUOUS
 62
    7
 10
205.13425318650107
 20
199.92912486567462
 11
205.13425318650107
 21
244.0146862139909
  0
LINE
  8
_0-a_極細3
  6
CONTINUOUS
 62
    7
 10
205.13425318650107
 20
244.0146862139909
 11
190.13425318650107
 21
244.0146862139909
  0
LINE
  8
_0-a_極細3
  6
CONTINUOUS
 62
    7
 10
190.13425318650107
 20
244.0146862139909
 11
190.13425318650107
 21
199.92912486567462
  0
LINE
  8
_0-a_極細3
  6
CENTER1
 62
    7
 10
197.63425318650107
 20
191.65238458122167
 11
197.63425318650107
 21
248.29040637860001
  0
LINE
  8
_0-a_極細3
  6
CONTINUOUS
 62
    7
 10
707.10765474031984
 20
224.8108260281779
 11
712.23795689020506
 21
238.90621533996637
  0
LINE
  8
_0-a_極細3
  6
CONTINUOUS
 62
    7
 10
657.11361206652373
 20
258.96983603921308
 11
651.98330991663897
 21
244.87444672742458
  0
LINE
  8
_0-a_極細3
  6
CONTINUOUS
 62
    7
 10
712.23795689020506
 20
238.90621533996637
 11
657.11361206652373
 21
258.96983603921308
  0
LINE
  8
_0-a_極細3
  6
CONTINUOUS
 62
    7
 10
707.10765474031984
 20
224.8108260281779
 11
651.98330991663897
 21
244.87444672742458
  0
LINE
  8
_0-a_極細3
  6
CENTER1
 62
    7
 10
714.62823920725532
 20
230.05489064404264
 11
650.59721872468958
 21
253.36027612907768
  0
LINE
  8
_0-a_極細3
  6
CONTINUOUS
 62
    7
 10
688.46758651983453
 20
199.92912486567462
 11
688.46758651983453
 21
244.0146862139909
  0
LINE
  8
_0-a_極細3
  6
CONTINUOUS
 62
    7
 10
688.46758651983453
 20
244.0146862139909
 11
703.46758651983453
 21
244.0146862139909
  0
LINE
  8
_0-a_極細3
  6
CONTINUOUS
 62
    7
 10
703.46758651983453
 20
244.0146862139909
 11
703.46758651983453
 21
199.92912486567462
  0
LINE
  8
_0-a_極細3
  6
CENTER1
 62
    7
 10
695.96758651983453
 20
191.65238458122167
 11
695.96758651983453
 21
248.29040637860001
  0
LINE
  8
_0-d_寸法3
  6
CONTINUOUS
 62
    7
 10
438.60939941027817
 20
285.66488922918506
 11
403.25705768459267
 21
310.41886539887582
  0
LINE
  8
_0-d_寸法3
  6
CONTINUOUS
 62
    7
 10
407.35281790603756
 20
307.55098321712057
 11
404.76462745501237
 21
317.21024148001123
  0
LINE
  8
_0-d_寸法3
  6
CONTINUOUS
 62
    7
 10
407.35281790603756
 20
307.55098321712057
 11
409.94100835706286
 21
317.21024148001123
  0
LINE
  8
_0-d_寸法3
  6
CONTINUOUS
 62
    7
 10
438.60939941027817
 20
318.99822256251855
 11
403.25705768459267
 21
343.75219873220937
  0
LINE
  8
_0-d_寸法3
  6
CONTINUOUS
 62
    7
 10
407.35281790603756
 20
340.88431655045406
 11
409.94100835706274
 21
331.2250582875634
  0
LINE
  8
_0-d_寸法3
  6
CONTINUOUS
 62
    7
 10
407.35281790603756
 20
340.88431655045406
 11
404.76462745501237
 21
331.2250582875634
  0
LINE
  8
_0-d_寸法3
  6
CONTINUOUS
 62
    7
 10
407.35281790603756
 20
307.55098321712057
 11
407.35281790603756
 21
340.88431655045406
  0
TEXT
  8
_0-d_寸法3
 62
    7
 10
407.35281790603756
 20
316.71764988378709
 40
15
 41
1
 50
90
  1
20
  0
TEXT
  8
_0-7_枠細線
 62
    5
 10
396.87887221393424
 20
138.26209319732968
 40
25
 41
0.8
 50
0
  1
断面詳細図
  0
TEXT
  8
_0-7_枠細線
 62
    5
 10
511.82784196310223
 20
138.26209319732968
 40
20
 41
0.6
 50
0
  1
Ｓ＝１：３
  0
TEXT
  8
_0-7_枠細線
 62
    5
 10
965.50000000000011
 20
110
 40
20
 41
0.6
 50
0
  1
ＧＲＳＪ－２０Ｗ２５１　ＳＥＴ
  0
LINE
  8
_0-7_枠細線
  6
CONTINUOUS
 62
    5
 10
1425
 20
942.5
 11
890
 21
942.5
  0
TEXT
  8
_0-7_枠細線
 62
    5
 10
895
 20
945
 40
12.5
 41
1
 50
0
  1
記号
  0
TEXT
  8
_0-7_枠細線
 62
    5
 10
996.875
 20
945
 40
12.5
 41
1
 50
0
  1
訂　 正　 記　 事
  0
TEXT
  8
_0-7_枠細線
 62
    5
 10
1181.25
 20
945
 40
12.5
 41
1
 50
0
  1
訂 正 年 月 日
  0
TEXT
  8
_0-7_枠細線
 62
    5
 10
1306.25
 20
945
 40
12.5
 41
1
 50
0
  1
備　　　　　考
  0
LINE
  8
_0-7_枠細線
  6
CONTINUOUS
 62
    5
 10
1425
 20
925
 11
890
 21
925
  0
TEXT
  8
_0-7_枠細線
 62
    5
 10
938.85037037037023
 20
927.5
 40
12.5
 41
1
 50
0
  1
品番・色記号変更
  0
TEXT
  8
_0-7_枠細線
 62
    5
 10
1180
 20
927.5
 40
12.5
 41
0.7199999999999999
 50
0
  1
２０１３．０３．１３
  0
LINE
  8
_0-7_枠細線
  6
CONTINUOUS
 62
    5
 10
915
 20
908.75
 11
907.5
 21
923.75
  0
LINE
  8
_0-7_枠細線
  6
CONTINUOUS
 62
    5
 10
900
 20
908.75
 11
915
 21
908.75
  0
LINE
  8
_0-7_枠細線
  6
CONTINUOUS
 62
    5
 10
907.5
 20
923.75
 11
900
 21
908.75
  0
TEXT
  8
_0-7_枠細線
 62
    5
 10
902.36515126814822
 20
908.44299775461946
 40
12.5
 41
0.8
 50
0
  1
１
  0
LINE
  8
_0-0_計極細
  6
CENTER2
 62
    2
 10
214.27468171297463
 20
656.45884924088659
 11
1245.2080150463519
 21
656.45884924088659
  0
ARC
  8
_0-0_計極細
  6
CONTINUOUS
 62
    2
 10
217.10950240667813
 20
778.95884924088614
 40
11.295514677412786
 50
138.39585046827571
 51
221.60414953172395
  0
ARC
  8
_0-0_計極細
  6
CONTINUOUS
 62
    2
 10
200.21706009330771
 20
763.95884924088477
 40
11.295514677412786
 50
318.39585046827381
 51
41.604149531723962
  0
ARC
  8
_0-0_計極細
  6
CONTINUOUS
 62
    2
 10
217.10950240667813
 20
548.95884924088614
 40
11.295514677412786
 50
138.39585046827571
 51
221.60414953172395
  0
ARC
  8
_0-0_計極細
  6
CONTINUOUS
 62
    2
 10
200.21706009330771
 20
533.95884924088477
 40
11.295514677412786
 50
318.39585046827534
 51
41.604149531723962
  0
LINE
  8
_0-1_計細線
  6
CONTINUOUS
 62
    3
 10
208.663281249992
 20
786.45884924088614
 11
1250.6632812499936
 21
786.45884924088614
  0
LINE
  8
_0-1_計細線
  6
CONTINUOUS
 62
    3
 10
1250.6632812499936
 20
526.4588492408875
 11
208.66328124999242
 21
526.4588492408875
  0
ARC
  8
_0-0_計極細
  6
CONTINUOUS
 62
    2
 10
1259.1095024066792
 20
778.95884924088614
 40
11.295514677412786
 50
138.39585046827494
 51
221.60414953172469
  0
ARC
  8
_0-0_計極細
  6
CONTINUOUS
 62
    2
 10
1242.2170600933086
 20
763.95884924088477
 40
11.295514677412786
 50
318.39585046827455
 51
41.604149531724723
  0
ARC
  8
_0-0_計極細
  6
CONTINUOUS
 62
    2
 10
1259.1095024066792
 20
548.95884924088614
 40
11.295514677412786
 50
138.39585046827494
 51
221.60414953172469
  0
ARC
  8
_0-0_計極細
  6
CONTINUOUS
 62
    2
 10
1242.2170600933086
 20
533.95884924088477
 40
11.295514677412786
 50
318.39585046827455
 51
41.604149531724723
  0
LINE
  8
_0-1_計細線
  6
CONTINUOUS
 62
    3
 10
206.74906555161988
 20
783.45884924088625
 11
1248.7490655516212
 21
783.45884924088625
  0
LINE
  8
_0-1_計細線
  6
CONTINUOUS
 62
    3
 10
1252.5774969483682
 20
529.4588492408875
 11
210.57749694836821
 21
529.4588492408875
  0
LINE
  8
_0-5_寸法線
  6
CONTINUOUS
 62
    7
 10
198.663281249992
 20
786.45884924088614
 11
153.66328124999745
 21
786.45884924088614
  0
LINE
  8
_0-5_寸法線
  6
CONTINUOUS
 62
    7
 10
158.66328124999745
 20
786.45884924088614
 11
161.25147170102267
 21
776.79959097799554
  0
LINE
  8
_0-5_寸法線
  6
CONTINUOUS
 62
    7
 10
158.66328124999745
 20
786.45884924088614
 11
156.07509079897221
 21
776.79959097799554
  0
LINE
  8
_0-5_寸法線
  6
CONTINUOUS
 62
    7
 10
198.6632812499947
 20
756.45884924088614
 11
153.66328124999745
 21
756.45884924088614
  0
LINE
  8
_0-5_寸法線
  6
CONTINUOUS
 62
    7
 10
158.66328124999745
 20
756.45884924088614
 11
156.07509079897227
 21
766.11810750377686
  0
LINE
  8
_0-5_寸法線
  6
CONTINUOUS
 62
    7
 10
158.66328124999745
 20
756.45884924088614
 11
161.25147170102267
 21
766.11810750377686
  0
LINE
  8
_0-5_寸法線
  6
CONTINUOUS
 62
    7
 10
158.66328124999745
 20
786.45884924088614
 11
158.66328124999745
 21
756.45884924088614
  0
TEXT
  8
_0-5_寸法線
 62
    7
 10
158.66328124999745
 20
763.95884924088614
 40
15
 41
1
 50
90
  1
30
  0
LINE
  8
_0-5_寸法線
  6
CONTINUOUS
 62
    7
 10
158.66328124999745
 20
756.45884924088614
 11
161.25147170102267
 21
746.79959097799542
  0
LINE
  8
_0-5_寸法線
  6
CONTINUOUS
 62
    7
 10
158.66328124999745
 20
756.45884924088614
 11
156.07509079897227
 21
746.79959097799542
  0
LINE
  8
_0-5_寸法線
  6
CONTINUOUS
 62
    7
 10
198.66328124999242
 20
556.45884924088614
 11
153.66328124999745
 21
556.45884924088614
  0
LINE
  8
_0-5_寸法線
  6
CONTINUOUS
 62
    7
 10
158.66328124999745
 20
556.45884924088614
 11
156.07509079897227
 21
566.11810750377686
  0
LINE
  8
_0-5_寸法線
  6
CONTINUOUS
 62
    7
 10
158.66328124999745
 20
556.45884924088614
 11
161.25147170102267
 21
566.11810750377686
  0
LINE
  8
_0-5_寸法線
  6
CONTINUOUS
 62
    7
 10
158.66328124999745
 20
756.45884924088614
 11
158.66328124999745
 21
556.45884924088614
  0
TEXT
  8
_0-5_寸法線
 62
    7
 10
158.6632812499974
 20
645.20884924088614
 40
15
 41
1
 50
89.999999999999815
  1
200
  0
LINE
  8
_0-5_寸法線
  6
CONTINUOUS
 62
    7
 10
158.66328124999745
 20
556.45884924088614
 11
161.25147170102267
 21
546.79959097799542
  0
LINE
  8
_0-5_寸法線
  6
CONTINUOUS
 62
    7
 10
158.66328124999745
 20
556.45884924088614
 11
156.07509079897227
 21
546.79959097799542
  0
LINE
  8
_0-5_寸法線
  6
CONTINUOUS
 62
    7
 10
198.66328124999745
 20
526.45884924088932
 11
153.66328124999745
 21
526.45884924088932
  0
LINE
  8
_0-5_寸法線
  6
CONTINUOUS
 62
    7
 10
158.66328124999745
 20
526.45884924088932
 11
156.07509079897227
 21
536.11810750378004
  0
LINE
  8
_0-5_寸法線
  6
CONTINUOUS
 62
    7
 10
158.66328124999745
 20
526.45884924088932
 11
161.25147170102267
 21
536.11810750378004
  0
LINE
  8
_0-5_寸法線
  6
CONTINUOUS
 62
    7
 10
158.66328124999745
 20
556.45884924088614
 11
158.66328124999745
 21
526.45884924088932
  0
TEXT
  8
_0-5_寸法線
 62
    7
 10
158.66328124999745
 20
533.9588492408875
 40
15
 41
1
 50
90
  1
30
  0
LINE
  8
_0-5_寸法線
  6
CONTINUOUS
 62
    7
 10
1260.6632812499936
 20
786.45884924088614
 11
1340.6632812499925
 21
786.45884924088614
  0
LINE
  8
_0-5_寸法線
  6
CONTINUOUS
 62
    7
 10
1335.6632812499925
 20
786.45884924088614
 11
1338.2514717010176
 21
776.79959097799554
  0
LINE
  8
_0-5_寸法線
  6
CONTINUOUS
 62
    7
 10
1335.6632812499925
 20
786.45884924088614
 11
1333.0750907989673
 21
776.79959097799554
  0
LINE
  8
_0-5_寸法線
  6
CONTINUOUS
 62
    7
 10
1260.6632812499927
 20
526.4588492408825
 11
1340.6632812499927
 21
526.4588492408825
  0
LINE
  8
_0-5_寸法線
  6
CONTINUOUS
 62
    7
 10
1335.6632812499927
 20
526.4588492408825
 11
1333.0750907989677
 21
536.11810750377322
  0
LINE
  8
_0-5_寸法線
  6
CONTINUOUS
 62
    7
 10
1335.6632812499927
 20
526.4588492408825
 11
1338.2514717010179
 21
536.11810750377322
  0
LINE
  8
_0-5_寸法線
  6
CONTINUOUS
 62
    7
 10
1335.6632812499925
 20
786.45884924088614
 11
1335.6632812499927
 21
526.4588492408825
  0
TEXT
  8
_0-5_寸法線
 62
    7
 10
1335.6632812499927
 20
645.20884924088432
 40
15
 41
1
 50
90
  1
260
  0
LINE
  8
_0-1_計細線
  6
CONTINUOUS
 62
    3
 10
208.663281249992
 20
756.45884924088614
 11
230.16328124999382
 21
756.45884924088614
  0
LINE
  8
_0-1_計細線
  6
CONTINUOUS
 62
    3
 10
208.66328124999242
 20
556.4588492408875
 11
230.16328124999382
 21
556.4588492408875
  0
LINE
  8
_0-1_計細線
  6
CONTINUOUS
 62
    3
 10
1229.1632812499938
 20
556.4588492408875
 11
1250.6632812499936
 21
556.4588492408875
  0
LINE
  8
_0-1_計細線
  6
CONTINUOUS
 62
    3
 10
1229.1632812499938
 20
756.45884924088614
 11
1250.6632812499936
 21
756.45884924088614
  0
LINE
  8
_0-1_計細線
  6
CONTINUOUS
 62
    3
 10
1229.1632812499943
 20
530.9588492408875
 11
1229.1632812499934
 21
781.95884924088614
  0
LINE
  8
_0-1_計細線
  6
CONTINUOUS
 62
    3
 10
1217.7632812499937
 20
530.9588492408875
 11
1217.7632812499928
 21
781.95884924088614
  0
LINE
  8
_0-1_計細線
  6
CONTINUOUS
 62
    3
 10
1229.1632812499943
 20
530.9588492408875
 11
1217.7632812499937
 21
530.9588492408875
  0
LINE
  8
_0-1_計細線
  6
CONTINUOUS
 62
    3
 10
1229.1632812499934
 20
781.95884924088614
 11
1217.7632812499928
 21
781.95884924088614
  0
LINE
  8
_0-0_計極細
  6
CONTINUOUS
 62
    2
 10
1220.963281249994
 20
530.9588492408875
 11
1220.9632812499931
 21
781.95884924088614
  0
LINE
  8
_0-0_計極細
  6
CONTINUOUS
 62
    2
 10
1225.963281249994
 20
530.9588492408875
 11
1225.9632812499931
 21
781.95884924088614
  0
LINE
  8
_0-1_計細線
  6
CONTINUOUS
 62
    3
 10
1195.1632812499934
 20
530.9588492408875
 11
1195.1632812499925
 21
781.95884924088614
  0
LINE
  8
_0-1_計細線
  6
CONTINUOUS
 62
    3
 10
1183.7632812499928
 20
530.95884924088796
 11
1183.7632812499919
 21
781.95884924088614
  0
LINE
  8
_0-1_計細線
  6
CONTINUOUS
 62
    3
 10
1195.1632812499934
 20
530.9588492408875
 11
1183.7632812499928
 21
530.95884924088796
  0
LINE
  8
_0-1_計細線
  6
CONTINUOUS
 62
    3
 10
1195.1632812499925
 20
781.95884924088614
 11
1183.7632812499919
 21
781.95884924088614
  0
LINE
  8
_0-0_計極細
  6
CONTINUOUS
 62
    2
 10
1186.9632812499935
 20
530.95884924088796
 11
1186.9632812499926
 21
781.95884924088614
  0
LINE
  8
_0-0_計極細
  6
CONTINUOUS
 62
    2
 10
1191.9632812499935
 20
530.9588492408875
 11
1191.9632812499926
 21
781.95884924088614
  0
LINE
  8
_0-1_計細線
  6
CONTINUOUS
 62
    3
 10
1178.1632812499929
 20
530.95884924088796
 11
1178.163281249992
 21
781.95884924088614
  0
LINE
  8
_0-1_計細線
  6
CONTINUOUS
 62
    3
 10
1166.7632812499924
 20
530.95884924088796
 11
1166.7632812499912
 21
781.95884924088614
  0
LINE
  8
_0-1_計細線
  6
CONTINUOUS
 62
    3
 10
1178.1632812499929
 20
530.95884924088796
 11
1166.7632812499924
 21
530.95884924088796
  0
LINE
  8
_0-1_計細線
  6
CONTINUOUS
 62
    3
 10
1178.163281249992
 20
781.95884924088614
 11
1166.7632812499912
 21
781.95884924088614
  0
LINE
  8
_0-0_計極細
  6
CONTINUOUS
 62
    2
 10
1169.9632812499926
 20
530.95884924088796
 11
1169.9632812499915
 21
781.95884924088614
  0
LINE
  8
_0-0_計極細
  6
CONTINUOUS
 62
    2
 10
1174.9632812499926
 20
530.95884924088796
 11
1174.9632812499915
 21
781.95884924088614
  0
LINE
  8
_0-1_計細線
  6
CONTINUOUS
 62
    3
 10
1115.7632812499951
 20
530.95884924088796
 11
1115.7632812499942
 21
781.95884924088614
  0
LINE
  8
_0-1_計細線
  6
CONTINUOUS
 62
    3
 10
1127.1632812499956
 20
530.9588492408875
 11
1127.1632812499947
 21
781.95884924088614
  0
LINE
  8
_0-1_計細線
  6
CONTINUOUS
 62
    3
 10
1115.7632812499951
 20
530.95884924088796
 11
1127.1632812499956
 21
530.9588492408875
  0
LINE
  8
_0-1_計細線
  6
CONTINUOUS
 62
    3
 10
1115.7632812499942
 20
781.95884924088614
 11
1127.1632812499947
 21
781.95884924088614
  0
LINE
  8
_0-0_計極細
  6
CONTINUOUS
 62
    2
 10
1123.9632812499949
 20
530.9588492408875
 11
1123.963281249994
 21
781.95884924088614
  0
LINE
  8
_0-0_計極細
  6
CONTINUOUS
 62
    2
 10
1118.9632812499949
 20
530.95884924088796
 11
1118.963281249994
 21
781.95884924088614
  0
LINE
  8
_0-1_計細線
  6
CONTINUOUS
 62
    3
 10
1098.7632812499942
 20
530.95884924088796
 11
1098.763281249993
 21
781.95884924088614
  0
LINE
  8
_0-1_計細線
  6
CONTINUOUS
 62
    3
 10
1110.1632812499947
 20
530.95884924088796
 11
1110.1632812499936
 21
781.95884924088614
  0
LINE
  8
_0-1_計細線
  6
CONTINUOUS
 62
    3
 10
1098.7632812499942
 20
530.95884924088796
 11
1110.1632812499947
 21
530.95884924088796
  0
LINE
  8
_0-1_計細線
  6
CONTINUOUS
 62
    3
 10
1098.763281249993
 20
781.95884924088614
 11
1110.1632812499936
 21
781.95884924088614
  0
LINE
  8
_0-0_計極細
  6
CONTINUOUS
 62
    2
 10
1106.9632812499945
 20
530.95884924088796
 11
1106.9632812499933
 21
781.95884924088614
  0
LINE
  8
_0-0_計極細
  6
CONTINUOUS
 62
    2
 10
1101.9632812499945
 20
530.95884924088796
 11
1101.9632812499933
 21
781.95884924088614
  0
LINE
  8
_0-1_計細線
  6
CONTINUOUS
 62
    3
 10
1081.7632812499942
 20
530.95884924088796
 11
1081.7632812499933
 21
781.95884924088614
  0
LINE
  8
_0-1_計細線
  6
CONTINUOUS
 62
    3
 10
1093.1632812499947
 20
530.95884924088796
 11
1093.1632812499938
 21
781.95884924088614
  0
LINE
  8
_0-1_計細線
  6
CONTINUOUS
 62
    3
 10
1081.7632812499942
 20
530.95884924088796
 11
1093.1632812499947
 21
530.95884924088796
  0
LINE
  8
_0-1_計細線
  6
CONTINUOUS
 62
    3
 10
1081.7632812499933
 20
781.95884924088614
 11
1093.1632812499938
 21
781.95884924088614
  0
LINE
  8
_0-0_計極細
  6
CONTINUOUS
 62
    2
 10
1089.9632812499945
 20
530.95884924088796
 11
1089.9632812499935
 21
781.95884924088614
  0
LINE
  8
_0-0_計極細
  6
CONTINUOUS
 62
    2
 10
1084.9632812499945
 20
530.95884924088796
 11
1084.9632812499935
 21
781.95884924088614
  0
LINE
  8
_0-1_計細線
  6
CONTINUOUS
 62
    3
 10
1076.1632812499952
 20
530.9588492408875
 11
1076.163281249994
 21
781.95884924088614
  0
LINE
  8
_0-1_計細線
  6
CONTINUOUS
 62
    3
 10
1064.7632812499946
 20
530.9588492408875
 11
1064.7632812499935
 21
781.95884924088614
  0
LINE
  8
_0-1_計細線
  6
CONTINUOUS
 62
    3
 10
1076.1632812499952
 20
530.9588492408875
 11
1064.7632812499946
 21
530.9588492408875
  0
LINE
  8
_0-1_計細線
  6
CONTINUOUS
 62
    3
 10
1076.163281249994
 20
781.95884924088614
 11
1064.7632812499935
 21
781.95884924088614
  0
LINE
  8
_0-0_計極細
  6
CONTINUOUS
 62
    2
 10
1067.9632812499949
 20
530.9588492408875
 11
1067.9632812499938
 21
781.95884924088614
  0
LINE
  8
_0-0_計極細
  6
CONTINUOUS
 62
    2
 10
1072.9632812499949
 20
530.9588492408875
 11
1072.9632812499938
 21
781.95884924088614
  0
LINE
  8
_0-1_計細線
  6
CONTINUOUS
 62
    3
 10
1212.1632812499956
 20
530.9588492408875
 11
1212.1632812499945
 21
781.95884924088614
  0
LINE
  8
_0-1_計細線
  6
CONTINUOUS
 62
    3
 10
1200.7632812499951
 20
530.95884924088796
 11
1200.7632812499942
 21
781.95884924088614
  0
LINE
  8
_0-1_計細線
  6
CONTINUOUS
 62
    3
 10
1212.1632812499956
 20
530.9588492408875
 11
1200.7632812499951
 21
530.95884924088796
  0
LINE
  8
_0-1_計細線
  6
CONTINUOUS
 62
    3
 10
1212.1632812499945
 20
781.95884924088614
 11
1200.7632812499942
 21
781.95884924088614
  0
LINE
  8
_0-0_計極細
  6
CONTINUOUS
 62
    2
 10
1203.9632812499958
 20
530.95884924088796
 11
1203.9632812499947
 21
781.95884924088614
  0
LINE
  8
_0-0_計極細
  6
CONTINUOUS
 62
    2
 10
1208.9632812499958
 20
530.9588492408875
 11
1208.9632812499947
 21
781.95884924088614
  0
LINE
  8
_0-1_計細線
  6
CONTINUOUS
 62
    3
 10
1059.1632812499952
 20
530.9588492408875
 11
1059.1632812499943
 21
781.95884924088614
  0
LINE
  8
_0-1_計細線
  6
CONTINUOUS
 62
    3
 10
1047.7632812499946
 20
530.9588492408875
 11
1047.7632812499937
 21
781.95884924088614
  0
LINE
  8
_0-1_計細線
  6
CONTINUOUS
 62
    3
 10
1059.1632812499952
 20
530.9588492408875
 11
1047.7632812499946
 21
530.9588492408875
  0
LINE
  8
_0-1_計細線
  6
CONTINUOUS
 62
    3
 10
1059.1632812499943
 20
781.95884924088614
 11
1047.7632812499937
 21
781.95884924088614
  0
LINE
  8
_0-0_計極細
  6
CONTINUOUS
 62
    2
 10
1050.9632812499949
 20
530.9588492408875
 11
1050.963281249994
 21
781.95884924088614
  0
LINE
  8
_0-0_計極細
  6
CONTINUOUS
 62
    2
 10
1055.9632812499949
 20
530.9588492408875
 11
1055.963281249994
 21
781.95884924088614
  0
LINE
  8
_0-1_計細線
  6
CONTINUOUS
 62
    3
 10
1042.1632812499952
 20
530.9588492408875
 11
1042.1632812499943
 21
781.95884924088614
  0
LINE
  8
_0-1_計細線
  6
CONTINUOUS
 62
    3
 10
1030.7632812499946
 20
530.9588492408875
 11
1030.7632812499937
 21
781.95884924088614
  0
LINE
  8
_0-1_計細線
  6
CONTINUOUS
 62
    3
 10
1042.1632812499952
 20
530.9588492408875
 11
1030.7632812499946
 21
530.9588492408875
  0
LINE
  8
_0-1_計細線
  6
CONTINUOUS
 62
    3
 10
1042.1632812499943
 20
781.95884924088614
 11
1030.7632812499937
 21
781.95884924088614
  0
LINE
  8
_0-0_計極細
  6
CONTINUOUS
 62
    2
 10
1033.9632812499949
 20
530.9588492408875
 11
1033.963281249994
 21
781.95884924088614
  0
LINE
  8
_0-0_計極細
  6
CONTINUOUS
 62
    2
 10
1038.9632812499949
 20
530.9588492408875
 11
1038.963281249994
 21
781.95884924088614
  0
LINE
  8
_0-1_計細線
  6
CONTINUOUS
 62
    3
 10
1025.1632812499952
 20
530.9588492408875
 11
1025.1632812499943
 21
781.95884924088614
  0
LINE
  8
_0-1_計細線
  6
CONTINUOUS
 62
    3
 10
1013.7632812499947
 20
530.9588492408875
 11
1013.7632812499937
 21
781.95884924088614
  0
LINE
  8
_0-1_計細線
  6
CONTINUOUS
 62
    3
 10
1025.1632812499952
 20
530.9588492408875
 11
1013.7632812499947
 21
530.9588492408875
  0
LINE
  8
_0-1_計細線
  6
CONTINUOUS
 62
    3
 10
1025.1632812499943
 20
781.95884924088614
 11
1013.7632812499937
 21
781.95884924088614
  0
LINE
  8
_0-0_計極細
  6
CONTINUOUS
 62
    2
 10
1016.9632812499951
 20
530.9588492408875
 11
1016.9632812499941
 21
781.95884924088614
  0
LINE
  8
_0-0_計極細
  6
CONTINUOUS
 62
    2
 10
1021.9632812499951
 20
530.9588492408875
 11
1021.9632812499941
 21
781.95884924088614
  0
LINE
  8
_0-1_計細線
  6
CONTINUOUS
 62
    3
 10
1008.1632812499953
 20
530.9588492408875
 11
1008.1632812499943
 21
781.95884924088614
  0
LINE
  8
_0-1_計細線
  6
CONTINUOUS
 62
    3
 10
996.76328124999486
 20
530.9588492408875
 11
996.76328124999372
 21
781.95884924088614
  0
LINE
  8
_0-1_計細線
  6
CONTINUOUS
 62
    3
 10
1008.1632812499953
 20
530.9588492408875
 11
996.76328124999486
 21
530.9588492408875
  0
LINE
  8
_0-1_計細線
  6
CONTINUOUS
 62
    3
 10
1008.1632812499943
 20
781.95884924088614
 11
996.76328124999372
 21
781.95884924088614
  0
LINE
  8
_0-0_計極細
  6
CONTINUOUS
 62
    2
 10
999.96328124999513
 20
530.9588492408875
 11
999.96328124999411
 21
781.95884924088614
  0
LINE
  8
_0-0_計極細
  6
CONTINUOUS
 62
    2
 10
1004.9632812499951
 20
530.9588492408875
 11
1004.9632812499941
 21
781.95884924088614
  0
LINE
  8
_0-1_計細線
  6
CONTINUOUS
 62
    3
 10
991.16328124999541
 20
530.9588492408875
 11
991.16328124999427
 21
781.95884924088614
  0
LINE
  8
_0-1_計細線
  6
CONTINUOUS
 62
    3
 10
979.76328124999486
 20
530.9588492408875
 11
979.76328124999384
 21
781.95884924088614
  0
LINE
  8
_0-1_計細線
  6
CONTINUOUS
 62
    3
 10
991.16328124999541
 20
530.9588492408875
 11
979.76328124999486
 21
530.9588492408875
  0
LINE
  8
_0-1_計細線
  6
CONTINUOUS
 62
    3
 10
991.16328124999427
 20
781.95884924088614
 11
979.76328124999384
 21
781.95884924088614
  0
LINE
  8
_0-0_計極細
  6
CONTINUOUS
 62
    2
 10
982.96328124999502
 20
530.9588492408875
 11
982.963281249994
 21
781.95884924088614
  0
LINE
  8
_0-0_計極細
  6
CONTINUOUS
 62
    2
 10
987.96328124999502
 20
530.9588492408875
 11
987.963281249994
 21
781.95884924088614
  0
LINE
  8
_0-1_計細線
  6
CONTINUOUS
 62
    3
 10
974.16328124999541
 20
530.9588492408875
 11
974.16328124999438
 21
781.95884924088614
  0
LINE
  8
_0-1_計細線
  6
CONTINUOUS
 62
    3
 10
962.76328124999486
 20
530.9588492408875
 11
962.76328124999384
 21
781.95884924088614
  0
LINE
  8
_0-1_計細線
  6
CONTINUOUS
 62
    3
 10
974.16328124999541
 20
530.9588492408875
 11
962.76328124999486
 21
530.9588492408875
  0
LINE
  8
_0-1_計細線
  6
CONTINUOUS
 62
    3
 10
974.16328124999438
 20
781.95884924088614
 11
962.76328124999384
 21
781.95884924088614
  0
LINE
  8
_0-0_計極細
  6
CONTINUOUS
 62
    2
 10
965.96328124999502
 20
530.9588492408875
 11
965.963281249994
 21
781.95884924088614
  0
LINE
  8
_0-0_計極細
  6
CONTINUOUS
 62
    2
 10
970.96328124999502
 20
530.9588492408875
 11
970.963281249994
 21
781.95884924088614
  0
LINE
  8
_0-1_計細線
  6
CONTINUOUS
 62
    3
 10
957.16328124999541
 20
530.9588492408875
 11
957.16328124999438
 21
781.95884924088614
  0
LINE
  8
_0-1_計細線
  6
CONTINUOUS
 62
    3
 10
945.76328124999475
 20
530.9588492408875
 11
945.76328124999372
 21
781.95884924088614
  0
LINE
  8
_0-1_計細線
  6
CONTINUOUS
 62
    3
 10
957.16328124999541
 20
530.9588492408875
 11
945.76328124999475
 21
530.9588492408875
  0
LINE
  8
_0-1_計細線
  6
CONTINUOUS
 62
    3
 10
957.16328124999438
 20
781.95884924088614
 11
945.76328124999372
 21
781.95884924088614
  0
LINE
  8
_0-0_計極細
  6
CONTINUOUS
 62
    2
 10
948.96328124999513
 20
530.9588492408875
 11
948.963281249994
 21
781.95884924088614
  0
LINE
  8
_0-0_計極細
  6
CONTINUOUS
 62
    2
 10
953.96328124999513
 20
530.9588492408875
 11
953.963281249994
 21
781.95884924088614
  0
LINE
  8
_0-1_計細線
  6
CONTINUOUS
 62
    3
 10
940.16328124999529
 20
530.9588492408875
 11
940.16328124999427
 21
781.95884924088614
  0
LINE
  8
_0-1_計細線
  6
CONTINUOUS
 62
    3
 10
928.76328124999475
 20
530.9588492408875
 11
928.76328124999372
 21
781.95884924088614
  0
LINE
  8
_0-1_計細線
  6
CONTINUOUS
 62
    3
 10
940.16328124999529
 20
530.9588492408875
 11
928.76328124999475
 21
530.9588492408875
  0
LINE
  8
_0-1_計細線
  6
CONTINUOUS
 62
    3
 10
940.16328124999427
 20
781.95884924088614
 11
928.76328124999372
 21
781.95884924088614
  0
LINE
  8
_0-0_計極細
  6
CONTINUOUS
 62
    2
 10
931.96328124999513
 20
530.9588492408875
 11
931.96328124999411
 21
781.95884924088614
  0
LINE
  8
_0-0_計極細
  6
CONTINUOUS
 62
    2
 10
936.96328124999513
 20
530.9588492408875
 11
936.96328124999411
 21
781.95884924088614
  0
LINE
  8
_0-1_計細線
  6
CONTINUOUS
 62
    3
 10
923.16328124999529
 20
530.9588492408875
 11
923.16328124999427
 21
781.95884924088614
  0
LINE
  8
_0-1_計細線
  6
CONTINUOUS
 62
    3
 10
911.76328124999486
 20
530.9588492408875
 11
911.76328124999372
 21
781.95884924088614
  0
LINE
  8
_0-1_計細線
  6
CONTINUOUS
 62
    3
 10
923.16328124999529
 20
530.9588492408875
 11
911.76328124999486
 21
530.9588492408875
  0
LINE
  8
_0-1_計細線
  6
CONTINUOUS
 62
    3
 10
923.16328124999427
 20
781.95884924088614
 11
911.76328124999372
 21
781.95884924088614
  0
LINE
  8
_0-0_計極細
  6
CONTINUOUS
 62
    2
 10
914.96328124999513
 20
530.9588492408875
 11
914.96328124999411
 21
781.95884924088614
  0
LINE
  8
_0-0_計極細
  6
CONTINUOUS
 62
    2
 10
919.96328124999513
 20
530.9588492408875
 11
919.96328124999411
 21
781.95884924088614
  0
LINE
  8
_0-1_計細線
  6
CONTINUOUS
 62
    3
 10
906.16328124999541
 20
530.9588492408875
 11
906.16328124999427
 21
781.95884924088614
  0
LINE
  8
_0-1_計細線
  6
CONTINUOUS
 62
    3
 10
894.76328124999486
 20
530.9588492408875
 11
894.76328124999384
 21
781.95884924088614
  0
LINE
  8
_0-1_計細線
  6
CONTINUOUS
 62
    3
 10
906.16328124999541
 20
530.9588492408875
 11
894.76328124999486
 21
530.9588492408875
  0
LINE
  8
_0-1_計細線
  6
CONTINUOUS
 62
    3
 10
906.16328124999427
 20
781.95884924088614
 11
894.76328124999384
 21
781.95884924088614
  0
LINE
  8
_0-0_計極細
  6
CONTINUOUS
 62
    2
 10
897.96328124999502
 20
530.9588492408875
 11
897.963281249994
 21
781.95884924088614
  0
LINE
  8
_0-0_計極細
  6
CONTINUOUS
 62
    2
 10
902.96328124999502
 20
530.9588492408875
 11
902.963281249994
 21
781.95884924088614
  0
LINE
  8
_0-1_計細線
  6
CONTINUOUS
 62
    3
 10
889.16328124999541
 20
530.9588492408875
 11
889.16328124999438
 21
781.95884924088614
  0
LINE
  8
_0-1_計細線
  6
CONTINUOUS
 62
    3
 10
877.76328124999486
 20
530.9588492408875
 11
877.76328124999384
 21
781.95884924088614
  0
LINE
  8
_0-1_計細線
  6
CONTINUOUS
 62
    3
 10
889.16328124999541
 20
530.9588492408875
 11
877.76328124999486
 21
530.9588492408875
  0
LINE
  8
_0-1_計細線
  6
CONTINUOUS
 62
    3
 10
889.16328124999438
 20
781.95884924088614
 11
877.76328124999384
 21
781.95884924088614
  0
LINE
  8
_0-0_計極細
  6
CONTINUOUS
 62
    2
 10
880.96328124999502
 20
530.9588492408875
 11
880.963281249994
 21
781.95884924088614
  0
LINE
  8
_0-0_計極細
  6
CONTINUOUS
 62
    2
 10
885.96328124999502
 20
530.9588492408875
 11
885.963281249994
 21
781.95884924088614
  0
LINE
  8
_0-1_計細線
  6
CONTINUOUS
 62
    3
 10
872.16328124999541
 20
530.9588492408875
 11
872.16328124999438
 21
781.95884924088614
  0
LINE
  8
_0-1_計細線
  6
CONTINUOUS
 62
    3
 10
860.76328124999475
 20
530.9588492408875
 11
860.76328124999372
 21
781.95884924088614
  0
LINE
  8
_0-1_計細線
  6
CONTINUOUS
 62
    3
 10
872.16328124999541
 20
530.9588492408875
 11
860.76328124999475
 21
530.9588492408875
  0
LINE
  8
_0-1_計細線
  6
CONTINUOUS
 62
    3
 10
872.16328124999438
 20
781.95884924088614
 11
860.76328124999372
 21
781.95884924088614
  0
LINE
  8
_0-0_計極細
  6
CONTINUOUS
 62
    2
 10
863.96328124999513
 20
530.9588492408875
 11
863.963281249994
 21
781.95884924088614
  0
LINE
  8
_0-0_計極細
  6
CONTINUOUS
 62
    2
 10
868.96328124999513
 20
530.9588492408875
 11
868.963281249994
 21
781.95884924088614
  0
LINE
  8
_0-1_計細線
  6
CONTINUOUS
 62
    3
 10
855.16328124999529
 20
530.9588492408875
 11
855.16328124999427
 21
781.95884924088614
  0
LINE
  8
_0-1_計細線
  6
CONTINUOUS
 62
    3
 10
843.76328124999475
 20
530.9588492408875
 11
843.76328124999372
 21
781.95884924088614
  0
LINE
  8
_0-1_計細線
  6
CONTINUOUS
 62
    3
 10
855.16328124999529
 20
530.9588492408875
 11
843.76328124999475
 21
530.9588492408875
  0
LINE
  8
_0-1_計細線
  6
CONTINUOUS
 62
    3
 10
855.16328124999427
 20
781.95884924088614
 11
843.76328124999372
 21
781.95884924088614
  0
LINE
  8
_0-0_計極細
  6
CONTINUOUS
 62
    2
 10
846.96328124999513
 20
530.9588492408875
 11
846.96328124999411
 21
781.95884924088614
  0
LINE
  8
_0-0_計極細
  6
CONTINUOUS
 62
    2
 10
851.96328124999513
 20
530.9588492408875
 11
851.96328124999411
 21
781.95884924088614
  0
LINE
  8
_0-1_計細線
  6
CONTINUOUS
 62
    3
 10
838.16328124999529
 20
530.9588492408875
 11
838.16328124999427
 21
781.95884924088614
  0
LINE
  8
_0-1_計細線
  6
CONTINUOUS
 62
    3
 10
826.76328124999486
 20
530.9588492408875
 11
826.76328124999372
 21
781.95884924088614
  0
LINE
  8
_0-1_計細線
  6
CONTINUOUS
 62
    3
 10
838.16328124999529
 20
530.9588492408875
 11
826.76328124999486
 21
530.9588492408875
  0
LINE
  8
_0-1_計細線
  6
CONTINUOUS
 62
    3
 10
838.16328124999427
 20
781.95884924088614
 11
826.76328124999372
 21
781.95884924088614
  0
LINE
  8
_0-0_計極細
  6
CONTINUOUS
 62
    2
 10
829.96328124999513
 20
530.9588492408875
 11
829.96328124999411
 21
781.95884924088614
  0
LINE
  8
_0-0_計極細
  6
CONTINUOUS
 62
    2
 10
834.96328124999513
 20
530.9588492408875
 11
834.96328124999411
 21
781.95884924088614
  0
LINE
  8
_0-1_計細線
  6
CONTINUOUS
 62
    3
 10
821.16328124999541
 20
530.9588492408875
 11
821.16328124999427
 21
781.95884924088614
  0
LINE
  8
_0-1_計細線
  6
CONTINUOUS
 62
    3
 10
809.76328124999486
 20
530.9588492408875
 11
809.76328124999384
 21
781.95884924088614
  0
LINE
  8
_0-1_計細線
  6
CONTINUOUS
 62
    3
 10
821.16328124999541
 20
530.9588492408875
 11
809.76328124999486
 21
530.9588492408875
  0
LINE
  8
_0-1_計細線
  6
CONTINUOUS
 62
    3
 10
821.16328124999427
 20
781.95884924088614
 11
809.76328124999384
 21
781.95884924088614
  0
LINE
  8
_0-0_計極細
  6
CONTINUOUS
 62
    2
 10
812.96328124999502
 20
530.9588492408875
 11
812.963281249994
 21
781.95884924088614
  0
LINE
  8
_0-0_計極細
  6
CONTINUOUS
 62
    2
 10
817.96328124999502
 20
530.9588492408875
 11
817.963281249994
 21
781.95884924088614
  0
LINE
  8
_0-1_計細線
  6
CONTINUOUS
 62
    3
 10
804.16328124999541
 20
530.9588492408875
 11
804.16328124999438
 21
781.95884924088614
  0
LINE
  8
_0-1_計細線
  6
CONTINUOUS
 62
    3
 10
792.76328124999486
 20
530.9588492408875
 11
792.76328124999384
 21
781.95884924088614
  0
LINE
  8
_0-1_計細線
  6
CONTINUOUS
 62
    3
 10
804.16328124999541
 20
530.9588492408875
 11
792.76328124999486
 21
530.9588492408875
  0
LINE
  8
_0-1_計細線
  6
CONTINUOUS
 62
    3
 10
804.16328124999438
 20
781.95884924088614
 11
792.76328124999384
 21
781.95884924088614
  0
LINE
  8
_0-0_計極細
  6
CONTINUOUS
 62
    2
 10
795.96328124999502
 20
530.9588492408875
 11
795.963281249994
 21
781.95884924088614
  0
LINE
  8
_0-0_計極細
  6
CONTINUOUS
 62
    2
 10
800.96328124999502
 20
530.9588492408875
 11
800.963281249994
 21
781.95884924088614
  0
LINE
  8
_0-1_計細線
  6
CONTINUOUS
 62
    3
 10
787.16328124999541
 20
530.9588492408875
 11
787.16328124999438
 21
781.95884924088614
  0
LINE
  8
_0-1_計細線
  6
CONTINUOUS
 62
    3
 10
775.76328124999475
 20
530.9588492408875
 11
775.76328124999372
 21
781.95884924088614
  0
LINE
  8
_0-1_計細線
  6
CONTINUOUS
 62
    3
 10
787.16328124999541
 20
530.9588492408875
 11
775.76328124999475
 21
530.9588492408875
  0
LINE
  8
_0-1_計細線
  6
CONTINUOUS
 62
    3
 10
787.16328124999438
 20
781.95884924088614
 11
775.76328124999372
 21
781.95884924088614
  0
LINE
  8
_0-0_計極細
  6
CONTINUOUS
 62
    2
 10
778.96328124999513
 20
530.9588492408875
 11
778.963281249994
 21
781.95884924088614
  0
LINE
  8
_0-0_計極細
  6
CONTINUOUS
 62
    2
 10
783.96328124999513
 20
530.9588492408875
 11
783.963281249994
 21
781.95884924088614
  0
LINE
  8
_0-1_計細線
  6
CONTINUOUS
 62
    3
 10
770.16328124999529
 20
530.9588492408875
 11
770.16328124999427
 21
781.95884924088614
  0
LINE
  8
_0-1_計細線
  6
CONTINUOUS
 62
    3
 10
758.76328124999475
 20
530.9588492408875
 11
758.76328124999372
 21
781.95884924088614
  0
LINE
  8
_0-1_計細線
  6
CONTINUOUS
 62
    3
 10
770.16328124999529
 20
530.9588492408875
 11
758.76328124999475
 21
530.9588492408875
  0
LINE
  8
_0-1_計細線
  6
CONTINUOUS
 62
    3
 10
770.16328124999427
 20
781.95884924088614
 11
758.76328124999372
 21
781.95884924088614
  0
LINE
  8
_0-0_計極細
  6
CONTINUOUS
 62
    2
 10
761.96328124999513
 20
530.9588492408875
 11
761.963281249994
 21
781.95884924088614
  0
LINE
  8
_0-0_計極細
  6
CONTINUOUS
 62
    2
 10
766.96328124999513
 20
530.9588492408875
 11
766.963281249994
 21
781.95884924088614
  0
LINE
  8
_0-1_計細線
  6
CONTINUOUS
 62
    3
 10
753.16328124999529
 20
530.9588492408875
 11
753.16328124999427
 21
781.95884924088614
  0
LINE
  8
_0-1_計細線
  6
CONTINUOUS
 62
    3
 10
741.76328124999475
 20
530.9588492408875
 11
741.76328124999372
 21
781.95884924088614
  0
LINE
  8
_0-1_計細線
  6
CONTINUOUS
 62
    3
 10
753.16328124999529
 20
530.9588492408875
 11
741.76328124999475
 21
530.9588492408875
  0
LINE
  8
_0-1_計細線
  6
CONTINUOUS
 62
    3
 10
753.16328124999427
 20
781.95884924088614
 11
741.76328124999372
 21
781.95884924088614
  0
LINE
  8
_0-0_計極細
  6
CONTINUOUS
 62
    2
 10
744.96328124999513
 20
530.9588492408875
 11
744.96328124999411
 21
781.95884924088614
  0
LINE
  8
_0-0_計極細
  6
CONTINUOUS
 62
    2
 10
749.96328124999513
 20
530.9588492408875
 11
749.96328124999411
 21
781.95884924088614
  0
LINE
  8
_0-1_計細線
  6
CONTINUOUS
 62
    3
 10
736.16328124999529
 20
530.9588492408875
 11
736.16328124999427
 21
781.95884924088614
  0
LINE
  8
_0-1_計細線
  6
CONTINUOUS
 62
    3
 10
724.76328124999486
 20
530.9588492408875
 11
724.76328124999372
 21
781.95884924088614
  0
LINE
  8
_0-1_計細線
  6
CONTINUOUS
 62
    3
 10
736.16328124999529
 20
530.9588492408875
 11
724.76328124999486
 21
530.9588492408875
  0
LINE
  8
_0-1_計細線
  6
CONTINUOUS
 62
    3
 10
736.16328124999427
 20
781.95884924088614
 11
724.76328124999372
 21
781.95884924088614
  0
LINE
  8
_0-0_計極細
  6
CONTINUOUS
 62
    2
 10
727.96328124999502
 20
530.9588492408875
 11
727.963281249994
 21
781.95884924088614
  0
LINE
  8
_0-0_計極細
  6
CONTINUOUS
 62
    2
 10
732.96328124999502
 20
530.9588492408875
 11
732.963281249994
 21
781.95884924088614
  0
LINE
  8
_0-1_計細線
  6
CONTINUOUS
 62
    3
 10
719.16328124999541
 20
530.9588492408875
 11
719.16328124999427
 21
781.95884924088614
  0
LINE
  8
_0-1_計細線
  6
CONTINUOUS
 62
    3
 10
707.76328124999486
 20
530.9588492408875
 11
707.76328124999384
 21
781.95884924088614
  0
LINE
  8
_0-1_計細線
  6
CONTINUOUS
 62
    3
 10
719.16328124999541
 20
530.9588492408875
 11
707.76328124999486
 21
530.9588492408875
  0
LINE
  8
_0-1_計細線
  6
CONTINUOUS
 62
    3
 10
719.16328124999427
 20
781.95884924088614
 11
707.76328124999384
 21
781.95884924088614
  0
LINE
  8
_0-0_計極細
  6
CONTINUOUS
 62
    2
 10
710.96328124999502
 20
530.9588492408875
 11
710.963281249994
 21
781.95884924088614
  0
LINE
  8
_0-0_計極細
  6
CONTINUOUS
 62
    2
 10
715.96328124999502
 20
530.9588492408875
 11
715.963281249994
 21
781.95884924088614
  0
LINE
  8
_0-1_計細線
  6
CONTINUOUS
 62
    3
 10
702.16328124999541
 20
530.9588492408875
 11
702.16328124999438
 21
781.95884924088614
  0
LINE
  8
_0-1_計細線
  6
CONTINUOUS
 62
    3
 10
690.76328124999475
 20
530.9588492408875
 11
690.76328124999372
 21
781.95884924088614
  0
LINE
  8
_0-1_計細線
  6
CONTINUOUS
 62
    3
 10
702.16328124999541
 20
530.9588492408875
 11
690.76328124999475
 21
530.9588492408875
  0
LINE
  8
_0-1_計細線
  6
CONTINUOUS
 62
    3
 10
702.16328124999438
 20
781.95884924088614
 11
690.76328124999372
 21
781.95884924088614
  0
LINE
  8
_0-0_計極細
  6
CONTINUOUS
 62
    2
 10
693.96328124999502
 20
530.9588492408875
 11
693.963281249994
 21
781.95884924088614
  0
LINE
  8
_0-0_計極細
  6
CONTINUOUS
 62
    2
 10
698.96328124999502
 20
530.9588492408875
 11
698.963281249994
 21
781.95884924088614
  0
LINE
  8
_0-1_計細線
  6
CONTINUOUS
 62
    3
 10
685.16328124999529
 20
530.9588492408875
 11
685.16328124999427
 21
781.95884924088614
  0
LINE
  8
_0-1_計細線
  6
CONTINUOUS
 62
    3
 10
673.76328124999475
 20
530.9588492408875
 11
673.76328124999372
 21
781.95884924088614
  0
LINE
  8
_0-1_計細線
  6
CONTINUOUS
 62
    3
 10
685.16328124999529
 20
530.9588492408875
 11
673.76328124999475
 21
530.9588492408875
  0
LINE
  8
_0-1_計細線
  6
CONTINUOUS
 62
    3
 10
685.16328124999427
 20
781.95884924088614
 11
673.76328124999372
 21
781.95884924088614
  0
LINE
  8
_0-0_計極細
  6
CONTINUOUS
 62
    2
 10
676.96328124999513
 20
530.9588492408875
 11
676.963281249994
 21
781.95884924088614
  0
LINE
  8
_0-0_計極細
  6
CONTINUOUS
 62
    2
 10
681.96328124999513
 20
530.9588492408875
 11
681.963281249994
 21
781.95884924088614
  0
LINE
  8
_0-1_計細線
  6
CONTINUOUS
 62
    3
 10
668.16328124999529
 20
530.9588492408875
 11
668.16328124999427
 21
781.95884924088614
  0
LINE
  8
_0-1_計細線
  6
CONTINUOUS
 62
    3
 10
656.76328124999475
 20
530.9588492408875
 11
656.76328124999372
 21
781.95884924088614
  0
LINE
  8
_0-1_計細線
  6
CONTINUOUS
 62
    3
 10
668.16328124999529
 20
530.9588492408875
 11
656.76328124999475
 21
530.9588492408875
  0
LINE
  8
_0-1_計細線
  6
CONTINUOUS
 62
    3
 10
668.16328124999427
 20
781.95884924088614
 11
656.76328124999372
 21
781.95884924088614
  0
LINE
  8
_0-0_計極細
  6
CONTINUOUS
 62
    2
 10
659.96328124999513
 20
530.9588492408875
 11
659.96328124999411
 21
781.95884924088614
  0
LINE
  8
_0-0_計極細
  6
CONTINUOUS
 62
    2
 10
664.96328124999513
 20
530.9588492408875
 11
664.96328124999411
 21
781.95884924088614
  0
LINE
  8
_0-1_計細線
  6
CONTINUOUS
 62
    3
 10
651.16328124999529
 20
530.9588492408875
 11
651.16328124999427
 21
781.95884924088614
  0
LINE
  8
_0-1_計細線
  6
CONTINUOUS
 62
    3
 10
639.76328124999475
 20
530.9588492408875
 11
639.76328124999372
 21
781.95884924088614
  0
LINE
  8
_0-1_計細線
  6
CONTINUOUS
 62
    3
 10
651.16328124999529
 20
530.9588492408875
 11
639.76328124999475
 21
530.9588492408875
  0
LINE
  8
_0-1_計細線
  6
CONTINUOUS
 62
    3
 10
651.16328124999427
 20
781.95884924088614
 11
639.76328124999372
 21
781.95884924088614
  0
LINE
  8
_0-0_計極細
  6
CONTINUOUS
 62
    2
 10
642.96328124999502
 20
530.9588492408875
 11
642.963281249994
 21
781.95884924088614
  0
LINE
  8
_0-0_計極細
  6
CONTINUOUS
 62
    2
 10
647.96328124999502
 20
530.9588492408875
 11
647.963281249994
 21
781.95884924088614
  0
LINE
  8
_0-1_計細線
  6
CONTINUOUS
 62
    3
 10
634.16328124999529
 20
530.9588492408875
 11
634.16328124999427
 21
781.95884924088614
  0
LINE
  8
_0-1_計細線
  6
CONTINUOUS
 62
    3
 10
622.76328124999486
 20
530.9588492408875
 11
622.76328124999372
 21
781.95884924088614
  0
LINE
  8
_0-1_計細線
  6
CONTINUOUS
 62
    3
 10
634.16328124999529
 20
530.9588492408875
 11
622.76328124999486
 21
530.9588492408875
  0
LINE
  8
_0-1_計細線
  6
CONTINUOUS
 62
    3
 10
634.16328124999427
 20
781.95884924088614
 11
622.76328124999372
 21
781.95884924088614
  0
LINE
  8
_0-0_計極細
  6
CONTINUOUS
 62
    2
 10
625.96328124999502
 20
530.9588492408875
 11
625.963281249994
 21
781.95884924088614
  0
LINE
  8
_0-0_計極細
  6
CONTINUOUS
 62
    2
 10
630.96328124999502
 20
530.9588492408875
 11
630.963281249994
 21
781.95884924088614
  0
LINE
  8
_0-1_計細線
  6
CONTINUOUS
 62
    3
 10
617.16328124999541
 20
530.9588492408875
 11
617.16328124999427
 21
781.95884924088614
  0
LINE
  8
_0-1_計細線
  6
CONTINUOUS
 62
    3
 10
605.76328124999475
 20
530.9588492408875
 11
605.76328124999372
 21
781.95884924088614
  0
LINE
  8
_0-1_計細線
  6
CONTINUOUS
 62
    3
 10
617.16328124999541
 20
530.9588492408875
 11
605.76328124999475
 21
530.9588492408875
  0
LINE
  8
_0-1_計細線
  6
CONTINUOUS
 62
    3
 10
617.16328124999427
 20
781.95884924088614
 11
605.76328124999372
 21
781.95884924088614
  0
LINE
  8
_0-0_計極細
  6
CONTINUOUS
 62
    2
 10
608.96328124999502
 20
530.9588492408875
 11
608.963281249994
 21
781.95884924088614
  0
LINE
  8
_0-0_計極細
  6
CONTINUOUS
 62
    2
 10
613.96328124999502
 20
530.9588492408875
 11
613.963281249994
 21
781.95884924088614
  0
LINE
  8
_0-1_計細線
  6
CONTINUOUS
 62
    3
 10
600.16328124999529
 20
530.9588492408875
 11
600.16328124999427
 21
781.95884924088614
  0
LINE
  8
_0-1_計細線
  6
CONTINUOUS
 62
    3
 10
588.76328124999475
 20
530.9588492408875
 11
588.76328124999372
 21
781.95884924088614
  0
LINE
  8
_0-1_計細線
  6
CONTINUOUS
 62
    3
 10
600.16328124999529
 20
530.9588492408875
 11
588.76328124999475
 21
530.9588492408875
  0
LINE
  8
_0-1_計細線
  6
CONTINUOUS
 62
    3
 10
600.16328124999427
 20
781.95884924088614
 11
588.76328124999372
 21
781.95884924088614
  0
LINE
  8
_0-0_計極細
  6
CONTINUOUS
 62
    2
 10
591.96328124999502
 20
530.9588492408875
 11
591.963281249994
 21
781.95884924088614
  0
LINE
  8
_0-0_計極細
  6
CONTINUOUS
 62
    2
 10
596.96328124999502
 20
530.9588492408875
 11
596.963281249994
 21
781.95884924088614
  0
LINE
  8
_0-1_計細線
  6
CONTINUOUS
 62
    3
 10
583.16328124999529
 20
530.9588492408875
 11
583.16328124999427
 21
781.95884924088614
  0
LINE
  8
_0-1_計細線
  6
CONTINUOUS
 62
    3
 10
571.76328124999475
 20
530.9588492408875
 11
571.76328124999372
 21
781.95884924088614
  0
LINE
  8
_0-1_計細線
  6
CONTINUOUS
 62
    3
 10
583.16328124999529
 20
530.9588492408875
 11
571.76328124999475
 21
530.9588492408875
  0
LINE
  8
_0-1_計細線
  6
CONTINUOUS
 62
    3
 10
583.16328124999427
 20
781.95884924088614
 11
571.76328124999372
 21
781.95884924088614
  0
LINE
  8
_0-0_計極細
  6
CONTINUOUS
 62
    2
 10
574.96328124999513
 20
530.9588492408875
 11
574.963281249994
 21
781.95884924088614
  0
LINE
  8
_0-0_計極細
  6
CONTINUOUS
 62
    2
 10
579.96328124999513
 20
530.9588492408875
 11
579.963281249994
 21
781.95884924088614
  0
LINE
  8
_0-1_計細線
  6
CONTINUOUS
 62
    3
 10
566.16328124999529
 20
530.9588492408875
 11
566.16328124999427
 21
781.95884924088614
  0
LINE
  8
_0-1_計細線
  6
CONTINUOUS
 62
    3
 10
554.76328124999475
 20
530.9588492408875
 11
554.76328124999372
 21
781.95884924088614
  0
LINE
  8
_0-1_計細線
  6
CONTINUOUS
 62
    3
 10
566.16328124999529
 20
530.9588492408875
 11
554.76328124999475
 21
530.9588492408875
  0
LINE
  8
_0-1_計細線
  6
CONTINUOUS
 62
    3
 10
566.16328124999427
 20
781.95884924088614
 11
554.76328124999372
 21
781.95884924088614
  0
LINE
  8
_0-0_計極細
  6
CONTINUOUS
 62
    2
 10
557.96328124999502
 20
530.9588492408875
 11
557.963281249994
 21
781.95884924088614
  0
LINE
  8
_0-0_計極細
  6
CONTINUOUS
 62
    2
 10
562.96328124999502
 20
530.9588492408875
 11
562.963281249994
 21
781.95884924088614
  0
LINE
  8
_0-1_計細線
  6
CONTINUOUS
 62
    3
 10
549.16328124999529
 20
530.9588492408875
 11
549.16328124999427
 21
781.95884924088614
  0
LINE
  8
_0-1_計細線
  6
CONTINUOUS
 62
    3
 10
537.76328124999486
 20
530.9588492408875
 11
537.76328124999372
 21
781.95884924088614
  0
LINE
  8
_0-1_計細線
  6
CONTINUOUS
 62
    3
 10
549.16328124999529
 20
530.9588492408875
 11
537.76328124999486
 21
530.9588492408875
  0
LINE
  8
_0-1_計細線
  6
CONTINUOUS
 62
    3
 10
549.16328124999427
 20
781.95884924088614
 11
537.76328124999372
 21
781.95884924088614
  0
LINE
  8
_0-0_計極細
  6
CONTINUOUS
 62
    2
 10
540.96328124999502
 20
530.9588492408875
 11
540.963281249994
 21
781.95884924088614
  0
LINE
  8
_0-0_計極細
  6
CONTINUOUS
 62
    2
 10
545.96328124999502
 20
530.9588492408875
 11
545.963281249994
 21
781.95884924088614
  0
LINE
  8
_0-1_計細線
  6
CONTINUOUS
 62
    3
 10
532.16328124999541
 20
530.9588492408875
 11
532.16328124999427
 21
781.95884924088614
  0
LINE
  8
_0-1_計細線
  6
CONTINUOUS
 62
    3
 10
520.76328124999475
 20
530.9588492408875
 11
520.76328124999372
 21
781.95884924088614
  0
LINE
  8
_0-1_計細線
  6
CONTINUOUS
 62
    3
 10
532.16328124999541
 20
530.9588492408875
 11
520.76328124999475
 21
530.9588492408875
  0
LINE
  8
_0-1_計細線
  6
CONTINUOUS
 62
    3
 10
532.16328124999427
 20
781.95884924088614
 11
520.76328124999372
 21
781.95884924088614
  0
LINE
  8
_0-0_計極細
  6
CONTINUOUS
 62
    2
 10
523.96328124999502
 20
530.9588492408875
 11
523.963281249994
 21
781.95884924088614
  0
LINE
  8
_0-0_計極細
  6
CONTINUOUS
 62
    2
 10
528.96328124999502
 20
530.9588492408875
 11
528.963281249994
 21
781.95884924088614
  0
LINE
  8
_0-1_計細線
  6
CONTINUOUS
 62
    3
 10
515.16328124999529
 20
530.9588492408875
 11
515.16328124999427
 21
781.95884924088614
  0
LINE
  8
_0-1_計細線
  6
CONTINUOUS
 62
    3
 10
503.76328124999475
 20
530.9588492408875
 11
503.76328124999372
 21
781.95884924088614
  0
LINE
  8
_0-1_計細線
  6
CONTINUOUS
 62
    3
 10
515.16328124999529
 20
530.9588492408875
 11
503.76328124999475
 21
530.9588492408875
  0
LINE
  8
_0-1_計細線
  6
CONTINUOUS
 62
    3
 10
515.16328124999427
 20
781.95884924088614
 11
503.76328124999372
 21
781.95884924088614
  0
LINE
  8
_0-0_計極細
  6
CONTINUOUS
 62
    2
 10
506.96328124999502
 20
530.9588492408875
 11
506.96328124999405
 21
781.95884924088614
  0
LINE
  8
_0-0_計極細
  6
CONTINUOUS
 62
    2
 10
511.96328124999502
 20
530.9588492408875
 11
511.96328124999405
 21
781.95884924088614
  0
LINE
  8
_0-1_計細線
  6
CONTINUOUS
 62
    3
 10
498.16328124999529
 20
530.9588492408875
 11
498.16328124999427
 21
781.95884924088614
  0
LINE
  8
_0-1_計細線
  6
CONTINUOUS
 62
    3
 10
486.7632812499948
 20
530.9588492408875
 11
486.76328124999372
 21
781.95884924088614
  0
LINE
  8
_0-1_計細線
  6
CONTINUOUS
 62
    3
 10
498.16328124999529
 20
530.9588492408875
 11
486.7632812499948
 21
530.9588492408875
  0
LINE
  8
_0-1_計細線
  6
CONTINUOUS
 62
    3
 10
498.16328124999427
 20
781.95884924088614
 11
486.76328124999372
 21
781.95884924088614
  0
LINE
  8
_0-0_計極細
  6
CONTINUOUS
 62
    2
 10
489.96328124999508
 20
530.9588492408875
 11
489.963281249994
 21
781.95884924088614
  0
LINE
  8
_0-0_計極細
  6
CONTINUOUS
 62
    2
 10
494.96328124999508
 20
530.9588492408875
 11
494.963281249994
 21
781.95884924088614
  0
LINE
  8
_0-1_計細線
  6
CONTINUOUS
 62
    3
 10
481.16328124999535
 20
530.9588492408875
 11
481.16328124999427
 21
781.95884924088614
  0
LINE
  8
_0-1_計細線
  6
CONTINUOUS
 62
    3
 10
469.76328124999475
 20
530.9588492408875
 11
469.76328124999378
 21
781.95884924088614
  0
LINE
  8
_0-1_計細線
  6
CONTINUOUS
 62
    3
 10
481.16328124999535
 20
530.9588492408875
 11
469.76328124999475
 21
530.9588492408875
  0
LINE
  8
_0-1_計細線
  6
CONTINUOUS
 62
    3
 10
481.16328124999427
 20
781.95884924088614
 11
469.76328124999378
 21
781.95884924088614
  0
LINE
  8
_0-0_計極細
  6
CONTINUOUS
 62
    2
 10
472.96328124999502
 20
530.9588492408875
 11
472.96328124999405
 21
781.95884924088614
  0
LINE
  8
_0-0_計極細
  6
CONTINUOUS
 62
    2
 10
477.96328124999502
 20
530.9588492408875
 11
477.96328124999405
 21
781.95884924088614
  0
LINE
  8
_0-1_計細線
  6
CONTINUOUS
 62
    3
 10
464.16328124999529
 20
530.9588492408875
 11
464.16328124999433
 21
781.95884924088614
  0
LINE
  8
_0-1_計細線
  6
CONTINUOUS
 62
    3
 10
452.7632812499948
 20
530.9588492408875
 11
452.76328124999372
 21
781.95884924088614
  0
LINE
  8
_0-1_計細線
  6
CONTINUOUS
 62
    3
 10
464.16328124999529
 20
530.9588492408875
 11
452.7632812499948
 21
530.9588492408875
  0
LINE
  8
_0-1_計細線
  6
CONTINUOUS
 62
    3
 10
464.16328124999433
 20
781.95884924088614
 11
452.76328124999372
 21
781.95884924088614
  0
LINE
  8
_0-0_計極細
  6
CONTINUOUS
 62
    2
 10
455.96328124999502
 20
530.9588492408875
 11
455.963281249994
 21
781.95884924088614
  0
LINE
  8
_0-0_計極細
  6
CONTINUOUS
 62
    2
 10
460.96328124999502
 20
530.9588492408875
 11
460.963281249994
 21
781.95884924088614
  0
LINE
  8
_0-1_計細線
  6
CONTINUOUS
 62
    3
 10
447.16328124999535
 20
530.9588492408875
 11
447.16328124999427
 21
781.95884924088614
  0
LINE
  8
_0-1_計細線
  6
CONTINUOUS
 62
    3
 10
435.76328124999475
 20
530.9588492408875
 11
435.76328124999378
 21
781.95884924088614
  0
LINE
  8
_0-1_計細線
  6
CONTINUOUS
 62
    3
 10
447.16328124999535
 20
530.9588492408875
 11
435.76328124999475
 21
530.9588492408875
  0
LINE
  8
_0-1_計細線
  6
CONTINUOUS
 62
    3
 10
447.16328124999427
 20
781.95884924088614
 11
435.76328124999378
 21
781.95884924088614
  0
LINE
  8
_0-0_計極細
  6
CONTINUOUS
 62
    2
 10
438.96328124999508
 20
530.9588492408875
 11
438.963281249994
 21
781.95884924088614
  0
LINE
  8
_0-0_計極細
  6
CONTINUOUS
 62
    2
 10
443.96328124999508
 20
530.9588492408875
 11
443.963281249994
 21
781.95884924088614
  0
LINE
  8
_0-1_計細線
  6
CONTINUOUS
 62
    3
 10
430.16328124999529
 20
530.9588492408875
 11
430.16328124999433
 21
781.95884924088614
  0
LINE
  8
_0-1_計細線
  6
CONTINUOUS
 62
    3
 10
418.76328124999475
 20
530.9588492408875
 11
418.76328124999372
 21
781.95884924088614
  0
LINE
  8
_0-1_計細線
  6
CONTINUOUS
 62
    3
 10
430.16328124999529
 20
530.9588492408875
 11
418.76328124999475
 21
530.9588492408875
  0
LINE
  8
_0-1_計細線
  6
CONTINUOUS
 62
    3
 10
430.16328124999433
 20
781.95884924088614
 11
418.76328124999372
 21
781.95884924088614
  0
LINE
  8
_0-0_計極細
  6
CONTINUOUS
 62
    2
 10
421.96328124999502
 20
530.9588492408875
 11
421.96328124999405
 21
781.95884924088614
  0
LINE
  8
_0-0_計極細
  6
CONTINUOUS
 62
    2
 10
426.96328124999502
 20
530.9588492408875
 11
426.96328124999405
 21
781.95884924088614
  0
LINE
  8
_0-1_計細線
  6
CONTINUOUS
 62
    3
 10
413.16328124999529
 20
530.9588492408875
 11
413.16328124999427
 21
781.95884924088614
  0
LINE
  8
_0-1_計細線
  6
CONTINUOUS
 62
    3
 10
401.7632812499948
 20
530.9588492408875
 11
401.76328124999372
 21
781.95884924088614
  0
LINE
  8
_0-1_計細線
  6
CONTINUOUS
 62
    3
 10
413.16328124999529
 20
530.9588492408875
 11
401.7632812499948
 21
530.9588492408875
  0
LINE
  8
_0-1_計細線
  6
CONTINUOUS
 62
    3
 10
413.16328124999427
 20
781.95884924088614
 11
401.76328124999372
 21
781.95884924088614
  0
LINE
  8
_0-0_計極細
  6
CONTINUOUS
 62
    2
 10
404.96328124999508
 20
530.9588492408875
 11
404.963281249994
 21
781.95884924088614
  0
LINE
  8
_0-0_計極細
  6
CONTINUOUS
 62
    2
 10
409.96328124999508
 20
530.9588492408875
 11
409.963281249994
 21
781.95884924088614
  0
LINE
  8
_0-1_計細線
  6
CONTINUOUS
 62
    3
 10
396.16328124999535
 20
530.9588492408875
 11
396.16328124999427
 21
781.95884924088614
  0
LINE
  8
_0-1_計細線
  6
CONTINUOUS
 62
    3
 10
384.76328124999475
 20
530.9588492408875
 11
384.76328124999378
 21
781.95884924088614
  0
LINE
  8
_0-1_計細線
  6
CONTINUOUS
 62
    3
 10
396.16328124999535
 20
530.9588492408875
 11
384.76328124999475
 21
530.9588492408875
  0
LINE
  8
_0-1_計細線
  6
CONTINUOUS
 62
    3
 10
396.16328124999427
 20
781.95884924088614
 11
384.76328124999378
 21
781.95884924088614
  0
LINE
  8
_0-0_計極細
  6
CONTINUOUS
 62
    2
 10
387.96328124999502
 20
530.9588492408875
 11
387.96328124999405
 21
781.95884924088614
  0
LINE
  8
_0-0_計極細
  6
CONTINUOUS
 62
    2
 10
392.96328124999502
 20
530.9588492408875
 11
392.96328124999405
 21
781.95884924088614
  0
LINE
  8
_0-1_計細線
  6
CONTINUOUS
 62
    3
 10
379.16328124999529
 20
530.9588492408875
 11
379.16328124999433
 21
781.95884924088614
  0
LINE
  8
_0-1_計細線
  6
CONTINUOUS
 62
    3
 10
367.76328124999475
 20
530.9588492408875
 11
367.76328124999372
 21
781.95884924088614
  0
LINE
  8
_0-1_計細線
  6
CONTINUOUS
 62
    3
 10
379.16328124999529
 20
530.9588492408875
 11
367.76328124999475
 21
530.9588492408875
  0
LINE
  8
_0-1_計細線
  6
CONTINUOUS
 62
    3
 10
379.16328124999433
 20
781.95884924088614
 11
367.76328124999372
 21
781.95884924088614
  0
LINE
  8
_0-0_計極細
  6
CONTINUOUS
 62
    2
 10
370.96328124999502
 20
530.9588492408875
 11
370.963281249994
 21
781.95884924088614
  0
LINE
  8
_0-0_計極細
  6
CONTINUOUS
 62
    2
 10
375.96328124999502
 20
530.9588492408875
 11
375.963281249994
 21
781.95884924088614
  0
LINE
  8
_0-1_計細線
  6
CONTINUOUS
 62
    3
 10
362.16328124999529
 20
530.9588492408875
 11
362.16328124999427
 21
781.95884924088614
  0
LINE
  8
_0-1_計細線
  6
CONTINUOUS
 62
    3
 10
350.76328124999475
 20
530.9588492408875
 11
350.76328124999372
 21
781.95884924088614
  0
LINE
  8
_0-1_計細線
  6
CONTINUOUS
 62
    3
 10
362.16328124999529
 20
530.9588492408875
 11
350.76328124999475
 21
530.9588492408875
  0
LINE
  8
_0-1_計細線
  6
CONTINUOUS
 62
    3
 10
362.16328124999427
 20
781.95884924088614
 11
350.76328124999372
 21
781.95884924088614
  0
LINE
  8
_0-0_計極細
  6
CONTINUOUS
 62
    2
 10
353.96328124999508
 20
530.9588492408875
 11
353.963281249994
 21
781.95884924088614
  0
LINE
  8
_0-0_計極細
  6
CONTINUOUS
 62
    2
 10
358.96328124999508
 20
530.9588492408875
 11
358.963281249994
 21
781.95884924088614
  0
LINE
  8
_0-1_計細線
  6
CONTINUOUS
 62
    3
 10
345.16328124999529
 20
530.9588492408875
 11
345.16328124999427
 21
781.95884924088614
  0
LINE
  8
_0-1_計細線
  6
CONTINUOUS
 62
    3
 10
333.76328124999469
 20
530.9588492408875
 11
333.76328124999372
 21
781.95884924088614
  0
LINE
  8
_0-1_計細線
  6
CONTINUOUS
 62
    3
 10
345.16328124999529
 20
530.9588492408875
 11
333.76328124999469
 21
530.9588492408875
  0
LINE
  8
_0-1_計細線
  6
CONTINUOUS
 62
    3
 10
345.16328124999427
 20
781.95884924088614
 11
333.76328124999372
 21
781.95884924088614
  0
LINE
  8
_0-0_計極細
  6
CONTINUOUS
 62
    2
 10
336.96328124999491
 20
530.9588492408875
 11
336.96328124999405
 21
781.95884924088614
  0
LINE
  8
_0-0_計極細
  6
CONTINUOUS
 62
    2
 10
341.96328124999502
 20
530.9588492408875
 11
341.96328124999405
 21
781.95884924088614
  0
LINE
  8
_0-1_計細線
  6
CONTINUOUS
 62
    3
 10
328.16328124999524
 20
530.9588492408875
 11
328.16328124999427
 21
781.95884924088614
  0
LINE
  8
_0-1_計細線
  6
CONTINUOUS
 62
    3
 10
316.76328124999463
 20
530.9588492408875
 11
316.76328124999372
 21
781.95884924088614
  0
LINE
  8
_0-1_計細線
  6
CONTINUOUS
 62
    3
 10
328.16328124999524
 20
530.9588492408875
 11
316.76328124999463
 21
530.9588492408875
  0
LINE
  8
_0-1_計細線
  6
CONTINUOUS
 62
    3
 10
328.16328124999427
 20
781.95884924088614
 11
316.76328124999372
 21
781.95884924088614
  0
LINE
  8
_0-0_計極細
  6
CONTINUOUS
 62
    2
 10
319.96328124999491
 20
530.9588492408875
 11
319.963281249994
 21
781.95884924088614
  0
LINE
  8
_0-0_計極細
  6
CONTINUOUS
 62
    2
 10
324.96328124999491
 20
530.9588492408875
 11
324.963281249994
 21
781.95884924088614
  0
LINE
  8
_0-1_計細線
  6
CONTINUOUS
 62
    3
 10
311.16328124999518
 20
530.9588492408875
 11
311.16328124999427
 21
781.95884924088614
  0
LINE
  8
_0-1_計細線
  6
CONTINUOUS
 62
    3
 10
299.76328124999469
 20
530.9588492408875
 11
299.76328124999372
 21
781.95884924088614
  0
LINE
  8
_0-1_計細線
  6
CONTINUOUS
 62
    3
 10
311.16328124999518
 20
530.9588492408875
 11
299.76328124999469
 21
530.9588492408875
  0
LINE
  8
_0-1_計細線
  6
CONTINUOUS
 62
    3
 10
311.16328124999427
 20
781.95884924088614
 11
299.76328124999372
 21
781.95884924088614
  0
LINE
  8
_0-0_計極細
  6
CONTINUOUS
 62
    2
 10
302.96328124999491
 20
530.9588492408875
 11
302.96328124999405
 21
781.95884924088614
  0
LINE
  8
_0-0_計極細
  6
CONTINUOUS
 62
    2
 10
307.96328124999491
 20
530.9588492408875
 11
307.96328124999405
 21
781.95884924088614
  0
LINE
  8
_0-1_計細線
  6
CONTINUOUS
 62
    3
 10
293.76328124999532
 20
530.9588492408875
 11
293.76328124999418
 21
781.95884924088614
  0
LINE
  8
_0-1_計細線
  6
CONTINUOUS
 62
    3
 10
282.36328124999477
 20
530.9588492408875
 11
282.36328124999363
 21
781.95884924088614
  0
LINE
  8
_0-1_計細線
  6
CONTINUOUS
 62
    3
 10
293.76328124999532
 20
530.9588492408875
 11
282.36328124999477
 21
530.9588492408875
  0
LINE
  8
_0-1_計細線
  6
CONTINUOUS
 62
    3
 10
293.76328124999418
 20
781.95884924088614
 11
282.36328124999363
 21
781.95884924088614
  0
LINE
  8
_0-0_計極細
  6
CONTINUOUS
 62
    2
 10
285.5632812499951
 20
530.9588492408875
 11
285.56328124999396
 21
781.95884924088614
  0
LINE
  8
_0-0_計極細
  6
CONTINUOUS
 62
    2
 10
290.5632812499951
 20
530.9588492408875
 11
290.56328124999396
 21
781.95884924088614
  0
LINE
  8
_0-1_計細線
  6
CONTINUOUS
 62
    3
 10
276.36328124999551
 20
530.9588492408875
 11
276.36328124999437
 21
781.95884924088614
  0
LINE
  8
_0-1_計細線
  6
CONTINUOUS
 62
    3
 10
264.96328124999491
 20
530.9588492408875
 11
264.96328124999377
 21
781.95884924088614
  0
LINE
  8
_0-1_計細線
  6
CONTINUOUS
 62
    3
 10
276.36328124999551
 20
530.9588492408875
 11
264.96328124999491
 21
530.9588492408875
  0
LINE
  8
_0-1_計細線
  6
CONTINUOUS
 62
    3
 10
276.36328124999437
 20
781.95884924088614
 11
264.96328124999377
 21
781.95884924088614
  0
LINE
  8
_0-0_計極細
  6
CONTINUOUS
 62
    2
 10
268.16328124999518
 20
530.9588492408875
 11
268.16328124999404
 21
781.95884924088614
  0
LINE
  8
_0-0_計極細
  6
CONTINUOUS
 62
    2
 10
273.16328124999518
 20
530.9588492408875
 11
273.16328124999404
 21
781.95884924088614
  0
LINE
  8
_0-1_計細線
  6
CONTINUOUS
 62
    3
 10
258.96328124999559
 20
530.9588492408875
 11
258.96328124999445
 21
781.95884924088614
  0
LINE
  8
_0-1_計細線
  6
CONTINUOUS
 62
    3
 10
247.56328124999504
 20
530.9588492408875
 11
247.56328124999391
 21
781.95884924088614
  0
LINE
  8
_0-1_計細線
  6
CONTINUOUS
 62
    3
 10
258.96328124999559
 20
530.9588492408875
 11
247.56328124999504
 21
530.9588492408875
  0
LINE
  8
_0-1_計細線
  6
CONTINUOUS
 62
    3
 10
258.96328124999445
 20
781.95884924088614
 11
247.56328124999391
 21
781.95884924088614
  0
LINE
  8
_0-0_計極細
  6
CONTINUOUS
 62
    2
 10
250.76328124999534
 20
530.9588492408875
 11
250.76328124999421
 21
781.95884924088614
  0
LINE
  8
_0-0_計極細
  6
CONTINUOUS
 62
    2
 10
255.76328124999534
 20
530.9588492408875
 11
255.76328124999421
 21
781.95884924088614
  0
LINE
  8
_0-1_計細線
  6
CONTINUOUS
 62
    3
 10
241.56328124999575
 20
530.9588492408875
 11
241.56328124999462
 21
781.95884924088614
  0
LINE
  8
_0-1_計細線
  6
CONTINUOUS
 62
    3
 10
230.16328124999518
 20
530.9588492408875
 11
230.16328124999404
 21
781.95884924088614
  0
LINE
  8
_0-1_計細線
  6
CONTINUOUS
 62
    3
 10
241.56328124999575
 20
530.9588492408875
 11
230.16328124999518
 21
530.9588492408875
  0
LINE
  8
_0-1_計細線
  6
CONTINUOUS
 62
    3
 10
241.56328124999462
 20
781.95884924088614
 11
230.16328124999404
 21
781.95884924088614
  0
LINE
  8
_0-0_計極細
  6
CONTINUOUS
 62
    2
 10
233.36328124999545
 20
530.9588492408875
 11
233.36328124999432
 21
781.95884924088614
  0
LINE
  8
_0-0_計極細
  6
CONTINUOUS
 62
    2
 10
238.36328124999545
 20
530.9588492408875
 11
238.36328124999432
 21
781.95884924088614
  0
LINE
  8
_0-0_計極細
  6
CONTINUOUS
 62
    2
 10
1200.7632812499942
 20
649.95884924088614
 11
1195.1632812499936
 21
649.95884924088614
  0
LINE
  8
_0-0_計極細
  6
CONTINUOUS
 62
    2
 10
1200.7632812499942
 20
662.95884924088614
 11
1195.1632812499936
 21
662.95884924088614
  0
LINE
  8
_0-0_計極細
  6
CONTINUOUS
 62
    2
 10
1183.763281249993
 20
649.95884924088659
 11
1178.1632812499929
 21
649.95884924088659
  0
LINE
  8
_0-0_計極細
  6
CONTINUOUS
 62
    2
 10
1183.763281249993
 20
662.95884924088671
 11
1178.1632812499929
 21
662.95884924088671
  0
LINE
  8
_0-0_計極細
  6
CONTINUOUS
 62
    2
 10
1161.163281249997
 20
649.95884924088659
 11
1166.7632812499969
 21
649.95884924088659
  0
LINE
  8
_0-0_計極細
  6
CONTINUOUS
 62
    2
 10
1161.163281249997
 20
662.95884924088671
 11
1166.7632812499969
 21
662.95884924088671
  0
LINE
  8
_0-0_計極細
  6
CONTINUOUS
 62
    2
 10
1144.1632812499963
 20
649.95884924088614
 11
1149.7632812499965
 21
649.95884924088614
  0
LINE
  8
_0-0_計極細
  6
CONTINUOUS
 62
    2
 10
1144.1632812499965
 20
662.95884924088614
 11
1149.7632812499965
 21
662.95884924088614
  0
LINE
  8
_0-0_計極細
  6
CONTINUOUS
 62
    2
 10
1127.1632812499959
 20
649.95884924088614
 11
1132.7632812499958
 21
649.95884924088614
  0
LINE
  8
_0-0_計極細
  6
CONTINUOUS
 62
    2
 10
1127.1632812499959
 20
662.95884924088614
 11
1132.763281249996
 21
662.95884924088614
  0
LINE
  8
_0-0_計極細
  6
CONTINUOUS
 62
    2
 10
1110.1632812499947
 20
649.95884924088659
 11
1115.7632812499953
 21
649.95884924088659
  0
LINE
  8
_0-0_計極細
  6
CONTINUOUS
 62
    2
 10
1110.1632812499947
 20
662.95884924088671
 11
1115.7632812499953
 21
662.95884924088671
  0
LINE
  8
_0-0_計極細
  6
CONTINUOUS
 62
    2
 10
1081.7632812499944
 20
649.95884924088614
 11
1076.1632812499943
 21
649.95884924088614
  0
LINE
  8
_0-0_計極細
  6
CONTINUOUS
 62
    2
 10
1081.7632812499944
 20
662.95884924088614
 11
1076.1632812499943
 21
662.95884924088614
  0
LINE
  8
_0-0_計極細
  6
CONTINUOUS
 62
    2
 10
1217.763281249996
 20
649.95884924088614
 11
1212.1632812499956
 21
649.95884924088614
  0
LINE
  8
_0-0_計極細
  6
CONTINUOUS
 62
    2
 10
1217.763281249996
 20
662.95884924088614
 11
1212.1632812499956
 21
662.95884924088614
  0
LINE
  8
_0-0_計極細
  6
CONTINUOUS
 62
    2
 10
1064.7632812499946
 20
649.95884924088614
 11
1059.1632812499945
 21
649.95884924088614
  0
LINE
  8
_0-0_計極細
  6
CONTINUOUS
 62
    2
 10
1064.7632812499946
 20
662.95884924088614
 11
1059.1632812499945
 21
662.95884924088614
  0
LINE
  8
_0-0_計極細
  6
CONTINUOUS
 62
    2
 10
1047.7632812499946
 20
649.95884924088614
 11
1042.1632812499945
 21
649.95884924088614
  0
LINE
  8
_0-0_計極細
  6
CONTINUOUS
 62
    2
 10
1047.7632812499946
 20
662.95884924088614
 11
1042.1632812499945
 21
662.95884924088614
  0
LINE
  8
_0-0_計極細
  6
CONTINUOUS
 62
    2
 10
1030.7632812499946
 20
649.95884924088614
 11
1025.1632812499947
 21
649.95884924088614
  0
LINE
  8
_0-0_計極細
  6
CONTINUOUS
 62
    2
 10
1030.7632812499946
 20
662.95884924088614
 11
1025.1632812499947
 21
662.95884924088614
  0
LINE
  8
_0-0_計極細
  6
CONTINUOUS
 62
    2
 10
1013.7632812499947
 20
649.95884924088614
 11
1008.1632812499946
 21
649.95884924088614
  0
LINE
  8
_0-0_計極細
  6
CONTINUOUS
 62
    2
 10
1013.7632812499947
 20
662.95884924088614
 11
1008.1632812499946
 21
662.95884924088614
  0
LINE
  8
_0-0_計極細
  6
CONTINUOUS
 62
    2
 10
996.76328124999475
 20
649.95884924088614
 11
991.1632812499945
 21
649.95884924088614
  0
LINE
  8
_0-0_計極細
  6
CONTINUOUS
 62
    2
 10
996.76328124999475
 20
662.95884924088614
 11
991.1632812499945
 21
662.95884924088614
  0
LINE
  8
_0-0_計極細
  6
CONTINUOUS
 62
    2
 10
979.76328124999463
 20
649.95884924088614
 11
974.1632812499945
 21
649.95884924088614
  0
LINE
  8
_0-0_計極細
  6
CONTINUOUS
 62
    2
 10
979.76328124999463
 20
662.95884924088614
 11
974.1632812499945
 21
662.95884924088614
  0
LINE
  8
_0-0_計極細
  6
CONTINUOUS
 62
    2
 10
962.76328124999463
 20
649.95884924088614
 11
957.1632812499945
 21
649.95884924088614
  0
LINE
  8
_0-0_計極細
  6
CONTINUOUS
 62
    2
 10
962.76328124999463
 20
662.95884924088614
 11
957.1632812499945
 21
662.95884924088614
  0
LINE
  8
_0-0_計極細
  6
CONTINUOUS
 62
    2
 10
945.76328124999463
 20
649.95884924088614
 11
940.16328124999461
 21
649.95884924088614
  0
LINE
  8
_0-0_計極細
  6
CONTINUOUS
 62
    2
 10
945.76328124999463
 20
662.95884924088614
 11
940.16328124999461
 21
662.95884924088614
  0
LINE
  8
_0-0_計極細
  6
CONTINUOUS
 62
    2
 10
928.76328124999475
 20
649.95884924088614
 11
923.16328124999461
 21
649.95884924088614
  0
LINE
  8
_0-0_計極細
  6
CONTINUOUS
 62
    2
 10
928.76328124999475
 20
662.95884924088614
 11
923.16328124999461
 21
662.95884924088614
  0
LINE
  8
_0-0_計極細
  6
CONTINUOUS
 62
    2
 10
911.76328124999475
 20
649.95884924088614
 11
906.1632812499945
 21
649.95884924088614
  0
LINE
  8
_0-0_計極細
  6
CONTINUOUS
 62
    2
 10
911.76328124999475
 20
662.95884924088614
 11
906.1632812499945
 21
662.95884924088614
  0
LINE
  8
_0-0_計極細
  6
CONTINUOUS
 62
    2
 10
894.76328124999463
 20
649.95884924088614
 11
889.1632812499945
 21
649.95884924088614
  0
LINE
  8
_0-0_計極細
  6
CONTINUOUS
 62
    2
 10
894.76328124999463
 20
662.95884924088614
 11
889.1632812499945
 21
662.95884924088614
  0
LINE
  8
_0-0_計極細
  6
CONTINUOUS
 62
    2
 10
877.76328124999463
 20
649.95884924088614
 11
872.1632812499945
 21
649.95884924088614
  0
LINE
  8
_0-0_計極細
  6
CONTINUOUS
 62
    2
 10
877.76328124999463
 20
662.95884924088614
 11
872.1632812499945
 21
662.95884924088614
  0
LINE
  8
_0-0_計極細
  6
CONTINUOUS
 62
    2
 10
860.76328124999463
 20
649.95884924088614
 11
855.16328124999461
 21
649.95884924088614
  0
LINE
  8
_0-0_計極細
  6
CONTINUOUS
 62
    2
 10
860.76328124999463
 20
662.95884924088614
 11
855.16328124999461
 21
662.95884924088614
  0
LINE
  8
_0-0_計極細
  6
CONTINUOUS
 62
    2
 10
843.76328124999475
 20
649.95884924088614
 11
838.16328124999461
 21
649.95884924088614
  0
LINE
  8
_0-0_計極細
  6
CONTINUOUS
 62
    2
 10
843.76328124999475
 20
662.95884924088614
 11
838.16328124999461
 21
662.95884924088614
  0
LINE
  8
_0-0_計極細
  6
CONTINUOUS
 62
    2
 10
826.76328124999475
 20
649.95884924088614
 11
821.1632812499945
 21
649.95884924088614
  0
LINE
  8
_0-0_計極細
  6
CONTINUOUS
 62
    2
 10
826.76328124999475
 20
662.95884924088614
 11
821.1632812499945
 21
662.95884924088614
  0
LINE
  8
_0-0_計極細
  6
CONTINUOUS
 62
    2
 10
809.76328124999463
 20
649.95884924088614
 11
804.1632812499945
 21
649.95884924088614
  0
LINE
  8
_0-0_計極細
  6
CONTINUOUS
 62
    2
 10
809.76328124999463
 20
662.95884924088614
 11
804.1632812499945
 21
662.95884924088614
  0
LINE
  8
_0-0_計極細
  6
CONTINUOUS
 62
    2
 10
792.76328124999463
 20
649.95884924088614
 11
787.1632812499945
 21
649.95884924088614
  0
LINE
  8
_0-0_計極細
  6
CONTINUOUS
 62
    2
 10
792.76328124999463
 20
662.95884924088614
 11
787.1632812499945
 21
662.95884924088614
  0
LINE
  8
_0-0_計極細
  6
CONTINUOUS
 62
    2
 10
775.76328124999463
 20
649.95884924088614
 11
770.16328124999461
 21
649.95884924088614
  0
LINE
  8
_0-0_計極細
  6
CONTINUOUS
 62
    2
 10
775.76328124999463
 20
662.95884924088614
 11
770.16328124999461
 21
662.95884924088614
  0
LINE
  8
_0-0_計極細
  6
CONTINUOUS
 62
    2
 10
758.76328124999463
 20
649.95884924088614
 11
753.16328124999461
 21
649.95884924088614
  0
LINE
  8
_0-0_計極細
  6
CONTINUOUS
 62
    2
 10
758.76328124999463
 20
662.95884924088614
 11
753.16328124999461
 21
662.95884924088614
  0
LINE
  8
_0-0_計極細
  6
CONTINUOUS
 62
    2
 10
741.76328124999475
 20
649.95884924088614
 11
736.1632812499945
 21
649.95884924088614
  0
LINE
  8
_0-0_計極細
  6
CONTINUOUS
 62
    2
 10
741.76328124999475
 20
662.95884924088614
 11
736.1632812499945
 21
662.95884924088614
  0
LINE
  8
_0-0_計極細
  6
CONTINUOUS
 62
    2
 10
724.76328124999463
 20
649.95884924088614
 11
719.1632812499945
 21
649.95884924088614
  0
LINE
  8
_0-0_計極細
  6
CONTINUOUS
 62
    2
 10
724.76328124999463
 20
662.95884924088614
 11
719.1632812499945
 21
662.95884924088614
  0
LINE
  8
_0-0_計極細
  6
CONTINUOUS
 62
    2
 10
707.76328124999463
 20
649.95884924088614
 11
702.1632812499945
 21
649.95884924088614
  0
LINE
  8
_0-0_計極細
  6
CONTINUOUS
 62
    2
 10
707.76328124999463
 20
662.95884924088614
 11
702.1632812499945
 21
662.95884924088614
  0
LINE
  8
_0-0_計極細
  6
CONTINUOUS
 62
    2
 10
690.76328124999463
 20
649.95884924088614
 11
685.1632812499945
 21
649.95884924088614
  0
LINE
  8
_0-0_計極細
  6
CONTINUOUS
 62
    2
 10
690.76328124999463
 20
662.95884924088614
 11
685.1632812499945
 21
662.95884924088614
  0
LINE
  8
_0-0_計極細
  6
CONTINUOUS
 62
    2
 10
673.76328124999463
 20
649.95884924088614
 11
668.16328124999461
 21
649.95884924088614
  0
LINE
  8
_0-0_計極細
  6
CONTINUOUS
 62
    2
 10
673.76328124999463
 20
662.95884924088614
 11
668.16328124999461
 21
662.95884924088614
  0
LINE
  8
_0-0_計極細
  6
CONTINUOUS
 62
    2
 10
656.76328124999475
 20
649.95884924088614
 11
651.1632812499945
 21
649.95884924088614
  0
LINE
  8
_0-0_計極細
  6
CONTINUOUS
 62
    2
 10
656.76328124999475
 20
662.95884924088614
 11
651.1632812499945
 21
662.95884924088614
  0
LINE
  8
_0-0_計極細
  6
CONTINUOUS
 62
    2
 10
639.76328124999463
 20
649.95884924088614
 11
634.1632812499945
 21
649.95884924088614
  0
LINE
  8
_0-0_計極細
  6
CONTINUOUS
 62
    2
 10
639.76328124999463
 20
662.95884924088614
 11
634.1632812499945
 21
662.95884924088614
  0
LINE
  8
_0-0_計極細
  6
CONTINUOUS
 62
    2
 10
622.76328124999463
 20
649.95884924088614
 11
617.1632812499945
 21
649.95884924088614
  0
LINE
  8
_0-0_計極細
  6
CONTINUOUS
 62
    2
 10
622.76328124999463
 20
662.95884924088614
 11
617.1632812499945
 21
662.95884924088614
  0
LINE
  8
_0-0_計極細
  6
CONTINUOUS
 62
    2
 10
605.76328124999463
 20
649.95884924088614
 11
600.1632812499945
 21
649.95884924088614
  0
LINE
  8
_0-0_計極細
  6
CONTINUOUS
 62
    2
 10
605.76328124999463
 20
662.95884924088614
 11
600.1632812499945
 21
662.95884924088614
  0
LINE
  8
_0-0_計極細
  6
CONTINUOUS
 62
    2
 10
588.76328124999463
 20
649.95884924088614
 11
583.1632812499945
 21
649.95884924088614
  0
LINE
  8
_0-0_計極細
  6
CONTINUOUS
 62
    2
 10
588.76328124999463
 20
662.95884924088614
 11
583.1632812499945
 21
662.95884924088614
  0
LINE
  8
_0-0_計極細
  6
CONTINUOUS
 62
    2
 10
571.76328124999463
 20
649.95884924088614
 11
566.1632812499945
 21
649.95884924088614
  0
LINE
  8
_0-0_計極細
  6
CONTINUOUS
 62
    2
 10
571.76328124999463
 20
662.95884924088614
 11
566.1632812499945
 21
662.95884924088614
  0
LINE
  8
_0-0_計極細
  6
CONTINUOUS
 62
    2
 10
554.76328124999463
 20
649.95884924088614
 11
549.1632812499945
 21
649.95884924088614
  0
LINE
  8
_0-0_計極細
  6
CONTINUOUS
 62
    2
 10
554.76328124999463
 20
662.95884924088614
 11
549.1632812499945
 21
662.95884924088614
  0
LINE
  8
_0-0_計極細
  6
CONTINUOUS
 62
    2
 10
537.76328124999463
 20
649.95884924088614
 11
532.1632812499945
 21
649.95884924088614
  0
LINE
  8
_0-0_計極細
  6
CONTINUOUS
 62
    2
 10
537.76328124999463
 20
662.95884924088614
 11
532.1632812499945
 21
662.95884924088614
  0
LINE
  8
_0-0_計極細
  6
CONTINUOUS
 62
    2
 10
520.76328124999463
 20
649.95884924088614
 11
515.1632812499945
 21
649.95884924088614
  0
LINE
  8
_0-0_計極細
  6
CONTINUOUS
 62
    2
 10
520.76328124999463
 20
662.95884924088614
 11
515.1632812499945
 21
662.95884924088614
  0
LINE
  8
_0-0_計極細
  6
CONTINUOUS
 62
    2
 10
503.76328124999469
 20
649.95884924088614
 11
498.1632812499945
 21
649.95884924088614
  0
LINE
  8
_0-0_計極細
  6
CONTINUOUS
 62
    2
 10
503.76328124999469
 20
662.95884924088614
 11
498.1632812499945
 21
662.95884924088614
  0
LINE
  8
_0-0_計極細
  6
CONTINUOUS
 62
    2
 10
486.76328124999463
 20
649.95884924088614
 11
481.16328124999455
 21
649.95884924088614
  0
LINE
  8
_0-0_計極細
  6
CONTINUOUS
 62
    2
 10
486.76328124999463
 20
662.95884924088614
 11
481.16328124999455
 21
662.95884924088614
  0
LINE
  8
_0-0_計極細
  6
CONTINUOUS
 62
    2
 10
469.76328124999469
 20
649.95884924088614
 11
464.1632812499945
 21
649.95884924088614
  0
LINE
  8
_0-0_計極細
  6
CONTINUOUS
 62
    2
 10
469.76328124999469
 20
662.95884924088614
 11
464.1632812499945
 21
662.95884924088614
  0
LINE
  8
_0-0_計極細
  6
CONTINUOUS
 62
    2
 10
452.76328124999463
 20
649.95884924088614
 11
447.1632812499945
 21
649.95884924088614
  0
LINE
  8
_0-0_計極細
  6
CONTINUOUS
 62
    2
 10
452.76328124999463
 20
662.95884924088614
 11
447.1632812499945
 21
662.95884924088614
  0
LINE
  8
_0-0_計極細
  6
CONTINUOUS
 62
    2
 10
435.76328124999463
 20
649.95884924088614
 11
430.16328124999455
 21
649.95884924088614
  0
LINE
  8
_0-0_計極細
  6
CONTINUOUS
 62
    2
 10
435.76328124999463
 20
662.95884924088614
 11
430.16328124999455
 21
662.95884924088614
  0
LINE
  8
_0-0_計極細
  6
CONTINUOUS
 62
    2
 10
418.76328124999469
 20
649.95884924088614
 11
413.1632812499945
 21
649.95884924088614
  0
LINE
  8
_0-0_計極細
  6
CONTINUOUS
 62
    2
 10
418.76328124999469
 20
662.95884924088614
 11
413.1632812499945
 21
662.95884924088614
  0
LINE
  8
_0-0_計極細
  6
CONTINUOUS
 62
    2
 10
401.76328124999463
 20
649.95884924088614
 11
396.16328124999455
 21
649.95884924088614
  0
LINE
  8
_0-0_計極細
  6
CONTINUOUS
 62
    2
 10
401.76328124999463
 20
662.95884924088614
 11
396.16328124999455
 21
662.95884924088614
  0
LINE
  8
_0-0_計極細
  6
CONTINUOUS
 62
    2
 10
384.76328124999469
 20
649.95884924088614
 11
379.1632812499945
 21
649.95884924088614
  0
LINE
  8
_0-0_計極細
  6
CONTINUOUS
 62
    2
 10
384.76328124999469
 20
662.95884924088614
 11
379.1632812499945
 21
662.95884924088614
  0
LINE
  8
_0-0_計極細
  6
CONTINUOUS
 62
    2
 10
367.76328124999463
 20
649.95884924088614
 11
362.1632812499945
 21
649.95884924088614
  0
LINE
  8
_0-0_計極細
  6
CONTINUOUS
 62
    2
 10
367.76328124999463
 20
662.95884924088614
 11
362.1632812499945
 21
662.95884924088614
  0
LINE
  8
_0-0_計極細
  6
CONTINUOUS
 62
    2
 10
350.76328124999463
 20
649.95884924088614
 11
345.16328124999455
 21
649.95884924088614
  0
LINE
  8
_0-0_計極細
  6
CONTINUOUS
 62
    2
 10
350.76328124999463
 20
662.95884924088614
 11
345.16328124999455
 21
662.95884924088614
  0
LINE
  8
_0-0_計極細
  6
CONTINUOUS
 62
    2
 10
333.76328124999469
 20
649.95884924088614
 11
328.1632812499945
 21
649.95884924088614
  0
LINE
  8
_0-0_計極細
  6
CONTINUOUS
 62
    2
 10
333.76328124999469
 20
662.95884924088614
 11
328.1632812499945
 21
662.95884924088614
  0
LINE
  8
_0-0_計極細
  6
CONTINUOUS
 62
    2
 10
316.76328124999463
 20
649.95884924088614
 11
311.16328124999455
 21
649.95884924088614
  0
LINE
  8
_0-0_計極細
  6
CONTINUOUS
 62
    2
 10
316.76328124999463
 20
662.95884924088614
 11
311.16328124999455
 21
662.95884924088614
  0
LINE
  8
_0-0_計極細
  6
CONTINUOUS
 62
    2
 10
299.76328124999469
 20
649.95884924088614
 11
293.76328124999446
 21
649.95884924088614
  0
LINE
  8
_0-0_計極細
  6
CONTINUOUS
 62
    2
 10
299.76328124999469
 20
662.95884924088614
 11
293.76328124999446
 21
662.95884924088614
  0
LINE
  8
_0-0_計極細
  6
CONTINUOUS
 62
    2
 10
282.36328124999477
 20
649.95884924088614
 11
276.36328124999454
 21
649.95884924088614
  0
LINE
  8
_0-0_計極細
  6
CONTINUOUS
 62
    2
 10
282.36328124999477
 20
662.95884924088614
 11
276.36328124999454
 21
662.95884924088614
  0
LINE
  8
_0-0_計極細
  6
CONTINUOUS
 62
    2
 10
264.96328124999491
 20
649.95884924088614
 11
258.96328124999468
 21
649.95884924088614
  0
LINE
  8
_0-0_計極細
  6
CONTINUOUS
 62
    2
 10
264.96328124999491
 20
662.95884924088614
 11
258.96328124999468
 21
662.95884924088614
  0
LINE
  8
_0-0_計極細
  6
CONTINUOUS
 62
    2
 10
247.56328124999504
 20
649.95884924088614
 11
241.56328124999482
 21
649.95884924088614
  0
LINE
  8
_0-0_計極細
  6
CONTINUOUS
 62
    2
 10
247.56328124999504
 20
662.95884924088614
 11
241.56328124999482
 21
662.95884924088614
  0
LINE
  8
_0-0_計極細
  6
CONTINUOUS
 62
    2
 10
1200.7632812499942
 20
757.95884924088614
 11
1195.1632812499938
 21
757.95884924088614
  0
LINE
  8
_0-0_計極細
  6
CONTINUOUS
 62
    2
 10
1200.7632812499942
 20
770.95884924088625
 11
1195.1632812499938
 21
770.95884924088625
  0
LINE
  8
_0-0_計極細
  6
CONTINUOUS
 62
    2
 10
1183.7632812499933
 20
757.95884924088671
 11
1178.1632812499931
 21
757.95884924088671
  0
LINE
  8
_0-0_計極細
  6
CONTINUOUS
 62
    2
 10
1183.7632812499933
 20
770.95884924088659
 11
1178.1632812499931
 21
770.95884924088659
  0
LINE
  8
_0-0_計極細
  6
CONTINUOUS
 62
    2
 10
1161.163281249997
 20
757.95884924088671
 11
1166.7632812499971
 21
757.95884924088671
  0
LINE
  8
_0-0_計極細
  6
CONTINUOUS
 62
    2
 10
1161.163281249997
 20
770.95884924088659
 11
1166.7632812499971
 21
770.95884924088659
  0
LINE
  8
_0-0_計極細
  6
CONTINUOUS
 62
    2
 10
1127.1632812499961
 20
757.95884924088614
 11
1132.763281249996
 21
757.95884924088614
  0
LINE
  8
_0-0_計極細
  6
CONTINUOUS
 62
    2
 10
1127.1632812499961
 20
770.95884924088625
 11
1132.763281249996
 21
770.95884924088625
  0
LINE
  8
_0-0_計極細
  6
CONTINUOUS
 62
    2
 10
1110.163281249995
 20
757.95884924088671
 11
1115.7632812499955
 21
757.95884924088671
  0
LINE
  8
_0-0_計極細
  6
CONTINUOUS
 62
    2
 10
1110.163281249995
 20
770.95884924088659
 11
1115.7632812499955
 21
770.95884924088659
  0
LINE
  8
_0-0_計極細
  6
CONTINUOUS
 62
    2
 10
1144.1632812499975
 20
757.95884924088614
 11
1149.7632812499974
 21
757.95884924088614
  0
LINE
  8
_0-0_計極細
  6
CONTINUOUS
 62
    2
 10
1144.1632812499975
 20
770.95884924088625
 11
1149.7632812499974
 21
770.95884924088625
  0
LINE
  8
_0-0_計極細
  6
CONTINUOUS
 62
    2
 10
1081.7632812499946
 20
757.95884924088614
 11
1076.1632812499943
 21
757.95884924088614
  0
LINE
  8
_0-0_計極細
  6
CONTINUOUS
 62
    2
 10
1081.7632812499946
 20
770.95884924088625
 11
1076.1632812499943
 21
770.95884924088625
  0
LINE
  8
_0-0_計極細
  6
CONTINUOUS
 62
    2
 10
1217.7632812499962
 20
757.95884924088614
 11
1212.1632812499959
 21
757.95884924088614
  0
LINE
  8
_0-0_計極細
  6
CONTINUOUS
 62
    2
 10
1217.7632812499962
 20
770.95884924088625
 11
1212.1632812499959
 21
770.95884924088625
  0
LINE
  8
_0-0_計極細
  6
CONTINUOUS
 62
    2
 10
1064.7632812499951
 20
757.95884924088614
 11
1059.1632812499947
 21
757.95884924088614
  0
LINE
  8
_0-0_計極細
  6
CONTINUOUS
 62
    2
 10
1064.7632812499951
 20
770.95884924088625
 11
1059.1632812499947
 21
770.95884924088625
  0
LINE
  8
_0-0_計極細
  6
CONTINUOUS
 62
    2
 10
1047.7632812499949
 20
757.95884924088614
 11
1042.1632812499947
 21
757.95884924088614
  0
LINE
  8
_0-0_計極細
  6
CONTINUOUS
 62
    2
 10
1047.7632812499949
 20
770.95884924088625
 11
1042.1632812499947
 21
770.95884924088625
  0
LINE
  8
_0-0_計極細
  6
CONTINUOUS
 62
    2
 10
1030.7632812499949
 20
757.95884924088614
 11
1025.1632812499947
 21
757.95884924088614
  0
LINE
  8
_0-0_計極細
  6
CONTINUOUS
 62
    2
 10
1030.7632812499949
 20
770.95884924088625
 11
1025.1632812499947
 21
770.95884924088625
  0
LINE
  8
_0-0_計極細
  6
CONTINUOUS
 62
    2
 10
1013.7632812499949
 20
757.95884924088614
 11
1008.1632812499947
 21
757.95884924088614
  0
LINE
  8
_0-0_計極細
  6
CONTINUOUS
 62
    2
 10
1013.7632812499949
 20
770.95884924088625
 11
1008.1632812499947
 21
770.95884924088625
  0
LINE
  8
_0-0_計極細
  6
CONTINUOUS
 62
    2
 10
996.76328124999486
 20
757.95884924088614
 11
991.16328124999472
 21
757.95884924088614
  0
LINE
  8
_0-0_計極細
  6
CONTINUOUS
 62
    2
 10
996.76328124999486
 20
770.95884924088625
 11
991.16328124999472
 21
770.95884924088625
  0
LINE
  8
_0-0_計極細
  6
CONTINUOUS
 62
    2
 10
979.76328124999498
 20
757.95884924088614
 11
974.16328124999472
 21
757.95884924088614
  0
LINE
  8
_0-0_計極細
  6
CONTINUOUS
 62
    2
 10
979.76328124999498
 20
770.95884924088625
 11
974.16328124999472
 21
770.95884924088625
  0
LINE
  8
_0-0_計極細
  6
CONTINUOUS
 62
    2
 10
962.76328124999498
 20
757.95884924088614
 11
957.16328124999461
 21
757.95884924088614
  0
LINE
  8
_0-0_計極細
  6
CONTINUOUS
 62
    2
 10
962.76328124999498
 20
770.95884924088625
 11
957.16328124999461
 21
770.95884924088625
  0
LINE
  8
_0-0_計極細
  6
CONTINUOUS
 62
    2
 10
945.76328124999486
 20
757.95884924088614
 11
940.16328124999461
 21
757.95884924088614
  0
LINE
  8
_0-0_計極細
  6
CONTINUOUS
 62
    2
 10
945.76328124999486
 20
770.95884924088625
 11
940.16328124999461
 21
770.95884924088625
  0
LINE
  8
_0-0_計極細
  6
CONTINUOUS
 62
    2
 10
928.76328124999486
 20
757.95884924088614
 11
923.16328124999472
 21
757.95884924088614
  0
LINE
  8
_0-0_計極細
  6
CONTINUOUS
 62
    2
 10
928.76328124999486
 20
770.95884924088625
 11
923.16328124999472
 21
770.95884924088625
  0
LINE
  8
_0-0_計極細
  6
CONTINUOUS
 62
    2
 10
911.76328124999486
 20
757.95884924088614
 11
906.16328124999472
 21
757.95884924088614
  0
LINE
  8
_0-0_計極細
  6
CONTINUOUS
 62
    2
 10
911.76328124999486
 20
770.95884924088625
 11
906.16328124999472
 21
770.95884924088625
  0
LINE
  8
_0-0_計極細
  6
CONTINUOUS
 62
    2
 10
894.76328124999498
 20
757.95884924088614
 11
889.16328124999472
 21
757.95884924088614
  0
LINE
  8
_0-0_計極細
  6
CONTINUOUS
 62
    2
 10
894.76328124999498
 20
770.95884924088625
 11
889.16328124999472
 21
770.95884924088625
  0
LINE
  8
_0-0_計極細
  6
CONTINUOUS
 62
    2
 10
877.76328124999498
 20
757.95884924088614
 11
872.16328124999461
 21
757.95884924088614
  0
LINE
  8
_0-0_計極細
  6
CONTINUOUS
 62
    2
 10
877.76328124999498
 20
770.95884924088625
 11
872.16328124999461
 21
770.95884924088625
  0
LINE
  8
_0-0_計極細
  6
CONTINUOUS
 62
    2
 10
860.76328124999486
 20
757.95884924088614
 11
855.16328124999461
 21
757.95884924088614
  0
LINE
  8
_0-0_計極細
  6
CONTINUOUS
 62
    2
 10
860.76328124999486
 20
770.95884924088625
 11
855.16328124999461
 21
770.95884924088625
  0
LINE
  8
_0-0_計極細
  6
CONTINUOUS
 62
    2
 10
843.76328124999486
 20
757.95884924088614
 11
838.16328124999472
 21
757.95884924088614
  0
LINE
  8
_0-0_計極細
  6
CONTINUOUS
 62
    2
 10
843.76328124999486
 20
770.95884924088625
 11
838.16328124999472
 21
770.95884924088625
  0
LINE
  8
_0-0_計極細
  6
CONTINUOUS
 62
    2
 10
826.76328124999486
 20
757.95884924088614
 11
821.16328124999472
 21
757.95884924088614
  0
LINE
  8
_0-0_計極細
  6
CONTINUOUS
 62
    2
 10
826.76328124999486
 20
770.95884924088625
 11
821.16328124999472
 21
770.95884924088625
  0
LINE
  8
_0-0_計極細
  6
CONTINUOUS
 62
    2
 10
809.76328124999498
 20
757.95884924088614
 11
804.16328124999472
 21
757.95884924088614
  0
LINE
  8
_0-0_計極細
  6
CONTINUOUS
 62
    2
 10
809.76328124999498
 20
770.95884924088625
 11
804.16328124999472
 21
770.95884924088625
  0
LINE
  8
_0-0_計極細
  6
CONTINUOUS
 62
    2
 10
792.76328124999498
 20
757.95884924088614
 11
787.16328124999461
 21
757.95884924088614
  0
LINE
  8
_0-0_計極細
  6
CONTINUOUS
 62
    2
 10
792.76328124999498
 20
770.95884924088625
 11
787.16328124999461
 21
770.95884924088625
  0
LINE
  8
_0-0_計極細
  6
CONTINUOUS
 62
    2
 10
775.76328124999486
 20
757.95884924088614
 11
770.16328124999461
 21
757.95884924088614
  0
LINE
  8
_0-0_計極細
  6
CONTINUOUS
 62
    2
 10
775.76328124999486
 20
770.95884924088625
 11
770.16328124999461
 21
770.95884924088625
  0
LINE
  8
_0-0_計極細
  6
CONTINUOUS
 62
    2
 10
758.76328124999486
 20
757.95884924088614
 11
753.16328124999461
 21
757.95884924088614
  0
LINE
  8
_0-0_計極細
  6
CONTINUOUS
 62
    2
 10
758.76328124999486
 20
770.95884924088625
 11
753.16328124999461
 21
770.95884924088625
  0
LINE
  8
_0-0_計極細
  6
CONTINUOUS
 62
    2
 10
741.76328124999486
 20
757.95884924088614
 11
736.16328124999472
 21
757.95884924088614
  0
LINE
  8
_0-0_計極細
  6
CONTINUOUS
 62
    2
 10
741.76328124999486
 20
770.95884924088625
 11
736.16328124999472
 21
770.95884924088625
  0
LINE
  8
_0-0_計極細
  6
CONTINUOUS
 62
    2
 10
724.76328124999486
 20
757.95884924088614
 11
719.16328124999472
 21
757.95884924088614
  0
LINE
  8
_0-0_計極細
  6
CONTINUOUS
 62
    2
 10
724.76328124999486
 20
770.95884924088625
 11
719.16328124999472
 21
770.95884924088625
  0
LINE
  8
_0-0_計極細
  6
CONTINUOUS
 62
    2
 10
707.76328124999498
 20
757.95884924088614
 11
702.16328124999461
 21
757.95884924088614
  0
LINE
  8
_0-0_計極細
  6
CONTINUOUS
 62
    2
 10
707.76328124999498
 20
770.95884924088625
 11
702.16328124999461
 21
770.95884924088625
  0
LINE
  8
_0-0_計極細
  6
CONTINUOUS
 62
    2
 10
690.76328124999486
 20
757.95884924088614
 11
685.16328124999461
 21
757.95884924088614
  0
LINE
  8
_0-0_計極細
  6
CONTINUOUS
 62
    2
 10
690.76328124999486
 20
770.95884924088625
 11
685.16328124999461
 21
770.95884924088625
  0
LINE
  8
_0-0_計極細
  6
CONTINUOUS
 62
    2
 10
673.76328124999486
 20
757.95884924088614
 11
668.16328124999461
 21
757.95884924088614
  0
LINE
  8
_0-0_計極細
  6
CONTINUOUS
 62
    2
 10
673.76328124999486
 20
770.95884924088625
 11
668.16328124999461
 21
770.95884924088625
  0
LINE
  8
_0-0_計極細
  6
CONTINUOUS
 62
    2
 10
656.76328124999486
 20
757.95884924088614
 11
651.16328124999472
 21
757.95884924088614
  0
LINE
  8
_0-0_計極細
  6
CONTINUOUS
 62
    2
 10
656.76328124999486
 20
770.95884924088625
 11
651.16328124999472
 21
770.95884924088625
  0
LINE
  8
_0-0_計極細
  6
CONTINUOUS
 62
    2
 10
639.76328124999486
 20
757.95884924088614
 11
634.16328124999472
 21
757.95884924088614
  0
LINE
  8
_0-0_計極細
  6
CONTINUOUS
 62
    2
 10
639.76328124999486
 20
770.95884924088625
 11
634.16328124999472
 21
770.95884924088625
  0
LINE
  8
_0-0_計極細
  6
CONTINUOUS
 62
    2
 10
622.76328124999486
 20
757.95884924088614
 11
617.16328124999461
 21
757.95884924088614
  0
LINE
  8
_0-0_計極細
  6
CONTINUOUS
 62
    2
 10
622.76328124999486
 20
770.95884924088625
 11
617.16328124999461
 21
770.95884924088625
  0
LINE
  8
_0-0_計極細
  6
CONTINUOUS
 62
    2
 10
605.76328124999486
 20
757.95884924088614
 11
600.16328124999461
 21
757.95884924088614
  0
LINE
  8
_0-0_計極細
  6
CONTINUOUS
 62
    2
 10
605.76328124999486
 20
770.95884924088625
 11
600.16328124999461
 21
770.95884924088625
  0
LINE
  8
_0-0_計極細
  6
CONTINUOUS
 62
    2
 10
588.76328124999486
 20
757.95884924088614
 11
583.16328124999461
 21
757.95884924088614
  0
LINE
  8
_0-0_計極細
  6
CONTINUOUS
 62
    2
 10
588.76328124999486
 20
770.95884924088625
 11
583.16328124999461
 21
770.95884924088625
  0
LINE
  8
_0-0_計極細
  6
CONTINUOUS
 62
    2
 10
571.76328124999486
 20
757.95884924088614
 11
566.16328124999461
 21
757.95884924088614
  0
LINE
  8
_0-0_計極細
  6
CONTINUOUS
 62
    2
 10
571.76328124999486
 20
770.95884924088625
 11
566.16328124999461
 21
770.95884924088625
  0
LINE
  8
_0-0_計極細
  6
CONTINUOUS
 62
    2
 10
554.76328124999486
 20
757.95884924088614
 11
549.16328124999472
 21
757.95884924088614
  0
LINE
  8
_0-0_計極細
  6
CONTINUOUS
 62
    2
 10
554.76328124999486
 20
770.95884924088625
 11
549.16328124999472
 21
770.95884924088625
  0
LINE
  8
_0-0_計極細
  6
CONTINUOUS
 62
    2
 10
537.76328124999486
 20
757.95884924088614
 11
532.16328124999461
 21
757.95884924088614
  0
LINE
  8
_0-0_計極細
  6
CONTINUOUS
 62
    2
 10
537.76328124999486
 20
770.95884924088625
 11
532.16328124999461
 21
770.95884924088625
  0
LINE
  8
_0-0_計極細
  6
CONTINUOUS
 62
    2
 10
520.76328124999486
 20
757.95884924088614
 11
515.16328124999461
 21
757.95884924088614
  0
LINE
  8
_0-0_計極細
  6
CONTINUOUS
 62
    2
 10
520.76328124999486
 20
770.95884924088625
 11
515.16328124999461
 21
770.95884924088625
  0
LINE
  8
_0-0_計極細
  6
CONTINUOUS
 62
    2
 10
503.76328124999486
 20
757.95884924088614
 11
498.16328124999467
 21
757.95884924088614
  0
LINE
  8
_0-0_計極細
  6
CONTINUOUS
 62
    2
 10
503.76328124999486
 20
770.95884924088625
 11
498.16328124999467
 21
770.95884924088625
  0
LINE
  8
_0-0_計極細
  6
CONTINUOUS
 62
    2
 10
486.76328124999486
 20
757.95884924088614
 11
481.16328124999461
 21
757.95884924088614
  0
LINE
  8
_0-0_計極細
  6
CONTINUOUS
 62
    2
 10
486.76328124999486
 20
770.95884924088625
 11
481.16328124999461
 21
770.95884924088625
  0
LINE
  8
_0-0_計極細
  6
CONTINUOUS
 62
    2
 10
469.76328124999492
 20
757.95884924088614
 11
464.16328124999467
 21
757.95884924088614
  0
LINE
  8
_0-0_計極細
  6
CONTINUOUS
 62
    2
 10
469.76328124999492
 20
770.95884924088625
 11
464.16328124999467
 21
770.95884924088625
  0
LINE
  8
_0-0_計極細
  6
CONTINUOUS
 62
    2
 10
452.76328124999486
 20
757.95884924088614
 11
447.16328124999461
 21
757.95884924088614
  0
LINE
  8
_0-0_計極細
  6
CONTINUOUS
 62
    2
 10
452.76328124999486
 20
770.95884924088625
 11
447.16328124999461
 21
770.95884924088625
  0
LINE
  8
_0-0_計極細
  6
CONTINUOUS
 62
    2
 10
435.76328124999492
 20
757.95884924088614
 11
430.16328124999461
 21
757.95884924088614
  0
LINE
  8
_0-0_計極細
  6
CONTINUOUS
 62
    2
 10
435.76328124999492
 20
770.95884924088625
 11
430.16328124999461
 21
770.95884924088625
  0
LINE
  8
_0-0_計極細
  6
CONTINUOUS
 62
    2
 10
418.76328124999486
 20
757.95884924088614
 11
413.16328124999467
 21
757.95884924088614
  0
LINE
  8
_0-0_計極細
  6
CONTINUOUS
 62
    2
 10
418.76328124999486
 20
770.95884924088625
 11
413.16328124999467
 21
770.95884924088625
  0
LINE
  8
_0-0_計極細
  6
CONTINUOUS
 62
    2
 10
401.76328124999486
 20
757.95884924088614
 11
396.16328124999461
 21
757.95884924088614
  0
LINE
  8
_0-0_計極細
  6
CONTINUOUS
 62
    2
 10
401.76328124999486
 20
770.95884924088625
 11
396.16328124999461
 21
770.95884924088625
  0
LINE
  8
_0-0_計極細
  6
CONTINUOUS
 62
    2
 10
384.76328124999492
 20
757.95884924088614
 11
379.16328124999461
 21
757.95884924088614
  0
LINE
  8
_0-0_計極細
  6
CONTINUOUS
 62
    2
 10
384.76328124999492
 20
770.95884924088625
 11
379.16328124999461
 21
770.95884924088625
  0
LINE
  8
_0-0_計極細
  6
CONTINUOUS
 62
    2
 10
367.76328124999486
 20
757.95884924088614
 11
362.16328124999461
 21
757.95884924088614
  0
LINE
  8
_0-0_計極細
  6
CONTINUOUS
 62
    2
 10
367.76328124999486
 20
770.95884924088625
 11
362.16328124999461
 21
770.95884924088625
  0
LINE
  8
_0-0_計極細
  6
CONTINUOUS
 62
    2
 10
350.76328124999486
 20
757.95884924088614
 11
345.16328124999461
 21
757.95884924088614
  0
LINE
  8
_0-0_計極細
  6
CONTINUOUS
 62
    2
 10
350.76328124999486
 20
770.95884924088625
 11
345.16328124999461
 21
770.95884924088625
  0
LINE
  8
_0-0_計極細
  6
CONTINUOUS
 62
    2
 10
333.76328124999486
 20
757.95884924088614
 11
328.16328124999472
 21
757.95884924088614
  0
LINE
  8
_0-0_計極細
  6
CONTINUOUS
 62
    2
 10
333.76328124999486
 20
770.95884924088625
 11
328.16328124999472
 21
770.95884924088625
  0
LINE
  8
_0-0_計極細
  6
CONTINUOUS
 62
    2
 10
316.76328124999486
 20
757.95884924088614
 11
311.16328124999472
 21
757.95884924088614
  0
LINE
  8
_0-0_計極細
  6
CONTINUOUS
 62
    2
 10
316.76328124999486
 20
770.95884924088625
 11
311.16328124999472
 21
770.95884924088625
  0
LINE
  8
_0-0_計極細
  6
CONTINUOUS
 62
    2
 10
299.76328124999486
 20
757.95884924088614
 11
293.76328124999463
 21
757.95884924088614
  0
LINE
  8
_0-0_計極細
  6
CONTINUOUS
 62
    2
 10
299.76328124999486
 20
770.95884924088625
 11
293.76328124999463
 21
770.95884924088625
  0
LINE
  8
_0-0_計極細
  6
CONTINUOUS
 62
    2
 10
282.363281249995
 20
757.95884924088614
 11
276.36328124999477
 21
757.95884924088614
  0
LINE
  8
_0-0_計極細
  6
CONTINUOUS
 62
    2
 10
282.363281249995
 20
770.95884924088625
 11
276.36328124999477
 21
770.95884924088625
  0
LINE
  8
_0-0_計極細
  6
CONTINUOUS
 62
    2
 10
264.96328124999513
 20
757.95884924088614
 11
258.96328124999491
 21
757.95884924088614
  0
LINE
  8
_0-0_計極細
  6
CONTINUOUS
 62
    2
 10
264.96328124999513
 20
770.95884924088625
 11
258.96328124999491
 21
770.95884924088625
  0
LINE
  8
_0-0_計極細
  6
CONTINUOUS
 62
    2
 10
247.56328124999527
 20
757.95884924088614
 11
241.56328124999504
 21
757.95884924088614
  0
LINE
  8
_0-0_計極細
  6
CONTINUOUS
 62
    2
 10
247.56328124999527
 20
770.95884924088625
 11
241.56328124999504
 21
770.95884924088625
  0
LINE
  8
_0-0_計極細
  6
CENTER1
 62
    2
 10
228.23909250678597
 20
764.45884924088659
 11
1236.9211049910073
 21
764.45884924088614
  0
LINE
  8
_0-0_計極細
  6
CONTINUOUS
 62
    2
 10
1200.7632812499942
 20
541.95884924088614
 11
1195.1632812499936
 21
541.95884924088614
  0
LINE
  8
_0-0_計極細
  6
CONTINUOUS
 62
    2
 10
1200.7632812499942
 20
554.95884924088614
 11
1195.1632812499936
 21
554.95884924088614
  0
LINE
  8
_0-0_計極細
  6
CONTINUOUS
 62
    2
 10
1183.763281249993
 20
541.95884924088659
 11
1178.1632812499929
 21
541.95884924088659
  0
LINE
  8
_0-0_計極細
  6
CONTINUOUS
 62
    2
 10
1183.763281249993
 20
554.95884924088659
 11
1178.1632812499929
 21
554.95884924088659
  0
LINE
  8
_0-0_計極細
  6
CONTINUOUS
 62
    2
 10
1161.163281249997
 20
541.95884924088659
 11
1166.7632812499969
 21
541.95884924088659
  0
LINE
  8
_0-0_計極細
  6
CONTINUOUS
 62
    2
 10
1161.163281249997
 20
554.95884924088659
 11
1166.7632812499969
 21
554.95884924088659
  0
LINE
  8
_0-0_計極細
  6
CONTINUOUS
 62
    2
 10
1144.1632812499963
 20
541.95884924088614
 11
1149.7632812499965
 21
541.95884924088614
  0
LINE
  8
_0-0_計極細
  6
CONTINUOUS
 62
    2
 10
1144.1632812499965
 20
554.95884924088614
 11
1149.7632812499965
 21
554.95884924088614
  0
LINE
  8
_0-0_計極細
  6
CONTINUOUS
 62
    2
 10
1127.1632812499959
 20
541.95884924088614
 11
1132.7632812499958
 21
541.95884924088614
  0
LINE
  8
_0-0_計極細
  6
CONTINUOUS
 62
    2
 10
1127.1632812499959
 20
554.95884924088614
 11
1132.763281249996
 21
554.95884924088614
  0
LINE
  8
_0-0_計極細
  6
CONTINUOUS
 62
    2
 10
1110.1632812499947
 20
541.95884924088659
 11
1115.7632812499953
 21
541.95884924088659
  0
LINE
  8
_0-0_計極細
  6
CONTINUOUS
 62
    2
 10
1110.1632812499947
 20
554.95884924088659
 11
1115.7632812499953
 21
554.95884924088659
  0
LINE
  8
_0-0_計極細
  6
CONTINUOUS
 62
    2
 10
1093.163281249995
 20
541.95884924088659
 11
1098.7632812499951
 21
541.95884924088659
  0
LINE
  8
_0-0_計極細
  6
CONTINUOUS
 62
    2
 10
1093.163281249995
 20
554.95884924088659
 11
1098.7632812499951
 21
554.95884924088659
  0
LINE
  8
_0-0_計極細
  6
CONTINUOUS
 62
    2
 10
1081.7632812499944
 20
541.95884924088614
 11
1076.1632812499943
 21
541.95884924088614
  0
LINE
  8
_0-0_計極細
  6
CONTINUOUS
 62
    2
 10
1081.7632812499944
 20
554.95884924088614
 11
1076.1632812499943
 21
554.95884924088614
  0
LINE
  8
_0-0_計極細
  6
CONTINUOUS
 62
    2
 10
1217.763281249996
 20
541.95884924088614
 11
1212.1632812499956
 21
541.95884924088614
  0
LINE
  8
_0-0_計極細
  6
CONTINUOUS
 62
    2
 10
1217.763281249996
 20
554.95884924088614
 11
1212.1632812499956
 21
554.95884924088614
  0
LINE
  8
_0-0_計極細
  6
CONTINUOUS
 62
    2
 10
1064.7632812499946
 20
541.95884924088614
 11
1059.1632812499945
 21
541.95884924088614
  0
LINE
  8
_0-0_計極細
  6
CONTINUOUS
 62
    2
 10
1064.7632812499946
 20
554.95884924088614
 11
1059.1632812499945
 21
554.95884924088614
  0
LINE
  8
_0-0_計極細
  6
CONTINUOUS
 62
    2
 10
1047.7632812499946
 20
541.95884924088614
 11
1042.1632812499945
 21
541.95884924088614
  0
LINE
  8
_0-0_計極細
  6
CONTINUOUS
 62
    2
 10
1047.7632812499946
 20
554.95884924088614
 11
1042.1632812499945
 21
554.95884924088614
  0
LINE
  8
_0-0_計極細
  6
CONTINUOUS
 62
    2
 10
1030.7632812499946
 20
541.95884924088614
 11
1025.1632812499947
 21
541.95884924088614
  0
LINE
  8
_0-0_計極細
  6
CONTINUOUS
 62
    2
 10
1030.7632812499946
 20
554.95884924088614
 11
1025.1632812499947
 21
554.95884924088614
  0
LINE
  8
_0-0_計極細
  6
CONTINUOUS
 62
    2
 10
1013.7632812499947
 20
541.95884924088614
 11
1008.1632812499946
 21
541.95884924088614
  0
LINE
  8
_0-0_計極細
  6
CONTINUOUS
 62
    2
 10
1013.7632812499947
 20
554.95884924088614
 11
1008.1632812499946
 21
554.95884924088614
  0
LINE
  8
_0-0_計極細
  6
CONTINUOUS
 62
    2
 10
996.76328124999475
 20
541.95884924088614
 11
991.1632812499945
 21
541.95884924088614
  0
LINE
  8
_0-0_計極細
  6
CONTINUOUS
 62
    2
 10
996.76328124999475
 20
554.95884924088614
 11
991.1632812499945
 21
554.95884924088614
  0
LINE
  8
_0-0_計極細
  6
CONTINUOUS
 62
    2
 10
979.76328124999463
 20
541.95884924088614
 11
974.1632812499945
 21
541.95884924088614
  0
LINE
  8
_0-0_計極細
  6
CONTINUOUS
 62
    2
 10
979.76328124999463
 20
554.95884924088614
 11
974.1632812499945
 21
554.95884924088614
  0
LINE
  8
_0-0_計極細
  6
CONTINUOUS
 62
    2
 10
962.76328124999463
 20
541.95884924088614
 11
957.1632812499945
 21
541.95884924088614
  0
LINE
  8
_0-0_計極細
  6
CONTINUOUS
 62
    2
 10
962.76328124999463
 20
554.95884924088614
 11
957.1632812499945
 21
554.95884924088614
  0
LINE
  8
_0-0_計極細
  6
CONTINUOUS
 62
    2
 10
945.76328124999463
 20
541.95884924088614
 11
940.16328124999461
 21
541.95884924088614
  0
LINE
  8
_0-0_計極細
  6
CONTINUOUS
 62
    2
 10
945.76328124999463
 20
554.95884924088614
 11
940.16328124999461
 21
554.95884924088614
  0
LINE
  8
_0-0_計極細
  6
CONTINUOUS
 62
    2
 10
928.76328124999475
 20
541.95884924088614
 11
923.16328124999461
 21
541.95884924088614
  0
LINE
  8
_0-0_計極細
  6
CONTINUOUS
 62
    2
 10
928.76328124999475
 20
554.95884924088614
 11
923.16328124999461
 21
554.95884924088614
  0
LINE
  8
_0-0_計極細
  6
CONTINUOUS
 62
    2
 10
911.76328124999475
 20
541.95884924088614
 11
906.1632812499945
 21
541.95884924088614
  0
LINE
  8
_0-0_計極細
  6
CONTINUOUS
 62
    2
 10
911.76328124999475
 20
554.95884924088614
 11
906.1632812499945
 21
554.95884924088614
  0
LINE
  8
_0-0_計極細
  6
CONTINUOUS
 62
    2
 10
894.76328124999463
 20
541.95884924088614
 11
889.1632812499945
 21
541.95884924088614
  0
LINE
  8
_0-0_計極細
  6
CONTINUOUS
 62
    2
 10
894.76328124999463
 20
554.95884924088614
 11
889.1632812499945
 21
554.95884924088614
  0
LINE
  8
_0-0_計極細
  6
CONTINUOUS
 62
    2
 10
877.76328124999463
 20
541.95884924088614
 11
872.1632812499945
 21
541.95884924088614
  0
LINE
  8
_0-0_計極細
  6
CONTINUOUS
 62
    2
 10
877.76328124999463
 20
554.95884924088614
 11
872.1632812499945
 21
554.95884924088614
  0
LINE
  8
_0-0_計極細
  6
CONTINUOUS
 62
    2
 10
860.76328124999463
 20
541.95884924088614
 11
855.16328124999461
 21
541.95884924088614
  0
LINE
  8
_0-0_計極細
  6
CONTINUOUS
 62
    2
 10
860.76328124999463
 20
554.95884924088614
 11
855.16328124999461
 21
554.95884924088614
  0
LINE
  8
_0-0_計極細
  6
CONTINUOUS
 62
    2
 10
843.76328124999475
 20
541.95884924088614
 11
838.16328124999461
 21
541.95884924088614
  0
LINE
  8
_0-0_計極細
  6
CONTINUOUS
 62
    2
 10
843.76328124999475
 20
554.95884924088614
 11
838.16328124999461
 21
554.95884924088614
  0
LINE
  8
_0-0_計極細
  6
CONTINUOUS
 62
    2
 10
826.76328124999475
 20
541.95884924088614
 11
821.1632812499945
 21
541.95884924088614
  0
LINE
  8
_0-0_計極細
  6
CONTINUOUS
 62
    2
 10
826.76328124999475
 20
554.95884924088614
 11
821.1632812499945
 21
554.95884924088614
  0
LINE
  8
_0-0_計極細
  6
CONTINUOUS
 62
    2
 10
809.76328124999463
 20
541.95884924088614
 11
804.1632812499945
 21
541.95884924088614
  0
LINE
  8
_0-0_計極細
  6
CONTINUOUS
 62
    2
 10
809.76328124999463
 20
554.95884924088614
 11
804.1632812499945
 21
554.95884924088614
  0
LINE
  8
_0-0_計極細
  6
CONTINUOUS
 62
    2
 10
792.76328124999463
 20
541.95884924088614
 11
787.1632812499945
 21
541.95884924088614
  0
LINE
  8
_0-0_計極細
  6
CONTINUOUS
 62
    2
 10
792.76328124999463
 20
554.95884924088614
 11
787.1632812499945
 21
554.95884924088614
  0
LINE
  8
_0-0_計極細
  6
CONTINUOUS
 62
    2
 10
775.76328124999463
 20
541.95884924088614
 11
770.16328124999461
 21
541.95884924088614
  0
LINE
  8
_0-0_計極細
  6
CONTINUOUS
 62
    2
 10
775.76328124999463
 20
554.95884924088614
 11
770.16328124999461
 21
554.95884924088614
  0
LINE
  8
_0-0_計極細
  6
CONTINUOUS
 62
    2
 10
758.76328124999463
 20
541.95884924088614
 11
753.16328124999461
 21
541.95884924088614
  0
LINE
  8
_0-0_計極細
  6
CONTINUOUS
 62
    2
 10
758.76328124999463
 20
554.95884924088614
 11
753.16328124999461
 21
554.95884924088614
  0
LINE
  8
_0-0_計極細
  6
CONTINUOUS
 62
    2
 10
741.76328124999475
 20
541.95884924088614
 11
736.1632812499945
 21
541.95884924088614
  0
LINE
  8
_0-0_計極細
  6
CONTINUOUS
 62
    2
 10
741.76328124999475
 20
554.95884924088614
 11
736.1632812499945
 21
554.95884924088614
  0
LINE
  8
_0-0_計極細
  6
CONTINUOUS
 62
    2
 10
724.76328124999463
 20
541.95884924088614
 11
719.1632812499945
 21
541.95884924088614
  0
LINE
  8
_0-0_計極細
  6
CONTINUOUS
 62
    2
 10
724.76328124999463
 20
554.95884924088614
 11
719.1632812499945
 21
554.95884924088614
  0
LINE
  8
_0-0_計極細
  6
CONTINUOUS
 62
    2
 10
707.76328124999463
 20
541.95884924088614
 11
702.1632812499945
 21
541.95884924088614
  0
LINE
  8
_0-0_計極細
  6
CONTINUOUS
 62
    2
 10
707.76328124999463
 20
554.95884924088614
 11
702.1632812499945
 21
554.95884924088614
  0
LINE
  8
_0-0_計極細
  6
CONTINUOUS
 62
    2
 10
690.76328124999463
 20
541.95884924088614
 11
685.1632812499945
 21
541.95884924088614
  0
LINE
  8
_0-0_計極細
  6
CONTINUOUS
 62
    2
 10
690.76328124999463
 20
554.95884924088614
 11
685.1632812499945
 21
554.95884924088614
  0
LINE
  8
_0-0_計極細
  6
CONTINUOUS
 62
    2
 10
673.76328124999463
 20
541.95884924088614
 11
668.16328124999461
 21
541.95884924088614
  0
LINE
  8
_0-0_計極細
  6
CONTINUOUS
 62
    2
 10
673.76328124999463
 20
554.95884924088614
 11
668.16328124999461
 21
554.95884924088614
  0
LINE
  8
_0-0_計極細
  6
CONTINUOUS
 62
    2
 10
656.76328124999475
 20
541.95884924088614
 11
651.1632812499945
 21
541.95884924088614
  0
LINE
  8
_0-0_計極細
  6
CONTINUOUS
 62
    2
 10
656.76328124999475
 20
554.95884924088614
 11
651.1632812499945
 21
554.95884924088614
  0
LINE
  8
_0-0_計極細
  6
CONTINUOUS
 62
    2
 10
639.76328124999463
 20
541.95884924088614
 11
634.1632812499945
 21
541.95884924088614
  0
LINE
  8
_0-0_計極細
  6
CONTINUOUS
 62
    2
 10
639.76328124999463
 20
554.95884924088614
 11
634.1632812499945
 21
554.95884924088614
  0
LINE
  8
_0-0_計極細
  6
CONTINUOUS
 62
    2
 10
622.76328124999463
 20
541.95884924088614
 11
617.1632812499945
 21
541.95884924088614
  0
LINE
  8
_0-0_計極細
  6
CONTINUOUS
 62
    2
 10
622.76328124999463
 20
554.95884924088614
 11
617.1632812499945
 21
554.95884924088614
  0
LINE
  8
_0-0_計極細
  6
CONTINUOUS
 62
    2
 10
605.76328124999463
 20
541.95884924088614
 11
600.1632812499945
 21
541.95884924088614
  0
LINE
  8
_0-0_計極細
  6
CONTINUOUS
 62
    2
 10
605.76328124999463
 20
554.95884924088614
 11
600.1632812499945
 21
554.95884924088614
  0
LINE
  8
_0-0_計極細
  6
CONTINUOUS
 62
    2
 10
588.76328124999463
 20
541.95884924088614
 11
583.1632812499945
 21
541.95884924088614
  0
LINE
  8
_0-0_計極細
  6
CONTINUOUS
 62
    2
 10
588.76328124999463
 20
554.95884924088614
 11
583.1632812499945
 21
554.95884924088614
  0
LINE
  8
_0-0_計極細
  6
CONTINUOUS
 62
    2
 10
571.76328124999463
 20
541.95884924088614
 11
566.1632812499945
 21
541.95884924088614
  0
LINE
  8
_0-0_計極細
  6
CONTINUOUS
 62
    2
 10
571.76328124999463
 20
554.95884924088614
 11
566.1632812499945
 21
554.95884924088614
  0
LINE
  8
_0-0_計極細
  6
CONTINUOUS
 62
    2
 10
554.76328124999463
 20
541.95884924088614
 11
549.1632812499945
 21
541.95884924088614
  0
LINE
  8
_0-0_計極細
  6
CONTINUOUS
 62
    2
 10
554.76328124999463
 20
554.95884924088614
 11
549.1632812499945
 21
554.95884924088614
  0
LINE
  8
_0-0_計極細
  6
CONTINUOUS
 62
    2
 10
537.76328124999463
 20
541.95884924088614
 11
532.1632812499945
 21
541.95884924088614
  0
LINE
  8
_0-0_計極細
  6
CONTINUOUS
 62
    2
 10
537.76328124999463
 20
554.95884924088614
 11
532.1632812499945
 21
554.95884924088614
  0
LINE
  8
_0-0_計極細
  6
CONTINUOUS
 62
    2
 10
520.76328124999463
 20
541.95884924088614
 11
515.1632812499945
 21
541.95884924088614
  0
LINE
  8
_0-0_計極細
  6
CONTINUOUS
 62
    2
 10
520.76328124999463
 20
554.95884924088614
 11
515.1632812499945
 21
554.95884924088614
  0
LINE
  8
_0-0_計極細
  6
CONTINUOUS
 62
    2
 10
503.76328124999469
 20
541.95884924088614
 11
498.1632812499945
 21
541.95884924088614
  0
LINE
  8
_0-0_計極細
  6
CONTINUOUS
 62
    2
 10
503.76328124999469
 20
554.95884924088614
 11
498.1632812499945
 21
554.95884924088614
  0
LINE
  8
_0-0_計極細
  6
CONTINUOUS
 62
    2
 10
486.76328124999463
 20
541.95884924088614
 11
481.16328124999455
 21
541.95884924088614
  0
LINE
  8
_0-0_計極細
  6
CONTINUOUS
 62
    2
 10
486.76328124999463
 20
554.95884924088614
 11
481.16328124999455
 21
554.95884924088614
  0
LINE
  8
_0-0_計極細
  6
CONTINUOUS
 62
    2
 10
469.76328124999469
 20
541.95884924088614
 11
464.1632812499945
 21
541.95884924088614
  0
LINE
  8
_0-0_計極細
  6
CONTINUOUS
 62
    2
 10
469.76328124999469
 20
554.95884924088614
 11
464.1632812499945
 21
554.95884924088614
  0
LINE
  8
_0-0_計極細
  6
CONTINUOUS
 62
    2
 10
452.76328124999463
 20
541.95884924088614
 11
447.1632812499945
 21
541.95884924088614
  0
LINE
  8
_0-0_計極細
  6
CONTINUOUS
 62
    2
 10
452.76328124999463
 20
554.95884924088614
 11
447.1632812499945
 21
554.95884924088614
  0
LINE
  8
_0-0_計極細
  6
CONTINUOUS
 62
    2
 10
435.76328124999463
 20
541.95884924088614
 11
430.16328124999455
 21
541.95884924088614
  0
LINE
  8
_0-0_計極細
  6
CONTINUOUS
 62
    2
 10
435.76328124999463
 20
554.95884924088614
 11
430.16328124999455
 21
554.95884924088614
  0
LINE
  8
_0-0_計極細
  6
CONTINUOUS
 62
    2
 10
418.76328124999469
 20
541.95884924088614
 11
413.1632812499945
 21
541.95884924088614
  0
LINE
  8
_0-0_計極細
  6
CONTINUOUS
 62
    2
 10
418.76328124999469
 20
554.95884924088614
 11
413.1632812499945
 21
554.95884924088614
  0
LINE
  8
_0-0_計極細
  6
CONTINUOUS
 62
    2
 10
401.76328124999463
 20
541.95884924088614
 11
396.16328124999455
 21
541.95884924088614
  0
LINE
  8
_0-0_計極細
  6
CONTINUOUS
 62
    2
 10
401.76328124999463
 20
554.95884924088614
 11
396.16328124999455
 21
554.95884924088614
  0
LINE
  8
_0-0_計極細
  6
CONTINUOUS
 62
    2
 10
384.76328124999469
 20
541.95884924088614
 11
379.1632812499945
 21
541.95884924088614
  0
LINE
  8
_0-0_計極細
  6
CONTINUOUS
 62
    2
 10
384.76328124999469
 20
554.95884924088614
 11
379.1632812499945
 21
554.95884924088614
  0
LINE
  8
_0-0_計極細
  6
CONTINUOUS
 62
    2
 10
367.76328124999463
 20
541.95884924088614
 11
362.1632812499945
 21
541.95884924088614
  0
LINE
  8
_0-0_計極細
  6
CONTINUOUS
 62
    2
 10
367.76328124999463
 20
554.95884924088614
 11
362.1632812499945
 21
554.95884924088614
  0
LINE
  8
_0-0_計極細
  6
CONTINUOUS
 62
    2
 10
350.76328124999463
 20
541.95884924088614
 11
345.16328124999455
 21
541.95884924088614
  0
LINE
  8
_0-0_計極細
  6
CONTINUOUS
 62
    2
 10
350.76328124999463
 20
554.95884924088614
 11
345.16328124999455
 21
554.95884924088614
  0
LINE
  8
_0-0_計極細
  6
CONTINUOUS
 62
    2
 10
333.76328124999469
 20
541.95884924088614
 11
328.1632812499945
 21
541.95884924088614
  0
LINE
  8
_0-0_計極細
  6
CONTINUOUS
 62
    2
 10
333.76328124999469
 20
554.95884924088614
 11
328.1632812499945
 21
554.95884924088614
  0
LINE
  8
_0-0_計極細
  6
CONTINUOUS
 62
    2
 10
316.76328124999463
 20
541.95884924088614
 11
311.16328124999455
 21
541.95884924088614
  0
LINE
  8
_0-0_計極細
  6
CONTINUOUS
 62
    2
 10
316.76328124999463
 20
554.95884924088614
 11
311.16328124999455
 21
554.95884924088614
  0
LINE
  8
_0-0_計極細
  6
CONTINUOUS
 62
    2
 10
299.76328124999469
 20
541.95884924088614
 11
293.76328124999446
 21
541.95884924088614
  0
LINE
  8
_0-0_計極細
  6
CONTINUOUS
 62
    2
 10
299.76328124999469
 20
554.95884924088614
 11
293.76328124999446
 21
554.95884924088614
  0
LINE
  8
_0-0_計極細
  6
CONTINUOUS
 62
    2
 10
282.36328124999477
 20
541.95884924088614
 11
276.36328124999454
 21
541.95884924088614
  0
LINE
  8
_0-0_計極細
  6
CONTINUOUS
 62
    2
 10
282.36328124999477
 20
554.95884924088614
 11
276.36328124999454
 21
554.95884924088614
  0
LINE
  8
_0-0_計極細
  6
CONTINUOUS
 62
    2
 10
264.96328124999491
 20
541.95884924088614
 11
258.96328124999468
 21
541.95884924088614
  0
LINE
  8
_0-0_計極細
  6
CONTINUOUS
 62
    2
 10
264.96328124999491
 20
554.95884924088614
 11
258.96328124999468
 21
554.95884924088614
  0
LINE
  8
_0-0_計極細
  6
CONTINUOUS
 62
    2
 10
247.56328124999504
 20
541.95884924088614
 11
241.56328124999482
 21
541.95884924088614
  0
LINE
  8
_0-0_計極細
  6
CONTINUOUS
 62
    2
 10
247.56328124999504
 20
554.95884924088614
 11
241.56328124999482
 21
554.95884924088614
  0
LINE
  8
_0-0_計極細
  6
CENTER1
 62
    2
 10
227.15469607331514
 20
548.45884924088659
 11
1236.921104991007
 21
548.45884924088614
  0
LINE
  8
_0-0_計極細
  6
CONTINUOUS
 62
    2
 10
1093.1632812499943
 20
757.95884924088671
 11
1098.7632812499946
 21
757.95884924088671
  0
LINE
  8
_0-0_計極細
  6
CONTINUOUS
 62
    2
 10
1093.1632812499943
 20
770.95884924088659
 11
1098.7632812499946
 21
770.95884924088659
  0
LINE
  8
_0-5_寸法線
  6
CONTINUOUS
 62
    7
 10
527.67657200425333
 20
527.93384924088787
 11
534.44257266342788
 21
520.57034225847462
  0
LINE
  8
_0-5_寸法線
  6
CONTINUOUS
 62
    7
 10
527.67657200425333
 20
527.93384924088787
 11
529.85434696591415
 21
518.17386480358664
  0
LINE
  8
_0-5_寸法線
  6
CONTINUOUS
 62
    7
 10
527.67657200425333
 20
527.93384924088787
 11
550.75881747412791
 21
483.74125664829535
  0
LINE
  8
_0-5_寸法線
  6
CONTINUOUS
 62
    7
 10
550.75881747412791
 20
483.74125664829535
 11
658.75881747412791
 21
483.74125664829535
  0
TEXT
  8
_0-5_寸法線
 62
    7
 10
550.75881747412791
 20
484.34125664829531
 40
15
 41
0.8000000000000001
 50
0
  1
ＳＵＳアングル受枠
  0
LINE
  8
_0-5_寸法線
  6
CONTINUOUS
 62
    7
 10
746.8442783417014
 20
571.4125703892696
 11
753.91534615356682
 21
564.34150257740407
  0
LINE
  8
_0-5_寸法線
  6
CONTINUOUS
 62
    7
 10
746.8442783417014
 20
571.4125703892696
 11
749.43246879272647
 21
561.75331212637889
  0
LINE
  8
_0-5_寸法線
  6
CONTINUOUS
 62
    7
 10
746.8442783417014
 20
571.4125703892696
 11
797.17265979566594
 21
484.24125664829489
  0
LINE
  8
_0-5_寸法線
  6
CONTINUOUS
 62
    7
 10
797.17265979566594
 20
484.24125664829489
 11
929.17265979566594
 21
484.24125664829489
  0
TEXT
  8
_0-5_寸法線
 62
    7
 10
797.17265979566582
 20
484.24125664829489
 40
15
 41
0.8000000000000001
 50
0
  1
セーフティグレーチング
  0
TEXT
  8
_0-5_寸法線
 62
    7
 10
550.75881747412791
 20
468.74125664829535
 40
15
 41
0.8000000000000001
 50
0
  1
ＧＳＬ－２０
  0
TEXT
  8
_0-5_寸法線
 62
    7
 10
797.17265979566594
 20
469.24125664829489
 40
15
 41
0.8000000000000001
 50
0
  1
ＧＲＳＪ－２０Ｗ２５１
  0
LINE
  8
_0-5_寸法線
  6
CONTINUOUS
 62
    7
 10
230.1632812499939
 20
796.4588492408858
 11
230.16328124999382
 21
831.45884924088614
  0
LINE
  8
_0-5_寸法線
  6
CONTINUOUS
 62
    7
 10
230.16328124999382
 20
826.45884924088614
 11
237.40772494716182
 21
828.39999207915514
  0
LINE
  8
_0-5_寸法線
  6
CONTINUOUS
 62
    7
 10
230.16328124999382
 20
826.45884924088614
 11
237.40772494716182
 21
824.51770640261725
  0
LINE
  8
_0-5_寸法線
  6
CONTINUOUS
 62
    7
 10
1229.1632812499938
 20
796.4588492408858
 11
1229.1632812499938
 21
831.45884924088614
  0
LINE
  8
_0-5_寸法線
  6
CONTINUOUS
 62
    7
 10
1229.1632812499938
 20
826.45884924088614
 11
1221.9188375528258
 21
824.51770640261725
  0
LINE
  8
_0-5_寸法線
  6
CONTINUOUS
 62
    7
 10
1229.1632812499938
 20
826.45884924088614
 11
1221.9188375528258
 21
828.39999207915514
  0
LINE
  8
_0-5_寸法線
  6
CONTINUOUS
 62
    7
 10
230.16328124999382
 20
826.45884924088614
 11
1229.1632812499938
 21
826.45884924088614
  0
TEXT
  8
_0-5_寸法線
 62
    7
 10
718.41328124999382
 20
826.45884924088591
 40
15
 41
1
 50
0
  1
999
  0
LINE
  8
_0-5_寸法線
  6
CONTINUOUS
 62
    7
 10
860.76328124999418
 20
796.45884924088614
 11
860.76328124999418
 21
811.45884924088614
  0
LINE
  8
_0-5_寸法線
  6
CONTINUOUS
 62
    7
 10
860.76328124999418
 20
806.45884924088614
 11
851.10402298710358
 21
803.87065878986107
  0
LINE
  8
_0-5_寸法線
  6
CONTINUOUS
 62
    7
 10
860.76328124999418
 20
806.45884924088614
 11
851.10402298710358
 21
809.04703969191132
  0
LINE
  8
_0-5_寸法線
  6
CONTINUOUS
 62
    7
 10
872.16328124999472
 20
796.45884924088614
 11
872.16328124999472
 21
811.45884924088614
  0
CIRCLE
  8
_0-5_寸法線
  6
CONTINUOUS
 62
    1
 10
872.16328124999472
 20
806.45884924088614
 40
1.5000000000000002
  0
LINE
  8
_0-5_寸法線
  6
CONTINUOUS
 62
    7
 10
835.76328124999418
 20
806.45884924088614
 11
872.16328124999472
 21
806.45884924088614
  0
TEXT
  8
_0-5_寸法線
 62
    7
 10
842.11649477551316
 20
806.45884924088614
 40
15
 41
1
 50
0
  1
11.4
  0
LINE
  8
_0-5_寸法線
  6
CONTINUOUS
 62
    7
 10
877.76328124999418
 20
796.45884924088614
 11
877.76328124999418
 21
811.45884924088614
  0
LINE
  8
_0-5_寸法線
  6
CONTINUOUS
 62
    7
 10
877.76328124999418
 20
806.45884924088614
 11
887.4225395128849
 21
809.04703969191132
  0
LINE
  8
_0-5_寸法線
  6
CONTINUOUS
 62
    7
 10
877.76328124999418
 20
806.45884924088614
 11
887.4225395128849
 21
803.87065878986095
  0
LINE
  8
_0-5_寸法線
  6
CONTINUOUS
 62
    7
 10
872.16328124999472
 20
806.45884924088614
 11
914.97760588662629
 21
806.45884924088614
  0
TEXT
  8
_0-5_寸法線
 62
    7
 10
881.32011673537204
 20
791.45884924088614
 40
15
 41
1
 50
0
  1
6以下
  0
LINE
  8
_0-1_計細線
  6
CONTINUOUS
 62
    3
 10
1132.7632812499958
 20
530.9588492408875
 11
1132.7632812499946
 21
781.95884924088614
  0
LINE
  8
_0-1_計細線
  6
CONTINUOUS
 62
    3
 10
1132.7632812499958
 20
530.9588492408875
 11
1144.1632812499963
 21
530.9588492408875
  0
LINE
  8
_0-0_計極細
  6
CONTINUOUS
 62
    2
 10
1140.9632812499963
 20
530.9588492408875
 11
1140.9632812499949
 21
781.95884924088614
  0
LINE
  8
_0-0_計極細
  6
CONTINUOUS
 62
    2
 10
1135.9632812499963
 20
530.9588492408875
 11
1135.9632812499949
 21
781.95884924088614
  0
LINE
  8
_0-1_計細線
  6
CONTINUOUS
 62
    3
 10
1132.7632812499946
 20
781.95884924088614
 11
1144.1632812499963
 21
781.95884924088614
  0
LINE
  8
_0-1_計細線
  6
CONTINUOUS
 62
    3
 10
1144.1632812499963
 20
530.9588492408875
 11
1144.1632812499963
 21
781.95884924088614
  0
LINE
  8
_0-1_計細線
  6
CONTINUOUS
 62
    3
 10
1161.163281249997
 20
530.95884924088796
 11
1161.1632812499961
 21
781.95884924088614
  0
LINE
  8
_0-1_計細線
  6
CONTINUOUS
 62
    3
 10
1149.7632812499965
 20
530.9588492408875
 11
1161.163281249997
 21
530.95884924088796
  0
LINE
  8
_0-0_計極細
  6
CONTINUOUS
 62
    2
 10
1157.9632812499967
 20
530.9588492408875
 11
1157.9632812499956
 21
781.95884924088614
  0
LINE
  8
_0-0_計極細
  6
CONTINUOUS
 62
    2
 10
1152.9632812499967
 20
530.9588492408875
 11
1152.9632812499956
 21
781.95884924088614
  0
LINE
  8
_0-1_計細線
  6
CONTINUOUS
 62
    3
 10
1149.7632812499965
 20
530.9588492408875
 11
1149.7632812499965
 21
781.95884924088614
  0
LINE
  8
_0-1_計細線
  6
CONTINUOUS
 62
    3
 10
1149.7632812499965
 20
781.95884924088614
 11
1161.1632812499961
 21
781.95884924088614
  0
LINE
  8
_0-1_計細線
  6
CONTINUOUS
 62
    3
 10
1098.3132812499937
 20
611.45884924088568
 11
1098.3132812499939
 21
670.45884924088557
  0
LINE
  8
_0-1_計細線
  6
CONTINUOUS
 62
    3
 10
1093.6132812499941
 20
670.45884924088557
 11
1093.6132812499939
 21
611.45884924088568
  0
LINE
  8
_0-1_計細線
  6
CONTINUOUS
 62
    3
 10
1093.6132812499939
 20
611.45884924088568
 11
1098.3132812499937
 21
611.45884924088568
  0
LINE
  8
_0-1_計細線
  6
CONTINUOUS
 62
    3
 10
1093.6132812499941
 20
660.45884924088557
 11
1098.3132812499939
 21
660.45884924088557
  0
LINE
  8
_0-1_計細線
  6
CONTINUOUS
 62
    3
 10
1093.6132812499941
 20
668.45884924088568
 11
1098.3132812499939
 21
668.45884924088568
  0
LINE
  8
_0-1_計細線
  6
CONTINUOUS
 62
    3
 10
1093.6132812499941
 20
670.45884924088557
 11
1098.3132812499939
 21
670.45884924088557
  0
LINE
  8
_0-1_計細線
  6
CONTINUOUS
 62
    3
 10
1093.6132812499941
 20
666.45884924088568
 11
1098.3132812499939
 21
666.45884924088568
  0
LINE
  8
_0-1_計細線
  6
CONTINUOUS
 62
    3
 10
1093.6132812499941
 20
664.45884924088557
 11
1098.3132812499939
 21
664.45884924088557
  0
LINE
  8
_0-1_計細線
  6
CONTINUOUS
 62
    3
 10
1093.6132812499941
 20
662.45884924088557
 11
1098.3132812499939
 21
662.45884924088557
  0
LINE
  8
_0-0_計極細
  6
CONTINUOUS
 62
    2
 10
1093.1632812499943
 20
662.95884924088671
 11
1093.6132812499941
 21
662.95884924088671
  0
LINE
  8
_0-0_計極細
  6
CONTINUOUS
 62
    2
 10
1098.3132812499939
 20
662.95884924088671
 11
1098.7632812499955
 21
662.95884924088671
  0
LINE
  8
_0-0_計極細
  6
CONTINUOUS
 62
    2
 10
1093.1632812499943
 20
649.95884924088659
 11
1093.6132812499941
 21
649.95884924088659
  0
LINE
  8
_0-0_計極細
  6
CONTINUOUS
 62
    2
 10
1098.3132812499939
 20
649.95884924088659
 11
1098.7632812499955
 21
649.95884924088659
  0
LINE
  8
_0-5_寸法線
  6
CONTINUOUS
 62
    7
 10
1095.0840386045713
 20
669.61552843310551
 11
1090.0840386045713
 21
678.27578247094993
  0
LINE
  8
_0-5_寸法線
  6
CONTINUOUS
 62
    7
 10
1095.0840386045713
 20
669.61552843310551
 11
1095.0840386045713
 21
679.61552843310551
  0
LINE
  8
_0-5_寸法線
  6
CONTINUOUS
 62
    7
 10
1095.0840386045713
 20
669.61552843310551
 11
1058.4169813045337
 21
806.45884924088614
  0
LINE
  8
_0-5_寸法線
  6
CONTINUOUS
 62
    7
 10
1058.4169813045337
 20
806.45884924088614
 11
998.41698130453381
 21
806.45884924088614
  0
TEXT
  8
_0-5_寸法線
 62
    7
 10
998.41698130453381
 20
806.45884924088614
 40
15
 41
0.8000000000000001
 50
0
  1
取　外　具
  0
TEXT
  8
_0-5_寸法線
 62
    7
 10
999.09121855978708
 20
789.92147804317619
 40
15
 41
0.8000000000000001
 50
-0.0000000000002714
  1
(標準付属)
  0
LINE
  8
_0-7_枠細線
  6
CONTINUOUS
 62
    5
 10
973.11846506261486
 20
807.70782345675116
 11
965.61846506261475
 21
822.70782345675116
  0
LINE
  8
_0-7_枠細線
  6
CONTINUOUS
 62
    5
 10
958.11846506261475
 20
807.70782345675116
 11
973.11846506261486
 21
807.70782345675116
  0
LINE
  8
_0-7_枠細線
  6
CONTINUOUS
 62
    5
 10
965.61846506261475
 20
822.70782345675116
 11
958.11846506261475
 21
807.70782345675116
  0
TEXT
  8
_0-7_枠細線
 62
    5
 10
960.48361633076297
 20
807.40082121137061
 40
12.5
 41
0.8
 50
0
  1
１
  0
LINE
  8
_0-7_枠細線
  6
CONTINUOUS
 62
    5
 10
983.9880080898314
 20
822.70782345675116
 11
976.4880080898314
 21
807.70782345675116
  0
LINE
  8
_0-7_枠細線
  6
CONTINUOUS
 62
    5
 10
976.4880080898314
 20
807.70782345675116
 11
991.4880080898314
 21
807.70782345675116
  0
LINE
  8
_0-7_枠細線
  6
CONTINUOUS
 62
    5
 10
991.4880080898314
 20
807.70782345675116
 11
983.9880080898314
 21
822.70782345675116
  0
TEXT
  8
_0-7_枠細線
 62
    5
 10
978.97350018037992
 20
807.1601395665698
 40
12.5
 41
0.8
 50
0
  1
２
  0
LINE
  8
_0-7_枠細線
  6
CONTINUOUS
 62
    5
 10
1424.9999999999998
 20
907.5
 11
890
 21
907.5
  0
TEXT
  8
_0-7_枠細線
 62
    5
 10
938.85037037037011
 20
910
 40
12.500000000000002
 41
1
 50
0
  1
取外具形状変更
  0
TEXT
  8
_0-7_枠細線
 62
    5
 10
1180
 20
910
 40
12.500000000000002
 41
0.7199999999999998
 50
0
  1
２０１５．１１．２０
  0
LINE
  8
_0-7_枠細線
  6
CONTINUOUS
 62
    5
 10
1425
 20
890
 11
890
 21
890
  0
TEXT
  8
_0-7_枠細線
 62
    5
 10
1180
 20
892.5
 40
12.5
 41
0.7199999999999999
 50
0
  1
２０１７．０４．０１
  0
LINE
  8
_0-7_枠細線
  6
CONTINUOUS
 62
    5
 10
915
 20
873.94233397174685
 11
907.5
 21
888.94233397174685
  0
LINE
  8
_0-7_枠細線
  6
CONTINUOUS
 62
    5
 10
900
 20
873.94233397174685
 11
915
 21
873.94233397174685
  0
LINE
  8
_0-7_枠細線
  6
CONTINUOUS
 62
    5
 10
907.5
 20
888.94233397174685
 11
900
 21
873.94233397174685
  0
TEXT
  8
_0-7_枠細線
 62
    5
 10
1180
 20
875
 40
12.5
 41
0.7199999999999999
 50
0
  1
２０１７．０４．０１
  0
TEXT
  8
_0-7_枠細線
 62
    5
 10
938.85037037037023
 20
875
 40
12.5
 41
1
 50
0
  1
ブラウン色（Ｃ）追加
  0
LINE
  8
_0-7_枠細線
  6
CONTINUOUS
 62
    5
 10
1425
 20
872.5
 11
890
 21
872.5
  0
LINE
  8
_0-7_枠細線
  6
CONTINUOUS
 62
    5
 10
907.5
 20
906.44233397174685
 11
900
 21
891.44233397174685
  0
LINE
  8
_0-7_枠細線
  6
CONTINUOUS
 62
    5
 10
900
 20
891.44233397174685
 11
915
 21
891.44233397174685
  0
LINE
  8
_0-7_枠細線
  6
CONTINUOUS
 62
    5
 10
915
 20
891.44233397174685
 11
907.5
 21
906.44233397174685
  0
TEXT
  8
_0-7_枠細線
 62
    5
 10
938.85037037037023
 20
892.5
 40
12.5
 41
1
 50
0
  1
取外具形状変更
  0
TEXT
  8
_0-7_枠細線
 62
    5
 10
902.48549209054841
 20
890.89465008156549
 40
12.5
 41
0.8
 50
0
  1
２
  0
TEXT
  8
_0-7_枠細線
 62
    5
 10
902.36515126814811
 20
872.99351400689704
 40
12.5
 41
0.8
 50
0
  1
３
  0
LINE
  8
_0-7_枠細線
  6
CONTINUOUS
 62
    5
 10
915
 20
856.44233397174685
 11
907.5
 21
871.44233397174685
  0
LINE
  8
_0-7_枠細線
  6
CONTINUOUS
 62
    5
 10
900
 20
856.44233397174685
 11
915
 21
856.44233397174685
  0
LINE
  8
_0-7_枠細線
  6
CONTINUOUS
 62
    5
 10
907.5
 20
871.44233397174685
 11
900
 21
856.44233397174685
  0
LINE
  8
_0-7_枠細線
  6
CONTINUOUS
 62
    5
 10
1425
 20
855
 11
890
 21
855
  0
TEXT
  8
_0-7_枠細線
 62
    5
 10
1180
 20
857.5
 40
12.5
 41
0.7199999999999999
 50
0
  1
２０１９．０９．０１
  0
TEXT
  8
_0-7_枠細線
 62
    5
 10
902.36515126814811
 20
855.49351400689704
 40
12.5
 41
0.8
 50
0
  1
４
  0
LINE
  8
_0-7_枠細線
  6
CONTINUOUS
 62
    5
 10
890
 20
855
 11
890
 21
959.99999999999943
  0
LINE
  8
_0-7_枠細線
  6
CONTINUOUS
 62
    5
 10
925
 20
855
 11
925
 21
959.99999999999943
  0
LINE
  8
_0-7_枠細線
  6
CONTINUOUS
 62
    5
 10
1175
 20
855
 11
1175
 21
959.99999999999943
  0
LINE
  8
_0-7_枠細線
  6
CONTINUOUS
 62
    5
 10
1275
 20
855
 11
1275
 21
959.99999999999943
  0
LINE
  8
_0-b_細線3
  6
CONTINUOUS
 62
    7
 10
230.13425318650107
 20
294.92948986735337
 11
230.13425318650107
 21
236.59615653402014
  0
LINE
  8
_0-b_細線3
  6
CONTINUOUS
 62
    7
 10
230.13425318650107
 20
236.59615653402014
 11
226.30091985316773
 21
236.59615653402014
  0
LINE
  8
_0-b_細線3
  6
CONTINUOUS
 62
    7
 10
226.30091985316773
 20
236.59615653402014
 11
226.30091985316773
 21
294.92948986735337
  0
LINE
  8
_0-b_細線3
  6
CONTINUOUS
 62
    7
 10
226.30091985316773
 20
294.92948986735337
 11
230.13425318650107
 21
294.92948986735337
  0
LINE
  8
_0-a_極細3
  6
CONTINUOUS
 62
    7
 10
226.30091985316773
 20
268.26282320068674
 11
230.13425318650107
 21
268.26282320068674
  0
LINE
  8
_0-a_極細3
  6
CONTINUOUS
 62
    7
 10
226.30091985316773
 20
271.59615653402011
 11
230.13425318650107
 21
271.59615653402011
  0
LINE
  8
_0-a_極細3
  6
CONTINUOUS
 62
    7
 10
226.30091985316773
 20
264.92948986735337
 11
230.13425318650107
 21
264.92948986735337
  0
LINE
  8
_0-a_極細3
  6
CONTINUOUS
 62
    7
 10
226.30091985316773
 20
274.92948986735337
 11
230.13425318650107
 21
274.92948986735337
  0
LINE
  8
_0-a_極細3
  6
CONTINUOUS
 62
    7
 10
230.13425318650107
 20
241.59615653402014
 11
226.30091985316773
 21
241.59615653402014
  0
LINE
  8
_0-a_極細3
  6
CONTINUOUS
 62
    7
 10
226.30091985316773
 20
291.59615653402011
 11
230.13425318650107
 21
291.59615653402011
  0
LINE
  8
_0-b_細線3
  6
CONTINUOUS
 62
    7
 10
663.46758651983475
 20
294.92912486567457
 11
663.46758651983475
 21
236.59579153234134
  0
LINE
  8
_0-b_細線3
  6
CONTINUOUS
 62
    7
 10
663.46758651983475
 20
236.59579153234134
 11
667.30091985316812
 21
236.59579153234134
  0
LINE
  8
_0-b_細線3
  6
CONTINUOUS
 62
    7
 10
667.30091985316812
 20
236.59579153234134
 11
667.30091985316812
 21
294.92912486567457
  0
LINE
  8
_0-b_細線3
  6
CONTINUOUS
 62
    7
 10
667.30091985316812
 20
294.92912486567457
 11
663.46758651983475
 21
294.92912486567457
  0
LINE
  8
_0-a_極細3
  6
CONTINUOUS
 62
    7
 10
667.30091985316812
 20
268.26245819900794
 11
663.46758651983475
 21
268.26245819900794
  0
LINE
  8
_0-a_極細3
  6
CONTINUOUS
 62
    7
 10
667.30091985316812
 20
271.59579153234131
 11
663.46758651983475
 21
271.59579153234131
  0
LINE
  8
_0-a_極細3
  6
CONTINUOUS
 62
    7
 10
667.30091985316812
 20
264.92912486567457
 11
663.46758651983475
 21
264.92912486567457
  0
LINE
  8
_0-a_極細3
  6
CONTINUOUS
 62
    7
 10
667.30091985316812
 20
274.92912486567457
 11
663.46758651983475
 21
274.92912486567457
  0
LINE
  8
_0-a_極細3
  6
CONTINUOUS
 62
    7
 10
663.46758651983475
 20
241.59579153234134
 11
667.30091985316812
 21
241.59579153234134
  0
LINE
  8
_0-a_極細3
  6
CONTINUOUS
 62
    7
 10
667.30091985316812
 20
291.59579153234131
 11
663.46758651983475
 21
291.59579153234131
  0
LINE
  8
_0-7_枠細線
  6
CONTINUOUS
 62
    5
 10
685.23163669379051
 20
284.26244666561445
 11
677.73163669379051
 21
299.26244666561445
  0
LINE
  8
_0-7_枠細線
  6
CONTINUOUS
 62
    5
 10
670.23163669379051
 20
284.26244666561445
 11
685.23163669379051
 21
284.26244666561445
  0
LINE
  8
_0-7_枠細線
  6
CONTINUOUS
 62
    5
 10
677.73163669379051
 20
299.26244666561445
 11
670.23163669379051
 21
284.26244666561445
  0
TEXT
  8
_0-7_枠細線
 62
    5
 10
672.5967879619385
 20
283.31362670076453
 40
12.5
 41
0.8
 50
0
  1
４
  0
LINE
  8
_0-9_枠極太
  6
CONTINUOUS
 62
    5
 10
60
 20
60
 11
60
 21
960
  0
LINE
  8
_0-9_枠極太
  6
CONTINUOUS
 62
    5
 10
60
 20
960
 11
1425
 21
960
  0
LINE
  8
_0-9_枠極太
  6
CONTINUOUS
 62
    5
 10
1425
 20
960
 11
1425
 21
60
  0
LINE
  8
_0-9_枠極太
  6
CONTINUOUS
 62
    5
 10
1425
 20
60
 11
60
 21
60
  0
LINE
  8
_0-7_枠細線
  6
CONTINUOUS
 62
    5
 10
1074.9999999999995
 20
286.80454176804579
 11
1374.9999999999998
 21
286.80454176804579
  0
LINE
  8
_0-7_枠細線
  6
CONTINUOUS
 62
    5
 10
1074.9999999999995
 20
311.80454176804574
 11
1374.9999999999998
 21
311.80454176804574
  0
LINE
  8
_0-7_枠細線
  6
CONTINUOUS
 62
    5
 10
1074.9999999999995
 20
336.80454176804574
 11
1374.9999999999998
 21
336.80454176804574
  0
LINE
  8
_0-7_枠細線
  6
CONTINUOUS
 62
    5
 10
1074.9999999999995
 20
361.80454176804585
 11
1374.9999999999998
 21
361.80454176804585
  0
LINE
  8
_0-7_枠細線
  6
CONTINUOUS
 62
    5
 10
1074.9999999999995
 20
386.80454176804574
 11
1374.9999999999998
 21
386.80454176804574
  0
LINE
  8
_0-7_枠細線
  6
CONTINUOUS
 62
    5
 10
1074.9999999999995
 20
411.80454176804568
 11
1374.9999999999998
 21
411.80454176804568
  0
LINE
  8
_0-7_枠細線
  6
CONTINUOUS
 62
    5
 10
1074.9999999999995
 20
436.80454176804568
 11
1374.9999999999998
 21
436.80454176804568
  0
TEXT
  8
_0-7_枠細線
 62
    5
 10
1163.7499999999995
 20
441.80454176804568
 40
17.5
 41
1
 50
0
  1
品番表
  0
TEXT
  8
_0-7_枠細線
 62
    5
 10
1306
 20
416.80454176804568
 40
15
 41
0.8000000000000001
 50
0
  1
備　　考
  0
TEXT
  8
_0-7_枠細線
 62
    5
 10
1213
 20
366.80454176804585
 40
15
 41
0.5999999999999999
 50
0
  1
ライトグレー
  0
TEXT
  8
_0-7_枠細線
 62
    5
 10
1222
 20
391.80454176804568
 40
15
 41
0.5999999999999999
 50
0
  1
ベージュ
  0
TEXT
  8
_0-7_枠細線
 62
    5
 10
1234
 20
416.80454176804568
 40
15
 41
0.8000000000000001
 50
0
  1
色
  0
TEXT
  8
_0-7_枠細線
 62
    5
 10
1110.9999999999998
 20
416.80454176804568
 40
15
 41
0.8000000000000001
 50
0
  1
品　　番
  0
LINE
  8
_0-7_枠細線
  6
CONTINUOUS
 62
    5
 10
1074.9999999999995
 20
211.8045417680456
 11
1374.9999999999998
 21
211.8045417680456
  0
LINE
  8
_0-7_枠細線
  6
CONTINUOUS
 62
    5
 10
1074.9999999999995
 20
236.80454176804579
 11
1374.9999999999998
 21
236.80454176804579
  0
LINE
  8
_0-7_枠細線
  6
CONTINUOUS
 62
    5
 10
1074.9999999999995
 20
261.80454176804585
 11
1374.9999999999998
 21
261.80454176804585
  0
TEXT
  8
_0-7_枠細線
 62
    5
 10
1222.0000000000005
 20
341.80454176804585
 40
15
 41
0.5999999999999999
 50
0
  1
ホワイト
  0
TEXT
  8
_0-7_枠細線
 62
    5
 10
1226.4999999999998
 20
316.80454176804574
 40
15
 41
0.5999999999999999
 50
0
  1
ピンク
  0
TEXT
  8
_0-7_枠細線
 62
    5
 10
1226.4999999999998
 20
291.80454176804574
 40
15
 41
0.5999999999999999
 50
0
  1
ブルー
  0
TEXT
  8
_0-7_枠細線
 62
    5
 10
1212.9999999999995
 20
266.80454176804579
 40
15
 41
0.5999999999999999
 50
0
  1
ダークグレー
  0
TEXT
  8
_0-7_枠細線
 62
    5
 10
1079.7499999999998
 20
391.80454176804568
 40
15
 41
0.5666666666666667
 50
0
  1
ＧＲＳＪ－２０Ｗ２５１－Ｂ
  0
TEXT
  8
_0-7_枠細線
 62
    5
 10
1079.75
 20
366.80454176804574
 40
15
 41
0.5666666666666667
 50
0
  1
ＧＲＳＪ－２０Ｗ２５１－Ｇ
  0
TEXT
  8
_0-7_枠細線
 62
    5
 10
1079.75
 20
341.80454176804585
 40
15
 41
0.5666666666666667
 50
0
  1
ＧＲＳＪ－２０Ｗ２５１－Ｓ
  0
TEXT
  8
_0-7_枠細線
 62
    5
 10
1079.75
 20
316.80454176804574
 40
15
 41
0.5666666666666667
 50
0
  1
ＧＲＳＪ－２０Ｗ２５１－Ｐ
  0
TEXT
  8
_0-7_枠細線
 62
    5
 10
1079.75
 20
291.80454176804574
 40
15
 41
0.5666666666666667
 50
0
  1
ＧＲＳＪ－２０Ｗ２５１－Ａ
  0
TEXT
  8
_0-7_枠細線
 62
    5
 10
1079.75
 20
266.80454176804579
 40
15
 41
0.5666666666666667
 50
0
  1
ＧＲＳＪ－２０Ｗ２５１－Ｄ
  0
TEXT
  8
_0-7_枠細線
 62
    5
 10
1079.75
 20
241.80454176804571
 40
15
 41
0.5666666666666667
 50
0
  1
ＧＲＳＪ－２０Ｗ２５１－Ｍ
  0
TEXT
  8
_0-7_枠細線
 62
    5
 10
1226.4999999999998
 20
241.80454176804571
 40
15
 41
0.5999999999999999
 50
0
  1
ウッド
  0
LINE
  8
_0-7_枠細線
  6
CONTINUOUS
 62
    5
 10
1074.9999999999995
 20
186.80454176804531
 11
1374.9999999999998
 21
186.80454176804531
  0
TEXT
  8
_0-7_枠細線
 62
    5
 10
1222.0000000000005
 20
191.80454176804545
 40
15
 41
0.5999999999999999
 50
0
  1
ブラック
  0
TEXT
  8
_0-7_枠細線
 62
    5
 10
1079.75
 20
191.80454176804545
 40
15
 41
0.5666666666666667
 50
0
  1
ＧＲＳＪ－２０Ｗ２５１－Ｋ
  0
LINE
  8
_0-7_枠細線
  6
CONTINUOUS
 62
    5
 10
1195
 20
436.80454176804568
 11
1195
 21
186.80454176804523
  0
LINE
  8
_0-7_枠細線
  6
CONTINUOUS
 62
    5
 10
1284.9999999999998
 20
436.80454176804568
 11
1284.9999999999998
 21
186.80454176804523
  0
LINE
  8
_0-7_枠細線
  6
CONTINUOUS
 62
    5
 10
1374.9999999999998
 20
436.80454176804568
 11
1374.9999999999998
 21
186.80454176804523
  0
LINE
  8
_0-7_枠細線
  6
CONTINUOUS
 62
    5
 10
1074.9999999999995
 20
436.80454176804568
 11
1074.9999999999995
 21
186.80454176804523
  0
TEXT
  8
_0-7_枠細線
 62
    5
 10
1079.7499999999998
 20
216.80454176804574
 40
15
 41
0.5666666666666667
 50
0
  1
ＧＲＳＪ－２０Ｗ２５１－Ｃ
  0
TEXT
  8
_0-7_枠細線
 62
    5
 10
1222
 20
216.80454176804574
 40
15
 41
0.5999999999999999
 50
0
  1
ブラウン
  0
LINE
  8
_0-7_枠細線
  6
CONTINUOUS
 62
    5
 10
1068.6456150812833
 20
217.7817369717809
 11
1061.1456150812833
 21
232.7817369717809
  0
LINE
  8
_0-7_枠細線
  6
CONTINUOUS
 62
    5
 10
1053.6456150812833
 20
217.7817369717809
 11
1068.6456150812833
 21
217.7817369717809
  0
LINE
  8
_0-7_枠細線
  6
CONTINUOUS
 62
    5
 10
1061.1456150812833
 20
232.7817369717809
 11
1053.6456150812833
 21
217.7817369717809
  0
TEXT
  8
_0-7_枠細線
 62
    5
 10
1056.0107663494314
 20
216.83291700693098
 40
12.5
 41
0.8
 50
0
  1
３
  0
ARC
  8
_0-b_細線3
  6
CONTINUOUS
 62
    7
 10
884.61045255387853
 20
271.50477272200925
 40
1.666666666666667
 50
89.999999999999915
 51
179.99999999999983
  0
ARC
  8
_0-b_細線3
  6
CONTINUOUS
 62
    7
 10
885.39036787275745
 20
274.83810605534273
 40
1.666666666666667
 50
269.99999999999977
 51
330.00000000000301
  0
ARC
  8
_0-b_細線3
  6
CONTINUOUS
 62
    7
 10
888.27711921870559
 20
273.17143938867622
 40
1.666666666666667
 50
89.999999999999915
 51
150.00000000000134
  0
LINE
  8
_0-b_細線3
  6
CONTINUOUS
 62
    7
 10
884.61045255387853
 20
273.17143938867622
 11
885.39036787275745
 21
273.17143938867622
  0
ARC
  8
_0-b_細線3
  6
CONTINUOUS
 62
    7
 10
900.27711921686659
 20
271.50477272200925
 40
1.666666666666667
 50
0
 51
89.999999999999915
  0
ARC
  8
_0-b_細線3
  6
CONTINUOUS
 62
    7
 10
899.49720389798722
 20
274.83810605534273
 40
1.666666666666667
 50
210.00000000000404
 51
269.99999999999977
  0
ARC
  8
_0-b_細線3
  6
CONTINUOUS
 62
    7
 10
896.61045255203919
 20
273.17143938867622
 40
1.666666666666667
 50
29.999999999990862
 51
89.999999999984354
  0
LINE
  8
_0-b_細線3
  6
CONTINUOUS
 62
    7
 10
900.27711921686659
 20
273.17143938867622
 11
899.49720389798722
 21
273.17143938867622
  0
ARC
  8
_0-b_細線3
  6
CONTINUOUS
 62
    7
 10
883.77711922054516
 20
269.17143938867628
 40
0.8333333333333334
 50
179.99999999999983
 51
269.99999999999977
  0
LINE
  8
_0-b_細線3
  6
CONTINUOUS
 62
    7
 10
882.94378588721156
 20
271.50477272200925
 11
882.94378588721156
 21
269.17143938867628
  0
ARC
  8
_0-b_細線3
  6
CONTINUOUS
 62
    7
 10
901.11045255019974
 20
269.17143938867628
 40
0.8333333333333334
 50
269.99999999999977
 51
359.99999999999966
  0
LINE
  8
_0-b_細線3
  6
CONTINUOUS
 62
    7
 10
901.94378588353311
 20
271.50477272200925
 11
901.94378588353311
 21
269.17143938867628
  0
ARC
  8
_0-b_細線3
  6
CONTINUOUS
 62
    7
 10
887.94378588721156
 20
266.67143938867628
 40
1.666666666666667
 50
0
 51
89.999999999999915
  0
LINE
  8
_0-b_細線3
  6
CONTINUOUS
 62
    7
 10
887.94378588721156
 20
268.33810605534273
 11
883.77711922054516
 21
268.33810605534273
  0
ARC
  8
_0-b_細線3
  6
CONTINUOUS
 62
    7
 10
896.94378588721202
 20
266.67143938867628
 40
1.666666666666667
 50
89.999999999999915
 51
179.99999999999983
  0
LINE
  8
_0-b_細線3
  6
CONTINUOUS
 62
    7
 10
896.94378588353311
 20
268.33810605534273
 11
901.11045255019974
 21
268.33810605534273
  0
LINE
  8
_0-b_細線3
  6
CONTINUOUS
 62
    7
 10
896.61045255203919
 20
274.83810605534273
 11
888.27711921870559
 21
274.83810605534273
  0
LINE
  8
_0-b_細線3
  6
CONTINUOUS
 62
    7
 10
889.61045255203908
 20
241.50477272200928
 11
889.61045255387853
 21
266.67143938867628
  0
LINE
  8
_0-b_細線3
  6
CONTINUOUS
 62
    7
 10
895.27711921870559
 20
241.50477272200928
 11
895.2771192205455
 21
266.67143938867628
  0
LINE
  8
_0-b_細線3
  6
CONTINUOUS
 62
    7
 10
895.27711921870559
 20
241.50477272200928
 11
889.61045255203908
 21
241.50477272200928
  0
ARC
  8
_0-b_細線3
  6
CONTINUOUS
 62
    7
 10
913.61045255448164
 20
271.50477272200925
 40
1.666666666666667
 50
89.999999999999915
 51
179.99999999999983
  0
ARC
  8
_0-b_細線3
  6
CONTINUOUS
 62
    7
 10
914.39036787336045
 20
274.83810605534273
 40
1.666666666666667
 50
269.99999999999977
 51
329.99999999999523
  0
ARC
  8
_0-b_細線3
  6
CONTINUOUS
 62
    7
 10
917.27711921930859
 20
273.17143938867622
 40
1.666666666666667
 50
89.999999999999915
 51
150.00000000000915
  0
LINE
  8
_0-b_細線3
  6
CONTINUOUS
 62
    7
 10
913.61045255448164
 20
273.17143938867622
 11
914.39036787336045
 21
273.17143938867622
  0
ARC
  8
_0-b_細線3
  6
CONTINUOUS
 62
    7
 10
929.27711921746959
 20
271.50477272200925
 40
1.666666666666667
 50
0
 51
89.999999999999915
  0
ARC
  8
_0-b_細線3
  6
CONTINUOUS
 62
    7
 10
928.49720389859033
 20
274.83810605534273
 40
1.666666666666667
 50
209.99999999999622
 51
269.99999999999977
  0
ARC
  8
_0-b_細線3
  6
CONTINUOUS
 62
    7
 10
925.61045255264219
 20
273.17143938867622
 40
1.666666666666667
 50
29.999999999998682
 51
89.999999999999915
  0
LINE
  8
_0-b_細線3
  6
CONTINUOUS
 62
    7
 10
929.27711921746959
 20
273.17143938867622
 11
928.49720389859033
 21
273.17143938867622
  0
ARC
  8
_0-b_細線3
  6
CONTINUOUS
 62
    7
 10
912.77711922114861
 20
269.17143938867628
 40
0.8333333333333334
 50
179.99999999999983
 51
269.99999999999977
  0
LINE
  8
_0-b_細線3
  6
CONTINUOUS
 62
    7
 10
911.94378588781456
 20
271.50477272200925
 11
911.94378588781456
 21
269.17143938867628
  0
ARC
  8
_0-b_細線3
  6
CONTINUOUS
 62
    7
 10
930.11045255080262
 20
269.17143938867628
 40
0.8333333333333334
 50
269.99999999999977
 51
359.99999999999966
  0
LINE
  8
_0-b_細線3
  6
CONTINUOUS
 62
    7
 10
930.94378588413622
 20
271.50477272200925
 11
930.94378588413622
 21
269.17143938867628
  0
ARC
  8
_0-b_細線3
  6
CONTINUOUS
 62
    7
 10
916.94378588781456
 20
266.67143938867628
 40
1.666666666666667
 50
0
 51
89.999999999999915
  0
LINE
  8
_0-b_細線3
  6
CONTINUOUS
 62
    7
 10
916.94378588781456
 20
268.33810605534273
 11
912.77711922114861
 21
268.33810605534273
  0
ARC
  8
_0-b_細線3
  6
CONTINUOUS
 62
    7
 10
925.94378588781512
 20
266.67143938867628
 40
1.666666666666667
 50
89.999999999999915
 51
179.99999999999983
  0
LINE
  8
_0-b_細線3
  6
CONTINUOUS
 62
    7
 10
925.94378588413622
 20
268.33810605534273
 11
930.11045255080262
 21
268.33810605534273
  0
LINE
  8
_0-b_細線3
  6
CONTINUOUS
 62
    7
 10
925.61045255264219
 20
274.83810605534273
 11
917.27711921930859
 21
274.83810605534273
  0
LINE
  8
_0-b_細線3
  6
CONTINUOUS
 62
    7
 10
918.61045255264219
 20
241.50477272200928
 11
918.61045255448164
 21
266.67143938867628
  0
LINE
  8
_0-b_細線3
  6
CONTINUOUS
 62
    7
 10
924.27711921930859
 20
241.50477272200928
 11
924.2771192211485
 21
266.67143938867628
  0
LINE
  8
_0-b_細線3
  6
CONTINUOUS
 62
    7
 10
924.27711921930859
 20
241.50477272200928
 11
918.61045255264219
 21
241.50477272200928
  0
ARC
  8
_0-b_細線3
  6
CONTINUOUS
 62
    7
 10
942.61045255508463
 20
271.50477272200925
 40
1.666666666666667
 50
89.999999999999915
 51
179.99999999999983
  0
ARC
  8
_0-b_細線3
  6
CONTINUOUS
 62
    7
 10
943.39036787396356
 20
274.83810605534273
 40
1.666666666666667
 50
269.99999999999977
 51
329.99999999999523
  0
ARC
  8
_0-b_細線3
  6
CONTINUOUS
 62
    7
 10
946.27711921991158
 20
273.17143938867622
 40
1.666666666666667
 50
89.999999999999915
 51
150.00000000000915
  0
LINE
  8
_0-b_細線3
  6
CONTINUOUS
 62
    7
 10
942.61045255508463
 20
273.17143938867622
 11
943.39036787396356
 21
273.17143938867622
  0
ARC
  8
_0-b_細線3
  6
CONTINUOUS
 62
    7
 10
958.27711921807258
 20
271.50477272200925
 40
1.666666666666667
 50
0
 51
89.999999999999915
  0
ARC
  8
_0-b_細線3
  6
CONTINUOUS
 62
    7
 10
957.49720389919332
 20
274.83810605534273
 40
1.666666666666667
 50
210.00000000000404
 51
269.99999999999977
  0
ARC
  8
_0-b_細線3
  6
CONTINUOUS
 62
    7
 10
954.61045255324507
 20
273.17143938867622
 40
1.666666666666667
 50
29.999999999990862
 51
89.999999999984354
  0
LINE
  8
_0-b_細線3
  6
CONTINUOUS
 62
    7
 10
958.27711921807258
 20
273.17143938867622
 11
957.49720389919332
 21
273.17143938867622
  0
ARC
  8
_0-b_細線3
  6
CONTINUOUS
 62
    7
 10
941.77711922175104
 20
269.17143938867628
 40
0.8333333333333334
 50
179.99999999999983
 51
269.99999999999977
  0
LINE
  8
_0-b_細線3
  6
CONTINUOUS
 62
    7
 10
940.94378588841766
 20
271.50477272200925
 11
940.94378588841766
 21
269.17143938867628
  0
ARC
  8
_0-b_細線3
  6
CONTINUOUS
 62
    7
 10
959.11045255140561
 20
269.17143938867628
 40
0.8333333333333334
 50
269.99999999999977
 51
359.99999999999966
  0
LINE
  8
_0-b_細線3
  6
CONTINUOUS
 62
    7
 10
959.94378588473921
 20
271.50477272200925
 11
959.94378588473921
 21
269.17143938867628
  0
ARC
  8
_0-b_細線3
  6
CONTINUOUS
 62
    7
 10
945.94378588841766
 20
266.67143938867628
 40
1.666666666666667
 50
0
 51
89.999999999999915
  0
LINE
  8
_0-b_細線3
  6
CONTINUOUS
 62
    7
 10
945.94378588841766
 20
268.33810605534273
 11
941.77711922175104
 21
268.33810605534273
  0
ARC
  8
_0-b_細線3
  6
CONTINUOUS
 62
    7
 10
954.94378588841755
 20
266.67143938867628
 40
1.666666666666667
 50
89.999999999999915
 51
179.99999999999983
  0
LINE
  8
_0-b_細線3
  6
CONTINUOUS
 62
    7
 10
954.94378588473865
 20
268.33810605534273
 11
959.11045255140561
 21
268.33810605534273
  0
LINE
  8
_0-b_細線3
  6
CONTINUOUS
 62
    7
 10
954.61045255324507
 20
274.83810605534273
 11
946.27711921991158
 21
274.83810605534273
  0
LINE
  8
_0-b_細線3
  6
CONTINUOUS
 62
    7
 10
947.61045255324518
 20
241.50477272200928
 11
947.61045255508463
 21
266.67143938867628
  0
LINE
  8
_0-b_細線3
  6
CONTINUOUS
 62
    7
 10
953.2771192199117
 20
241.50477272200928
 11
953.27711922175149
 21
266.67143938867628
  0
LINE
  8
_0-b_細線3
  6
CONTINUOUS
 62
    7
 10
953.2771192199117
 20
241.50477272200928
 11
947.61045255324518
 21
241.50477272200928
  0
LINE
  8
_0-d_寸法3
  6
CONTINUOUS
 62
    7
 10
892.44378588537256
 20
284.83810605534273
 11
892.44378588537256
 21
326.50477272200925
  0
LINE
  8
_0-d_寸法3
  6
CONTINUOUS
 62
    7
 10
892.44378588537256
 20
321.50477272200925
 11
902.10304414826339
 21
324.09296317303443
  0
LINE
  8
_0-d_寸法3
  6
CONTINUOUS
 62
    7
 10
892.44378588537256
 20
321.50477272200925
 11
902.10304414826339
 21
318.91658227098407
  0
LINE
  8
_0-d_寸法3
  6
CONTINUOUS
 62
    7
 10
921.44378588597556
 20
284.83810605534273
 11
921.44378588597556
 21
326.50477272200925
  0
LINE
  8
_0-d_寸法3
  6
CONTINUOUS
 62
    7
 10
921.44378588597556
 20
321.50477272200925
 11
911.78452762308495
 21
318.91658227098407
  0
LINE
  8
_0-d_寸法3
  6
CONTINUOUS
 62
    7
 10
921.44378588597556
 20
321.50477272200925
 11
911.78452762308495
 21
324.09296317303449
  0
LINE
  8
_0-d_寸法3
  6
CONTINUOUS
 62
    7
 10
892.44378588537256
 20
321.50477272200925
 11
921.44378588597556
 21
321.50477272200925
  0
TEXT
  8
_0-d_寸法3
 62
    7
 10
880.89760797573138
 20
306.50477272200925
 40
15
 41
1
 50
0
  1
(17.4)
  0
LINE
  8
_0-d_寸法3
  6
CONTINUOUS
 62
    7
 10
921.44378588597556
 20
321.50477272200925
 11
931.10304414886627
 21
324.09296317303438
  0
LINE
  8
_0-d_寸法3
  6
CONTINUOUS
 62
    7
 10
921.44378588597556
 20
321.50477272200925
 11
931.10304414886627
 21
318.91658227098401
  0
LINE
  8
_0-d_寸法3
  6
CONTINUOUS
 62
    7
 10
950.44378588657867
 20
284.83810605534273
 11
950.44378588657867
 21
326.50477272200925
  0
LINE
  8
_0-d_寸法3
  6
CONTINUOUS
 62
    7
 10
950.44378588657867
 20
321.50477272200925
 11
940.78452762368784
 21
318.91658227098407
  0
LINE
  8
_0-d_寸法3
  6
CONTINUOUS
 62
    7
 10
950.44378588657867
 20
321.50477272200925
 11
940.78452762368784
 21
324.09296317303449
  0
LINE
  8
_0-d_寸法3
  6
CONTINUOUS
 62
    7
 10
921.44378588597556
 20
321.50477272200925
 11
950.44378588657867
 21
321.50477272200925
  0
TEXT
  8
_0-d_寸法3
 62
    7
 10
917.96427464239798
 20
321.50477272200925
 40
15
 41
1
 50
0
  1
(17.4)
  0
ARC
  8
_0-b_細線3
  6
CONTINUOUS
 62
    7
 10
826.61045255235558
 20
271.50477272200925
 40
1.666666666666667
 50
89.999999999999915
 51
179.99999999999983
  0
ARC
  8
_0-b_細線3
  6
CONTINUOUS
 62
    7
 10
827.3903678712345
 20
274.83810605534273
 40
1.666666666666667
 50
269.99999999999977
 51
330.00000000000301
  0
ARC
  8
_0-b_細線3
  6
CONTINUOUS
 62
    7
 10
830.27711921718264
 20
273.17143938867622
 40
1.666666666666667
 50
89.999999999999915
 51
150.00000000000134
  0
LINE
  8
_0-b_細線3
  6
CONTINUOUS
 62
    7
 10
826.61045255235558
 20
273.17143938867622
 11
827.3903678712345
 21
273.17143938867622
  0
ARC
  8
_0-b_細線3
  6
CONTINUOUS
 62
    7
 10
842.27711921534365
 20
271.50477272200925
 40
1.666666666666667
 50
0
 51
89.999999999999915
  0
ARC
  8
_0-b_細線3
  6
CONTINUOUS
 62
    7
 10
841.49720389646473
 20
274.83810605534273
 40
1.666666666666667
 50
209.99999999999622
 51
269.99999999999977
  0
ARC
  8
_0-b_細線3
  6
CONTINUOUS
 62
    7
 10
838.61045255051624
 20
273.17143938867622
 40
1.666666666666667
 50
29.999999999990862
 51
89.999999999984354
  0
LINE
  8
_0-b_細線3
  6
CONTINUOUS
 62
    7
 10
842.27711921534365
 20
273.17143938867622
 11
841.49720389646473
 21
273.17143938867622
  0
ARC
  8
_0-b_細線3
  6
CONTINUOUS
 62
    7
 10
825.77711921902267
 20
269.17143938867628
 40
0.8333333333333334
 50
179.99999999999983
 51
269.99999999999977
  0
LINE
  8
_0-b_細線3
  6
CONTINUOUS
 62
    7
 10
824.94378588568861
 20
271.50477272200925
 11
824.94378588568861
 21
269.17143938867628
  0
ARC
  8
_0-b_細線3
  6
CONTINUOUS
 62
    7
 10
843.11045254867679
 20
269.17143938867628
 40
0.8333333333333334
 50
269.99999999999977
 51
359.99999999999966
  0
LINE
  8
_0-b_細線3
  6
CONTINUOUS
 62
    7
 10
843.94378588201062
 20
271.50477272200925
 11
843.94378588201062
 21
269.17143938867628
  0
ARC
  8
_0-b_細線3
  6
CONTINUOUS
 62
    7
 10
829.94378588568861
 20
266.67143938867628
 40
1.666666666666667
 50
0
 51
89.999999999999915
  0
LINE
  8
_0-b_細線3
  6
CONTINUOUS
 62
    7
 10
829.94378588568861
 20
268.33810605534273
 11
825.77711921902267
 21
268.33810605534273
  0
ARC
  8
_0-b_細線3
  6
CONTINUOUS
 62
    7
 10
838.94378588568907
 20
266.67143938867628
 40
1.666666666666667
 50
89.999999999999915
 51
179.99999999999983
  0
LINE
  8
_0-b_細線3
  6
CONTINUOUS
 62
    7
 10
838.94378588201016
 20
268.33810605534273
 11
843.11045254867679
 21
268.33810605534273
  0
LINE
  8
_0-b_細線3
  6
CONTINUOUS
 62
    7
 10
838.61045255051624
 20
274.83810605534273
 11
830.27711921718264
 21
274.83810605534273
  0
LINE
  8
_0-b_細線3
  6
CONTINUOUS
 62
    7
 10
831.61045255051658
 20
241.50477272200928
 11
831.61045255235558
 21
266.67143938867628
  0
LINE
  8
_0-b_細線3
  6
CONTINUOUS
 62
    7
 10
837.27711921718264
 20
241.50477272200928
 11
837.27711921902255
 21
266.67143938867628
  0
LINE
  8
_0-b_細線3
  6
CONTINUOUS
 62
    7
 10
837.27711921718264
 20
241.50477272200928
 11
831.61045255051658
 21
241.50477272200928
  0
ARC
  8
_0-b_細線3
  6
CONTINUOUS
 62
    7
 10
855.61045255295869
 20
271.50477272200925
 40
1.666666666666667
 50
89.999999999999915
 51
179.99999999999983
  0
ARC
  8
_0-b_細線3
  6
CONTINUOUS
 62
    7
 10
856.39036787183795
 20
274.83810605534273
 40
1.666666666666667
 50
269.99999999999977
 51
329.99999999998744
  0
ARC
  8
_0-b_細線3
  6
CONTINUOUS
 62
    7
 10
859.27711921778564
 20
273.17143938867622
 40
1.666666666666667
 50
89.999999999999915
 51
150.00000000000915
  0
LINE
  8
_0-b_細線3
  6
CONTINUOUS
 62
    7
 10
855.61045255295869
 20
273.17143938867622
 11
856.39036787183795
 21
273.17143938867622
  0
ARC
  8
_0-b_細線3
  6
CONTINUOUS
 62
    7
 10
871.27711921594664
 20
271.50477272200925
 40
1.666666666666667
 50
0
 51
89.999999999999915
  0
ARC
  8
_0-b_細線3
  6
CONTINUOUS
 62
    7
 10
870.49720389706738
 20
274.83810605534273
 40
1.666666666666667
 50
210.00000000000404
 51
269.99999999999977
  0
ARC
  8
_0-b_細線3
  6
CONTINUOUS
 62
    7
 10
867.61045255111969
 20
273.17143938867622
 40
1.666666666666667
 50
29.999999999998682
 51
89.999999999999915
  0
LINE
  8
_0-b_細線3
  6
CONTINUOUS
 62
    7
 10
871.27711921594664
 20
273.17143938867622
 11
870.49720389706738
 21
273.17143938867622
  0
ARC
  8
_0-b_細線3
  6
CONTINUOUS
 62
    7
 10
854.77711921962566
 20
269.17143938867628
 40
0.8333333333333334
 50
179.99999999999983
 51
269.99999999999977
  0
LINE
  8
_0-b_細線3
  6
CONTINUOUS
 62
    7
 10
853.94378588629206
 20
271.50477272200925
 11
853.94378588629206
 21
269.17143938867628
  0
ARC
  8
_0-b_細線3
  6
CONTINUOUS
 62
    7
 10
872.11045254927967
 20
269.17143938867628
 40
0.8333333333333334
 50
269.99999999999977
 51
359.99999999999966
  0
LINE
  8
_0-b_細線3
  6
CONTINUOUS
 62
    7
 10
872.94378588261327
 20
271.50477272200925
 11
872.94378588261327
 21
269.17143938867628
  0
ARC
  8
_0-b_細線3
  6
CONTINUOUS
 62
    7
 10
858.94378588629206
 20
266.67143938867628
 40
1.666666666666667
 50
0
 51
89.999999999999915
  0
LINE
  8
_0-b_細線3
  6
CONTINUOUS
 62
    7
 10
858.94378588629206
 20
268.33810605534273
 11
854.77711921962566
 21
268.33810605534273
  0
ARC
  8
_0-b_細線3
  6
CONTINUOUS
 62
    7
 10
867.94378588629218
 20
266.67143938867628
 40
1.666666666666667
 50
89.999999999999915
 51
179.99999999999983
  0
LINE
  8
_0-b_細線3
  6
CONTINUOUS
 62
    7
 10
867.94378588261327
 20
268.33810605534273
 11
872.11045254927967
 21
268.33810605534273
  0
LINE
  8
_0-b_細線3
  6
CONTINUOUS
 62
    7
 10
867.61045255111969
 20
274.83810605534273
 11
859.27711921778564
 21
274.83810605534273
  0
LINE
  8
_0-b_細線3
  6
CONTINUOUS
 62
    7
 10
860.61045255111924
 20
241.50477272200928
 11
860.61045255295869
 21
266.67143938867628
  0
LINE
  8
_0-b_細線3
  6
CONTINUOUS
 62
    7
 10
866.27711921778609
 20
241.50477272200928
 11
866.27711921962555
 21
266.67143938867628
  0
LINE
  8
_0-b_細線3
  6
CONTINUOUS
 62
    7
 10
866.27711921778609
 20
241.50477272200928
 11
860.61045255111924
 21
241.50477272200928
  0
LINE
  8
_0-d_寸法3
  6
CONTINUOUS
 62
    7
 10
843.94378588201062
 20
281.50477272200925
 11
843.94378588201062
 21
326.50477272200925
  0
LINE
  8
_0-d_寸法3
  6
CONTINUOUS
 62
    7
 10
843.94378588201062
 20
321.50477272200925
 11
834.28452761912001
 21
318.91658227098407
  0
LINE
  8
_0-d_寸法3
  6
CONTINUOUS
 62
    7
 10
843.94378588201062
 20
321.50477272200925
 11
834.28452761912001
 21
324.09296317303449
  0
LINE
  8
_0-d_寸法3
  6
CONTINUOUS
 62
    7
 10
853.94378588629206
 20
281.50477272200925
 11
853.94378588629206
 21
326.50477272200925
  0
LINE
  8
_0-d_寸法3
  6
CONTINUOUS
 62
    7
 10
819.56983019884376
 20
321.50477272200925
 11
853.94378588629206
 21
321.50477272200925
  0
TEXT
  8
_0-d_寸法3
 62
    7
 10
819.56983019884376
 20
306.50477272200925
 40
15
 41
1
 50
0
  1
(6)
  0
LINE
  8
_0-d_寸法3
  6
CONTINUOUS
 62
    7
 10
853.94378588629206
 20
321.50477272200925
 11
863.60304414918289
 21
324.09296317303443
  0
LINE
  8
_0-d_寸法3
  6
CONTINUOUS
 62
    7
 10
853.94378588629206
 20
321.50477272200925
 11
863.60304414918289
 21
318.91658227098407
  0
LINE
  8
_0-d_寸法3
  6
CONTINUOUS
 62
    7
 10
872.94378588261327
 20
281.50477272200925
 11
872.94378588261327
 21
326.50477272200925
  0
LINE
  8
_0-d_寸法3
  6
CONTINUOUS
 62
    7
 10
872.94378588261327
 20
321.50477272200925
 11
863.28452761972244
 21
318.91658227098407
  0
LINE
  8
_0-d_寸法3
  6
CONTINUOUS
 62
    7
 10
872.94378588261327
 20
321.50477272200925
 11
863.28452761972244
 21
324.09296317303449
  0
LINE
  8
_0-d_寸法3
  6
CONTINUOUS
 62
    7
 10
853.94378588629206
 20
321.50477272200925
 11
872.94378588261327
 21
321.50477272200925
  0
TEXT
  8
_0-d_寸法3
 62
    7
 10
844.67908945810279
 20
321.50477272200925
 40
15
 41
1
 50
0
  1
11.4
  0
ARC
  8
_0-a_極細3
  6
CONTINUOUS
 62
    7
 10
981.27318921110884
 20
263.32482356365773
 40
17.558839598481345
 50
150.03871396148165
 51
205.23810402387883
  0
ARC
  8
_0-a_極細3
  6
CONTINUOUS
 62
    7
 10
949.50771402121063
 20
248.35131435102707
 40
17.558839598481345
 50
330.03871396148202
 51
25.238104023878222
  0
ARC
  8
_0-a_極細3
  6
CONTINUOUS
 62
    7
 10
836.35337377277494
 20
263.32482356365773
 40
17.558839598481345
 50
150.03871396148165
 51
205.23810402387883
  0
ARC
  8
_0-a_極細3
  6
CONTINUOUS
 62
    7
 10
804.58789858287673
 20
248.35131435102707
 40
17.558839598481345
 50
330.03871396148202
 51
25.238104023878222
  0
LINE
  8
_0-a_極細3
  6
CENTER1
 62
    7
 10
971.24255287566848
 20
255.83806895734261
 11
808.66401024774279
 21
255.83806895734261
  0
LINE
  8
_0-d_寸法3
  6
CONTINUOUS
 62
    7
 10
958.6353063297845
 20
247.24053708551975
 11
993.98764805547
 21
271.99451325521056
  0
LINE
  8
_0-d_寸法3
  6
CONTINUOUS
 62
    7
 10
989.89188783402506
 20
269.12663107345526
 11
987.30369738299999
 21
278.78588933634592
  0
LINE
  8
_0-d_寸法3
  6
CONTINUOUS
 62
    7
 10
989.89188783402506
 20
269.12663107345526
 11
992.48007828505024
 21
278.78588933634592
  0
LINE
  8
_0-d_寸法3
  6
CONTINUOUS
 62
    7
 10
958.6353063297845
 20
280.57387041885323
 11
993.98764805547
 21
305.32784658854399
  0
LINE
  8
_0-d_寸法3
  6
CONTINUOUS
 62
    7
 10
989.89188783402506
 20
302.45996440678874
 11
992.48007828505024
 21
292.80070614389803
  0
LINE
  8
_0-d_寸法3
  6
CONTINUOUS
 62
    7
 10
989.89188783402506
 20
302.45996440678874
 11
987.30369738299987
 21
292.80070614389808
  0
LINE
  8
_0-d_寸法3
  6
CONTINUOUS
 62
    7
 10
989.89188783402506
 20
269.12663107345526
 11
989.89188783402506
 21
302.45996440678874
  0
TEXT
  8
_0-d_寸法3
 62
    7
 10
989.89188783402506
 20
278.29329774012268
 40
15
 41
1
 50
90
  1
20
  0
LINE
  8
_0-b_細線3
  6
CONTINUOUS
 62
    7
 10
895.27711921962566
 20
245.00473562400958
 11
918.61045255295903
 21
245.00473562400958
  0
LINE
  8
_0-b_細線3
  6
CONTINUOUS
 62
    7
 10
924.27711922022866
 20
245.00473562400958
 11
947.61045255356203
 21
245.00473562400958
  0
LINE
  8
_0-b_細線3
  6
CONTINUOUS
 62
    7
 10
837.27711921810271
 20
245.00473562400958
 11
860.61045255143608
 21
245.00473562400958
  0
LINE
  8
_0-b_細線3
  6
CONTINUOUS
 62
    7
 10
866.27711921870616
 20
245.00473562400958
 11
889.61045255203908
 21
245.00473562400958
  0
LINE
  8
_0-b_細線3
  6
CONTINUOUS
 62
    7
 10
895.27711921962566
 20
266.67140229067616
 11
918.61045255295903
 21
266.67140229067616
  0
LINE
  8
_0-b_細線3
  6
CONTINUOUS
 62
    7
 10
924.27711922022866
 20
266.67140229067616
 11
947.61045255356203
 21
266.67140229067616
  0
LINE
  8
_0-b_細線3
  6
CONTINUOUS
 62
    7
 10
837.27711921810271
 20
266.67140229067616
 11
860.61045255143608
 21
266.67140229067616
  0
LINE
  8
_0-b_細線3
  6
CONTINUOUS
 62
    7
 10
866.27711921870616
 20
266.67140229067616
 11
889.61045255203908
 21
266.67140229067616
  0
LINE
  8
_0-b_細線3
  6
CONTINUOUS
 62
    7
 10
953.27711922083154
 20
266.67140229067616
 11
964.03621561163163
 21
266.67140229067616
  0
LINE
  8
_0-b_細線3
  6
CONTINUOUS
 62
    7
 10
953.27711922083154
 20
245.00473562400958
 11
966.74468762068784
 21
245.00473562400958
  0
LINE
  8
_0-b_細線3
  6
CONTINUOUS
 62
    7
 10
819.11640017329773
 20
266.67140229067616
 11
831.61045255083309
 21
266.67140229067616
  0
LINE
  8
_0-b_細線3
  6
CONTINUOUS
 62
    7
 10
821.82487218235394
 20
245.00473562400958
 11
831.61045255083309
 21
245.00473562400958
  0
TEXT
  8
_0-7_枠細線
 62
    5
 10
846.95974537681195
 20
201.19429108728332
 40
25
 41
0.8
 50
0
  1
側面詳細図
  0
TEXT
  8
_0-7_枠細線
 62
    5
 10
961.90871512598005
 20
201.19429108728332
 40
20
 41
0.6
 50
0
  1
Ｓ＝１：３
  0
LINE
  8
_0-7_枠細線
  6
CONTINUOUS
 62
    5
 10
785.16995454985135
 20
356.80454176804568
 11
785.16995454985135
 21
436.80454176804568
  0
TEXT
  8
_0-7_枠細線
 62
    5
 10
807.66995454985135
 20
414.30454176804568
 40
15
 41
1
 50
0
  1
耐荷重
  0
TEXT
  8
_0-7_枠細線
 62
    5
 10
800.16995454985135
 20
384.30454176804568
 40
15
 41
1
 50
0
  1
3.5kN/㎡
  0
TEXT
  8
_0-7_枠細線
 62
    5
 10
792.66995454985135
 20
364.30454176804568
 40
15
 41
1
 50
0
  1
（歩道用）
  0
LINE
  8
_0-7_枠細線
  6
CONTINUOUS
 62
    5
 10
875.16995454985135
 20
356.80454176804568
 11
875.16995454985135
 21
436.80454176804568
  0
TEXT
  8
_0-7_枠細線
 62
    5
 10
897.66995454985135
 20
414.30454176804568
 40
15
 41
1
 50
0
  1
蓋重量
  0
LINE
  8
_0-7_枠細線
  6
CONTINUOUS
 62
    5
 10
965.16995454985135
 20
356.80454176804568
 11
965.16995454985135
 21
436.80454176804568
  0
TEXT
  8
_0-7_枠細線
 62
    5
 10
987.66995454985135
 20
414.30454176804568
 40
15
 41
1
 50
0
  1
枠重量
  0
LINE
  8
_0-7_枠細線
  6
CONTINUOUS
 62
    5
 10
785.16995454985135
 20
406.80454176804568
 11
1055.1699545498514
 21
406.80454176804568
  0
LINE
  8
_0-7_枠細線
  6
CONTINUOUS
 62
    5
 10
785.16995454985135
 20
436.80454176804568
 11
1055.1699545498514
 21
436.80454176804568
  0
LINE
  8
_0-7_枠細線
  6
CONTINUOUS
 62
    5
 10
785.16995454985135
 20
356.80454176804568
 11
1055.1699545498514
 21
356.80454176804568
  0
LINE
  8
_0-7_枠細線
  6
CONTINUOUS
 62
    5
 10
1055.1699545498514
 20
356.80454176804568
 11
1055.1699545498514
 21
436.80454176804568
  0
TEXT
  8
_0-7_枠細線
 62
    5
 10
980.16995454985135
 20
375.55454176804568
 40
15
 41
0.8000000000000001
 50
0
  1
2.4kg/ｍ組
  0
TEXT
  8
_0-7_枠細線
 62
    5
 10
938.85037037037023
 20
857.5
 40
12.5
 41
1
 50
0
  1
アンカー材質･厚み変更
  0
LINE
  8
_0-5_寸法線
  6
CONTINUOUS
 62
    7
 10
1260.6632812499952
 20
526.4588492408875
 11
1305.6632812499968
 21
526.45884924088739
  0
LINE
  8
_0-5_寸法線
  6
CONTINUOUS
 62
    7
 10
1300.6632812499968
 20
526.45884924088739
 11
1303.2514717010222
 21
516.79959097799667
  0
LINE
  8
_0-5_寸法線
  6
CONTINUOUS
 62
    7
 10
1300.6632812499968
 20
526.45884924088739
 11
1298.0750907989716
 21
516.79959097799667
  0
LINE
  8
_0-5_寸法線
  6
CONTINUOUS
 62
    7
 10
1260.6632812499954
 20
529.4588492408875
 11
1305.6632812499968
 21
529.4588492408875
  0
CIRCLE
  8
_0-5_寸法線
  6
CONTINUOUS
 62
    1
 10
1300.6632812499968
 20
529.4588492408875
 40
1.5000000000000002
  0
LINE
  8
_0-5_寸法線
  6
CONTINUOUS
 62
    7
 10
1300.6632812499968
 20
501.45884924088739
 11
1300.6632812499968
 21
529.4588492408875
  0
TEXT
  8
_0-5_寸法線
 62
    7
 10
1300.6632812499922
 20
506.60950734722019
 40
15
 41
1
 50
90
  1
3
  0
LINE
  8
_0-5_寸法線
  6
CONTINUOUS
 62
    7
 10
1260.6632812499954
 20
530.9588492408875
 11
1305.6632812499968
 21
530.95884924088739
  0
LINE
  8
_0-5_寸法線
  6
CONTINUOUS
 62
    7
 10
1300.6632812499968
 20
529.4588492408875
 11
1300.6632812499968
 21
530.95884924088739
  0
TEXT
  8
_0-5_寸法線
 62
    7
 10
1321.6319327210224
 20
529.95755714096947
 40
15
 41
1
 50
90
  1
1.5
  0
LINE
  8
_0-5_寸法線
  6
CONTINUOUS
 62
    7
 10
1300.6632812499968
 20
530.95884924088739
 11
1298.0750907989716
 21
540.61810750377822
  0
LINE
  8
_0-5_寸法線
  6
CONTINUOUS
 62
    7
 10
1300.6632812499968
 20
530.95884924088739
 11
1303.2514717010222
 21
540.61810750377822
  0
LINE
  8
_0-5_寸法線
  6
CONTINUOUS
 62
    7
 10
1260.6632812499954
 20
781.95884924088614
 11
1305.6632812499968
 21
781.95884924088602
  0
LINE
  8
_0-5_寸法線
  6
CONTINUOUS
 62
    7
 10
1300.6632812499968
 20
781.95884924088602
 11
1303.2514717010222
 21
772.29959097799542
  0
LINE
  8
_0-5_寸法線
  6
CONTINUOUS
 62
    7
 10
1300.6632812499968
 20
781.95884924088602
 11
1298.0750907989716
 21
772.29959097799542
  0
LINE
  8
_0-5_寸法線
  6
CONTINUOUS
 62
    7
 10
1300.6632812499968
 20
530.95884924088739
 11
1300.6632812499968
 21
781.95884924088602
  0
TEXT
  8
_0-5_寸法線
 62
    7
 10
1300.6632812499968
 20
645.20884924088693
 40
15
 41
1
 50
90
  1
251
  0
LINE
  8
_0-5_寸法線
  6
CONTINUOUS
 62
    7
 10
1260.6632812499954
 20
783.45884924088614
 11
1305.6632812499968
 21
783.45884924088591
  0
CIRCLE
  8
_0-5_寸法線
  6
CONTINUOUS
 62
    1
 10
1300.6632812499968
 20
783.45884924088591
 40
1.5000000000000002
  0
LINE
  8
_0-5_寸法線
  6
CONTINUOUS
 62
    7
 10
1300.6632812499968
 20
781.95884924088602
 11
1300.6632812499968
 21
783.45884924088591
  0
TEXT
  8
_0-5_寸法線
 62
    7
 10
1321.3793185002485
 20
760.44448481378583
 40
15
 41
1
 50
90
  1
1.5
  0
LINE
  8
_0-5_寸法線
  6
CONTINUOUS
 62
    7
 10
1260.6632812499968
 20
786.45884924088989
 11
1305.6632812499968
 21
786.45884924088978
  0
LINE
  8
_0-5_寸法線
  6
CONTINUOUS
 62
    7
 10
1300.6632812499968
 20
786.45884924088978
 11
1298.0750907989716
 21
796.11810750378038
  0
LINE
  8
_0-5_寸法線
  6
CONTINUOUS
 62
    7
 10
1300.6632812499968
 20
786.45884924088978
 11
1303.2514717010222
 21
796.11810750378038
  0
LINE
  8
_0-5_寸法線
  6
CONTINUOUS
 62
    7
 10
1300.6632812499968
 20
783.45884924088591
 11
1300.6632812499968
 21
811.45884924088978
  0
TEXT
  8
_0-5_寸法線
 62
    7
 10
1300.6632812499922
 20
799.84066954389903
 40
15
 41
1
 50
90
  1
3
  0
LINE
  8
_0-d_寸法3
  6
CONTINUOUS
 62
    7
 10
230.13425318650201
 20
328.26245819900856
 11
230.13425318650192
 21
393.26245653066422
  0
LINE
  8
_0-d_寸法3
  6
CONTINUOUS
 62
    7
 10
230.13425318650192
 20
388.26245653066422
 11
220.47499492361126
 21
385.67426607963904
  0
LINE
  8
_0-d_寸法3
  6
CONTINUOUS
 62
    7
 10
230.13425318650192
 20
388.26245653066422
 11
220.47499492361126
 21
390.85064698168941
  0
LINE
  8
_0-d_寸法3
  6
CONTINUOUS
 62
    7
 10
235.13425318650201
 20
327.42912486567457
 11
235.13425318650192
 21
393.26245653066422
  0
CIRCLE
  8
_0-d_寸法3
  6
CONTINUOUS
 62
    1
 10
235.13425318650192
 20
388.26245653066422
 40
1.5000000000000002
  0
LINE
  8
_0-d_寸法3
  6
CONTINUOUS
 62
    7
 10
205.13425318650192
 20
388.26245653066422
 11
235.13425318650192
 21
388.26245653066422
  0
TEXT
  8
_0-d_寸法3
 62
    7
 10
207.82379475084502
 20
388.26245653066422
 40
15
 41
1
 50
0
  1
3
  0
LINE
  8
_0-d_寸法3
  6
CONTINUOUS
 62
    7
 10
237.63425318650201
 20
328.2624581990076
 11
237.63425318650192
 21
393.26245653066422
  0
LINE
  8
_0-d_寸法3
  6
CONTINUOUS
 62
    7
 10
235.13425318650192
 20
388.26245653066422
 11
237.63425318650192
 21
388.26245653066422
  0
TEXT
  8
_0-d_寸法3
 62
    7
 10
241.08188207584988
 20
369.19711493763538
 40
15
 41
1
 50
0
  1
1.5
  0
LINE
  8
_0-d_寸法3
  6
CONTINUOUS
 62
    7
 10
237.63425318650192
 20
388.26245653066422
 11
247.29351144939267
 21
390.85064698168935
  0
LINE
  8
_0-d_寸法3
  6
CONTINUOUS
 62
    7
 10
237.63425318650192
 20
388.26245653066422
 11
247.29351144939267
 21
385.67426607963904
  0
LINE
  8
_0-d_寸法3
  6
CONTINUOUS
 62
    7
 10
655.96758651983407
 20
328.2624581990076
 11
655.96758651983407
 21
393.26245653066422
  0
LINE
  8
_0-d_寸法3
  6
CONTINUOUS
 62
    7
 10
655.96758651983407
 20
388.26245653066422
 11
646.30832825694347
 21
385.67426607963904
  0
LINE
  8
_0-d_寸法3
  6
CONTINUOUS
 62
    7
 10
655.96758651983407
 20
388.26245653066422
 11
646.30832825694347
 21
390.85064698168941
  0
LINE
  8
_0-d_寸法3
  6
CONTINUOUS
 62
    7
 10
237.63425318650192
 20
388.26245653066422
 11
655.96758651983407
 21
388.26245653066422
  0
TEXT
  8
_0-d_寸法3
 62
    7
 10
435.55091985316807
 20
388.26245653066422
 40
15
 41
1
 50
0
  1
251
  0
LINE
  8
_0-d_寸法3
  6
CONTINUOUS
 62
    7
 10
658.46758651983407
 20
327.42912486567457
 11
658.46758651983407
 21
393.26245653066422
  0
CIRCLE
  8
_0-d_寸法3
  6
CONTINUOUS
 62
    1
 10
658.46758651983407
 20
388.26245653066422
 40
1.5000000000000002
  0
LINE
  8
_0-d_寸法3
  6
CONTINUOUS
 62
    7
 10
655.96758651983407
 20
388.26245653066422
 11
658.46758651983407
 21
388.26245653066422
  0
TEXT
  8
_0-d_寸法3
 62
    7
 10
628.98322674195742
 20
370.04487113616449
 40
15
 41
1
 50
0
  1
1.5
  0
LINE
  8
_0-d_寸法3
  6
CONTINUOUS
 62
    7
 10
663.46758651983407
 20
328.26245819900856
 11
663.46758651983407
 21
393.26245653066422
  0
LINE
  8
_0-d_寸法3
  6
CONTINUOUS
 62
    7
 10
663.46758651983407
 20
388.26245653066422
 11
673.1268447827249
 21
390.85064698168935
  0
LINE
  8
_0-d_寸法3
  6
CONTINUOUS
 62
    7
 10
663.46758651983407
 20
388.26245653066422
 11
673.1268447827249
 21
385.67426607963898
  0
LINE
  8
_0-d_寸法3
  6
CONTINUOUS
 62
    7
 10
658.46758651983407
 20
388.26245653066422
 11
688.46758651983407
 21
388.26245653066422
  0
TEXT
  8
_0-d_寸法3
 62
    7
 10
677.23103823425322
 20
388.26245653066422
 40
15
 41
1
 50
0
  1
3
  0
TEXT
  8
_0-7_枠細線
 62
    5
 10
896.16995454985147
 20
375.55454176804568
 40
15
 41
0.8000000000000001
 50
0
  1
2.7kg/枚
  0
ENDSEC
  0
EOF
