  0
SECTION
  2
HEADER
  9
$ACADVER
  1
AC1009
  9
$INSBASE
 10
0
 20
0
 30
0
  9
$EXTMIN
 10
0
 20
0
  9
$EXTMAX
 10
1485
 20
1050
  9
$LIMMIN
 10
0
 20
0
  9
$LIMMAX
 10
1485
 20
1050
  9
$LTSCALE
 40
5
  0
ENDSEC
  0
SECTION
  2
TABLES
  0
TABLE
  2
LTYPE
 70
     9
  0
LTYPE
  2
CONTINUOUS
 70
    64
  3
実線
 72
    65
 73
     0
 40
0.0
  0
LTYPE
  2
DASHED1
 70
    64
  3
--  --  --  --  --  --  --  --  
 72
    65
 73
     2
 40
2.5
 49
1.25
 49
-1.25
  0
LTYPE
  2
DASHED2
 70
    64
  3
----    ----    ----    ----    
 72
    65
 73
     2
 40
5.0
 49
2.5
 49
-2.5
  0
LTYPE
  2
DASHED3
 70
    64
  3
------  ------  ------  ------  
 72
    65
 73
     2
 40
5.0
 49
3.75
 49
-1.25
  0
LTYPE
  2
CENTER1
 70
    64
  3
----- - ----- - ----- - ----- - 
 72
    65
 73
     4
 40
10.0
 49
6.25
 49
-1.25
 49
1.25
 49
-1.25
  0
LTYPE
  2
CENTER2
 70
    64
  3
----------  --  ----------  --  
 72
    65
 73
     4
 40
20.0
 49
12.5
 49
-2.5
 49
2.5
 49
-2.5
  0
LTYPE
  2
PHANTOM1
 70
    64
  3
--- - - --- - - --- - - --- - - 
 72
    65
 73
     6
 40
10.0
 49
3.25
 49
-1.25
 49
1.25
 49
-1.25
 49
1.25
 49
-1.25
  0
LTYPE
  2
PHANTOM2
 70
    64
  3
--------  -  -  --------  -  -  
 72
    65
 73
     6
 40
20.0
 49
10.0
 49
-2.5
 49
1.25
 49
-2.5
 49
1.25
 49
-2.5
  0
LTYPE
  2
DOT
 70
    64
  3
-   -   -   -   -   -   -   -   
 72
    65
 73
     2
 40
2.5
 49
0.625
 49
-1.875
  0
LTYPE
  2
DUMMY
 70
    64
  3
ダミー
 72
    65
 73
     0
 40
0.0
  0
LTYPE
  2
RAND1
 70
    64
  3
ランダム線1
 72
    65
 73
     4
 40
10.0
 49
1.0
 49
-2.0
 49
3.0
 49
-4.0
  0
LTYPE
  2
RAND2
 70
    64
  3
ランダム線2
 72
    65
 73
     4
 40
14.0
 49
2.0
 49
-3.0
 49
4.0
 49
-5.0
  0
LTYPE
  2
RAND3
 70
    64
  3
ランダム線3
 72
    65
 73
     4
 40
18.0
 49
3.0
 49
-4.0
 49
5.0
 49
-6.0
  0
LTYPE
  2
RAND4
 70
    64
  3
ランダム線4
 72
    65
 73
     4
 40
22.0
 49
4.0
 49
-5.0
 49
6.0
 49
-7.0
  0
LTYPE
  2
RAND5
 70
    64
  3
ランダム線5
 72
    65
 73
     4
 40
26.0
 49
5.0
 49
-6.0
 49
7.0
 49
-8.0
  0
LTYPE
  2
LONG1
 70
    64
  3
----------  --  ----------  --  
 72
    65
 73
     4
 40
40.0
 49
32.5
 49
-2.5
 49
2.5
 49
-2.5
  0
LTYPE
  2
LONG2
 70
    64
  3
--------  -  -  --------  -  -  
 72
    65
 73
     6
 40
40.0
 49
30.0
 49
-2.5
 49
1.25
 49
-2.5
 49
1.25
 49
-2.5
  0
LTYPE
  2
LONG3
 70
    64
  3
+++++++++++++++..+++++++++++++++
 72
    65
 73
     2
 40
40.0
 49
37.5
 49
-2.5
  0
LTYPE
  2
LONG4
 70
    64
  3
+++++++++++++++..+++++++++++++++
 72
    65
 73
     2
 40
80.0
 49
75.0
 49
-5.0
  0
LTYPE
  2
LONG5
 70
    64
  3
----------  --  ----------  --  
 72
    65
 73
     4
 40
60.0
 49
37.5
 49
-7.5
 49
7.5
 49
-7.5
  0
LTYPE
  2
dashed
 70
   64
  3
-------   -------------   ------
 72
   65
 73
    2
 40
7.5
 49
6
 49
-1.5
  0
LTYPE
  2
dashed_spaced
 70
   64
  3
----        --------        ----
 72
   65
 73
    2
 40
12
 49
6
 49
-6
  0
LTYPE
  2
long_dashed_dotted
 70
   64
  3
------------- --- --------------
 72
   65
 73
    4
 40
15.25
 49
12
 49
-1.5
 49
0.25
 49
-1.5
  0
LTYPE
  2
long_dashed_double-dotted
 70
   64
  3
----------- --- --- ------------
 72
   65
 73
    6
 40
17
 49
12
 49
-1.5
 49
0.25
 49
-1.5
 49
0.25
 49
-1.5
  0
LTYPE
  2
long_dashed_triplicate-dotted
 70
   64
  3
--------- --- --- --- ----------
 72
   65
 73
    8
 40
18.75
 49
12
 49
-1.5
 49
0.25
 49
-1.5
 49
0.25
 49
-1.5
 49
0.25
 49
-1.5
  0
LTYPE
  2
dotted
 70
   64
  3
   -       -       -       -    
 72
   65
 73
    2
 40
1.75
 49
0.25
 49
-1.5
  0
LTYPE
  2
chain
 70
   64
  3
-------------- -- --------------
 72
   65
 73
    4
 40
18.5
 49
12
 49
-1.5
 49
3.5
 49
-1.5
  0
LTYPE
  2
chain_double_dash
 70
   64
  3
------------ -- -- -------------
 72
   65
 73
    6
 40
23.5
 49
12
 49
-1.5
 49
3.5
 49
-1.5
 49
3.5
 49
-1.5
  0
LTYPE
  2
dashed_dotted
 70
   64
  3
-----------     -     ----------
 72
   65
 73
    4
 40
9.25
 49
6
 49
-1.5
 49
0.25
 49
-1.5
  0
LTYPE
  2
double-dashed_dotted
 70
   64
  3
------   -----------   -   -----
 72
   65
 73
    6
 40
16.75
 49
6
 49
-1.5
 49
6
 49
-1.5
 49
0.25
 49
-1.5
  0
LTYPE
  2
dashed_double-dotted
 70
   64
  3
---------    -    -    ---------
 72
   65
 73
    6
 40
11
 49
6
 49
-1.5
 49
0.25
 49
-1.5
 49
0.25
 49
-1.5
  0
LTYPE
  2
double-dashed_double-dotted
 70
   64
  3
-----   ---------   -   -   ----
 72
   65
 73
    8
 40
18.5
 49
6
 49
-1.5
 49
6
 49
-1.5
 49
0.25
 49
-1.5
 49
0.25
 49
-1.5
  0
LTYPE
  2
dashed_triplicate-dotted
 70
   64
  3
-------    -    -    -    ------
 72
   65
 73
    8
 40
12.75
 49
6
 49
-1.5
 49
0.25
 49
-1.5
 49
0.25
 49
-1.5
 49
0.25
 49
-1.5
  0
LTYPE
  2
double-dashed_triplicate-dotted
 70
   64
  3
-----  ---------  -  -  -  -----
 72
   65
 73
   10
 40
20.25
 49
6
 49
-1.5
 49
6
 49
-1.5
 49
0.25
 49
-1.5
 49
0.25
 49
-1.5
 49
0.25
 49
-1.5
  0
LTYPE
  2
undefined
 70
   64
  3
--------------------------------
 72
   65
 73
    0
 40
0
  0
ENDTAB
  0
TABLE
  2
STYLE
  5
3
100
AcDbSymbolTable
 70
     1
  0
STYLE
  5
10
100
AcDbSymbolTableRecord
100
AcDbTextStyleTableRecord
  2
STANDARD
 70
     0
 40
0.0
 41
1.0
 50
0.0
 71
     0
 42
0.2
  3
txt
  4
bigfont.shx
  0
STYLE
  5
26
100
AcDbSymbolTableRecord
100
AcDbTextStyleTableRecord
  2
TATEGAKI
 70
    68
 40
0.0
 41
1.0
 50
0.0
 71
     0
 42
1.0
  3
txt
  4
bigfont.shx
  0
ENDTAB
  0
TABLE
  2
LAYER
 70
   10
  0
LAYER
  2
_0-0_計極細
 70
   64
 62
    7
  6
CONTINUOUS
  0
LAYER
  2
_0-1_計細線
 70
   64
 62
    7
  6
CONTINUOUS
  0
LAYER
  2
_0-5_寸法線
 70
   64
 62
    7
  6
CONTINUOUS
  0
LAYER
  2
_0-7_枠細線
 70
   64
 62
    7
  6
CONTINUOUS
  0
LAYER
  2
_0-8_枠中線
 70
   64
 62
    7
  6
CONTINUOUS
  0
LAYER
  2
_0-9_枠極太
 70
   64
 62
    7
  6
CONTINUOUS
  0
LAYER
  2
_0-a_極細3
 70
   64
 62
    7
  6
CONTINUOUS
  0
LAYER
  2
_0-b_細線3
 70
   64
 62
    7
  6
CONTINUOUS
  0
LAYER
  2
_0-d_寸法3
 70
   64
 62
    7
  6
CONTINUOUS
  0
LAYER
  2
ADD_LINE
 70
   64
 62
    7
  6
CONTINUOUS
  0
ENDTAB
  0
ENDSEC
  0
SECTION
  2
BLOCKS
  0
ENDSEC
  0
SECTION
  2
ENTITIES
  0
LINE
  8
_0-7_枠細線
  6
CONTINUOUS
 62
    5
 10
1185
 20
180
 11
1185
 21
100
  0
TEXT
  8
_0-7_枠細線
 62
    5
 10
937.5
 20
97.5
 40
17.5
 41
1
 50
0
  1
備考
  7
TATEGAKI
  0
TEXT
  8
_0-7_枠細線
 62
    5
 10
937.5
 20
137.5
 40
17.5
 41
1
 50
0
  1
品番
  7
TATEGAKI
  0
TEXT
  8
_0-7_枠細線
 62
    5
 10
937.5
 20
177.5
 40
17.5
 41
1
 50
0
  1
品名
  7
TATEGAKI
  0
LINE
  8
_0-7_枠細線
  6
CONTINUOUS
 62
    5
 10
1185
 20
140
 11
925
 21
140
  0
LINE
  8
_0-7_枠細線
  6
CONTINUOUS
 62
    5
 10
950
 20
180
 11
950
 21
60
  0
LINE
  8
_0-8_枠中線
  6
CONTINUOUS
 62
    5
 10
1425
 20
180
 11
925
 21
180
  0
LINE
  8
_0-8_枠中線
  6
CONTINUOUS
 62
    5
 10
925
 20
180
 11
925
 21
60
  0
LINE
  8
_0-7_枠細線
  6
CONTINUOUS
 62
    5
 10
1245
 20
180
 11
1245
 21
60
  0
TEXT
  8
_0-7_枠細線
 62
    5
 10
1192.5
 20
160
 40
15
 41
1
 50
0
  1
縮　尺
  0
TEXT
  8
_0-7_枠細線
 62
    5
 10
1194
 20
117.5
 40
20
 41
0.7
 50
0
  1
１：５
  0
LINE
  8
_0-7_枠細線
  6
CONTINUOUS
 62
    5
 10
1185
 20
155
 11
1245
 21
155
  0
LINE
  8
_0-7_枠細線
  6
CONTINUOUS
 62
    5
 10
1245
 20
100
 11
925
 21
100
  0
LINE
  8
_0-7_枠細線
  6
CONTINUOUS
 62
    5
 10
1425
 20
90
 11
1245
 21
90
  0
LINE
  8
_0-7_枠細線
  6
CONTINUOUS
 62
    5
 10
1245
 20
120
 11
1425
 21
120
  0
LINE
  8
_0-7_枠細線
  6
CONTINUOUS
 62
    5
 10
1425
 20
140
 11
1245
 21
140
  0
TEXT
  8
_0-7_枠細線
 62
    5
 10
1255
 20
147.5
 40
25
 41
0.8
 50
0
  1
株式会社シマブン
  0
TEXT
  8
_0-7_枠細線
 62
    5
 10
1252.5
 20
60
 40
15
 41
1
 50
0
  1
年月日
  0
TEXT
  8
_0-7_枠細線
 62
    5
 10
1252.5
 20
75
 40
15
 41
1
 50
0
  1
作　成
  0
TEXT
  8
_0-7_枠細線
 62
    5
 10
1250
 20
95
 40
20
 41
1
 50
0
  1
島 英
  0
TEXT
  8
_0-7_枠細線
 62
    5
 10
1256.25
 20
122.5
 40
15
 41
1
 50
0
  1
承 認
  0
LINE
  8
_0-7_枠細線
  6
CONTINUOUS
 62
    5
 10
1305
 20
140
 11
1305
 21
60
  0
TEXT
  8
_0-7_枠細線
 62
    5
 10
1315
 20
95
 40
20
 41
1
 50
0
  1
隠塚
  0
TEXT
  8
_0-7_枠細線
 62
    5
 10
1316.25
 20
122.5
 40
15
 41
1
 50
0
  1
検 図
  0
LINE
  8
_0-7_枠細線
  6
CONTINUOUS
 62
    5
 10
1365
 20
140
 11
1365
 21
90
  0
TEXT
  8
_0-7_枠細線
 62
    5
 10
1375
 20
95
 40
20
 41
1
 50
0
  1
藤戸
  0
TEXT
  8
_0-7_枠細線
 62
    5
 10
1376.25
 20
122.5
 40
15
 41
1
 50
0
  1
設 計
  0
TEXT
  8
_0-7_枠細線
 62
    5
 10
965.50000000000011
 20
150
 40
20
 41
0.6
 50
0
  1
セーフティグレーチングＨ２５タイプ
  0
TEXT
  8
_0-7_枠細線
 62
    5
 10
965.50000000000011
 20
70
 40
20
 41
0.5999999999999998
 50
0
  1
色については品番表参照のこと
  0
TEXT
  8
_0-7_枠細線
 62
    5
 10
1310
 20
67.5
 40
15
 41
0.6666666666666666
 50
0
  1
２００９年０１月１６日
  0
LINE
  8
_0-d_寸法3
  6
CONTINUOUS
 62
    7
 10
363.50465731460736
 20
278.26245819900834
 11
363.50465731460736
 21
217.78443296476948
  0
LINE
  8
_0-d_寸法3
  6
CONTINUOUS
 62
    7
 10
363.50465731460736
 20
222.78443296476948
 11
373.16391557749802
 21
225.37262341579466
  0
LINE
  8
_0-d_寸法3
  6
CONTINUOUS
 62
    7
 10
363.50465731460736
 20
222.78443296476948
 11
373.16391557749802
 21
220.19624251374424
  0
LINE
  8
_0-d_寸法3
  6
CONTINUOUS
 62
    7
 10
530.17132398127433
 20
278.26245819900834
 11
530.17132398127433
 21
217.78443296476948
  0
LINE
  8
_0-d_寸法3
  6
CONTINUOUS
 62
    7
 10
530.17132398127433
 20
222.78443296476948
 11
520.51206571838361
 21
220.19624251374427
  0
LINE
  8
_0-d_寸法3
  6
CONTINUOUS
 62
    7
 10
530.17132398127433
 20
222.78443296476948
 11
520.51206571838361
 21
225.37262341579469
  0
LINE
  8
_0-d_寸法3
  6
CONTINUOUS
 62
    7
 10
363.50465731460736
 20
222.78443296476948
 11
530.17132398127433
 21
222.78443296476948
  0
TEXT
  8
_0-d_寸法3
 62
    7
 10
435.5879906479413
 20
222.78443296476948
 40
15
 41
1
 50
0
  1
100
  0
LINE
  8
_0-d_寸法3
  6
CONTINUOUS
 62
    7
 10
313.50465731460736
 20
234.92912486567533
 11
313.50465731460736
 21
217.78443296476948
  0
LINE
  8
_0-d_寸法3
  6
CONTINUOUS
 62
    7
 10
313.50465731460736
 20
222.78443296476948
 11
323.16391557749802
 21
225.37262341579466
  0
LINE
  8
_0-d_寸法3
  6
CONTINUOUS
 62
    7
 10
313.50465731460736
 20
222.78443296476948
 11
323.16391557749802
 21
220.19624251374424
  0
LINE
  8
_0-d_寸法3
  6
CONTINUOUS
 62
    7
 10
363.50465731460724
 20
273.26245819900834
 11
363.50465731460639
 21
217.78443296476948
  0
LINE
  8
_0-d_寸法3
  6
CONTINUOUS
 62
    7
 10
363.50465731460645
 20
222.78443296476948
 11
353.84539905171573
 21
220.19624251374427
  0
LINE
  8
_0-d_寸法3
  6
CONTINUOUS
 62
    7
 10
363.50465731460645
 20
222.78443296476948
 11
353.84539905171579
 21
225.37262341579469
  0
LINE
  8
_0-d_寸法3
  6
CONTINUOUS
 62
    7
 10
313.50465731460736
 20
222.78443296476948
 11
363.50465731460645
 21
222.78443296476948
  0
TEXT
  8
_0-d_寸法3
 62
    7
 10
331.00465731460736
 20
222.78443296476948
 40
15
 41
1
 50
0
  1
30
  0
LINE
  8
_0-d_寸法3
  6
CONTINUOUS
 62
    7
 10
580.17132398127433
 20
234.92912486567533
 11
580.17132398127433
 21
217.78443296476948
  0
LINE
  8
_0-d_寸法3
  6
CONTINUOUS
 62
    7
 10
580.17132398127433
 20
222.78443296476948
 11
570.51206571838361
 21
220.19624251374424
  0
LINE
  8
_0-d_寸法3
  6
CONTINUOUS
 62
    7
 10
580.17132398127433
 20
222.78443296476948
 11
570.51206571838361
 21
225.37262341579466
  0
LINE
  8
_0-d_寸法3
  6
CONTINUOUS
 62
    7
 10
530.17132398127444
 20
273.26245819900834
 11
530.17132398127535
 21
217.78443296476948
  0
LINE
  8
_0-d_寸法3
  6
CONTINUOUS
 62
    7
 10
530.17132398127524
 20
222.78443296476948
 11
539.83058224416595
 21
225.37262341579469
  0
LINE
  8
_0-d_寸法3
  6
CONTINUOUS
 62
    7
 10
530.17132398127524
 20
222.78443296476948
 11
539.83058224416595
 21
220.19624251374427
  0
LINE
  8
_0-d_寸法3
  6
CONTINUOUS
 62
    7
 10
580.17132398127433
 20
222.78443296476948
 11
530.17132398127524
 21
222.78443296476948
  0
TEXT
  8
_0-d_寸法3
 62
    7
 10
547.67132398127433
 20
222.78443296476945
 40
15
 41
1
 50
0.0000000000002714
  1
30
  0
CIRCLE
  8
_0-a_極細3
  6
CONTINUOUS
 62
    7
 10
286.62156344475716
 20
273.62906306011274
 40
0.5530864197530718
  0
CIRCLE
  8
_0-a_極細3
  6
CONTINUOUS
 62
    7
 10
621.49934122253308
 20
283.72782849221113
 40
1.825531472681392
  0
LINE
  8
_0-a_極細3
  6
CONTINUOUS
 62
    7
 10
246.83799064794044
 20
268.26245819900834
 11
246.83799064794044
 21
199.92912486567491
  0
LINE
  8
_0-a_極細3
  6
CONTINUOUS
 62
    7
 10
330.17132398127342
 20
199.92912486567491
 11
246.83799064794044
 21
199.92912486567491
  0
LINE
  8
_0-a_極細3
  6
CONTINUOUS
 62
    7
 10
246.83799064794044
 20
268.26245819900834
 11
215.99357683615926
 21
268.26245819900834
  0
LINE
  8
_0-a_極細3
  6
CONTINUOUS
 62
    7
 10
330.17132398127342
 20
199.92912486567491
 11
330.17132398127342
 21
173.68752457089599
  0
LINE
  8
_0-a_極細3
  6
CONTINUOUS
 62
    7
 10
292.74934941628362
 20
173.68752468733263
 11
318.99094959462673
 21
199.92912486567491
  0
LINE
  8
_0-a_極細3
  6
CONTINUOUS
 62
    7
 10
222.03867151764285
 20
173.68752490734579
 11
248.28027147597183
 21
199.92912486567491
  0
LINE
  8
_0-a_極細3
  6
CONTINUOUS
 62
    7
 10
215.99357683615926
 20
238.35310834451715
 11
245.90292669065093
 21
268.26245819900834
  0
LINE
  8
_0-a_極細3
  6
CONTINUOUS
 62
    7
 10
285.67828162641945
 20
173.68752470933379
 11
311.91988178276097
 21
199.92912486567491
  0
LINE
  8
_0-a_極細3
  6
CONTINUOUS
 62
    7
 10
215.99357683615926
 20
174.71349803772802
 11
246.83799064794044
 21
205.55791184950962
  0
LINE
  8
_0-a_極細3
  6
CONTINUOUS
 62
    7
 10
215.99357683615926
 20
245.42417615638243
 11
238.83185887878426
 21
268.26245819900834
  0
LINE
  8
_0-a_極細3
  6
CONTINUOUS
 62
    7
 10
278.60721383655527
 20
173.6875247313354
 11
304.84881397089521
 21
199.92912486567491
  0
LINE
  8
_0-a_極細3
  6
CONTINUOUS
 62
    7
 10
215.99357683615926
 20
181.78456584959335
 11
246.83799064794044
 21
212.62897966137444
  0
LINE
  8
_0-a_極細3
  6
CONTINUOUS
 62
    7
 10
215.99357683615926
 20
252.49524396824822
 11
231.76079106691944
 21
268.26245819900834
  0
CIRCLE
  8
_0-a_極細3
  6
CONTINUOUS
 62
    7
 10
223.55860048179608
 20
273.51031306011265
 40
0.5530864197530718
  0
CIRCLE
  8
_0-a_極細3
  6
CONTINUOUS
 62
    7
 10
234.16600788920277
 20
274.57697972677926
 40
0.5530864197530718
  0
CIRCLE
  8
_0-a_極細3
  6
CONTINUOUS
 62
    7
 10
246.78823011142504
 20
276.532535282335
 40
0.5530864197530718
  0
CIRCLE
  8
_0-a_極細3
  6
CONTINUOUS
 62
    7
 10
253.73267455587026
 20
269.27697972677953
 40
0.5530864197530718
  0
CIRCLE
  8
_0-a_極細3
  6
CONTINUOUS
 62
    7
 10
274.17711900031378
 20
268.03253528233455
 40
0.5530864197530718
  0
CIRCLE
  8
_0-a_極細3
  6
CONTINUOUS
 62
    7
 10
299.24378566698039
 20
264.29920194900194
 40
0.5530864197530718
  0
CIRCLE
  8
_0-a_極細3
  6
CONTINUOUS
 62
    7
 10
271.8660078892035
 20
245.09920194900161
 40
0.5530864197530718
  0
CIRCLE
  8
_0-a_極細3
  6
CONTINUOUS
 62
    7
 10
299.24378566698039
 20
252.38809083789084
 40
0.5530864197530718
  0
CIRCLE
  8
_0-a_極細3
  6
CONTINUOUS
 62
    7
 10
253.15489677809182
 20
238.96586861566888
 40
0.5530864197530718
  0
CIRCLE
  8
_0-a_極細3
  6
CONTINUOUS
 62
    7
 10
258.13267455586993
 20
225.27697972677998
 40
0.5530864197530718
  0
CIRCLE
  8
_0-a_極細3
  6
CONTINUOUS
 62
    7
 10
252.44378566698018
 20
207.32142417122424
 40
0.5530864197530718
  0
CIRCLE
  8
_0-a_極細3
  6
CONTINUOUS
 62
    7
 10
261.15489677809182
 20
214.07697972677971
 40
0.5530864197530718
  0
CIRCLE
  8
_0-a_極細3
  6
CONTINUOUS
 62
    7
 10
267.37711900031445
 20
205.54364639344641
 40
0.5530864197530718
  0
CIRCLE
  8
_0-a_極細3
  6
CONTINUOUS
 62
    7
 10
306.67711900031378
 20
223.43253528233558
 40
0.5530864197530718
  0
CIRCLE
  8
_0-a_極細3
  6
CONTINUOUS
 62
    7
 10
295.477119000313
 20
217.92142417122417
 40
0.5530864197530718
  0
CIRCLE
  8
_0-a_極細3
  6
CONTINUOUS
 62
    7
 10
301.69934122253562
 20
215.43253528233555
 40
0.5530864197530718
  0
CIRCLE
  8
_0-a_極細3
  6
CONTINUOUS
 62
    7
 10
298.14378566698088
 20
206.18809083789102
 40
0.5530864197530718
  0
CIRCLE
  8
_0-a_極細3
  6
CONTINUOUS
 62
    7
 10
318.05489677809146
 20
207.25475750455763
 40
0.5530864197530718
  0
CIRCLE
  8
_0-a_極細3
  6
CONTINUOUS
 62
    7
 10
331.03267455586956
 20
210.45475750455793
 40
0.5530864197530718
  0
CIRCLE
  8
_0-a_極細3
  6
CONTINUOUS
 62
    7
 10
344.72156344475758
 20
195.52142417122454
 40
0.5530864197530718
  0
CIRCLE
  8
_0-a_極細3
  6
CONTINUOUS
 62
    7
 10
337.78823011142504
 20
180.58809083789114
 40
0.5530864197530718
  0
CIRCLE
  8
_0-a_極細3
  6
CONTINUOUS
 62
    7
 10
321.12156344475807
 20
224.20290565270562
 40
0.5530864197530718
  0
CIRCLE
  8
_0-a_極細3
  6
CONTINUOUS
 62
    7
 10
335.87711900031263
 20
258.33623898603884
 40
0.5530864197530718
  0
CIRCLE
  8
_0-a_極細3
  6
CONTINUOUS
 62
    7
 10
350.98823011142395
 20
248.38068343048354
 40
0.5530864197530718
  0
CIRCLE
  8
_0-a_極細3
  6
CONTINUOUS
 62
    7
 10
351.5215634447577
 20
230.42512787492782
 40
0.5530864197530718
  0
CIRCLE
  8
_0-a_極細3
  6
CONTINUOUS
 62
    7
 10
316.27711900031414
 20
260.15846120826143
 40
0.5530864197530718
  0
CIRCLE
  8
_0-a_極細3
  6
CONTINUOUS
 62
    7
 10
293.16600788920283
 20
249.20907849221186
 40
1.825531472681392
  0
CIRCLE
  8
_0-a_極細3
  6
CONTINUOUS
 62
    7
 10
270.76600788920314
 20
259.34241182554507
 40
1.825531472681392
  0
CIRCLE
  8
_0-a_極細3
  6
CONTINUOUS
 62
    7
 10
251.1660078892028
 20
221.34241182554553
 40
1.825531472681392
  0
CIRCLE
  8
_0-a_極細3
  6
CONTINUOUS
 62
    7
 10
304.36600788920174
 20
208.54241182554534
 40
1.825531472681392
  0
CIRCLE
  8
_0-a_極細3
  6
CONTINUOUS
 62
    7
 10
340.34378566697978
 20
204.94241182554546
 40
1.825531472681392
  0
CIRCLE
  8
_0-a_極細3
  6
CONTINUOUS
 62
    7
 10
345.14378566697906
 20
186.27574515887943
 40
1.825531472681392
  0
LINE
  8
_0-a_極細3
  6
CONTINUOUS
 62
    7
 10
362.67132398127342
 20
274.92912486567485
 11
363.50465731460736
 21
274.92912486567485
  0
LINE
  8
_0-a_極細3
  6
CONTINUOUS
 62
    7
 10
363.50465731460736
 20
274.92912486567485
 11
363.50465731460736
 21
173.68752457089599
  0
CIRCLE
  8
_0-a_極細3
  6
CONTINUOUS
 62
    7
 10
356.61722316697796
 20
258.94241182554543
 40
1.825531472681392
  0
CIRCLE
  8
_0-a_極細3
  6
CONTINUOUS
 62
    7
 10
355.62526714846081
 20
204.23253528233531
 40
0.5530864197530718
  0
CIRCLE
  8
_0-a_極細3
  6
CONTINUOUS
 62
    7
 10
356.95860048179475
 20
181.57646424916564
 40
0.5530864197530718
  0
CIRCLE
  8
_0-a_極細3
  6
CONTINUOUS
 62
    7
 10
344.58823011142067
 20
239.83130071443458
 40
1.825531472681392
  0
LINE
  8
_0-a_極細3
  6
CONTINUOUS
 62
    7
 10
646.83799064794039
 20
268.26245819900834
 11
646.83799064794039
 21
199.92912486567491
  0
LINE
  8
_0-a_極細3
  6
CONTINUOUS
 62
    7
 10
563.50465731460736
 20
199.92912486567491
 11
646.83799064794039
 21
199.92912486567491
  0
LINE
  8
_0-a_極細3
  6
CONTINUOUS
 62
    7
 10
646.83799064794039
 20
268.26245819900834
 11
677.68240445972151
 21
268.26245819900834
  0
LINE
  8
_0-a_極細3
  6
CONTINUOUS
 62
    7
 10
563.50465731460736
 20
199.92912486567491
 11
563.50465731460736
 21
173.68752457089599
  0
LINE
  8
_0-a_極細3
  6
CONTINUOUS
 62
    7
 10
655.12799306253328
 20
173.68752457089599
 11
677.68240450126189
 21
196.24193600962491
  0
LINE
  8
_0-a_極細3
  6
CONTINUOUS
 62
    7
 10
584.41731494387841
 20
173.68752457089599
 11
610.65891523865776
 21
199.92912486567491
  0
LINE
  8
_0-a_極細3
  6
CONTINUOUS
 62
    7
 10
646.83799064794039
 20
236.10820027495748
 11
677.6824044604773
 21
266.9526140874944
  0
LINE
  8
_0-a_極細3
  6
CONTINUOUS
 62
    7
 10
648.05692525066843
 20
173.68752457089599
 11
677.6824044971836
 21
203.31300381741201
  0
LINE
  8
_0-a_極細3
  6
CONTINUOUS
 62
    7
 10
577.34624713201356
 20
173.68752457089599
 11
603.58784742679291
 21
199.92912486567491
  0
LINE
  8
_0-a_極細3
  6
CONTINUOUS
 62
    7
 10
646.83799064794039
 20
243.17926808682327
 11
671.92118058057531
 21
268.26245801945777
  0
LINE
  8
_0-a_極細3
  6
CONTINUOUS
 62
    7
 10
640.98585743880267
 20
173.68752457089599
 11
677.68240449310542
 21
210.38407162519874
  0
LINE
  8
_0-a_極細3
  6
CONTINUOUS
 62
    7
 10
570.27517932014871
 20
173.68752457089599
 11
596.51677961492715
 21
199.92912486567491
  0
LINE
  8
_0-a_極細3
  6
CONTINUOUS
 62
    7
 10
646.83799064794039
 20
250.25033589868855
 11
664.85011281932566
 21
268.26245807007382
  0
CIRCLE
  8
_0-a_極細3
  6
CONTINUOUS
 62
    7
 10
549.91045233364548
 20
258.78346120826097
 40
0.5530864197530718
  0
CIRCLE
  8
_0-a_極細3
  6
CONTINUOUS
 62
    7
 10
559.86600788919986
 20
263.58346120826116
 40
0.5530864197530718
  0
CIRCLE
  8
_0-a_極細3
  6
CONTINUOUS
 62
    7
 10
555.77711900031227
 20
238.60568343048345
 40
0.5530864197530718
  0
CIRCLE
  8
_0-a_極細3
  6
CONTINUOUS
 62
    7
 10
573.31045233364512
 20
221.58346120826155
 40
0.5530864197530718
  0
CIRCLE
  8
_0-a_極細3
  6
CONTINUOUS
 62
    7
 10
555.47711900031118
 20
198.2834612082614
 40
0.5530864197530718
  0
CIRCLE
  8
_0-a_極細3
  6
CONTINUOUS
 62
    7
 10
546.14378566697906
 20
180.41679454159507
 40
0.5530864197530718
  0
CIRCLE
  8
_0-a_極細3
  6
CONTINUOUS
 62
    7
 10
557.61045233364439
 20
210.2834612082614
 40
0.5530864197530718
  0
CIRCLE
  8
_0-a_極細3
  6
CONTINUOUS
 62
    7
 10
571.47711900031118
 20
205.48346120826167
 40
0.5530864197530718
  0
CIRCLE
  8
_0-a_極細3
  6
CONTINUOUS
 62
    7
 10
598.41045233364457
 20
205.7501278749281
 40
0.5530864197530718
  0
CIRCLE
  8
_0-a_極細3
  6
CONTINUOUS
 62
    7
 10
586.41045233364548
 20
214.81679454159467
 40
0.5530864197530718
  0
CIRCLE
  8
_0-a_極細3
  6
CONTINUOUS
 62
    7
 10
597.61045233364439
 20
220.41679454159461
 40
0.5530864197530718
  0
CIRCLE
  8
_0-a_極細3
  6
CONTINUOUS
 62
    7
 10
585.63267455586629
 20
274.70568343048291
 40
0.5530864197530718
  0
CIRCLE
  8
_0-a_極細3
  6
CONTINUOUS
 62
    7
 10
606.16600788919914
 20
273.99457231937168
 40
0.5530864197530718
  0
CIRCLE
  8
_0-a_極細3
  6
CONTINUOUS
 62
    7
 10
594.56600788919968
 20
259.99457231937214
 40
0.5530864197530718
  0
CIRCLE
  8
_0-a_極細3
  6
CONTINUOUS
 62
    7
 10
633.7660078891995
 20
206.79457231937235
 40
0.5530864197530718
  0
CIRCLE
  8
_0-a_極細3
  6
CONTINUOUS
 62
    7
 10
640.96600788919932
 20
220.79457231937232
 40
0.5530864197530718
  0
CIRCLE
  8
_0-a_極細3
  6
CONTINUOUS
 62
    7
 10
639.36600788919986
 20
241.59457231937253
 40
0.5530864197530718
  0
CIRCLE
  8
_0-a_極細3
  6
CONTINUOUS
 62
    7
 10
618.56600788919968
 20
243.19457231937241
 40
0.5530864197530718
  0
CIRCLE
  8
_0-a_極細3
  6
CONTINUOUS
 62
    7
 10
598.96600788920023
 20
248.79457231937235
 40
0.5530864197530718
  0
CIRCLE
  8
_0-a_極細3
  6
CONTINUOUS
 62
    7
 10
621.36600788919986
 20
262.79457231937232
 40
0.5530864197530718
  0
CIRCLE
  8
_0-a_極細3
  6
CONTINUOUS
 62
    7
 10
635.36600788919986
 20
255.59457231937205
 40
0.5530864197530718
  0
CIRCLE
  8
_0-a_極細3
  6
CONTINUOUS
 62
    7
 10
664.96600788919932
 20
276.79457231937187
 40
0.5530864197530718
  0
CIRCLE
  8
_0-a_極細3
  6
CONTINUOUS
 62
    7
 10
621.09934122253253
 20
249.67574515887858
 40
1.825531472681392
  0
CIRCLE
  8
_0-a_極細3
  6
CONTINUOUS
 62
    7
 10
550.70489677808928
 20
205.12574515887883
 40
1.825531472681392
  0
CIRCLE
  8
_0-a_極細3
  6
CONTINUOUS
 62
    7
 10
560.927119000311
 20
234.99241182554516
 40
1.825531472681392
  0
CIRCLE
  8
_0-a_極細3
  6
CONTINUOUS
 62
    7
 10
596.12711900031081
 20
212.59241182554553
 40
1.825531472681392
  0
CIRCLE
  8
_0-a_極細3
  6
CONTINUOUS
 62
    7
 10
642.39231163559452
 20
202.40535943357628
 40
1.825531472681392
  0
CIRCLE
  8
_0-a_極細3
  6
CONTINUOUS
 62
    7
 10
591.72711900031118
 20
255.79241182554489
 40
1.825531472681392
  0
CIRCLE
  8
_0-a_極細3
  6
CONTINUOUS
 62
    7
 10
544.26106961759615
 20
250.3692064185087
 40
0.5530864197530718
  0
CIRCLE
  8
_0-a_極細3
  6
CONTINUOUS
 62
    7
 10
544.46106961759597
 20
226.41365086295338
 40
0.5530864197530718
  0
LINE
  8
_0-a_極細3
  6
CONTINUOUS
 62
    7
 10
531.00465731460645
 20
274.92912486567485
 11
530.17132398127342
 21
274.92912486567485
  0
LINE
  8
_0-a_極細3
  6
CONTINUOUS
 62
    7
 10
530.17132398127342
 20
274.92912486567485
 11
530.17132398127342
 21
173.68752457089599
  0
CIRCLE
  8
_0-a_極細3
  6
CONTINUOUS
 62
    7
 10
536.15571982335769
 20
234.8723500971499
 40
0.5530864197530718
  0
CIRCLE
  8
_0-a_極細3
  6
CONTINUOUS
 62
    7
 10
537.46230418549658
 20
195.61679454159489
 40
0.5530864197530718
  0
CIRCLE
  8
_0-a_極細3
  6
CONTINUOUS
 62
    7
 10
536.82341529660698
 20
261.57018960332317
 40
1.825531472681392
  0
CIRCLE
  8
_0-a_極細3
  6
CONTINUOUS
 62
    7
 10
539.77156344475588
 20
188.94796738110088
 40
1.825531472681392
  0
LINE
  8
_0-b_細線3
  6
CONTINUOUS
 62
    7
 10
465.2546573149084
 20
279.9294898673532
 11
457.42132398157452
 21
279.9294898673532
  0
LINE
  8
_0-d_寸法3
  6
CONTINUOUS
 62
    7
 10
313.50465731460736
 20
326.59579153234182
 11
313.50465731460736
 21
436.59578986399708
  0
LINE
  8
_0-d_寸法3
  6
CONTINUOUS
 62
    7
 10
313.50465731460736
 20
431.59578986399708
 11
323.16391557749802
 21
434.18398031502221
  0
LINE
  8
_0-d_寸法3
  6
CONTINUOUS
 62
    7
 10
313.50465731460736
 20
431.59578986399708
 11
323.16391557749802
 21
429.0075994129719
  0
LINE
  8
_0-d_寸法3
  6
CONTINUOUS
 62
    7
 10
580.17132398127433
 20
326.59579153234182
 11
580.17132398127433
 21
436.59578986399708
  0
LINE
  8
_0-d_寸法3
  6
CONTINUOUS
 62
    7
 10
580.17132398127433
 20
431.59578986399708
 11
570.51206571838361
 21
429.0075994129719
  0
LINE
  8
_0-d_寸法3
  6
CONTINUOUS
 62
    7
 10
580.17132398127433
 20
431.59578986399708
 11
570.51206571838361
 21
434.18398031502227
  0
LINE
  8
_0-d_寸法3
  6
CONTINUOUS
 62
    7
 10
313.50465731460736
 20
431.59578986399708
 11
580.17132398127433
 21
431.59578986399708
  0
TEXT
  8
_0-d_寸法3
 62
    7
 10
435.5879906479413
 20
431.59578986399708
 40
15
 41
1
 50
0
  1
160
  0
CIRCLE
  8
_0-a_極細3
  6
CONTINUOUS
 62
    7
 10
636.26691798784304
 20
297.81540565270535
 40
0.5530864197530718
  0
CIRCLE
  8
_0-a_極細3
  6
CONTINUOUS
 62
    7
 10
233.88946467932598
 20
282.6867019490017
 40
0.5530864197530718
  0
CIRCLE
  8
_0-a_極細3
  6
CONTINUOUS
 62
    7
 10
280.92156344475825
 20
282.24989639344574
 40
0.5530864197530718
  0
CIRCLE
  8
_0-a_極細3
  6
CONTINUOUS
 62
    7
 10
295.98823011142485
 20
282.88199515887828
 40
1.825531472681392
  0
CIRCLE
  8
_0-a_極細3
  6
CONTINUOUS
 62
    7
 10
644.52156344475497
 20
278.57713404776706
 40
1.825531472681392
  0
CIRCLE
  8
_0-a_極細3
  6
CONTINUOUS
 62
    7
 10
275.23267455586938
 20
296.59920194900116
 40
0.5530864197530718
  0
CIRCLE
  8
_0-a_極細3
  6
CONTINUOUS
 62
    7
 10
300.12156344475812
 20
306.55475750455696
 40
0.5530864197530718
  0
CIRCLE
  8
_0-a_極細3
  6
CONTINUOUS
 62
    7
 10
305.81045233364694
 20
290.3769797267795
 40
0.5530864197530718
  0
CIRCLE
  8
_0-a_極細3
  6
CONTINUOUS
 62
    7
 10
269.18823011142467
 20
304.77697972677908
 40
0.5530864197530718
  0
CIRCLE
  8
_0-a_極細3
  6
CONTINUOUS
 62
    7
 10
244.22611040998987
 20
297.40535943357628
 40
1.825531472681392
  0
CIRCLE
  8
_0-a_極細3
  6
CONTINUOUS
 62
    7
 10
224.02903086891001
 20
298.29796738110036
 40
1.825531472681392
  0
CIRCLE
  8
_0-a_極細3
  6
CONTINUOUS
 62
    7
 10
588.12156344475534
 20
302.77235009714951
 40
0.5530864197530718
  0
CIRCLE
  8
_0-a_極細3
  6
CONTINUOUS
 62
    7
 10
660.16600788919834
 20
298.89796738110027
 40
1.825531472681392
  0
CIRCLE
  8
_0-a_極細3
  6
CONTINUOUS
 62
    7
 10
652.16600788919914
 20
306.86123898603802
 40
0.5530864197530718
  0
CIRCLE
  8
_0-a_極細3
  6
CONTINUOUS
 62
    7
 10
600.16600788919914
 20
307.79457231937147
 40
0.5530864197530718
  0
LINE
  8
_0-a_極細3
  6
CENTER1
 62
    7
 10
446.83799064794044
 20
263.74329538022522
 11
446.83799064794044
 21
335.52662871356449
  0
LINE
  8
_0-a_極細3
  6
CONTINUOUS
 62
    7
 10
305.17132398127342
 20
321.59579153234182
 11
305.17132398127342
 21
309.9291248656744
  0
LINE
  8
_0-a_極細3
  6
CONTINUOUS
 62
    7
 10
305.17132398127342
 20
321.59579153234182
 11
215.99357683615926
 21
321.59579153234182
  0
LINE
  8
_0-a_極細3
  6
CONTINUOUS
 62
    7
 10
313.50465731460736
 20
309.9291248656744
 11
215.99357683615926
 21
309.9291248656744
  0
LINE
  8
_0-a_極細3
  6
CONTINUOUS
 62
    7
 10
313.50465731460736
 20
321.59579153234182
 11
305.17132398127342
 21
321.59579153234182
  0
LINE
  8
_0-a_極細3
  6
CONTINUOUS
 62
    7
 10
313.50465731460736
 20
320.76245819900794
 11
313.50465731460736
 21
321.59579153234182
  0
LINE
  8
_0-a_極細3
  6
CONTINUOUS
 62
    7
 10
313.30656705824737
 20
309.9291248656744
 11
313.50465731460736
 21
310.12721512203444
  0
LINE
  8
_0-a_極細3
  6
CONTINUOUS
 62
    7
 10
309.06392637112822
 20
309.9291248656744
 11
313.50465731460736
 21
314.36985580915353
  0
LINE
  8
_0-a_極細3
  6
CONTINUOUS
 62
    7
 10
305.17132398127342
 20
310.2791631629396
 11
313.50465731460736
 21
318.61249649627263
  0
LINE
  8
_0-a_極細3
  6
CONTINUOUS
 62
    7
 10
305.17132398127342
 20
314.52180385005869
 11
312.24531166355609
 21
321.59579153234182
  0
LINE
  8
_0-a_極細3
  6
CONTINUOUS
 62
    7
 10
305.17132398127342
 20
318.76444453717784
 11
308.00267097643797
 21
321.59579153234182
  0
LINE
  8
_0-a_極細3
  6
CONTINUOUS
 62
    7
 10
313.50465731460736
 20
319.31482466008293
 11
311.22369044234892
 21
321.59579153234182
  0
LINE
  8
_0-a_極細3
  6
CONTINUOUS
 62
    7
 10
313.50465731460736
 20
315.07218397296344
 11
306.98104975522892
 21
321.59579153234182
  0
LINE
  8
_0-a_極細3
  6
CONTINUOUS
 62
    7
 10
305.17132398127342
 20
319.16287661917778
 11
313.50465731460736
 21
310.82954328584481
  0
LINE
  8
_0-a_極細3
  6
CONTINUOUS
 62
    7
 10
305.17132398127342
 20
314.92023593205874
 11
310.1624350476568
 21
309.9291248656744
  0
LINE
  8
_0-a_極細3
  6
CONTINUOUS
 62
    7
 10
305.17132398127342
 20
310.6775952449396
 11
305.91979436053776
 21
309.9291248656744
  0
LINE
  8
_0-a_極細3
  6
CONTINUOUS
 62
    7
 10
296.33600430364282
 20
309.92912485954764
 11
305.17132398127342
 21
318.76444453717784
  0
LINE
  8
_0-a_極細3
  6
CONTINUOUS
 62
    7
 10
275.12280085333532
 20
309.92912484483605
 11
286.78946754084154
 21
321.59579153234142
  0
LINE
  8
_0-a_極細3
  6
CONTINUOUS
 62
    7
 10
253.9095974030279
 20
309.92912483012498
 11
265.57626410524426
 21
321.59579153234182
  0
LINE
  8
_0-a_極細3
  6
CONTINUOUS
 62
    7
 10
232.69639395271952
 20
309.9291248154139
 11
244.36306066964789
 21
321.59579153234182
  0
LINE
  8
_0-a_極細3
  6
CONTINUOUS
 62
    7
 10
215.99357683615926
 20
314.43951113444911
 11
223.14985723405158
 21
321.59579153234142
  0
LINE
  8
_0-a_極細3
  6
DASHED2
 62
    7
 10
285.72940257848956
 20
309.9291248521921
 11
297.39606925863973
 21
321.59579153234182
  0
LINE
  8
_0-a_極細3
  6
DASHED2
 62
    7
 10
264.51619912818114
 20
309.92912483748103
 11
276.1828658230425
 21
321.59579153234182
  0
LINE
  8
_0-a_極細3
  6
DASHED2
 62
    7
 10
243.30299567787463
 20
309.92912482276995
 11
254.9696623874452
 21
321.59579153234182
  0
LINE
  8
_0-a_極細3
  6
DASHED2
 62
    7
 10
222.08979222756625
 20
309.92912480805791
 11
233.75645895184974
 21
321.59579153234182
  0
LINE
  8
_0-a_極細3
  6
CONTINUOUS
 62
    7
 10
588.50465731460736
 20
321.59579153234182
 11
588.50465731460736
 21
309.9291248656744
  0
LINE
  8
_0-a_極細3
  6
CONTINUOUS
 62
    7
 10
588.50465731460736
 20
321.59579153234182
 11
677.68240445972151
 21
321.59579153234182
  0
LINE
  8
_0-a_極細3
  6
CONTINUOUS
 62
    7
 10
580.17132398127342
 20
309.9291248656744
 11
677.68240445972151
 21
309.9291248656744
  0
LINE
  8
_0-a_極細3
  6
CONTINUOUS
 62
    7
 10
580.17132398127342
 20
321.59579153234182
 11
588.50465731460736
 21
321.59579153234182
  0
LINE
  8
_0-a_極細3
  6
CONTINUOUS
 62
    7
 10
580.17132398127342
 20
320.76245819900794
 11
580.17132398127342
 21
321.59579153234182
  0
LINE
  8
_0-a_極細3
  6
CONTINUOUS
 62
    7
 10
588.50465731460736
 20
313.59821114639988
 11
584.83557103388284
 21
309.9291248656744
  0
LINE
  8
_0-a_極細3
  6
CONTINUOUS
 62
    7
 10
588.50465731460736
 20
317.84085183351851
 11
580.59293034676284
 21
309.9291248656744
  0
LINE
  8
_0-a_極細3
  6
CONTINUOUS
 62
    7
 10
580.17132398127342
 20
313.75015918730497
 11
588.01695632631072
 21
321.59579153234182
  0
LINE
  8
_0-a_極細3
  6
CONTINUOUS
 62
    7
 10
580.17132398127342
 20
317.99279987442407
 11
583.77431563919072
 21
321.59579153234142
  0
LINE
  8
_0-a_極細3
  6
CONTINUOUS
 62
    7
 10
588.50465731460736
 20
320.08646932283574
 11
586.99533510510173
 21
321.59579153234182
  0
LINE
  8
_0-a_極細3
  6
CONTINUOUS
 62
    7
 10
588.50465731460736
 20
315.8438286357171
 11
582.75269441798355
 21
321.59579153234182
  0
LINE
  8
_0-a_極細3
  6
CONTINUOUS
 62
    7
 10
588.50465731460736
 20
311.60118794859756
 11
580.17132398127342
 21
319.93452128193104
  0
LINE
  8
_0-a_極細3
  6
CONTINUOUS
 62
    7
 10
585.93407971041142
 20
309.9291248656744
 11
580.17132398127342
 21
315.69188059481149
  0
LINE
  8
_0-a_極細3
  6
CONTINUOUS
 62
    7
 10
581.69143902329142
 20
309.9291248656744
 11
580.17132398127342
 21
311.44923990769246
  0
LINE
  8
_0-a_極細3
  6
CONTINUOUS
 62
    7
 10
656.96046271491014
 20
309.9291248656744
 11
668.62712875478792
 21
321.59579090555314
  0
LINE
  8
_0-a_極細3
  6
CONTINUOUS
 62
    7
 10
635.74725927931377
 20
309.92912486567536
 11
647.41392548514068
 21
321.59579107150131
  0
LINE
  8
_0-a_極細3
  6
CONTINUOUS
 62
    7
 10
614.5340558437174
 20
309.9291248656744
 11
626.20072221549253
 21
321.59579123744953
  0
LINE
  8
_0-a_極細3
  6
CONTINUOUS
 62
    7
 10
593.32085240812103
 20
309.9291248656744
 11
604.98751894584439
 21
321.59579140339821
  0
LINE
  8
_0-a_極細3
  6
DASHED2
 62
    7
 10
667.56706443270832
 20
309.92912486567536
 11
677.68240445972151
 21
320.0444648926881
  0
LINE
  8
_0-a_極細3
  6
DASHED2
 62
    7
 10
646.35386099711195
 20
309.9291248656744
 11
658.02052711996384
 21
321.59579098852726
  0
LINE
  8
_0-a_極細3
  6
DASHED2
 62
    7
 10
625.14065756151558
 20
309.9291248656744
 11
636.80732385031661
 21
321.59579115447542
  0
LINE
  8
_0-a_極細3
  6
DASHED2
 62
    7
 10
603.92745412591921
 20
309.9291248656744
 11
615.59412058066846
 21
321.5957913204237
  0
LINE
  8
_0-a_極細3
  6
DASHED2
 62
    7
 10
588.50465731460736
 20
315.71953148995937
 11
594.38091731102031
 21
321.59579148637238
  0
CIRCLE
  8
_0-a_極細3
  6
CONTINUOUS
 62
    7
 10
283.68452640772102
 20
301.98685626998787
 40
1.825531472681392
  0
LINE
  8
_0-a_極細3
  6
CENTER1
 62
    7
 10
578.29159861000153
 20
302.59575443434176
 11
311.85066487006679
 21
302.59575443434176
  0
LINE
  8
_0-a_極細3
  6
CONTINUOUS
 62
    7
 10
572.67132398127342
 20
319.92912486567536
 11
321.00465731460736
 21
319.92912486567536
  0
CIRCLE
  8
_0-a_極細3
  6
CONTINUOUS
 62
    7
 10
356.83799064794039
 20
302.59579153234188
 40
3.333333333333333
  0
CIRCLE
  8
_0-a_極細3
  6
CONTINUOUS
 62
    7
 10
536.83799064794039
 20
302.59579153234188
 40
3.333333333333333
  0
ARC
  8
_0-b_細線3
  6
CONTINUOUS
 62
    7
 10
318.50465731460736
 20
279.92912486567485
 40
4.9999999999999991
 50
179.99999999999983
 51
269.99999999999977
  0
LINE
  8
_0-b_細線3
  6
CONTINUOUS
 62
    7
 10
313.50465731460736
 20
279.92912486567485
 11
313.50465731460736
 21
320.76245819900794
  0
LINE
  8
_0-b_細線3
  6
CONTINUOUS
 62
    7
 10
318.50465731460736
 20
274.92912486567485
 11
362.67132398127342
 21
274.92912486567485
  0
LINE
  8
_0-b_細線3
  6
CONTINUOUS
 62
    7
 10
363.50465731460736
 20
275.76245819900834
 11
362.67132398127342
 21
274.92912486567485
  0
LINE
  8
_0-b_細線3
  6
CONTINUOUS
 62
    7
 10
363.50465731460736
 20
279.09579153234182
 11
363.50465731460736
 21
275.76245819900834
  0
LINE
  8
_0-b_細線3
  6
CONTINUOUS
 62
    7
 10
362.67132398127342
 20
279.92912486567485
 11
363.50465731460736
 21
279.09579153234182
  0
LINE
  8
_0-b_細線3
  6
CONTINUOUS
 62
    7
 10
318.50465731460736
 20
279.92912486567485
 11
362.67132398127342
 21
279.92912486567485
  0
LINE
  8
_0-b_細線3
  6
CONTINUOUS
 62
    7
 10
314.33799064794044
 20
321.59579153234182
 11
313.50465731460736
 21
320.76245819900794
  0
LINE
  8
_0-b_細線3
  6
CONTINUOUS
 62
    7
 10
317.67132398127342
 20
321.59579153234182
 11
314.33799064794044
 21
321.59579153234182
  0
LINE
  8
_0-b_細線3
  6
CONTINUOUS
 62
    7
 10
318.50465731460736
 20
320.76245819900794
 11
317.67132398127342
 21
321.59579153234182
  0
LINE
  8
_0-b_細線3
  6
CONTINUOUS
 62
    7
 10
318.50465731460736
 20
279.92912486567485
 11
318.50465731460736
 21
320.76245819900794
  0
ARC
  8
_0-b_細線3
  6
CONTINUOUS
 62
    7
 10
575.17132398127342
 20
279.92912486567485
 40
4.9999999999999991
 50
269.99999999999977
 51
359.99999999999966
  0
LINE
  8
_0-b_細線3
  6
CONTINUOUS
 62
    7
 10
580.17132398127342
 20
279.92912486567485
 11
580.17132398127342
 21
320.76245819900794
  0
LINE
  8
_0-b_細線3
  6
CONTINUOUS
 62
    7
 10
575.17132398127342
 20
274.92912486567485
 11
531.00465731460645
 21
274.92912486567485
  0
LINE
  8
_0-b_細線3
  6
CONTINUOUS
 62
    7
 10
530.17132398127342
 20
275.76245819900834
 11
531.00465731460645
 21
274.92912486567485
  0
LINE
  8
_0-b_細線3
  6
CONTINUOUS
 62
    7
 10
530.17132398127342
 20
279.09579153234182
 11
530.17132398127342
 21
275.76245819900834
  0
LINE
  8
_0-b_細線3
  6
CONTINUOUS
 62
    7
 10
531.00465731460645
 20
279.92912486567485
 11
530.17132398127342
 21
279.09579153234182
  0
LINE
  8
_0-b_細線3
  6
CONTINUOUS
 62
    7
 10
575.17132398127342
 20
279.92912486567485
 11
531.00465731460645
 21
279.92912486567485
  0
LINE
  8
_0-b_細線3
  6
CONTINUOUS
 62
    7
 10
579.3379906479413
 20
321.59579153234182
 11
580.17132398127342
 21
320.76245819900794
  0
LINE
  8
_0-b_細線3
  6
CONTINUOUS
 62
    7
 10
576.00465731460736
 20
321.59579153234182
 11
579.3379906479413
 21
321.59579153234182
  0
LINE
  8
_0-b_細線3
  6
CONTINUOUS
 62
    7
 10
575.17132398127342
 20
320.76245819900794
 11
576.00465731460736
 21
321.59579153234182
  0
LINE
  8
_0-b_細線3
  6
CONTINUOUS
 62
    7
 10
575.17132398127342
 20
279.92912486567485
 11
575.17132398127342
 21
320.76245819900794
  0
LINE
  8
_0-b_細線3
  6
CONTINUOUS
 62
    7
 10
457.42132398157452
 20
321.59615653402062
 11
465.2546573149084
 21
321.59615653402062
  0
LINE
  8
_0-b_細線3
  6
CONTINUOUS
 62
    7
 10
321.00465731460736
 20
279.92912486567485
 11
321.00465731460736
 21
321.59579153234142
  0
LINE
  8
_0-b_細線3
  6
CONTINUOUS
 62
    7
 10
321.00465731460736
 20
321.59579153234142
 11
572.67132398127342
 21
321.59579153234142
  0
LINE
  8
_0-b_細線3
  6
CONTINUOUS
 62
    7
 10
572.67132398127342
 20
321.59579153234142
 11
572.67132398127342
 21
279.92912486567485
  0
LINE
  8
_0-b_細線3
  6
CONTINUOUS
 62
    7
 10
572.67132398127342
 20
279.92912486567485
 11
321.00465731460736
 21
279.92912486567485
  0
LINE
  8
_0-b_細線3
  6
CONTINUOUS
 62
    7
 10
321.00465731460736
 20
315.09579153234188
 11
572.67132398127342
 21
315.09579153234188
  0
CIRCLE
  8
_0-b_細線3
  6
CONTINUOUS
 62
    7
 10
356.83799064794039
 20
302.59579153234188
 40
10.833333333333332
  0
LINE
  8
_0-b_細線3
  6
CONTINUOUS
 62
    7
 10
363.50465731460736
 20
302.59579153234188
 11
360.17132398127342
 21
308.36929422423765
  0
LINE
  8
_0-b_細線3
  6
CONTINUOUS
 62
    7
 10
360.17132398127342
 20
308.36929422423765
 11
353.50465731460736
 21
308.36929422423765
  0
LINE
  8
_0-b_細線3
  6
CONTINUOUS
 62
    7
 10
353.50465731460736
 20
308.36929422423765
 11
350.17132398127342
 21
302.59579153234188
  0
LINE
  8
_0-b_細線3
  6
CONTINUOUS
 62
    7
 10
350.17132398127342
 20
302.59579153234188
 11
353.50465731460736
 21
296.82228884044508
  0
LINE
  8
_0-b_細線3
  6
CONTINUOUS
 62
    7
 10
353.50465731460736
 20
296.82228884044508
 11
360.17132398127342
 21
296.82228884044508
  0
LINE
  8
_0-b_細線3
  6
CONTINUOUS
 62
    7
 10
360.17132398127342
 20
296.82228884044508
 11
363.50465731460736
 21
302.59579153234188
  0
CIRCLE
  8
_0-b_細線3
  6
CONTINUOUS
 62
    7
 10
536.83799064794039
 20
302.59579153234188
 40
10.833333333333332
  0
LINE
  8
_0-b_細線3
  6
CONTINUOUS
 62
    7
 10
530.17132398127342
 20
302.59579153234188
 11
533.50465731460736
 21
308.36929422423765
  0
LINE
  8
_0-b_細線3
  6
CONTINUOUS
 62
    7
 10
533.50465731460736
 20
308.36929422423765
 11
540.17132398127342
 21
308.36929422423765
  0
LINE
  8
_0-b_細線3
  6
CONTINUOUS
 62
    7
 10
540.17132398127342
 20
308.36929422423765
 11
543.50465731460736
 21
302.59579153234188
  0
LINE
  8
_0-b_細線3
  6
CONTINUOUS
 62
    7
 10
543.50465731460736
 20
302.59579153234188
 11
540.17132398127342
 21
296.82228884044508
  0
LINE
  8
_0-b_細線3
  6
CONTINUOUS
 62
    7
 10
540.17132398127342
 20
296.82228884044508
 11
533.50465731460736
 21
296.82228884044508
  0
LINE
  8
_0-b_細線3
  6
CONTINUOUS
 62
    7
 10
533.50465731460736
 20
296.82228884044508
 11
530.17132398127342
 21
302.59579153234188
  0
LINE
  8
_0-d_寸法3
  6
CONTINUOUS
 62
    7
 10
303.50465731460736
 20
274.92912486567491
 11
257.55462623601761
 21
274.92912486567485
  0
LINE
  8
_0-d_寸法3
  6
CONTINUOUS
 62
    7
 10
262.55462623601761
 20
274.92912486567485
 11
265.14281668704285
 21
265.26986660278413
  0
LINE
  8
_0-d_寸法3
  6
CONTINUOUS
 62
    7
 10
262.55462623601761
 20
274.92912486567485
 11
259.96643578499237
 21
265.26986660278419
  0
LINE
  8
_0-d_寸法3
  6
CONTINUOUS
 62
    7
 10
301.50465731460741
 20
236.59579153234142
 11
257.55462623601858
 21
236.59579153234142
  0
LINE
  8
_0-d_寸法3
  6
CONTINUOUS
 62
    7
 10
262.55462623601858
 20
236.59579153234137
 11
259.96643578499334
 21
246.25504979523208
  0
LINE
  8
_0-d_寸法3
  6
CONTINUOUS
 62
    7
 10
262.55462623601858
 20
236.59579153234137
 11
265.14281668704371
 21
246.25504979523208
  0
LINE
  8
_0-d_寸法3
  6
CONTINUOUS
 62
    7
 10
262.55462623601761
 20
274.92912486567485
 11
262.55462623601858
 21
236.59579153234137
  0
TEXT
  8
_0-d_寸法3
 62
    7
 10
262.55462623601858
 20
248.26245819900834
 40
15
 41
1
 50
90
  1
23
  0
LINE
  8
_0-d_寸法3
  6
CONTINUOUS
 62
    7
 10
303.50465731460736
 20
321.59579153234188
 11
257.55462623601761
 21
321.59579153234182
  0
LINE
  8
_0-d_寸法3
  6
CONTINUOUS
 62
    7
 10
262.55462623601761
 20
321.59579153234182
 11
265.14281668704285
 21
311.9365332694511
  0
LINE
  8
_0-d_寸法3
  6
CONTINUOUS
 62
    7
 10
262.55462623601761
 20
321.59579153234182
 11
259.96643578499237
 21
311.93653326945116
  0
LINE
  8
_0-d_寸法3
  6
CONTINUOUS
 62
    7
 10
301.50465731460741
 20
274.92912486567491
 11
257.55462623601761
 21
274.92912486567485
  0
LINE
  8
_0-d_寸法3
  6
CONTINUOUS
 62
    7
 10
262.55462623601761
 20
274.92912486567485
 11
259.96643578499237
 21
284.58838312856551
  0
LINE
  8
_0-d_寸法3
  6
CONTINUOUS
 62
    7
 10
262.55462623601761
 20
274.92912486567485
 11
265.14281668704285
 21
284.58838312856557
  0
LINE
  8
_0-d_寸法3
  6
CONTINUOUS
 62
    7
 10
262.55462623601761
 20
321.59579153234182
 11
262.55462623601761
 21
274.92912486567485
  0
TEXT
  8
_0-d_寸法3
 62
    7
 10
262.55462623601761
 20
290.76245819900834
 40
15
 41
1
 50
90
  1
28
  0
LINE
  8
_0-a_極細3
  6
CONTINUOUS
 62
    7
 10
269.86458909412204
 20
224.81082602817864
 11
264.73428694423689
 21
238.9062153399671
  0
LINE
  8
_0-a_極細3
  6
CONTINUOUS
 62
    7
 10
319.85863176791827
 20
258.96983603921336
 11
324.98893391780308
 21
244.87444672742441
  0
LINE
  8
_0-a_極細3
  6
CONTINUOUS
 62
    7
 10
264.73428694423689
 20
238.9062153399671
 11
319.85863176791827
 21
258.96983603921336
  0
LINE
  8
_0-a_極細3
  6
CONTINUOUS
 62
    7
 10
269.86458909412204
 20
224.81082602817864
 11
324.98893391780308
 21
244.87444672742441
  0
LINE
  8
_0-a_極細3
  6
CENTER1
 62
    7
 10
262.34400462718668
 20
230.05489064404293
 11
326.37502510975264
 21
253.36027612907841
  0
LINE
  8
_0-a_極細3
  6
CONTINUOUS
 62
    7
 10
288.50465731460736
 20
199.92912486567491
 11
288.50465731460736
 21
244.01468621399076
  0
LINE
  8
_0-a_極細3
  6
CONTINUOUS
 62
    7
 10
288.50465731460736
 20
244.01468621399076
 11
273.50465731460736
 21
244.01468621399076
  0
LINE
  8
_0-a_極細3
  6
CONTINUOUS
 62
    7
 10
273.50465731460736
 20
244.01468621399076
 11
273.50465731460736
 21
199.92912486567491
  0
LINE
  8
_0-a_極細3
  6
CENTER1
 62
    7
 10
281.00465731460736
 20
191.65238458122195
 11
281.00465731460736
 21
248.2904063786003
  0
LINE
  8
_0-a_極細3
  6
CONTINUOUS
 62
    7
 10
623.81139220175874
 20
224.81082602817864
 11
628.94169435164395
 21
238.9062153399671
  0
LINE
  8
_0-a_極細3
  6
CONTINUOUS
 62
    7
 10
573.81734952796205
 20
258.96983603921336
 11
568.6870473780773
 21
244.87444672742441
  0
LINE
  8
_0-a_極細3
  6
CONTINUOUS
 62
    7
 10
628.94169435164395
 20
238.9062153399671
 11
573.81734952796205
 21
258.96983603921336
  0
LINE
  8
_0-a_極細3
  6
CONTINUOUS
 62
    7
 10
623.81139220175874
 20
224.81082602817864
 11
568.6870473780773
 21
244.87444672742441
  0
LINE
  8
_0-a_極細3
  6
CENTER1
 62
    7
 10
631.3319766686941
 20
230.05489064404293
 11
567.30095618612813
 21
253.36027612907841
  0
LINE
  8
_0-a_極細3
  6
CONTINUOUS
 62
    7
 10
605.17132398127342
 20
199.92912486567491
 11
605.17132398127342
 21
244.01468621399076
  0
LINE
  8
_0-a_極細3
  6
CONTINUOUS
 62
    7
 10
605.17132398127342
 20
244.01468621399076
 11
620.17132398127342
 21
244.01468621399076
  0
LINE
  8
_0-a_極細3
  6
CONTINUOUS
 62
    7
 10
620.17132398127342
 20
244.01468621399076
 11
620.17132398127342
 21
199.92912486567491
  0
LINE
  8
_0-a_極細3
  6
CENTER1
 62
    7
 10
612.67132398127342
 20
191.65238458122195
 11
612.67132398127342
 21
248.2904063786003
  0
LINE
  8
_0-d_寸法3
  6
CONTINUOUS
 62
    7
 10
438.64647020505055
 20
285.66488922918541
 11
403.50616551634982
 21
310.27039546719999
  0
LINE
  8
_0-d_寸法3
  6
CONTINUOUS
 62
    7
 10
407.60192573779477
 20
307.40251328544474
 11
405.01373528676964
 21
317.0617715483354
  0
LINE
  8
_0-d_寸法3
  6
CONTINUOUS
 62
    7
 10
407.60192573779477
 20
307.40251328544474
 11
410.19011618882007
 21
317.0617715483354
  0
LINE
  8
_0-d_寸法3
  6
CONTINUOUS
 62
    7
 10
438.64647020505055
 20
327.33155589585186
 11
403.50616551634982
 21
351.93706213386656
  0
LINE
  8
_0-d_寸法3
  6
CONTINUOUS
 62
    7
 10
407.60192573779477
 20
349.06917995211126
 11
410.19011618881996
 21
339.4099216892206
  0
LINE
  8
_0-d_寸法3
  6
CONTINUOUS
 62
    7
 10
407.60192573779477
 20
349.06917995211126
 11
405.01373528676959
 21
339.4099216892206
  0
LINE
  8
_0-d_寸法3
  6
CONTINUOUS
 62
    7
 10
407.60192573779477
 20
307.40251328544474
 11
407.60192573779477
 21
349.06917995211126
  0
TEXT
  8
_0-d_寸法3
 62
    7
 10
407.60192573779477
 20
320.73584661877783
 40
15
 41
1
 50
90
  1
25
  0
TEXT
  8
_0-7_枠細線
 62
    5
 10
396.91594300870662
 20
138.26209319732996
 40
25
 41
0.8
 50
0
  1
断面詳細図
  0
TEXT
  8
_0-7_枠細線
 62
    5
 10
511.86491275787466
 20
138.26209319732996
 40
20
 41
0.6
 50
0
  1
Ｓ＝１：３
  0
TEXT
  8
_0-7_枠細線
 62
    5
 10
965.50000000000011
 20
110
 40
20
 41
0.6
 50
0
  1
ＧＲＳＪ－２５Ｗ１５１　ＳＥＴ
  0
LINE
  8
_0-7_枠細線
  6
CONTINUOUS
 62
    5
 10
1074.9999999999998
 20
286.80454176804574
 11
1375
 21
286.80454176804574
  0
LINE
  8
_0-7_枠細線
  6
CONTINUOUS
 62
    5
 10
1074.9999999999998
 20
311.80454176804574
 11
1375
 21
311.80454176804574
  0
LINE
  8
_0-7_枠細線
  6
CONTINUOUS
 62
    5
 10
1074.9999999999998
 20
336.80454176804574
 11
1375
 21
336.80454176804574
  0
LINE
  8
_0-7_枠細線
  6
CONTINUOUS
 62
    5
 10
1074.9999999999998
 20
361.80454176804585
 11
1375
 21
361.80454176804585
  0
LINE
  8
_0-7_枠細線
  6
CONTINUOUS
 62
    5
 10
1074.9999999999998
 20
386.80454176804574
 11
1375
 21
386.80454176804574
  0
LINE
  8
_0-7_枠細線
  6
CONTINUOUS
 62
    5
 10
1074.9999999999998
 20
411.80454176804568
 11
1375
 21
411.80454176804568
  0
LINE
  8
_0-7_枠細線
  6
CONTINUOUS
 62
    5
 10
1074.9999999999998
 20
436.80454176804568
 11
1375
 21
436.80454176804568
  0
TEXT
  8
_0-7_枠細線
 62
    5
 10
1163.7499999999998
 20
441.80454176804568
 40
17.5
 41
1
 50
0
  1
品番表
  0
TEXT
  8
_0-7_枠細線
 62
    5
 10
1306
 20
416.80454176804568
 40
15
 41
0.8000000000000001
 50
0
  1
備　　考
  0
TEXT
  8
_0-7_枠細線
 62
    5
 10
1213.0000000000002
 20
366.80454176804585
 40
15
 41
0.5999999999999999
 50
0
  1
ライトグレー
  0
TEXT
  8
_0-7_枠細線
 62
    5
 10
1222.0000000000002
 20
391.80454176804568
 40
15
 41
0.5999999999999999
 50
0
  1
ベージュ
  0
TEXT
  8
_0-7_枠細線
 62
    5
 10
1234.0000000000005
 20
416.80454176804568
 40
15
 41
0.8000000000000001
 50
0
  1
色
  0
TEXT
  8
_0-7_枠細線
 62
    5
 10
1111
 20
416.80454176804568
 40
15
 41
0.8000000000000001
 50
0
  1
品　　番
  0
LINE
  8
_0-7_枠細線
  6
CONTINUOUS
 62
    5
 10
1074.9999999999998
 20
211.80454176804551
 11
1375
 21
211.80454176804551
  0
LINE
  8
_0-7_枠細線
  6
CONTINUOUS
 62
    5
 10
1074.9999999999998
 20
236.80454176804577
 11
1375
 21
236.80454176804577
  0
LINE
  8
_0-7_枠細線
  6
CONTINUOUS
 62
    5
 10
1074.9999999999998
 20
261.80454176804585
 11
1375
 21
261.80454176804585
  0
TEXT
  8
_0-7_枠細線
 62
    5
 10
1222.0000000000007
 20
341.80454176804585
 40
15
 41
0.5999999999999999
 50
0
  1
ホワイト
  0
TEXT
  8
_0-7_枠細線
 62
    5
 10
1226.5
 20
316.80454176804574
 40
15
 41
0.5999999999999999
 50
0
  1
ピンク
  0
TEXT
  8
_0-7_枠細線
 62
    5
 10
1226.5
 20
291.80454176804574
 40
15
 41
0.5999999999999999
 50
0
  1
ブルー
  0
TEXT
  8
_0-7_枠細線
 62
    5
 10
1212.9999999999998
 20
266.80454176804574
 40
15
 41
0.5999999999999999
 50
0
  1
ダークグレー
  0
TEXT
  8
_0-7_枠細線
 62
    5
 10
1079.75
 20
391.80454176804568
 40
15
 41
0.5666666666666667
 50
0
  1
ＧＲＳＪ－２５Ｗ１５１－Ｂ
  0
TEXT
  8
_0-7_枠細線
 62
    5
 10
1079.7500000000002
 20
366.80454176804574
 40
15
 41
0.5666666666666667
 50
0
  1
ＧＲＳＪ－２５Ｗ１５１－Ｇ
  0
TEXT
  8
_0-7_枠細線
 62
    5
 10
1079.7500000000002
 20
341.80454176804585
 40
15
 41
0.5666666666666667
 50
0
  1
ＧＲＳＪ－２５Ｗ１５１－Ｓ
  0
TEXT
  8
_0-7_枠細線
 62
    5
 10
1079.7500000000002
 20
316.80454176804574
 40
15
 41
0.5666666666666667
 50
0
  1
ＧＲＳＪ－２５Ｗ１５１－Ｐ
  0
TEXT
  8
_0-7_枠細線
 62
    5
 10
1079.7500000000002
 20
291.80454176804574
 40
15
 41
0.5666666666666667
 50
0
  1
ＧＲＳＪ－２５Ｗ１５１－Ａ
  0
TEXT
  8
_0-7_枠細線
 62
    5
 10
1079.7500000000002
 20
266.80454176804574
 40
15
 41
0.5666666666666667
 50
0
  1
ＧＲＳＪ－２５Ｗ１５１－Ｄ
  0
TEXT
  8
_0-7_枠細線
 62
    5
 10
1079.7500000000002
 20
241.80454176804568
 40
15
 41
0.5666666666666667
 50
0
  1
ＧＲＳＪ－２５Ｗ１５１－Ｍ
  0
TEXT
  8
_0-7_枠細線
 62
    5
 10
1226.5
 20
241.80454176804568
 40
15
 41
0.5999999999999999
 50
0
  1
ウッド
  0
LINE
  8
_0-7_枠細線
  6
CONTINUOUS
 62
    5
 10
1074.9999999999998
 20
186.80454176804531
 11
1375
 21
186.80454176804531
  0
TEXT
  8
_0-7_枠細線
 62
    5
 10
1222.0000000000007
 20
191.80454176804545
 40
15
 41
0.5999999999999999
 50
0
  1
ブラック
  0
TEXT
  8
_0-7_枠細線
 62
    5
 10
1079.7500000000002
 20
191.80454176804545
 40
15
 41
0.5666666666666667
 50
0
  1
ＧＲＳＪ－２５Ｗ１５１－Ｋ
  0
LINE
  8
_0-7_枠細線
  6
CONTINUOUS
 62
    5
 10
1195.0000000000002
 20
436.80454176804568
 11
1195.0000000000002
 21
186.80454176804523
  0
LINE
  8
_0-7_枠細線
  6
CONTINUOUS
 62
    5
 10
1284.9999999999998
 20
436.80454176804568
 11
1284.9999999999998
 21
186.80454176804531
  0
LINE
  8
_0-7_枠細線
  6
CONTINUOUS
 62
    5
 10
1375
 20
436.80454176804568
 11
1375
 21
186.80454176804531
  0
LINE
  8
_0-7_枠細線
  6
CONTINUOUS
 62
    5
 10
1074.9999999999998
 20
436.80454176804568
 11
1074.9999999999998
 21
186.80454176804523
  0
TEXT
  8
_0-7_枠細線
 62
    5
 10
1079.75
 20
216.80454176804574
 40
15
 41
0.5666666666666667
 50
0
  1
ＧＲＳＪ－２５Ｗ１５１－Ｃ
  0
TEXT
  8
_0-7_枠細線
 62
    5
 10
1222.0000000000002
 20
216.80454176804574
 40
15
 41
0.5999999999999999
 50
0
  1
ブラウン
  0
LINE
  8
_0-7_枠細線
  6
CONTINUOUS
 62
    5
 10
1070.9284867499741
 20
216.89610373192761
 11
1063.4284867499741
 21
231.89610373192761
  0
LINE
  8
_0-7_枠細線
  6
CONTINUOUS
 62
    5
 10
1055.9284867499741
 20
216.89610373192761
 11
1070.9284867499741
 21
216.89610373192761
  0
LINE
  8
_0-7_枠細線
  6
CONTINUOUS
 62
    5
 10
1063.4284867499741
 20
231.89610373192761
 11
1055.9284867499741
 21
216.89610373192761
  0
TEXT
  8
_0-7_枠細線
 62
    5
 10
1058.2936380181222
 20
215.94728376707766
 40
12.5
 41
0.8
 50
0
  1
３
  0
LINE
  8
_0-d_寸法3
  6
CONTINUOUS
 62
    7
 10
892.44378588537256
 20
284.83810605534273
 11
892.44378588537256
 21
326.50477272200925
  0
LINE
  8
_0-d_寸法3
  6
CONTINUOUS
 62
    7
 10
892.44378588537256
 20
321.50477272200925
 11
902.10304414826339
 21
324.09296317303443
  0
LINE
  8
_0-d_寸法3
  6
CONTINUOUS
 62
    7
 10
892.44378588537256
 20
321.50477272200925
 11
902.10304414826339
 21
318.91658227098407
  0
LINE
  8
_0-d_寸法3
  6
CONTINUOUS
 62
    7
 10
921.44378588597556
 20
284.83810605534273
 11
921.44378588597556
 21
326.50477272200925
  0
LINE
  8
_0-d_寸法3
  6
CONTINUOUS
 62
    7
 10
921.44378588597556
 20
321.50477272200925
 11
911.78452762308495
 21
318.91658227098407
  0
LINE
  8
_0-d_寸法3
  6
CONTINUOUS
 62
    7
 10
921.44378588597556
 20
321.50477272200925
 11
911.78452762308495
 21
324.09296317303449
  0
LINE
  8
_0-d_寸法3
  6
CONTINUOUS
 62
    7
 10
892.44378588537256
 20
321.50477272200925
 11
921.44378588597556
 21
321.50477272200925
  0
TEXT
  8
_0-d_寸法3
 62
    7
 10
880.89760797573138
 20
306.50477272200925
 40
15
 41
1
 50
0
  1
(17.4)
  0
LINE
  8
_0-d_寸法3
  6
CONTINUOUS
 62
    7
 10
921.44378588597556
 20
321.50477272200925
 11
931.10304414886627
 21
324.09296317303438
  0
LINE
  8
_0-d_寸法3
  6
CONTINUOUS
 62
    7
 10
921.44378588597556
 20
321.50477272200925
 11
931.10304414886627
 21
318.91658227098401
  0
LINE
  8
_0-d_寸法3
  6
CONTINUOUS
 62
    7
 10
950.44378588657867
 20
284.83810605534273
 11
950.44378588657867
 21
326.50477272200925
  0
LINE
  8
_0-d_寸法3
  6
CONTINUOUS
 62
    7
 10
950.44378588657867
 20
321.50477272200925
 11
940.78452762368784
 21
318.91658227098407
  0
LINE
  8
_0-d_寸法3
  6
CONTINUOUS
 62
    7
 10
950.44378588657867
 20
321.50477272200925
 11
940.78452762368784
 21
324.09296317303449
  0
LINE
  8
_0-d_寸法3
  6
CONTINUOUS
 62
    7
 10
921.44378588597556
 20
321.50477272200925
 11
950.44378588657867
 21
321.50477272200925
  0
TEXT
  8
_0-d_寸法3
 62
    7
 10
917.96427464239798
 20
321.50477272200925
 40
15
 41
1
 50
0
  1
(17.4)
  0
LINE
  8
_0-d_寸法3
  6
CONTINUOUS
 62
    7
 10
843.94378588201062
 20
281.50477272200925
 11
843.94378588201062
 21
326.50477272200925
  0
LINE
  8
_0-d_寸法3
  6
CONTINUOUS
 62
    7
 10
843.94378588201062
 20
321.50477272200925
 11
834.28452761912001
 21
318.91658227098407
  0
LINE
  8
_0-d_寸法3
  6
CONTINUOUS
 62
    7
 10
843.94378588201062
 20
321.50477272200925
 11
834.28452761912001
 21
324.09296317303449
  0
LINE
  8
_0-d_寸法3
  6
CONTINUOUS
 62
    7
 10
853.94378588629206
 20
281.50477272200925
 11
853.94378588629206
 21
326.50477272200925
  0
LINE
  8
_0-d_寸法3
  6
CONTINUOUS
 62
    7
 10
819.56983019884376
 20
321.50477272200925
 11
853.94378588629206
 21
321.50477272200925
  0
TEXT
  8
_0-d_寸法3
 62
    7
 10
819.56983019884376
 20
306.50477272200925
 40
15
 41
1
 50
0
  1
(6)
  0
LINE
  8
_0-d_寸法3
  6
CONTINUOUS
 62
    7
 10
853.94378588629206
 20
321.50477272200925
 11
863.60304414918289
 21
324.09296317303443
  0
LINE
  8
_0-d_寸法3
  6
CONTINUOUS
 62
    7
 10
853.94378588629206
 20
321.50477272200925
 11
863.60304414918289
 21
318.91658227098407
  0
LINE
  8
_0-d_寸法3
  6
CONTINUOUS
 62
    7
 10
872.94378588261327
 20
281.50477272200925
 11
872.94378588261327
 21
326.50477272200925
  0
LINE
  8
_0-d_寸法3
  6
CONTINUOUS
 62
    7
 10
872.94378588261327
 20
321.50477272200925
 11
863.28452761972244
 21
318.91658227098407
  0
LINE
  8
_0-d_寸法3
  6
CONTINUOUS
 62
    7
 10
872.94378588261327
 20
321.50477272200925
 11
863.28452761972244
 21
324.09296317303449
  0
LINE
  8
_0-d_寸法3
  6
CONTINUOUS
 62
    7
 10
853.94378588629206
 20
321.50477272200925
 11
872.94378588261327
 21
321.50477272200925
  0
TEXT
  8
_0-d_寸法3
 62
    7
 10
844.67908945810279
 20
321.50477272200925
 40
15
 41
1
 50
0
  1
11.4
  0
ARC
  8
_0-a_極細3
  6
CONTINUOUS
 62
    7
 10
981.27318921110884
 20
263.32482356365773
 40
17.558839598481345
 50
150.03871396148165
 51
205.23810402387883
  0
ARC
  8
_0-a_極細3
  6
CONTINUOUS
 62
    7
 10
949.50771402121063
 20
248.35131435102707
 40
17.558839598481345
 50
330.03871396148202
 51
25.238104023878222
  0
ARC
  8
_0-a_極細3
  6
CONTINUOUS
 62
    7
 10
836.35337377277494
 20
263.32482356365773
 40
17.558839598481345
 50
150.03871396148165
 51
205.23810402387883
  0
ARC
  8
_0-a_極細3
  6
CONTINUOUS
 62
    7
 10
804.58789858287673
 20
248.35131435102707
 40
17.558839598481345
 50
330.03871396148202
 51
25.238104023878222
  0
LINE
  8
_0-a_極細3
  6
CENTER1
 62
    7
 10
971.24255287566848
 20
255.83806895734261
 11
808.66401024774279
 21
255.83806895734261
  0
ARC
  8
_0-b_細線3
  6
CONTINUOUS
 62
    7
 10
884.61045255387853
 20
271.50477272200925
 40
1.666666666666667
 50
89.999999999999915
 51
179.99999999999983
  0
ARC
  8
_0-b_細線3
  6
CONTINUOUS
 62
    7
 10
885.39036787275745
 20
274.83810605534273
 40
1.666666666666667
 50
269.99999999999977
 51
330.00000000000301
  0
ARC
  8
_0-b_細線3
  6
CONTINUOUS
 62
    7
 10
888.27711921870559
 20
273.17143938867622
 40
1.666666666666667
 50
89.999999999999915
 51
150.00000000000134
  0
LINE
  8
_0-b_細線3
  6
CONTINUOUS
 62
    7
 10
884.61045255387853
 20
273.17143938867622
 11
885.39036787275745
 21
273.17143938867622
  0
ARC
  8
_0-b_細線3
  6
CONTINUOUS
 62
    7
 10
900.27711921686659
 20
271.50477272200925
 40
1.666666666666667
 50
0
 51
89.999999999999915
  0
ARC
  8
_0-b_細線3
  6
CONTINUOUS
 62
    7
 10
899.49720389798722
 20
274.83810605534273
 40
1.666666666666667
 50
210.00000000000404
 51
269.99999999999977
  0
ARC
  8
_0-b_細線3
  6
CONTINUOUS
 62
    7
 10
896.61045255203919
 20
273.17143938867622
 40
1.666666666666667
 50
29.999999999990862
 51
89.999999999984354
  0
LINE
  8
_0-b_細線3
  6
CONTINUOUS
 62
    7
 10
900.27711921686659
 20
273.17143938867622
 11
899.49720389798722
 21
273.17143938867622
  0
ARC
  8
_0-b_細線3
  6
CONTINUOUS
 62
    7
 10
883.77711922054516
 20
269.17143938867628
 40
0.8333333333333334
 50
179.99999999999983
 51
269.99999999999977
  0
LINE
  8
_0-b_細線3
  6
CONTINUOUS
 62
    7
 10
882.94378588721156
 20
271.50477272200925
 11
882.94378588721156
 21
269.17143938867628
  0
ARC
  8
_0-b_細線3
  6
CONTINUOUS
 62
    7
 10
901.11045255019974
 20
269.17143938867628
 40
0.8333333333333334
 50
269.99999999999977
 51
359.99999999999966
  0
LINE
  8
_0-b_細線3
  6
CONTINUOUS
 62
    7
 10
901.94378588353311
 20
271.50477272200925
 11
901.94378588353311
 21
269.17143938867628
  0
ARC
  8
_0-b_細線3
  6
CONTINUOUS
 62
    7
 10
887.94378588721156
 20
266.67143938867628
 40
1.666666666666667
 50
0
 51
89.999999999999915
  0
LINE
  8
_0-b_細線3
  6
CONTINUOUS
 62
    7
 10
887.94378588721156
 20
268.33810605534273
 11
883.77711922054516
 21
268.33810605534273
  0
ARC
  8
_0-b_細線3
  6
CONTINUOUS
 62
    7
 10
896.94378588721202
 20
266.67143938867628
 40
1.666666666666667
 50
89.999999999999915
 51
179.99999999999983
  0
LINE
  8
_0-b_細線3
  6
CONTINUOUS
 62
    7
 10
896.94378588353311
 20
268.33810605534273
 11
901.11045255019974
 21
268.33810605534273
  0
LINE
  8
_0-b_細線3
  6
CONTINUOUS
 62
    7
 10
896.61045255203919
 20
274.83810605534273
 11
888.27711921870559
 21
274.83810605534273
  0
LINE
  8
_0-b_細線3
  6
CONTINUOUS
 62
    7
 10
889.61045255203908
 20
233.17143938867622
 11
889.61045255387853
 21
266.67143938867628
  0
LINE
  8
_0-b_細線3
  6
CONTINUOUS
 62
    7
 10
895.27711921870559
 20
233.17143938867622
 11
895.2771192205455
 21
266.67143938867628
  0
LINE
  8
_0-b_細線3
  6
CONTINUOUS
 62
    7
 10
895.27711921870559
 20
233.17143938867622
 11
889.61045255203908
 21
233.17143938867622
  0
ARC
  8
_0-b_細線3
  6
CONTINUOUS
 62
    7
 10
913.61045255448164
 20
271.50477272200925
 40
1.666666666666667
 50
89.999999999999915
 51
179.99999999999983
  0
ARC
  8
_0-b_細線3
  6
CONTINUOUS
 62
    7
 10
914.39036787336045
 20
274.83810605534273
 40
1.666666666666667
 50
269.99999999999977
 51
329.99999999999523
  0
ARC
  8
_0-b_細線3
  6
CONTINUOUS
 62
    7
 10
917.27711921930859
 20
273.17143938867622
 40
1.666666666666667
 50
89.999999999999915
 51
150.00000000000915
  0
LINE
  8
_0-b_細線3
  6
CONTINUOUS
 62
    7
 10
913.61045255448164
 20
273.17143938867622
 11
914.39036787336045
 21
273.17143938867622
  0
ARC
  8
_0-b_細線3
  6
CONTINUOUS
 62
    7
 10
929.27711921746959
 20
271.50477272200925
 40
1.666666666666667
 50
0
 51
89.999999999999915
  0
ARC
  8
_0-b_細線3
  6
CONTINUOUS
 62
    7
 10
928.49720389859033
 20
274.83810605534273
 40
1.666666666666667
 50
209.99999999999622
 51
269.99999999999977
  0
ARC
  8
_0-b_細線3
  6
CONTINUOUS
 62
    7
 10
925.61045255264219
 20
273.17143938867622
 40
1.666666666666667
 50
29.999999999998682
 51
89.999999999999915
  0
LINE
  8
_0-b_細線3
  6
CONTINUOUS
 62
    7
 10
929.27711921746959
 20
273.17143938867622
 11
928.49720389859033
 21
273.17143938867622
  0
ARC
  8
_0-b_細線3
  6
CONTINUOUS
 62
    7
 10
912.77711922114861
 20
269.17143938867628
 40
0.8333333333333334
 50
179.99999999999983
 51
269.99999999999977
  0
LINE
  8
_0-b_細線3
  6
CONTINUOUS
 62
    7
 10
911.94378588781456
 20
271.50477272200925
 11
911.94378588781456
 21
269.17143938867628
  0
ARC
  8
_0-b_細線3
  6
CONTINUOUS
 62
    7
 10
930.11045255080262
 20
269.17143938867628
 40
0.8333333333333334
 50
269.99999999999977
 51
359.99999999999966
  0
LINE
  8
_0-b_細線3
  6
CONTINUOUS
 62
    7
 10
930.94378588413622
 20
271.50477272200925
 11
930.94378588413622
 21
269.17143938867628
  0
ARC
  8
_0-b_細線3
  6
CONTINUOUS
 62
    7
 10
916.94378588781456
 20
266.67143938867628
 40
1.666666666666667
 50
0
 51
89.999999999999915
  0
LINE
  8
_0-b_細線3
  6
CONTINUOUS
 62
    7
 10
916.94378588781456
 20
268.33810605534273
 11
912.77711922114861
 21
268.33810605534273
  0
ARC
  8
_0-b_細線3
  6
CONTINUOUS
 62
    7
 10
925.94378588781512
 20
266.67143938867628
 40
1.666666666666667
 50
89.999999999999915
 51
179.99999999999983
  0
LINE
  8
_0-b_細線3
  6
CONTINUOUS
 62
    7
 10
925.94378588413622
 20
268.33810605534273
 11
930.11045255080262
 21
268.33810605534273
  0
LINE
  8
_0-b_細線3
  6
CONTINUOUS
 62
    7
 10
925.61045255264219
 20
274.83810605534273
 11
917.27711921930859
 21
274.83810605534273
  0
LINE
  8
_0-b_細線3
  6
CONTINUOUS
 62
    7
 10
918.61045255264219
 20
233.17143938867622
 11
918.61045255448164
 21
266.67143938867628
  0
LINE
  8
_0-b_細線3
  6
CONTINUOUS
 62
    7
 10
924.27711921930859
 20
233.17143938867622
 11
924.2771192211485
 21
266.67143938867628
  0
LINE
  8
_0-b_細線3
  6
CONTINUOUS
 62
    7
 10
924.27711921930859
 20
233.17143938867622
 11
918.61045255264219
 21
233.17143938867622
  0
ARC
  8
_0-b_細線3
  6
CONTINUOUS
 62
    7
 10
942.61045255508463
 20
271.50477272200925
 40
1.666666666666667
 50
89.999999999999915
 51
179.99999999999983
  0
ARC
  8
_0-b_細線3
  6
CONTINUOUS
 62
    7
 10
943.39036787396356
 20
274.83810605534273
 40
1.666666666666667
 50
269.99999999999977
 51
329.99999999999523
  0
ARC
  8
_0-b_細線3
  6
CONTINUOUS
 62
    7
 10
946.27711921991158
 20
273.17143938867622
 40
1.666666666666667
 50
89.999999999999915
 51
150.00000000000915
  0
LINE
  8
_0-b_細線3
  6
CONTINUOUS
 62
    7
 10
942.61045255508463
 20
273.17143938867622
 11
943.39036787396356
 21
273.17143938867622
  0
ARC
  8
_0-b_細線3
  6
CONTINUOUS
 62
    7
 10
958.27711921807258
 20
271.50477272200925
 40
1.666666666666667
 50
0
 51
89.999999999999915
  0
ARC
  8
_0-b_細線3
  6
CONTINUOUS
 62
    7
 10
957.49720389919332
 20
274.83810605534273
 40
1.666666666666667
 50
210.00000000000404
 51
269.99999999999977
  0
ARC
  8
_0-b_細線3
  6
CONTINUOUS
 62
    7
 10
954.61045255324507
 20
273.17143938867622
 40
1.666666666666667
 50
29.999999999990862
 51
89.999999999984354
  0
LINE
  8
_0-b_細線3
  6
CONTINUOUS
 62
    7
 10
958.27711921807258
 20
273.17143938867622
 11
957.49720389919332
 21
273.17143938867622
  0
ARC
  8
_0-b_細線3
  6
CONTINUOUS
 62
    7
 10
941.77711922175104
 20
269.17143938867628
 40
0.8333333333333334
 50
179.99999999999983
 51
269.99999999999977
  0
LINE
  8
_0-b_細線3
  6
CONTINUOUS
 62
    7
 10
940.94378588841766
 20
271.50477272200925
 11
940.94378588841766
 21
269.17143938867628
  0
ARC
  8
_0-b_細線3
  6
CONTINUOUS
 62
    7
 10
959.11045255140561
 20
269.17143938867628
 40
0.8333333333333334
 50
269.99999999999977
 51
359.99999999999966
  0
LINE
  8
_0-b_細線3
  6
CONTINUOUS
 62
    7
 10
959.94378588473921
 20
271.50477272200925
 11
959.94378588473921
 21
269.17143938867628
  0
ARC
  8
_0-b_細線3
  6
CONTINUOUS
 62
    7
 10
945.94378588841766
 20
266.67143938867628
 40
1.666666666666667
 50
0
 51
89.999999999999915
  0
LINE
  8
_0-b_細線3
  6
CONTINUOUS
 62
    7
 10
945.94378588841766
 20
268.33810605534273
 11
941.77711922175104
 21
268.33810605534273
  0
ARC
  8
_0-b_細線3
  6
CONTINUOUS
 62
    7
 10
954.94378588841755
 20
266.67143938867628
 40
1.666666666666667
 50
89.999999999999915
 51
179.99999999999983
  0
LINE
  8
_0-b_細線3
  6
CONTINUOUS
 62
    7
 10
954.94378588473865
 20
268.33810605534273
 11
959.11045255140561
 21
268.33810605534273
  0
LINE
  8
_0-b_細線3
  6
CONTINUOUS
 62
    7
 10
954.61045255324507
 20
274.83810605534273
 11
946.27711921991158
 21
274.83810605534273
  0
LINE
  8
_0-b_細線3
  6
CONTINUOUS
 62
    7
 10
947.61045255324518
 20
233.17143938867622
 11
947.61045255508463
 21
266.67143938867628
  0
LINE
  8
_0-b_細線3
  6
CONTINUOUS
 62
    7
 10
953.2771192199117
 20
233.17143938867622
 11
953.27711922175149
 21
266.67143938867628
  0
LINE
  8
_0-b_細線3
  6
CONTINUOUS
 62
    7
 10
953.2771192199117
 20
233.17143938867622
 11
947.61045255324518
 21
233.17143938867622
  0
ARC
  8
_0-b_細線3
  6
CONTINUOUS
 62
    7
 10
826.61045255235558
 20
271.50477272200925
 40
1.666666666666667
 50
89.999999999999915
 51
179.99999999999983
  0
ARC
  8
_0-b_細線3
  6
CONTINUOUS
 62
    7
 10
827.3903678712345
 20
274.83810605534273
 40
1.666666666666667
 50
269.99999999999977
 51
330.00000000000301
  0
ARC
  8
_0-b_細線3
  6
CONTINUOUS
 62
    7
 10
830.27711921718264
 20
273.17143938867622
 40
1.666666666666667
 50
89.999999999999915
 51
150.00000000000134
  0
LINE
  8
_0-b_細線3
  6
CONTINUOUS
 62
    7
 10
826.61045255235558
 20
273.17143938867622
 11
827.3903678712345
 21
273.17143938867622
  0
ARC
  8
_0-b_細線3
  6
CONTINUOUS
 62
    7
 10
842.27711921534365
 20
271.50477272200925
 40
1.666666666666667
 50
0
 51
89.999999999999915
  0
ARC
  8
_0-b_細線3
  6
CONTINUOUS
 62
    7
 10
841.49720389646473
 20
274.83810605534273
 40
1.666666666666667
 50
209.99999999999622
 51
269.99999999999977
  0
ARC
  8
_0-b_細線3
  6
CONTINUOUS
 62
    7
 10
838.61045255051624
 20
273.17143938867622
 40
1.666666666666667
 50
29.999999999990862
 51
89.999999999984354
  0
LINE
  8
_0-b_細線3
  6
CONTINUOUS
 62
    7
 10
842.27711921534365
 20
273.17143938867622
 11
841.49720389646473
 21
273.17143938867622
  0
ARC
  8
_0-b_細線3
  6
CONTINUOUS
 62
    7
 10
825.77711921902267
 20
269.17143938867628
 40
0.8333333333333334
 50
179.99999999999983
 51
269.99999999999977
  0
LINE
  8
_0-b_細線3
  6
CONTINUOUS
 62
    7
 10
824.94378588568861
 20
271.50477272200925
 11
824.94378588568861
 21
269.17143938867628
  0
ARC
  8
_0-b_細線3
  6
CONTINUOUS
 62
    7
 10
843.11045254867679
 20
269.17143938867628
 40
0.8333333333333334
 50
269.99999999999977
 51
359.99999999999966
  0
LINE
  8
_0-b_細線3
  6
CONTINUOUS
 62
    7
 10
843.94378588201062
 20
271.50477272200925
 11
843.94378588201062
 21
269.17143938867628
  0
ARC
  8
_0-b_細線3
  6
CONTINUOUS
 62
    7
 10
829.94378588568861
 20
266.67143938867628
 40
1.666666666666667
 50
0
 51
89.999999999999915
  0
LINE
  8
_0-b_細線3
  6
CONTINUOUS
 62
    7
 10
829.94378588568861
 20
268.33810605534273
 11
825.77711921902267
 21
268.33810605534273
  0
ARC
  8
_0-b_細線3
  6
CONTINUOUS
 62
    7
 10
838.94378588568907
 20
266.67143938867628
 40
1.666666666666667
 50
89.999999999999915
 51
179.99999999999983
  0
LINE
  8
_0-b_細線3
  6
CONTINUOUS
 62
    7
 10
838.94378588201016
 20
268.33810605534273
 11
843.11045254867679
 21
268.33810605534273
  0
LINE
  8
_0-b_細線3
  6
CONTINUOUS
 62
    7
 10
838.61045255051624
 20
274.83810605534273
 11
830.27711921718264
 21
274.83810605534273
  0
LINE
  8
_0-b_細線3
  6
CONTINUOUS
 62
    7
 10
831.61045255051658
 20
233.17143938867622
 11
831.61045255235558
 21
266.67143938867628
  0
LINE
  8
_0-b_細線3
  6
CONTINUOUS
 62
    7
 10
837.27711921718264
 20
233.17143938867622
 11
837.27711921902255
 21
266.67143938867628
  0
LINE
  8
_0-b_細線3
  6
CONTINUOUS
 62
    7
 10
837.27711921718264
 20
233.17143938867622
 11
831.61045255051658
 21
233.17143938867622
  0
ARC
  8
_0-b_細線3
  6
CONTINUOUS
 62
    7
 10
855.61045255295869
 20
271.50477272200925
 40
1.666666666666667
 50
89.999999999999915
 51
179.99999999999983
  0
ARC
  8
_0-b_細線3
  6
CONTINUOUS
 62
    7
 10
856.39036787183795
 20
274.83810605534273
 40
1.666666666666667
 50
269.99999999999977
 51
329.99999999998744
  0
ARC
  8
_0-b_細線3
  6
CONTINUOUS
 62
    7
 10
859.27711921778564
 20
273.17143938867622
 40
1.666666666666667
 50
89.999999999999915
 51
150.00000000000915
  0
LINE
  8
_0-b_細線3
  6
CONTINUOUS
 62
    7
 10
855.61045255295869
 20
273.17143938867622
 11
856.39036787183795
 21
273.17143938867622
  0
ARC
  8
_0-b_細線3
  6
CONTINUOUS
 62
    7
 10
871.27711921594664
 20
271.50477272200925
 40
1.666666666666667
 50
0
 51
89.999999999999915
  0
ARC
  8
_0-b_細線3
  6
CONTINUOUS
 62
    7
 10
870.49720389706738
 20
274.83810605534273
 40
1.666666666666667
 50
210.00000000000404
 51
269.99999999999977
  0
ARC
  8
_0-b_細線3
  6
CONTINUOUS
 62
    7
 10
867.61045255111969
 20
273.17143938867622
 40
1.666666666666667
 50
29.999999999998682
 51
89.999999999999915
  0
LINE
  8
_0-b_細線3
  6
CONTINUOUS
 62
    7
 10
871.27711921594664
 20
273.17143938867622
 11
870.49720389706738
 21
273.17143938867622
  0
ARC
  8
_0-b_細線3
  6
CONTINUOUS
 62
    7
 10
854.77711921962566
 20
269.17143938867628
 40
0.8333333333333334
 50
179.99999999999983
 51
269.99999999999977
  0
LINE
  8
_0-b_細線3
  6
CONTINUOUS
 62
    7
 10
853.94378588629206
 20
271.50477272200925
 11
853.94378588629206
 21
269.17143938867628
  0
ARC
  8
_0-b_細線3
  6
CONTINUOUS
 62
    7
 10
872.11045254927967
 20
269.17143938867628
 40
0.8333333333333334
 50
269.99999999999977
 51
359.99999999999966
  0
LINE
  8
_0-b_細線3
  6
CONTINUOUS
 62
    7
 10
872.94378588261327
 20
271.50477272200925
 11
872.94378588261327
 21
269.17143938867628
  0
ARC
  8
_0-b_細線3
  6
CONTINUOUS
 62
    7
 10
858.94378588629206
 20
266.67143938867628
 40
1.666666666666667
 50
0
 51
89.999999999999915
  0
LINE
  8
_0-b_細線3
  6
CONTINUOUS
 62
    7
 10
858.94378588629206
 20
268.33810605534273
 11
854.77711921962566
 21
268.33810605534273
  0
ARC
  8
_0-b_細線3
  6
CONTINUOUS
 62
    7
 10
867.94378588629218
 20
266.67143938867628
 40
1.666666666666667
 50
89.999999999999915
 51
179.99999999999983
  0
LINE
  8
_0-b_細線3
  6
CONTINUOUS
 62
    7
 10
867.94378588261327
 20
268.33810605534273
 11
872.11045254927967
 21
268.33810605534273
  0
LINE
  8
_0-b_細線3
  6
CONTINUOUS
 62
    7
 10
867.61045255111969
 20
274.83810605534273
 11
859.27711921778564
 21
274.83810605534273
  0
LINE
  8
_0-b_細線3
  6
CONTINUOUS
 62
    7
 10
860.61045255111924
 20
233.17143938867622
 11
860.61045255295869
 21
266.67143938867628
  0
LINE
  8
_0-b_細線3
  6
CONTINUOUS
 62
    7
 10
866.27711921778609
 20
233.17143938867622
 11
866.27711921962555
 21
266.67143938867628
  0
LINE
  8
_0-b_細線3
  6
CONTINUOUS
 62
    7
 10
866.27711921778609
 20
233.17143938867622
 11
860.61045255111924
 21
233.17143938867622
  0
LINE
  8
_0-d_寸法3
  6
CONTINUOUS
 62
    7
 10
958.6353063297845
 20
238.90720375218672
 11
993.98764805547
 21
263.66117992187748
  0
LINE
  8
_0-d_寸法3
  6
CONTINUOUS
 62
    7
 10
989.89188783402506
 20
260.79329774012223
 11
987.30369738299999
 21
270.45255600301289
  0
LINE
  8
_0-d_寸法3
  6
CONTINUOUS
 62
    7
 10
989.89188783402506
 20
260.79329774012223
 11
992.48007828505024
 21
270.45255600301289
  0
LINE
  8
_0-d_寸法3
  6
CONTINUOUS
 62
    7
 10
958.6353063297845
 20
280.57387041885323
 11
993.98764805547
 21
305.32784658854399
  0
LINE
  8
_0-d_寸法3
  6
CONTINUOUS
 62
    7
 10
989.89188783402506
 20
302.45996440678874
 11
992.48007828505024
 21
292.80070614389803
  0
LINE
  8
_0-d_寸法3
  6
CONTINUOUS
 62
    7
 10
989.89188783402506
 20
302.45996440678874
 11
987.30369738299987
 21
292.80070614389808
  0
LINE
  8
_0-d_寸法3
  6
CONTINUOUS
 62
    7
 10
989.89188783402506
 20
260.79329774012223
 11
989.89188783402506
 21
302.45996440678874
  0
TEXT
  8
_0-d_寸法3
 62
    7
 10
989.89188783402506
 20
274.12663107345668
 40
15
 41
1
 50
90
  1
25
  0
LINE
  8
_0-b_細線3
  6
CONTINUOUS
 62
    7
 10
895.27711921962566
 20
245.0047356240093
 11
918.61045255295903
 21
245.0047356240093
  0
LINE
  8
_0-b_細線3
  6
CONTINUOUS
 62
    7
 10
924.27711922022866
 20
245.0047356240093
 11
947.61045255356203
 21
245.0047356240093
  0
LINE
  8
_0-b_細線3
  6
CONTINUOUS
 62
    7
 10
837.27711921810271
 20
245.0047356240093
 11
860.61045255143608
 21
245.0047356240093
  0
LINE
  8
_0-b_細線3
  6
CONTINUOUS
 62
    7
 10
866.27711921870616
 20
245.0047356240093
 11
889.61045255203908
 21
245.0047356240093
  0
LINE
  8
_0-b_細線3
  6
CONTINUOUS
 62
    7
 10
895.27711921962566
 20
266.67140229067599
 11
918.61045255295903
 21
266.67140229067599
  0
LINE
  8
_0-b_細線3
  6
CONTINUOUS
 62
    7
 10
924.27711922022866
 20
266.67140229067599
 11
947.61045255356203
 21
266.67140229067599
  0
LINE
  8
_0-b_細線3
  6
CONTINUOUS
 62
    7
 10
837.27711921810271
 20
266.67140229067599
 11
860.61045255143608
 21
266.67140229067599
  0
LINE
  8
_0-b_細線3
  6
CONTINUOUS
 62
    7
 10
866.27711921870616
 20
266.67140229067599
 11
889.61045255203908
 21
266.67140229067599
  0
LINE
  8
_0-b_細線3
  6
CONTINUOUS
 62
    7
 10
953.27711922083154
 20
266.67140229067599
 11
964.03621561163163
 21
266.67140229067599
  0
LINE
  8
_0-b_細線3
  6
CONTINUOUS
 62
    7
 10
953.27711922083154
 20
245.0047356240093
 11
966.74468762068784
 21
245.0047356240093
  0
LINE
  8
_0-b_細線3
  6
CONTINUOUS
 62
    7
 10
819.11640017329773
 20
266.67140229067599
 11
831.61045255083309
 21
266.67140229067599
  0
LINE
  8
_0-b_細線3
  6
CONTINUOUS
 62
    7
 10
821.82487218235394
 20
245.0047356240093
 11
831.61045255083309
 21
245.0047356240093
  0
TEXT
  8
_0-7_枠細線
 62
    5
 10
846.95974537681195
 20
192.25449050163036
 40
25
 41
0.8
 50
0
  1
側面詳細図
  0
TEXT
  8
_0-7_枠細線
 62
    5
 10
961.90871512598005
 20
192.25449050163036
 40
20
 41
0.6
 50
0
  1
Ｓ＝１：３
  0
LINE
  8
_0-7_枠細線
  6
CONTINUOUS
 62
    5
 10
785.16995454985135
 20
356.80454176804568
 11
785.16995454985135
 21
436.80454176804568
  0
TEXT
  8
_0-7_枠細線
 62
    5
 10
807.66995454985135
 20
414.30454176804568
 40
15
 41
1
 50
0
  1
耐荷重
  0
TEXT
  8
_0-7_枠細線
 62
    5
 10
800.16995454985135
 20
384.30454176804568
 40
15
 41
1
 50
0
  1
3.5kN/㎡
  0
TEXT
  8
_0-7_枠細線
 62
    5
 10
792.66995454985135
 20
364.30454176804568
 40
15
 41
1
 50
0
  1
（歩道用）
  0
LINE
  8
_0-7_枠細線
  6
CONTINUOUS
 62
    5
 10
875.16995454985135
 20
356.80454176804568
 11
875.16995454985135
 21
436.80454176804568
  0
TEXT
  8
_0-7_枠細線
 62
    5
 10
897.66995454985135
 20
414.30454176804568
 40
15
 41
1
 50
0
  1
蓋重量
  0
LINE
  8
_0-7_枠細線
  6
CONTINUOUS
 62
    5
 10
965.16995454985135
 20
356.80454176804568
 11
965.16995454985135
 21
436.80454176804568
  0
TEXT
  8
_0-7_枠細線
 62
    5
 10
987.66995454985135
 20
414.30454176804568
 40
15
 41
1
 50
0
  1
枠重量
  0
LINE
  8
_0-7_枠細線
  6
CONTINUOUS
 62
    5
 10
785.16995454985135
 20
406.80454176804568
 11
1055.1699545498514
 21
406.80454176804568
  0
LINE
  8
_0-7_枠細線
  6
CONTINUOUS
 62
    5
 10
785.16995454985135
 20
436.80454176804568
 11
1055.1699545498514
 21
436.80454176804568
  0
LINE
  8
_0-7_枠細線
  6
CONTINUOUS
 62
    5
 10
785.16995454985135
 20
356.80454176804568
 11
1055.1699545498514
 21
356.80454176804568
  0
LINE
  8
_0-7_枠細線
  6
CONTINUOUS
 62
    5
 10
1055.1699545498514
 20
356.80454176804568
 11
1055.1699545498514
 21
436.80454176804568
  0
TEXT
  8
_0-7_枠細線
 62
    5
 10
980.16995454985135
 20
375.55454176804568
 40
15
 41
0.8000000000000001
 50
0
  1
2.6kg/ｍ組
  0
TEXT
  8
_0-7_枠細線
 62
    5
 10
896.16995454985044
 20
375.55454176804568
 40
15
 41
0.8000000000000001
 50
0
  1
1.9kg/枚
  0
LINE
  8
_0-5_寸法線
  6
CONTINUOUS
 62
    7
 10
230.16328124999376
 20
742.60000000000014
 11
230.16328124999376
 21
822.60000000000014
  0
LINE
  8
_0-5_寸法線
  6
CONTINUOUS
 62
    7
 10
230.16328124999376
 20
817.60000000000014
 11
237.40772494716168
 21
819.54114283826914
  0
LINE
  8
_0-5_寸法線
  6
CONTINUOUS
 62
    7
 10
230.16328124999376
 20
817.60000000000014
 11
237.40772494716168
 21
815.65885716173125
  0
LINE
  8
_0-5_寸法線
  6
CONTINUOUS
 62
    7
 10
1229.1632812499938
 20
742.60000000000014
 11
1229.1632812499938
 21
822.60000000000014
  0
LINE
  8
_0-5_寸法線
  6
CONTINUOUS
 62
    7
 10
1229.1632812499938
 20
817.60000000000014
 11
1221.9188375528258
 21
815.65885716173125
  0
LINE
  8
_0-5_寸法線
  6
CONTINUOUS
 62
    7
 10
1229.1632812499938
 20
817.60000000000014
 11
1221.9188375528258
 21
819.54114283826914
  0
LINE
  8
_0-5_寸法線
  6
CONTINUOUS
 62
    7
 10
230.16328124999376
 20
817.60000000000014
 11
1229.1632812499938
 21
817.60000000000014
  0
TEXT
  8
_0-5_寸法線
 62
    7
 10
718.41328124999382
 20
817.60000000000014
 40
15
 41
1
 50
0
  1
999
  0
LINE
  8
_0-0_計極細
  6
CENTER2
 62
    2
 10
214.27468171297448
 20
652.60000000000105
 11
1245.2080150463516
 21
652.60000000000105
  0
ARC
  8
_0-0_計極細
  6
CONTINUOUS
 62
    2
 10
217.10950240667799
 20
725.10000000000105
 40
11.295514677412786
 50
138.39585046827571
 51
221.60414953172395
  0
ARC
  8
_0-0_計極細
  6
CONTINUOUS
 62
    2
 10
200.21706009330762
 20
710.0999999999998
 40
11.295514677412786
 50
318.39585046827381
 51
41.604149531723962
  0
ARC
  8
_0-0_計極細
  6
CONTINUOUS
 62
    2
 10
217.10950240667799
 20
595.09999999999968
 40
11.295514677412786
 50
138.39585046827571
 51
221.60414953172395
  0
ARC
  8
_0-0_計極細
  6
CONTINUOUS
 62
    2
 10
200.21706009330762
 20
580.09999999999832
 40
11.295514677412786
 50
318.39585046827381
 51
41.604149531723962
  0
LINE
  8
_0-1_計細線
  6
CONTINUOUS
 62
    3
 10
208.66328124999234
 20
732.60000000000105
 11
1250.6632812499934
 21
732.60000000000105
  0
LINE
  8
_0-1_計細線
  6
CONTINUOUS
 62
    3
 10
1250.6632812499934
 20
572.60000000000105
 11
208.66328124999234
 21
572.60000000000105
  0
ARC
  8
_0-0_計極細
  6
CONTINUOUS
 62
    2
 10
1259.109502406679
 20
725.10000000000105
 40
11.295514677412786
 50
138.39585046827415
 51
221.60414953172548
  0
ARC
  8
_0-0_計極細
  6
CONTINUOUS
 62
    2
 10
1242.2170600933086
 20
710.0999999999998
 40
11.295514677412786
 50
318.39585046827381
 51
41.60414953172549
  0
ARC
  8
_0-0_計極細
  6
CONTINUOUS
 62
    2
 10
1259.109502406679
 20
595.09999999999968
 40
11.295514677412786
 50
138.39585046827415
 51
221.60414953172548
  0
ARC
  8
_0-0_計極細
  6
CONTINUOUS
 62
    2
 10
1242.2170600933086
 20
580.09999999999832
 40
11.295514677412786
 50
318.39585046827381
 51
41.60414953172549
  0
LINE
  8
_0-1_計細線
  6
CONTINUOUS
 62
    3
 10
206.74906555161982
 20
729.60000000000105
 11
1248.7490655516208
 21
729.60000000000105
  0
LINE
  8
_0-1_計細線
  6
CONTINUOUS
 62
    3
 10
1252.5774969483682
 20
575.60000000000105
 11
210.57749694836815
 21
575.60000000000105
  0
LINE
  8
_0-5_寸法線
  6
CONTINUOUS
 62
    7
 10
198.66328124999185
 20
732.60000000000105
 11
153.66328124999734
 21
732.60000000000105
  0
LINE
  8
_0-5_寸法線
  6
CONTINUOUS
 62
    7
 10
158.66328124999734
 20
732.60000000000105
 11
161.25147170102252
 21
722.94074173711033
  0
LINE
  8
_0-5_寸法線
  6
CONTINUOUS
 62
    7
 10
158.66328124999734
 20
732.60000000000105
 11
156.07509079897213
 21
722.94074173711033
  0
LINE
  8
_0-5_寸法線
  6
CONTINUOUS
 62
    7
 10
198.66328124999461
 20
702.60000000000105
 11
153.66328124999734
 21
702.60000000000105
  0
LINE
  8
_0-5_寸法線
  6
CONTINUOUS
 62
    7
 10
158.66328124999734
 20
702.60000000000105
 11
156.07509079897213
 21
712.25925826289188
  0
LINE
  8
_0-5_寸法線
  6
CONTINUOUS
 62
    7
 10
158.66328124999734
 20
702.60000000000105
 11
161.25147170102252
 21
712.25925826289188
  0
LINE
  8
_0-5_寸法線
  6
CONTINUOUS
 62
    7
 10
158.66328124999734
 20
732.60000000000105
 11
158.66328124999734
 21
702.60000000000105
  0
TEXT
  8
_0-5_寸法線
 62
    7
 10
158.66328124999734
 20
710.10000000000105
 40
15
 41
1
 50
90
  1
30
  0
LINE
  8
_0-5_寸法線
  6
CONTINUOUS
 62
    7
 10
158.66328124999734
 20
702.60000000000105
 11
161.25147170102252
 21
692.94074173711033
  0
LINE
  8
_0-5_寸法線
  6
CONTINUOUS
 62
    7
 10
158.66328124999734
 20
702.60000000000105
 11
156.07509079897213
 21
692.94074173711033
  0
LINE
  8
_0-5_寸法線
  6
CONTINUOUS
 62
    7
 10
198.66328124999234
 20
602.59999999999968
 11
153.66328124999734
 21
602.59999999999968
  0
LINE
  8
_0-5_寸法線
  6
CONTINUOUS
 62
    7
 10
158.66328124999734
 20
602.59999999999968
 11
156.07509079897213
 21
612.2592582628904
  0
LINE
  8
_0-5_寸法線
  6
CONTINUOUS
 62
    7
 10
158.66328124999734
 20
602.59999999999968
 11
161.25147170102252
 21
612.2592582628904
  0
LINE
  8
_0-5_寸法線
  6
CONTINUOUS
 62
    7
 10
158.66328124999734
 20
702.60000000000105
 11
158.66328124999734
 21
602.59999999999968
  0
TEXT
  8
_0-5_寸法線
 62
    7
 10
158.66328124999734
 20
641.35000000000059
 40
15
 41
1
 50
89.999999999999815
  1
100
  0
LINE
  8
_0-5_寸法線
  6
CONTINUOUS
 62
    7
 10
158.66328124999734
 20
602.59999999999968
 11
161.25147170102252
 21
592.94074173710897
  0
LINE
  8
_0-5_寸法線
  6
CONTINUOUS
 62
    7
 10
158.66328124999734
 20
602.59999999999968
 11
156.07509079897213
 21
592.94074173710897
  0
LINE
  8
_0-5_寸法線
  6
CONTINUOUS
 62
    7
 10
198.6632812499974
 20
572.60000000000286
 11
153.66328124999734
 21
572.60000000000286
  0
LINE
  8
_0-5_寸法線
  6
CONTINUOUS
 62
    7
 10
158.66328124999734
 20
572.60000000000286
 11
156.07509079897213
 21
582.25925826289358
  0
LINE
  8
_0-5_寸法線
  6
CONTINUOUS
 62
    7
 10
158.66328124999734
 20
572.60000000000286
 11
161.25147170102252
 21
582.25925826289358
  0
LINE
  8
_0-5_寸法線
  6
CONTINUOUS
 62
    7
 10
158.66328124999734
 20
602.59999999999968
 11
158.66328124999734
 21
572.60000000000286
  0
TEXT
  8
_0-5_寸法線
 62
    7
 10
158.66328124999734
 20
580.10000000000105
 40
15
 41
1
 50
90
  1
30
  0
LINE
  8
_0-1_計細線
  6
CONTINUOUS
 62
    3
 10
1229.1632812499938
 20
602.60000000000105
 11
1250.6632812499934
 21
602.60000000000105
  0
LINE
  8
_0-1_計細線
  6
CONTINUOUS
 62
    3
 10
1229.1632812499938
 20
702.60000000000105
 11
1250.6632812499934
 21
702.60000000000105
  0
LINE
  8
_0-1_計細線
  6
CONTINUOUS
 62
    3
 10
208.66328124999234
 20
702.60000000000105
 11
230.16328124999376
 21
702.60000000000105
  0
LINE
  8
_0-1_計細線
  6
CONTINUOUS
 62
    3
 10
208.66328124999234
 20
602.60000000000105
 11
230.16328124999376
 21
602.60000000000105
  0
LINE
  8
_0-1_計細線
  6
CONTINUOUS
 62
    3
 10
1229.1632812499943
 20
577.10000000000105
 11
1229.1632812499934
 21
728.10000000000105
  0
LINE
  8
_0-1_計細線
  6
CONTINUOUS
 62
    3
 10
1217.7632812499937
 20
577.10000000000105
 11
1217.7632812499928
 21
728.10000000000105
  0
LINE
  8
_0-1_計細線
  6
CONTINUOUS
 62
    3
 10
1229.1632812499943
 20
577.10000000000105
 11
1217.7632812499937
 21
577.10000000000105
  0
LINE
  8
_0-1_計細線
  6
CONTINUOUS
 62
    3
 10
1229.1632812499934
 20
728.10000000000105
 11
1217.7632812499928
 21
728.10000000000105
  0
LINE
  8
_0-0_計極細
  6
CONTINUOUS
 62
    2
 10
1220.963281249994
 20
577.10000000000105
 11
1220.9632812499931
 21
728.10000000000105
  0
LINE
  8
_0-0_計極細
  6
CONTINUOUS
 62
    2
 10
1225.963281249994
 20
577.10000000000105
 11
1225.9632812499931
 21
728.10000000000105
  0
LINE
  8
_0-0_計極細
  6
CONTINUOUS
 62
    2
 10
1200.7632812499937
 20
592.10000000000105
 11
1195.1632812499934
 21
592.10000000000105
  0
LINE
  8
_0-0_計極細
  6
CONTINUOUS
 62
    2
 10
1200.7632812499937
 20
605.10000000000105
 11
1195.1632812499934
 21
605.10000000000105
  0
LINE
  8
_0-0_計極細
  6
CONTINUOUS
 62
    2
 10
1200.7632812499942
 20
700.10000000000105
 11
1195.1632812499938
 21
700.10000000000105
  0
LINE
  8
_0-0_計極細
  6
CONTINUOUS
 62
    2
 10
1200.7632812499942
 20
713.10000000000105
 11
1195.1632812499938
 21
713.10000000000105
  0
LINE
  8
_0-1_計細線
  6
CONTINUOUS
 62
    3
 10
1195.1632812499934
 20
577.10000000000105
 11
1195.1632812499925
 21
728.10000000000105
  0
LINE
  8
_0-1_計細線
  6
CONTINUOUS
 62
    3
 10
1183.7632812499928
 20
577.10000000000127
 11
1183.7632812499919
 21
728.10000000000127
  0
LINE
  8
_0-1_計細線
  6
CONTINUOUS
 62
    3
 10
1195.1632812499934
 20
577.10000000000105
 11
1183.7632812499928
 21
577.10000000000127
  0
LINE
  8
_0-1_計細線
  6
CONTINUOUS
 62
    3
 10
1195.1632812499925
 20
728.10000000000105
 11
1183.7632812499919
 21
728.10000000000127
  0
LINE
  8
_0-0_計極細
  6
CONTINUOUS
 62
    2
 10
1186.9632812499935
 20
577.10000000000127
 11
1186.9632812499926
 21
728.10000000000127
  0
LINE
  8
_0-0_計極細
  6
CONTINUOUS
 62
    2
 10
1191.9632812499935
 20
577.10000000000105
 11
1191.9632812499926
 21
728.10000000000127
  0
LINE
  8
_0-0_計極細
  6
CONTINUOUS
 62
    2
 10
1183.7632812499928
 20
592.10000000000127
 11
1178.1632812499929
 21
592.10000000000127
  0
LINE
  8
_0-0_計極細
  6
CONTINUOUS
 62
    2
 10
1183.7632812499928
 20
605.10000000000127
 11
1178.1632812499929
 21
605.10000000000127
  0
LINE
  8
_0-0_計極細
  6
CONTINUOUS
 62
    2
 10
1183.7632812499933
 20
700.10000000000127
 11
1178.1632812499929
 21
700.10000000000127
  0
LINE
  8
_0-0_計極細
  6
CONTINUOUS
 62
    2
 10
1183.7632812499933
 20
713.10000000000127
 11
1178.1632812499929
 21
713.10000000000127
  0
LINE
  8
_0-1_計細線
  6
CONTINUOUS
 62
    3
 10
1178.1632812499929
 20
577.10000000000127
 11
1178.1632812499915
 21
728.10000000000127
  0
LINE
  8
_0-1_計細線
  6
CONTINUOUS
 62
    3
 10
1166.7632812499924
 20
577.10000000000127
 11
1166.763281249991
 21
728.10000000000127
  0
LINE
  8
_0-1_計細線
  6
CONTINUOUS
 62
    3
 10
1178.1632812499929
 20
577.10000000000127
 11
1166.7632812499924
 21
577.10000000000127
  0
LINE
  8
_0-1_計細線
  6
CONTINUOUS
 62
    3
 10
1178.1632812499915
 20
728.10000000000127
 11
1166.763281249991
 21
728.10000000000127
  0
LINE
  8
_0-0_計極細
  6
CONTINUOUS
 62
    2
 10
1169.9632812499926
 20
577.10000000000127
 11
1169.9632812499913
 21
728.10000000000127
  0
LINE
  8
_0-0_計極細
  6
CONTINUOUS
 62
    2
 10
1174.9632812499926
 20
577.10000000000127
 11
1174.9632812499913
 21
728.10000000000127
  0
LINE
  8
_0-0_計極細
  6
CONTINUOUS
 62
    2
 10
1161.163281249997
 20
592.10000000000127
 11
1166.7632812499969
 21
592.10000000000127
  0
LINE
  8
_0-0_計極細
  6
CONTINUOUS
 62
    2
 10
1161.163281249997
 20
605.10000000000127
 11
1166.7632812499969
 21
605.10000000000127
  0
LINE
  8
_0-0_計極細
  6
CONTINUOUS
 62
    2
 10
1161.163281249997
 20
700.10000000000127
 11
1166.7632812499969
 21
700.10000000000127
  0
LINE
  8
_0-0_計極細
  6
CONTINUOUS
 62
    2
 10
1161.163281249997
 20
713.10000000000127
 11
1166.7632812499969
 21
713.10000000000127
  0
LINE
  8
_0-0_計極細
  6
CONTINUOUS
 62
    2
 10
1144.1632812499961
 20
592.10000000000105
 11
1149.7632812499965
 21
592.10000000000105
  0
LINE
  8
_0-0_計極細
  6
CONTINUOUS
 62
    2
 10
1144.1632812499965
 20
605.10000000000105
 11
1149.7632812499965
 21
605.10000000000105
  0
LINE
  8
_0-0_計極細
  6
CONTINUOUS
 62
    2
 10
1127.1632812499956
 20
592.10000000000105
 11
1132.7632812499955
 21
592.10000000000105
  0
LINE
  8
_0-0_計極細
  6
CONTINUOUS
 62
    2
 10
1127.1632812499956
 20
605.10000000000105
 11
1132.763281249996
 21
605.10000000000105
  0
LINE
  8
_0-0_計極細
  6
CONTINUOUS
 62
    2
 10
1127.1632812499961
 20
700.10000000000105
 11
1132.763281249996
 21
700.10000000000105
  0
LINE
  8
_0-0_計極細
  6
CONTINUOUS
 62
    2
 10
1127.1632812499961
 20
713.10000000000105
 11
1132.763281249996
 21
713.10000000000105
  0
LINE
  8
_0-1_計細線
  6
CONTINUOUS
 62
    3
 10
1115.7632812499951
 20
577.10000000000127
 11
1115.7632812499942
 21
728.10000000000105
  0
LINE
  8
_0-1_計細線
  6
CONTINUOUS
 62
    3
 10
1127.1632812499956
 20
577.10000000000105
 11
1127.1632812499947
 21
728.10000000000127
  0
LINE
  8
_0-1_計細線
  6
CONTINUOUS
 62
    3
 10
1115.7632812499951
 20
577.10000000000127
 11
1127.1632812499956
 21
577.10000000000105
  0
LINE
  8
_0-1_計細線
  6
CONTINUOUS
 62
    3
 10
1115.7632812499942
 20
728.10000000000105
 11
1127.1632812499947
 21
728.10000000000127
  0
LINE
  8
_0-0_計極細
  6
CONTINUOUS
 62
    2
 10
1123.9632812499949
 20
577.10000000000105
 11
1123.963281249994
 21
728.10000000000105
  0
LINE
  8
_0-0_計極細
  6
CONTINUOUS
 62
    2
 10
1118.9632812499949
 20
577.10000000000127
 11
1118.963281249994
 21
728.10000000000105
  0
LINE
  8
_0-0_計極細
  6
CONTINUOUS
 62
    2
 10
1110.1632812499947
 20
592.10000000000127
 11
1115.7632812499951
 21
592.10000000000127
  0
LINE
  8
_0-0_計極細
  6
CONTINUOUS
 62
    2
 10
1110.1632812499947
 20
605.10000000000127
 11
1115.7632812499951
 21
605.10000000000127
  0
LINE
  8
_0-0_計極細
  6
CONTINUOUS
 62
    2
 10
1110.1632812499947
 20
700.10000000000127
 11
1115.7632812499955
 21
700.10000000000127
  0
LINE
  8
_0-0_計極細
  6
CONTINUOUS
 62
    2
 10
1110.1632812499947
 20
713.10000000000127
 11
1115.7632812499955
 21
713.10000000000127
  0
LINE
  8
_0-1_計細線
  6
CONTINUOUS
 62
    3
 10
1098.7632812499942
 20
577.10000000000127
 11
1098.7632812499928
 21
728.10000000000105
  0
LINE
  8
_0-1_計細線
  6
CONTINUOUS
 62
    3
 10
1110.1632812499947
 20
577.10000000000127
 11
1110.1632812499934
 21
728.10000000000105
  0
LINE
  8
_0-1_計細線
  6
CONTINUOUS
 62
    3
 10
1098.7632812499942
 20
577.10000000000127
 11
1110.1632812499947
 21
577.10000000000127
  0
LINE
  8
_0-1_計細線
  6
CONTINUOUS
 62
    3
 10
1098.7632812499928
 20
728.10000000000105
 11
1110.1632812499934
 21
728.10000000000105
  0
LINE
  8
_0-0_計極細
  6
CONTINUOUS
 62
    2
 10
1106.9632812499945
 20
577.10000000000127
 11
1106.9632812499931
 21
728.10000000000105
  0
LINE
  8
_0-0_計極細
  6
CONTINUOUS
 62
    2
 10
1101.9632812499945
 20
577.10000000000127
 11
1101.9632812499931
 21
728.10000000000105
  0
LINE
  8
_0-0_計極細
  6
CONTINUOUS
 62
    2
 10
1093.1632812499947
 20
592.10000000000127
 11
1098.7632812499951
 21
592.10000000000127
  0
LINE
  8
_0-0_計極細
  6
CONTINUOUS
 62
    2
 10
1093.1632812499947
 20
605.10000000000127
 11
1098.7632812499951
 21
605.10000000000127
  0
LINE
  8
_0-1_計細線
  6
CONTINUOUS
 62
    3
 10
1081.7632812499942
 20
577.10000000000127
 11
1081.7632812499933
 21
728.10000000000105
  0
LINE
  8
_0-1_計細線
  6
CONTINUOUS
 62
    3
 10
1093.1632812499947
 20
577.10000000000127
 11
1093.1632812499938
 21
728.10000000000105
  0
LINE
  8
_0-1_計細線
  6
CONTINUOUS
 62
    3
 10
1081.7632812499942
 20
577.10000000000127
 11
1093.1632812499947
 21
577.10000000000127
  0
LINE
  8
_0-1_計細線
  6
CONTINUOUS
 62
    3
 10
1081.7632812499933
 20
728.10000000000105
 11
1093.1632812499938
 21
728.10000000000105
  0
LINE
  8
_0-0_計極細
  6
CONTINUOUS
 62
    2
 10
1089.9632812499945
 20
577.10000000000127
 11
1089.9632812499935
 21
728.10000000000105
  0
LINE
  8
_0-0_計極細
  6
CONTINUOUS
 62
    2
 10
1084.9632812499945
 20
577.10000000000127
 11
1084.9632812499935
 21
728.10000000000105
  0
LINE
  8
_0-0_計極細
  6
CONTINUOUS
 62
    2
 10
1144.1632812499975
 20
700.10000000000105
 11
1149.7632812499974
 21
700.10000000000105
  0
LINE
  8
_0-0_計極細
  6
CONTINUOUS
 62
    2
 10
1144.1632812499975
 20
713.10000000000105
 11
1149.7632812499974
 21
713.10000000000105
  0
LINE
  8
_0-0_計極細
  6
CONTINUOUS
 62
    2
 10
1081.7632812499942
 20
592.10000000000105
 11
1076.1632812499943
 21
592.10000000000105
  0
LINE
  8
_0-0_計極細
  6
CONTINUOUS
 62
    2
 10
1081.7632812499942
 20
605.10000000000105
 11
1076.1632812499943
 21
605.10000000000105
  0
LINE
  8
_0-0_計極細
  6
CONTINUOUS
 62
    2
 10
1081.7632812499946
 20
700.10000000000105
 11
1076.1632812499943
 21
700.10000000000105
  0
LINE
  8
_0-0_計極細
  6
CONTINUOUS
 62
    2
 10
1081.7632812499946
 20
713.10000000000105
 11
1076.1632812499943
 21
713.10000000000105
  0
LINE
  8
_0-1_計細線
  6
CONTINUOUS
 62
    3
 10
1076.1632812499952
 20
577.10000000000105
 11
1076.1632812499938
 21
728.10000000000105
  0
LINE
  8
_0-1_計細線
  6
CONTINUOUS
 62
    3
 10
1064.7632812499946
 20
577.10000000000105
 11
1064.7632812499933
 21
728.10000000000105
  0
LINE
  8
_0-1_計細線
  6
CONTINUOUS
 62
    3
 10
1076.1632812499952
 20
577.10000000000105
 11
1064.7632812499946
 21
577.10000000000105
  0
LINE
  8
_0-1_計細線
  6
CONTINUOUS
 62
    3
 10
1076.1632812499938
 20
728.10000000000105
 11
1064.7632812499933
 21
728.10000000000105
  0
LINE
  8
_0-0_計極細
  6
CONTINUOUS
 62
    2
 10
1067.9632812499949
 20
577.10000000000105
 11
1067.9632812499935
 21
728.10000000000105
  0
LINE
  8
_0-0_計極細
  6
CONTINUOUS
 62
    2
 10
1072.9632812499949
 20
577.10000000000105
 11
1072.9632812499935
 21
728.10000000000105
  0
LINE
  8
_0-0_計極細
  6
CONTINUOUS
 62
    2
 10
1217.763281249996
 20
592.10000000000105
 11
1212.1632812499956
 21
592.10000000000105
  0
LINE
  8
_0-0_計極細
  6
CONTINUOUS
 62
    2
 10
1217.763281249996
 20
605.10000000000105
 11
1212.1632812499956
 21
605.10000000000105
  0
LINE
  8
_0-0_計極細
  6
CONTINUOUS
 62
    2
 10
1217.763281249996
 20
700.10000000000105
 11
1212.1632812499956
 21
700.10000000000105
  0
LINE
  8
_0-0_計極細
  6
CONTINUOUS
 62
    2
 10
1217.763281249996
 20
713.10000000000105
 11
1212.1632812499956
 21
713.10000000000105
  0
LINE
  8
_0-1_計細線
  6
CONTINUOUS
 62
    3
 10
1212.1632812499956
 20
577.10000000000105
 11
1212.1632812499943
 21
728.10000000000105
  0
LINE
  8
_0-1_計細線
  6
CONTINUOUS
 62
    3
 10
1200.7632812499951
 20
577.10000000000127
 11
1200.7632812499937
 21
728.10000000000127
  0
LINE
  8
_0-1_計細線
  6
CONTINUOUS
 62
    3
 10
1212.1632812499956
 20
577.10000000000105
 11
1200.7632812499951
 21
577.10000000000127
  0
LINE
  8
_0-1_計細線
  6
CONTINUOUS
 62
    3
 10
1212.1632812499943
 20
728.10000000000105
 11
1200.7632812499937
 21
728.10000000000127
  0
LINE
  8
_0-0_計極細
  6
CONTINUOUS
 62
    2
 10
1203.9632812499958
 20
577.10000000000127
 11
1203.9632812499945
 21
728.10000000000127
  0
LINE
  8
_0-0_計極細
  6
CONTINUOUS
 62
    2
 10
1208.9632812499958
 20
577.10000000000105
 11
1208.9632812499945
 21
728.10000000000127
  0
LINE
  8
_0-0_計極細
  6
CONTINUOUS
 62
    2
 10
1064.7632812499946
 20
592.10000000000105
 11
1059.1632812499943
 21
592.10000000000105
  0
LINE
  8
_0-0_計極細
  6
CONTINUOUS
 62
    2
 10
1064.7632812499946
 20
605.10000000000105
 11
1059.1632812499943
 21
605.10000000000105
  0
LINE
  8
_0-0_計極細
  6
CONTINUOUS
 62
    2
 10
1064.7632812499946
 20
700.10000000000105
 11
1059.1632812499947
 21
700.10000000000105
  0
LINE
  8
_0-0_計極細
  6
CONTINUOUS
 62
    2
 10
1064.7632812499946
 20
713.10000000000105
 11
1059.1632812499947
 21
713.10000000000105
  0
LINE
  8
_0-1_計細線
  6
CONTINUOUS
 62
    3
 10
1059.1632812499952
 20
577.10000000000105
 11
1059.1632812499943
 21
728.10000000000105
  0
LINE
  8
_0-1_計細線
  6
CONTINUOUS
 62
    3
 10
1047.7632812499946
 20
577.10000000000105
 11
1047.7632812499937
 21
728.10000000000105
  0
LINE
  8
_0-1_計細線
  6
CONTINUOUS
 62
    3
 10
1059.1632812499952
 20
577.10000000000105
 11
1047.7632812499946
 21
577.10000000000105
  0
LINE
  8
_0-1_計細線
  6
CONTINUOUS
 62
    3
 10
1059.1632812499943
 20
728.10000000000105
 11
1047.7632812499937
 21
728.10000000000105
  0
LINE
  8
_0-0_計極細
  6
CONTINUOUS
 62
    2
 10
1050.9632812499949
 20
577.10000000000105
 11
1050.963281249994
 21
728.10000000000105
  0
LINE
  8
_0-0_計極細
  6
CONTINUOUS
 62
    2
 10
1055.9632812499949
 20
577.10000000000105
 11
1055.963281249994
 21
728.10000000000105
  0
LINE
  8
_0-0_計極細
  6
CONTINUOUS
 62
    2
 10
1047.7632812499946
 20
592.10000000000105
 11
1042.1632812499943
 21
592.10000000000105
  0
LINE
  8
_0-0_計極細
  6
CONTINUOUS
 62
    2
 10
1047.7632812499946
 20
605.10000000000105
 11
1042.1632812499943
 21
605.10000000000105
  0
LINE
  8
_0-0_計極細
  6
CONTINUOUS
 62
    2
 10
1047.7632812499946
 20
700.10000000000105
 11
1042.1632812499947
 21
700.10000000000105
  0
LINE
  8
_0-0_計極細
  6
CONTINUOUS
 62
    2
 10
1047.7632812499946
 20
713.10000000000105
 11
1042.1632812499947
 21
713.10000000000105
  0
LINE
  8
_0-1_計細線
  6
CONTINUOUS
 62
    3
 10
1042.1632812499952
 20
577.10000000000105
 11
1042.1632812499943
 21
728.10000000000105
  0
LINE
  8
_0-1_計細線
  6
CONTINUOUS
 62
    3
 10
1030.7632812499946
 20
577.10000000000105
 11
1030.7632812499937
 21
728.10000000000105
  0
LINE
  8
_0-1_計細線
  6
CONTINUOUS
 62
    3
 10
1042.1632812499952
 20
577.10000000000105
 11
1030.7632812499946
 21
577.10000000000105
  0
LINE
  8
_0-1_計細線
  6
CONTINUOUS
 62
    3
 10
1042.1632812499943
 20
728.10000000000105
 11
1030.7632812499937
 21
728.10000000000105
  0
LINE
  8
_0-0_計極細
  6
CONTINUOUS
 62
    2
 10
1033.9632812499949
 20
577.10000000000105
 11
1033.963281249994
 21
728.10000000000105
  0
LINE
  8
_0-0_計極細
  6
CONTINUOUS
 62
    2
 10
1038.9632812499949
 20
577.10000000000105
 11
1038.963281249994
 21
728.10000000000105
  0
LINE
  8
_0-0_計極細
  6
CONTINUOUS
 62
    2
 10
1030.7632812499946
 20
592.10000000000105
 11
1025.1632812499943
 21
592.10000000000105
  0
LINE
  8
_0-0_計極細
  6
CONTINUOUS
 62
    2
 10
1030.7632812499946
 20
605.10000000000105
 11
1025.1632812499943
 21
605.10000000000105
  0
LINE
  8
_0-0_計極細
  6
CONTINUOUS
 62
    2
 10
1030.7632812499946
 20
700.10000000000105
 11
1025.1632812499947
 21
700.10000000000105
  0
LINE
  8
_0-0_計極細
  6
CONTINUOUS
 62
    2
 10
1030.7632812499946
 20
713.10000000000105
 11
1025.1632812499947
 21
713.10000000000105
  0
LINE
  8
_0-1_計細線
  6
CONTINUOUS
 62
    3
 10
1025.1632812499952
 20
577.10000000000105
 11
1025.1632812499943
 21
728.10000000000105
  0
LINE
  8
_0-1_計細線
  6
CONTINUOUS
 62
    3
 10
1013.7632812499947
 20
577.10000000000105
 11
1013.7632812499936
 21
728.10000000000105
  0
LINE
  8
_0-1_計細線
  6
CONTINUOUS
 62
    3
 10
1025.1632812499952
 20
577.10000000000105
 11
1013.7632812499947
 21
577.10000000000105
  0
LINE
  8
_0-1_計細線
  6
CONTINUOUS
 62
    3
 10
1025.1632812499943
 20
728.10000000000105
 11
1013.7632812499936
 21
728.10000000000105
  0
LINE
  8
_0-0_計極細
  6
CONTINUOUS
 62
    2
 10
1016.9632812499949
 20
577.10000000000105
 11
1016.963281249994
 21
728.10000000000105
  0
LINE
  8
_0-0_計極細
  6
CONTINUOUS
 62
    2
 10
1021.9632812499949
 20
577.10000000000105
 11
1021.963281249994
 21
728.10000000000105
  0
LINE
  8
_0-0_計極細
  6
CONTINUOUS
 62
    2
 10
1013.7632812499946
 20
592.10000000000105
 11
1008.1632812499945
 21
592.10000000000105
  0
LINE
  8
_0-0_計極細
  6
CONTINUOUS
 62
    2
 10
1013.7632812499946
 20
605.10000000000105
 11
1008.1632812499945
 21
605.10000000000105
  0
LINE
  8
_0-0_計極細
  6
CONTINUOUS
 62
    2
 10
1013.7632812499947
 20
700.10000000000105
 11
1008.1632812499946
 21
700.10000000000105
  0
LINE
  8
_0-0_計極細
  6
CONTINUOUS
 62
    2
 10
1013.7632812499947
 20
713.10000000000105
 11
1008.1632812499946
 21
713.10000000000105
  0
LINE
  8
_0-1_計細線
  6
CONTINUOUS
 62
    3
 10
1008.1632812499953
 20
577.10000000000105
 11
1008.1632812499942
 21
728.10000000000105
  0
LINE
  8
_0-1_計細線
  6
CONTINUOUS
 62
    3
 10
996.76328124999475
 20
577.10000000000105
 11
996.76328124999372
 21
728.10000000000105
  0
LINE
  8
_0-1_計細線
  6
CONTINUOUS
 62
    3
 10
1008.1632812499953
 20
577.10000000000105
 11
996.76328124999475
 21
577.10000000000105
  0
LINE
  8
_0-1_計細線
  6
CONTINUOUS
 62
    3
 10
1008.1632812499942
 20
728.10000000000105
 11
996.76328124999372
 21
728.10000000000105
  0
LINE
  8
_0-0_計極細
  6
CONTINUOUS
 62
    2
 10
999.96328124999491
 20
577.10000000000105
 11
999.963281249994
 21
728.10000000000105
  0
LINE
  8
_0-0_計極細
  6
CONTINUOUS
 62
    2
 10
1004.9632812499949
 20
577.10000000000105
 11
1004.963281249994
 21
728.10000000000105
  0
LINE
  8
_0-0_計極細
  6
CONTINUOUS
 62
    2
 10
996.76328124999463
 20
592.10000000000105
 11
991.16328124999438
 21
592.10000000000105
  0
LINE
  8
_0-0_計極細
  6
CONTINUOUS
 62
    2
 10
996.76328124999463
 20
605.10000000000105
 11
991.16328124999438
 21
605.10000000000105
  0
LINE
  8
_0-0_計極細
  6
CONTINUOUS
 62
    2
 10
996.76328124999486
 20
700.10000000000105
 11
991.1632812499945
 21
700.10000000000105
  0
LINE
  8
_0-0_計極細
  6
CONTINUOUS
 62
    2
 10
996.76328124999486
 20
713.10000000000105
 11
991.1632812499945
 21
713.10000000000105
  0
LINE
  8
_0-1_計細線
  6
CONTINUOUS
 62
    3
 10
991.16328124999529
 20
577.10000000000105
 11
991.16328124999427
 21
728.10000000000105
  0
LINE
  8
_0-1_計細線
  6
CONTINUOUS
 62
    3
 10
979.76328124999463
 20
577.10000000000105
 11
979.76328124999372
 21
728.10000000000105
  0
LINE
  8
_0-1_計細線
  6
CONTINUOUS
 62
    3
 10
991.16328124999529
 20
577.10000000000105
 11
979.76328124999463
 21
577.10000000000105
  0
LINE
  8
_0-1_計細線
  6
CONTINUOUS
 62
    3
 10
991.16328124999427
 20
728.10000000000105
 11
979.76328124999372
 21
728.10000000000105
  0
LINE
  8
_0-0_計極細
  6
CONTINUOUS
 62
    2
 10
982.96328124999491
 20
577.10000000000105
 11
982.96328124999388
 21
728.10000000000105
  0
LINE
  8
_0-0_計極細
  6
CONTINUOUS
 62
    2
 10
987.96328124999491
 20
577.10000000000105
 11
987.96328124999388
 21
728.10000000000105
  0
LINE
  8
_0-0_計極細
  6
CONTINUOUS
 62
    2
 10
979.76328124999452
 20
592.10000000000105
 11
974.16328124999438
 21
592.10000000000105
  0
LINE
  8
_0-0_計極細
  6
CONTINUOUS
 62
    2
 10
979.76328124999452
 20
605.10000000000105
 11
974.16328124999438
 21
605.10000000000105
  0
LINE
  8
_0-0_計極細
  6
CONTINUOUS
 62
    2
 10
979.76328124999486
 20
700.10000000000105
 11
974.1632812499945
 21
700.10000000000105
  0
LINE
  8
_0-0_計極細
  6
CONTINUOUS
 62
    2
 10
979.76328124999486
 20
713.10000000000105
 11
974.1632812499945
 21
713.10000000000105
  0
LINE
  8
_0-1_計細線
  6
CONTINUOUS
 62
    3
 10
974.16328124999518
 20
577.10000000000105
 11
974.16328124999427
 21
728.10000000000105
  0
LINE
  8
_0-1_計細線
  6
CONTINUOUS
 62
    3
 10
962.76328124999463
 20
577.10000000000105
 11
962.76328124999372
 21
728.10000000000105
  0
LINE
  8
_0-1_計細線
  6
CONTINUOUS
 62
    3
 10
974.16328124999518
 20
577.10000000000105
 11
962.76328124999463
 21
577.10000000000105
  0
LINE
  8
_0-1_計細線
  6
CONTINUOUS
 62
    3
 10
974.16328124999427
 20
728.10000000000105
 11
962.76328124999372
 21
728.10000000000105
  0
LINE
  8
_0-0_計極細
  6
CONTINUOUS
 62
    2
 10
965.96328124999502
 20
577.10000000000105
 11
965.96328124999388
 21
728.10000000000105
  0
LINE
  8
_0-0_計極細
  6
CONTINUOUS
 62
    2
 10
970.96328124999502
 20
577.10000000000105
 11
970.96328124999388
 21
728.10000000000105
  0
LINE
  8
_0-0_計極細
  6
CONTINUOUS
 62
    2
 10
962.76328124999452
 20
592.10000000000105
 11
957.1632812499945
 21
592.10000000000105
  0
LINE
  8
_0-0_計極細
  6
CONTINUOUS
 62
    2
 10
962.76328124999452
 20
605.10000000000105
 11
957.1632812499945
 21
605.10000000000105
  0
LINE
  8
_0-0_計極細
  6
CONTINUOUS
 62
    2
 10
962.76328124999486
 20
700.10000000000105
 11
957.1632812499945
 21
700.10000000000105
  0
LINE
  8
_0-0_計極細
  6
CONTINUOUS
 62
    2
 10
962.76328124999486
 20
713.10000000000105
 11
957.1632812499945
 21
713.10000000000105
  0
LINE
  8
_0-1_計細線
  6
CONTINUOUS
 62
    3
 10
957.16328124999518
 20
577.10000000000105
 11
957.16328124999427
 21
728.10000000000105
  0
LINE
  8
_0-1_計細線
  6
CONTINUOUS
 62
    3
 10
945.76328124999463
 20
577.10000000000105
 11
945.76328124999361
 21
728.10000000000105
  0
LINE
  8
_0-1_計細線
  6
CONTINUOUS
 62
    3
 10
957.16328124999518
 20
577.10000000000105
 11
945.76328124999463
 21
577.10000000000105
  0
LINE
  8
_0-1_計細線
  6
CONTINUOUS
 62
    3
 10
957.16328124999427
 20
728.10000000000105
 11
945.76328124999361
 21
728.10000000000105
  0
LINE
  8
_0-0_計極細
  6
CONTINUOUS
 62
    2
 10
948.96328124999502
 20
577.10000000000105
 11
948.963281249994
 21
728.10000000000105
  0
LINE
  8
_0-0_計極細
  6
CONTINUOUS
 62
    2
 10
953.96328124999502
 20
577.10000000000105
 11
953.963281249994
 21
728.10000000000105
  0
LINE
  8
_0-0_計極細
  6
CONTINUOUS
 62
    2
 10
945.76328124999463
 20
592.10000000000105
 11
940.1632812499945
 21
592.10000000000105
  0
LINE
  8
_0-0_計極細
  6
CONTINUOUS
 62
    2
 10
945.76328124999463
 20
605.10000000000105
 11
940.1632812499945
 21
605.10000000000105
  0
LINE
  8
_0-0_計極細
  6
CONTINUOUS
 62
    2
 10
945.76328124999475
 20
700.10000000000105
 11
940.16328124999461
 21
700.10000000000105
  0
LINE
  8
_0-0_計極細
  6
CONTINUOUS
 62
    2
 10
945.76328124999475
 20
713.10000000000105
 11
940.16328124999461
 21
713.10000000000105
  0
LINE
  8
_0-1_計細線
  6
CONTINUOUS
 62
    3
 10
940.16328124999518
 20
577.10000000000105
 11
940.16328124999416
 21
728.10000000000105
  0
LINE
  8
_0-1_計細線
  6
CONTINUOUS
 62
    3
 10
928.76328124999475
 20
577.10000000000105
 11
928.76328124999361
 21
728.10000000000105
  0
LINE
  8
_0-1_計細線
  6
CONTINUOUS
 62
    3
 10
940.16328124999518
 20
577.10000000000105
 11
928.76328124999475
 21
577.10000000000105
  0
LINE
  8
_0-1_計細線
  6
CONTINUOUS
 62
    3
 10
940.16328124999416
 20
728.10000000000105
 11
928.76328124999361
 21
728.10000000000105
  0
LINE
  8
_0-0_計極細
  6
CONTINUOUS
 62
    2
 10
931.96328124999491
 20
577.10000000000105
 11
931.963281249994
 21
728.10000000000105
  0
LINE
  8
_0-0_計極細
  6
CONTINUOUS
 62
    2
 10
936.96328124999491
 20
577.10000000000105
 11
936.963281249994
 21
728.10000000000105
  0
LINE
  8
_0-0_計極細
  6
CONTINUOUS
 62
    2
 10
928.76328124999463
 20
592.10000000000105
 11
923.1632812499945
 21
592.10000000000105
  0
LINE
  8
_0-0_計極細
  6
CONTINUOUS
 62
    2
 10
928.76328124999463
 20
605.10000000000105
 11
923.1632812499945
 21
605.10000000000105
  0
LINE
  8
_0-0_計極細
  6
CONTINUOUS
 62
    2
 10
928.76328124999475
 20
700.10000000000105
 11
923.16328124999461
 21
700.10000000000105
  0
LINE
  8
_0-0_計極細
  6
CONTINUOUS
 62
    2
 10
928.76328124999475
 20
713.10000000000105
 11
923.16328124999461
 21
713.10000000000105
  0
LINE
  8
_0-1_計細線
  6
CONTINUOUS
 62
    3
 10
923.16328124999529
 20
577.10000000000105
 11
923.16328124999416
 21
728.10000000000105
  0
LINE
  8
_0-1_計細線
  6
CONTINUOUS
 62
    3
 10
911.76328124999475
 20
577.10000000000105
 11
911.76328124999372
 21
728.10000000000105
  0
LINE
  8
_0-1_計細線
  6
CONTINUOUS
 62
    3
 10
923.16328124999529
 20
577.10000000000105
 11
911.76328124999475
 21
577.10000000000105
  0
LINE
  8
_0-1_計細線
  6
CONTINUOUS
 62
    3
 10
923.16328124999416
 20
728.10000000000105
 11
911.76328124999372
 21
728.10000000000105
  0
LINE
  8
_0-0_計極細
  6
CONTINUOUS
 62
    2
 10
914.96328124999491
 20
577.10000000000105
 11
914.963281249994
 21
728.10000000000105
  0
LINE
  8
_0-0_計極細
  6
CONTINUOUS
 62
    2
 10
919.96328124999491
 20
577.10000000000105
 11
919.963281249994
 21
728.10000000000105
  0
LINE
  8
_0-0_計極細
  6
CONTINUOUS
 62
    2
 10
911.76328124999463
 20
592.10000000000105
 11
906.16328124999438
 21
592.10000000000105
  0
LINE
  8
_0-0_計極細
  6
CONTINUOUS
 62
    2
 10
911.76328124999463
 20
605.10000000000105
 11
906.16328124999438
 21
605.10000000000105
  0
LINE
  8
_0-0_計極細
  6
CONTINUOUS
 62
    2
 10
911.76328124999486
 20
700.10000000000105
 11
906.1632812499945
 21
700.10000000000105
  0
LINE
  8
_0-0_計極細
  6
CONTINUOUS
 62
    2
 10
911.76328124999486
 20
713.10000000000105
 11
906.1632812499945
 21
713.10000000000105
  0
LINE
  8
_0-1_計細線
  6
CONTINUOUS
 62
    3
 10
906.16328124999529
 20
577.10000000000105
 11
906.16328124999427
 21
728.10000000000105
  0
LINE
  8
_0-1_計細線
  6
CONTINUOUS
 62
    3
 10
894.76328124999463
 20
577.10000000000105
 11
894.76328124999372
 21
728.10000000000105
  0
LINE
  8
_0-1_計細線
  6
CONTINUOUS
 62
    3
 10
906.16328124999529
 20
577.10000000000105
 11
894.76328124999463
 21
577.10000000000105
  0
LINE
  8
_0-1_計細線
  6
CONTINUOUS
 62
    3
 10
906.16328124999427
 20
728.10000000000105
 11
894.76328124999372
 21
728.10000000000105
  0
LINE
  8
_0-0_計極細
  6
CONTINUOUS
 62
    2
 10
897.96328124999491
 20
577.10000000000105
 11
897.96328124999388
 21
728.10000000000105
  0
LINE
  8
_0-0_計極細
  6
CONTINUOUS
 62
    2
 10
902.96328124999491
 20
577.10000000000105
 11
902.96328124999388
 21
728.10000000000105
  0
LINE
  8
_0-0_計極細
  6
CONTINUOUS
 62
    2
 10
894.76328124999452
 20
592.10000000000105
 11
889.16328124999438
 21
592.10000000000105
  0
LINE
  8
_0-0_計極細
  6
CONTINUOUS
 62
    2
 10
894.76328124999452
 20
605.10000000000105
 11
889.16328124999438
 21
605.10000000000105
  0
LINE
  8
_0-0_計極細
  6
CONTINUOUS
 62
    2
 10
894.76328124999486
 20
700.10000000000105
 11
889.1632812499945
 21
700.10000000000105
  0
LINE
  8
_0-0_計極細
  6
CONTINUOUS
 62
    2
 10
894.76328124999486
 20
713.10000000000105
 11
889.1632812499945
 21
713.10000000000105
  0
LINE
  8
_0-1_計細線
  6
CONTINUOUS
 62
    3
 10
889.16328124999518
 20
577.10000000000105
 11
889.16328124999427
 21
728.10000000000105
  0
LINE
  8
_0-1_計細線
  6
CONTINUOUS
 62
    3
 10
877.76328124999463
 20
577.10000000000105
 11
877.76328124999372
 21
728.10000000000105
  0
LINE
  8
_0-1_計細線
  6
CONTINUOUS
 62
    3
 10
889.16328124999518
 20
577.10000000000105
 11
877.76328124999463
 21
577.10000000000105
  0
LINE
  8
_0-1_計細線
  6
CONTINUOUS
 62
    3
 10
889.16328124999427
 20
728.10000000000105
 11
877.76328124999372
 21
728.10000000000105
  0
LINE
  8
_0-0_計極細
  6
CONTINUOUS
 62
    2
 10
880.96328124999502
 20
577.10000000000105
 11
880.96328124999388
 21
728.10000000000105
  0
LINE
  8
_0-0_計極細
  6
CONTINUOUS
 62
    2
 10
885.96328124999502
 20
577.10000000000105
 11
885.96328124999388
 21
728.10000000000105
  0
LINE
  8
_0-0_計極細
  6
CONTINUOUS
 62
    2
 10
877.76328124999452
 20
592.10000000000105
 11
872.1632812499945
 21
592.10000000000105
  0
LINE
  8
_0-0_計極細
  6
CONTINUOUS
 62
    2
 10
877.76328124999452
 20
605.10000000000105
 11
872.1632812499945
 21
605.10000000000105
  0
LINE
  8
_0-0_計極細
  6
CONTINUOUS
 62
    2
 10
877.76328124999486
 20
700.10000000000105
 11
872.1632812499945
 21
700.10000000000105
  0
LINE
  8
_0-0_計極細
  6
CONTINUOUS
 62
    2
 10
877.76328124999486
 20
713.10000000000105
 11
872.1632812499945
 21
713.10000000000105
  0
LINE
  8
_0-1_計細線
  6
CONTINUOUS
 62
    3
 10
872.16328124999518
 20
577.10000000000105
 11
872.16328124999427
 21
728.10000000000105
  0
LINE
  8
_0-1_計細線
  6
CONTINUOUS
 62
    3
 10
860.76328124999463
 20
577.10000000000105
 11
860.76328124999361
 21
728.10000000000105
  0
LINE
  8
_0-1_計細線
  6
CONTINUOUS
 62
    3
 10
872.16328124999518
 20
577.10000000000105
 11
860.76328124999463
 21
577.10000000000105
  0
LINE
  8
_0-1_計細線
  6
CONTINUOUS
 62
    3
 10
872.16328124999427
 20
728.10000000000105
 11
860.76328124999361
 21
728.10000000000105
  0
LINE
  8
_0-0_計極細
  6
CONTINUOUS
 62
    2
 10
863.96328124999502
 20
577.10000000000105
 11
863.963281249994
 21
728.10000000000105
  0
LINE
  8
_0-0_計極細
  6
CONTINUOUS
 62
    2
 10
868.96328124999502
 20
577.10000000000105
 11
868.963281249994
 21
728.10000000000105
  0
LINE
  8
_0-0_計極細
  6
CONTINUOUS
 62
    2
 10
860.76328124999463
 20
592.10000000000105
 11
855.1632812499945
 21
592.10000000000105
  0
LINE
  8
_0-0_計極細
  6
CONTINUOUS
 62
    2
 10
860.76328124999463
 20
605.10000000000105
 11
855.1632812499945
 21
605.10000000000105
  0
LINE
  8
_0-0_計極細
  6
CONTINUOUS
 62
    2
 10
860.76328124999475
 20
700.10000000000105
 11
855.16328124999461
 21
700.10000000000105
  0
LINE
  8
_0-0_計極細
  6
CONTINUOUS
 62
    2
 10
860.76328124999475
 20
713.10000000000105
 11
855.16328124999461
 21
713.10000000000105
  0
LINE
  8
_0-1_計細線
  6
CONTINUOUS
 62
    3
 10
855.16328124999518
 20
577.10000000000105
 11
855.16328124999416
 21
728.10000000000105
  0
LINE
  8
_0-1_計細線
  6
CONTINUOUS
 62
    3
 10
843.76328124999475
 20
577.10000000000105
 11
843.76328124999361
 21
728.10000000000105
  0
LINE
  8
_0-1_計細線
  6
CONTINUOUS
 62
    3
 10
855.16328124999518
 20
577.10000000000105
 11
843.76328124999475
 21
577.10000000000105
  0
LINE
  8
_0-1_計細線
  6
CONTINUOUS
 62
    3
 10
855.16328124999416
 20
728.10000000000105
 11
843.76328124999361
 21
728.10000000000105
  0
LINE
  8
_0-0_計極細
  6
CONTINUOUS
 62
    2
 10
846.96328124999491
 20
577.10000000000105
 11
846.963281249994
 21
728.10000000000105
  0
LINE
  8
_0-0_計極細
  6
CONTINUOUS
 62
    2
 10
851.96328124999491
 20
577.10000000000105
 11
851.963281249994
 21
728.10000000000105
  0
LINE
  8
_0-0_計極細
  6
CONTINUOUS
 62
    2
 10
843.76328124999463
 20
592.10000000000105
 11
838.1632812499945
 21
592.10000000000105
  0
LINE
  8
_0-0_計極細
  6
CONTINUOUS
 62
    2
 10
843.76328124999463
 20
605.10000000000105
 11
838.1632812499945
 21
605.10000000000105
  0
LINE
  8
_0-0_計極細
  6
CONTINUOUS
 62
    2
 10
843.76328124999475
 20
700.10000000000105
 11
838.16328124999461
 21
700.10000000000105
  0
LINE
  8
_0-0_計極細
  6
CONTINUOUS
 62
    2
 10
843.76328124999475
 20
713.10000000000105
 11
838.16328124999461
 21
713.10000000000105
  0
LINE
  8
_0-1_計細線
  6
CONTINUOUS
 62
    3
 10
838.16328124999529
 20
577.10000000000105
 11
838.16328124999416
 21
728.10000000000105
  0
LINE
  8
_0-1_計細線
  6
CONTINUOUS
 62
    3
 10
826.76328124999475
 20
577.10000000000105
 11
826.76328124999372
 21
728.10000000000105
  0
LINE
  8
_0-1_計細線
  6
CONTINUOUS
 62
    3
 10
838.16328124999529
 20
577.10000000000105
 11
826.76328124999475
 21
577.10000000000105
  0
LINE
  8
_0-1_計細線
  6
CONTINUOUS
 62
    3
 10
838.16328124999416
 20
728.10000000000105
 11
826.76328124999372
 21
728.10000000000105
  0
LINE
  8
_0-0_計極細
  6
CONTINUOUS
 62
    2
 10
829.96328124999491
 20
577.10000000000105
 11
829.963281249994
 21
728.10000000000105
  0
LINE
  8
_0-0_計極細
  6
CONTINUOUS
 62
    2
 10
834.96328124999491
 20
577.10000000000105
 11
834.963281249994
 21
728.10000000000105
  0
LINE
  8
_0-0_計極細
  6
CONTINUOUS
 62
    2
 10
826.76328124999463
 20
592.10000000000105
 11
821.16328124999438
 21
592.10000000000105
  0
LINE
  8
_0-0_計極細
  6
CONTINUOUS
 62
    2
 10
826.76328124999463
 20
605.10000000000105
 11
821.16328124999438
 21
605.10000000000105
  0
LINE
  8
_0-0_計極細
  6
CONTINUOUS
 62
    2
 10
826.76328124999486
 20
700.10000000000105
 11
821.1632812499945
 21
700.10000000000105
  0
LINE
  8
_0-0_計極細
  6
CONTINUOUS
 62
    2
 10
826.76328124999486
 20
713.10000000000105
 11
821.1632812499945
 21
713.10000000000105
  0
LINE
  8
_0-1_計細線
  6
CONTINUOUS
 62
    3
 10
821.16328124999529
 20
577.10000000000105
 11
821.16328124999427
 21
728.10000000000105
  0
LINE
  8
_0-1_計細線
  6
CONTINUOUS
 62
    3
 10
809.76328124999463
 20
577.10000000000105
 11
809.76328124999372
 21
728.10000000000105
  0
LINE
  8
_0-1_計細線
  6
CONTINUOUS
 62
    3
 10
821.16328124999529
 20
577.10000000000105
 11
809.76328124999463
 21
577.10000000000105
  0
LINE
  8
_0-1_計細線
  6
CONTINUOUS
 62
    3
 10
821.16328124999427
 20
728.10000000000105
 11
809.76328124999372
 21
728.10000000000105
  0
LINE
  8
_0-0_計極細
  6
CONTINUOUS
 62
    2
 10
812.96328124999491
 20
577.10000000000105
 11
812.96328124999388
 21
728.10000000000105
  0
LINE
  8
_0-0_計極細
  6
CONTINUOUS
 62
    2
 10
817.96328124999491
 20
577.10000000000105
 11
817.96328124999388
 21
728.10000000000105
  0
LINE
  8
_0-0_計極細
  6
CONTINUOUS
 62
    2
 10
809.76328124999452
 20
592.10000000000105
 11
804.16328124999438
 21
592.10000000000105
  0
LINE
  8
_0-0_計極細
  6
CONTINUOUS
 62
    2
 10
809.76328124999452
 20
605.10000000000105
 11
804.16328124999438
 21
605.10000000000105
  0
LINE
  8
_0-0_計極細
  6
CONTINUOUS
 62
    2
 10
809.76328124999486
 20
700.10000000000105
 11
804.1632812499945
 21
700.10000000000105
  0
LINE
  8
_0-0_計極細
  6
CONTINUOUS
 62
    2
 10
809.76328124999486
 20
713.10000000000105
 11
804.1632812499945
 21
713.10000000000105
  0
LINE
  8
_0-1_計細線
  6
CONTINUOUS
 62
    3
 10
804.16328124999518
 20
577.10000000000105
 11
804.16328124999427
 21
728.10000000000105
  0
LINE
  8
_0-1_計細線
  6
CONTINUOUS
 62
    3
 10
792.76328124999463
 20
577.10000000000105
 11
792.76328124999372
 21
728.10000000000105
  0
LINE
  8
_0-1_計細線
  6
CONTINUOUS
 62
    3
 10
804.16328124999518
 20
577.10000000000105
 11
792.76328124999463
 21
577.10000000000105
  0
LINE
  8
_0-1_計細線
  6
CONTINUOUS
 62
    3
 10
804.16328124999427
 20
728.10000000000105
 11
792.76328124999372
 21
728.10000000000105
  0
LINE
  8
_0-0_計極細
  6
CONTINUOUS
 62
    2
 10
795.96328124999502
 20
577.10000000000105
 11
795.96328124999388
 21
728.10000000000105
  0
LINE
  8
_0-0_計極細
  6
CONTINUOUS
 62
    2
 10
800.96328124999502
 20
577.10000000000105
 11
800.96328124999388
 21
728.10000000000105
  0
LINE
  8
_0-0_計極細
  6
CONTINUOUS
 62
    2
 10
792.76328124999452
 20
592.10000000000105
 11
787.1632812499945
 21
592.10000000000105
  0
LINE
  8
_0-0_計極細
  6
CONTINUOUS
 62
    2
 10
792.76328124999452
 20
605.10000000000105
 11
787.1632812499945
 21
605.10000000000105
  0
LINE
  8
_0-0_計極細
  6
CONTINUOUS
 62
    2
 10
792.76328124999486
 20
700.10000000000105
 11
787.1632812499945
 21
700.10000000000105
  0
LINE
  8
_0-0_計極細
  6
CONTINUOUS
 62
    2
 10
792.76328124999486
 20
713.10000000000105
 11
787.1632812499945
 21
713.10000000000105
  0
LINE
  8
_0-1_計細線
  6
CONTINUOUS
 62
    3
 10
787.16328124999518
 20
577.10000000000105
 11
787.16328124999427
 21
728.10000000000105
  0
LINE
  8
_0-1_計細線
  6
CONTINUOUS
 62
    3
 10
775.76328124999463
 20
577.10000000000105
 11
775.76328124999361
 21
728.10000000000105
  0
LINE
  8
_0-1_計細線
  6
CONTINUOUS
 62
    3
 10
787.16328124999518
 20
577.10000000000105
 11
775.76328124999463
 21
577.10000000000105
  0
LINE
  8
_0-1_計細線
  6
CONTINUOUS
 62
    3
 10
787.16328124999427
 20
728.10000000000105
 11
775.76328124999361
 21
728.10000000000105
  0
LINE
  8
_0-0_計極細
  6
CONTINUOUS
 62
    2
 10
778.96328124999502
 20
577.10000000000105
 11
778.963281249994
 21
728.10000000000105
  0
LINE
  8
_0-0_計極細
  6
CONTINUOUS
 62
    2
 10
783.96328124999502
 20
577.10000000000105
 11
783.963281249994
 21
728.10000000000105
  0
LINE
  8
_0-0_計極細
  6
CONTINUOUS
 62
    2
 10
775.76328124999463
 20
592.10000000000105
 11
770.1632812499945
 21
592.10000000000105
  0
LINE
  8
_0-0_計極細
  6
CONTINUOUS
 62
    2
 10
775.76328124999463
 20
605.10000000000105
 11
770.1632812499945
 21
605.10000000000105
  0
LINE
  8
_0-0_計極細
  6
CONTINUOUS
 62
    2
 10
775.76328124999475
 20
700.10000000000105
 11
770.16328124999461
 21
700.10000000000105
  0
LINE
  8
_0-0_計極細
  6
CONTINUOUS
 62
    2
 10
775.76328124999475
 20
713.10000000000105
 11
770.16328124999461
 21
713.10000000000105
  0
LINE
  8
_0-1_計細線
  6
CONTINUOUS
 62
    3
 10
770.16328124999518
 20
577.10000000000105
 11
770.16328124999416
 21
728.10000000000105
  0
LINE
  8
_0-1_計細線
  6
CONTINUOUS
 62
    3
 10
758.76328124999463
 20
577.10000000000105
 11
758.76328124999361
 21
728.10000000000105
  0
LINE
  8
_0-1_計細線
  6
CONTINUOUS
 62
    3
 10
770.16328124999518
 20
577.10000000000105
 11
758.76328124999463
 21
577.10000000000105
  0
LINE
  8
_0-1_計細線
  6
CONTINUOUS
 62
    3
 10
770.16328124999416
 20
728.10000000000105
 11
758.76328124999361
 21
728.10000000000105
  0
LINE
  8
_0-0_計極細
  6
CONTINUOUS
 62
    2
 10
761.96328124999491
 20
577.10000000000105
 11
761.963281249994
 21
728.10000000000105
  0
LINE
  8
_0-0_計極細
  6
CONTINUOUS
 62
    2
 10
766.96328124999491
 20
577.10000000000105
 11
766.963281249994
 21
728.10000000000105
  0
LINE
  8
_0-0_計極細
  6
CONTINUOUS
 62
    2
 10
758.76328124999463
 20
592.10000000000105
 11
753.1632812499945
 21
592.10000000000105
  0
LINE
  8
_0-0_計極細
  6
CONTINUOUS
 62
    2
 10
758.76328124999463
 20
605.10000000000105
 11
753.1632812499945
 21
605.10000000000105
  0
LINE
  8
_0-0_計極細
  6
CONTINUOUS
 62
    2
 10
758.76328124999475
 20
700.10000000000105
 11
753.16328124999461
 21
700.10000000000105
  0
LINE
  8
_0-0_計極細
  6
CONTINUOUS
 62
    2
 10
758.76328124999475
 20
713.10000000000105
 11
753.16328124999461
 21
713.10000000000105
  0
LINE
  8
_0-1_計細線
  6
CONTINUOUS
 62
    3
 10
753.16328124999518
 20
577.10000000000105
 11
753.16328124999416
 21
728.10000000000105
  0
LINE
  8
_0-1_計細線
  6
CONTINUOUS
 62
    3
 10
741.76328124999475
 20
577.10000000000105
 11
741.76328124999361
 21
728.10000000000105
  0
LINE
  8
_0-1_計細線
  6
CONTINUOUS
 62
    3
 10
753.16328124999518
 20
577.10000000000105
 11
741.76328124999475
 21
577.10000000000105
  0
LINE
  8
_0-1_計細線
  6
CONTINUOUS
 62
    3
 10
753.16328124999416
 20
728.10000000000105
 11
741.76328124999361
 21
728.10000000000105
  0
LINE
  8
_0-0_計極細
  6
CONTINUOUS
 62
    2
 10
744.96328124999491
 20
577.10000000000105
 11
744.963281249994
 21
728.10000000000105
  0
LINE
  8
_0-0_計極細
  6
CONTINUOUS
 62
    2
 10
749.96328124999491
 20
577.10000000000105
 11
749.963281249994
 21
728.10000000000105
  0
LINE
  8
_0-0_計極細
  6
CONTINUOUS
 62
    2
 10
741.76328124999463
 20
592.10000000000105
 11
736.16328124999438
 21
592.10000000000105
  0
LINE
  8
_0-0_計極細
  6
CONTINUOUS
 62
    2
 10
741.76328124999463
 20
605.10000000000105
 11
736.16328124999438
 21
605.10000000000105
  0
LINE
  8
_0-0_計極細
  6
CONTINUOUS
 62
    2
 10
741.76328124999475
 20
700.10000000000105
 11
736.1632812499945
 21
700.10000000000105
  0
LINE
  8
_0-0_計極細
  6
CONTINUOUS
 62
    2
 10
741.76328124999475
 20
713.10000000000105
 11
736.1632812499945
 21
713.10000000000105
  0
LINE
  8
_0-1_計細線
  6
CONTINUOUS
 62
    3
 10
736.16328124999529
 20
577.10000000000105
 11
736.16328124999416
 21
728.10000000000105
  0
LINE
  8
_0-1_計細線
  6
CONTINUOUS
 62
    3
 10
724.76328124999463
 20
577.10000000000105
 11
724.76328124999372
 21
728.10000000000105
  0
LINE
  8
_0-1_計細線
  6
CONTINUOUS
 62
    3
 10
736.16328124999529
 20
577.10000000000105
 11
724.76328124999463
 21
577.10000000000105
  0
LINE
  8
_0-1_計細線
  6
CONTINUOUS
 62
    3
 10
736.16328124999416
 20
728.10000000000105
 11
724.76328124999372
 21
728.10000000000105
  0
LINE
  8
_0-0_計極細
  6
CONTINUOUS
 62
    2
 10
727.96328124999491
 20
577.10000000000105
 11
727.96328124999388
 21
728.10000000000105
  0
LINE
  8
_0-0_計極細
  6
CONTINUOUS
 62
    2
 10
732.96328124999491
 20
577.10000000000105
 11
732.96328124999388
 21
728.10000000000105
  0
LINE
  8
_0-0_計極細
  6
CONTINUOUS
 62
    2
 10
724.76328124999452
 20
592.10000000000105
 11
719.16328124999438
 21
592.10000000000105
  0
LINE
  8
_0-0_計極細
  6
CONTINUOUS
 62
    2
 10
724.76328124999452
 20
605.10000000000105
 11
719.16328124999438
 21
605.10000000000105
  0
LINE
  8
_0-0_計極細
  6
CONTINUOUS
 62
    2
 10
724.76328124999486
 20
700.10000000000105
 11
719.1632812499945
 21
700.10000000000105
  0
LINE
  8
_0-0_計極細
  6
CONTINUOUS
 62
    2
 10
724.76328124999486
 20
713.10000000000105
 11
719.1632812499945
 21
713.10000000000105
  0
LINE
  8
_0-1_計細線
  6
CONTINUOUS
 62
    3
 10
719.16328124999518
 20
577.10000000000105
 11
719.16328124999427
 21
728.10000000000105
  0
LINE
  8
_0-1_計細線
  6
CONTINUOUS
 62
    3
 10
707.76328124999463
 20
577.10000000000105
 11
707.76328124999372
 21
728.10000000000105
  0
LINE
  8
_0-1_計細線
  6
CONTINUOUS
 62
    3
 10
719.16328124999518
 20
577.10000000000105
 11
707.76328124999463
 21
577.10000000000105
  0
LINE
  8
_0-1_計細線
  6
CONTINUOUS
 62
    3
 10
719.16328124999427
 20
728.10000000000105
 11
707.76328124999372
 21
728.10000000000105
  0
LINE
  8
_0-0_計極細
  6
CONTINUOUS
 62
    2
 10
710.96328124999491
 20
577.10000000000105
 11
710.96328124999388
 21
728.10000000000105
  0
LINE
  8
_0-0_計極細
  6
CONTINUOUS
 62
    2
 10
715.96328124999491
 20
577.10000000000105
 11
715.96328124999388
 21
728.10000000000105
  0
LINE
  8
_0-0_計極細
  6
CONTINUOUS
 62
    2
 10
707.76328124999452
 20
592.10000000000105
 11
702.16328124999438
 21
592.10000000000105
  0
LINE
  8
_0-0_計極細
  6
CONTINUOUS
 62
    2
 10
707.76328124999452
 20
605.10000000000105
 11
702.16328124999438
 21
605.10000000000105
  0
LINE
  8
_0-0_計極細
  6
CONTINUOUS
 62
    2
 10
707.76328124999486
 20
700.10000000000105
 11
702.1632812499945
 21
700.10000000000105
  0
LINE
  8
_0-0_計極細
  6
CONTINUOUS
 62
    2
 10
707.76328124999486
 20
713.10000000000105
 11
702.1632812499945
 21
713.10000000000105
  0
LINE
  8
_0-1_計細線
  6
CONTINUOUS
 62
    3
 10
702.16328124999518
 20
577.10000000000105
 11
702.16328124999427
 21
728.10000000000105
  0
LINE
  8
_0-1_計細線
  6
CONTINUOUS
 62
    3
 10
690.76328124999463
 20
577.10000000000105
 11
690.76328124999361
 21
728.10000000000105
  0
LINE
  8
_0-1_計細線
  6
CONTINUOUS
 62
    3
 10
702.16328124999518
 20
577.10000000000105
 11
690.76328124999463
 21
577.10000000000105
  0
LINE
  8
_0-1_計細線
  6
CONTINUOUS
 62
    3
 10
702.16328124999427
 20
728.10000000000105
 11
690.76328124999361
 21
728.10000000000105
  0
LINE
  8
_0-0_計極細
  6
CONTINUOUS
 62
    2
 10
693.96328124999502
 20
577.10000000000105
 11
693.96328124999388
 21
728.10000000000105
  0
LINE
  8
_0-0_計極細
  6
CONTINUOUS
 62
    2
 10
698.96328124999502
 20
577.10000000000105
 11
698.96328124999388
 21
728.10000000000105
  0
LINE
  8
_0-0_計極細
  6
CONTINUOUS
 62
    2
 10
690.76328124999452
 20
592.10000000000105
 11
685.1632812499945
 21
592.10000000000105
  0
LINE
  8
_0-0_計極細
  6
CONTINUOUS
 62
    2
 10
690.76328124999452
 20
605.10000000000105
 11
685.1632812499945
 21
605.10000000000105
  0
LINE
  8
_0-0_計極細
  6
CONTINUOUS
 62
    2
 10
690.76328124999475
 20
700.10000000000105
 11
685.1632812499945
 21
700.10000000000105
  0
LINE
  8
_0-0_計極細
  6
CONTINUOUS
 62
    2
 10
690.76328124999475
 20
713.10000000000105
 11
685.1632812499945
 21
713.10000000000105
  0
LINE
  8
_0-1_計細線
  6
CONTINUOUS
 62
    3
 10
685.16328124999518
 20
577.10000000000105
 11
685.16328124999416
 21
728.10000000000105
  0
LINE
  8
_0-1_計細線
  6
CONTINUOUS
 62
    3
 10
673.76328124999463
 20
577.10000000000105
 11
673.76328124999361
 21
728.10000000000105
  0
LINE
  8
_0-1_計細線
  6
CONTINUOUS
 62
    3
 10
685.16328124999518
 20
577.10000000000105
 11
673.76328124999463
 21
577.10000000000105
  0
LINE
  8
_0-1_計細線
  6
CONTINUOUS
 62
    3
 10
685.16328124999416
 20
728.10000000000105
 11
673.76328124999361
 21
728.10000000000105
  0
LINE
  8
_0-0_計極細
  6
CONTINUOUS
 62
    2
 10
676.96328124999491
 20
577.10000000000105
 11
676.963281249994
 21
728.10000000000105
  0
LINE
  8
_0-0_計極細
  6
CONTINUOUS
 62
    2
 10
681.96328124999491
 20
577.10000000000105
 11
681.963281249994
 21
728.10000000000105
  0
LINE
  8
_0-0_計極細
  6
CONTINUOUS
 62
    2
 10
673.76328124999463
 20
592.10000000000105
 11
668.1632812499945
 21
592.10000000000105
  0
LINE
  8
_0-0_計極細
  6
CONTINUOUS
 62
    2
 10
673.76328124999463
 20
605.10000000000105
 11
668.1632812499945
 21
605.10000000000105
  0
LINE
  8
_0-0_計極細
  6
CONTINUOUS
 62
    2
 10
673.76328124999475
 20
700.10000000000105
 11
668.16328124999461
 21
700.10000000000105
  0
LINE
  8
_0-0_計極細
  6
CONTINUOUS
 62
    2
 10
673.76328124999475
 20
713.10000000000105
 11
668.16328124999461
 21
713.10000000000105
  0
LINE
  8
_0-1_計細線
  6
CONTINUOUS
 62
    3
 10
668.16328124999518
 20
577.10000000000105
 11
668.16328124999416
 21
728.10000000000105
  0
LINE
  8
_0-1_計細線
  6
CONTINUOUS
 62
    3
 10
656.76328124999475
 20
577.10000000000105
 11
656.76328124999361
 21
728.10000000000105
  0
LINE
  8
_0-1_計細線
  6
CONTINUOUS
 62
    3
 10
668.16328124999518
 20
577.10000000000105
 11
656.76328124999475
 21
577.10000000000105
  0
LINE
  8
_0-1_計細線
  6
CONTINUOUS
 62
    3
 10
668.16328124999416
 20
728.10000000000105
 11
656.76328124999361
 21
728.10000000000105
  0
LINE
  8
_0-0_計極細
  6
CONTINUOUS
 62
    2
 10
659.96328124999491
 20
577.10000000000105
 11
659.963281249994
 21
728.10000000000105
  0
LINE
  8
_0-0_計極細
  6
CONTINUOUS
 62
    2
 10
664.96328124999491
 20
577.10000000000105
 11
664.963281249994
 21
728.10000000000105
  0
LINE
  8
_0-0_計極細
  6
CONTINUOUS
 62
    2
 10
656.76328124999463
 20
592.10000000000105
 11
651.16328124999438
 21
592.10000000000105
  0
LINE
  8
_0-0_計極細
  6
CONTINUOUS
 62
    2
 10
656.76328124999463
 20
605.10000000000105
 11
651.16328124999438
 21
605.10000000000105
  0
LINE
  8
_0-0_計極細
  6
CONTINUOUS
 62
    2
 10
656.76328124999475
 20
700.10000000000105
 11
651.1632812499945
 21
700.10000000000105
  0
LINE
  8
_0-0_計極細
  6
CONTINUOUS
 62
    2
 10
656.76328124999475
 20
713.10000000000105
 11
651.1632812499945
 21
713.10000000000105
  0
LINE
  8
_0-1_計細線
  6
CONTINUOUS
 62
    3
 10
651.16328124999529
 20
577.10000000000105
 11
651.16328124999416
 21
728.10000000000105
  0
LINE
  8
_0-1_計細線
  6
CONTINUOUS
 62
    3
 10
639.76328124999463
 20
577.10000000000105
 11
639.76328124999361
 21
728.10000000000105
  0
LINE
  8
_0-1_計細線
  6
CONTINUOUS
 62
    3
 10
651.16328124999529
 20
577.10000000000105
 11
639.76328124999463
 21
577.10000000000105
  0
LINE
  8
_0-1_計細線
  6
CONTINUOUS
 62
    3
 10
651.16328124999416
 20
728.10000000000105
 11
639.76328124999361
 21
728.10000000000105
  0
LINE
  8
_0-0_計極細
  6
CONTINUOUS
 62
    2
 10
642.96328124999491
 20
577.10000000000105
 11
642.96328124999388
 21
728.10000000000105
  0
LINE
  8
_0-0_計極細
  6
CONTINUOUS
 62
    2
 10
647.96328124999491
 20
577.10000000000105
 11
647.96328124999388
 21
728.10000000000105
  0
LINE
  8
_0-0_計極細
  6
CONTINUOUS
 62
    2
 10
639.76328124999452
 20
592.10000000000105
 11
634.16328124999438
 21
592.10000000000105
  0
LINE
  8
_0-0_計極細
  6
CONTINUOUS
 62
    2
 10
639.76328124999452
 20
605.10000000000105
 11
634.16328124999438
 21
605.10000000000105
  0
LINE
  8
_0-0_計極細
  6
CONTINUOUS
 62
    2
 10
639.76328124999475
 20
700.10000000000105
 11
634.1632812499945
 21
700.10000000000105
  0
LINE
  8
_0-0_計極細
  6
CONTINUOUS
 62
    2
 10
639.76328124999475
 20
713.10000000000105
 11
634.1632812499945
 21
713.10000000000105
  0
LINE
  8
_0-1_計細線
  6
CONTINUOUS
 62
    3
 10
634.16328124999518
 20
577.10000000000105
 11
634.16328124999416
 21
728.10000000000105
  0
LINE
  8
_0-1_計細線
  6
CONTINUOUS
 62
    3
 10
622.76328124999463
 20
577.10000000000105
 11
622.76328124999372
 21
728.10000000000105
  0
LINE
  8
_0-1_計細線
  6
CONTINUOUS
 62
    3
 10
634.16328124999518
 20
577.10000000000105
 11
622.76328124999463
 21
577.10000000000105
  0
LINE
  8
_0-1_計細線
  6
CONTINUOUS
 62
    3
 10
634.16328124999416
 20
728.10000000000105
 11
622.76328124999372
 21
728.10000000000105
  0
LINE
  8
_0-0_計極細
  6
CONTINUOUS
 62
    2
 10
625.96328124999491
 20
577.10000000000105
 11
625.96328124999388
 21
728.10000000000105
  0
LINE
  8
_0-0_計極細
  6
CONTINUOUS
 62
    2
 10
630.96328124999491
 20
577.10000000000105
 11
630.96328124999388
 21
728.10000000000105
  0
LINE
  8
_0-0_計極細
  6
CONTINUOUS
 62
    2
 10
622.76328124999452
 20
592.10000000000105
 11
617.16328124999438
 21
592.10000000000105
  0
LINE
  8
_0-0_計極細
  6
CONTINUOUS
 62
    2
 10
622.76328124999452
 20
605.10000000000105
 11
617.16328124999438
 21
605.10000000000105
  0
LINE
  8
_0-0_計極細
  6
CONTINUOUS
 62
    2
 10
622.76328124999486
 20
700.10000000000105
 11
617.1632812499945
 21
700.10000000000105
  0
LINE
  8
_0-0_計極細
  6
CONTINUOUS
 62
    2
 10
622.76328124999486
 20
713.10000000000105
 11
617.1632812499945
 21
713.10000000000105
  0
LINE
  8
_0-1_計細線
  6
CONTINUOUS
 62
    3
 10
617.16328124999518
 20
577.10000000000105
 11
617.16328124999427
 21
728.10000000000105
  0
LINE
  8
_0-1_計細線
  6
CONTINUOUS
 62
    3
 10
605.76328124999463
 20
577.10000000000105
 11
605.76328124999361
 21
728.10000000000105
  0
LINE
  8
_0-1_計細線
  6
CONTINUOUS
 62
    3
 10
617.16328124999518
 20
577.10000000000105
 11
605.76328124999463
 21
577.10000000000105
  0
LINE
  8
_0-1_計細線
  6
CONTINUOUS
 62
    3
 10
617.16328124999427
 20
728.10000000000105
 11
605.76328124999361
 21
728.10000000000105
  0
LINE
  8
_0-0_計極細
  6
CONTINUOUS
 62
    2
 10
608.96328124999491
 20
577.10000000000105
 11
608.96328124999388
 21
728.10000000000105
  0
LINE
  8
_0-0_計極細
  6
CONTINUOUS
 62
    2
 10
613.96328124999491
 20
577.10000000000105
 11
613.96328124999388
 21
728.10000000000105
  0
LINE
  8
_0-0_計極細
  6
CONTINUOUS
 62
    2
 10
605.76328124999452
 20
592.10000000000105
 11
600.16328124999438
 21
592.10000000000105
  0
LINE
  8
_0-0_計極細
  6
CONTINUOUS
 62
    2
 10
605.76328124999452
 20
605.10000000000105
 11
600.16328124999438
 21
605.10000000000105
  0
LINE
  8
_0-0_計極細
  6
CONTINUOUS
 62
    2
 10
605.76328124999475
 20
700.10000000000105
 11
600.1632812499945
 21
700.10000000000105
  0
LINE
  8
_0-0_計極細
  6
CONTINUOUS
 62
    2
 10
605.76328124999475
 20
713.10000000000105
 11
600.1632812499945
 21
713.10000000000105
  0
LINE
  8
_0-1_計細線
  6
CONTINUOUS
 62
    3
 10
600.16328124999518
 20
577.10000000000105
 11
600.16328124999416
 21
728.10000000000105
  0
LINE
  8
_0-1_計細線
  6
CONTINUOUS
 62
    3
 10
588.76328124999463
 20
577.10000000000105
 11
588.76328124999361
 21
728.10000000000105
  0
LINE
  8
_0-1_計細線
  6
CONTINUOUS
 62
    3
 10
600.16328124999518
 20
577.10000000000105
 11
588.76328124999463
 21
577.10000000000105
  0
LINE
  8
_0-1_計細線
  6
CONTINUOUS
 62
    3
 10
600.16328124999416
 20
728.10000000000105
 11
588.76328124999361
 21
728.10000000000105
  0
LINE
  8
_0-0_計極細
  6
CONTINUOUS
 62
    2
 10
591.96328124999491
 20
577.10000000000105
 11
591.96328124999388
 21
728.10000000000105
  0
LINE
  8
_0-0_計極細
  6
CONTINUOUS
 62
    2
 10
596.96328124999491
 20
577.10000000000105
 11
596.96328124999388
 21
728.10000000000105
  0
LINE
  8
_0-0_計極細
  6
CONTINUOUS
 62
    2
 10
588.76328124999452
 20
592.10000000000105
 11
583.1632812499945
 21
592.10000000000105
  0
LINE
  8
_0-0_計極細
  6
CONTINUOUS
 62
    2
 10
588.76328124999452
 20
605.10000000000105
 11
583.1632812499945
 21
605.10000000000105
  0
LINE
  8
_0-0_計極細
  6
CONTINUOUS
 62
    2
 10
588.76328124999475
 20
700.10000000000105
 11
583.1632812499945
 21
700.10000000000105
  0
LINE
  8
_0-0_計極細
  6
CONTINUOUS
 62
    2
 10
588.76328124999475
 20
713.10000000000105
 11
583.1632812499945
 21
713.10000000000105
  0
LINE
  8
_0-1_計細線
  6
CONTINUOUS
 62
    3
 10
583.16328124999518
 20
577.10000000000105
 11
583.16328124999416
 21
728.10000000000105
  0
LINE
  8
_0-1_計細線
  6
CONTINUOUS
 62
    3
 10
571.76328124999463
 20
577.10000000000105
 11
571.76328124999361
 21
728.10000000000105
  0
LINE
  8
_0-1_計細線
  6
CONTINUOUS
 62
    3
 10
583.16328124999518
 20
577.10000000000105
 11
571.76328124999463
 21
577.10000000000105
  0
LINE
  8
_0-1_計細線
  6
CONTINUOUS
 62
    3
 10
583.16328124999416
 20
728.10000000000105
 11
571.76328124999361
 21
728.10000000000105
  0
LINE
  8
_0-0_計極細
  6
CONTINUOUS
 62
    2
 10
574.96328124999491
 20
577.10000000000105
 11
574.963281249994
 21
728.10000000000105
  0
LINE
  8
_0-0_計極細
  6
CONTINUOUS
 62
    2
 10
579.96328124999491
 20
577.10000000000105
 11
579.963281249994
 21
728.10000000000105
  0
LINE
  8
_0-0_計極細
  6
CONTINUOUS
 62
    2
 10
571.76328124999463
 20
592.10000000000105
 11
566.16328124999438
 21
592.10000000000105
  0
LINE
  8
_0-0_計極細
  6
CONTINUOUS
 62
    2
 10
571.76328124999463
 20
605.10000000000105
 11
566.16328124999438
 21
605.10000000000105
  0
LINE
  8
_0-0_計極細
  6
CONTINUOUS
 62
    2
 10
571.76328124999475
 20
700.10000000000105
 11
566.1632812499945
 21
700.10000000000105
  0
LINE
  8
_0-0_計極細
  6
CONTINUOUS
 62
    2
 10
571.76328124999475
 20
713.10000000000105
 11
566.1632812499945
 21
713.10000000000105
  0
LINE
  8
_0-1_計細線
  6
CONTINUOUS
 62
    3
 10
566.16328124999518
 20
577.10000000000105
 11
566.16328124999416
 21
728.10000000000105
  0
LINE
  8
_0-1_計細線
  6
CONTINUOUS
 62
    3
 10
554.76328124999463
 20
577.10000000000105
 11
554.76328124999361
 21
728.10000000000105
  0
LINE
  8
_0-1_計細線
  6
CONTINUOUS
 62
    3
 10
566.16328124999518
 20
577.10000000000105
 11
554.76328124999463
 21
577.10000000000105
  0
LINE
  8
_0-1_計細線
  6
CONTINUOUS
 62
    3
 10
566.16328124999416
 20
728.10000000000105
 11
554.76328124999361
 21
728.10000000000105
  0
LINE
  8
_0-0_計極細
  6
CONTINUOUS
 62
    2
 10
557.96328124999491
 20
577.10000000000105
 11
557.96328124999388
 21
728.10000000000105
  0
LINE
  8
_0-0_計極細
  6
CONTINUOUS
 62
    2
 10
562.96328124999491
 20
577.10000000000105
 11
562.96328124999388
 21
728.10000000000105
  0
LINE
  8
_0-0_計極細
  6
CONTINUOUS
 62
    2
 10
554.76328124999452
 20
592.10000000000105
 11
549.16328124999438
 21
592.10000000000105
  0
LINE
  8
_0-0_計極細
  6
CONTINUOUS
 62
    2
 10
554.76328124999452
 20
605.10000000000105
 11
549.16328124999438
 21
605.10000000000105
  0
LINE
  8
_0-0_計極細
  6
CONTINUOUS
 62
    2
 10
554.76328124999475
 20
700.10000000000105
 11
549.1632812499945
 21
700.10000000000105
  0
LINE
  8
_0-0_計極細
  6
CONTINUOUS
 62
    2
 10
554.76328124999475
 20
713.10000000000105
 11
549.1632812499945
 21
713.10000000000105
  0
LINE
  8
_0-1_計細線
  6
CONTINUOUS
 62
    3
 10
549.16328124999518
 20
577.10000000000105
 11
549.16328124999416
 21
728.10000000000105
  0
LINE
  8
_0-1_計細線
  6
CONTINUOUS
 62
    3
 10
537.76328124999463
 20
577.10000000000105
 11
537.76328124999372
 21
728.10000000000105
  0
LINE
  8
_0-1_計細線
  6
CONTINUOUS
 62
    3
 10
549.16328124999518
 20
577.10000000000105
 11
537.76328124999463
 21
577.10000000000105
  0
LINE
  8
_0-1_計細線
  6
CONTINUOUS
 62
    3
 10
549.16328124999416
 20
728.10000000000105
 11
537.76328124999372
 21
728.10000000000105
  0
LINE
  8
_0-0_計極細
  6
CONTINUOUS
 62
    2
 10
540.96328124999491
 20
577.10000000000105
 11
540.96328124999388
 21
728.10000000000105
  0
LINE
  8
_0-0_計極細
  6
CONTINUOUS
 62
    2
 10
545.96328124999491
 20
577.10000000000105
 11
545.96328124999388
 21
728.10000000000105
  0
LINE
  8
_0-0_計極細
  6
CONTINUOUS
 62
    2
 10
537.76328124999452
 20
592.10000000000105
 11
532.16328124999438
 21
592.10000000000105
  0
LINE
  8
_0-0_計極細
  6
CONTINUOUS
 62
    2
 10
537.76328124999452
 20
605.10000000000105
 11
532.16328124999438
 21
605.10000000000105
  0
LINE
  8
_0-0_計極細
  6
CONTINUOUS
 62
    2
 10
537.76328124999486
 20
700.10000000000105
 11
532.1632812499945
 21
700.10000000000105
  0
LINE
  8
_0-0_計極細
  6
CONTINUOUS
 62
    2
 10
537.76328124999486
 20
713.10000000000105
 11
532.1632812499945
 21
713.10000000000105
  0
LINE
  8
_0-1_計細線
  6
CONTINUOUS
 62
    3
 10
532.16328124999518
 20
577.10000000000105
 11
532.16328124999427
 21
728.10000000000105
  0
LINE
  8
_0-1_計細線
  6
CONTINUOUS
 62
    3
 10
520.76328124999463
 20
577.10000000000105
 11
520.76328124999361
 21
728.10000000000105
  0
LINE
  8
_0-1_計細線
  6
CONTINUOUS
 62
    3
 10
532.16328124999518
 20
577.10000000000105
 11
520.76328124999463
 21
577.10000000000105
  0
LINE
  8
_0-1_計細線
  6
CONTINUOUS
 62
    3
 10
532.16328124999427
 20
728.10000000000105
 11
520.76328124999361
 21
728.10000000000105
  0
LINE
  8
_0-0_計極細
  6
CONTINUOUS
 62
    2
 10
523.96328124999491
 20
577.10000000000105
 11
523.96328124999388
 21
728.10000000000105
  0
LINE
  8
_0-0_計極細
  6
CONTINUOUS
 62
    2
 10
528.96328124999491
 20
577.10000000000105
 11
528.96328124999388
 21
728.10000000000105
  0
LINE
  8
_0-0_計極細
  6
CONTINUOUS
 62
    2
 10
520.76328124999452
 20
592.10000000000105
 11
515.16328124999438
 21
592.10000000000105
  0
LINE
  8
_0-0_計極細
  6
CONTINUOUS
 62
    2
 10
520.76328124999452
 20
605.10000000000105
 11
515.16328124999438
 21
605.10000000000105
  0
LINE
  8
_0-0_計極細
  6
CONTINUOUS
 62
    2
 10
520.76328124999475
 20
700.10000000000105
 11
515.1632812499945
 21
700.10000000000105
  0
LINE
  8
_0-0_計極細
  6
CONTINUOUS
 62
    2
 10
520.76328124999475
 20
713.10000000000105
 11
515.1632812499945
 21
713.10000000000105
  0
LINE
  8
_0-1_計細線
  6
CONTINUOUS
 62
    3
 10
515.16328124999518
 20
577.10000000000105
 11
515.16328124999416
 21
728.10000000000105
  0
LINE
  8
_0-1_計細線
  6
CONTINUOUS
 62
    3
 10
503.76328124999469
 20
577.10000000000105
 11
503.76328124999361
 21
728.10000000000105
  0
LINE
  8
_0-1_計細線
  6
CONTINUOUS
 62
    3
 10
515.16328124999518
 20
577.10000000000105
 11
503.76328124999469
 21
577.10000000000105
  0
LINE
  8
_0-1_計細線
  6
CONTINUOUS
 62
    3
 10
515.16328124999416
 20
728.10000000000105
 11
503.76328124999361
 21
728.10000000000105
  0
LINE
  8
_0-0_計極細
  6
CONTINUOUS
 62
    2
 10
506.96328124999496
 20
577.10000000000105
 11
506.96328124999388
 21
728.10000000000105
  0
LINE
  8
_0-0_計極細
  6
CONTINUOUS
 62
    2
 10
511.96328124999496
 20
577.10000000000105
 11
511.96328124999388
 21
728.10000000000105
  0
LINE
  8
_0-0_計極細
  6
CONTINUOUS
 62
    2
 10
503.76328124999452
 20
592.10000000000105
 11
498.16328124999444
 21
592.10000000000105
  0
LINE
  8
_0-0_計極細
  6
CONTINUOUS
 62
    2
 10
503.76328124999452
 20
605.10000000000105
 11
498.16328124999444
 21
605.10000000000105
  0
LINE
  8
_0-0_計極細
  6
CONTINUOUS
 62
    2
 10
503.76328124999475
 20
700.10000000000105
 11
498.1632812499945
 21
700.10000000000105
  0
LINE
  8
_0-0_計極細
  6
CONTINUOUS
 62
    2
 10
503.76328124999475
 20
713.10000000000105
 11
498.1632812499945
 21
713.10000000000105
  0
LINE
  8
_0-1_計細線
  6
CONTINUOUS
 62
    3
 10
498.16328124999524
 20
577.10000000000105
 11
498.16328124999416
 21
728.10000000000105
  0
LINE
  8
_0-1_計細線
  6
CONTINUOUS
 62
    3
 10
486.76328124999463
 20
577.10000000000105
 11
486.76328124999367
 21
728.10000000000105
  0
LINE
  8
_0-1_計細線
  6
CONTINUOUS
 62
    3
 10
498.16328124999524
 20
577.10000000000105
 11
486.76328124999463
 21
577.10000000000105
  0
LINE
  8
_0-1_計細線
  6
CONTINUOUS
 62
    3
 10
498.16328124999416
 20
728.10000000000105
 11
486.76328124999367
 21
728.10000000000105
  0
LINE
  8
_0-0_計極細
  6
CONTINUOUS
 62
    2
 10
489.96328124999491
 20
577.10000000000105
 11
489.96328124999394
 21
728.10000000000105
  0
LINE
  8
_0-0_計極細
  6
CONTINUOUS
 62
    2
 10
494.96328124999491
 20
577.10000000000105
 11
494.96328124999394
 21
728.10000000000105
  0
LINE
  8
_0-0_計極細
  6
CONTINUOUS
 62
    2
 10
486.76328124999458
 20
592.10000000000105
 11
481.16328124999438
 21
592.10000000000105
  0
LINE
  8
_0-0_計極細
  6
CONTINUOUS
 62
    2
 10
486.76328124999458
 20
605.10000000000105
 11
481.16328124999438
 21
605.10000000000105
  0
LINE
  8
_0-0_計極細
  6
CONTINUOUS
 62
    2
 10
486.7632812499948
 20
700.10000000000105
 11
481.16328124999455
 21
700.10000000000105
  0
LINE
  8
_0-0_計極細
  6
CONTINUOUS
 62
    2
 10
486.7632812499948
 20
713.10000000000105
 11
481.16328124999455
 21
713.10000000000105
  0
LINE
  8
_0-1_計細線
  6
CONTINUOUS
 62
    3
 10
481.16328124999518
 20
577.10000000000105
 11
481.16328124999421
 21
728.10000000000105
  0
LINE
  8
_0-1_計細線
  6
CONTINUOUS
 62
    3
 10
469.76328124999469
 20
577.10000000000105
 11
469.76328124999361
 21
728.10000000000105
  0
LINE
  8
_0-1_計細線
  6
CONTINUOUS
 62
    3
 10
481.16328124999518
 20
577.10000000000105
 11
469.76328124999469
 21
577.10000000000105
  0
LINE
  8
_0-1_計細線
  6
CONTINUOUS
 62
    3
 10
481.16328124999421
 20
728.10000000000105
 11
469.76328124999361
 21
728.10000000000105
  0
LINE
  8
_0-0_計極細
  6
CONTINUOUS
 62
    2
 10
472.96328124999491
 20
577.10000000000105
 11
472.96328124999388
 21
728.10000000000105
  0
LINE
  8
_0-0_計極細
  6
CONTINUOUS
 62
    2
 10
477.96328124999491
 20
577.10000000000105
 11
477.96328124999388
 21
728.10000000000105
  0
LINE
  8
_0-0_計極細
  6
CONTINUOUS
 62
    2
 10
469.76328124999452
 20
592.10000000000105
 11
464.16328124999438
 21
592.10000000000105
  0
LINE
  8
_0-0_計極細
  6
CONTINUOUS
 62
    2
 10
469.76328124999452
 20
605.10000000000105
 11
464.16328124999438
 21
605.10000000000105
  0
LINE
  8
_0-0_計極細
  6
CONTINUOUS
 62
    2
 10
469.76328124999475
 20
700.10000000000105
 11
464.1632812499945
 21
700.10000000000105
  0
LINE
  8
_0-0_計極細
  6
CONTINUOUS
 62
    2
 10
469.76328124999475
 20
713.10000000000105
 11
464.1632812499945
 21
713.10000000000105
  0
LINE
  8
_0-1_計細線
  6
CONTINUOUS
 62
    3
 10
464.16328124999524
 20
577.10000000000105
 11
464.16328124999416
 21
728.10000000000105
  0
LINE
  8
_0-1_計細線
  6
CONTINUOUS
 62
    3
 10
452.76328124999463
 20
577.10000000000105
 11
452.76328124999367
 21
728.10000000000105
  0
LINE
  8
_0-1_計細線
  6
CONTINUOUS
 62
    3
 10
464.16328124999524
 20
577.10000000000105
 11
452.76328124999463
 21
577.10000000000105
  0
LINE
  8
_0-1_計細線
  6
CONTINUOUS
 62
    3
 10
464.16328124999416
 20
728.10000000000105
 11
452.76328124999367
 21
728.10000000000105
  0
LINE
  8
_0-0_計極細
  6
CONTINUOUS
 62
    2
 10
455.96328124999496
 20
577.10000000000105
 11
455.96328124999388
 21
728.10000000000105
  0
LINE
  8
_0-0_計極細
  6
CONTINUOUS
 62
    2
 10
460.96328124999496
 20
577.10000000000105
 11
460.96328124999388
 21
728.10000000000105
  0
LINE
  8
_0-0_計極細
  6
CONTINUOUS
 62
    2
 10
452.76328124999452
 20
592.10000000000105
 11
447.16328124999444
 21
592.10000000000105
  0
LINE
  8
_0-0_計極細
  6
CONTINUOUS
 62
    2
 10
452.76328124999452
 20
605.10000000000105
 11
447.16328124999444
 21
605.10000000000105
  0
LINE
  8
_0-0_計極細
  6
CONTINUOUS
 62
    2
 10
452.7632812499948
 20
700.10000000000105
 11
447.1632812499945
 21
700.10000000000105
  0
LINE
  8
_0-0_計極細
  6
CONTINUOUS
 62
    2
 10
452.7632812499948
 20
713.10000000000105
 11
447.1632812499945
 21
713.10000000000105
  0
LINE
  8
_0-1_計細線
  6
CONTINUOUS
 62
    3
 10
447.16328124999518
 20
577.10000000000105
 11
447.16328124999421
 21
728.10000000000105
  0
LINE
  8
_0-1_計細線
  6
CONTINUOUS
 62
    3
 10
435.76328124999463
 20
577.10000000000105
 11
435.76328124999361
 21
728.10000000000105
  0
LINE
  8
_0-1_計細線
  6
CONTINUOUS
 62
    3
 10
447.16328124999518
 20
577.10000000000105
 11
435.76328124999463
 21
577.10000000000105
  0
LINE
  8
_0-1_計細線
  6
CONTINUOUS
 62
    3
 10
447.16328124999421
 20
728.10000000000105
 11
435.76328124999361
 21
728.10000000000105
  0
LINE
  8
_0-0_計極細
  6
CONTINUOUS
 62
    2
 10
438.96328124999491
 20
577.10000000000105
 11
438.96328124999394
 21
728.10000000000105
  0
LINE
  8
_0-0_計極細
  6
CONTINUOUS
 62
    2
 10
443.96328124999491
 20
577.10000000000105
 11
443.96328124999394
 21
728.10000000000105
  0
LINE
  8
_0-0_計極細
  6
CONTINUOUS
 62
    2
 10
435.76328124999458
 20
592.10000000000105
 11
430.16328124999438
 21
592.10000000000105
  0
LINE
  8
_0-0_計極細
  6
CONTINUOUS
 62
    2
 10
435.76328124999458
 20
605.10000000000105
 11
430.16328124999438
 21
605.10000000000105
  0
LINE
  8
_0-0_計極細
  6
CONTINUOUS
 62
    2
 10
435.76328124999475
 20
700.10000000000105
 11
430.16328124999455
 21
700.10000000000105
  0
LINE
  8
_0-0_計極細
  6
CONTINUOUS
 62
    2
 10
435.76328124999475
 20
713.10000000000105
 11
430.16328124999455
 21
713.10000000000105
  0
LINE
  8
_0-1_計細線
  6
CONTINUOUS
 62
    3
 10
430.16328124999518
 20
577.10000000000105
 11
430.16328124999416
 21
728.10000000000105
  0
LINE
  8
_0-1_計細線
  6
CONTINUOUS
 62
    3
 10
418.76328124999469
 20
577.10000000000105
 11
418.76328124999361
 21
728.10000000000105
  0
LINE
  8
_0-1_計細線
  6
CONTINUOUS
 62
    3
 10
430.16328124999518
 20
577.10000000000105
 11
418.76328124999469
 21
577.10000000000105
  0
LINE
  8
_0-1_計細線
  6
CONTINUOUS
 62
    3
 10
430.16328124999416
 20
728.10000000000105
 11
418.76328124999361
 21
728.10000000000105
  0
LINE
  8
_0-0_計極細
  6
CONTINUOUS
 62
    2
 10
421.96328124999496
 20
577.10000000000105
 11
421.96328124999388
 21
728.10000000000105
  0
LINE
  8
_0-0_計極細
  6
CONTINUOUS
 62
    2
 10
426.96328124999496
 20
577.10000000000105
 11
426.96328124999388
 21
728.10000000000105
  0
LINE
  8
_0-0_計極細
  6
CONTINUOUS
 62
    2
 10
418.76328124999452
 20
592.10000000000105
 11
413.16328124999444
 21
592.10000000000105
  0
LINE
  8
_0-0_計極細
  6
CONTINUOUS
 62
    2
 10
418.76328124999452
 20
605.10000000000105
 11
413.16328124999444
 21
605.10000000000105
  0
LINE
  8
_0-0_計極細
  6
CONTINUOUS
 62
    2
 10
418.76328124999475
 20
700.10000000000105
 11
413.1632812499945
 21
700.10000000000105
  0
LINE
  8
_0-0_計極細
  6
CONTINUOUS
 62
    2
 10
418.76328124999475
 20
713.10000000000105
 11
413.1632812499945
 21
713.10000000000105
  0
LINE
  8
_0-1_計細線
  6
CONTINUOUS
 62
    3
 10
413.16328124999524
 20
577.10000000000105
 11
413.16328124999416
 21
728.10000000000105
  0
LINE
  8
_0-1_計細線
  6
CONTINUOUS
 62
    3
 10
401.76328124999463
 20
577.10000000000105
 11
401.76328124999367
 21
728.10000000000105
  0
LINE
  8
_0-1_計細線
  6
CONTINUOUS
 62
    3
 10
413.16328124999524
 20
577.10000000000105
 11
401.76328124999463
 21
577.10000000000105
  0
LINE
  8
_0-1_計細線
  6
CONTINUOUS
 62
    3
 10
413.16328124999416
 20
728.10000000000105
 11
401.76328124999367
 21
728.10000000000105
  0
LINE
  8
_0-0_計極細
  6
CONTINUOUS
 62
    2
 10
404.96328124999491
 20
577.10000000000105
 11
404.96328124999394
 21
728.10000000000105
  0
LINE
  8
_0-0_計極細
  6
CONTINUOUS
 62
    2
 10
409.96328124999491
 20
577.10000000000105
 11
409.96328124999394
 21
728.10000000000105
  0
LINE
  8
_0-0_計極細
  6
CONTINUOUS
 62
    2
 10
401.76328124999458
 20
592.10000000000105
 11
396.16328124999438
 21
592.10000000000105
  0
LINE
  8
_0-0_計極細
  6
CONTINUOUS
 62
    2
 10
401.76328124999458
 20
605.10000000000105
 11
396.16328124999438
 21
605.10000000000105
  0
LINE
  8
_0-0_計極細
  6
CONTINUOUS
 62
    2
 10
401.7632812499948
 20
700.10000000000105
 11
396.16328124999455
 21
700.10000000000105
  0
LINE
  8
_0-0_計極細
  6
CONTINUOUS
 62
    2
 10
401.7632812499948
 20
713.10000000000105
 11
396.16328124999455
 21
713.10000000000105
  0
LINE
  8
_0-1_計細線
  6
CONTINUOUS
 62
    3
 10
396.16328124999518
 20
577.10000000000105
 11
396.16328124999421
 21
728.10000000000105
  0
LINE
  8
_0-1_計細線
  6
CONTINUOUS
 62
    3
 10
384.76328124999469
 20
577.10000000000105
 11
384.76328124999361
 21
728.10000000000105
  0
LINE
  8
_0-1_計細線
  6
CONTINUOUS
 62
    3
 10
396.16328124999518
 20
577.10000000000105
 11
384.76328124999469
 21
577.10000000000105
  0
LINE
  8
_0-1_計細線
  6
CONTINUOUS
 62
    3
 10
396.16328124999421
 20
728.10000000000105
 11
384.76328124999361
 21
728.10000000000105
  0
LINE
  8
_0-0_計極細
  6
CONTINUOUS
 62
    2
 10
387.96328124999491
 20
577.10000000000105
 11
387.96328124999388
 21
728.10000000000105
  0
LINE
  8
_0-0_計極細
  6
CONTINUOUS
 62
    2
 10
392.96328124999491
 20
577.10000000000105
 11
392.96328124999388
 21
728.10000000000105
  0
LINE
  8
_0-0_計極細
  6
CONTINUOUS
 62
    2
 10
384.76328124999452
 20
592.10000000000105
 11
379.16328124999438
 21
592.10000000000105
  0
LINE
  8
_0-0_計極細
  6
CONTINUOUS
 62
    2
 10
384.76328124999452
 20
605.10000000000105
 11
379.16328124999438
 21
605.10000000000105
  0
LINE
  8
_0-0_計極細
  6
CONTINUOUS
 62
    2
 10
384.76328124999475
 20
700.10000000000105
 11
379.1632812499945
 21
700.10000000000105
  0
LINE
  8
_0-0_計極細
  6
CONTINUOUS
 62
    2
 10
384.76328124999475
 20
713.10000000000105
 11
379.1632812499945
 21
713.10000000000105
  0
LINE
  8
_0-1_計細線
  6
CONTINUOUS
 62
    3
 10
379.16328124999518
 20
577.10000000000105
 11
379.16328124999416
 21
728.10000000000105
  0
LINE
  8
_0-1_計細線
  6
CONTINUOUS
 62
    3
 10
367.76328124999463
 20
577.10000000000105
 11
367.76328124999361
 21
728.10000000000105
  0
LINE
  8
_0-1_計細線
  6
CONTINUOUS
 62
    3
 10
379.16328124999518
 20
577.10000000000105
 11
367.76328124999463
 21
577.10000000000105
  0
LINE
  8
_0-1_計細線
  6
CONTINUOUS
 62
    3
 10
379.16328124999416
 20
728.10000000000105
 11
367.76328124999361
 21
728.10000000000105
  0
LINE
  8
_0-0_計極細
  6
CONTINUOUS
 62
    2
 10
370.96328124999496
 20
577.10000000000105
 11
370.96328124999388
 21
728.10000000000105
  0
LINE
  8
_0-0_計極細
  6
CONTINUOUS
 62
    2
 10
375.96328124999496
 20
577.10000000000105
 11
375.96328124999388
 21
728.10000000000105
  0
LINE
  8
_0-0_計極細
  6
CONTINUOUS
 62
    2
 10
367.76328124999452
 20
592.10000000000105
 11
362.16328124999444
 21
592.10000000000105
  0
LINE
  8
_0-0_計極細
  6
CONTINUOUS
 62
    2
 10
367.76328124999452
 20
605.10000000000105
 11
362.16328124999444
 21
605.10000000000105
  0
LINE
  8
_0-0_計極細
  6
CONTINUOUS
 62
    2
 10
367.76328124999475
 20
700.10000000000105
 11
362.1632812499945
 21
700.10000000000105
  0
LINE
  8
_0-0_計極細
  6
CONTINUOUS
 62
    2
 10
367.76328124999475
 20
713.10000000000105
 11
362.1632812499945
 21
713.10000000000105
  0
LINE
  8
_0-1_計細線
  6
CONTINUOUS
 62
    3
 10
362.16328124999518
 20
577.10000000000105
 11
362.16328124999416
 21
728.10000000000105
  0
LINE
  8
_0-1_計細線
  6
CONTINUOUS
 62
    3
 10
350.76328124999475
 20
577.10000000000105
 11
350.76328124999361
 21
728.10000000000105
  0
LINE
  8
_0-1_計細線
  6
CONTINUOUS
 62
    3
 10
362.16328124999518
 20
577.10000000000105
 11
350.76328124999475
 21
577.10000000000105
  0
LINE
  8
_0-1_計細線
  6
CONTINUOUS
 62
    3
 10
362.16328124999416
 20
728.10000000000105
 11
350.76328124999361
 21
728.10000000000105
  0
LINE
  8
_0-0_計極細
  6
CONTINUOUS
 62
    2
 10
353.96328124999491
 20
577.10000000000105
 11
353.96328124999394
 21
728.10000000000105
  0
LINE
  8
_0-0_計極細
  6
CONTINUOUS
 62
    2
 10
358.96328124999491
 20
577.10000000000105
 11
358.96328124999394
 21
728.10000000000105
  0
LINE
  8
_0-0_計極細
  6
CONTINUOUS
 62
    2
 10
350.76328124999458
 20
592.10000000000105
 11
345.16328124999438
 21
592.10000000000105
  0
LINE
  8
_0-0_計極細
  6
CONTINUOUS
 62
    2
 10
350.76328124999458
 20
605.10000000000105
 11
345.16328124999438
 21
605.10000000000105
  0
LINE
  8
_0-0_計極細
  6
CONTINUOUS
 62
    2
 10
350.76328124999475
 20
700.10000000000105
 11
345.16328124999438
 21
700.10000000000105
  0
LINE
  8
_0-0_計極細
  6
CONTINUOUS
 62
    2
 10
350.76328124999475
 20
713.10000000000105
 11
345.16328124999438
 21
713.10000000000105
  0
LINE
  8
_0-1_計細線
  6
CONTINUOUS
 62
    3
 10
345.16328124999529
 20
577.10000000000105
 11
345.16328124999416
 21
728.10000000000105
  0
LINE
  8
_0-1_計細線
  6
CONTINUOUS
 62
    3
 10
333.76328124999475
 20
577.10000000000105
 11
333.76328124999361
 21
728.10000000000105
  0
LINE
  8
_0-1_計細線
  6
CONTINUOUS
 62
    3
 10
345.16328124999529
 20
577.10000000000105
 11
333.76328124999475
 21
577.10000000000105
  0
LINE
  8
_0-1_計細線
  6
CONTINUOUS
 62
    3
 10
345.16328124999416
 20
728.10000000000105
 11
333.76328124999361
 21
728.10000000000105
  0
LINE
  8
_0-0_計極細
  6
CONTINUOUS
 62
    2
 10
336.96328124999502
 20
577.10000000000105
 11
336.96328124999388
 21
728.10000000000105
  0
LINE
  8
_0-0_計極細
  6
CONTINUOUS
 62
    2
 10
341.96328124999502
 20
577.10000000000105
 11
341.96328124999388
 21
728.10000000000105
  0
LINE
  8
_0-0_計極細
  6
CONTINUOUS
 62
    2
 10
333.76328124999452
 20
592.10000000000105
 11
328.16328124999438
 21
592.10000000000105
  0
LINE
  8
_0-0_計極細
  6
CONTINUOUS
 62
    2
 10
333.76328124999452
 20
605.10000000000105
 11
328.16328124999438
 21
605.10000000000105
  0
LINE
  8
_0-0_計極細
  6
CONTINUOUS
 62
    2
 10
333.76328124999475
 20
700.10000000000105
 11
328.16328124999438
 21
700.10000000000105
  0
LINE
  8
_0-0_計極細
  6
CONTINUOUS
 62
    2
 10
333.76328124999475
 20
713.10000000000105
 11
328.16328124999438
 21
713.10000000000105
  0
LINE
  8
_0-1_計細線
  6
CONTINUOUS
 62
    3
 10
328.16328124999529
 20
577.10000000000105
 11
328.16328124999416
 21
728.10000000000105
  0
LINE
  8
_0-1_計細線
  6
CONTINUOUS
 62
    3
 10
316.76328124999475
 20
577.10000000000105
 11
316.76328124999361
 21
728.10000000000105
  0
LINE
  8
_0-1_計細線
  6
CONTINUOUS
 62
    3
 10
328.16328124999529
 20
577.10000000000105
 11
316.76328124999475
 21
577.10000000000105
  0
LINE
  8
_0-1_計細線
  6
CONTINUOUS
 62
    3
 10
328.16328124999416
 20
728.10000000000105
 11
316.76328124999361
 21
728.10000000000105
  0
LINE
  8
_0-0_計極細
  6
CONTINUOUS
 62
    2
 10
319.96328124999508
 20
577.10000000000105
 11
319.96328124999394
 21
728.10000000000105
  0
LINE
  8
_0-0_計極細
  6
CONTINUOUS
 62
    2
 10
324.96328124999502
 20
577.10000000000105
 11
324.96328124999388
 21
728.10000000000105
  0
LINE
  8
_0-0_計極細
  6
CONTINUOUS
 62
    2
 10
316.76328124999458
 20
592.10000000000105
 11
311.16328124999438
 21
592.10000000000105
  0
LINE
  8
_0-0_計極細
  6
CONTINUOUS
 62
    2
 10
316.76328124999458
 20
605.10000000000105
 11
311.16328124999438
 21
605.10000000000105
  0
LINE
  8
_0-0_計極細
  6
CONTINUOUS
 62
    2
 10
316.76328124999475
 20
700.10000000000105
 11
311.16328124999438
 21
700.10000000000105
  0
LINE
  8
_0-0_計極細
  6
CONTINUOUS
 62
    2
 10
316.76328124999475
 20
713.10000000000105
 11
311.16328124999438
 21
713.10000000000105
  0
LINE
  8
_0-1_計細線
  6
CONTINUOUS
 62
    3
 10
311.16328124999529
 20
577.10000000000105
 11
311.16328124999416
 21
728.10000000000105
  0
LINE
  8
_0-1_計細線
  6
CONTINUOUS
 62
    3
 10
299.76328124999475
 20
577.10000000000105
 11
299.76328124999361
 21
728.10000000000105
  0
LINE
  8
_0-1_計細線
  6
CONTINUOUS
 62
    3
 10
311.16328124999529
 20
577.10000000000105
 11
299.76328124999475
 21
577.10000000000105
  0
LINE
  8
_0-1_計細線
  6
CONTINUOUS
 62
    3
 10
311.16328124999416
 20
728.10000000000105
 11
299.76328124999361
 21
728.10000000000105
  0
LINE
  8
_0-0_計極細
  6
CONTINUOUS
 62
    2
 10
302.96328124999502
 20
577.10000000000105
 11
302.96328124999388
 21
728.10000000000105
  0
LINE
  8
_0-0_計極細
  6
CONTINUOUS
 62
    2
 10
307.96328124999502
 20
577.10000000000105
 11
307.96328124999388
 21
728.10000000000105
  0
LINE
  8
_0-0_計極細
  6
CONTINUOUS
 62
    2
 10
299.76328124999452
 20
592.10000000000105
 11
293.76328124999429
 21
592.10000000000105
  0
LINE
  8
_0-0_計極細
  6
CONTINUOUS
 62
    2
 10
299.76328124999452
 20
605.10000000000105
 11
293.76328124999429
 21
605.10000000000105
  0
LINE
  8
_0-0_計極細
  6
CONTINUOUS
 62
    2
 10
299.76328124999475
 20
700.10000000000105
 11
293.76328124999452
 21
700.10000000000105
  0
LINE
  8
_0-0_計極細
  6
CONTINUOUS
 62
    2
 10
299.76328124999475
 20
713.10000000000105
 11
293.76328124999452
 21
713.10000000000105
  0
LINE
  8
_0-1_計細線
  6
CONTINUOUS
 62
    3
 10
293.7632812499952
 20
577.10000000000105
 11
293.76328124999407
 21
728.10000000000105
  0
LINE
  8
_0-1_計細線
  6
CONTINUOUS
 62
    3
 10
282.36328124999466
 20
577.10000000000105
 11
282.36328124999352
 21
728.10000000000105
  0
LINE
  8
_0-1_計細線
  6
CONTINUOUS
 62
    3
 10
293.7632812499952
 20
577.10000000000105
 11
282.36328124999466
 21
577.10000000000105
  0
LINE
  8
_0-1_計細線
  6
CONTINUOUS
 62
    3
 10
293.76328124999407
 20
728.10000000000105
 11
282.36328124999352
 21
728.10000000000105
  0
LINE
  8
_0-0_計極細
  6
CONTINUOUS
 62
    2
 10
285.56328124999493
 20
577.10000000000105
 11
285.56328124999379
 21
728.10000000000105
  0
LINE
  8
_0-0_計極細
  6
CONTINUOUS
 62
    2
 10
290.56328124999493
 20
577.10000000000105
 11
290.56328124999379
 21
728.10000000000105
  0
LINE
  8
_0-0_計極細
  6
CONTINUOUS
 62
    2
 10
282.36328124999466
 20
592.10000000000105
 11
276.36328124999443
 21
592.10000000000105
  0
LINE
  8
_0-0_計極細
  6
CONTINUOUS
 62
    2
 10
282.36328124999466
 20
605.10000000000105
 11
276.36328124999443
 21
605.10000000000105
  0
LINE
  8
_0-0_計極細
  6
CONTINUOUS
 62
    2
 10
282.36328124999488
 20
700.10000000000105
 11
276.36328124999466
 21
700.10000000000105
  0
LINE
  8
_0-0_計極細
  6
CONTINUOUS
 62
    2
 10
282.36328124999488
 20
713.10000000000105
 11
276.36328124999466
 21
713.10000000000105
  0
LINE
  8
_0-1_計細線
  6
CONTINUOUS
 62
    3
 10
276.36328124999534
 20
577.10000000000105
 11
276.3632812499942
 21
728.10000000000105
  0
LINE
  8
_0-1_計細線
  6
CONTINUOUS
 62
    3
 10
264.96328124999479
 20
577.10000000000105
 11
264.96328124999366
 21
728.10000000000105
  0
LINE
  8
_0-1_計細線
  6
CONTINUOUS
 62
    3
 10
276.36328124999534
 20
577.10000000000105
 11
264.96328124999479
 21
577.10000000000105
  0
LINE
  8
_0-1_計細線
  6
CONTINUOUS
 62
    3
 10
276.3632812499942
 20
728.10000000000105
 11
264.96328124999366
 21
728.10000000000105
  0
LINE
  8
_0-0_計極細
  6
CONTINUOUS
 62
    2
 10
268.16328124999507
 20
577.10000000000105
 11
268.16328124999393
 21
728.10000000000105
  0
LINE
  8
_0-0_計極細
  6
CONTINUOUS
 62
    2
 10
273.16328124999507
 20
577.10000000000105
 11
273.16328124999393
 21
728.10000000000105
  0
LINE
  8
_0-0_計極細
  6
CONTINUOUS
 62
    2
 10
264.96328124999479
 20
592.10000000000105
 11
258.96328124999457
 21
592.10000000000105
  0
LINE
  8
_0-0_計極細
  6
CONTINUOUS
 62
    2
 10
264.96328124999479
 20
605.10000000000105
 11
258.96328124999457
 21
605.10000000000105
  0
LINE
  8
_0-0_計極細
  6
CONTINUOUS
 62
    2
 10
264.96328124999508
 20
700.10000000000105
 11
258.96328124999485
 21
700.10000000000105
  0
LINE
  8
_0-0_計極細
  6
CONTINUOUS
 62
    2
 10
264.96328124999508
 20
713.10000000000105
 11
258.96328124999485
 21
713.10000000000105
  0
LINE
  8
_0-1_計細線
  6
CONTINUOUS
 62
    3
 10
258.96328124999548
 20
577.10000000000105
 11
258.96328124999434
 21
728.10000000000105
  0
LINE
  8
_0-1_計細線
  6
CONTINUOUS
 62
    3
 10
247.56328124999499
 20
577.10000000000105
 11
247.56328124999385
 21
728.10000000000105
  0
LINE
  8
_0-1_計細線
  6
CONTINUOUS
 62
    3
 10
258.96328124999548
 20
577.10000000000105
 11
247.56328124999499
 21
577.10000000000105
  0
LINE
  8
_0-1_計細線
  6
CONTINUOUS
 62
    3
 10
258.96328124999434
 20
728.10000000000105
 11
247.56328124999385
 21
728.10000000000105
  0
LINE
  8
_0-0_計極細
  6
CONTINUOUS
 62
    2
 10
250.7632812499952
 20
577.10000000000105
 11
250.76328124999407
 21
728.10000000000105
  0
LINE
  8
_0-0_計極細
  6
CONTINUOUS
 62
    2
 10
255.7632812499952
 20
577.10000000000105
 11
255.76328124999407
 21
728.10000000000105
  0
LINE
  8
_0-0_計極細
  6
CONTINUOUS
 62
    2
 10
247.56328124999499
 20
592.10000000000105
 11
241.56328124999476
 21
592.10000000000105
  0
LINE
  8
_0-0_計極細
  6
CONTINUOUS
 62
    2
 10
247.56328124999499
 20
605.10000000000105
 11
241.56328124999476
 21
605.10000000000105
  0
LINE
  8
_0-0_計極細
  6
CONTINUOUS
 62
    2
 10
247.56328124999513
 20
700.10000000000105
 11
241.5632812499949
 21
700.10000000000105
  0
LINE
  8
_0-0_計極細
  6
CONTINUOUS
 62
    2
 10
247.56328124999513
 20
713.10000000000105
 11
241.5632812499949
 21
713.10000000000105
  0
LINE
  8
_0-1_計細線
  6
CONTINUOUS
 62
    3
 10
241.56328124999561
 20
577.10000000000105
 11
241.56328124999447
 21
728.10000000000105
  0
LINE
  8
_0-1_計細線
  6
CONTINUOUS
 62
    3
 10
230.16328124999504
 20
577.10000000000105
 11
230.1632812499939
 21
728.10000000000105
  0
LINE
  8
_0-1_計細線
  6
CONTINUOUS
 62
    3
 10
241.56328124999561
 20
577.10000000000105
 11
230.16328124999504
 21
577.10000000000105
  0
LINE
  8
_0-1_計細線
  6
CONTINUOUS
 62
    3
 10
241.56328124999447
 20
728.10000000000105
 11
230.1632812499939
 21
728.10000000000105
  0
LINE
  8
_0-0_計極細
  6
CONTINUOUS
 62
    2
 10
233.3632812499954
 20
577.10000000000105
 11
233.36328124999426
 21
728.10000000000105
  0
LINE
  8
_0-0_計極細
  6
CONTINUOUS
 62
    2
 10
238.3632812499954
 20
577.10000000000105
 11
238.36328124999426
 21
728.10000000000105
  0
LINE
  8
_0-0_計極細
  6
CENTER1
 62
    2
 10
228.23909250678582
 20
706.60000000000127
 11
1236.9211049910073
 21
706.60000000000105
  0
LINE
  8
_0-0_計極細
  6
CENTER1
 62
    2
 10
227.15469607331499
 20
598.60000000000127
 11
1236.9211049910068
 21
598.60000000000105
  0
LINE
  8
_0-5_寸法線
  6
CONTINUOUS
 62
    7
 10
1260.6632812499934
 20
732.60000000000105
 11
1340.6632812499922
 21
732.60000000000105
  0
LINE
  8
_0-5_寸法線
  6
CONTINUOUS
 62
    7
 10
1335.6632812499922
 20
732.60000000000105
 11
1338.2514717010172
 21
722.94074173711033
  0
LINE
  8
_0-5_寸法線
  6
CONTINUOUS
 62
    7
 10
1335.6632812499922
 20
732.60000000000105
 11
1333.0750907989668
 21
722.94074173711033
  0
LINE
  8
_0-5_寸法線
  6
CONTINUOUS
 62
    7
 10
1260.6632812499952
 20
572.59999999999945
 11
1340.6632812499925
 21
572.59999999999945
  0
LINE
  8
_0-5_寸法線
  6
CONTINUOUS
 62
    7
 10
1335.6632812499925
 20
572.59999999999945
 11
1333.0750907989673
 21
582.25925826289017
  0
LINE
  8
_0-5_寸法線
  6
CONTINUOUS
 62
    7
 10
1335.6632812499925
 20
572.59999999999945
 11
1338.2514717010176
 21
582.25925826289017
  0
LINE
  8
_0-5_寸法線
  6
CONTINUOUS
 62
    7
 10
1335.6632812499922
 20
732.60000000000105
 11
1335.6632812499925
 21
572.59999999999945
  0
TEXT
  8
_0-5_寸法線
 62
    7
 10
1335.6632812499925
 20
641.35000000000036
 40
15
 41
1
 50
90
  1
160
  0
LINE
  8
_0-5_寸法線
  6
CONTINUOUS
 62
    7
 10
860.76328124999407
 20
742.60000000000105
 11
860.76328124999418
 21
787.60000000000014
  0
LINE
  8
_0-5_寸法線
  6
CONTINUOUS
 62
    7
 10
860.76328124999418
 20
782.60000000000014
 11
851.10402298710358
 21
780.01180954897507
  0
LINE
  8
_0-5_寸法線
  6
CONTINUOUS
 62
    7
 10
860.76328124999418
 20
782.60000000000014
 11
851.10402298710358
 21
785.18819045102532
  0
LINE
  8
_0-5_寸法線
  6
CONTINUOUS
 62
    7
 10
872.16328124999461
 20
742.60000000000105
 11
872.16328124999472
 21
787.60000000000014
  0
CIRCLE
  8
_0-5_寸法線
  6
CONTINUOUS
 62
    1
 10
872.16328124999472
 20
782.60000000000014
 40
1.5000000000000002
  0
LINE
  8
_0-5_寸法線
  6
CONTINUOUS
 62
    7
 10
835.76328124999418
 20
782.60000000000014
 11
872.16328124999472
 21
782.60000000000014
  0
TEXT
  8
_0-5_寸法線
 62
    7
 10
842.11649477551316
 20
782.60000000000014
 40
15
 41
1
 50
0
  1
11.4
  0
LINE
  8
_0-5_寸法線
  6
CONTINUOUS
 62
    7
 10
877.76328124999407
 20
742.60000000000105
 11
877.76328124999418
 21
787.60000000000014
  0
LINE
  8
_0-5_寸法線
  6
CONTINUOUS
 62
    7
 10
877.76328124999418
 20
782.60000000000014
 11
887.4225395128849
 21
785.18819045102532
  0
LINE
  8
_0-5_寸法線
  6
CONTINUOUS
 62
    7
 10
877.76328124999418
 20
782.60000000000014
 11
887.4225395128849
 21
780.01180954897495
  0
LINE
  8
_0-5_寸法線
  6
CONTINUOUS
 62
    7
 10
872.16328124999472
 20
782.60000000000014
 11
914.97760588662629
 21
782.60000000000014
  0
TEXT
  8
_0-5_寸法線
 62
    7
 10
877.47760588662629
 20
767.60000000000014
 40
15
 41
1
 50
0
  1
6以下
  0
LINE
  8
_0-5_寸法線
  6
CONTINUOUS
 62
    7
 10
527.67657200425322
 20
574.07500000000141
 11
534.44257266342777
 21
566.71149301758817
  0
LINE
  8
_0-5_寸法線
  6
CONTINUOUS
 62
    7
 10
527.67657200425322
 20
574.07500000000141
 11
529.85434696591403
 21
564.31501556270018
  0
LINE
  8
_0-5_寸法線
  6
CONTINUOUS
 62
    7
 10
527.67657200425322
 20
574.07500000000141
 11
550.7588174741278
 21
529.88240740740889
  0
LINE
  8
_0-5_寸法線
  6
CONTINUOUS
 62
    7
 10
550.7588174741278
 20
529.88240740740889
 11
658.75881747412791
 21
529.88240740740889
  0
TEXT
  8
_0-5_寸法線
 62
    7
 10
550.7588174741278
 20
530.4824074074088
 40
15
 41
0.8000000000000001
 50
0
  1
ＳＵＳアングル受枠
  0
LINE
  8
_0-5_寸法線
  6
CONTINUOUS
 62
    7
 10
746.8442783417014
 20
617.5537211483836
 11
753.91534615356693
 21
610.48265333651807
  0
LINE
  8
_0-5_寸法線
  6
CONTINUOUS
 62
    7
 10
746.8442783417014
 20
617.5537211483836
 11
749.4324687927267
 21
607.89446288549289
  0
LINE
  8
_0-5_寸法線
  6
CONTINUOUS
 62
    7
 10
746.8442783417014
 20
617.5537211483836
 11
797.17265979566605
 21
530.38240740740889
  0
LINE
  8
_0-5_寸法線
  6
CONTINUOUS
 62
    7
 10
797.17265979566605
 20
530.38240740740889
 11
929.17265979566605
 21
530.38240740740889
  0
TEXT
  8
_0-5_寸法線
 62
    7
 10
797.17265979566605
 20
530.38240740740889
 40
15
 41
0.8000000000000001
 50
0
  1
セーフティグレーチング
  0
LINE
  8
_0-1_計細線
  6
CONTINUOUS
 62
    3
 10
1132.7632812499955
 20
577.10000000000105
 11
1132.7632812499946
 21
728.10000000000127
  0
LINE
  8
_0-1_計細線
  6
CONTINUOUS
 62
    3
 10
1132.7632812499946
 20
728.10000000000127
 11
1144.1632812499952
 21
728.10000000000127
  0
LINE
  8
_0-0_計極細
  6
CONTINUOUS
 62
    2
 10
1140.9632812499958
 20
577.10000000000105
 11
1140.9632812499949
 21
728.10000000000127
  0
LINE
  8
_0-0_計極細
  6
CONTINUOUS
 62
    2
 10
1135.9632812499958
 20
577.10000000000105
 11
1135.9632812499949
 21
728.10000000000127
  0
LINE
  8
_0-1_計細線
  6
CONTINUOUS
 62
    3
 10
1144.1632812499984
 20
577.10000000000105
 11
1144.1632812499952
 21
728.10000000000127
  0
LINE
  8
_0-1_計細線
  6
CONTINUOUS
 62
    3
 10
1132.7632812499955
 20
577.10000000000105
 11
1144.1632812499984
 21
577.10000000000105
  0
LINE
  8
_0-1_計細線
  6
CONTINUOUS
 62
    3
 10
1161.163281249997
 20
577.10000000000127
 11
1161.1632812499956
 21
728.10000000000127
  0
LINE
  8
_0-1_計細線
  6
CONTINUOUS
 62
    3
 10
1149.7632812499951
 20
728.10000000000127
 11
1161.1632812499956
 21
728.10000000000127
  0
LINE
  8
_0-0_計極細
  6
CONTINUOUS
 62
    2
 10
1157.9632812499967
 20
577.10000000000105
 11
1157.9632812499954
 21
728.10000000000127
  0
LINE
  8
_0-0_計極細
  6
CONTINUOUS
 62
    2
 10
1152.9632812499967
 20
577.10000000000105
 11
1152.9632812499954
 21
728.10000000000127
  0
LINE
  8
_0-1_計細線
  6
CONTINUOUS
 62
    3
 10
1149.7632812499983
 20
577.10000000000105
 11
1149.7632812499951
 21
728.10000000000127
  0
LINE
  8
_0-1_計細線
  6
CONTINUOUS
 62
    3
 10
1149.7632812499983
 20
577.10000000000105
 11
1161.163281249997
 21
577.10000000000127
  0
LINE
  8
_0-1_計細線
  6
CONTINUOUS
 62
    3
 10
1098.313281249993
 20
661.60000000000014
 11
1098.3132812499935
 21
720.60000000000014
  0
LINE
  8
_0-1_計細線
  6
CONTINUOUS
 62
    3
 10
1093.6132812499936
 20
720.60000000000014
 11
1093.6132812499932
 21
661.60000000000014
  0
LINE
  8
_0-1_計細線
  6
CONTINUOUS
 62
    3
 10
1093.6132812499932
 20
661.60000000000014
 11
1098.313281249993
 21
661.60000000000014
  0
LINE
  8
_0-1_計細線
  6
CONTINUOUS
 62
    3
 10
1093.6132812499936
 20
710.60000000000014
 11
1098.3132812499935
 21
710.60000000000014
  0
LINE
  8
_0-1_計細線
  6
CONTINUOUS
 62
    3
 10
1093.6132812499936
 20
718.60000000000014
 11
1098.3132812499935
 21
718.60000000000014
  0
LINE
  8
_0-1_計細線
  6
CONTINUOUS
 62
    3
 10
1093.6132812499936
 20
720.60000000000014
 11
1098.3132812499935
 21
720.60000000000014
  0
LINE
  8
_0-1_計細線
  6
CONTINUOUS
 62
    3
 10
1093.6132812499936
 20
716.60000000000014
 11
1098.3132812499935
 21
716.60000000000014
  0
LINE
  8
_0-1_計細線
  6
CONTINUOUS
 62
    3
 10
1093.6132812499936
 20
714.60000000000025
 11
1098.3132812499935
 21
714.60000000000025
  0
LINE
  8
_0-1_計細線
  6
CONTINUOUS
 62
    3
 10
1093.6132812499936
 20
712.60000000000014
 11
1098.3132812499935
 21
712.60000000000014
  0
LINE
  8
_0-0_計極細
  6
CONTINUOUS
 62
    2
 10
1093.1632812499938
 20
713.10000000000105
 11
1093.6132812499936
 21
713.10000000000105
  0
LINE
  8
_0-0_計極細
  6
CONTINUOUS
 62
    2
 10
1098.3132812499935
 20
713.10000000000105
 11
1098.7632812499951
 21
713.10000000000105
  0
LINE
  8
_0-0_計極細
  6
CONTINUOUS
 62
    2
 10
1093.1632812499938
 20
700.10000000000105
 11
1093.6132812499936
 21
700.10000000000105
  0
LINE
  8
_0-0_計極細
  6
CONTINUOUS
 62
    2
 10
1098.3132812499935
 20
700.10000000000105
 11
1098.7632812499951
 21
700.10000000000105
  0
LINE
  8
_0-5_寸法線
  6
CONTINUOUS
 62
    7
 10
1095.5051792517133
 20
687.09363466430534
 11
1090.5051792517133
 21
695.75388870214965
  0
LINE
  8
_0-5_寸法線
  6
CONTINUOUS
 62
    7
 10
1095.5051792517133
 20
687.09363466430534
 11
1095.5051792517133
 21
697.09363466430534
  0
LINE
  8
_0-5_寸法線
  6
CONTINUOUS
 62
    7
 10
1095.5051792517133
 20
687.09363466430534
 11
1069.9143257879823
 21
782.60000000000014
  0
LINE
  8
_0-5_寸法線
  6
CONTINUOUS
 62
    7
 10
1069.9143257879823
 20
782.60000000000014
 11
1009.9143257879824
 21
782.60000000000014
  0
TEXT
  8
_0-5_寸法線
 62
    7
 10
1009.9143257879824
 20
782.60000000000014
 40
15
 41
0.8000000000000001
 50
0
  1
取　外　具
  0
TEXT
  8
_0-5_寸法線
 62
    7
 10
1009.4351101604599
 20
766.1049853825931
 40
15
 41
0.8000000000000001
 50
-0.0000000000002714
  1
(標準付属)
  0
LINE
  8
_0-7_枠細線
  6
CONTINUOUS
 62
    5
 10
1026.7379968476748
 20
800.04705588804484
 11
1019.2379968476746
 21
815.04705588804484
  0
LINE
  8
_0-7_枠細線
  6
CONTINUOUS
 62
    5
 10
1011.7379968476746
 20
800.04705588804484
 11
1026.7379968476748
 21
800.04705588804484
  0
LINE
  8
_0-7_枠細線
  6
CONTINUOUS
 62
    5
 10
1019.2379968476746
 20
815.04705588804484
 11
1011.7379968476746
 21
800.04705588804484
  0
TEXT
  8
_0-7_枠細線
 62
    5
 10
1014.1031481158228
 20
799.74005364266418
 40
12.5
 41
0.8
 50
0
  1
１
  0
LINE
  8
_0-7_枠細線
  6
CONTINUOUS
 62
    5
 10
1037.6075398748912
 20
815.04705588804484
 11
1030.1075398748912
 21
800.04705588804484
  0
LINE
  8
_0-7_枠細線
  6
CONTINUOUS
 62
    5
 10
1030.1075398748912
 20
800.04705588804484
 11
1045.1075398748912
 21
800.04705588804484
  0
LINE
  8
_0-7_枠細線
  6
CONTINUOUS
 62
    5
 10
1045.1075398748912
 20
800.04705588804484
 11
1037.6075398748912
 21
815.04705588804484
  0
TEXT
  8
_0-7_枠細線
 62
    5
 10
1032.5930319654399
 20
799.49937199786348
 40
12.5
 41
0.8
 50
0
  1
２
  0
TEXT
  8
_0-5_寸法線
 62
    7
 10
551.84188487573306
 20
515.46987477033269
 40
15
 41
0.8000000000000001
 50
0
  1
ＧＳＬ－２５
  0
TEXT
  8
_0-5_寸法線
 62
    7
 10
798.6167496644731
 20
514.16476243432396
 40
15
 41
0.8000000000000001
 50
0
  1
ＧＲＳＪ－２５Ｗ１５１
  0
LINE
  8
_0-7_枠細線
  6
CONTINUOUS
 62
    5
 10
1425
 20
942.5
 11
890
 21
942.5
  0
TEXT
  8
_0-7_枠細線
 62
    5
 10
895
 20
945
 40
12.5
 41
1
 50
0
  1
記号
  0
TEXT
  8
_0-7_枠細線
 62
    5
 10
996.875
 20
945
 40
12.5
 41
1
 50
0
  1
訂　 正　 記　 事
  0
TEXT
  8
_0-7_枠細線
 62
    5
 10
1181.25
 20
945
 40
12.5
 41
1
 50
0
  1
訂 正 年 月 日
  0
TEXT
  8
_0-7_枠細線
 62
    5
 10
1306.25
 20
945
 40
12.5
 41
1
 50
0
  1
備　　　　　考
  0
LINE
  8
_0-7_枠細線
  6
CONTINUOUS
 62
    5
 10
1425
 20
925
 11
890
 21
925
  0
TEXT
  8
_0-7_枠細線
 62
    5
 10
938.85037037037023
 20
927.5
 40
12.5
 41
1
 50
0
  1
品番・色記号変更
  0
TEXT
  8
_0-7_枠細線
 62
    5
 10
1180
 20
927.5
 40
12.5
 41
0.7199999999999999
 50
0
  1
２０１３．０３．１３
  0
LINE
  8
_0-7_枠細線
  6
CONTINUOUS
 62
    5
 10
915
 20
908.75
 11
907.5
 21
923.75
  0
LINE
  8
_0-7_枠細線
  6
CONTINUOUS
 62
    5
 10
900
 20
908.75
 11
915
 21
908.75
  0
LINE
  8
_0-7_枠細線
  6
CONTINUOUS
 62
    5
 10
907.5
 20
923.75
 11
900
 21
908.75
  0
TEXT
  8
_0-7_枠細線
 62
    5
 10
902.36515126814822
 20
908.44299775461946
 40
12.5
 41
0.8
 50
0
  1
１
  0
LINE
  8
_0-7_枠細線
  6
CONTINUOUS
 62
    5
 10
1424.9999999999998
 20
907.5
 11
890
 21
907.5
  0
TEXT
  8
_0-7_枠細線
 62
    5
 10
938.85037037037011
 20
910
 40
12.500000000000002
 41
1
 50
0
  1
取外具形状変更
  0
TEXT
  8
_0-7_枠細線
 62
    5
 10
1180
 20
910
 40
12.500000000000002
 41
0.7199999999999998
 50
0
  1
２０１５．１１．２０
  0
LINE
  8
_0-7_枠細線
  6
CONTINUOUS
 62
    5
 10
1425
 20
890
 11
890
 21
890
  0
TEXT
  8
_0-7_枠細線
 62
    5
 10
1180
 20
892.5
 40
12.5
 41
0.7199999999999999
 50
0
  1
２０１７．０４．０１
  0
LINE
  8
_0-7_枠細線
  6
CONTINUOUS
 62
    5
 10
915
 20
873.94233397174685
 11
907.5
 21
888.94233397174685
  0
LINE
  8
_0-7_枠細線
  6
CONTINUOUS
 62
    5
 10
900
 20
873.94233397174685
 11
915
 21
873.94233397174685
  0
LINE
  8
_0-7_枠細線
  6
CONTINUOUS
 62
    5
 10
907.5
 20
888.94233397174685
 11
900
 21
873.94233397174685
  0
TEXT
  8
_0-7_枠細線
 62
    5
 10
1180
 20
875
 40
12.5
 41
0.7199999999999999
 50
0
  1
２０１７．０４．０１
  0
TEXT
  8
_0-7_枠細線
 62
    5
 10
938.85037037037023
 20
875
 40
12.5
 41
1
 50
0
  1
ブラウン色（Ｃ）追加
  0
LINE
  8
_0-7_枠細線
  6
CONTINUOUS
 62
    5
 10
1425
 20
872.5
 11
890
 21
872.5
  0
LINE
  8
_0-7_枠細線
  6
CONTINUOUS
 62
    5
 10
907.5
 20
906.44233397174685
 11
900
 21
891.44233397174685
  0
LINE
  8
_0-7_枠細線
  6
CONTINUOUS
 62
    5
 10
900
 20
891.44233397174685
 11
915
 21
891.44233397174685
  0
LINE
  8
_0-7_枠細線
  6
CONTINUOUS
 62
    5
 10
915
 20
891.44233397174685
 11
907.5
 21
906.44233397174685
  0
TEXT
  8
_0-7_枠細線
 62
    5
 10
938.85037037037023
 20
892.5
 40
12.5
 41
1
 50
0
  1
取外具形状変更
  0
TEXT
  8
_0-7_枠細線
 62
    5
 10
902.48549209054841
 20
890.89465008156549
 40
12.5
 41
0.8
 50
0
  1
２
  0
TEXT
  8
_0-7_枠細線
 62
    5
 10
902.36515126814811
 20
872.99351400689704
 40
12.5
 41
0.8
 50
0
  1
３
  0
LINE
  8
_0-7_枠細線
  6
CONTINUOUS
 62
    5
 10
915
 20
856.44233397174685
 11
907.5
 21
871.44233397174685
  0
LINE
  8
_0-7_枠細線
  6
CONTINUOUS
 62
    5
 10
900
 20
856.44233397174685
 11
915
 21
856.44233397174685
  0
LINE
  8
_0-7_枠細線
  6
CONTINUOUS
 62
    5
 10
907.5
 20
871.44233397174685
 11
900
 21
856.44233397174685
  0
LINE
  8
_0-7_枠細線
  6
CONTINUOUS
 62
    5
 10
1425
 20
855
 11
890
 21
855
  0
TEXT
  8
_0-7_枠細線
 62
    5
 10
1180
 20
857.5
 40
12.5
 41
0.7199999999999999
 50
0
  1
２０１９．０９．０１
  0
TEXT
  8
_0-7_枠細線
 62
    5
 10
902.36515126814822
 20
855.49351400689704
 40
12.5
 41
0.8
 50
0
  1
４
  0
LINE
  8
_0-7_枠細線
  6
CONTINUOUS
 62
    5
 10
890
 20
855
 11
890
 21
959.99999999999943
  0
LINE
  8
_0-7_枠細線
  6
CONTINUOUS
 62
    5
 10
925
 20
855
 11
925
 21
959.99999999999943
  0
LINE
  8
_0-7_枠細線
  6
CONTINUOUS
 62
    5
 10
1175
 20
855
 11
1175
 21
959.99999999999943
  0
LINE
  8
_0-7_枠細線
  6
CONTINUOUS
 62
    5
 10
1275
 20
855
 11
1275
 21
959.99999999999943
  0
LINE
  8
_0-9_枠極太
  6
CONTINUOUS
 62
    5
 10
60
 20
60
 11
60
 21
960
  0
LINE
  8
_0-9_枠極太
  6
CONTINUOUS
 62
    5
 10
60
 20
960
 11
1425
 21
960
  0
LINE
  8
_0-9_枠極太
  6
CONTINUOUS
 62
    5
 10
1425
 20
960
 11
1425
 21
60
  0
LINE
  8
_0-9_枠極太
  6
CONTINUOUS
 62
    5
 10
1425
 20
60
 11
60
 21
60
  0
LINE
  8
_0-b_細線3
  6
CONTINUOUS
 62
    7
 10
313.50465731460736
 20
294.92912486567491
 11
313.50465731460736
 21
236.59579153234162
  0
LINE
  8
_0-b_細線3
  6
CONTINUOUS
 62
    7
 10
313.50465731460736
 20
236.59579153234162
 11
309.67132398127404
 21
236.59579153234162
  0
LINE
  8
_0-b_細線3
  6
CONTINUOUS
 62
    7
 10
309.67132398127404
 20
236.59579153234162
 11
309.67132398127404
 21
294.92912486567491
  0
LINE
  8
_0-b_細線3
  6
CONTINUOUS
 62
    7
 10
309.67132398127404
 20
294.92912486567491
 11
313.50465731460736
 21
294.92912486567491
  0
LINE
  8
_0-a_極細3
  6
CONTINUOUS
 62
    7
 10
309.67132398127404
 20
268.26245819900822
 11
313.50465731460736
 21
268.26245819900822
  0
LINE
  8
_0-a_極細3
  6
CONTINUOUS
 62
    7
 10
309.67132398127404
 20
271.59579153234165
 11
313.50465731460736
 21
271.59579153234165
  0
LINE
  8
_0-a_極細3
  6
CONTINUOUS
 62
    7
 10
309.67132398127404
 20
264.92912486567485
 11
313.50465731460736
 21
264.92912486567485
  0
LINE
  8
_0-a_極細3
  6
CONTINUOUS
 62
    7
 10
309.67132398127404
 20
274.92912486567485
 11
313.50465731460736
 21
274.92912486567485
  0
LINE
  8
_0-a_極細3
  6
CONTINUOUS
 62
    7
 10
313.50465731460736
 20
241.59579153234162
 11
309.67132398127404
 21
241.59579153234162
  0
LINE
  8
_0-a_極細3
  6
CONTINUOUS
 62
    7
 10
309.67132398127404
 20
291.59579153234165
 11
313.50465731460736
 21
291.59579153234165
  0
LINE
  8
_0-b_細線3
  6
CONTINUOUS
 62
    7
 10
580.17132398127364
 20
294.92912486567491
 11
580.17132398127364
 21
236.59579153234162
  0
LINE
  8
_0-b_細線3
  6
CONTINUOUS
 62
    7
 10
580.17132398127364
 20
236.59579153234162
 11
584.00465731460702
 21
236.59579153234162
  0
LINE
  8
_0-b_細線3
  6
CONTINUOUS
 62
    7
 10
584.00465731460702
 20
236.59579153234162
 11
584.00465731460702
 21
294.92912486567491
  0
LINE
  8
_0-b_細線3
  6
CONTINUOUS
 62
    7
 10
584.00465731460702
 20
294.92912486567491
 11
580.17132398127364
 21
294.92912486567491
  0
LINE
  8
_0-a_極細3
  6
CONTINUOUS
 62
    7
 10
584.00465731460702
 20
268.26245819900822
 11
580.17132398127364
 21
268.26245819900822
  0
LINE
  8
_0-a_極細3
  6
CONTINUOUS
 62
    7
 10
584.00465731460702
 20
271.59579153234165
 11
580.17132398127364
 21
271.59579153234165
  0
LINE
  8
_0-a_極細3
  6
CONTINUOUS
 62
    7
 10
584.00465731460702
 20
264.92912486567485
 11
580.17132398127364
 21
264.92912486567485
  0
LINE
  8
_0-a_極細3
  6
CONTINUOUS
 62
    7
 10
584.00465731460702
 20
274.92912486567485
 11
580.17132398127364
 21
274.92912486567485
  0
LINE
  8
_0-a_極細3
  6
CONTINUOUS
 62
    7
 10
580.17132398127364
 20
241.59579153234162
 11
584.00465731460702
 21
241.59579153234162
  0
LINE
  8
_0-a_極細3
  6
CONTINUOUS
 62
    7
 10
584.00465731460702
 20
291.59579153234165
 11
580.17132398127364
 21
291.59579153234165
  0
LINE
  8
_0-7_枠細線
  6
CONTINUOUS
 62
    5
 10
601.93537415522928
 20
284.26244666561479
 11
594.43537415522928
 21
299.26244666561479
  0
LINE
  8
_0-7_枠細線
  6
CONTINUOUS
 62
    5
 10
586.93537415522928
 20
284.26244666561479
 11
601.93537415522928
 21
284.26244666561479
  0
LINE
  8
_0-7_枠細線
  6
CONTINUOUS
 62
    5
 10
594.43537415522928
 20
299.26244666561479
 11
586.93537415522928
 21
284.26244666561479
  0
TEXT
  8
_0-7_枠細線
 62
    5
 10
589.30052542337739
 20
283.31362670076487
 40
12.5
 41
0.8
 50
0
  1
４
  0
TEXT
  8
_0-7_枠細線
 62
    5
 10
938.85037037037023
 20
857.5
 40
12.5
 41
1
 50
0
  1
アンカー材質･厚み変更
  0
LINE
  8
_0-5_寸法線
  6
CONTINUOUS
 62
    7
 10
1300.6632812499922
 20
732.60000000000105
 11
1298.0750907989668
 21
742.25925826289188
  0
LINE
  8
_0-5_寸法線
  6
CONTINUOUS
 62
    7
 10
1300.6632812499922
 20
732.60000000000105
 11
1303.2514717010172
 21
742.25925826289188
  0
LINE
  8
_0-5_寸法線
  6
CONTINUOUS
 62
    7
 10
1258.7490655516208
 20
729.60000000000105
 11
1305.6632812499922
 21
729.60000000000105
  0
CIRCLE
  8
_0-5_寸法線
  6
CONTINUOUS
 62
    1
 10
1300.6632812499922
 20
729.60000000000105
 40
1.5000000000000002
  0
LINE
  8
_0-5_寸法線
  6
CONTINUOUS
 62
    7
 10
1300.6632812499922
 20
757.60000000000105
 11
1300.6632812499922
 21
729.60000000000105
  0
TEXT
  8
_0-5_寸法線
 62
    7
 10
1300.6632812499922
 20
747.80988593690029
 40
15
 41
1
 50
90
  1
3
  0
LINE
  8
_0-5_寸法線
  6
CONTINUOUS
 62
    7
 10
1258.2196607261199
 20
728.10000000000105
 11
1305.6632812499922
 21
728.10000000000105
  0
LINE
  8
_0-5_寸法線
  6
CONTINUOUS
 62
    7
 10
1300.6632812499922
 20
729.60000000000105
 11
1300.6632812499922
 21
728.10000000000105
  0
TEXT
  8
_0-5_寸法線
 62
    7
 10
1320.6632812499922
 20
707.10000000000105
 40
15
 41
1
 50
90
  1
1.5
  0
LINE
  8
_0-5_寸法線
  6
CONTINUOUS
 62
    7
 10
1300.6632812499922
 20
728.10000000000105
 11
1303.2514717010172
 21
718.44074173711033
  0
LINE
  8
_0-5_寸法線
  6
CONTINUOUS
 62
    7
 10
1300.6632812499922
 20
728.10000000000105
 11
1298.0750907989668
 21
718.44074173711033
  0
LINE
  8
_0-5_寸法線
  6
CONTINUOUS
 62
    7
 10
1263.1069017738687
 20
577.10000000000105
 11
1305.6632812499925
 21
577.10000000000105
  0
LINE
  8
_0-5_寸法線
  6
CONTINUOUS
 62
    7
 10
1300.6632812499925
 20
577.10000000000105
 11
1298.0750907989673
 21
586.75925826289176
  0
LINE
  8
_0-5_寸法線
  6
CONTINUOUS
 62
    7
 10
1300.6632812499925
 20
577.10000000000105
 11
1303.2514717010176
 21
586.75925826289176
  0
LINE
  8
_0-5_寸法線
  6
CONTINUOUS
 62
    7
 10
1300.6632812499922
 20
728.10000000000105
 11
1300.6632812499925
 21
577.10000000000105
  0
TEXT
  8
_0-5_寸法線
 62
    7
 10
1300.6632812499925
 20
641.35000000000105
 40
15
 41
1
 50
90
  1
151
  0
LINE
  8
_0-5_寸法線
  6
CONTINUOUS
 62
    7
 10
1262.5774969483673
 20
575.59999999999945
 11
1305.6632812499925
 21
575.59999999999945
  0
CIRCLE
  8
_0-5_寸法線
  6
CONTINUOUS
 62
    1
 10
1300.6632812499925
 20
575.59999999999945
 40
1.5000000000000002
  0
LINE
  8
_0-5_寸法線
  6
CONTINUOUS
 62
    7
 10
1300.6632812499925
 20
577.10000000000105
 11
1300.6632812499925
 21
575.59999999999945
  0
TEXT
  8
_0-5_寸法線
 62
    7
 10
1320.6632812499925
 20
575.59999999999945
 40
15
 41
1
 50
90
  1
1.5
  0
LINE
  8
_0-5_寸法線
  6
CONTINUOUS
 62
    7
 10
1300.6632812499925
 20
572.59999999999945
 11
1303.2514717010176
 21
562.94074173710874
  0
LINE
  8
_0-5_寸法線
  6
CONTINUOUS
 62
    7
 10
1300.6632812499925
 20
572.59999999999945
 11
1298.0750907989673
 21
562.94074173710874
  0
LINE
  8
_0-5_寸法線
  6
CONTINUOUS
 62
    7
 10
1300.6632812499925
 20
575.59999999999945
 11
1300.6632812499925
 21
547.59999999999945
  0
TEXT
  8
_0-5_寸法線
 62
    7
 10
1300.6632812499925
 20
551.01719734002688
 40
15
 41
1
 50
90
  1
3
  0
LINE
  8
_0-d_寸法3
  6
CONTINUOUS
 62
    7
 10
313.50465731460736
 20
336.59579153234182
 11
313.50465731460736
 21
401.59578986399708
  0
LINE
  8
_0-d_寸法3
  6
CONTINUOUS
 62
    7
 10
313.50465731460736
 20
396.59578986399708
 11
303.84539905171664
 21
394.0075994129719
  0
LINE
  8
_0-d_寸法3
  6
CONTINUOUS
 62
    7
 10
313.50465731460736
 20
396.59578986399708
 11
303.8453990517167
 21
399.18398031502227
  0
LINE
  8
_0-d_寸法3
  6
CONTINUOUS
 62
    7
 10
318.50465731460736
 20
335.76245819900794
 11
318.50465731460736
 21
401.59578986399708
  0
CIRCLE
  8
_0-d_寸法3
  6
CONTINUOUS
 62
    1
 10
318.50465731460736
 20
396.59578986399708
 40
1.5000000000000002
  0
LINE
  8
_0-d_寸法3
  6
CONTINUOUS
 62
    7
 10
288.50465731460736
 20
396.59578986399708
 11
318.50465731460736
 21
396.59578986399708
  0
TEXT
  8
_0-d_寸法3
 62
    7
 10
293.53728137105281
 20
396.59578986399708
 40
15
 41
1
 50
0
  1
3
  0
LINE
  8
_0-d_寸法3
  6
CONTINUOUS
 62
    7
 10
321.00465731460736
 20
336.59579153234142
 11
321.00465731460736
 21
401.59578986399708
  0
LINE
  8
_0-d_寸法3
  6
CONTINUOUS
 62
    7
 10
318.50465731460736
 20
396.59578986399708
 11
321.00465731460736
 21
396.59578986399708
  0
TEXT
  8
_0-d_寸法3
 62
    7
 10
324.56988300230398
 20
378.63632360065134
 40
15
 41
1
 50
0
  1
1.5
  0
LINE
  8
_0-d_寸法3
  6
CONTINUOUS
 62
    7
 10
321.00465731460736
 20
396.59578986399708
 11
330.66391557749802
 21
399.18398031502221
  0
LINE
  8
_0-d_寸法3
  6
CONTINUOUS
 62
    7
 10
321.00465731460736
 20
396.59578986399708
 11
330.66391557749802
 21
394.0075994129719
  0
LINE
  8
_0-d_寸法3
  6
CONTINUOUS
 62
    7
 10
572.67132398127342
 20
336.59579153234142
 11
572.67132398127342
 21
401.59578986399708
  0
LINE
  8
_0-d_寸法3
  6
CONTINUOUS
 62
    7
 10
572.67132398127342
 20
396.59578986399708
 11
563.0120657183827
 21
394.0075994129719
  0
LINE
  8
_0-d_寸法3
  6
CONTINUOUS
 62
    7
 10
572.67132398127342
 20
396.59578986399708
 11
563.0120657183827
 21
399.18398031502227
  0
LINE
  8
_0-d_寸法3
  6
CONTINUOUS
 62
    7
 10
321.00465731460736
 20
396.59578986399708
 11
572.67132398127342
 21
396.59578986399708
  0
TEXT
  8
_0-d_寸法3
 62
    7
 10
435.58799064794044
 20
396.59578986399708
 40
15
 41
1
 50
0
  1
151
  0
LINE
  8
_0-d_寸法3
  6
CONTINUOUS
 62
    7
 10
575.17132398127342
 20
335.76245819900794
 11
575.17132398127342
 21
401.59578986399708
  0
CIRCLE
  8
_0-d_寸法3
  6
CONTINUOUS
 62
    1
 10
575.17132398127342
 20
396.59578986399708
 40
1.5000000000000002
  0
LINE
  8
_0-d_寸法3
  6
CONTINUOUS
 62
    7
 10
572.67132398127342
 20
396.59578986399708
 11
575.17132398127342
 21
396.59578986399708
  0
TEXT
  8
_0-d_寸法3
 62
    7
 10
546.14146151700584
 20
378.34860028478693
 40
15
 41
1
 50
0
  1
1.5
  0
LINE
  8
_0-d_寸法3
  6
CONTINUOUS
 62
    7
 10
580.17132398127342
 20
336.59579153234182
 11
580.17132398127342
 21
401.59578986399708
  0
LINE
  8
_0-d_寸法3
  6
CONTINUOUS
 62
    7
 10
580.17132398127342
 20
396.59578986399708
 11
589.83058224416413
 21
399.18398031502221
  0
LINE
  8
_0-d_寸法3
  6
CONTINUOUS
 62
    7
 10
580.17132398127342
 20
396.59578986399708
 11
589.83058224416413
 21
394.00759941297179
  0
LINE
  8
_0-d_寸法3
  6
CONTINUOUS
 62
    7
 10
575.17132398127342
 20
396.59578986399708
 11
605.17132398127342
 21
396.59578986399708
  0
TEXT
  8
_0-d_寸法3
 62
    7
 10
595.07478137105318
 20
396.59578986399708
 40
15
 41
1
 50
0
  1
3
  0
ENDSEC
  0
EOF
