  0
SECTION
  2
HEADER
  9
$ACADVER
  1
AC1009
  9
$INSBASE
 10
0
 20
0
 30
0
  9
$EXTMIN
 10
0
 20
0
  9
$EXTMAX
 10
1485
 20
1050
  9
$LIMMIN
 10
0
 20
0
  9
$LIMMAX
 10
1485
 20
1050
  9
$LTSCALE
 40
5
  0
ENDSEC
  0
SECTION
  2
TABLES
  0
TABLE
  2
LTYPE
 70
     9
  0
LTYPE
  2
CONTINUOUS
 70
    64
  3
実線
 72
    65
 73
     0
 40
0.0
  0
LTYPE
  2
DASHED1
 70
    64
  3
--  --  --  --  --  --  --  --  
 72
    65
 73
     2
 40
2.5
 49
1.25
 49
-1.25
  0
LTYPE
  2
DASHED2
 70
    64
  3
----    ----    ----    ----    
 72
    65
 73
     2
 40
5.0
 49
2.5
 49
-2.5
  0
LTYPE
  2
DASHED3
 70
    64
  3
------  ------  ------  ------  
 72
    65
 73
     2
 40
5.0
 49
3.75
 49
-1.25
  0
LTYPE
  2
CENTER1
 70
    64
  3
----- - ----- - ----- - ----- - 
 72
    65
 73
     4
 40
10.0
 49
6.25
 49
-1.25
 49
1.25
 49
-1.25
  0
LTYPE
  2
CENTER2
 70
    64
  3
----------  --  ----------  --  
 72
    65
 73
     4
 40
20.0
 49
12.5
 49
-2.5
 49
2.5
 49
-2.5
  0
LTYPE
  2
PHANTOM1
 70
    64
  3
--- - - --- - - --- - - --- - - 
 72
    65
 73
     6
 40
10.0
 49
3.25
 49
-1.25
 49
1.25
 49
-1.25
 49
1.25
 49
-1.25
  0
LTYPE
  2
PHANTOM2
 70
    64
  3
--------  -  -  --------  -  -  
 72
    65
 73
     6
 40
20.0
 49
10.0
 49
-2.5
 49
1.25
 49
-2.5
 49
1.25
 49
-2.5
  0
LTYPE
  2
DOT
 70
    64
  3
-   -   -   -   -   -   -   -   
 72
    65
 73
     2
 40
2.5
 49
0.625
 49
-1.875
  0
LTYPE
  2
DUMMY
 70
    64
  3
ダミー
 72
    65
 73
     0
 40
0.0
  0
LTYPE
  2
RAND1
 70
    64
  3
ランダム線1
 72
    65
 73
     4
 40
10.0
 49
1.0
 49
-2.0
 49
3.0
 49
-4.0
  0
LTYPE
  2
RAND2
 70
    64
  3
ランダム線2
 72
    65
 73
     4
 40
14.0
 49
2.0
 49
-3.0
 49
4.0
 49
-5.0
  0
LTYPE
  2
RAND3
 70
    64
  3
ランダム線3
 72
    65
 73
     4
 40
18.0
 49
3.0
 49
-4.0
 49
5.0
 49
-6.0
  0
LTYPE
  2
RAND4
 70
    64
  3
ランダム線4
 72
    65
 73
     4
 40
22.0
 49
4.0
 49
-5.0
 49
6.0
 49
-7.0
  0
LTYPE
  2
RAND5
 70
    64
  3
ランダム線5
 72
    65
 73
     4
 40
26.0
 49
5.0
 49
-6.0
 49
7.0
 49
-8.0
  0
LTYPE
  2
LONG1
 70
    64
  3
----------  --  ----------  --  
 72
    65
 73
     4
 40
40.0
 49
32.5
 49
-2.5
 49
2.5
 49
-2.5
  0
LTYPE
  2
LONG2
 70
    64
  3
--------  -  -  --------  -  -  
 72
    65
 73
     6
 40
40.0
 49
30.0
 49
-2.5
 49
1.25
 49
-2.5
 49
1.25
 49
-2.5
  0
LTYPE
  2
LONG3
 70
    64
  3
+++++++++++++++..+++++++++++++++
 72
    65
 73
     2
 40
40.0
 49
37.5
 49
-2.5
  0
LTYPE
  2
LONG4
 70
    64
  3
+++++++++++++++..+++++++++++++++
 72
    65
 73
     2
 40
80.0
 49
75.0
 49
-5.0
  0
LTYPE
  2
LONG5
 70
    64
  3
----------  --  ----------  --  
 72
    65
 73
     4
 40
60.0
 49
37.5
 49
-7.5
 49
7.5
 49
-7.5
  0
LTYPE
  2
dashed
 70
   64
  3
-------   -------------   ------
 72
   65
 73
    2
 40
7.5
 49
6
 49
-1.5
  0
LTYPE
  2
dashed_spaced
 70
   64
  3
----        --------        ----
 72
   65
 73
    2
 40
12
 49
6
 49
-6
  0
LTYPE
  2
long_dashed_dotted
 70
   64
  3
------------- --- --------------
 72
   65
 73
    4
 40
15.25
 49
12
 49
-1.5
 49
0.25
 49
-1.5
  0
LTYPE
  2
long_dashed_double-dotted
 70
   64
  3
----------- --- --- ------------
 72
   65
 73
    6
 40
17
 49
12
 49
-1.5
 49
0.25
 49
-1.5
 49
0.25
 49
-1.5
  0
LTYPE
  2
long_dashed_triplicate-dotted
 70
   64
  3
--------- --- --- --- ----------
 72
   65
 73
    8
 40
18.75
 49
12
 49
-1.5
 49
0.25
 49
-1.5
 49
0.25
 49
-1.5
 49
0.25
 49
-1.5
  0
LTYPE
  2
dotted
 70
   64
  3
   -       -       -       -    
 72
   65
 73
    2
 40
1.75
 49
0.25
 49
-1.5
  0
LTYPE
  2
chain
 70
   64
  3
-------------- -- --------------
 72
   65
 73
    4
 40
18.5
 49
12
 49
-1.5
 49
3.5
 49
-1.5
  0
LTYPE
  2
chain_double_dash
 70
   64
  3
------------ -- -- -------------
 72
   65
 73
    6
 40
23.5
 49
12
 49
-1.5
 49
3.5
 49
-1.5
 49
3.5
 49
-1.5
  0
LTYPE
  2
dashed_dotted
 70
   64
  3
-----------     -     ----------
 72
   65
 73
    4
 40
9.25
 49
6
 49
-1.5
 49
0.25
 49
-1.5
  0
LTYPE
  2
double-dashed_dotted
 70
   64
  3
------   -----------   -   -----
 72
   65
 73
    6
 40
16.75
 49
6
 49
-1.5
 49
6
 49
-1.5
 49
0.25
 49
-1.5
  0
LTYPE
  2
dashed_double-dotted
 70
   64
  3
---------    -    -    ---------
 72
   65
 73
    6
 40
11
 49
6
 49
-1.5
 49
0.25
 49
-1.5
 49
0.25
 49
-1.5
  0
LTYPE
  2
double-dashed_double-dotted
 70
   64
  3
-----   ---------   -   -   ----
 72
   65
 73
    8
 40
18.5
 49
6
 49
-1.5
 49
6
 49
-1.5
 49
0.25
 49
-1.5
 49
0.25
 49
-1.5
  0
LTYPE
  2
dashed_triplicate-dotted
 70
   64
  3
-------    -    -    -    ------
 72
   65
 73
    8
 40
12.75
 49
6
 49
-1.5
 49
0.25
 49
-1.5
 49
0.25
 49
-1.5
 49
0.25
 49
-1.5
  0
LTYPE
  2
double-dashed_triplicate-dotted
 70
   64
  3
-----  ---------  -  -  -  -----
 72
   65
 73
   10
 40
20.25
 49
6
 49
-1.5
 49
6
 49
-1.5
 49
0.25
 49
-1.5
 49
0.25
 49
-1.5
 49
0.25
 49
-1.5
  0
LTYPE
  2
undefined
 70
   64
  3
--------------------------------
 72
   65
 73
    0
 40
0
  0
ENDTAB
  0
TABLE
  2
STYLE
  5
3
100
AcDbSymbolTable
 70
     1
  0
STYLE
  5
10
100
AcDbSymbolTableRecord
100
AcDbTextStyleTableRecord
  2
STANDARD
 70
     0
 40
0.0
 41
1.0
 50
0.0
 71
     0
 42
0.2
  3
txt
  4
bigfont.shx
  0
STYLE
  5
26
100
AcDbSymbolTableRecord
100
AcDbTextStyleTableRecord
  2
TATEGAKI
 70
    68
 40
0.0
 41
1.0
 50
0.0
 71
     0
 42
1.0
  3
txt
  4
bigfont.shx
  0
ENDTAB
  0
TABLE
  2
LAYER
 70
   10
  0
LAYER
  2
_0-0_計極細
 70
   64
 62
    7
  6
CONTINUOUS
  0
LAYER
  2
_0-1_計細線
 70
   64
 62
    7
  6
CONTINUOUS
  0
LAYER
  2
_0-5_寸法線
 70
   64
 62
    7
  6
CONTINUOUS
  0
LAYER
  2
_0-7_枠細線
 70
   64
 62
    7
  6
CONTINUOUS
  0
LAYER
  2
_0-8_枠中線
 70
   64
 62
    7
  6
CONTINUOUS
  0
LAYER
  2
_0-9_枠極太
 70
   64
 62
    7
  6
CONTINUOUS
  0
LAYER
  2
_0-a_極細3
 70
   64
 62
    7
  6
CONTINUOUS
  0
LAYER
  2
_0-b_細線3
 70
   64
 62
    7
  6
CONTINUOUS
  0
LAYER
  2
_0-d_寸法3
 70
   64
 62
    7
  6
CONTINUOUS
  0
LAYER
  2
ADD_LINE
 70
   64
 62
    7
  6
CONTINUOUS
  0
ENDTAB
  0
ENDSEC
  0
SECTION
  2
BLOCKS
  0
ENDSEC
  0
SECTION
  2
ENTITIES
  0
LINE
  8
_0-7_枠細線
  6
CONTINUOUS
 62
    5
 10
1185
 20
180
 11
1185
 21
100
  0
TEXT
  8
_0-7_枠細線
 62
    5
 10
937.5
 20
97.5
 40
17.5
 41
1
 50
0
  1
備考
  7
TATEGAKI
  0
TEXT
  8
_0-7_枠細線
 62
    5
 10
937.5
 20
137.5
 40
17.5
 41
1
 50
0
  1
品番
  7
TATEGAKI
  0
TEXT
  8
_0-7_枠細線
 62
    5
 10
937.5
 20
177.5
 40
17.5
 41
1
 50
0
  1
品名
  7
TATEGAKI
  0
LINE
  8
_0-7_枠細線
  6
CONTINUOUS
 62
    5
 10
1185
 20
140
 11
925
 21
140
  0
LINE
  8
_0-7_枠細線
  6
CONTINUOUS
 62
    5
 10
950
 20
180
 11
950
 21
60
  0
LINE
  8
_0-8_枠中線
  6
CONTINUOUS
 62
    5
 10
1425
 20
180
 11
925
 21
180
  0
LINE
  8
_0-8_枠中線
  6
CONTINUOUS
 62
    5
 10
925
 20
180
 11
925
 21
60
  0
LINE
  8
_0-7_枠細線
  6
CONTINUOUS
 62
    5
 10
1245
 20
180
 11
1245
 21
60
  0
TEXT
  8
_0-7_枠細線
 62
    5
 10
1192.5
 20
160
 40
15
 41
1
 50
0
  1
縮　尺
  0
TEXT
  8
_0-7_枠細線
 62
    5
 10
1194
 20
117.5
 40
20
 41
0.7
 50
0
  1
１：５
  0
LINE
  8
_0-7_枠細線
  6
CONTINUOUS
 62
    5
 10
1185
 20
155
 11
1245
 21
155
  0
LINE
  8
_0-7_枠細線
  6
CONTINUOUS
 62
    5
 10
1245
 20
100
 11
925
 21
100
  0
LINE
  8
_0-7_枠細線
  6
CONTINUOUS
 62
    5
 10
1425
 20
90
 11
1245
 21
90
  0
LINE
  8
_0-7_枠細線
  6
CONTINUOUS
 62
    5
 10
1245
 20
120
 11
1425
 21
120
  0
LINE
  8
_0-7_枠細線
  6
CONTINUOUS
 62
    5
 10
1425
 20
140
 11
1245
 21
140
  0
TEXT
  8
_0-7_枠細線
 62
    5
 10
1255
 20
147.5
 40
25
 41
0.8
 50
0
  1
株式会社シマブン
  0
TEXT
  8
_0-7_枠細線
 62
    5
 10
1252.5
 20
60
 40
15
 41
1
 50
0
  1
年月日
  0
TEXT
  8
_0-7_枠細線
 62
    5
 10
1252.5
 20
75
 40
15
 41
1
 50
0
  1
作　成
  0
TEXT
  8
_0-7_枠細線
 62
    5
 10
1250
 20
95
 40
20
 41
1
 50
0
  1
島 英
  0
TEXT
  8
_0-7_枠細線
 62
    5
 10
1256.25
 20
122.5
 40
15
 41
1
 50
0
  1
承 認
  0
LINE
  8
_0-7_枠細線
  6
CONTINUOUS
 62
    5
 10
1305
 20
140
 11
1305
 21
60
  0
TEXT
  8
_0-7_枠細線
 62
    5
 10
1315
 20
95
 40
20
 41
1
 50
0
  1
隠塚
  0
TEXT
  8
_0-7_枠細線
 62
    5
 10
1316.25
 20
122.5
 40
15
 41
1
 50
0
  1
検 図
  0
LINE
  8
_0-7_枠細線
  6
CONTINUOUS
 62
    5
 10
1365
 20
140
 11
1365
 21
90
  0
TEXT
  8
_0-7_枠細線
 62
    5
 10
1375
 20
95
 40
20
 41
1
 50
0
  1
藤戸
  0
TEXT
  8
_0-7_枠細線
 62
    5
 10
1376.25
 20
122.5
 40
15
 41
1
 50
0
  1
設 計
  0
TEXT
  8
_0-7_枠細線
 62
    5
 10
965.50000000000011
 20
150
 40
20
 41
0.6
 50
0
  1
セーフティグレーチングＨ２５タイプ
  0
TEXT
  8
_0-7_枠細線
 62
    5
 10
965.50000000000011
 20
70
 40
20
 41
0.5999999999999998
 50
0
  1
色については品番表参照のこと
  0
TEXT
  8
_0-7_枠細線
 62
    5
 10
1310
 20
67.5
 40
15
 41
0.6666666666666666
 50
0
  1
２００９年０１月１６日
  0
LINE
  8
_0-d_寸法3
  6
CONTINUOUS
 62
    7
 10
271.8379906479413
 20
234.92948986735385
 11
271.8379906479413
 21
217.78479796644845
  0
LINE
  8
_0-d_寸法3
  6
CONTINUOUS
 62
    7
 10
271.8379906479413
 20
222.78479796644845
 11
281.49724891083196
 21
225.37298841747366
  0
LINE
  8
_0-d_寸法3
  6
CONTINUOUS
 62
    7
 10
271.8379906479413
 20
222.78479796644845
 11
281.49724891083196
 21
220.19660751542321
  0
LINE
  8
_0-d_寸法3
  6
CONTINUOUS
 62
    7
 10
321.83799064794118
 20
273.26282320068731
 11
321.83799064794039
 21
217.78479796644845
  0
LINE
  8
_0-d_寸法3
  6
CONTINUOUS
 62
    7
 10
321.83799064794039
 20
222.78479796644845
 11
312.17873238504967
 21
220.19660751542324
  0
LINE
  8
_0-d_寸法3
  6
CONTINUOUS
 62
    7
 10
321.83799064794039
 20
222.78479796644845
 11
312.17873238504978
 21
225.37298841747369
  0
LINE
  8
_0-d_寸法3
  6
CONTINUOUS
 62
    7
 10
271.8379906479413
 20
222.78479796644845
 11
321.83799064794039
 21
222.78479796644845
  0
TEXT
  8
_0-d_寸法3
 62
    7
 10
289.3379906479413
 20
222.78479796644845
 40
15
 41
1
 50
0
  1
30
  0
LINE
  8
_0-d_寸法3
  6
CONTINUOUS
 62
    7
 10
621.8379906479413
 20
234.92948986735385
 11
621.8379906479413
 21
217.78479796644845
  0
LINE
  8
_0-d_寸法3
  6
CONTINUOUS
 62
    7
 10
621.8379906479413
 20
222.78479796644845
 11
612.17873238505058
 21
220.19660751542321
  0
LINE
  8
_0-d_寸法3
  6
CONTINUOUS
 62
    7
 10
621.8379906479413
 20
222.78479796644845
 11
612.17873238505058
 21
225.37298841747366
  0
LINE
  8
_0-d_寸法3
  6
CONTINUOUS
 62
    7
 10
571.83799064794141
 20
273.26282320068731
 11
571.83799064794232
 21
217.78479796644845
  0
LINE
  8
_0-d_寸法3
  6
CONTINUOUS
 62
    7
 10
571.83799064794221
 20
222.78479796644845
 11
581.49724891083292
 21
225.37298841747369
  0
LINE
  8
_0-d_寸法3
  6
CONTINUOUS
 62
    7
 10
571.83799064794221
 20
222.78479796644845
 11
581.49724891083292
 21
220.19660751542324
  0
LINE
  8
_0-d_寸法3
  6
CONTINUOUS
 62
    7
 10
621.8379906479413
 20
222.78479796644845
 11
571.83799064794221
 21
222.78479796644845
  0
TEXT
  8
_0-d_寸法3
 62
    7
 10
589.33799064794039
 20
222.78479796644842
 40
15
 41
1
 50
0.0000000000001357
  1
30
  0
LINE
  8
_0-d_寸法3
  6
CONTINUOUS
 62
    7
 10
321.8379906479413
 20
278.26282320068731
 11
321.8379906479413
 21
217.78479796644845
  0
LINE
  8
_0-d_寸法3
  6
CONTINUOUS
 62
    7
 10
321.8379906479413
 20
222.78479796644845
 11
331.49724891083196
 21
225.37298841747366
  0
LINE
  8
_0-d_寸法3
  6
CONTINUOUS
 62
    7
 10
321.8379906479413
 20
222.78479796644845
 11
331.49724891083196
 21
220.19660751542321
  0
LINE
  8
_0-d_寸法3
  6
CONTINUOUS
 62
    7
 10
571.8379906479413
 20
278.26282320068731
 11
571.8379906479413
 21
217.78479796644845
  0
LINE
  8
_0-d_寸法3
  6
CONTINUOUS
 62
    7
 10
571.8379906479413
 20
222.78479796644845
 11
562.17873238505058
 21
220.19660751542324
  0
LINE
  8
_0-d_寸法3
  6
CONTINUOUS
 62
    7
 10
571.8379906479413
 20
222.78479796644845
 11
562.17873238505058
 21
225.37298841747369
  0
LINE
  8
_0-d_寸法3
  6
CONTINUOUS
 62
    7
 10
321.8379906479413
 20
222.78479796644845
 11
571.8379906479413
 21
222.78479796644845
  0
TEXT
  8
_0-d_寸法3
 62
    7
 10
435.5879906479413
 20
222.78479796644845
 40
15
 41
1
 50
0
  1
150
  0
CIRCLE
  8
_0-a_極細3
  6
CONTINUOUS
 62
    7
 10
251.49934122253669
 20
270.97819349389056
 40
1.825531472681392
  0
CIRCLE
  8
_0-a_極細3
  6
CONTINUOUS
 62
    7
 10
663.16600788920016
 20
284.5719434938901
 40
1.825531472681392
  0
LINE
  8
_0-a_極細3
  6
CONTINUOUS
 62
    7
 10
688.50465731460747
 20
268.26282320068731
 11
688.50465731460747
 21
199.92948986735342
  0
LINE
  8
_0-a_極細3
  6
CONTINUOUS
 62
    7
 10
605.17132398127433
 20
199.92948986735342
 11
688.50465731460747
 21
199.92948986735342
  0
LINE
  8
_0-a_極細3
  6
CONTINUOUS
 62
    7
 10
688.50465731460747
 20
268.26282320068731
 11
719.34907112638848
 21
268.26282320068731
  0
LINE
  8
_0-a_極細3
  6
CONTINUOUS
 62
    7
 10
605.17132398127433
 20
199.92948986735342
 11
605.17132398127433
 21
173.68788957257451
  0
LINE
  8
_0-a_極細3
  6
CONTINUOUS
 62
    7
 10
696.79465972920025
 20
173.68788957257451
 11
719.34907116792874
 21
196.24230101130343
  0
LINE
  8
_0-a_極細3
  6
CONTINUOUS
 62
    7
 10
626.08398161054538
 20
173.68788957257451
 11
652.32558190532473
 21
199.92948986735342
  0
LINE
  8
_0-a_極細3
  6
CONTINUOUS
 62
    7
 10
688.50465731460747
 20
236.108565276636
 11
719.34907112714427
 21
266.95297908917291
  0
LINE
  8
_0-a_極細3
  6
CONTINUOUS
 62
    7
 10
689.7235919173354
 20
173.68788957257451
 11
719.34907116385057
 21
203.31336881909053
  0
LINE
  8
_0-a_極細3
  6
CONTINUOUS
 62
    7
 10
619.01291379868053
 20
173.68788957257451
 11
645.25451409345987
 21
199.92948986735342
  0
LINE
  8
_0-a_極細3
  6
CONTINUOUS
 62
    7
 10
688.50465731460747
 20
243.17963308850179
 11
713.58784724724228
 21
268.26282302113668
  0
LINE
  8
_0-a_極細3
  6
CONTINUOUS
 62
    7
 10
682.65252410546964
 20
173.68788957257451
 11
719.34907115977239
 21
210.38443662687726
  0
LINE
  8
_0-a_極細3
  6
CONTINUOUS
 62
    7
 10
611.94184598681568
 20
173.68788957257451
 11
638.18344628159412
 21
199.92948986735342
  0
LINE
  8
_0-a_極細3
  6
CONTINUOUS
 62
    7
 10
688.50465731460747
 20
250.25070090036752
 11
706.51677948599274
 21
268.26282307175279
  0
CIRCLE
  8
_0-a_極細3
  6
CONTINUOUS
 62
    7
 10
591.57711900031245
 20
258.78382620993943
 40
0.5530864197530718
  0
CIRCLE
  8
_0-a_極細3
  6
CONTINUOUS
 62
    7
 10
601.53267455586683
 20
263.58382620993962
 40
0.5530864197530718
  0
CIRCLE
  8
_0-a_極細3
  6
CONTINUOUS
 62
    7
 10
597.44378566697924
 20
238.60604843216197
 40
0.5530864197530718
  0
CIRCLE
  8
_0-a_極細3
  6
CONTINUOUS
 62
    7
 10
614.97711900031209
 20
221.58382620994007
 40
0.5530864197530718
  0
CIRCLE
  8
_0-a_極細3
  6
CONTINUOUS
 62
    7
 10
597.14378566697815
 20
198.28382620994034
 40
0.5530864197530718
  0
CIRCLE
  8
_0-a_極細3
  6
CONTINUOUS
 62
    7
 10
587.81045233364603
 20
180.41715954327358
 40
0.5530864197530718
  0
CIRCLE
  8
_0-a_極細3
  6
CONTINUOUS
 62
    7
 10
599.27711900031136
 20
210.28382620993992
 40
0.5530864197530718
  0
CIRCLE
  8
_0-a_極細3
  6
CONTINUOUS
 62
    7
 10
613.14378566697815
 20
205.48382620994019
 40
0.5530864197530718
  0
CIRCLE
  8
_0-a_極細3
  6
CONTINUOUS
 62
    7
 10
640.07711900031154
 20
205.75049287660661
 40
0.5530864197530718
  0
CIRCLE
  8
_0-a_極細3
  6
CONTINUOUS
 62
    7
 10
628.07711900031245
 20
214.81715954327319
 40
0.5530864197530718
  0
CIRCLE
  8
_0-a_極細3
  6
CONTINUOUS
 62
    7
 10
639.27711900031136
 20
220.41715954327313
 40
0.5530864197530718
  0
CIRCLE
  8
_0-a_極細3
  6
CONTINUOUS
 62
    7
 10
627.29934122253326
 20
274.70604843216188
 40
0.5530864197530718
  0
CIRCLE
  8
_0-a_極細3
  6
CONTINUOUS
 62
    7
 10
647.83267455586611
 20
273.9949373210502
 40
0.5530864197530718
  0
CIRCLE
  8
_0-a_極細3
  6
CONTINUOUS
 62
    7
 10
636.23267455586665
 20
259.99493732105111
 40
0.5530864197530718
  0
CIRCLE
  8
_0-a_極細3
  6
CONTINUOUS
 62
    7
 10
675.43267455586647
 20
206.79493732105129
 40
0.5530864197530718
  0
CIRCLE
  8
_0-a_極細3
  6
CONTINUOUS
 62
    7
 10
682.63267455586629
 20
220.79493732105132
 40
0.5530864197530718
  0
CIRCLE
  8
_0-a_極細3
  6
CONTINUOUS
 62
    7
 10
681.03267455586683
 20
241.59493732105105
 40
0.5530864197530718
  0
CIRCLE
  8
_0-a_極細3
  6
CONTINUOUS
 62
    7
 10
660.23267455586665
 20
243.19493732105093
 40
0.5530864197530718
  0
CIRCLE
  8
_0-a_極細3
  6
CONTINUOUS
 62
    7
 10
640.6326745558672
 20
248.79493732105087
 40
0.5530864197530718
  0
CIRCLE
  8
_0-a_極細3
  6
CONTINUOUS
 62
    7
 10
663.03267455586695
 20
262.79493732105084
 40
0.5530864197530718
  0
CIRCLE
  8
_0-a_極細3
  6
CONTINUOUS
 62
    7
 10
677.03267455586683
 20
255.59493732105057
 40
0.5530864197530718
  0
CIRCLE
  8
_0-a_極細3
  6
CONTINUOUS
 62
    7
 10
706.63267455586629
 20
276.79493732105038
 40
0.5530864197530718
  0
CIRCLE
  8
_0-a_極細3
  6
CONTINUOUS
 62
    7
 10
686.18823011142194
 20
275.09833238277952
 40
1.825531472681392
  0
CIRCLE
  8
_0-a_極細3
  6
CONTINUOUS
 62
    7
 10
662.7660078891995
 20
249.6761101605571
 40
1.825531472681392
  0
CIRCLE
  8
_0-a_極細3
  6
CONTINUOUS
 62
    7
 10
592.37156344475625
 20
205.12611016055783
 40
1.825531472681392
  0
CIRCLE
  8
_0-a_極細3
  6
CONTINUOUS
 62
    7
 10
602.59378566697796
 20
234.99277682722368
 40
1.825531472681392
  0
CIRCLE
  8
_0-a_極細3
  6
CONTINUOUS
 62
    7
 10
637.79378566697778
 20
212.59277682722404
 40
1.825531472681392
  0
CIRCLE
  8
_0-a_極細3
  6
CONTINUOUS
 62
    7
 10
684.05897830226149
 20
202.4057244352548
 40
1.825531472681392
  0
CIRCLE
  8
_0-a_極細3
  6
CONTINUOUS
 62
    7
 10
633.39378566697815
 20
255.79277682722389
 40
1.825531472681392
  0
CIRCLE
  8
_0-a_極細3
  6
CONTINUOUS
 62
    7
 10
585.92773628426312
 20
250.36957142018764
 40
0.5530864197530718
  0
CIRCLE
  8
_0-a_極細3
  6
CONTINUOUS
 62
    7
 10
586.12773628426294
 20
226.41401586463235
 40
0.5530864197530718
  0
LINE
  8
_0-a_極細3
  6
CONTINUOUS
 62
    7
 10
572.67132398127342
 20
274.92948986735337
 11
571.83799064794039
 21
274.92948986735337
  0
LINE
  8
_0-a_極細3
  6
CONTINUOUS
 62
    7
 10
571.83799064794039
 20
274.92948986735337
 11
571.83799064794039
 21
173.68788957257451
  0
CIRCLE
  8
_0-a_極細3
  6
CONTINUOUS
 62
    7
 10
577.82238649002466
 20
234.87271509882888
 40
0.5530864197530718
  0
CIRCLE
  8
_0-a_極細3
  6
CONTINUOUS
 62
    7
 10
579.12897085216355
 20
195.6171595432734
 40
0.5530864197530718
  0
CIRCLE
  8
_0-a_極細3
  6
CONTINUOUS
 62
    7
 10
578.49008196327395
 20
261.57055460500214
 40
1.825531472681392
  0
CIRCLE
  8
_0-a_極細3
  6
CONTINUOUS
 62
    7
 10
581.43823011142285
 20
188.9483323827794
 40
1.825531472681392
  0
LINE
  8
_0-a_極細3
  6
CONTINUOUS
 62
    7
 10
205.1713239812743
 20
268.26282320068731
 11
205.1713239812743
 21
199.92948986735342
  0
LINE
  8
_0-a_極細3
  6
CONTINUOUS
 62
    7
 10
288.50465731460736
 20
199.92948986735342
 11
205.1713239812743
 21
199.92948986735342
  0
LINE
  8
_0-a_極細3
  6
CONTINUOUS
 62
    7
 10
205.1713239812743
 20
268.26282320068731
 11
174.3269101694932
 21
268.26282320068731
  0
LINE
  8
_0-a_極細3
  6
CONTINUOUS
 62
    7
 10
288.50465731460736
 20
199.92948986735342
 11
288.50465731460736
 21
173.68788957257451
  0
LINE
  8
_0-a_極細3
  6
CONTINUOUS
 62
    7
 10
251.08268274961759
 20
173.68788968901114
 11
277.32428292796072
 21
199.92948986735342
  0
LINE
  8
_0-a_極細3
  6
CONTINUOUS
 62
    7
 10
180.37200485097671
 20
173.68788990902431
 11
206.61360480930583
 21
199.92948986735342
  0
LINE
  8
_0-a_極細3
  6
CONTINUOUS
 62
    7
 10
174.3269101694932
 20
238.35347334619567
 11
204.23626002398493
 21
268.26282320068731
  0
LINE
  8
_0-a_極細3
  6
CONTINUOUS
 62
    7
 10
244.01161495975344
 20
173.68788971101282
 11
270.25321511609491
 21
199.92948986735342
  0
LINE
  8
_0-a_極細3
  6
CONTINUOUS
 62
    7
 10
174.3269101694932
 20
174.71386303940653
 11
205.1713239812743
 21
205.55827685118814
  0
LINE
  8
_0-a_極細3
  6
CONTINUOUS
 62
    7
 10
174.3269101694932
 20
245.4245411580614
 11
197.16519221211826
 21
268.26282320068731
  0
LINE
  8
_0-a_極細3
  6
CONTINUOUS
 62
    7
 10
236.94054716988921
 20
173.68788973301392
 11
263.18214730422915
 21
199.92948986735342
  0
LINE
  8
_0-a_極細3
  6
CONTINUOUS
 62
    7
 10
174.3269101694932
 20
181.78493085127229
 11
205.1713239812743
 21
212.62934466305342
  0
LINE
  8
_0-a_極細3
  6
CONTINUOUS
 62
    7
 10
174.3269101694932
 20
252.49560896992674
 11
190.09412440025335
 21
268.26282320068731
  0
CIRCLE
  8
_0-a_極細3
  6
CONTINUOUS
 62
    7
 10
181.89193381512993
 20
273.51067806179162
 40
0.5530864197530718
  0
CIRCLE
  8
_0-a_極細3
  6
CONTINUOUS
 62
    7
 10
192.49934122253677
 20
274.57734472845823
 40
0.5530864197530718
  0
CIRCLE
  8
_0-a_極細3
  6
CONTINUOUS
 62
    7
 10
205.12156344475898
 20
276.53290028401352
 40
0.5530864197530718
  0
CIRCLE
  8
_0-a_極細3
  6
CONTINUOUS
 62
    7
 10
212.06600788920426
 20
269.27734472845805
 40
0.5530864197530718
  0
CIRCLE
  8
_0-a_極細3
  6
CONTINUOUS
 62
    7
 10
232.51045233364763
 20
268.03290028401352
 40
0.5530864197530718
  0
CIRCLE
  8
_0-a_極細3
  6
CONTINUOUS
 62
    7
 10
257.57711900031427
 20
264.2995669506804
 40
0.5530864197530718
  0
CIRCLE
  8
_0-a_極細3
  6
CONTINUOUS
 62
    7
 10
244.9548967780911
 20
258.61067806179153
 40
0.5530864197530718
  0
CIRCLE
  8
_0-a_極細3
  6
CONTINUOUS
 62
    7
 10
230.19934122253744
 20
245.09956695068013
 40
0.5530864197530718
  0
CIRCLE
  8
_0-a_極細3
  6
CONTINUOUS
 62
    7
 10
257.57711900031427
 20
252.38845583956936
 40
0.5530864197530718
  0
CIRCLE
  8
_0-a_極細3
  6
CONTINUOUS
 62
    7
 10
211.48823011142582
 20
238.9662336173474
 40
0.5530864197530718
  0
CIRCLE
  8
_0-a_極細3
  6
CONTINUOUS
 62
    7
 10
216.46600788920387
 20
225.2773447284585
 40
0.5530864197530718
  0
CIRCLE
  8
_0-a_極細3
  6
CONTINUOUS
 62
    7
 10
210.77711900031409
 20
207.32178917290275
 40
0.5530864197530718
  0
CIRCLE
  8
_0-a_極細3
  6
CONTINUOUS
 62
    7
 10
219.48823011142579
 20
214.07734472845823
 40
0.5530864197530718
  0
CIRCLE
  8
_0-a_極細3
  6
CONTINUOUS
 62
    7
 10
225.71045233364842
 20
205.54401139512538
 40
0.5530864197530718
  0
CIRCLE
  8
_0-a_極細3
  6
CONTINUOUS
 62
    7
 10
265.01045233364766
 20
223.4329002840141
 40
0.5530864197530718
  0
CIRCLE
  8
_0-a_極細3
  6
CONTINUOUS
 62
    7
 10
253.81045233364694
 20
217.92178917290269
 40
0.5530864197530718
  0
CIRCLE
  8
_0-a_極細3
  6
CONTINUOUS
 62
    7
 10
260.03267455586956
 20
215.43290028401407
 40
0.5530864197530718
  0
CIRCLE
  8
_0-a_極細3
  6
CONTINUOUS
 62
    7
 10
256.47711900031481
 20
206.18845583956954
 40
0.5530864197530718
  0
CIRCLE
  8
_0-a_極細3
  6
CONTINUOUS
 62
    7
 10
276.3882301114254
 20
207.25512250623615
 40
0.5530864197530718
  0
CIRCLE
  8
_0-a_極細3
  6
CONTINUOUS
 62
    7
 10
289.3660078892035
 20
210.45512250623645
 40
0.5530864197530718
  0
CIRCLE
  8
_0-a_極細3
  6
CONTINUOUS
 62
    7
 10
303.05489677809146
 20
195.52178917290306
 40
0.5530864197530718
  0
CIRCLE
  8
_0-a_極細3
  6
CONTINUOUS
 62
    7
 10
296.12156344475898
 20
180.58845583957009
 40
0.5530864197530718
  0
CIRCLE
  8
_0-a_極細3
  6
CONTINUOUS
 62
    7
 10
279.45489677809206
 20
224.20327065438414
 40
0.5530864197530718
  0
CIRCLE
  8
_0-a_極細3
  6
CONTINUOUS
 62
    7
 10
294.21045233364657
 20
258.33660398771735
 40
0.5530864197530718
  0
CIRCLE
  8
_0-a_極細3
  6
CONTINUOUS
 62
    7
 10
309.32156344475789
 20
248.38104843216206
 40
0.5530864197530718
  0
CIRCLE
  8
_0-a_極細3
  6
CONTINUOUS
 62
    7
 10
309.8548967780917
 20
230.42549287660677
 40
0.5530864197530718
  0
CIRCLE
  8
_0-a_極細3
  6
CONTINUOUS
 62
    7
 10
274.61045233364803
 20
260.15882620993989
 40
0.5530864197530718
  0
CIRCLE
  8
_0-a_極細3
  6
CONTINUOUS
 62
    7
 10
229.09934122253708
 20
259.34277682722359
 40
1.825531472681392
  0
CIRCLE
  8
_0-a_極細3
  6
CONTINUOUS
 62
    7
 10
209.49934122253671
 20
221.34277682722404
 40
1.825531472681392
  0
CIRCLE
  8
_0-a_極細3
  6
CONTINUOUS
 62
    7
 10
262.69934122253562
 20
208.54277682722386
 40
1.825531472681392
  0
CIRCLE
  8
_0-a_極細3
  6
CONTINUOUS
 62
    7
 10
298.67711900031372
 20
204.94277682722441
 40
1.825531472681392
  0
CIRCLE
  8
_0-a_極細3
  6
CONTINUOUS
 62
    7
 10
303.477119000313
 20
186.27611016055795
 40
1.825531472681392
  0
LINE
  8
_0-a_極細3
  6
CONTINUOUS
 62
    7
 10
321.00465731460736
 20
274.92948986735337
 11
321.8379906479413
 21
274.92948986735337
  0
LINE
  8
_0-a_極細3
  6
CONTINUOUS
 62
    7
 10
321.8379906479413
 20
274.92948986735337
 11
321.8379906479413
 21
173.68788957257451
  0
CIRCLE
  8
_0-a_極細3
  6
CONTINUOUS
 62
    7
 10
314.9505565003119
 20
258.94277682722395
 40
1.825531472681392
  0
CIRCLE
  8
_0-a_極細3
  6
CONTINUOUS
 62
    7
 10
313.95860048179475
 20
204.23290028401425
 40
0.5530864197530718
  0
CIRCLE
  8
_0-a_極細3
  6
CONTINUOUS
 62
    7
 10
315.29193381512869
 20
181.57682925084464
 40
0.5530864197530718
  0
CIRCLE
  8
_0-a_極細3
  6
CONTINUOUS
 62
    7
 10
302.92156344475461
 20
239.83166571611309
 40
1.825531472681392
  0
LINE
  8
_0-b_細線3
  6
CONTINUOUS
 62
    7
 10
465.2546573149084
 20
279.92985486903217
 11
457.42132398157452
 21
279.92985486903217
  0
CIRCLE
  8
_0-a_極細3
  6
CONTINUOUS
 62
    7
 10
192.22279801265998
 20
283.86831695068031
 40
0.5530864197530718
  0
CIRCLE
  8
_0-a_極細3
  6
CONTINUOUS
 62
    7
 10
239.25489677809225
 20
281.74401139512429
 40
0.5530864197530718
  0
CIRCLE
  8
_0-a_極細3
  6
CONTINUOUS
 62
    7
 10
254.32156344475885
 20
282.37611016055689
 40
1.825531472681392
  0
CIRCLE
  8
_0-a_極細3
  6
CONTINUOUS
 62
    7
 10
697.35099309128054
 20
291.13583238277897
 40
1.825531472681392
  0
CIRCLE
  8
_0-a_極細3
  6
CONTINUOUS
 62
    7
 10
536.83799064794039
 20
302.59615653402034
 40
3.333333333333333
  0
CIRCLE
  8
_0-a_極細3
  6
CONTINUOUS
 62
    7
 10
356.8379906479413
 20
302.59615653402034
 40
3.333333333333333
  0
LINE
  8
_0-a_極細3
  6
CENTER1
 62
    7
 10
619.9582652766685
 20
302.59611943602022
 11
270.18399820340079
 21
302.59611943602022
  0
LINE
  8
_0-a_極細3
  6
CONTINUOUS
 62
    7
 10
614.33799064794039
 20
319.92948986735382
 11
279.3379906479413
 21
319.92948986735382
  0
CIRCLE
  8
_0-a_極細3
  6
CONTINUOUS
 62
    7
 10
629.78823011142231
 20
302.77271509882803
 40
0.5530864197530718
  0
CIRCLE
  8
_0-a_極細3
  6
CONTINUOUS
 62
    7
 10
679.83267455586611
 20
290.72827065438378
 40
0.5530864197530718
  0
CIRCLE
  8
_0-a_極細3
  6
CONTINUOUS
 62
    7
 10
693.83267455586622
 20
306.86160398771699
 40
0.5530864197530718
  0
CIRCLE
  8
_0-a_極細3
  6
CONTINUOUS
 62
    7
 10
641.83267455586611
 20
307.79493732105038
 40
0.5530864197530718
  0
LINE
  8
_0-a_極細3
  6
CONTINUOUS
 62
    7
 10
630.17132398127433
 20
321.59615653402034
 11
630.17132398127433
 21
309.92948986735337
  0
LINE
  8
_0-a_極細3
  6
CONTINUOUS
 62
    7
 10
630.17132398127433
 20
321.59615653402034
 11
719.34907112638848
 21
321.59615653402034
  0
LINE
  8
_0-a_極細3
  6
CONTINUOUS
 62
    7
 10
621.83799064794039
 20
309.92948986735337
 11
719.34907112638848
 21
309.92948986735337
  0
LINE
  8
_0-a_極細3
  6
CONTINUOUS
 62
    7
 10
621.83799064794039
 20
321.59615653402034
 11
630.17132398127433
 21
321.59615653402034
  0
LINE
  8
_0-a_極細3
  6
CONTINUOUS
 62
    7
 10
621.83799064794039
 20
320.7628232006864
 11
621.83799064794039
 21
321.59615653402034
  0
LINE
  8
_0-a_極細3
  6
CONTINUOUS
 62
    7
 10
630.17132398127433
 20
313.59857614807834
 11
626.50223770054981
 21
309.92948986735337
  0
LINE
  8
_0-a_極細3
  6
CONTINUOUS
 62
    7
 10
630.17132398127433
 20
317.84121683519697
 11
622.25959701342981
 21
309.92948986735337
  0
LINE
  8
_0-a_極細3
  6
CONTINUOUS
 62
    7
 10
621.83799064794039
 20
313.75052418898395
 11
629.68362299297769
 21
321.59615653402034
  0
LINE
  8
_0-a_極細3
  6
CONTINUOUS
 62
    7
 10
621.83799064794039
 20
317.99316487610258
 11
625.44098230585769
 21
321.59615653401994
  0
LINE
  8
_0-a_極細3
  6
CONTINUOUS
 62
    7
 10
630.17132398127433
 20
320.08683432451471
 11
628.6620017717687
 21
321.59615653402034
  0
LINE
  8
_0-a_極細3
  6
CONTINUOUS
 62
    7
 10
630.17132398127433
 20
315.84419363739562
 11
624.41936108465052
 21
321.59615653402034
  0
LINE
  8
_0-a_極細3
  6
CONTINUOUS
 62
    7
 10
630.17132398127433
 20
311.60155295027653
 11
621.83799064794039
 21
319.93488628360956
  0
LINE
  8
_0-a_極細3
  6
CONTINUOUS
 62
    7
 10
627.60074637707839
 20
309.92948986735337
 11
621.83799064794039
 21
315.69224559649047
  0
LINE
  8
_0-a_極細3
  6
CONTINUOUS
 62
    7
 10
623.35810568995839
 20
309.92948986735337
 11
621.83799064794039
 21
311.44960490937092
  0
LINE
  8
_0-a_極細3
  6
CONTINUOUS
 62
    7
 10
698.62712938157711
 20
309.92948986735337
 11
710.29379542145489
 21
321.5961559072316
  0
LINE
  8
_0-a_極細3
  6
CONTINUOUS
 62
    7
 10
677.41392594598085
 20
309.92948986735382
 11
689.08059215180765
 21
321.59615607317983
  0
LINE
  8
_0-a_極細3
  6
CONTINUOUS
 62
    7
 10
656.20072251038437
 20
309.92948986735337
 11
667.8673888821595
 21
321.5961562391285
  0
LINE
  8
_0-a_極細3
  6
CONTINUOUS
 62
    7
 10
634.987519074788
 20
309.92948986735337
 11
646.65418561251147
 21
321.59615640507673
  0
LINE
  8
_0-a_極細3
  6
DASHED2
 62
    7
 10
709.23373109937529
 20
309.92948986735382
 11
719.34907112638848
 21
320.04482989436661
  0
LINE
  8
_0-a_極細3
  6
DASHED2
 62
    7
 10
688.02052766377892
 20
309.92948986735337
 11
699.68719378663081
 21
321.59615599020577
  0
LINE
  8
_0-a_極細3
  6
DASHED2
 62
    7
 10
666.80732422818255
 20
309.92948986735337
 11
678.47399051698358
 21
321.59615615615445
  0
LINE
  8
_0-a_極細3
  6
DASHED2
 62
    7
 10
645.59412079258618
 20
309.92948986735337
 11
657.26078724733543
 21
321.59615632210262
  0
LINE
  8
_0-a_極細3
  6
DASHED2
 62
    7
 10
630.17132398127433
 20
315.71989649163788
 11
636.04758397768728
 21
321.59615648805084
  0
CIRCLE
  8
_0-a_極細3
  6
CONTINUOUS
 62
    7
 10
233.56600788920332
 20
296.59956695068013
 40
0.5530864197530718
  0
CIRCLE
  8
_0-a_極細3
  6
CONTINUOUS
 62
    7
 10
258.45489677809201
 20
306.55512250623542
 40
0.5530864197530718
  0
CIRCLE
  8
_0-a_極細3
  6
CONTINUOUS
 62
    7
 10
264.14378566698088
 20
290.37734472845796
 40
0.5530864197530718
  0
CIRCLE
  8
_0-a_極細3
  6
CONTINUOUS
 62
    7
 10
227.52156344475864
 20
304.77734472845805
 40
0.5530864197530718
  0
CIRCLE
  8
_0-a_極細3
  6
CONTINUOUS
 62
    7
 10
202.55944374332373
 20
297.40572443525525
 40
1.825531472681392
  0
CIRCLE
  8
_0-a_極細3
  6
CONTINUOUS
 62
    7
 10
182.36236420224401
 20
298.29833238277888
 40
1.825531472681392
  0
LINE
  8
_0-a_極細3
  6
CONTINUOUS
 62
    7
 10
263.50465731460736
 20
321.59615653402034
 11
263.50465731460736
 21
309.92948986735337
  0
LINE
  8
_0-a_極細3
  6
CONTINUOUS
 62
    7
 10
263.50465731460736
 20
321.59615653402034
 11
174.3269101694932
 21
321.59615653402034
  0
LINE
  8
_0-a_極細3
  6
CONTINUOUS
 62
    7
 10
271.8379906479413
 20
309.92948986735337
 11
174.3269101694932
 21
309.92948986735337
  0
LINE
  8
_0-a_極細3
  6
CONTINUOUS
 62
    7
 10
271.8379906479413
 20
321.59615653402034
 11
263.50465731460736
 21
321.59615653402034
  0
LINE
  8
_0-a_極細3
  6
CONTINUOUS
 62
    7
 10
271.8379906479413
 20
320.7628232006864
 11
271.8379906479413
 21
321.59615653402034
  0
LINE
  8
_0-a_極細3
  6
CONTINUOUS
 62
    7
 10
271.63990039158125
 20
309.92948986735337
 11
271.8379906479413
 21
310.12758012371296
  0
LINE
  8
_0-a_極細3
  6
CONTINUOUS
 62
    7
 10
267.39725970446216
 20
309.92948986735337
 11
271.8379906479413
 21
314.37022081083251
  0
LINE
  8
_0-a_極細3
  6
CONTINUOUS
 62
    7
 10
263.50465731460736
 20
310.27952816461857
 11
271.8379906479413
 21
318.61286149795114
  0
LINE
  8
_0-a_極細3
  6
CONTINUOUS
 62
    7
 10
263.50465731460736
 20
314.52216885173721
 11
270.57864499689003
 21
321.59615653402034
  0
LINE
  8
_0-a_極細3
  6
CONTINUOUS
 62
    7
 10
263.50465731460736
 20
318.76480953885675
 11
266.33600430977185
 21
321.59615653402034
  0
LINE
  8
_0-a_極細3
  6
CONTINUOUS
 62
    7
 10
271.8379906479413
 20
319.31518966176145
 11
269.55702377568286
 21
321.59615653402034
  0
LINE
  8
_0-a_極細3
  6
CONTINUOUS
 62
    7
 10
271.8379906479413
 20
315.0725489746419
 11
265.31438308856286
 21
321.59615653402034
  0
LINE
  8
_0-a_極細3
  6
CONTINUOUS
 62
    7
 10
263.50465731460736
 20
319.16324162085675
 11
271.8379906479413
 21
310.82990828752327
  0
LINE
  8
_0-a_極細3
  6
CONTINUOUS
 62
    7
 10
263.50465731460736
 20
314.92060093373721
 11
268.49576838099074
 21
309.92948986735337
  0
LINE
  8
_0-a_極細3
  6
CONTINUOUS
 62
    7
 10
263.50465731460736
 20
310.67796024661811
 11
264.25312769387165
 21
309.92948986735337
  0
LINE
  8
_0-a_極細3
  6
CONTINUOUS
 62
    7
 10
254.66933763697668
 20
309.9294898612261
 11
263.50465731460736
 21
318.76480953885675
  0
LINE
  8
_0-a_極細3
  6
CONTINUOUS
 62
    7
 10
233.45613418666929
 20
309.92948984651457
 11
245.12280087417551
 21
321.59615653401994
  0
LINE
  8
_0-a_極細3
  6
CONTINUOUS
 62
    7
 10
212.24293073636181
 20
309.92948983180349
 11
223.9095974385782
 21
321.59615653402034
  0
LINE
  8
_0-a_極細3
  6
CONTINUOUS
 62
    7
 10
191.02972728605351
 20
309.92948981709242
 11
202.69639400298189
 21
321.59615653402034
  0
LINE
  8
_0-a_極細3
  6
CONTINUOUS
 62
    7
 10
174.3269101694932
 20
314.43987613612808
 11
181.48319056738544
 21
321.59615653401994
  0
LINE
  8
_0-a_極細3
  6
DASHED2
 62
    7
 10
244.06273591182341
 20
309.92948985387056
 11
255.72940259197367
 21
321.59615653402034
  0
LINE
  8
_0-a_極細3
  6
DASHED2
 62
    7
 10
222.84953246151508
 20
309.92948983915949
 11
234.51619915637636
 21
321.59615653402034
  0
LINE
  8
_0-a_極細3
  6
DASHED2
 62
    7
 10
201.63632901120855
 20
309.92948982444841
 11
213.30299572077911
 21
321.59615653402034
  0
LINE
  8
_0-a_極細3
  6
DASHED2
 62
    7
 10
180.42312556090025
 20
309.92948980973688
 11
192.08979228518365
 21
321.59615653402034
  0
CIRCLE
  8
_0-a_極細3
  6
CONTINUOUS
 62
    7
 10
242.01785974105496
 20
301.98722127166639
 40
1.825531472681392
  0
LINE
  8
_0-a_極細3
  6
CENTER1
 62
    7
 10
446.83799064794044
 20
263.74366038190419
 11
446.83799064794044
 21
335.52699371524341
  0
CIRCLE
  8
_0-b_細線3
  6
CONTINUOUS
 62
    7
 10
536.83799064794039
 20
302.59615653402034
 40
10.833333333333332
  0
LINE
  8
_0-b_細線3
  6
CONTINUOUS
 62
    7
 10
530.17132398127342
 20
302.59615653402034
 11
533.50465731460736
 21
308.36965922591662
  0
LINE
  8
_0-b_細線3
  6
CONTINUOUS
 62
    7
 10
533.50465731460736
 20
308.36965922591662
 11
540.17132398127342
 21
308.36965922591662
  0
LINE
  8
_0-b_細線3
  6
CONTINUOUS
 62
    7
 10
540.17132398127342
 20
308.36965922591662
 11
543.50465731460736
 21
302.59615653402034
  0
LINE
  8
_0-b_細線3
  6
CONTINUOUS
 62
    7
 10
543.50465731460736
 20
302.59615653402034
 11
540.17132398127342
 21
296.8226538421236
  0
LINE
  8
_0-b_細線3
  6
CONTINUOUS
 62
    7
 10
540.17132398127342
 20
296.8226538421236
 11
533.50465731460736
 21
296.8226538421236
  0
LINE
  8
_0-b_細線3
  6
CONTINUOUS
 62
    7
 10
533.50465731460736
 20
296.8226538421236
 11
530.17132398127342
 21
302.59615653402034
  0
CIRCLE
  8
_0-b_細線3
  6
CONTINUOUS
 62
    7
 10
356.8379906479413
 20
302.59615653402034
 40
10.833333333333332
  0
LINE
  8
_0-b_細線3
  6
CONTINUOUS
 62
    7
 10
363.50465731460827
 20
302.59615653402034
 11
360.17132398127438
 21
308.36965922591662
  0
LINE
  8
_0-b_細線3
  6
CONTINUOUS
 62
    7
 10
360.17132398127438
 20
308.36965922591662
 11
353.50465731460827
 21
308.36965922591662
  0
LINE
  8
_0-b_細線3
  6
CONTINUOUS
 62
    7
 10
353.50465731460827
 20
308.36965922591662
 11
350.17132398127438
 21
302.59615653402034
  0
LINE
  8
_0-b_細線3
  6
CONTINUOUS
 62
    7
 10
350.17132398127438
 20
302.59615653402034
 11
353.50465731460827
 21
296.8226538421236
  0
LINE
  8
_0-b_細線3
  6
CONTINUOUS
 62
    7
 10
353.50465731460827
 20
296.8226538421236
 11
360.17132398127438
 21
296.8226538421236
  0
LINE
  8
_0-b_細線3
  6
CONTINUOUS
 62
    7
 10
360.17132398127438
 20
296.8226538421236
 11
363.50465731460827
 21
302.59615653402034
  0
LINE
  8
_0-b_細線3
  6
CONTINUOUS
 62
    7
 10
279.3379906479413
 20
279.92948986735337
 11
279.3379906479413
 21
321.59615653401994
  0
LINE
  8
_0-b_細線3
  6
CONTINUOUS
 62
    7
 10
279.3379906479413
 20
321.59615653401994
 11
614.33799064794039
 21
321.59615653401994
  0
LINE
  8
_0-b_細線3
  6
CONTINUOUS
 62
    7
 10
614.33799064794039
 20
321.59615653401994
 11
614.33799064794039
 21
279.92948986735337
  0
LINE
  8
_0-b_細線3
  6
CONTINUOUS
 62
    7
 10
614.33799064794039
 20
279.92948986735337
 11
279.3379906479413
 21
279.92948986735337
  0
LINE
  8
_0-b_細線3
  6
CONTINUOUS
 62
    7
 10
279.3379906479413
 20
315.09615653402034
 11
614.33799064794039
 21
315.09615653402034
  0
ARC
  8
_0-b_細線3
  6
CONTINUOUS
 62
    7
 10
616.83799064794039
 20
279.92948986735337
 40
4.9999999999999991
 50
269.99999999999977
 51
359.99999999999966
  0
LINE
  8
_0-b_細線3
  6
CONTINUOUS
 62
    7
 10
621.83799064794039
 20
279.92948986735337
 11
621.83799064794039
 21
320.7628232006864
  0
LINE
  8
_0-b_細線3
  6
CONTINUOUS
 62
    7
 10
616.83799064794039
 20
274.92948986735337
 11
572.67132398127342
 21
274.92948986735337
  0
LINE
  8
_0-b_細線3
  6
CONTINUOUS
 62
    7
 10
571.83799064794039
 20
275.76282320068731
 11
572.67132398127342
 21
274.92948986735337
  0
LINE
  8
_0-b_細線3
  6
CONTINUOUS
 62
    7
 10
571.83799064794039
 20
279.09615653402034
 11
571.83799064794039
 21
275.76282320068731
  0
LINE
  8
_0-b_細線3
  6
CONTINUOUS
 62
    7
 10
572.67132398127342
 20
279.92948986735337
 11
571.83799064794039
 21
279.09615653402034
  0
LINE
  8
_0-b_細線3
  6
CONTINUOUS
 62
    7
 10
616.83799064794039
 20
279.92948986735337
 11
572.67132398127342
 21
279.92948986735337
  0
LINE
  8
_0-b_細線3
  6
CONTINUOUS
 62
    7
 10
621.00465731460827
 20
321.59615653402034
 11
621.83799064794039
 21
320.7628232006864
  0
LINE
  8
_0-b_細線3
  6
CONTINUOUS
 62
    7
 10
617.67132398127433
 20
321.59615653402034
 11
621.00465731460827
 21
321.59615653402034
  0
LINE
  8
_0-b_細線3
  6
CONTINUOUS
 62
    7
 10
616.83799064794039
 20
320.7628232006864
 11
617.67132398127433
 21
321.59615653402034
  0
LINE
  8
_0-b_細線3
  6
CONTINUOUS
 62
    7
 10
616.83799064794039
 20
279.92948986735337
 11
616.83799064794039
 21
320.7628232006864
  0
ARC
  8
_0-b_細線3
  6
CONTINUOUS
 62
    7
 10
276.8379906479413
 20
279.92948986735337
 40
4.9999999999999991
 50
179.99999999999983
 51
269.99999999999977
  0
LINE
  8
_0-b_細線3
  6
CONTINUOUS
 62
    7
 10
271.8379906479413
 20
279.92948986735337
 11
271.8379906479413
 21
320.7628232006864
  0
LINE
  8
_0-b_細線3
  6
CONTINUOUS
 62
    7
 10
276.8379906479413
 20
274.92948986735337
 11
321.00465731460736
 21
274.92948986735337
  0
LINE
  8
_0-b_細線3
  6
CONTINUOUS
 62
    7
 10
321.8379906479413
 20
275.76282320068731
 11
321.00465731460736
 21
274.92948986735337
  0
LINE
  8
_0-b_細線3
  6
CONTINUOUS
 62
    7
 10
321.8379906479413
 20
279.09615653402034
 11
321.8379906479413
 21
275.76282320068731
  0
LINE
  8
_0-b_細線3
  6
CONTINUOUS
 62
    7
 10
321.00465731460736
 20
279.92948986735337
 11
321.8379906479413
 21
279.09615653402034
  0
LINE
  8
_0-b_細線3
  6
CONTINUOUS
 62
    7
 10
276.8379906479413
 20
279.92948986735337
 11
321.00465731460736
 21
279.92948986735337
  0
LINE
  8
_0-b_細線3
  6
CONTINUOUS
 62
    7
 10
272.67132398127433
 20
321.59615653402034
 11
271.8379906479413
 21
320.7628232006864
  0
LINE
  8
_0-b_細線3
  6
CONTINUOUS
 62
    7
 10
276.00465731460736
 20
321.59615653402034
 11
272.67132398127433
 21
321.59615653402034
  0
LINE
  8
_0-b_細線3
  6
CONTINUOUS
 62
    7
 10
276.8379906479413
 20
320.7628232006864
 11
276.00465731460736
 21
321.59615653402034
  0
LINE
  8
_0-b_細線3
  6
CONTINUOUS
 62
    7
 10
276.8379906479413
 20
279.92948986735337
 11
276.8379906479413
 21
320.7628232006864
  0
LINE
  8
_0-b_細線3
  6
CONTINUOUS
 62
    7
 10
457.42132398157452
 20
321.59652153569914
 11
465.2546573149084
 21
321.59652153569914
  0
LINE
  8
_0-d_寸法3
  6
CONTINUOUS
 62
    7
 10
261.8379906479413
 20
274.92948986735388
 11
215.88795956935158
 21
274.92948986735382
  0
LINE
  8
_0-d_寸法3
  6
CONTINUOUS
 62
    7
 10
220.88795956935158
 20
274.92948986735382
 11
223.47615002037671
 21
265.27023160446311
  0
LINE
  8
_0-d_寸法3
  6
CONTINUOUS
 62
    7
 10
220.88795956935158
 20
274.92948986735382
 11
218.29976911832631
 21
265.27023160446322
  0
LINE
  8
_0-d_寸法3
  6
CONTINUOUS
 62
    7
 10
259.8379906479413
 20
236.59615653402039
 11
215.88795956935243
 21
236.59615653402039
  0
LINE
  8
_0-d_寸法3
  6
CONTINUOUS
 62
    7
 10
220.88795956935243
 20
236.59615653402034
 11
218.29976911832722
 21
246.25541479691105
  0
LINE
  8
_0-d_寸法3
  6
CONTINUOUS
 62
    7
 10
220.88795956935243
 20
236.59615653402034
 11
223.4761500203777
 21
246.25541479691105
  0
LINE
  8
_0-d_寸法3
  6
CONTINUOUS
 62
    7
 10
220.88795956935158
 20
274.92948986735382
 11
220.88795956935243
 21
236.59615653402034
  0
TEXT
  8
_0-d_寸法3
 62
    7
 10
220.88795956935243
 20
248.26282320068731
 40
15
 41
1
 50
90
  1
23
  0
LINE
  8
_0-d_寸法3
  6
CONTINUOUS
 62
    7
 10
261.8379906479413
 20
321.59615653402045
 11
215.88795956935158
 21
321.59615653402034
  0
LINE
  8
_0-d_寸法3
  6
CONTINUOUS
 62
    7
 10
220.88795956935158
 20
321.59615653402034
 11
223.47615002037671
 21
311.93689827112962
  0
LINE
  8
_0-d_寸法3
  6
CONTINUOUS
 62
    7
 10
220.88795956935158
 20
321.59615653402034
 11
218.29976911832631
 21
311.93689827112968
  0
LINE
  8
_0-d_寸法3
  6
CONTINUOUS
 62
    7
 10
259.8379906479413
 20
274.92948986735388
 11
215.88795956935158
 21
274.92948986735382
  0
LINE
  8
_0-d_寸法3
  6
CONTINUOUS
 62
    7
 10
220.88795956935158
 20
274.92948986735382
 11
218.29976911832631
 21
284.58874813024454
  0
LINE
  8
_0-d_寸法3
  6
CONTINUOUS
 62
    7
 10
220.88795956935158
 20
274.92948986735382
 11
223.47615002037671
 21
284.58874813024454
  0
LINE
  8
_0-d_寸法3
  6
CONTINUOUS
 62
    7
 10
220.88795956935158
 20
321.59615653402034
 11
220.88795956935158
 21
274.92948986735382
  0
TEXT
  8
_0-d_寸法3
 62
    7
 10
220.88795956935158
 20
290.76282320068731
 40
15
 41
1
 50
90
  1
28
  0
LINE
  8
_0-a_極細3
  6
CONTINUOUS
 62
    7
 10
228.19792242745598
 20
224.81119102985716
 11
223.06762027757074
 21
238.90658034164562
  0
LINE
  8
_0-a_極細3
  6
CONTINUOUS
 62
    7
 10
278.19196510125221
 20
258.97020104089188
 11
283.32226725113696
 21
244.87481172910339
  0
LINE
  8
_0-a_極細3
  6
CONTINUOUS
 62
    7
 10
223.06762027757074
 20
238.90658034164562
 11
278.19196510125221
 21
258.97020104089188
  0
LINE
  8
_0-a_極細3
  6
CONTINUOUS
 62
    7
 10
228.19792242745598
 20
224.81119102985716
 11
283.32226725113696
 21
244.87481172910339
  0
LINE
  8
_0-a_極細3
  6
CENTER1
 62
    7
 10
220.67733796052067
 20
230.05525564572145
 11
284.70835844308658
 21
253.36064113075693
  0
LINE
  8
_0-a_極細3
  6
CONTINUOUS
 62
    7
 10
246.8379906479413
 20
199.92948986735342
 11
246.8379906479413
 21
244.0150512156697
  0
LINE
  8
_0-a_極細3
  6
CONTINUOUS
 62
    7
 10
246.8379906479413
 20
244.0150512156697
 11
231.8379906479413
 21
244.0150512156697
  0
LINE
  8
_0-a_極細3
  6
CONTINUOUS
 62
    7
 10
231.8379906479413
 20
244.0150512156697
 11
231.8379906479413
 21
199.92948986735342
  0
LINE
  8
_0-a_極細3
  6
CENTER1
 62
    7
 10
239.3379906479413
 20
191.65274958290098
 11
239.3379906479413
 21
248.29077138027927
  0
LINE
  8
_0-a_極細3
  6
CONTINUOUS
 62
    7
 10
665.47805886842571
 20
224.81119102985716
 11
670.60836101831103
 21
238.90658034164562
  0
LINE
  8
_0-a_極細3
  6
CONTINUOUS
 62
    7
 10
615.48401619462902
 20
258.97020104089188
 11
610.35371404474427
 21
244.87481172910339
  0
LINE
  8
_0-a_極細3
  6
CONTINUOUS
 62
    7
 10
670.60836101831103
 20
238.90658034164562
 11
615.48401619462902
 21
258.97020104089188
  0
LINE
  8
_0-a_極細3
  6
CONTINUOUS
 62
    7
 10
665.47805886842571
 20
224.81119102985716
 11
610.35371404474427
 21
244.87481172910339
  0
LINE
  8
_0-a_極細3
  6
CENTER1
 62
    7
 10
672.99864333536107
 20
230.05525564572145
 11
608.9676228527951
 21
253.36064113075693
  0
LINE
  8
_0-a_極細3
  6
CONTINUOUS
 62
    7
 10
646.83799064794039
 20
199.92948986735342
 11
646.83799064794039
 21
244.0150512156697
  0
LINE
  8
_0-a_極細3
  6
CONTINUOUS
 62
    7
 10
646.83799064794039
 20
244.0150512156697
 11
661.83799064794039
 21
244.0150512156697
  0
LINE
  8
_0-a_極細3
  6
CONTINUOUS
 62
    7
 10
661.83799064794039
 20
244.0150512156697
 11
661.83799064794039
 21
199.92948986735342
  0
LINE
  8
_0-a_極細3
  6
CENTER1
 62
    7
 10
654.33799064794039
 20
191.65274958290098
 11
654.33799064794039
 21
248.29077138027927
  0
TEXT
  8
_0-7_枠細線
 62
    5
 10
396.91594300870662
 20
138.26245819900848
 40
25
 41
0.8
 50
0
  1
断面詳細図
  0
TEXT
  8
_0-7_枠細線
 62
    5
 10
511.86491275787466
 20
138.26245819900848
 40
20
 41
0.6
 50
0
  1
Ｓ＝１：３
  0
TEXT
  8
_0-7_枠細線
 62
    5
 10
965.50000000000011
 20
110
 40
20
 41
0.6
 50
0
  1
ＧＲＳＪ－２５Ｗ２０１　ＳＥＴ
  0
LINE
  8
_0-7_枠細線
  6
CONTINUOUS
 62
    5
 10
1073.4764130630547
 20
286.58280415605634
 11
1373.4764130630549
 21
286.58280415605634
  0
LINE
  8
_0-7_枠細線
  6
CONTINUOUS
 62
    5
 10
1073.4764130630547
 20
311.58280415605634
 11
1373.4764130630549
 21
311.58280415605634
  0
LINE
  8
_0-7_枠細線
  6
CONTINUOUS
 62
    5
 10
1073.4764130630547
 20
336.58280415605634
 11
1373.4764130630549
 21
336.58280415605634
  0
LINE
  8
_0-7_枠細線
  6
CONTINUOUS
 62
    5
 10
1073.4764130630547
 20
361.5828041560564
 11
1373.4764130630549
 21
361.5828041560564
  0
LINE
  8
_0-7_枠細線
  6
CONTINUOUS
 62
    5
 10
1073.4764130630547
 20
386.58280415605634
 11
1373.4764130630549
 21
386.58280415605634
  0
LINE
  8
_0-7_枠細線
  6
CONTINUOUS
 62
    5
 10
1073.4764130630547
 20
411.58280415605617
 11
1373.4764130630549
 21
411.58280415605617
  0
LINE
  8
_0-7_枠細線
  6
CONTINUOUS
 62
    5
 10
1073.4764130630547
 20
436.58280415605617
 11
1373.4764130630549
 21
436.58280415605617
  0
TEXT
  8
_0-7_枠細線
 62
    5
 10
1162.2264130630547
 20
441.58280415605617
 40
17.5
 41
1
 50
0
  1
品番表
  0
TEXT
  8
_0-7_枠細線
 62
    5
 10
1304.4764130630549
 20
416.58280415605617
 40
15
 41
0.8000000000000001
 50
0
  1
備　　考
  0
TEXT
  8
_0-7_枠細線
 62
    5
 10
1211.4764130630551
 20
366.5828041560564
 40
15
 41
0.5999999999999999
 50
0
  1
ライトグレー
  0
TEXT
  8
_0-7_枠細線
 62
    5
 10
1220.4764130630551
 20
391.58280415605617
 40
15
 41
0.5999999999999999
 50
0
  1
ベージュ
  0
TEXT
  8
_0-7_枠細線
 62
    5
 10
1232.4764130630551
 20
416.58280415605617
 40
15
 41
0.8000000000000001
 50
0
  1
色
  0
TEXT
  8
_0-7_枠細線
 62
    5
 10
1109.4764130630549
 20
416.58280415605617
 40
15
 41
0.8000000000000001
 50
0
  1
品　　番
  0
LINE
  8
_0-7_枠細線
  6
CONTINUOUS
 62
    5
 10
1073.4764130630547
 20
211.58280415605614
 11
1373.4764130630549
 21
211.58280415605614
  0
LINE
  8
_0-7_枠細線
  6
CONTINUOUS
 62
    5
 10
1073.4764130630547
 20
236.58280415605634
 11
1373.4764130630549
 21
236.58280415605634
  0
LINE
  8
_0-7_枠細線
  6
CONTINUOUS
 62
    5
 10
1073.4764130630547
 20
261.5828041560564
 11
1373.4764130630549
 21
261.5828041560564
  0
TEXT
  8
_0-7_枠細線
 62
    5
 10
1220.4764130630556
 20
341.5828041560564
 40
15
 41
0.5999999999999999
 50
0
  1
ホワイト
  0
TEXT
  8
_0-7_枠細線
 62
    5
 10
1224.9764130630549
 20
316.58280415605634
 40
15
 41
0.5999999999999999
 50
0
  1
ピンク
  0
TEXT
  8
_0-7_枠細線
 62
    5
 10
1224.9764130630549
 20
291.58280415605634
 40
15
 41
0.5999999999999999
 50
0
  1
ブルー
  0
TEXT
  8
_0-7_枠細線
 62
    5
 10
1211.4764130630547
 20
266.58280415605634
 40
15
 41
0.5999999999999999
 50
0
  1
ダークグレー
  0
TEXT
  8
_0-7_枠細線
 62
    5
 10
1078.2264130630549
 20
391.58280415605617
 40
15
 41
0.5666666666666667
 50
0
  1
ＧＲＳＪ－２５Ｗ２０１－Ｂ
  0
TEXT
  8
_0-7_枠細線
 62
    5
 10
1078.2264130630551
 20
366.58280415605634
 40
15
 41
0.5666666666666667
 50
0
  1
ＧＲＳＪ－２５Ｗ２０１－Ｇ
  0
TEXT
  8
_0-7_枠細線
 62
    5
 10
1078.2264130630551
 20
341.5828041560564
 40
15
 41
0.5666666666666667
 50
0
  1
ＧＲＳＪ－２５Ｗ２０１－Ｓ
  0
TEXT
  8
_0-7_枠細線
 62
    5
 10
1078.2264130630551
 20
316.58280415605634
 40
15
 41
0.5666666666666667
 50
0
  1
ＧＲＳＪ－２５Ｗ２０１－Ｐ
  0
TEXT
  8
_0-7_枠細線
 62
    5
 10
1078.2264130630551
 20
291.58280415605634
 40
15
 41
0.5666666666666667
 50
0
  1
ＧＲＳＪ－２５Ｗ２０１－Ａ
  0
TEXT
  8
_0-7_枠細線
 62
    5
 10
1078.2264130630551
 20
266.58280415605634
 40
15
 41
0.5666666666666667
 50
0
  1
ＧＲＳＪ－２５Ｗ２０１－Ｄ
  0
TEXT
  8
_0-7_枠細線
 62
    5
 10
1078.2264130630551
 20
241.58280415605623
 40
15
 41
0.5666666666666667
 50
0
  1
ＧＲＳＪ－２５Ｗ２０１－Ｍ
  0
TEXT
  8
_0-7_枠細線
 62
    5
 10
1224.9764130630549
 20
241.58280415605623
 40
15
 41
0.5999999999999999
 50
0
  1
ウッド
  0
LINE
  8
_0-7_枠細線
  6
CONTINUOUS
 62
    5
 10
1073.4764130630547
 20
186.58280415605589
 11
1373.4764130630549
 21
186.58280415605589
  0
TEXT
  8
_0-7_枠細線
 62
    5
 10
1220.4764130630556
 20
191.58280415605603
 40
15
 41
0.5999999999999999
 50
0
  1
ブラック
  0
TEXT
  8
_0-7_枠細線
 62
    5
 10
1078.2264130630551
 20
191.58280415605603
 40
15
 41
0.5666666666666667
 50
0
  1
ＧＲＳＪ－２５Ｗ２０１－Ｋ
  0
LINE
  8
_0-7_枠細線
  6
CONTINUOUS
 62
    5
 10
1193.4764130630551
 20
436.58280415605617
 11
1193.4764130630551
 21
186.58280415605583
  0
LINE
  8
_0-7_枠細線
  6
CONTINUOUS
 62
    5
 10
1283.4764130630547
 20
436.58280415605617
 11
1283.4764130630547
 21
186.58280415605583
  0
LINE
  8
_0-7_枠細線
  6
CONTINUOUS
 62
    5
 10
1373.4764130630549
 20
436.58280415605617
 11
1373.4764130630549
 21
186.58280415605603
  0
LINE
  8
_0-7_枠細線
  6
CONTINUOUS
 62
    5
 10
1073.4764130630547
 20
436.58280415605617
 11
1073.4764130630547
 21
186.58280415605583
  0
TEXT
  8
_0-7_枠細線
 62
    5
 10
1078.2264130630549
 20
216.58280415605631
 40
15
 41
0.5666666666666667
 50
0
  1
ＧＲＳＪ－２５Ｗ２０１－Ｃ
  0
TEXT
  8
_0-7_枠細線
 62
    5
 10
1220.4764130630551
 20
216.58280415605631
 40
15
 41
0.5999999999999999
 50
0
  1
ブラウン
  0
LINE
  8
_0-7_枠細線
  6
CONTINUOUS
 62
    5
 10
1067.3640166614723
 20
216.73623777788603
 11
1059.8640166614723
 21
231.73623777788603
  0
LINE
  8
_0-7_枠細線
  6
CONTINUOUS
 62
    5
 10
1052.3640166614723
 20
216.73623777788603
 11
1067.3640166614723
 21
216.73623777788603
  0
LINE
  8
_0-7_枠細線
  6
CONTINUOUS
 62
    5
 10
1059.8640166614723
 20
231.73623777788603
 11
1052.3640166614723
 21
216.73623777788603
  0
TEXT
  8
_0-7_枠細線
 62
    5
 10
1054.7291679296204
 20
215.78741781303609
 40
12.5
 41
0.8
 50
0
  1
３
  0
LINE
  8
_0-d_寸法3
  6
CONTINUOUS
 62
    7
 10
892.44378588537279
 20
284.83810605534273
 11
892.44378588537279
 21
326.50477272200925
  0
LINE
  8
_0-d_寸法3
  6
CONTINUOUS
 62
    7
 10
892.44378588537279
 20
321.50477272200925
 11
902.10304414826339
 21
324.09296317303443
  0
LINE
  8
_0-d_寸法3
  6
CONTINUOUS
 62
    7
 10
892.44378588537279
 20
321.50477272200925
 11
902.10304414826339
 21
318.91658227098407
  0
LINE
  8
_0-d_寸法3
  6
CONTINUOUS
 62
    7
 10
921.44378588597579
 20
284.83810605534273
 11
921.44378588597579
 21
326.50477272200925
  0
LINE
  8
_0-d_寸法3
  6
CONTINUOUS
 62
    7
 10
921.44378588597579
 20
321.50477272200925
 11
911.78452762308495
 21
318.91658227098407
  0
LINE
  8
_0-d_寸法3
  6
CONTINUOUS
 62
    7
 10
921.44378588597579
 20
321.50477272200925
 11
911.78452762308495
 21
324.09296317303449
  0
LINE
  8
_0-d_寸法3
  6
CONTINUOUS
 62
    7
 10
892.44378588537279
 20
321.50477272200925
 11
921.44378588597579
 21
321.50477272200925
  0
TEXT
  8
_0-d_寸法3
 62
    7
 10
880.89760797573149
 20
306.50477272200925
 40
15
 41
1
 50
0
  1
(17.4)
  0
LINE
  8
_0-d_寸法3
  6
CONTINUOUS
 62
    7
 10
921.44378588597579
 20
321.50477272200925
 11
931.10304414886639
 21
324.09296317303438
  0
LINE
  8
_0-d_寸法3
  6
CONTINUOUS
 62
    7
 10
921.44378588597579
 20
321.50477272200925
 11
931.10304414886639
 21
318.91658227098401
  0
LINE
  8
_0-d_寸法3
  6
CONTINUOUS
 62
    7
 10
950.44378588657878
 20
284.83810605534273
 11
950.44378588657878
 21
326.50477272200925
  0
LINE
  8
_0-d_寸法3
  6
CONTINUOUS
 62
    7
 10
950.44378588657878
 20
321.50477272200925
 11
940.78452762368795
 21
318.91658227098407
  0
LINE
  8
_0-d_寸法3
  6
CONTINUOUS
 62
    7
 10
950.44378588657878
 20
321.50477272200925
 11
940.78452762368795
 21
324.09296317303449
  0
LINE
  8
_0-d_寸法3
  6
CONTINUOUS
 62
    7
 10
921.44378588597579
 20
321.50477272200925
 11
950.44378588657878
 21
321.50477272200925
  0
TEXT
  8
_0-d_寸法3
 62
    7
 10
917.96427464239798
 20
321.50477272200925
 40
15
 41
1
 50
0
  1
(17.4)
  0
LINE
  8
_0-d_寸法3
  6
CONTINUOUS
 62
    7
 10
843.94378588201084
 20
281.50477272200925
 11
843.94378588201084
 21
326.50477272200925
  0
LINE
  8
_0-d_寸法3
  6
CONTINUOUS
 62
    7
 10
843.94378588201084
 20
321.50477272200925
 11
834.28452761912013
 21
318.91658227098407
  0
LINE
  8
_0-d_寸法3
  6
CONTINUOUS
 62
    7
 10
843.94378588201084
 20
321.50477272200925
 11
834.28452761912013
 21
324.09296317303449
  0
LINE
  8
_0-d_寸法3
  6
CONTINUOUS
 62
    7
 10
853.94378588629229
 20
281.50477272200925
 11
853.94378588629229
 21
326.50477272200925
  0
LINE
  8
_0-d_寸法3
  6
CONTINUOUS
 62
    7
 10
819.56983019884387
 20
321.50477272200925
 11
853.94378588629229
 21
321.50477272200925
  0
TEXT
  8
_0-d_寸法3
 62
    7
 10
819.56983019884376
 20
306.50477272200925
 40
15
 41
1
 50
0
  1
(6)
  0
LINE
  8
_0-d_寸法3
  6
CONTINUOUS
 62
    7
 10
853.94378588629229
 20
321.50477272200925
 11
863.60304414918289
 21
324.09296317303443
  0
LINE
  8
_0-d_寸法3
  6
CONTINUOUS
 62
    7
 10
853.94378588629229
 20
321.50477272200925
 11
863.60304414918289
 21
318.91658227098407
  0
LINE
  8
_0-d_寸法3
  6
CONTINUOUS
 62
    7
 10
872.94378588261338
 20
281.50477272200925
 11
872.94378588261338
 21
326.50477272200925
  0
LINE
  8
_0-d_寸法3
  6
CONTINUOUS
 62
    7
 10
872.94378588261338
 20
321.50477272200925
 11
863.28452761972255
 21
318.91658227098407
  0
LINE
  8
_0-d_寸法3
  6
CONTINUOUS
 62
    7
 10
872.94378588261338
 20
321.50477272200925
 11
863.28452761972255
 21
324.09296317303449
  0
LINE
  8
_0-d_寸法3
  6
CONTINUOUS
 62
    7
 10
853.94378588629229
 20
321.50477272200925
 11
872.94378588261338
 21
321.50477272200925
  0
TEXT
  8
_0-d_寸法3
 62
    7
 10
844.67908945810279
 20
321.50477272200925
 40
15
 41
1
 50
0
  1
11.4
  0
ARC
  8
_0-a_極細3
  6
CONTINUOUS
 62
    7
 10
981.27318921110884
 20
263.32482356365773
 40
17.558839598481345
 50
150.03871396148165
 51
205.23810402387883
  0
ARC
  8
_0-a_極細3
  6
CONTINUOUS
 62
    7
 10
949.50771402121075
 20
248.35131435102707
 40
17.558839598481345
 50
330.03871396148202
 51
25.238104023878222
  0
ARC
  8
_0-a_極細3
  6
CONTINUOUS
 62
    7
 10
836.35337377277494
 20
263.32482356365773
 40
17.558839598481345
 50
150.03871396148165
 51
205.23810402387883
  0
ARC
  8
_0-a_極細3
  6
CONTINUOUS
 62
    7
 10
804.58789858287685
 20
248.35131435102707
 40
17.558839598481345
 50
330.03871396148202
 51
25.238104023878222
  0
LINE
  8
_0-a_極細3
  6
CENTER1
 62
    7
 10
971.24255287566871
 20
255.83806895734261
 11
808.66401024774291
 21
255.83806895734261
  0
ARC
  8
_0-b_細線3
  6
CONTINUOUS
 62
    7
 10
884.61045255387876
 20
271.50477272200925
 40
1.666666666666667
 50
89.999999999999915
 51
179.99999999999983
  0
ARC
  8
_0-b_細線3
  6
CONTINUOUS
 62
    7
 10
885.39036787275768
 20
274.83810605534273
 40
1.666666666666667
 50
269.99999999999977
 51
330.00000000000301
  0
ARC
  8
_0-b_細線3
  6
CONTINUOUS
 62
    7
 10
888.27711921870571
 20
273.17143938867622
 40
1.666666666666667
 50
89.999999999999915
 51
150.00000000000134
  0
LINE
  8
_0-b_細線3
  6
CONTINUOUS
 62
    7
 10
884.61045255387876
 20
273.17143938867622
 11
885.39036787275768
 21
273.17143938867622
  0
ARC
  8
_0-b_細線3
  6
CONTINUOUS
 62
    7
 10
900.27711921686671
 20
271.50477272200925
 40
1.666666666666667
 50
0
 51
89.999999999999915
  0
ARC
  8
_0-b_細線3
  6
CONTINUOUS
 62
    7
 10
899.49720389798745
 20
274.83810605534273
 40
1.666666666666667
 50
210.00000000000404
 51
269.99999999999977
  0
ARC
  8
_0-b_細線3
  6
CONTINUOUS
 62
    7
 10
896.61045255203931
 20
273.17143938867622
 40
1.666666666666667
 50
29.999999999990862
 51
89.999999999984354
  0
LINE
  8
_0-b_細線3
  6
CONTINUOUS
 62
    7
 10
900.27711921686671
 20
273.17143938867622
 11
899.49720389798745
 21
273.17143938867622
  0
ARC
  8
_0-b_細線3
  6
CONTINUOUS
 62
    7
 10
883.77711922054516
 20
269.17143938867628
 40
0.8333333333333334
 50
179.99999999999983
 51
269.99999999999977
  0
LINE
  8
_0-b_細線3
  6
CONTINUOUS
 62
    7
 10
882.94378588721179
 20
271.50477272200925
 11
882.94378588721179
 21
269.17143938867628
  0
ARC
  8
_0-b_細線3
  6
CONTINUOUS
 62
    7
 10
901.11045255019974
 20
269.17143938867628
 40
0.8333333333333334
 50
269.99999999999977
 51
359.99999999999966
  0
LINE
  8
_0-b_細線3
  6
CONTINUOUS
 62
    7
 10
901.94378588353334
 20
271.50477272200925
 11
901.94378588353334
 21
269.17143938867628
  0
ARC
  8
_0-b_細線3
  6
CONTINUOUS
 62
    7
 10
887.94378588721179
 20
266.67143938867628
 40
1.666666666666667
 50
0
 51
89.999999999999915
  0
LINE
  8
_0-b_細線3
  6
CONTINUOUS
 62
    7
 10
887.94378588721179
 20
268.33810605534273
 11
883.77711922054516
 21
268.33810605534273
  0
ARC
  8
_0-b_細線3
  6
CONTINUOUS
 62
    7
 10
896.94378588721224
 20
266.67143938867628
 40
1.666666666666667
 50
89.999999999999915
 51
179.99999999999983
  0
LINE
  8
_0-b_細線3
  6
CONTINUOUS
 62
    7
 10
896.94378588353334
 20
268.33810605534273
 11
901.11045255019974
 21
268.33810605534273
  0
LINE
  8
_0-b_細線3
  6
CONTINUOUS
 62
    7
 10
896.61045255203931
 20
274.83810605534273
 11
888.27711921870571
 21
274.83810605534273
  0
LINE
  8
_0-b_細線3
  6
CONTINUOUS
 62
    7
 10
889.61045255203931
 20
233.17143938867622
 11
889.61045255387876
 21
266.67143938867628
  0
LINE
  8
_0-b_細線3
  6
CONTINUOUS
 62
    7
 10
895.27711921870582
 20
233.17143938867622
 11
895.27711922054561
 21
266.67143938867628
  0
LINE
  8
_0-b_細線3
  6
CONTINUOUS
 62
    7
 10
895.27711921870582
 20
233.17143938867622
 11
889.61045255203931
 21
233.17143938867622
  0
ARC
  8
_0-b_細線3
  6
CONTINUOUS
 62
    7
 10
913.61045255448175
 20
271.50477272200925
 40
1.666666666666667
 50
89.999999999999915
 51
179.99999999999983
  0
ARC
  8
_0-b_細線3
  6
CONTINUOUS
 62
    7
 10
914.39036787336067
 20
274.83810605534273
 40
1.666666666666667
 50
269.99999999999977
 51
329.99999999999523
  0
ARC
  8
_0-b_細線3
  6
CONTINUOUS
 62
    7
 10
917.27711921930882
 20
273.17143938867622
 40
1.666666666666667
 50
89.999999999999915
 51
150.00000000000915
  0
LINE
  8
_0-b_細線3
  6
CONTINUOUS
 62
    7
 10
913.61045255448175
 20
273.17143938867622
 11
914.39036787336067
 21
273.17143938867622
  0
ARC
  8
_0-b_細線3
  6
CONTINUOUS
 62
    7
 10
929.27711921746982
 20
271.50477272200925
 40
1.666666666666667
 50
0
 51
89.999999999999915
  0
ARC
  8
_0-b_細線3
  6
CONTINUOUS
 62
    7
 10
928.49720389859044
 20
274.83810605534273
 40
1.666666666666667
 50
209.99999999999622
 51
269.99999999999977
  0
ARC
  8
_0-b_細線3
  6
CONTINUOUS
 62
    7
 10
925.61045255264219
 20
273.17143938867622
 40
1.666666666666667
 50
29.999999999998682
 51
89.999999999999915
  0
LINE
  8
_0-b_細線3
  6
CONTINUOUS
 62
    7
 10
929.27711921746982
 20
273.17143938867622
 11
928.49720389859044
 21
273.17143938867622
  0
ARC
  8
_0-b_細線3
  6
CONTINUOUS
 62
    7
 10
912.77711922114861
 20
269.17143938867628
 40
0.8333333333333334
 50
179.99999999999983
 51
269.99999999999977
  0
LINE
  8
_0-b_細線3
  6
CONTINUOUS
 62
    7
 10
911.94378588781478
 20
271.50477272200925
 11
911.94378588781478
 21
269.17143938867628
  0
ARC
  8
_0-b_細線3
  6
CONTINUOUS
 62
    7
 10
930.11045255080273
 20
269.17143938867628
 40
0.8333333333333334
 50
269.99999999999977
 51
359.99999999999966
  0
LINE
  8
_0-b_細線3
  6
CONTINUOUS
 62
    7
 10
930.94378588413633
 20
271.50477272200925
 11
930.94378588413633
 21
269.17143938867628
  0
ARC
  8
_0-b_細線3
  6
CONTINUOUS
 62
    7
 10
916.94378588781478
 20
266.67143938867628
 40
1.666666666666667
 50
0
 51
89.999999999999915
  0
LINE
  8
_0-b_細線3
  6
CONTINUOUS
 62
    7
 10
916.94378588781478
 20
268.33810605534273
 11
912.77711922114861
 21
268.33810605534273
  0
ARC
  8
_0-b_細線3
  6
CONTINUOUS
 62
    7
 10
925.94378588781524
 20
266.67143938867628
 40
1.666666666666667
 50
89.999999999999915
 51
179.99999999999983
  0
LINE
  8
_0-b_細線3
  6
CONTINUOUS
 62
    7
 10
925.94378588413633
 20
268.33810605534273
 11
930.11045255080273
 21
268.33810605534273
  0
LINE
  8
_0-b_細線3
  6
CONTINUOUS
 62
    7
 10
925.61045255264219
 20
274.83810605534273
 11
917.27711921930882
 21
274.83810605534273
  0
LINE
  8
_0-b_細線3
  6
CONTINUOUS
 62
    7
 10
918.6104525526423
 20
233.17143938867622
 11
918.61045255448175
 21
266.67143938867628
  0
LINE
  8
_0-b_細線3
  6
CONTINUOUS
 62
    7
 10
924.27711921930882
 20
233.17143938867622
 11
924.27711922114872
 21
266.67143938867628
  0
LINE
  8
_0-b_細線3
  6
CONTINUOUS
 62
    7
 10
924.27711921930882
 20
233.17143938867622
 11
918.6104525526423
 21
233.17143938867622
  0
ARC
  8
_0-b_細線3
  6
CONTINUOUS
 62
    7
 10
942.61045255508463
 20
271.50477272200925
 40
1.666666666666667
 50
89.999999999999915
 51
179.99999999999983
  0
ARC
  8
_0-b_細線3
  6
CONTINUOUS
 62
    7
 10
943.39036787396367
 20
274.83810605534273
 40
1.666666666666667
 50
269.99999999999977
 51
329.99999999999523
  0
ARC
  8
_0-b_細線3
  6
CONTINUOUS
 62
    7
 10
946.27711921991181
 20
273.17143938867622
 40
1.666666666666667
 50
89.999999999999915
 51
150.00000000000915
  0
LINE
  8
_0-b_細線3
  6
CONTINUOUS
 62
    7
 10
942.61045255508463
 20
273.17143938867622
 11
943.39036787396367
 21
273.17143938867622
  0
ARC
  8
_0-b_細線3
  6
CONTINUOUS
 62
    7
 10
958.27711921807281
 20
271.50477272200925
 40
1.666666666666667
 50
0
 51
89.999999999999915
  0
ARC
  8
_0-b_細線3
  6
CONTINUOUS
 62
    7
 10
957.49720389919332
 20
274.83810605534273
 40
1.666666666666667
 50
210.00000000000404
 51
269.99999999999977
  0
ARC
  8
_0-b_細線3
  6
CONTINUOUS
 62
    7
 10
954.61045255324518
 20
273.17143938867622
 40
1.666666666666667
 50
29.999999999990862
 51
89.999999999984354
  0
LINE
  8
_0-b_細線3
  6
CONTINUOUS
 62
    7
 10
958.27711921807281
 20
273.17143938867622
 11
957.49720389919332
 21
273.17143938867622
  0
ARC
  8
_0-b_細線3
  6
CONTINUOUS
 62
    7
 10
941.77711922175126
 20
269.17143938867628
 40
0.8333333333333334
 50
179.99999999999983
 51
269.99999999999977
  0
LINE
  8
_0-b_細線3
  6
CONTINUOUS
 62
    7
 10
940.94378588841778
 20
271.50477272200925
 11
940.94378588841778
 21
269.17143938867628
  0
ARC
  8
_0-b_細線3
  6
CONTINUOUS
 62
    7
 10
959.11045255140584
 20
269.17143938867628
 40
0.8333333333333334
 50
269.99999999999977
 51
359.99999999999966
  0
LINE
  8
_0-b_細線3
  6
CONTINUOUS
 62
    7
 10
959.94378588473921
 20
271.50477272200925
 11
959.94378588473921
 21
269.17143938867628
  0
ARC
  8
_0-b_細線3
  6
CONTINUOUS
 62
    7
 10
945.94378588841778
 20
266.67143938867628
 40
1.666666666666667
 50
0
 51
89.999999999999915
  0
LINE
  8
_0-b_細線3
  6
CONTINUOUS
 62
    7
 10
945.94378588841778
 20
268.33810605534273
 11
941.77711922175126
 21
268.33810605534273
  0
ARC
  8
_0-b_細線3
  6
CONTINUOUS
 62
    7
 10
954.94378588841766
 20
266.67143938867628
 40
1.666666666666667
 50
89.999999999999915
 51
179.99999999999983
  0
LINE
  8
_0-b_細線3
  6
CONTINUOUS
 62
    7
 10
954.94378588473876
 20
268.33810605534273
 11
959.11045255140584
 21
268.33810605534273
  0
LINE
  8
_0-b_細線3
  6
CONTINUOUS
 62
    7
 10
954.61045255324518
 20
274.83810605534273
 11
946.27711921991181
 21
274.83810605534273
  0
LINE
  8
_0-b_細線3
  6
CONTINUOUS
 62
    7
 10
947.61045255324518
 20
233.17143938867622
 11
947.61045255508463
 21
266.67143938867628
  0
LINE
  8
_0-b_細線3
  6
CONTINUOUS
 62
    7
 10
953.27711921991181
 20
233.17143938867622
 11
953.27711922175172
 21
266.67143938867628
  0
LINE
  8
_0-b_細線3
  6
CONTINUOUS
 62
    7
 10
953.27711921991181
 20
233.17143938867622
 11
947.61045255324518
 21
233.17143938867622
  0
ARC
  8
_0-b_細線3
  6
CONTINUOUS
 62
    7
 10
826.61045255235581
 20
271.50477272200925
 40
1.666666666666667
 50
89.999999999999915
 51
179.99999999999983
  0
ARC
  8
_0-b_細線3
  6
CONTINUOUS
 62
    7
 10
827.39036787123473
 20
274.83810605534273
 40
1.666666666666667
 50
269.99999999999977
 51
330.00000000000301
  0
ARC
  8
_0-b_細線3
  6
CONTINUOUS
 62
    7
 10
830.27711921718276
 20
273.17143938867622
 40
1.666666666666667
 50
89.999999999999915
 51
150.00000000000134
  0
LINE
  8
_0-b_細線3
  6
CONTINUOUS
 62
    7
 10
826.61045255235581
 20
273.17143938867622
 11
827.39036787123473
 21
273.17143938867622
  0
ARC
  8
_0-b_細線3
  6
CONTINUOUS
 62
    7
 10
842.27711921534376
 20
271.50477272200925
 40
1.666666666666667
 50
0
 51
89.999999999999915
  0
ARC
  8
_0-b_細線3
  6
CONTINUOUS
 62
    7
 10
841.49720389646495
 20
274.83810605534273
 40
1.666666666666667
 50
209.99999999999622
 51
269.99999999999977
  0
ARC
  8
_0-b_細線3
  6
CONTINUOUS
 62
    7
 10
838.61045255051636
 20
273.17143938867622
 40
1.666666666666667
 50
29.999999999990862
 51
89.999999999984354
  0
LINE
  8
_0-b_細線3
  6
CONTINUOUS
 62
    7
 10
842.27711921534376
 20
273.17143938867622
 11
841.49720389646495
 21
273.17143938867622
  0
ARC
  8
_0-b_細線3
  6
CONTINUOUS
 62
    7
 10
825.77711921902278
 20
269.17143938867628
 40
0.8333333333333334
 50
179.99999999999983
 51
269.99999999999977
  0
LINE
  8
_0-b_細線3
  6
CONTINUOUS
 62
    7
 10
824.94378588568884
 20
271.50477272200925
 11
824.94378588568884
 21
269.17143938867628
  0
ARC
  8
_0-b_細線3
  6
CONTINUOUS
 62
    7
 10
843.11045254867679
 20
269.17143938867628
 40
0.8333333333333334
 50
269.99999999999977
 51
359.99999999999966
  0
LINE
  8
_0-b_細線3
  6
CONTINUOUS
 62
    7
 10
843.94378588201084
 20
271.50477272200925
 11
843.94378588201084
 21
269.17143938867628
  0
ARC
  8
_0-b_細線3
  6
CONTINUOUS
 62
    7
 10
829.94378588568884
 20
266.67143938867628
 40
1.666666666666667
 50
0
 51
89.999999999999915
  0
LINE
  8
_0-b_細線3
  6
CONTINUOUS
 62
    7
 10
829.94378588568884
 20
268.33810605534273
 11
825.77711921902278
 21
268.33810605534273
  0
ARC
  8
_0-b_細線3
  6
CONTINUOUS
 62
    7
 10
838.94378588568929
 20
266.67143938867628
 40
1.666666666666667
 50
89.999999999999915
 51
179.99999999999983
  0
LINE
  8
_0-b_細線3
  6
CONTINUOUS
 62
    7
 10
838.94378588201039
 20
268.33810605534273
 11
843.11045254867679
 21
268.33810605534273
  0
LINE
  8
_0-b_細線3
  6
CONTINUOUS
 62
    7
 10
838.61045255051636
 20
274.83810605534273
 11
830.27711921718276
 21
274.83810605534273
  0
LINE
  8
_0-b_細線3
  6
CONTINUOUS
 62
    7
 10
831.61045255051681
 20
233.17143938867622
 11
831.61045255235581
 21
266.67143938867628
  0
LINE
  8
_0-b_細線3
  6
CONTINUOUS
 62
    7
 10
837.27711921718287
 20
233.17143938867622
 11
837.27711921902267
 21
266.67143938867628
  0
LINE
  8
_0-b_細線3
  6
CONTINUOUS
 62
    7
 10
837.27711921718287
 20
233.17143938867622
 11
831.61045255051681
 21
233.17143938867622
  0
ARC
  8
_0-b_細線3
  6
CONTINUOUS
 62
    7
 10
855.6104525529588
 20
271.50477272200925
 40
1.666666666666667
 50
89.999999999999915
 51
179.99999999999983
  0
ARC
  8
_0-b_細線3
  6
CONTINUOUS
 62
    7
 10
856.39036787183818
 20
274.83810605534273
 40
1.666666666666667
 50
269.99999999999977
 51
329.99999999998744
  0
ARC
  8
_0-b_細線3
  6
CONTINUOUS
 62
    7
 10
859.27711921778587
 20
273.17143938867622
 40
1.666666666666667
 50
89.999999999999915
 51
150.00000000000915
  0
LINE
  8
_0-b_細線3
  6
CONTINUOUS
 62
    7
 10
855.6104525529588
 20
273.17143938867622
 11
856.39036787183818
 21
273.17143938867622
  0
ARC
  8
_0-b_細線3
  6
CONTINUOUS
 62
    7
 10
871.27711921594687
 20
271.50477272200925
 40
1.666666666666667
 50
0
 51
89.999999999999915
  0
ARC
  8
_0-b_細線3
  6
CONTINUOUS
 62
    7
 10
870.49720389706749
 20
274.83810605534273
 40
1.666666666666667
 50
210.00000000000404
 51
269.99999999999977
  0
ARC
  8
_0-b_細線3
  6
CONTINUOUS
 62
    7
 10
867.61045255111981
 20
273.17143938867622
 40
1.666666666666667
 50
29.999999999998682
 51
89.999999999999915
  0
LINE
  8
_0-b_細線3
  6
CONTINUOUS
 62
    7
 10
871.27711921594687
 20
273.17143938867622
 11
870.49720389706749
 21
273.17143938867622
  0
ARC
  8
_0-b_細線3
  6
CONTINUOUS
 62
    7
 10
854.77711921962566
 20
269.17143938867628
 40
0.8333333333333334
 50
179.99999999999983
 51
269.99999999999977
  0
LINE
  8
_0-b_細線3
  6
CONTINUOUS
 62
    7
 10
853.94378588629229
 20
271.50477272200925
 11
853.94378588629229
 21
269.17143938867628
  0
ARC
  8
_0-b_細線3
  6
CONTINUOUS
 62
    7
 10
872.11045254927978
 20
269.17143938867628
 40
0.8333333333333334
 50
269.99999999999977
 51
359.99999999999966
  0
LINE
  8
_0-b_細線3
  6
CONTINUOUS
 62
    7
 10
872.94378588261338
 20
271.50477272200925
 11
872.94378588261338
 21
269.17143938867628
  0
ARC
  8
_0-b_細線3
  6
CONTINUOUS
 62
    7
 10
858.94378588629229
 20
266.67143938867628
 40
1.666666666666667
 50
0
 51
89.999999999999915
  0
LINE
  8
_0-b_細線3
  6
CONTINUOUS
 62
    7
 10
858.94378588629229
 20
268.33810605534273
 11
854.77711921962566
 21
268.33810605534273
  0
ARC
  8
_0-b_細線3
  6
CONTINUOUS
 62
    7
 10
867.94378588629229
 20
266.67143938867628
 40
1.666666666666667
 50
89.999999999999915
 51
179.99999999999983
  0
LINE
  8
_0-b_細線3
  6
CONTINUOUS
 62
    7
 10
867.94378588261338
 20
268.33810605534273
 11
872.11045254927978
 21
268.33810605534273
  0
LINE
  8
_0-b_細線3
  6
CONTINUOUS
 62
    7
 10
867.61045255111981
 20
274.83810605534273
 11
859.27711921778587
 21
274.83810605534273
  0
LINE
  8
_0-b_細線3
  6
CONTINUOUS
 62
    7
 10
860.61045255111935
 20
233.17143938867622
 11
860.6104525529588
 21
266.67143938867628
  0
LINE
  8
_0-b_細線3
  6
CONTINUOUS
 62
    7
 10
866.27711921778632
 20
233.17143938867622
 11
866.27711921962577
 21
266.67143938867628
  0
LINE
  8
_0-b_細線3
  6
CONTINUOUS
 62
    7
 10
866.27711921778632
 20
233.17143938867622
 11
860.61045255111935
 21
233.17143938867622
  0
LINE
  8
_0-d_寸法3
  6
CONTINUOUS
 62
    7
 10
958.63530632978473
 20
238.90720375218672
 11
993.98764805547012
 21
263.66117992187748
  0
LINE
  8
_0-d_寸法3
  6
CONTINUOUS
 62
    7
 10
989.89188783402528
 20
260.79329774012223
 11
987.30369738299999
 21
270.45255600301289
  0
LINE
  8
_0-d_寸法3
  6
CONTINUOUS
 62
    7
 10
989.89188783402528
 20
260.79329774012223
 11
992.48007828505035
 21
270.45255600301289
  0
LINE
  8
_0-d_寸法3
  6
CONTINUOUS
 62
    7
 10
958.63530632978473
 20
280.57387041885323
 11
993.98764805547012
 21
305.32784658854399
  0
LINE
  8
_0-d_寸法3
  6
CONTINUOUS
 62
    7
 10
989.89188783402528
 20
302.45996440678874
 11
992.48007828505035
 21
292.80070614389803
  0
LINE
  8
_0-d_寸法3
  6
CONTINUOUS
 62
    7
 10
989.89188783402528
 20
302.45996440678874
 11
987.30369738299999
 21
292.80070614389808
  0
LINE
  8
_0-d_寸法3
  6
CONTINUOUS
 62
    7
 10
989.89188783402528
 20
260.79329774012223
 11
989.89188783402528
 21
302.45996440678874
  0
TEXT
  8
_0-d_寸法3
 62
    7
 10
989.89188783402528
 20
274.12663107345668
 40
15
 41
1
 50
90
  1
25
  0
LINE
  8
_0-b_細線3
  6
CONTINUOUS
 62
    7
 10
895.27711921962577
 20
245.00473562400938
 11
918.61045255295926
 21
245.00473562400938
  0
LINE
  8
_0-b_細線3
  6
CONTINUOUS
 62
    7
 10
924.27711922022866
 20
245.00473562400938
 11
947.61045255356225
 21
245.00473562400938
  0
LINE
  8
_0-b_細線3
  6
CONTINUOUS
 62
    7
 10
837.27711921810283
 20
245.00473562400938
 11
860.61045255143631
 21
245.00473562400938
  0
LINE
  8
_0-b_細線3
  6
CONTINUOUS
 62
    7
 10
866.27711921870628
 20
245.00473562400938
 11
889.61045255203931
 21
245.00473562400938
  0
LINE
  8
_0-b_細線3
  6
CONTINUOUS
 62
    7
 10
895.27711921962577
 20
266.67140229067616
 11
918.61045255295926
 21
266.67140229067616
  0
LINE
  8
_0-b_細線3
  6
CONTINUOUS
 62
    7
 10
924.27711922022866
 20
266.67140229067616
 11
947.61045255356225
 21
266.67140229067616
  0
LINE
  8
_0-b_細線3
  6
CONTINUOUS
 62
    7
 10
837.27711921810283
 20
266.67140229067616
 11
860.61045255143631
 21
266.67140229067616
  0
LINE
  8
_0-b_細線3
  6
CONTINUOUS
 62
    7
 10
866.27711921870628
 20
266.67140229067616
 11
889.61045255203931
 21
266.67140229067616
  0
LINE
  8
_0-b_細線3
  6
CONTINUOUS
 62
    7
 10
953.27711922083165
 20
266.67140229067616
 11
964.03621561163175
 21
266.67140229067616
  0
LINE
  8
_0-b_細線3
  6
CONTINUOUS
 62
    7
 10
953.27711922083165
 20
245.00473562400938
 11
966.74468762068784
 21
245.00473562400938
  0
LINE
  8
_0-b_細線3
  6
CONTINUOUS
 62
    7
 10
819.11640017329785
 20
266.67140229067616
 11
831.6104525508332
 21
266.67140229067616
  0
LINE
  8
_0-b_細線3
  6
CONTINUOUS
 62
    7
 10
821.82487218235394
 20
245.00473562400938
 11
831.6104525508332
 21
245.00473562400938
  0
TEXT
  8
_0-7_枠細線
 62
    5
 10
846.95974537681207
 20
191.07509383924366
 40
25
 41
0.8
 50
0
  1
側面詳細図
  0
TEXT
  8
_0-7_枠細線
 62
    5
 10
961.90871512598028
 20
191.07509383924366
 40
20
 41
0.6
 50
0
  1
Ｓ＝１：３
  0
LINE
  8
_0-7_枠細線
  6
CONTINUOUS
 62
    5
 10
785.16995454985135
 20
356.80454176804568
 11
785.16995454985135
 21
436.80454176804568
  0
TEXT
  8
_0-7_枠細線
 62
    5
 10
807.66995454985135
 20
414.30454176804568
 40
15
 41
1
 50
0
  1
耐荷重
  0
TEXT
  8
_0-7_枠細線
 62
    5
 10
800.16995454985135
 20
384.30454176804568
 40
15
 41
1
 50
0
  1
3.5kN/㎡
  0
TEXT
  8
_0-7_枠細線
 62
    5
 10
792.66995454985135
 20
364.30454176804568
 40
15
 41
1
 50
0
  1
（歩道用）
  0
LINE
  8
_0-7_枠細線
  6
CONTINUOUS
 62
    5
 10
875.16995454985135
 20
356.80454176804568
 11
875.16995454985135
 21
436.80454176804568
  0
TEXT
  8
_0-7_枠細線
 62
    5
 10
897.66995454985135
 20
414.30454176804568
 40
15
 41
1
 50
0
  1
蓋重量
  0
LINE
  8
_0-7_枠細線
  6
CONTINUOUS
 62
    5
 10
965.16995454985135
 20
356.80454176804568
 11
965.16995454985135
 21
436.80454176804568
  0
TEXT
  8
_0-7_枠細線
 62
    5
 10
987.66995454985135
 20
414.30454176804568
 40
15
 41
1
 50
0
  1
枠重量
  0
LINE
  8
_0-7_枠細線
  6
CONTINUOUS
 62
    5
 10
785.16995454985135
 20
406.80454176804568
 11
1055.1699545498514
 21
406.80454176804568
  0
LINE
  8
_0-7_枠細線
  6
CONTINUOUS
 62
    5
 10
785.16995454985135
 20
436.80454176804568
 11
1055.1699545498514
 21
436.80454176804568
  0
LINE
  8
_0-7_枠細線
  6
CONTINUOUS
 62
    5
 10
785.16995454985135
 20
356.80454176804568
 11
1055.1699545498514
 21
356.80454176804568
  0
LINE
  8
_0-7_枠細線
  6
CONTINUOUS
 62
    5
 10
1055.1699545498514
 20
356.80454176804568
 11
1055.1699545498514
 21
436.80454176804568
  0
TEXT
  8
_0-7_枠細線
 62
    5
 10
980.16995454985135
 20
375.55454176804568
 40
15
 41
0.8000000000000001
 50
0
  1
2.6kg/ｍ組
  0
TEXT
  8
_0-7_枠細線
 62
    5
 10
896.16995454985044
 20
375.55454176804568
 40
15
 41
0.8000000000000001
 50
0
  1
2.5kg/枚
  0
LINE
  8
_0-0_計極細
  6
CENTER2
 62
    2
 10
214.27468171297448
 20
638.30496083551088
 11
1245.2080150463516
 21
638.30496083551088
  0
ARC
  8
_0-0_計極細
  6
CONTINUOUS
 62
    2
 10
217.10950240667799
 20
735.80496083550997
 40
11.295514677412786
 50
138.39585046827571
 51
221.60414953172395
  0
ARC
  8
_0-0_計極細
  6
CONTINUOUS
 62
    2
 10
200.21706009330762
 20
720.80496083550872
 40
11.295514677412786
 50
318.39585046827381
 51
41.604149531723962
  0
ARC
  8
_0-0_計極細
  6
CONTINUOUS
 62
    2
 10
217.10950240667799
 20
555.80496083550997
 40
11.295514677412786
 50
138.39585046827571
 51
221.60414953172395
  0
ARC
  8
_0-0_計極細
  6
CONTINUOUS
 62
    2
 10
200.21706009330762
 20
540.80496083550861
 40
11.295514677412786
 50
318.39585046827534
 51
41.604149531723962
  0
LINE
  8
_0-1_計細線
  6
CONTINUOUS
 62
    3
 10
208.66328124999185
 20
743.30496083550997
 11
1250.6632812499934
 21
743.30496083550997
  0
LINE
  8
_0-1_計細線
  6
CONTINUOUS
 62
    3
 10
1250.6632812499934
 20
533.30496083551134
 11
208.66328124999234
 21
533.30496083551134
  0
ARC
  8
_0-0_計極細
  6
CONTINUOUS
 62
    2
 10
1259.109502406679
 20
735.80496083550997
 40
11.295514677412786
 50
138.39585046827415
 51
221.60414953172548
  0
ARC
  8
_0-0_計極細
  6
CONTINUOUS
 62
    2
 10
1242.2170600933086
 20
720.80496083550872
 40
11.295514677412786
 50
318.39585046827381
 51
41.60414953172549
  0
ARC
  8
_0-0_計極細
  6
CONTINUOUS
 62
    2
 10
1259.109502406679
 20
555.80496083550997
 40
11.295514677412786
 50
138.39585046827415
 51
221.60414953172548
  0
ARC
  8
_0-0_計極細
  6
CONTINUOUS
 62
    2
 10
1242.2170600933086
 20
540.80496083550861
 40
11.295514677412786
 50
318.39585046827381
 51
41.60414953172549
  0
LINE
  8
_0-1_計細線
  6
CONTINUOUS
 62
    3
 10
206.74906555161982
 20
740.30496083550997
 11
1248.7490655516208
 21
740.30496083550997
  0
LINE
  8
_0-1_計細線
  6
CONTINUOUS
 62
    3
 10
1252.5774969483682
 20
536.30496083551134
 11
210.57749694836815
 21
536.30496083551134
  0
LINE
  8
_0-5_寸法線
  6
CONTINUOUS
 62
    7
 10
198.66328124999185
 20
743.30496083550997
 11
153.66328124999688
 21
743.30496083550997
  0
LINE
  8
_0-5_寸法線
  6
CONTINUOUS
 62
    7
 10
158.66328124999688
 20
743.30496083550997
 11
161.2514717010221
 21
733.64570257261926
  0
LINE
  8
_0-5_寸法線
  6
CONTINUOUS
 62
    7
 10
158.66328124999688
 20
743.30496083550997
 11
156.07509079897164
 21
733.64570257261926
  0
LINE
  8
_0-5_寸法線
  6
CONTINUOUS
 62
    7
 10
198.66328124999461
 20
713.30496083550997
 11
153.66328124999734
 21
713.30496083550997
  0
LINE
  8
_0-5_寸法線
  6
CONTINUOUS
 62
    7
 10
158.66328124999734
 20
713.30496083550997
 11
156.07509079897213
 21
722.9642190984008
  0
LINE
  8
_0-5_寸法線
  6
CONTINUOUS
 62
    7
 10
158.66328124999734
 20
713.30496083550997
 11
161.25147170102252
 21
722.9642190984008
  0
LINE
  8
_0-5_寸法線
  6
CONTINUOUS
 62
    7
 10
158.66328124999688
 20
743.30496083550997
 11
158.66328124999734
 21
713.30496083550997
  0
TEXT
  8
_0-5_寸法線
 62
    7
 10
158.66328124999688
 20
720.80496083550997
 40
15
 41
1
 50
90
  1
30
  0
LINE
  8
_0-5_寸法線
  6
CONTINUOUS
 62
    7
 10
158.66328124999734
 20
713.30496083550997
 11
161.25147170102252
 21
703.64570257261926
  0
LINE
  8
_0-5_寸法線
  6
CONTINUOUS
 62
    7
 10
158.66328124999734
 20
713.30496083550997
 11
156.07509079897213
 21
703.64570257261926
  0
LINE
  8
_0-5_寸法線
  6
CONTINUOUS
 62
    7
 10
198.66328124999234
 20
563.30496083551043
 11
153.66328124999734
 21
563.30496083551043
  0
LINE
  8
_0-5_寸法線
  6
CONTINUOUS
 62
    7
 10
158.66328124999734
 20
563.30496083551043
 11
156.07509079897213
 21
572.96421909840114
  0
LINE
  8
_0-5_寸法線
  6
CONTINUOUS
 62
    7
 10
158.66328124999734
 20
563.30496083551043
 11
161.25147170102252
 21
572.96421909840114
  0
LINE
  8
_0-5_寸法線
  6
CONTINUOUS
 62
    7
 10
158.66328124999734
 20
713.30496083550997
 11
158.66328124999734
 21
563.30496083551043
  0
TEXT
  8
_0-5_寸法線
 62
    7
 10
158.66328124999734
 20
627.05496083551043
 40
15
 41
1
 50
89.999999999999815
  1
150
  0
LINE
  8
_0-5_寸法線
  6
CONTINUOUS
 62
    7
 10
158.66328124999734
 20
563.30496083551043
 11
161.25147170102252
 21
553.64570257261971
  0
LINE
  8
_0-5_寸法線
  6
CONTINUOUS
 62
    7
 10
158.66328124999734
 20
563.30496083551043
 11
156.07509079897213
 21
553.64570257261971
  0
LINE
  8
_0-5_寸法線
  6
CONTINUOUS
 62
    7
 10
198.6632812499974
 20
533.30496083551316
 11
153.66328124999734
 21
533.30496083551316
  0
LINE
  8
_0-5_寸法線
  6
CONTINUOUS
 62
    7
 10
158.66328124999734
 20
533.30496083551316
 11
156.07509079897213
 21
542.96421909840387
  0
LINE
  8
_0-5_寸法線
  6
CONTINUOUS
 62
    7
 10
158.66328124999734
 20
533.30496083551316
 11
161.25147170102252
 21
542.96421909840387
  0
LINE
  8
_0-5_寸法線
  6
CONTINUOUS
 62
    7
 10
158.66328124999734
 20
563.30496083551043
 11
158.66328124999734
 21
533.30496083551316
  0
TEXT
  8
_0-5_寸法線
 62
    7
 10
158.66328124999734
 20
540.80496083551179
 40
15
 41
1
 50
90
  1
30
  0
LINE
  8
_0-5_寸法線
  6
CONTINUOUS
 62
    7
 10
1260.6632812499934
 20
743.30496083550997
 11
1340.6632812499925
 21
743.30496083550997
  0
LINE
  8
_0-5_寸法線
  6
CONTINUOUS
 62
    7
 10
1335.6632812499925
 20
743.30496083550997
 11
1338.2514717010176
 21
733.64570257261926
  0
LINE
  8
_0-5_寸法線
  6
CONTINUOUS
 62
    7
 10
1335.6632812499925
 20
743.30496083550997
 11
1333.0750907989673
 21
733.64570257261926
  0
LINE
  8
_0-5_寸法線
  6
CONTINUOUS
 62
    7
 10
1260.6632812499925
 20
533.30496083550679
 11
1340.6632812499925
 21
533.30496083550679
  0
LINE
  8
_0-5_寸法線
  6
CONTINUOUS
 62
    7
 10
1335.6632812499925
 20
533.30496083550679
 11
1333.0750907989673
 21
542.96421909839751
  0
LINE
  8
_0-5_寸法線
  6
CONTINUOUS
 62
    7
 10
1335.6632812499925
 20
533.30496083550679
 11
1338.2514717010176
 21
542.96421909839751
  0
LINE
  8
_0-5_寸法線
  6
CONTINUOUS
 62
    7
 10
1335.6632812499925
 20
743.30496083550997
 11
1335.6632812499925
 21
533.30496083550679
  0
TEXT
  8
_0-5_寸法線
 62
    7
 10
1335.6632812499925
 20
627.05496083550861
 40
15
 41
1
 50
90
  1
210
  0
LINE
  8
_0-1_計細線
  6
CONTINUOUS
 62
    3
 10
1229.1632812499938
 20
563.30496083551134
 11
1250.6632812499934
 21
563.30496083551134
  0
LINE
  8
_0-1_計細線
  6
CONTINUOUS
 62
    3
 10
1229.1632812499938
 20
713.30496083550997
 11
1250.6632812499934
 21
713.30496083550997
  0
LINE
  8
_0-5_寸法線
  6
CONTINUOUS
 62
    7
 10
230.16328124999376
 20
753.30496083550906
 11
230.16328124999376
 21
833.30496083550906
  0
LINE
  8
_0-5_寸法線
  6
CONTINUOUS
 62
    7
 10
230.16328124999376
 20
828.30496083550906
 11
237.40772494716168
 21
830.24610367377807
  0
LINE
  8
_0-5_寸法線
  6
CONTINUOUS
 62
    7
 10
230.16328124999376
 20
828.30496083550906
 11
237.40772494716168
 21
826.36381799724018
  0
LINE
  8
_0-5_寸法線
  6
CONTINUOUS
 62
    7
 10
1229.1632812499938
 20
753.30496083550906
 11
1229.1632812499938
 21
833.30496083550906
  0
LINE
  8
_0-5_寸法線
  6
CONTINUOUS
 62
    7
 10
1229.1632812499938
 20
828.30496083550906
 11
1221.9188375528258
 21
826.36381799724018
  0
LINE
  8
_0-5_寸法線
  6
CONTINUOUS
 62
    7
 10
1229.1632812499938
 20
828.30496083550906
 11
1221.9188375528258
 21
830.24610367377807
  0
LINE
  8
_0-5_寸法線
  6
CONTINUOUS
 62
    7
 10
230.16328124999376
 20
828.30496083550906
 11
1229.1632812499938
 21
828.30496083550906
  0
TEXT
  8
_0-5_寸法線
 62
    7
 10
718.41328124999382
 20
828.30496083550906
 40
15
 41
1
 50
0
  1
999
  0
LINE
  8
_0-1_計細線
  6
CONTINUOUS
 62
    3
 10
1229.1632812499938
 20
713.30496083550997
 11
1250.6632812499934
 21
713.30496083550997
  0
LINE
  8
_0-1_計細線
  6
CONTINUOUS
 62
    3
 10
1229.1632812499943
 20
537.80496083551134
 11
1229.1632812499934
 21
738.80496083550997
  0
LINE
  8
_0-1_計細線
  6
CONTINUOUS
 62
    3
 10
1217.7632812499937
 20
537.80496083551134
 11
1217.7632812499928
 21
738.80496083550997
  0
LINE
  8
_0-1_計細線
  6
CONTINUOUS
 62
    3
 10
1229.1632812499943
 20
537.80496083551134
 11
1217.7632812499937
 21
537.80496083551134
  0
LINE
  8
_0-1_計細線
  6
CONTINUOUS
 62
    3
 10
1229.1632812499934
 20
738.80496083550997
 11
1217.7632812499928
 21
738.80496083550997
  0
LINE
  8
_0-0_計極細
  6
CONTINUOUS
 62
    2
 10
1220.963281249994
 20
537.80496083551134
 11
1220.9632812499931
 21
738.80496083550997
  0
LINE
  8
_0-0_計極細
  6
CONTINUOUS
 62
    2
 10
1225.963281249994
 20
537.80496083551134
 11
1225.9632812499931
 21
738.80496083550997
  0
LINE
  8
_0-1_計細線
  6
CONTINUOUS
 62
    3
 10
1195.1632812499934
 20
537.80496083551134
 11
1195.1632812499925
 21
738.80496083550997
  0
LINE
  8
_0-1_計細線
  6
CONTINUOUS
 62
    3
 10
1183.7632812499928
 20
537.80496083551157
 11
1183.7632812499919
 21
738.8049608355102
  0
LINE
  8
_0-1_計細線
  6
CONTINUOUS
 62
    3
 10
1195.1632812499934
 20
537.80496083551134
 11
1183.7632812499928
 21
537.80496083551157
  0
LINE
  8
_0-1_計細線
  6
CONTINUOUS
 62
    3
 10
1195.1632812499925
 20
738.80496083550997
 11
1183.7632812499919
 21
738.8049608355102
  0
LINE
  8
_0-0_計極細
  6
CONTINUOUS
 62
    2
 10
1186.9632812499935
 20
537.80496083551157
 11
1186.9632812499926
 21
738.8049608355102
  0
LINE
  8
_0-0_計極細
  6
CONTINUOUS
 62
    2
 10
1191.9632812499935
 20
537.80496083551134
 11
1191.9632812499926
 21
738.8049608355102
  0
LINE
  8
_0-1_計細線
  6
CONTINUOUS
 62
    3
 10
1178.1632812499929
 20
537.80496083551157
 11
1178.1632812499915
 21
738.8049608355102
  0
LINE
  8
_0-1_計細線
  6
CONTINUOUS
 62
    3
 10
1166.7632812499924
 20
537.80496083551157
 11
1166.763281249991
 21
738.8049608355102
  0
LINE
  8
_0-1_計細線
  6
CONTINUOUS
 62
    3
 10
1178.1632812499929
 20
537.80496083551157
 11
1166.7632812499924
 21
537.80496083551157
  0
LINE
  8
_0-1_計細線
  6
CONTINUOUS
 62
    3
 10
1178.1632812499915
 20
738.8049608355102
 11
1166.763281249991
 21
738.8049608355102
  0
LINE
  8
_0-0_計極細
  6
CONTINUOUS
 62
    2
 10
1169.9632812499926
 20
537.80496083551157
 11
1169.9632812499913
 21
738.8049608355102
  0
LINE
  8
_0-0_計極細
  6
CONTINUOUS
 62
    2
 10
1174.9632812499926
 20
537.80496083551157
 11
1174.9632812499913
 21
738.8049608355102
  0
LINE
  8
_0-1_計細線
  6
CONTINUOUS
 62
    3
 10
1115.7632812499951
 20
537.80496083551157
 11
1115.7632812499942
 21
738.80496083550997
  0
LINE
  8
_0-1_計細線
  6
CONTINUOUS
 62
    3
 10
1127.1632812499956
 20
537.80496083551134
 11
1127.1632812499947
 21
738.8049608355102
  0
LINE
  8
_0-1_計細線
  6
CONTINUOUS
 62
    3
 10
1115.7632812499951
 20
537.80496083551157
 11
1127.1632812499956
 21
537.80496083551134
  0
LINE
  8
_0-1_計細線
  6
CONTINUOUS
 62
    3
 10
1115.7632812499942
 20
738.80496083550997
 11
1127.1632812499947
 21
738.8049608355102
  0
LINE
  8
_0-0_計極細
  6
CONTINUOUS
 62
    2
 10
1123.9632812499949
 20
537.80496083551134
 11
1123.963281249994
 21
738.80496083550997
  0
LINE
  8
_0-0_計極細
  6
CONTINUOUS
 62
    2
 10
1118.9632812499949
 20
537.80496083551157
 11
1118.963281249994
 21
738.80496083550997
  0
LINE
  8
_0-1_計細線
  6
CONTINUOUS
 62
    3
 10
1098.7632812499942
 20
537.80496083551157
 11
1098.7632812499928
 21
738.80496083550997
  0
LINE
  8
_0-1_計細線
  6
CONTINUOUS
 62
    3
 10
1110.1632812499947
 20
537.80496083551157
 11
1110.1632812499934
 21
738.80496083550997
  0
LINE
  8
_0-1_計細線
  6
CONTINUOUS
 62
    3
 10
1098.7632812499942
 20
537.80496083551157
 11
1110.1632812499947
 21
537.80496083551157
  0
LINE
  8
_0-1_計細線
  6
CONTINUOUS
 62
    3
 10
1098.7632812499928
 20
738.80496083550997
 11
1110.1632812499934
 21
738.80496083550997
  0
LINE
  8
_0-0_計極細
  6
CONTINUOUS
 62
    2
 10
1106.9632812499945
 20
537.80496083551157
 11
1106.9632812499931
 21
738.80496083550997
  0
LINE
  8
_0-0_計極細
  6
CONTINUOUS
 62
    2
 10
1101.9632812499945
 20
537.80496083551157
 11
1101.9632812499931
 21
738.80496083550997
  0
LINE
  8
_0-1_計細線
  6
CONTINUOUS
 62
    3
 10
1081.7632812499942
 20
537.80496083551157
 11
1081.7632812499933
 21
738.80496083550997
  0
LINE
  8
_0-1_計細線
  6
CONTINUOUS
 62
    3
 10
1093.1632812499947
 20
537.80496083551157
 11
1093.1632812499938
 21
738.80496083550997
  0
LINE
  8
_0-1_計細線
  6
CONTINUOUS
 62
    3
 10
1081.7632812499942
 20
537.80496083551157
 11
1093.1632812499947
 21
537.80496083551157
  0
LINE
  8
_0-1_計細線
  6
CONTINUOUS
 62
    3
 10
1081.7632812499933
 20
738.80496083550997
 11
1093.1632812499938
 21
738.80496083550997
  0
LINE
  8
_0-0_計極細
  6
CONTINUOUS
 62
    2
 10
1089.9632812499945
 20
537.80496083551157
 11
1089.9632812499935
 21
738.80496083550997
  0
LINE
  8
_0-0_計極細
  6
CONTINUOUS
 62
    2
 10
1084.9632812499945
 20
537.80496083551157
 11
1084.9632812499935
 21
738.80496083550997
  0
LINE
  8
_0-1_計細線
  6
CONTINUOUS
 62
    3
 10
1076.1632812499952
 20
537.80496083551134
 11
1076.1632812499938
 21
738.80496083550997
  0
LINE
  8
_0-1_計細線
  6
CONTINUOUS
 62
    3
 10
1064.7632812499946
 20
537.80496083551134
 11
1064.7632812499933
 21
738.80496083550997
  0
LINE
  8
_0-1_計細線
  6
CONTINUOUS
 62
    3
 10
1076.1632812499952
 20
537.80496083551134
 11
1064.7632812499946
 21
537.80496083551134
  0
LINE
  8
_0-1_計細線
  6
CONTINUOUS
 62
    3
 10
1076.1632812499938
 20
738.80496083550997
 11
1064.7632812499933
 21
738.80496083550997
  0
LINE
  8
_0-0_計極細
  6
CONTINUOUS
 62
    2
 10
1067.9632812499949
 20
537.80496083551134
 11
1067.9632812499935
 21
738.80496083550997
  0
LINE
  8
_0-0_計極細
  6
CONTINUOUS
 62
    2
 10
1072.9632812499949
 20
537.80496083551134
 11
1072.9632812499935
 21
738.80496083550997
  0
LINE
  8
_0-1_計細線
  6
CONTINUOUS
 62
    3
 10
1212.1632812499956
 20
537.80496083551134
 11
1212.1632812499943
 21
738.80496083550997
  0
LINE
  8
_0-1_計細線
  6
CONTINUOUS
 62
    3
 10
1200.7632812499951
 20
537.80496083551157
 11
1200.7632812499937
 21
738.8049608355102
  0
LINE
  8
_0-1_計細線
  6
CONTINUOUS
 62
    3
 10
1212.1632812499956
 20
537.80496083551134
 11
1200.7632812499951
 21
537.80496083551157
  0
LINE
  8
_0-1_計細線
  6
CONTINUOUS
 62
    3
 10
1212.1632812499943
 20
738.80496083550997
 11
1200.7632812499937
 21
738.8049608355102
  0
LINE
  8
_0-0_計極細
  6
CONTINUOUS
 62
    2
 10
1203.9632812499958
 20
537.80496083551157
 11
1203.9632812499945
 21
738.8049608355102
  0
LINE
  8
_0-0_計極細
  6
CONTINUOUS
 62
    2
 10
1208.9632812499958
 20
537.80496083551134
 11
1208.9632812499945
 21
738.8049608355102
  0
LINE
  8
_0-1_計細線
  6
CONTINUOUS
 62
    3
 10
1059.1632812499952
 20
537.80496083551134
 11
1059.1632812499943
 21
738.80496083550997
  0
LINE
  8
_0-1_計細線
  6
CONTINUOUS
 62
    3
 10
1047.7632812499946
 20
537.80496083551134
 11
1047.7632812499937
 21
738.80496083550997
  0
LINE
  8
_0-1_計細線
  6
CONTINUOUS
 62
    3
 10
1059.1632812499952
 20
537.80496083551134
 11
1047.7632812499946
 21
537.80496083551134
  0
LINE
  8
_0-1_計細線
  6
CONTINUOUS
 62
    3
 10
1059.1632812499943
 20
738.80496083550997
 11
1047.7632812499937
 21
738.80496083550997
  0
LINE
  8
_0-0_計極細
  6
CONTINUOUS
 62
    2
 10
1050.9632812499949
 20
537.80496083551134
 11
1050.963281249994
 21
738.80496083550997
  0
LINE
  8
_0-0_計極細
  6
CONTINUOUS
 62
    2
 10
1055.9632812499949
 20
537.80496083551134
 11
1055.963281249994
 21
738.80496083550997
  0
LINE
  8
_0-1_計細線
  6
CONTINUOUS
 62
    3
 10
1042.1632812499952
 20
537.80496083551134
 11
1042.1632812499943
 21
738.80496083550997
  0
LINE
  8
_0-1_計細線
  6
CONTINUOUS
 62
    3
 10
1030.7632812499946
 20
537.80496083551134
 11
1030.7632812499937
 21
738.80496083550997
  0
LINE
  8
_0-1_計細線
  6
CONTINUOUS
 62
    3
 10
1042.1632812499952
 20
537.80496083551134
 11
1030.7632812499946
 21
537.80496083551134
  0
LINE
  8
_0-1_計細線
  6
CONTINUOUS
 62
    3
 10
1042.1632812499943
 20
738.80496083550997
 11
1030.7632812499937
 21
738.80496083550997
  0
LINE
  8
_0-0_計極細
  6
CONTINUOUS
 62
    2
 10
1033.9632812499949
 20
537.80496083551134
 11
1033.963281249994
 21
738.80496083550997
  0
LINE
  8
_0-0_計極細
  6
CONTINUOUS
 62
    2
 10
1038.9632812499949
 20
537.80496083551134
 11
1038.963281249994
 21
738.80496083550997
  0
LINE
  8
_0-1_計細線
  6
CONTINUOUS
 62
    3
 10
1025.1632812499952
 20
537.80496083551134
 11
1025.1632812499943
 21
738.80496083550997
  0
LINE
  8
_0-1_計細線
  6
CONTINUOUS
 62
    3
 10
1013.7632812499947
 20
537.80496083551134
 11
1013.7632812499936
 21
738.80496083550997
  0
LINE
  8
_0-1_計細線
  6
CONTINUOUS
 62
    3
 10
1025.1632812499952
 20
537.80496083551134
 11
1013.7632812499947
 21
537.80496083551134
  0
LINE
  8
_0-1_計細線
  6
CONTINUOUS
 62
    3
 10
1025.1632812499943
 20
738.80496083550997
 11
1013.7632812499936
 21
738.80496083550997
  0
LINE
  8
_0-0_計極細
  6
CONTINUOUS
 62
    2
 10
1016.9632812499949
 20
537.80496083551134
 11
1016.963281249994
 21
738.80496083550997
  0
LINE
  8
_0-0_計極細
  6
CONTINUOUS
 62
    2
 10
1021.9632812499949
 20
537.80496083551134
 11
1021.963281249994
 21
738.80496083550997
  0
LINE
  8
_0-1_計細線
  6
CONTINUOUS
 62
    3
 10
1008.1632812499953
 20
537.80496083551134
 11
1008.1632812499942
 21
738.80496083550997
  0
LINE
  8
_0-1_計細線
  6
CONTINUOUS
 62
    3
 10
996.76328124999475
 20
537.80496083551134
 11
996.76328124999372
 21
738.80496083550997
  0
LINE
  8
_0-1_計細線
  6
CONTINUOUS
 62
    3
 10
1008.1632812499953
 20
537.80496083551134
 11
996.76328124999475
 21
537.80496083551134
  0
LINE
  8
_0-1_計細線
  6
CONTINUOUS
 62
    3
 10
1008.1632812499942
 20
738.80496083550997
 11
996.76328124999372
 21
738.80496083550997
  0
LINE
  8
_0-0_計極細
  6
CONTINUOUS
 62
    2
 10
999.96328124999491
 20
537.80496083551134
 11
999.963281249994
 21
738.80496083550997
  0
LINE
  8
_0-0_計極細
  6
CONTINUOUS
 62
    2
 10
1004.9632812499949
 20
537.80496083551134
 11
1004.963281249994
 21
738.80496083550997
  0
LINE
  8
_0-1_計細線
  6
CONTINUOUS
 62
    3
 10
991.16328124999529
 20
537.80496083551134
 11
991.16328124999427
 21
738.80496083550997
  0
LINE
  8
_0-1_計細線
  6
CONTINUOUS
 62
    3
 10
979.76328124999463
 20
537.80496083551134
 11
979.76328124999372
 21
738.80496083550997
  0
LINE
  8
_0-1_計細線
  6
CONTINUOUS
 62
    3
 10
991.16328124999529
 20
537.80496083551134
 11
979.76328124999463
 21
537.80496083551134
  0
LINE
  8
_0-1_計細線
  6
CONTINUOUS
 62
    3
 10
991.16328124999427
 20
738.80496083550997
 11
979.76328124999372
 21
738.80496083550997
  0
LINE
  8
_0-0_計極細
  6
CONTINUOUS
 62
    2
 10
982.96328124999491
 20
537.80496083551134
 11
982.96328124999388
 21
738.80496083550997
  0
LINE
  8
_0-0_計極細
  6
CONTINUOUS
 62
    2
 10
987.96328124999491
 20
537.80496083551134
 11
987.96328124999388
 21
738.80496083550997
  0
LINE
  8
_0-1_計細線
  6
CONTINUOUS
 62
    3
 10
974.16328124999518
 20
537.80496083551134
 11
974.16328124999427
 21
738.80496083550997
  0
LINE
  8
_0-1_計細線
  6
CONTINUOUS
 62
    3
 10
962.76328124999463
 20
537.80496083551134
 11
962.76328124999372
 21
738.80496083550997
  0
LINE
  8
_0-1_計細線
  6
CONTINUOUS
 62
    3
 10
974.16328124999518
 20
537.80496083551134
 11
962.76328124999463
 21
537.80496083551134
  0
LINE
  8
_0-1_計細線
  6
CONTINUOUS
 62
    3
 10
974.16328124999427
 20
738.80496083550997
 11
962.76328124999372
 21
738.80496083550997
  0
LINE
  8
_0-0_計極細
  6
CONTINUOUS
 62
    2
 10
965.96328124999502
 20
537.80496083551134
 11
965.96328124999388
 21
738.80496083550997
  0
LINE
  8
_0-0_計極細
  6
CONTINUOUS
 62
    2
 10
970.96328124999502
 20
537.80496083551134
 11
970.96328124999388
 21
738.80496083550997
  0
LINE
  8
_0-1_計細線
  6
CONTINUOUS
 62
    3
 10
957.16328124999518
 20
537.80496083551134
 11
957.16328124999427
 21
738.80496083550997
  0
LINE
  8
_0-1_計細線
  6
CONTINUOUS
 62
    3
 10
945.76328124999463
 20
537.80496083551134
 11
945.76328124999361
 21
738.80496083550997
  0
LINE
  8
_0-1_計細線
  6
CONTINUOUS
 62
    3
 10
957.16328124999518
 20
537.80496083551134
 11
945.76328124999463
 21
537.80496083551134
  0
LINE
  8
_0-1_計細線
  6
CONTINUOUS
 62
    3
 10
957.16328124999427
 20
738.80496083550997
 11
945.76328124999361
 21
738.80496083550997
  0
LINE
  8
_0-0_計極細
  6
CONTINUOUS
 62
    2
 10
948.96328124999502
 20
537.80496083551134
 11
948.963281249994
 21
738.80496083550997
  0
LINE
  8
_0-0_計極細
  6
CONTINUOUS
 62
    2
 10
953.96328124999502
 20
537.80496083551134
 11
953.963281249994
 21
738.80496083550997
  0
LINE
  8
_0-1_計細線
  6
CONTINUOUS
 62
    3
 10
940.16328124999518
 20
537.80496083551134
 11
940.16328124999416
 21
738.80496083550997
  0
LINE
  8
_0-1_計細線
  6
CONTINUOUS
 62
    3
 10
928.76328124999475
 20
537.80496083551134
 11
928.76328124999361
 21
738.80496083550997
  0
LINE
  8
_0-1_計細線
  6
CONTINUOUS
 62
    3
 10
940.16328124999518
 20
537.80496083551134
 11
928.76328124999475
 21
537.80496083551134
  0
LINE
  8
_0-1_計細線
  6
CONTINUOUS
 62
    3
 10
940.16328124999416
 20
738.80496083550997
 11
928.76328124999361
 21
738.80496083550997
  0
LINE
  8
_0-0_計極細
  6
CONTINUOUS
 62
    2
 10
931.96328124999491
 20
537.80496083551134
 11
931.963281249994
 21
738.80496083550997
  0
LINE
  8
_0-0_計極細
  6
CONTINUOUS
 62
    2
 10
936.96328124999491
 20
537.80496083551134
 11
936.963281249994
 21
738.80496083550997
  0
LINE
  8
_0-1_計細線
  6
CONTINUOUS
 62
    3
 10
923.16328124999529
 20
537.80496083551134
 11
923.16328124999416
 21
738.80496083550997
  0
LINE
  8
_0-1_計細線
  6
CONTINUOUS
 62
    3
 10
911.76328124999475
 20
537.80496083551134
 11
911.76328124999372
 21
738.80496083550997
  0
LINE
  8
_0-1_計細線
  6
CONTINUOUS
 62
    3
 10
923.16328124999529
 20
537.80496083551134
 11
911.76328124999475
 21
537.80496083551134
  0
LINE
  8
_0-1_計細線
  6
CONTINUOUS
 62
    3
 10
923.16328124999416
 20
738.80496083550997
 11
911.76328124999372
 21
738.80496083550997
  0
LINE
  8
_0-0_計極細
  6
CONTINUOUS
 62
    2
 10
914.96328124999491
 20
537.80496083551134
 11
914.963281249994
 21
738.80496083550997
  0
LINE
  8
_0-0_計極細
  6
CONTINUOUS
 62
    2
 10
919.96328124999491
 20
537.80496083551134
 11
919.963281249994
 21
738.80496083550997
  0
LINE
  8
_0-1_計細線
  6
CONTINUOUS
 62
    3
 10
906.16328124999529
 20
537.80496083551134
 11
906.16328124999427
 21
738.80496083550997
  0
LINE
  8
_0-1_計細線
  6
CONTINUOUS
 62
    3
 10
894.76328124999463
 20
537.80496083551134
 11
894.76328124999372
 21
738.80496083550997
  0
LINE
  8
_0-1_計細線
  6
CONTINUOUS
 62
    3
 10
906.16328124999529
 20
537.80496083551134
 11
894.76328124999463
 21
537.80496083551134
  0
LINE
  8
_0-1_計細線
  6
CONTINUOUS
 62
    3
 10
906.16328124999427
 20
738.80496083550997
 11
894.76328124999372
 21
738.80496083550997
  0
LINE
  8
_0-0_計極細
  6
CONTINUOUS
 62
    2
 10
897.96328124999491
 20
537.80496083551134
 11
897.96328124999388
 21
738.80496083550997
  0
LINE
  8
_0-0_計極細
  6
CONTINUOUS
 62
    2
 10
902.96328124999491
 20
537.80496083551134
 11
902.96328124999388
 21
738.80496083550997
  0
LINE
  8
_0-1_計細線
  6
CONTINUOUS
 62
    3
 10
889.16328124999518
 20
537.80496083551134
 11
889.16328124999427
 21
738.80496083550997
  0
LINE
  8
_0-1_計細線
  6
CONTINUOUS
 62
    3
 10
877.76328124999463
 20
537.80496083551134
 11
877.76328124999372
 21
738.80496083550997
  0
LINE
  8
_0-1_計細線
  6
CONTINUOUS
 62
    3
 10
889.16328124999518
 20
537.80496083551134
 11
877.76328124999463
 21
537.80496083551134
  0
LINE
  8
_0-1_計細線
  6
CONTINUOUS
 62
    3
 10
889.16328124999427
 20
738.80496083550997
 11
877.76328124999372
 21
738.80496083550997
  0
LINE
  8
_0-0_計極細
  6
CONTINUOUS
 62
    2
 10
880.96328124999502
 20
537.80496083551134
 11
880.96328124999388
 21
738.80496083550997
  0
LINE
  8
_0-0_計極細
  6
CONTINUOUS
 62
    2
 10
885.96328124999502
 20
537.80496083551134
 11
885.96328124999388
 21
738.80496083550997
  0
LINE
  8
_0-1_計細線
  6
CONTINUOUS
 62
    3
 10
872.16328124999518
 20
537.80496083551134
 11
872.16328124999427
 21
738.80496083550997
  0
LINE
  8
_0-1_計細線
  6
CONTINUOUS
 62
    3
 10
860.76328124999463
 20
537.80496083551134
 11
860.76328124999361
 21
738.80496083550997
  0
LINE
  8
_0-1_計細線
  6
CONTINUOUS
 62
    3
 10
872.16328124999518
 20
537.80496083551134
 11
860.76328124999463
 21
537.80496083551134
  0
LINE
  8
_0-1_計細線
  6
CONTINUOUS
 62
    3
 10
872.16328124999427
 20
738.80496083550997
 11
860.76328124999361
 21
738.80496083550997
  0
LINE
  8
_0-0_計極細
  6
CONTINUOUS
 62
    2
 10
863.96328124999502
 20
537.80496083551134
 11
863.963281249994
 21
738.80496083550997
  0
LINE
  8
_0-0_計極細
  6
CONTINUOUS
 62
    2
 10
868.96328124999502
 20
537.80496083551134
 11
868.963281249994
 21
738.80496083550997
  0
LINE
  8
_0-1_計細線
  6
CONTINUOUS
 62
    3
 10
855.16328124999518
 20
537.80496083551134
 11
855.16328124999416
 21
738.80496083550997
  0
LINE
  8
_0-1_計細線
  6
CONTINUOUS
 62
    3
 10
843.76328124999475
 20
537.80496083551134
 11
843.76328124999361
 21
738.80496083550997
  0
LINE
  8
_0-1_計細線
  6
CONTINUOUS
 62
    3
 10
855.16328124999518
 20
537.80496083551134
 11
843.76328124999475
 21
537.80496083551134
  0
LINE
  8
_0-1_計細線
  6
CONTINUOUS
 62
    3
 10
855.16328124999416
 20
738.80496083550997
 11
843.76328124999361
 21
738.80496083550997
  0
LINE
  8
_0-0_計極細
  6
CONTINUOUS
 62
    2
 10
846.96328124999491
 20
537.80496083551134
 11
846.963281249994
 21
738.80496083550997
  0
LINE
  8
_0-0_計極細
  6
CONTINUOUS
 62
    2
 10
851.96328124999491
 20
537.80496083551134
 11
851.963281249994
 21
738.80496083550997
  0
LINE
  8
_0-1_計細線
  6
CONTINUOUS
 62
    3
 10
838.16328124999529
 20
537.80496083551134
 11
838.16328124999416
 21
738.80496083550997
  0
LINE
  8
_0-1_計細線
  6
CONTINUOUS
 62
    3
 10
826.76328124999475
 20
537.80496083551134
 11
826.76328124999372
 21
738.80496083550997
  0
LINE
  8
_0-1_計細線
  6
CONTINUOUS
 62
    3
 10
838.16328124999529
 20
537.80496083551134
 11
826.76328124999475
 21
537.80496083551134
  0
LINE
  8
_0-1_計細線
  6
CONTINUOUS
 62
    3
 10
838.16328124999416
 20
738.80496083550997
 11
826.76328124999372
 21
738.80496083550997
  0
LINE
  8
_0-0_計極細
  6
CONTINUOUS
 62
    2
 10
829.96328124999491
 20
537.80496083551134
 11
829.963281249994
 21
738.80496083550997
  0
LINE
  8
_0-0_計極細
  6
CONTINUOUS
 62
    2
 10
834.96328124999491
 20
537.80496083551134
 11
834.963281249994
 21
738.80496083550997
  0
LINE
  8
_0-1_計細線
  6
CONTINUOUS
 62
    3
 10
821.16328124999529
 20
537.80496083551134
 11
821.16328124999427
 21
738.80496083550997
  0
LINE
  8
_0-1_計細線
  6
CONTINUOUS
 62
    3
 10
809.76328124999463
 20
537.80496083551134
 11
809.76328124999372
 21
738.80496083550997
  0
LINE
  8
_0-1_計細線
  6
CONTINUOUS
 62
    3
 10
821.16328124999529
 20
537.80496083551134
 11
809.76328124999463
 21
537.80496083551134
  0
LINE
  8
_0-1_計細線
  6
CONTINUOUS
 62
    3
 10
821.16328124999427
 20
738.80496083550997
 11
809.76328124999372
 21
738.80496083550997
  0
LINE
  8
_0-0_計極細
  6
CONTINUOUS
 62
    2
 10
812.96328124999491
 20
537.80496083551134
 11
812.96328124999388
 21
738.80496083550997
  0
LINE
  8
_0-0_計極細
  6
CONTINUOUS
 62
    2
 10
817.96328124999491
 20
537.80496083551134
 11
817.96328124999388
 21
738.80496083550997
  0
LINE
  8
_0-1_計細線
  6
CONTINUOUS
 62
    3
 10
804.16328124999518
 20
537.80496083551134
 11
804.16328124999427
 21
738.80496083550997
  0
LINE
  8
_0-1_計細線
  6
CONTINUOUS
 62
    3
 10
792.76328124999463
 20
537.80496083551134
 11
792.76328124999372
 21
738.80496083550997
  0
LINE
  8
_0-1_計細線
  6
CONTINUOUS
 62
    3
 10
804.16328124999518
 20
537.80496083551134
 11
792.76328124999463
 21
537.80496083551134
  0
LINE
  8
_0-1_計細線
  6
CONTINUOUS
 62
    3
 10
804.16328124999427
 20
738.80496083550997
 11
792.76328124999372
 21
738.80496083550997
  0
LINE
  8
_0-0_計極細
  6
CONTINUOUS
 62
    2
 10
795.96328124999502
 20
537.80496083551134
 11
795.96328124999388
 21
738.80496083550997
  0
LINE
  8
_0-0_計極細
  6
CONTINUOUS
 62
    2
 10
800.96328124999502
 20
537.80496083551134
 11
800.96328124999388
 21
738.80496083550997
  0
LINE
  8
_0-1_計細線
  6
CONTINUOUS
 62
    3
 10
787.16328124999518
 20
537.80496083551134
 11
787.16328124999427
 21
738.80496083550997
  0
LINE
  8
_0-1_計細線
  6
CONTINUOUS
 62
    3
 10
775.76328124999463
 20
537.80496083551134
 11
775.76328124999361
 21
738.80496083550997
  0
LINE
  8
_0-1_計細線
  6
CONTINUOUS
 62
    3
 10
787.16328124999518
 20
537.80496083551134
 11
775.76328124999463
 21
537.80496083551134
  0
LINE
  8
_0-1_計細線
  6
CONTINUOUS
 62
    3
 10
787.16328124999427
 20
738.80496083550997
 11
775.76328124999361
 21
738.80496083550997
  0
LINE
  8
_0-0_計極細
  6
CONTINUOUS
 62
    2
 10
778.96328124999502
 20
537.80496083551134
 11
778.963281249994
 21
738.80496083550997
  0
LINE
  8
_0-0_計極細
  6
CONTINUOUS
 62
    2
 10
783.96328124999502
 20
537.80496083551134
 11
783.963281249994
 21
738.80496083550997
  0
LINE
  8
_0-1_計細線
  6
CONTINUOUS
 62
    3
 10
770.16328124999518
 20
537.80496083551134
 11
770.16328124999416
 21
738.80496083550997
  0
LINE
  8
_0-1_計細線
  6
CONTINUOUS
 62
    3
 10
758.76328124999463
 20
537.80496083551134
 11
758.76328124999361
 21
738.80496083550997
  0
LINE
  8
_0-1_計細線
  6
CONTINUOUS
 62
    3
 10
770.16328124999518
 20
537.80496083551134
 11
758.76328124999463
 21
537.80496083551134
  0
LINE
  8
_0-1_計細線
  6
CONTINUOUS
 62
    3
 10
770.16328124999416
 20
738.80496083550997
 11
758.76328124999361
 21
738.80496083550997
  0
LINE
  8
_0-0_計極細
  6
CONTINUOUS
 62
    2
 10
761.96328124999491
 20
537.80496083551134
 11
761.963281249994
 21
738.80496083550997
  0
LINE
  8
_0-0_計極細
  6
CONTINUOUS
 62
    2
 10
766.96328124999491
 20
537.80496083551134
 11
766.963281249994
 21
738.80496083550997
  0
LINE
  8
_0-1_計細線
  6
CONTINUOUS
 62
    3
 10
753.16328124999518
 20
537.80496083551134
 11
753.16328124999416
 21
738.80496083550997
  0
LINE
  8
_0-1_計細線
  6
CONTINUOUS
 62
    3
 10
741.76328124999475
 20
537.80496083551134
 11
741.76328124999361
 21
738.80496083550997
  0
LINE
  8
_0-1_計細線
  6
CONTINUOUS
 62
    3
 10
753.16328124999518
 20
537.80496083551134
 11
741.76328124999475
 21
537.80496083551134
  0
LINE
  8
_0-1_計細線
  6
CONTINUOUS
 62
    3
 10
753.16328124999416
 20
738.80496083550997
 11
741.76328124999361
 21
738.80496083550997
  0
LINE
  8
_0-0_計極細
  6
CONTINUOUS
 62
    2
 10
744.96328124999491
 20
537.80496083551134
 11
744.963281249994
 21
738.80496083550997
  0
LINE
  8
_0-0_計極細
  6
CONTINUOUS
 62
    2
 10
749.96328124999491
 20
537.80496083551134
 11
749.963281249994
 21
738.80496083550997
  0
LINE
  8
_0-1_計細線
  6
CONTINUOUS
 62
    3
 10
736.16328124999529
 20
537.80496083551134
 11
736.16328124999416
 21
738.80496083550997
  0
LINE
  8
_0-1_計細線
  6
CONTINUOUS
 62
    3
 10
724.76328124999463
 20
537.80496083551134
 11
724.76328124999372
 21
738.80496083550997
  0
LINE
  8
_0-1_計細線
  6
CONTINUOUS
 62
    3
 10
736.16328124999529
 20
537.80496083551134
 11
724.76328124999463
 21
537.80496083551134
  0
LINE
  8
_0-1_計細線
  6
CONTINUOUS
 62
    3
 10
736.16328124999416
 20
738.80496083550997
 11
724.76328124999372
 21
738.80496083550997
  0
LINE
  8
_0-0_計極細
  6
CONTINUOUS
 62
    2
 10
727.96328124999491
 20
537.80496083551134
 11
727.96328124999388
 21
738.80496083550997
  0
LINE
  8
_0-0_計極細
  6
CONTINUOUS
 62
    2
 10
732.96328124999491
 20
537.80496083551134
 11
732.96328124999388
 21
738.80496083550997
  0
LINE
  8
_0-1_計細線
  6
CONTINUOUS
 62
    3
 10
719.16328124999518
 20
537.80496083551134
 11
719.16328124999427
 21
738.80496083550997
  0
LINE
  8
_0-1_計細線
  6
CONTINUOUS
 62
    3
 10
707.76328124999463
 20
537.80496083551134
 11
707.76328124999372
 21
738.80496083550997
  0
LINE
  8
_0-1_計細線
  6
CONTINUOUS
 62
    3
 10
719.16328124999518
 20
537.80496083551134
 11
707.76328124999463
 21
537.80496083551134
  0
LINE
  8
_0-1_計細線
  6
CONTINUOUS
 62
    3
 10
719.16328124999427
 20
738.80496083550997
 11
707.76328124999372
 21
738.80496083550997
  0
LINE
  8
_0-0_計極細
  6
CONTINUOUS
 62
    2
 10
710.96328124999491
 20
537.80496083551134
 11
710.96328124999388
 21
738.80496083550997
  0
LINE
  8
_0-0_計極細
  6
CONTINUOUS
 62
    2
 10
715.96328124999491
 20
537.80496083551134
 11
715.96328124999388
 21
738.80496083550997
  0
LINE
  8
_0-1_計細線
  6
CONTINUOUS
 62
    3
 10
702.16328124999518
 20
537.80496083551134
 11
702.16328124999427
 21
738.80496083550997
  0
LINE
  8
_0-1_計細線
  6
CONTINUOUS
 62
    3
 10
690.76328124999463
 20
537.80496083551134
 11
690.76328124999361
 21
738.80496083550997
  0
LINE
  8
_0-1_計細線
  6
CONTINUOUS
 62
    3
 10
702.16328124999518
 20
537.80496083551134
 11
690.76328124999463
 21
537.80496083551134
  0
LINE
  8
_0-1_計細線
  6
CONTINUOUS
 62
    3
 10
702.16328124999427
 20
738.80496083550997
 11
690.76328124999361
 21
738.80496083550997
  0
LINE
  8
_0-0_計極細
  6
CONTINUOUS
 62
    2
 10
693.96328124999502
 20
537.80496083551134
 11
693.96328124999388
 21
738.80496083550997
  0
LINE
  8
_0-0_計極細
  6
CONTINUOUS
 62
    2
 10
698.96328124999502
 20
537.80496083551134
 11
698.96328124999388
 21
738.80496083550997
  0
LINE
  8
_0-1_計細線
  6
CONTINUOUS
 62
    3
 10
685.16328124999518
 20
537.80496083551134
 11
685.16328124999416
 21
738.80496083550997
  0
LINE
  8
_0-1_計細線
  6
CONTINUOUS
 62
    3
 10
673.76328124999463
 20
537.80496083551134
 11
673.76328124999361
 21
738.80496083550997
  0
LINE
  8
_0-1_計細線
  6
CONTINUOUS
 62
    3
 10
685.16328124999518
 20
537.80496083551134
 11
673.76328124999463
 21
537.80496083551134
  0
LINE
  8
_0-1_計細線
  6
CONTINUOUS
 62
    3
 10
685.16328124999416
 20
738.80496083550997
 11
673.76328124999361
 21
738.80496083550997
  0
LINE
  8
_0-0_計極細
  6
CONTINUOUS
 62
    2
 10
676.96328124999491
 20
537.80496083551134
 11
676.963281249994
 21
738.80496083550997
  0
LINE
  8
_0-0_計極細
  6
CONTINUOUS
 62
    2
 10
681.96328124999491
 20
537.80496083551134
 11
681.963281249994
 21
738.80496083550997
  0
LINE
  8
_0-1_計細線
  6
CONTINUOUS
 62
    3
 10
668.16328124999518
 20
537.80496083551134
 11
668.16328124999416
 21
738.80496083550997
  0
LINE
  8
_0-1_計細線
  6
CONTINUOUS
 62
    3
 10
656.76328124999475
 20
537.80496083551134
 11
656.76328124999361
 21
738.80496083550997
  0
LINE
  8
_0-1_計細線
  6
CONTINUOUS
 62
    3
 10
668.16328124999518
 20
537.80496083551134
 11
656.76328124999475
 21
537.80496083551134
  0
LINE
  8
_0-1_計細線
  6
CONTINUOUS
 62
    3
 10
668.16328124999416
 20
738.80496083550997
 11
656.76328124999361
 21
738.80496083550997
  0
LINE
  8
_0-0_計極細
  6
CONTINUOUS
 62
    2
 10
659.96328124999491
 20
537.80496083551134
 11
659.963281249994
 21
738.80496083550997
  0
LINE
  8
_0-0_計極細
  6
CONTINUOUS
 62
    2
 10
664.96328124999491
 20
537.80496083551134
 11
664.963281249994
 21
738.80496083550997
  0
LINE
  8
_0-1_計細線
  6
CONTINUOUS
 62
    3
 10
651.16328124999529
 20
537.80496083551134
 11
651.16328124999416
 21
738.80496083550997
  0
LINE
  8
_0-1_計細線
  6
CONTINUOUS
 62
    3
 10
639.76328124999463
 20
537.80496083551134
 11
639.76328124999361
 21
738.80496083550997
  0
LINE
  8
_0-1_計細線
  6
CONTINUOUS
 62
    3
 10
651.16328124999529
 20
537.80496083551134
 11
639.76328124999463
 21
537.80496083551134
  0
LINE
  8
_0-1_計細線
  6
CONTINUOUS
 62
    3
 10
651.16328124999416
 20
738.80496083550997
 11
639.76328124999361
 21
738.80496083550997
  0
LINE
  8
_0-0_計極細
  6
CONTINUOUS
 62
    2
 10
642.96328124999491
 20
537.80496083551134
 11
642.96328124999388
 21
738.80496083550997
  0
LINE
  8
_0-0_計極細
  6
CONTINUOUS
 62
    2
 10
647.96328124999491
 20
537.80496083551134
 11
647.96328124999388
 21
738.80496083550997
  0
LINE
  8
_0-1_計細線
  6
CONTINUOUS
 62
    3
 10
634.16328124999518
 20
537.80496083551134
 11
634.16328124999416
 21
738.80496083550997
  0
LINE
  8
_0-1_計細線
  6
CONTINUOUS
 62
    3
 10
622.76328124999463
 20
537.80496083551134
 11
622.76328124999372
 21
738.80496083550997
  0
LINE
  8
_0-1_計細線
  6
CONTINUOUS
 62
    3
 10
634.16328124999518
 20
537.80496083551134
 11
622.76328124999463
 21
537.80496083551134
  0
LINE
  8
_0-1_計細線
  6
CONTINUOUS
 62
    3
 10
634.16328124999416
 20
738.80496083550997
 11
622.76328124999372
 21
738.80496083550997
  0
LINE
  8
_0-0_計極細
  6
CONTINUOUS
 62
    2
 10
625.96328124999491
 20
537.80496083551134
 11
625.96328124999388
 21
738.80496083550997
  0
LINE
  8
_0-0_計極細
  6
CONTINUOUS
 62
    2
 10
630.96328124999491
 20
537.80496083551134
 11
630.96328124999388
 21
738.80496083550997
  0
LINE
  8
_0-1_計細線
  6
CONTINUOUS
 62
    3
 10
617.16328124999518
 20
537.80496083551134
 11
617.16328124999427
 21
738.80496083550997
  0
LINE
  8
_0-1_計細線
  6
CONTINUOUS
 62
    3
 10
605.76328124999463
 20
537.80496083551134
 11
605.76328124999361
 21
738.80496083550997
  0
LINE
  8
_0-1_計細線
  6
CONTINUOUS
 62
    3
 10
617.16328124999518
 20
537.80496083551134
 11
605.76328124999463
 21
537.80496083551134
  0
LINE
  8
_0-1_計細線
  6
CONTINUOUS
 62
    3
 10
617.16328124999427
 20
738.80496083550997
 11
605.76328124999361
 21
738.80496083550997
  0
LINE
  8
_0-0_計極細
  6
CONTINUOUS
 62
    2
 10
608.96328124999491
 20
537.80496083551134
 11
608.96328124999388
 21
738.80496083550997
  0
LINE
  8
_0-0_計極細
  6
CONTINUOUS
 62
    2
 10
613.96328124999491
 20
537.80496083551134
 11
613.96328124999388
 21
738.80496083550997
  0
LINE
  8
_0-1_計細線
  6
CONTINUOUS
 62
    3
 10
600.16328124999518
 20
537.80496083551134
 11
600.16328124999416
 21
738.80496083550997
  0
LINE
  8
_0-1_計細線
  6
CONTINUOUS
 62
    3
 10
588.76328124999463
 20
537.80496083551134
 11
588.76328124999361
 21
738.80496083550997
  0
LINE
  8
_0-1_計細線
  6
CONTINUOUS
 62
    3
 10
600.16328124999518
 20
537.80496083551134
 11
588.76328124999463
 21
537.80496083551134
  0
LINE
  8
_0-1_計細線
  6
CONTINUOUS
 62
    3
 10
600.16328124999416
 20
738.80496083550997
 11
588.76328124999361
 21
738.80496083550997
  0
LINE
  8
_0-0_計極細
  6
CONTINUOUS
 62
    2
 10
591.96328124999491
 20
537.80496083551134
 11
591.96328124999388
 21
738.80496083550997
  0
LINE
  8
_0-0_計極細
  6
CONTINUOUS
 62
    2
 10
596.96328124999491
 20
537.80496083551134
 11
596.96328124999388
 21
738.80496083550997
  0
LINE
  8
_0-1_計細線
  6
CONTINUOUS
 62
    3
 10
583.16328124999518
 20
537.80496083551134
 11
583.16328124999416
 21
738.80496083550997
  0
LINE
  8
_0-1_計細線
  6
CONTINUOUS
 62
    3
 10
571.76328124999463
 20
537.80496083551134
 11
571.76328124999361
 21
738.80496083550997
  0
LINE
  8
_0-1_計細線
  6
CONTINUOUS
 62
    3
 10
583.16328124999518
 20
537.80496083551134
 11
571.76328124999463
 21
537.80496083551134
  0
LINE
  8
_0-1_計細線
  6
CONTINUOUS
 62
    3
 10
583.16328124999416
 20
738.80496083550997
 11
571.76328124999361
 21
738.80496083550997
  0
LINE
  8
_0-0_計極細
  6
CONTINUOUS
 62
    2
 10
574.96328124999491
 20
537.80496083551134
 11
574.963281249994
 21
738.80496083550997
  0
LINE
  8
_0-0_計極細
  6
CONTINUOUS
 62
    2
 10
579.96328124999491
 20
537.80496083551134
 11
579.963281249994
 21
738.80496083550997
  0
LINE
  8
_0-1_計細線
  6
CONTINUOUS
 62
    3
 10
566.16328124999518
 20
537.80496083551134
 11
566.16328124999416
 21
738.80496083550997
  0
LINE
  8
_0-1_計細線
  6
CONTINUOUS
 62
    3
 10
554.76328124999463
 20
537.80496083551134
 11
554.76328124999361
 21
738.80496083550997
  0
LINE
  8
_0-1_計細線
  6
CONTINUOUS
 62
    3
 10
566.16328124999518
 20
537.80496083551134
 11
554.76328124999463
 21
537.80496083551134
  0
LINE
  8
_0-1_計細線
  6
CONTINUOUS
 62
    3
 10
566.16328124999416
 20
738.80496083550997
 11
554.76328124999361
 21
738.80496083550997
  0
LINE
  8
_0-0_計極細
  6
CONTINUOUS
 62
    2
 10
557.96328124999491
 20
537.80496083551134
 11
557.96328124999388
 21
738.80496083550997
  0
LINE
  8
_0-0_計極細
  6
CONTINUOUS
 62
    2
 10
562.96328124999491
 20
537.80496083551134
 11
562.96328124999388
 21
738.80496083550997
  0
LINE
  8
_0-1_計細線
  6
CONTINUOUS
 62
    3
 10
549.16328124999518
 20
537.80496083551134
 11
549.16328124999416
 21
738.80496083550997
  0
LINE
  8
_0-1_計細線
  6
CONTINUOUS
 62
    3
 10
537.76328124999463
 20
537.80496083551134
 11
537.76328124999372
 21
738.80496083550997
  0
LINE
  8
_0-1_計細線
  6
CONTINUOUS
 62
    3
 10
549.16328124999518
 20
537.80496083551134
 11
537.76328124999463
 21
537.80496083551134
  0
LINE
  8
_0-1_計細線
  6
CONTINUOUS
 62
    3
 10
549.16328124999416
 20
738.80496083550997
 11
537.76328124999372
 21
738.80496083550997
  0
LINE
  8
_0-0_計極細
  6
CONTINUOUS
 62
    2
 10
540.96328124999491
 20
537.80496083551134
 11
540.96328124999388
 21
738.80496083550997
  0
LINE
  8
_0-0_計極細
  6
CONTINUOUS
 62
    2
 10
545.96328124999491
 20
537.80496083551134
 11
545.96328124999388
 21
738.80496083550997
  0
LINE
  8
_0-1_計細線
  6
CONTINUOUS
 62
    3
 10
532.16328124999518
 20
537.80496083551134
 11
532.16328124999427
 21
738.80496083550997
  0
LINE
  8
_0-1_計細線
  6
CONTINUOUS
 62
    3
 10
520.76328124999463
 20
537.80496083551134
 11
520.76328124999361
 21
738.80496083550997
  0
LINE
  8
_0-1_計細線
  6
CONTINUOUS
 62
    3
 10
532.16328124999518
 20
537.80496083551134
 11
520.76328124999463
 21
537.80496083551134
  0
LINE
  8
_0-1_計細線
  6
CONTINUOUS
 62
    3
 10
532.16328124999427
 20
738.80496083550997
 11
520.76328124999361
 21
738.80496083550997
  0
LINE
  8
_0-0_計極細
  6
CONTINUOUS
 62
    2
 10
523.96328124999491
 20
537.80496083551134
 11
523.96328124999388
 21
738.80496083550997
  0
LINE
  8
_0-0_計極細
  6
CONTINUOUS
 62
    2
 10
528.96328124999491
 20
537.80496083551134
 11
528.96328124999388
 21
738.80496083550997
  0
LINE
  8
_0-1_計細線
  6
CONTINUOUS
 62
    3
 10
515.16328124999518
 20
537.80496083551134
 11
515.16328124999416
 21
738.80496083550997
  0
LINE
  8
_0-1_計細線
  6
CONTINUOUS
 62
    3
 10
503.76328124999469
 20
537.80496083551134
 11
503.76328124999361
 21
738.80496083550997
  0
LINE
  8
_0-1_計細線
  6
CONTINUOUS
 62
    3
 10
515.16328124999518
 20
537.80496083551134
 11
503.76328124999469
 21
537.80496083551134
  0
LINE
  8
_0-1_計細線
  6
CONTINUOUS
 62
    3
 10
515.16328124999416
 20
738.80496083550997
 11
503.76328124999361
 21
738.80496083550997
  0
LINE
  8
_0-0_計極細
  6
CONTINUOUS
 62
    2
 10
506.96328124999496
 20
537.80496083551134
 11
506.96328124999388
 21
738.80496083550997
  0
LINE
  8
_0-0_計極細
  6
CONTINUOUS
 62
    2
 10
511.96328124999496
 20
537.80496083551134
 11
511.96328124999388
 21
738.80496083550997
  0
LINE
  8
_0-1_計細線
  6
CONTINUOUS
 62
    3
 10
498.16328124999524
 20
537.80496083551134
 11
498.16328124999416
 21
738.80496083550997
  0
LINE
  8
_0-1_計細線
  6
CONTINUOUS
 62
    3
 10
486.76328124999463
 20
537.80496083551134
 11
486.76328124999367
 21
738.80496083550997
  0
LINE
  8
_0-1_計細線
  6
CONTINUOUS
 62
    3
 10
498.16328124999524
 20
537.80496083551134
 11
486.76328124999463
 21
537.80496083551134
  0
LINE
  8
_0-1_計細線
  6
CONTINUOUS
 62
    3
 10
498.16328124999416
 20
738.80496083550997
 11
486.76328124999367
 21
738.80496083550997
  0
LINE
  8
_0-0_計極細
  6
CONTINUOUS
 62
    2
 10
489.96328124999491
 20
537.80496083551134
 11
489.96328124999394
 21
738.80496083550997
  0
LINE
  8
_0-0_計極細
  6
CONTINUOUS
 62
    2
 10
494.96328124999491
 20
537.80496083551134
 11
494.96328124999394
 21
738.80496083550997
  0
LINE
  8
_0-1_計細線
  6
CONTINUOUS
 62
    3
 10
481.16328124999518
 20
537.80496083551134
 11
481.16328124999421
 21
738.80496083550997
  0
LINE
  8
_0-1_計細線
  6
CONTINUOUS
 62
    3
 10
469.76328124999469
 20
537.80496083551134
 11
469.76328124999361
 21
738.80496083550997
  0
LINE
  8
_0-1_計細線
  6
CONTINUOUS
 62
    3
 10
481.16328124999518
 20
537.80496083551134
 11
469.76328124999469
 21
537.80496083551134
  0
LINE
  8
_0-1_計細線
  6
CONTINUOUS
 62
    3
 10
481.16328124999421
 20
738.80496083550997
 11
469.76328124999361
 21
738.80496083550997
  0
LINE
  8
_0-0_計極細
  6
CONTINUOUS
 62
    2
 10
472.96328124999491
 20
537.80496083551134
 11
472.96328124999388
 21
738.80496083550997
  0
LINE
  8
_0-0_計極細
  6
CONTINUOUS
 62
    2
 10
477.96328124999491
 20
537.80496083551134
 11
477.96328124999388
 21
738.80496083550997
  0
LINE
  8
_0-1_計細線
  6
CONTINUOUS
 62
    3
 10
464.16328124999524
 20
537.80496083551134
 11
464.16328124999416
 21
738.80496083550997
  0
LINE
  8
_0-1_計細線
  6
CONTINUOUS
 62
    3
 10
452.76328124999463
 20
537.80496083551134
 11
452.76328124999367
 21
738.80496083550997
  0
LINE
  8
_0-1_計細線
  6
CONTINUOUS
 62
    3
 10
464.16328124999524
 20
537.80496083551134
 11
452.76328124999463
 21
537.80496083551134
  0
LINE
  8
_0-1_計細線
  6
CONTINUOUS
 62
    3
 10
464.16328124999416
 20
738.80496083550997
 11
452.76328124999367
 21
738.80496083550997
  0
LINE
  8
_0-0_計極細
  6
CONTINUOUS
 62
    2
 10
455.96328124999496
 20
537.80496083551134
 11
455.96328124999388
 21
738.80496083550997
  0
LINE
  8
_0-0_計極細
  6
CONTINUOUS
 62
    2
 10
460.96328124999496
 20
537.80496083551134
 11
460.96328124999388
 21
738.80496083550997
  0
LINE
  8
_0-1_計細線
  6
CONTINUOUS
 62
    3
 10
447.16328124999518
 20
537.80496083551134
 11
447.16328124999421
 21
738.80496083550997
  0
LINE
  8
_0-1_計細線
  6
CONTINUOUS
 62
    3
 10
435.76328124999463
 20
537.80496083551134
 11
435.76328124999361
 21
738.80496083550997
  0
LINE
  8
_0-1_計細線
  6
CONTINUOUS
 62
    3
 10
447.16328124999518
 20
537.80496083551134
 11
435.76328124999463
 21
537.80496083551134
  0
LINE
  8
_0-1_計細線
  6
CONTINUOUS
 62
    3
 10
447.16328124999421
 20
738.80496083550997
 11
435.76328124999361
 21
738.80496083550997
  0
LINE
  8
_0-0_計極細
  6
CONTINUOUS
 62
    2
 10
438.96328124999491
 20
537.80496083551134
 11
438.96328124999394
 21
738.80496083550997
  0
LINE
  8
_0-0_計極細
  6
CONTINUOUS
 62
    2
 10
443.96328124999491
 20
537.80496083551134
 11
443.96328124999394
 21
738.80496083550997
  0
LINE
  8
_0-1_計細線
  6
CONTINUOUS
 62
    3
 10
430.16328124999518
 20
537.80496083551134
 11
430.16328124999416
 21
738.80496083550997
  0
LINE
  8
_0-1_計細線
  6
CONTINUOUS
 62
    3
 10
418.76328124999469
 20
537.80496083551134
 11
418.76328124999361
 21
738.80496083550997
  0
LINE
  8
_0-1_計細線
  6
CONTINUOUS
 62
    3
 10
430.16328124999518
 20
537.80496083551134
 11
418.76328124999469
 21
537.80496083551134
  0
LINE
  8
_0-1_計細線
  6
CONTINUOUS
 62
    3
 10
430.16328124999416
 20
738.80496083550997
 11
418.76328124999361
 21
738.80496083550997
  0
LINE
  8
_0-0_計極細
  6
CONTINUOUS
 62
    2
 10
421.96328124999496
 20
537.80496083551134
 11
421.96328124999388
 21
738.80496083550997
  0
LINE
  8
_0-0_計極細
  6
CONTINUOUS
 62
    2
 10
426.96328124999496
 20
537.80496083551134
 11
426.96328124999388
 21
738.80496083550997
  0
LINE
  8
_0-1_計細線
  6
CONTINUOUS
 62
    3
 10
413.16328124999524
 20
537.80496083551134
 11
413.16328124999416
 21
738.80496083550997
  0
LINE
  8
_0-1_計細線
  6
CONTINUOUS
 62
    3
 10
401.76328124999463
 20
537.80496083551134
 11
401.76328124999367
 21
738.80496083550997
  0
LINE
  8
_0-1_計細線
  6
CONTINUOUS
 62
    3
 10
413.16328124999524
 20
537.80496083551134
 11
401.76328124999463
 21
537.80496083551134
  0
LINE
  8
_0-1_計細線
  6
CONTINUOUS
 62
    3
 10
413.16328124999416
 20
738.80496083550997
 11
401.76328124999367
 21
738.80496083550997
  0
LINE
  8
_0-0_計極細
  6
CONTINUOUS
 62
    2
 10
404.96328124999491
 20
537.80496083551134
 11
404.96328124999394
 21
738.80496083550997
  0
LINE
  8
_0-0_計極細
  6
CONTINUOUS
 62
    2
 10
409.96328124999491
 20
537.80496083551134
 11
409.96328124999394
 21
738.80496083550997
  0
LINE
  8
_0-1_計細線
  6
CONTINUOUS
 62
    3
 10
396.16328124999512
 20
537.80496083551134
 11
396.16328124999421
 21
738.80496083550997
  0
LINE
  8
_0-1_計細線
  6
CONTINUOUS
 62
    3
 10
384.76328124999452
 20
537.80496083551134
 11
384.76328124999361
 21
738.80496083550997
  0
LINE
  8
_0-1_計細線
  6
CONTINUOUS
 62
    3
 10
396.16328124999512
 20
537.80496083551134
 11
384.76328124999452
 21
537.80496083551134
  0
LINE
  8
_0-1_計細線
  6
CONTINUOUS
 62
    3
 10
396.16328124999421
 20
738.80496083550997
 11
384.76328124999361
 21
738.80496083550997
  0
LINE
  8
_0-0_計極細
  6
CONTINUOUS
 62
    2
 10
387.96328124999485
 20
537.80496083551134
 11
387.96328124999388
 21
738.80496083550997
  0
LINE
  8
_0-0_計極細
  6
CONTINUOUS
 62
    2
 10
392.96328124999485
 20
537.80496083551134
 11
392.96328124999388
 21
738.80496083550997
  0
LINE
  8
_0-1_計細線
  6
CONTINUOUS
 62
    3
 10
379.16328124999507
 20
537.80496083551134
 11
379.16328124999416
 21
738.80496083550997
  0
LINE
  8
_0-1_計細線
  6
CONTINUOUS
 62
    3
 10
367.76328124999452
 20
537.80496083551134
 11
367.76328124999361
 21
738.80496083550997
  0
LINE
  8
_0-1_計細線
  6
CONTINUOUS
 62
    3
 10
379.16328124999507
 20
537.80496083551134
 11
367.76328124999452
 21
537.80496083551134
  0
LINE
  8
_0-1_計細線
  6
CONTINUOUS
 62
    3
 10
379.16328124999416
 20
738.80496083550997
 11
367.76328124999361
 21
738.80496083550997
  0
LINE
  8
_0-0_計極細
  6
CONTINUOUS
 62
    2
 10
370.96328124999479
 20
537.80496083551134
 11
370.96328124999388
 21
738.80496083550997
  0
LINE
  8
_0-0_計極細
  6
CONTINUOUS
 62
    2
 10
375.96328124999479
 20
537.80496083551134
 11
375.96328124999388
 21
738.80496083550997
  0
LINE
  8
_0-1_計細線
  6
CONTINUOUS
 62
    3
 10
362.16328124999507
 20
537.80496083551134
 11
362.16328124999416
 21
738.80496083550997
  0
LINE
  8
_0-1_計細線
  6
CONTINUOUS
 62
    3
 10
350.76328124999475
 20
537.80496083551134
 11
350.76328124999361
 21
738.80496083550997
  0
LINE
  8
_0-1_計細線
  6
CONTINUOUS
 62
    3
 10
362.16328124999507
 20
537.80496083551134
 11
350.76328124999475
 21
537.80496083551134
  0
LINE
  8
_0-1_計細線
  6
CONTINUOUS
 62
    3
 10
362.16328124999416
 20
738.80496083550997
 11
350.76328124999361
 21
738.80496083550997
  0
LINE
  8
_0-0_計極細
  6
CONTINUOUS
 62
    2
 10
353.96328124999479
 20
537.80496083551134
 11
353.96328124999394
 21
738.80496083550997
  0
LINE
  8
_0-0_計極細
  6
CONTINUOUS
 62
    2
 10
358.96328124999479
 20
537.80496083551134
 11
358.96328124999394
 21
738.80496083550997
  0
LINE
  8
_0-1_計細線
  6
CONTINUOUS
 62
    3
 10
345.16328124999529
 20
537.80496083551134
 11
345.16328124999416
 21
738.80496083550997
  0
LINE
  8
_0-1_計細線
  6
CONTINUOUS
 62
    3
 10
333.76328124999475
 20
537.80496083551134
 11
333.76328124999361
 21
738.80496083550997
  0
LINE
  8
_0-1_計細線
  6
CONTINUOUS
 62
    3
 10
345.16328124999529
 20
537.80496083551134
 11
333.76328124999475
 21
537.80496083551134
  0
LINE
  8
_0-1_計細線
  6
CONTINUOUS
 62
    3
 10
345.16328124999416
 20
738.80496083550997
 11
333.76328124999361
 21
738.80496083550997
  0
LINE
  8
_0-0_計極細
  6
CONTINUOUS
 62
    2
 10
336.96328124999502
 20
537.80496083551134
 11
336.96328124999388
 21
738.80496083550997
  0
LINE
  8
_0-0_計極細
  6
CONTINUOUS
 62
    2
 10
341.96328124999502
 20
537.80496083551134
 11
341.96328124999388
 21
738.80496083550997
  0
LINE
  8
_0-1_計細線
  6
CONTINUOUS
 62
    3
 10
328.16328124999529
 20
537.80496083551134
 11
328.16328124999416
 21
738.80496083550997
  0
LINE
  8
_0-1_計細線
  6
CONTINUOUS
 62
    3
 10
316.76328124999475
 20
537.80496083551134
 11
316.76328124999361
 21
738.80496083550997
  0
LINE
  8
_0-1_計細線
  6
CONTINUOUS
 62
    3
 10
328.16328124999529
 20
537.80496083551134
 11
316.76328124999475
 21
537.80496083551134
  0
LINE
  8
_0-1_計細線
  6
CONTINUOUS
 62
    3
 10
328.16328124999416
 20
738.80496083550997
 11
316.76328124999361
 21
738.80496083550997
  0
LINE
  8
_0-0_計極細
  6
CONTINUOUS
 62
    2
 10
319.96328124999508
 20
537.80496083551134
 11
319.96328124999394
 21
738.80496083550997
  0
LINE
  8
_0-0_計極細
  6
CONTINUOUS
 62
    2
 10
324.96328124999502
 20
537.80496083551134
 11
324.96328124999388
 21
738.80496083550997
  0
LINE
  8
_0-1_計細線
  6
CONTINUOUS
 62
    3
 10
311.16328124999529
 20
537.80496083551134
 11
311.16328124999416
 21
738.80496083550997
  0
LINE
  8
_0-1_計細線
  6
CONTINUOUS
 62
    3
 10
299.76328124999475
 20
537.80496083551134
 11
299.76328124999361
 21
738.80496083550997
  0
LINE
  8
_0-1_計細線
  6
CONTINUOUS
 62
    3
 10
311.16328124999529
 20
537.80496083551134
 11
299.76328124999475
 21
537.80496083551134
  0
LINE
  8
_0-1_計細線
  6
CONTINUOUS
 62
    3
 10
311.16328124999416
 20
738.80496083550997
 11
299.76328124999361
 21
738.80496083550997
  0
LINE
  8
_0-0_計極細
  6
CONTINUOUS
 62
    2
 10
302.96328124999502
 20
537.80496083551134
 11
302.96328124999388
 21
738.80496083550997
  0
LINE
  8
_0-0_計極細
  6
CONTINUOUS
 62
    2
 10
307.96328124999502
 20
537.80496083551134
 11
307.96328124999388
 21
738.80496083550997
  0
LINE
  8
_0-1_計細線
  6
CONTINUOUS
 62
    3
 10
293.7632812499952
 20
537.80496083551134
 11
293.76328124999407
 21
738.80496083550997
  0
LINE
  8
_0-1_計細線
  6
CONTINUOUS
 62
    3
 10
282.36328124999466
 20
537.80496083551134
 11
282.36328124999352
 21
738.80496083550997
  0
LINE
  8
_0-1_計細線
  6
CONTINUOUS
 62
    3
 10
293.7632812499952
 20
537.80496083551134
 11
282.36328124999466
 21
537.80496083551134
  0
LINE
  8
_0-1_計細線
  6
CONTINUOUS
 62
    3
 10
293.76328124999407
 20
738.80496083550997
 11
282.36328124999352
 21
738.80496083550997
  0
LINE
  8
_0-0_計極細
  6
CONTINUOUS
 62
    2
 10
285.56328124999493
 20
537.80496083551134
 11
285.56328124999379
 21
738.80496083550997
  0
LINE
  8
_0-0_計極細
  6
CONTINUOUS
 62
    2
 10
290.56328124999493
 20
537.80496083551134
 11
290.56328124999379
 21
738.80496083550997
  0
LINE
  8
_0-1_計細線
  6
CONTINUOUS
 62
    3
 10
276.36328124999534
 20
537.80496083551134
 11
276.3632812499942
 21
738.80496083550997
  0
LINE
  8
_0-1_計細線
  6
CONTINUOUS
 62
    3
 10
264.96328124999479
 20
537.80496083551134
 11
264.96328124999366
 21
738.80496083550997
  0
LINE
  8
_0-1_計細線
  6
CONTINUOUS
 62
    3
 10
276.36328124999534
 20
537.80496083551134
 11
264.96328124999479
 21
537.80496083551134
  0
LINE
  8
_0-1_計細線
  6
CONTINUOUS
 62
    3
 10
276.3632812499942
 20
738.80496083550997
 11
264.96328124999366
 21
738.80496083550997
  0
LINE
  8
_0-0_計極細
  6
CONTINUOUS
 62
    2
 10
268.16328124999507
 20
537.80496083551134
 11
268.16328124999393
 21
738.80496083550997
  0
LINE
  8
_0-0_計極細
  6
CONTINUOUS
 62
    2
 10
273.16328124999507
 20
537.80496083551134
 11
273.16328124999393
 21
738.80496083550997
  0
LINE
  8
_0-1_計細線
  6
CONTINUOUS
 62
    3
 10
258.96328124999548
 20
537.80496083551134
 11
258.96328124999434
 21
738.80496083550997
  0
LINE
  8
_0-1_計細線
  6
CONTINUOUS
 62
    3
 10
247.56328124999499
 20
537.80496083551134
 11
247.56328124999385
 21
738.80496083550997
  0
LINE
  8
_0-1_計細線
  6
CONTINUOUS
 62
    3
 10
258.96328124999548
 20
537.80496083551134
 11
247.56328124999499
 21
537.80496083551134
  0
LINE
  8
_0-1_計細線
  6
CONTINUOUS
 62
    3
 10
258.96328124999434
 20
738.80496083550997
 11
247.56328124999385
 21
738.80496083550997
  0
LINE
  8
_0-0_計極細
  6
CONTINUOUS
 62
    2
 10
250.7632812499952
 20
537.80496083551134
 11
250.76328124999407
 21
738.80496083550997
  0
LINE
  8
_0-0_計極細
  6
CONTINUOUS
 62
    2
 10
255.7632812499952
 20
537.80496083551134
 11
255.76328124999407
 21
738.80496083550997
  0
LINE
  8
_0-1_計細線
  6
CONTINUOUS
 62
    3
 10
241.56328124999561
 20
537.80496083551134
 11
241.56328124999447
 21
738.80496083550997
  0
LINE
  8
_0-1_計細線
  6
CONTINUOUS
 62
    3
 10
230.16328124999504
 20
537.80496083551134
 11
230.1632812499939
 21
738.80496083550997
  0
LINE
  8
_0-1_計細線
  6
CONTINUOUS
 62
    3
 10
241.56328124999561
 20
537.80496083551134
 11
230.16328124999504
 21
537.80496083551134
  0
LINE
  8
_0-1_計細線
  6
CONTINUOUS
 62
    3
 10
241.56328124999447
 20
738.80496083550997
 11
230.1632812499939
 21
738.80496083550997
  0
LINE
  8
_0-0_計極細
  6
CONTINUOUS
 62
    2
 10
233.3632812499954
 20
537.80496083551134
 11
233.36328124999426
 21
738.80496083550997
  0
LINE
  8
_0-0_計極細
  6
CONTINUOUS
 62
    2
 10
238.3632812499954
 20
537.80496083551134
 11
238.36328124999426
 21
738.80496083550997
  0
LINE
  8
_0-1_計細線
  6
CONTINUOUS
 62
    3
 10
208.66328124999072
 20
713.30496083550872
 11
230.16328124999211
 21
713.30496083550872
  0
LINE
  8
_0-1_計細線
  6
CONTINUOUS
 62
    3
 10
208.66328124999072
 20
563.30496083550997
 11
230.16328124999211
 21
563.30496083550997
  0
LINE
  8
_0-0_計極細
  6
CONTINUOUS
 62
    2
 10
1200.7632812499937
 20
577.80496083551088
 11
1195.1632812499934
 21
577.80496083551088
  0
LINE
  8
_0-0_計極細
  6
CONTINUOUS
 62
    2
 10
1200.7632812499937
 20
590.80496083551088
 11
1195.1632812499934
 21
590.80496083551088
  0
LINE
  8
_0-0_計極細
  6
CONTINUOUS
 62
    2
 10
1200.7632812499942
 20
685.804960835511
 11
1195.1632812499938
 21
685.804960835511
  0
LINE
  8
_0-0_計極細
  6
CONTINUOUS
 62
    2
 10
1200.7632812499942
 20
698.80496083551088
 11
1195.1632812499938
 21
698.80496083551088
  0
LINE
  8
_0-0_計極細
  6
CONTINUOUS
 62
    2
 10
1183.7632812499928
 20
577.80496083551111
 11
1178.1632812499929
 21
577.80496083551111
  0
LINE
  8
_0-0_計極細
  6
CONTINUOUS
 62
    2
 10
1183.7632812499928
 20
590.80496083551111
 11
1178.1632812499929
 21
590.80496083551111
  0
LINE
  8
_0-0_計極細
  6
CONTINUOUS
 62
    2
 10
1183.7632812499933
 20
685.80496083551111
 11
1178.1632812499929
 21
685.80496083551111
  0
LINE
  8
_0-0_計極細
  6
CONTINUOUS
 62
    2
 10
1183.7632812499933
 20
698.80496083551111
 11
1178.1632812499929
 21
698.80496083551111
  0
LINE
  8
_0-0_計極細
  6
CONTINUOUS
 62
    2
 10
1161.163281249997
 20
577.80496083551111
 11
1166.7632812499969
 21
577.80496083551111
  0
LINE
  8
_0-0_計極細
  6
CONTINUOUS
 62
    2
 10
1161.163281249997
 20
590.80496083551111
 11
1166.7632812499969
 21
590.80496083551111
  0
LINE
  8
_0-0_計極細
  6
CONTINUOUS
 62
    2
 10
1161.163281249997
 20
685.80496083551111
 11
1166.7632812499969
 21
685.80496083551111
  0
LINE
  8
_0-0_計極細
  6
CONTINUOUS
 62
    2
 10
1161.163281249997
 20
698.80496083551111
 11
1166.7632812499969
 21
698.80496083551111
  0
LINE
  8
_0-0_計極細
  6
CONTINUOUS
 62
    2
 10
1144.1632812499961
 20
577.80496083551088
 11
1149.7632812499965
 21
577.80496083551088
  0
LINE
  8
_0-0_計極細
  6
CONTINUOUS
 62
    2
 10
1144.1632812499965
 20
590.80496083551088
 11
1149.7632812499965
 21
590.80496083551088
  0
LINE
  8
_0-0_計極細
  6
CONTINUOUS
 62
    2
 10
1127.1632812499956
 20
577.80496083551088
 11
1132.7632812499955
 21
577.80496083551088
  0
LINE
  8
_0-0_計極細
  6
CONTINUOUS
 62
    2
 10
1127.1632812499956
 20
590.80496083551088
 11
1132.763281249996
 21
590.80496083551088
  0
LINE
  8
_0-0_計極細
  6
CONTINUOUS
 62
    2
 10
1127.1632812499961
 20
685.804960835511
 11
1132.763281249996
 21
685.804960835511
  0
LINE
  8
_0-0_計極細
  6
CONTINUOUS
 62
    2
 10
1127.1632812499961
 20
698.80496083551088
 11
1132.763281249996
 21
698.80496083551088
  0
LINE
  8
_0-0_計極細
  6
CONTINUOUS
 62
    2
 10
1110.1632812499947
 20
577.80496083551111
 11
1115.7632812499951
 21
577.80496083551111
  0
LINE
  8
_0-0_計極細
  6
CONTINUOUS
 62
    2
 10
1110.1632812499947
 20
590.80496083551111
 11
1115.7632812499951
 21
590.80496083551111
  0
LINE
  8
_0-0_計極細
  6
CONTINUOUS
 62
    2
 10
1110.1632812499947
 20
685.80496083551111
 11
1115.7632812499955
 21
685.80496083551111
  0
LINE
  8
_0-0_計極細
  6
CONTINUOUS
 62
    2
 10
1110.1632812499947
 20
698.80496083551111
 11
1115.7632812499955
 21
698.80496083551111
  0
LINE
  8
_0-0_計極細
  6
CONTINUOUS
 62
    2
 10
1093.1632812499947
 20
577.80496083551111
 11
1098.7632812499951
 21
577.80496083551111
  0
LINE
  8
_0-0_計極細
  6
CONTINUOUS
 62
    2
 10
1093.1632812499947
 20
590.80496083551111
 11
1098.7632812499951
 21
590.80496083551111
  0
LINE
  8
_0-0_計極細
  6
CONTINUOUS
 62
    2
 10
1144.1632812499975
 20
685.804960835511
 11
1149.7632812499974
 21
685.804960835511
  0
LINE
  8
_0-0_計極細
  6
CONTINUOUS
 62
    2
 10
1144.1632812499975
 20
698.80496083551088
 11
1149.7632812499974
 21
698.80496083551088
  0
LINE
  8
_0-0_計極細
  6
CONTINUOUS
 62
    2
 10
1081.7632812499942
 20
577.80496083551088
 11
1076.1632812499943
 21
577.80496083551088
  0
LINE
  8
_0-0_計極細
  6
CONTINUOUS
 62
    2
 10
1081.7632812499942
 20
590.80496083551088
 11
1076.1632812499943
 21
590.80496083551088
  0
LINE
  8
_0-0_計極細
  6
CONTINUOUS
 62
    2
 10
1081.7632812499946
 20
685.804960835511
 11
1076.1632812499943
 21
685.804960835511
  0
LINE
  8
_0-0_計極細
  6
CONTINUOUS
 62
    2
 10
1081.7632812499946
 20
698.80496083551088
 11
1076.1632812499943
 21
698.80496083551088
  0
LINE
  8
_0-0_計極細
  6
CONTINUOUS
 62
    2
 10
1217.763281249996
 20
577.80496083551088
 11
1212.1632812499956
 21
577.80496083551088
  0
LINE
  8
_0-0_計極細
  6
CONTINUOUS
 62
    2
 10
1217.763281249996
 20
590.80496083551088
 11
1212.1632812499956
 21
590.80496083551088
  0
LINE
  8
_0-0_計極細
  6
CONTINUOUS
 62
    2
 10
1217.763281249996
 20
685.804960835511
 11
1212.1632812499956
 21
685.804960835511
  0
LINE
  8
_0-0_計極細
  6
CONTINUOUS
 62
    2
 10
1217.763281249996
 20
698.80496083551088
 11
1212.1632812499956
 21
698.80496083551088
  0
LINE
  8
_0-0_計極細
  6
CONTINUOUS
 62
    2
 10
1064.7632812499946
 20
577.80496083551088
 11
1059.1632812499943
 21
577.80496083551088
  0
LINE
  8
_0-0_計極細
  6
CONTINUOUS
 62
    2
 10
1064.7632812499946
 20
590.80496083551088
 11
1059.1632812499943
 21
590.80496083551088
  0
LINE
  8
_0-0_計極細
  6
CONTINUOUS
 62
    2
 10
1064.7632812499946
 20
685.804960835511
 11
1059.1632812499947
 21
685.804960835511
  0
LINE
  8
_0-0_計極細
  6
CONTINUOUS
 62
    2
 10
1064.7632812499946
 20
698.80496083551088
 11
1059.1632812499947
 21
698.80496083551088
  0
LINE
  8
_0-0_計極細
  6
CONTINUOUS
 62
    2
 10
1047.7632812499946
 20
577.80496083551088
 11
1042.1632812499943
 21
577.80496083551088
  0
LINE
  8
_0-0_計極細
  6
CONTINUOUS
 62
    2
 10
1047.7632812499946
 20
590.80496083551088
 11
1042.1632812499943
 21
590.80496083551088
  0
LINE
  8
_0-0_計極細
  6
CONTINUOUS
 62
    2
 10
1047.7632812499946
 20
685.804960835511
 11
1042.1632812499947
 21
685.804960835511
  0
LINE
  8
_0-0_計極細
  6
CONTINUOUS
 62
    2
 10
1047.7632812499946
 20
698.80496083551088
 11
1042.1632812499947
 21
698.80496083551088
  0
LINE
  8
_0-0_計極細
  6
CONTINUOUS
 62
    2
 10
1030.7632812499946
 20
577.80496083551088
 11
1025.1632812499943
 21
577.80496083551088
  0
LINE
  8
_0-0_計極細
  6
CONTINUOUS
 62
    2
 10
1030.7632812499946
 20
590.80496083551088
 11
1025.1632812499943
 21
590.80496083551088
  0
LINE
  8
_0-0_計極細
  6
CONTINUOUS
 62
    2
 10
1030.7632812499946
 20
685.804960835511
 11
1025.1632812499947
 21
685.804960835511
  0
LINE
  8
_0-0_計極細
  6
CONTINUOUS
 62
    2
 10
1030.7632812499946
 20
698.80496083551088
 11
1025.1632812499947
 21
698.80496083551088
  0
LINE
  8
_0-0_計極細
  6
CONTINUOUS
 62
    2
 10
1013.7632812499946
 20
577.80496083551088
 11
1008.1632812499945
 21
577.80496083551088
  0
LINE
  8
_0-0_計極細
  6
CONTINUOUS
 62
    2
 10
1013.7632812499946
 20
590.80496083551088
 11
1008.1632812499945
 21
590.80496083551088
  0
LINE
  8
_0-0_計極細
  6
CONTINUOUS
 62
    2
 10
1013.7632812499947
 20
685.804960835511
 11
1008.1632812499946
 21
685.804960835511
  0
LINE
  8
_0-0_計極細
  6
CONTINUOUS
 62
    2
 10
1013.7632812499947
 20
698.80496083551088
 11
1008.1632812499946
 21
698.80496083551088
  0
LINE
  8
_0-0_計極細
  6
CONTINUOUS
 62
    2
 10
996.76328124999463
 20
577.80496083551088
 11
991.16328124999438
 21
577.80496083551088
  0
LINE
  8
_0-0_計極細
  6
CONTINUOUS
 62
    2
 10
996.76328124999463
 20
590.80496083551088
 11
991.16328124999438
 21
590.80496083551088
  0
LINE
  8
_0-0_計極細
  6
CONTINUOUS
 62
    2
 10
996.76328124999486
 20
685.804960835511
 11
991.1632812499945
 21
685.804960835511
  0
LINE
  8
_0-0_計極細
  6
CONTINUOUS
 62
    2
 10
996.76328124999486
 20
698.80496083551088
 11
991.1632812499945
 21
698.80496083551088
  0
LINE
  8
_0-0_計極細
  6
CONTINUOUS
 62
    2
 10
979.76328124999452
 20
577.80496083551088
 11
974.16328124999438
 21
577.80496083551088
  0
LINE
  8
_0-0_計極細
  6
CONTINUOUS
 62
    2
 10
979.76328124999452
 20
590.80496083551088
 11
974.16328124999438
 21
590.80496083551088
  0
LINE
  8
_0-0_計極細
  6
CONTINUOUS
 62
    2
 10
979.76328124999486
 20
685.804960835511
 11
974.1632812499945
 21
685.804960835511
  0
LINE
  8
_0-0_計極細
  6
CONTINUOUS
 62
    2
 10
979.76328124999486
 20
698.80496083551088
 11
974.1632812499945
 21
698.80496083551088
  0
LINE
  8
_0-0_計極細
  6
CONTINUOUS
 62
    2
 10
962.76328124999452
 20
577.80496083551088
 11
957.1632812499945
 21
577.80496083551088
  0
LINE
  8
_0-0_計極細
  6
CONTINUOUS
 62
    2
 10
962.76328124999452
 20
590.80496083551088
 11
957.1632812499945
 21
590.80496083551088
  0
LINE
  8
_0-0_計極細
  6
CONTINUOUS
 62
    2
 10
962.76328124999486
 20
685.804960835511
 11
957.1632812499945
 21
685.804960835511
  0
LINE
  8
_0-0_計極細
  6
CONTINUOUS
 62
    2
 10
962.76328124999486
 20
698.80496083551088
 11
957.1632812499945
 21
698.80496083551088
  0
LINE
  8
_0-0_計極細
  6
CONTINUOUS
 62
    2
 10
945.76328124999463
 20
577.80496083551088
 11
940.1632812499945
 21
577.80496083551088
  0
LINE
  8
_0-0_計極細
  6
CONTINUOUS
 62
    2
 10
945.76328124999463
 20
590.80496083551088
 11
940.1632812499945
 21
590.80496083551088
  0
LINE
  8
_0-0_計極細
  6
CONTINUOUS
 62
    2
 10
945.76328124999475
 20
685.804960835511
 11
940.16328124999461
 21
685.804960835511
  0
LINE
  8
_0-0_計極細
  6
CONTINUOUS
 62
    2
 10
945.76328124999475
 20
698.80496083551088
 11
940.16328124999461
 21
698.80496083551088
  0
LINE
  8
_0-0_計極細
  6
CONTINUOUS
 62
    2
 10
928.76328124999463
 20
577.80496083551088
 11
923.1632812499945
 21
577.80496083551088
  0
LINE
  8
_0-0_計極細
  6
CONTINUOUS
 62
    2
 10
928.76328124999463
 20
590.80496083551088
 11
923.1632812499945
 21
590.80496083551088
  0
LINE
  8
_0-0_計極細
  6
CONTINUOUS
 62
    2
 10
928.76328124999475
 20
685.804960835511
 11
923.16328124999461
 21
685.804960835511
  0
LINE
  8
_0-0_計極細
  6
CONTINUOUS
 62
    2
 10
928.76328124999475
 20
698.80496083551088
 11
923.16328124999461
 21
698.80496083551088
  0
LINE
  8
_0-0_計極細
  6
CONTINUOUS
 62
    2
 10
911.76328124999463
 20
577.80496083551088
 11
906.16328124999438
 21
577.80496083551088
  0
LINE
  8
_0-0_計極細
  6
CONTINUOUS
 62
    2
 10
911.76328124999463
 20
590.80496083551088
 11
906.16328124999438
 21
590.80496083551088
  0
LINE
  8
_0-0_計極細
  6
CONTINUOUS
 62
    2
 10
911.76328124999486
 20
685.804960835511
 11
906.1632812499945
 21
685.804960835511
  0
LINE
  8
_0-0_計極細
  6
CONTINUOUS
 62
    2
 10
911.76328124999486
 20
698.80496083551088
 11
906.1632812499945
 21
698.80496083551088
  0
LINE
  8
_0-0_計極細
  6
CONTINUOUS
 62
    2
 10
894.76328124999452
 20
577.80496083551088
 11
889.16328124999438
 21
577.80496083551088
  0
LINE
  8
_0-0_計極細
  6
CONTINUOUS
 62
    2
 10
894.76328124999452
 20
590.80496083551088
 11
889.16328124999438
 21
590.80496083551088
  0
LINE
  8
_0-0_計極細
  6
CONTINUOUS
 62
    2
 10
894.76328124999486
 20
685.804960835511
 11
889.1632812499945
 21
685.804960835511
  0
LINE
  8
_0-0_計極細
  6
CONTINUOUS
 62
    2
 10
894.76328124999486
 20
698.80496083551088
 11
889.1632812499945
 21
698.80496083551088
  0
LINE
  8
_0-0_計極細
  6
CONTINUOUS
 62
    2
 10
877.76328124999452
 20
577.80496083551088
 11
872.1632812499945
 21
577.80496083551088
  0
LINE
  8
_0-0_計極細
  6
CONTINUOUS
 62
    2
 10
877.76328124999452
 20
590.80496083551088
 11
872.1632812499945
 21
590.80496083551088
  0
LINE
  8
_0-0_計極細
  6
CONTINUOUS
 62
    2
 10
877.76328124999486
 20
685.804960835511
 11
872.1632812499945
 21
685.804960835511
  0
LINE
  8
_0-0_計極細
  6
CONTINUOUS
 62
    2
 10
877.76328124999486
 20
698.80496083551088
 11
872.1632812499945
 21
698.80496083551088
  0
LINE
  8
_0-0_計極細
  6
CONTINUOUS
 62
    2
 10
860.76328124999463
 20
577.80496083551088
 11
855.1632812499945
 21
577.80496083551088
  0
LINE
  8
_0-0_計極細
  6
CONTINUOUS
 62
    2
 10
860.76328124999463
 20
590.80496083551088
 11
855.1632812499945
 21
590.80496083551088
  0
LINE
  8
_0-0_計極細
  6
CONTINUOUS
 62
    2
 10
860.76328124999475
 20
685.804960835511
 11
855.16328124999461
 21
685.804960835511
  0
LINE
  8
_0-0_計極細
  6
CONTINUOUS
 62
    2
 10
860.76328124999475
 20
698.80496083551088
 11
855.16328124999461
 21
698.80496083551088
  0
LINE
  8
_0-0_計極細
  6
CONTINUOUS
 62
    2
 10
843.76328124999463
 20
577.80496083551088
 11
838.1632812499945
 21
577.80496083551088
  0
LINE
  8
_0-0_計極細
  6
CONTINUOUS
 62
    2
 10
843.76328124999463
 20
590.80496083551088
 11
838.1632812499945
 21
590.80496083551088
  0
LINE
  8
_0-0_計極細
  6
CONTINUOUS
 62
    2
 10
843.76328124999475
 20
685.804960835511
 11
838.16328124999461
 21
685.804960835511
  0
LINE
  8
_0-0_計極細
  6
CONTINUOUS
 62
    2
 10
843.76328124999475
 20
698.80496083551088
 11
838.16328124999461
 21
698.80496083551088
  0
LINE
  8
_0-0_計極細
  6
CONTINUOUS
 62
    2
 10
826.76328124999463
 20
577.80496083551088
 11
821.16328124999438
 21
577.80496083551088
  0
LINE
  8
_0-0_計極細
  6
CONTINUOUS
 62
    2
 10
826.76328124999463
 20
590.80496083551088
 11
821.16328124999438
 21
590.80496083551088
  0
LINE
  8
_0-0_計極細
  6
CONTINUOUS
 62
    2
 10
826.76328124999486
 20
685.804960835511
 11
821.1632812499945
 21
685.804960835511
  0
LINE
  8
_0-0_計極細
  6
CONTINUOUS
 62
    2
 10
826.76328124999486
 20
698.80496083551088
 11
821.1632812499945
 21
698.80496083551088
  0
LINE
  8
_0-0_計極細
  6
CONTINUOUS
 62
    2
 10
809.76328124999452
 20
577.80496083551088
 11
804.16328124999438
 21
577.80496083551088
  0
LINE
  8
_0-0_計極細
  6
CONTINUOUS
 62
    2
 10
809.76328124999452
 20
590.80496083551088
 11
804.16328124999438
 21
590.80496083551088
  0
LINE
  8
_0-0_計極細
  6
CONTINUOUS
 62
    2
 10
809.76328124999486
 20
685.804960835511
 11
804.1632812499945
 21
685.804960835511
  0
LINE
  8
_0-0_計極細
  6
CONTINUOUS
 62
    2
 10
809.76328124999486
 20
698.80496083551088
 11
804.1632812499945
 21
698.80496083551088
  0
LINE
  8
_0-0_計極細
  6
CONTINUOUS
 62
    2
 10
792.76328124999452
 20
577.80496083551088
 11
787.1632812499945
 21
577.80496083551088
  0
LINE
  8
_0-0_計極細
  6
CONTINUOUS
 62
    2
 10
792.76328124999452
 20
590.80496083551088
 11
787.1632812499945
 21
590.80496083551088
  0
LINE
  8
_0-0_計極細
  6
CONTINUOUS
 62
    2
 10
792.76328124999486
 20
685.804960835511
 11
787.1632812499945
 21
685.804960835511
  0
LINE
  8
_0-0_計極細
  6
CONTINUOUS
 62
    2
 10
792.76328124999486
 20
698.80496083551088
 11
787.1632812499945
 21
698.80496083551088
  0
LINE
  8
_0-0_計極細
  6
CONTINUOUS
 62
    2
 10
775.76328124999463
 20
577.80496083551088
 11
770.1632812499945
 21
577.80496083551088
  0
LINE
  8
_0-0_計極細
  6
CONTINUOUS
 62
    2
 10
775.76328124999463
 20
590.80496083551088
 11
770.1632812499945
 21
590.80496083551088
  0
LINE
  8
_0-0_計極細
  6
CONTINUOUS
 62
    2
 10
775.76328124999475
 20
685.804960835511
 11
770.16328124999461
 21
685.804960835511
  0
LINE
  8
_0-0_計極細
  6
CONTINUOUS
 62
    2
 10
775.76328124999475
 20
698.80496083551088
 11
770.16328124999461
 21
698.80496083551088
  0
LINE
  8
_0-0_計極細
  6
CONTINUOUS
 62
    2
 10
758.76328124999463
 20
577.80496083551088
 11
753.1632812499945
 21
577.80496083551088
  0
LINE
  8
_0-0_計極細
  6
CONTINUOUS
 62
    2
 10
758.76328124999463
 20
590.80496083551088
 11
753.1632812499945
 21
590.80496083551088
  0
LINE
  8
_0-0_計極細
  6
CONTINUOUS
 62
    2
 10
758.76328124999475
 20
685.804960835511
 11
753.16328124999461
 21
685.804960835511
  0
LINE
  8
_0-0_計極細
  6
CONTINUOUS
 62
    2
 10
758.76328124999475
 20
698.80496083551088
 11
753.16328124999461
 21
698.80496083551088
  0
LINE
  8
_0-0_計極細
  6
CONTINUOUS
 62
    2
 10
741.76328124999463
 20
577.80496083551088
 11
736.16328124999438
 21
577.80496083551088
  0
LINE
  8
_0-0_計極細
  6
CONTINUOUS
 62
    2
 10
741.76328124999463
 20
590.80496083551088
 11
736.16328124999438
 21
590.80496083551088
  0
LINE
  8
_0-0_計極細
  6
CONTINUOUS
 62
    2
 10
741.76328124999475
 20
685.804960835511
 11
736.1632812499945
 21
685.804960835511
  0
LINE
  8
_0-0_計極細
  6
CONTINUOUS
 62
    2
 10
741.76328124999475
 20
698.80496083551088
 11
736.1632812499945
 21
698.80496083551088
  0
LINE
  8
_0-0_計極細
  6
CONTINUOUS
 62
    2
 10
724.76328124999452
 20
577.80496083551088
 11
719.16328124999438
 21
577.80496083551088
  0
LINE
  8
_0-0_計極細
  6
CONTINUOUS
 62
    2
 10
724.76328124999452
 20
590.80496083551088
 11
719.16328124999438
 21
590.80496083551088
  0
LINE
  8
_0-0_計極細
  6
CONTINUOUS
 62
    2
 10
724.76328124999486
 20
685.804960835511
 11
719.1632812499945
 21
685.804960835511
  0
LINE
  8
_0-0_計極細
  6
CONTINUOUS
 62
    2
 10
724.76328124999486
 20
698.80496083551088
 11
719.1632812499945
 21
698.80496083551088
  0
LINE
  8
_0-0_計極細
  6
CONTINUOUS
 62
    2
 10
707.76328124999452
 20
577.80496083551088
 11
702.16328124999438
 21
577.80496083551088
  0
LINE
  8
_0-0_計極細
  6
CONTINUOUS
 62
    2
 10
707.76328124999452
 20
590.80496083551088
 11
702.16328124999438
 21
590.80496083551088
  0
LINE
  8
_0-0_計極細
  6
CONTINUOUS
 62
    2
 10
707.76328124999486
 20
685.804960835511
 11
702.1632812499945
 21
685.804960835511
  0
LINE
  8
_0-0_計極細
  6
CONTINUOUS
 62
    2
 10
707.76328124999486
 20
698.80496083551088
 11
702.1632812499945
 21
698.80496083551088
  0
LINE
  8
_0-0_計極細
  6
CONTINUOUS
 62
    2
 10
690.76328124999452
 20
577.80496083551088
 11
685.1632812499945
 21
577.80496083551088
  0
LINE
  8
_0-0_計極細
  6
CONTINUOUS
 62
    2
 10
690.76328124999452
 20
590.80496083551088
 11
685.1632812499945
 21
590.80496083551088
  0
LINE
  8
_0-0_計極細
  6
CONTINUOUS
 62
    2
 10
690.76328124999475
 20
685.804960835511
 11
685.1632812499945
 21
685.804960835511
  0
LINE
  8
_0-0_計極細
  6
CONTINUOUS
 62
    2
 10
690.76328124999475
 20
698.80496083551088
 11
685.1632812499945
 21
698.80496083551088
  0
LINE
  8
_0-0_計極細
  6
CONTINUOUS
 62
    2
 10
673.76328124999463
 20
577.80496083551088
 11
668.1632812499945
 21
577.80496083551088
  0
LINE
  8
_0-0_計極細
  6
CONTINUOUS
 62
    2
 10
673.76328124999463
 20
590.80496083551088
 11
668.1632812499945
 21
590.80496083551088
  0
LINE
  8
_0-0_計極細
  6
CONTINUOUS
 62
    2
 10
673.76328124999475
 20
685.804960835511
 11
668.16328124999461
 21
685.804960835511
  0
LINE
  8
_0-0_計極細
  6
CONTINUOUS
 62
    2
 10
673.76328124999475
 20
698.80496083551088
 11
668.16328124999461
 21
698.80496083551088
  0
LINE
  8
_0-0_計極細
  6
CONTINUOUS
 62
    2
 10
656.76328124999463
 20
577.80496083551088
 11
651.16328124999438
 21
577.80496083551088
  0
LINE
  8
_0-0_計極細
  6
CONTINUOUS
 62
    2
 10
656.76328124999463
 20
590.80496083551088
 11
651.16328124999438
 21
590.80496083551088
  0
LINE
  8
_0-0_計極細
  6
CONTINUOUS
 62
    2
 10
656.76328124999475
 20
685.804960835511
 11
651.1632812499945
 21
685.804960835511
  0
LINE
  8
_0-0_計極細
  6
CONTINUOUS
 62
    2
 10
656.76328124999475
 20
698.80496083551088
 11
651.1632812499945
 21
698.80496083551088
  0
LINE
  8
_0-0_計極細
  6
CONTINUOUS
 62
    2
 10
639.76328124999452
 20
577.80496083551088
 11
634.16328124999438
 21
577.80496083551088
  0
LINE
  8
_0-0_計極細
  6
CONTINUOUS
 62
    2
 10
639.76328124999452
 20
590.80496083551088
 11
634.16328124999438
 21
590.80496083551088
  0
LINE
  8
_0-0_計極細
  6
CONTINUOUS
 62
    2
 10
639.76328124999475
 20
685.804960835511
 11
634.1632812499945
 21
685.804960835511
  0
LINE
  8
_0-0_計極細
  6
CONTINUOUS
 62
    2
 10
639.76328124999475
 20
698.80496083551088
 11
634.1632812499945
 21
698.80496083551088
  0
LINE
  8
_0-0_計極細
  6
CONTINUOUS
 62
    2
 10
622.76328124999452
 20
577.80496083551088
 11
617.16328124999438
 21
577.80496083551088
  0
LINE
  8
_0-0_計極細
  6
CONTINUOUS
 62
    2
 10
622.76328124999452
 20
590.80496083551088
 11
617.16328124999438
 21
590.80496083551088
  0
LINE
  8
_0-0_計極細
  6
CONTINUOUS
 62
    2
 10
622.76328124999486
 20
685.804960835511
 11
617.1632812499945
 21
685.804960835511
  0
LINE
  8
_0-0_計極細
  6
CONTINUOUS
 62
    2
 10
622.76328124999486
 20
698.80496083551088
 11
617.1632812499945
 21
698.80496083551088
  0
LINE
  8
_0-0_計極細
  6
CONTINUOUS
 62
    2
 10
605.76328124999452
 20
577.80496083551088
 11
600.16328124999438
 21
577.80496083551088
  0
LINE
  8
_0-0_計極細
  6
CONTINUOUS
 62
    2
 10
605.76328124999452
 20
590.80496083551088
 11
600.16328124999438
 21
590.80496083551088
  0
LINE
  8
_0-0_計極細
  6
CONTINUOUS
 62
    2
 10
605.76328124999475
 20
685.804960835511
 11
600.1632812499945
 21
685.804960835511
  0
LINE
  8
_0-0_計極細
  6
CONTINUOUS
 62
    2
 10
605.76328124999475
 20
698.80496083551088
 11
600.1632812499945
 21
698.80496083551088
  0
LINE
  8
_0-0_計極細
  6
CONTINUOUS
 62
    2
 10
588.76328124999452
 20
577.80496083551088
 11
583.1632812499945
 21
577.80496083551088
  0
LINE
  8
_0-0_計極細
  6
CONTINUOUS
 62
    2
 10
588.76328124999452
 20
590.80496083551088
 11
583.1632812499945
 21
590.80496083551088
  0
LINE
  8
_0-0_計極細
  6
CONTINUOUS
 62
    2
 10
588.76328124999475
 20
685.804960835511
 11
583.1632812499945
 21
685.804960835511
  0
LINE
  8
_0-0_計極細
  6
CONTINUOUS
 62
    2
 10
588.76328124999475
 20
698.80496083551088
 11
583.1632812499945
 21
698.80496083551088
  0
LINE
  8
_0-0_計極細
  6
CONTINUOUS
 62
    2
 10
571.76328124999463
 20
577.80496083551088
 11
566.16328124999438
 21
577.80496083551088
  0
LINE
  8
_0-0_計極細
  6
CONTINUOUS
 62
    2
 10
571.76328124999463
 20
590.80496083551088
 11
566.16328124999438
 21
590.80496083551088
  0
LINE
  8
_0-0_計極細
  6
CONTINUOUS
 62
    2
 10
571.76328124999475
 20
685.804960835511
 11
566.1632812499945
 21
685.804960835511
  0
LINE
  8
_0-0_計極細
  6
CONTINUOUS
 62
    2
 10
571.76328124999475
 20
698.80496083551088
 11
566.1632812499945
 21
698.80496083551088
  0
LINE
  8
_0-0_計極細
  6
CONTINUOUS
 62
    2
 10
554.76328124999452
 20
577.80496083551088
 11
549.16328124999438
 21
577.80496083551088
  0
LINE
  8
_0-0_計極細
  6
CONTINUOUS
 62
    2
 10
554.76328124999452
 20
590.80496083551088
 11
549.16328124999438
 21
590.80496083551088
  0
LINE
  8
_0-0_計極細
  6
CONTINUOUS
 62
    2
 10
554.76328124999475
 20
685.804960835511
 11
549.1632812499945
 21
685.804960835511
  0
LINE
  8
_0-0_計極細
  6
CONTINUOUS
 62
    2
 10
554.76328124999475
 20
698.80496083551088
 11
549.1632812499945
 21
698.80496083551088
  0
LINE
  8
_0-0_計極細
  6
CONTINUOUS
 62
    2
 10
537.76328124999452
 20
577.80496083551088
 11
532.16328124999438
 21
577.80496083551088
  0
LINE
  8
_0-0_計極細
  6
CONTINUOUS
 62
    2
 10
537.76328124999452
 20
590.80496083551088
 11
532.16328124999438
 21
590.80496083551088
  0
LINE
  8
_0-0_計極細
  6
CONTINUOUS
 62
    2
 10
537.76328124999486
 20
685.804960835511
 11
532.1632812499945
 21
685.804960835511
  0
LINE
  8
_0-0_計極細
  6
CONTINUOUS
 62
    2
 10
537.76328124999486
 20
698.80496083551088
 11
532.1632812499945
 21
698.80496083551088
  0
LINE
  8
_0-0_計極細
  6
CONTINUOUS
 62
    2
 10
520.76328124999452
 20
577.80496083551088
 11
515.16328124999438
 21
577.80496083551088
  0
LINE
  8
_0-0_計極細
  6
CONTINUOUS
 62
    2
 10
520.76328124999452
 20
590.80496083551088
 11
515.16328124999438
 21
590.80496083551088
  0
LINE
  8
_0-0_計極細
  6
CONTINUOUS
 62
    2
 10
520.76328124999475
 20
685.804960835511
 11
515.1632812499945
 21
685.804960835511
  0
LINE
  8
_0-0_計極細
  6
CONTINUOUS
 62
    2
 10
520.76328124999475
 20
698.80496083551088
 11
515.1632812499945
 21
698.80496083551088
  0
LINE
  8
_0-0_計極細
  6
CONTINUOUS
 62
    2
 10
503.76328124999452
 20
577.80496083551088
 11
498.16328124999444
 21
577.80496083551088
  0
LINE
  8
_0-0_計極細
  6
CONTINUOUS
 62
    2
 10
503.76328124999452
 20
590.80496083551088
 11
498.16328124999444
 21
590.80496083551088
  0
LINE
  8
_0-0_計極細
  6
CONTINUOUS
 62
    2
 10
503.76328124999475
 20
685.804960835511
 11
498.1632812499945
 21
685.804960835511
  0
LINE
  8
_0-0_計極細
  6
CONTINUOUS
 62
    2
 10
503.76328124999475
 20
698.80496083551088
 11
498.1632812499945
 21
698.80496083551088
  0
LINE
  8
_0-0_計極細
  6
CONTINUOUS
 62
    2
 10
486.76328124999458
 20
577.80496083551088
 11
481.16328124999438
 21
577.80496083551088
  0
LINE
  8
_0-0_計極細
  6
CONTINUOUS
 62
    2
 10
486.76328124999458
 20
590.80496083551088
 11
481.16328124999438
 21
590.80496083551088
  0
LINE
  8
_0-0_計極細
  6
CONTINUOUS
 62
    2
 10
486.7632812499948
 20
685.804960835511
 11
481.16328124999455
 21
685.804960835511
  0
LINE
  8
_0-0_計極細
  6
CONTINUOUS
 62
    2
 10
486.7632812499948
 20
698.80496083551088
 11
481.16328124999455
 21
698.80496083551088
  0
LINE
  8
_0-0_計極細
  6
CONTINUOUS
 62
    2
 10
469.76328124999452
 20
577.80496083551088
 11
464.16328124999438
 21
577.80496083551088
  0
LINE
  8
_0-0_計極細
  6
CONTINUOUS
 62
    2
 10
469.76328124999452
 20
590.80496083551088
 11
464.16328124999438
 21
590.80496083551088
  0
LINE
  8
_0-0_計極細
  6
CONTINUOUS
 62
    2
 10
469.76328124999475
 20
685.804960835511
 11
464.1632812499945
 21
685.804960835511
  0
LINE
  8
_0-0_計極細
  6
CONTINUOUS
 62
    2
 10
469.76328124999475
 20
698.80496083551088
 11
464.1632812499945
 21
698.80496083551088
  0
LINE
  8
_0-0_計極細
  6
CONTINUOUS
 62
    2
 10
452.76328124999452
 20
577.80496083551088
 11
447.16328124999444
 21
577.80496083551088
  0
LINE
  8
_0-0_計極細
  6
CONTINUOUS
 62
    2
 10
452.76328124999452
 20
590.80496083551088
 11
447.16328124999444
 21
590.80496083551088
  0
LINE
  8
_0-0_計極細
  6
CONTINUOUS
 62
    2
 10
452.7632812499948
 20
685.804960835511
 11
447.1632812499945
 21
685.804960835511
  0
LINE
  8
_0-0_計極細
  6
CONTINUOUS
 62
    2
 10
452.7632812499948
 20
698.80496083551088
 11
447.1632812499945
 21
698.80496083551088
  0
LINE
  8
_0-0_計極細
  6
CONTINUOUS
 62
    2
 10
435.76328124999458
 20
577.80496083551088
 11
430.16328124999438
 21
577.80496083551088
  0
LINE
  8
_0-0_計極細
  6
CONTINUOUS
 62
    2
 10
435.76328124999458
 20
590.80496083551088
 11
430.16328124999438
 21
590.80496083551088
  0
LINE
  8
_0-0_計極細
  6
CONTINUOUS
 62
    2
 10
435.76328124999475
 20
685.804960835511
 11
430.16328124999455
 21
685.804960835511
  0
LINE
  8
_0-0_計極細
  6
CONTINUOUS
 62
    2
 10
435.76328124999475
 20
698.80496083551088
 11
430.16328124999455
 21
698.80496083551088
  0
LINE
  8
_0-0_計極細
  6
CONTINUOUS
 62
    2
 10
418.76328124999452
 20
577.80496083551088
 11
413.16328124999444
 21
577.80496083551088
  0
LINE
  8
_0-0_計極細
  6
CONTINUOUS
 62
    2
 10
418.76328124999452
 20
590.80496083551088
 11
413.16328124999444
 21
590.80496083551088
  0
LINE
  8
_0-0_計極細
  6
CONTINUOUS
 62
    2
 10
418.76328124999475
 20
685.804960835511
 11
413.1632812499945
 21
685.804960835511
  0
LINE
  8
_0-0_計極細
  6
CONTINUOUS
 62
    2
 10
418.76328124999475
 20
698.80496083551088
 11
413.1632812499945
 21
698.80496083551088
  0
LINE
  8
_0-0_計極細
  6
CONTINUOUS
 62
    2
 10
401.76328124999458
 20
577.80496083551088
 11
396.16328124999438
 21
577.80496083551088
  0
LINE
  8
_0-0_計極細
  6
CONTINUOUS
 62
    2
 10
401.76328124999458
 20
590.80496083551088
 11
396.16328124999438
 21
590.80496083551088
  0
LINE
  8
_0-0_計極細
  6
CONTINUOUS
 62
    2
 10
401.7632812499948
 20
685.804960835511
 11
396.16328124999461
 21
685.804960835511
  0
LINE
  8
_0-0_計極細
  6
CONTINUOUS
 62
    2
 10
401.7632812499948
 20
698.80496083551088
 11
396.16328124999461
 21
698.80496083551088
  0
LINE
  8
_0-0_計極細
  6
CONTINUOUS
 62
    2
 10
384.76328124999452
 20
577.80496083551088
 11
379.16328124999438
 21
577.80496083551088
  0
LINE
  8
_0-0_計極細
  6
CONTINUOUS
 62
    2
 10
384.76328124999452
 20
590.80496083551088
 11
379.16328124999438
 21
590.80496083551088
  0
LINE
  8
_0-0_計極細
  6
CONTINUOUS
 62
    2
 10
384.76328124999475
 20
685.804960835511
 11
379.16328124999461
 21
685.804960835511
  0
LINE
  8
_0-0_計極細
  6
CONTINUOUS
 62
    2
 10
384.76328124999475
 20
698.80496083551088
 11
379.16328124999461
 21
698.80496083551088
  0
LINE
  8
_0-0_計極細
  6
CONTINUOUS
 62
    2
 10
367.76328124999452
 20
577.80496083551088
 11
362.16328124999444
 21
577.80496083551088
  0
LINE
  8
_0-0_計極細
  6
CONTINUOUS
 62
    2
 10
367.76328124999452
 20
590.80496083551088
 11
362.16328124999444
 21
590.80496083551088
  0
LINE
  8
_0-0_計極細
  6
CONTINUOUS
 62
    2
 10
367.76328124999475
 20
685.804960835511
 11
362.16328124999461
 21
685.804960835511
  0
LINE
  8
_0-0_計極細
  6
CONTINUOUS
 62
    2
 10
367.76328124999475
 20
698.80496083551088
 11
362.16328124999461
 21
698.80496083551088
  0
LINE
  8
_0-0_計極細
  6
CONTINUOUS
 62
    2
 10
350.76328124999458
 20
577.80496083551088
 11
345.16328124999438
 21
577.80496083551088
  0
LINE
  8
_0-0_計極細
  6
CONTINUOUS
 62
    2
 10
350.76328124999458
 20
590.80496083551088
 11
345.16328124999438
 21
590.80496083551088
  0
LINE
  8
_0-0_計極細
  6
CONTINUOUS
 62
    2
 10
350.76328124999475
 20
685.804960835511
 11
345.16328124999438
 21
685.804960835511
  0
LINE
  8
_0-0_計極細
  6
CONTINUOUS
 62
    2
 10
350.76328124999475
 20
698.80496083551088
 11
345.16328124999438
 21
698.80496083551088
  0
LINE
  8
_0-0_計極細
  6
CONTINUOUS
 62
    2
 10
333.76328124999452
 20
577.80496083551088
 11
328.16328124999438
 21
577.80496083551088
  0
LINE
  8
_0-0_計極細
  6
CONTINUOUS
 62
    2
 10
333.76328124999452
 20
590.80496083551088
 11
328.16328124999438
 21
590.80496083551088
  0
LINE
  8
_0-0_計極細
  6
CONTINUOUS
 62
    2
 10
333.76328124999475
 20
685.804960835511
 11
328.16328124999438
 21
685.804960835511
  0
LINE
  8
_0-0_計極細
  6
CONTINUOUS
 62
    2
 10
333.76328124999475
 20
698.80496083551088
 11
328.16328124999438
 21
698.80496083551088
  0
LINE
  8
_0-0_計極細
  6
CONTINUOUS
 62
    2
 10
316.76328124999458
 20
577.80496083551088
 11
311.16328124999438
 21
577.80496083551088
  0
LINE
  8
_0-0_計極細
  6
CONTINUOUS
 62
    2
 10
316.76328124999458
 20
590.80496083551088
 11
311.16328124999438
 21
590.80496083551088
  0
LINE
  8
_0-0_計極細
  6
CONTINUOUS
 62
    2
 10
316.76328124999475
 20
685.804960835511
 11
311.16328124999438
 21
685.804960835511
  0
LINE
  8
_0-0_計極細
  6
CONTINUOUS
 62
    2
 10
316.76328124999475
 20
698.80496083551088
 11
311.16328124999438
 21
698.80496083551088
  0
LINE
  8
_0-0_計極細
  6
CONTINUOUS
 62
    2
 10
299.76328124999452
 20
577.80496083551088
 11
293.76328124999429
 21
577.80496083551088
  0
LINE
  8
_0-0_計極細
  6
CONTINUOUS
 62
    2
 10
299.76328124999452
 20
590.80496083551088
 11
293.76328124999429
 21
590.80496083551088
  0
LINE
  8
_0-0_計極細
  6
CONTINUOUS
 62
    2
 10
299.76328124999475
 20
685.804960835511
 11
293.76328124999452
 21
685.804960835511
  0
LINE
  8
_0-0_計極細
  6
CONTINUOUS
 62
    2
 10
299.76328124999475
 20
698.80496083551088
 11
293.76328124999452
 21
698.80496083551088
  0
LINE
  8
_0-0_計極細
  6
CONTINUOUS
 62
    2
 10
282.36328124999466
 20
577.80496083551088
 11
276.36328124999443
 21
577.80496083551088
  0
LINE
  8
_0-0_計極細
  6
CONTINUOUS
 62
    2
 10
282.36328124999466
 20
590.80496083551088
 11
276.36328124999443
 21
590.80496083551088
  0
LINE
  8
_0-0_計極細
  6
CONTINUOUS
 62
    2
 10
282.36328124999488
 20
685.804960835511
 11
276.36328124999466
 21
685.804960835511
  0
LINE
  8
_0-0_計極細
  6
CONTINUOUS
 62
    2
 10
282.36328124999488
 20
698.80496083551088
 11
276.36328124999466
 21
698.80496083551088
  0
LINE
  8
_0-0_計極細
  6
CONTINUOUS
 62
    2
 10
264.96328124999479
 20
577.80496083551088
 11
258.96328124999457
 21
577.80496083551088
  0
LINE
  8
_0-0_計極細
  6
CONTINUOUS
 62
    2
 10
264.96328124999479
 20
590.80496083551088
 11
258.96328124999457
 21
590.80496083551088
  0
LINE
  8
_0-0_計極細
  6
CONTINUOUS
 62
    2
 10
264.96328124999508
 20
685.804960835511
 11
258.96328124999485
 21
685.804960835511
  0
LINE
  8
_0-0_計極細
  6
CONTINUOUS
 62
    2
 10
264.96328124999508
 20
698.80496083551088
 11
258.96328124999485
 21
698.80496083551088
  0
LINE
  8
_0-0_計極細
  6
CONTINUOUS
 62
    2
 10
247.56328124999499
 20
577.80496083551088
 11
241.56328124999476
 21
577.80496083551088
  0
LINE
  8
_0-0_計極細
  6
CONTINUOUS
 62
    2
 10
247.56328124999499
 20
590.80496083551088
 11
241.56328124999476
 21
590.80496083551088
  0
LINE
  8
_0-0_計極細
  6
CONTINUOUS
 62
    2
 10
247.56328124999513
 20
685.804960835511
 11
241.5632812499949
 21
685.804960835511
  0
LINE
  8
_0-0_計極細
  6
CONTINUOUS
 62
    2
 10
247.56328124999513
 20
698.80496083551088
 11
241.5632812499949
 21
698.80496083551088
  0
LINE
  8
_0-0_計極細
  6
CENTER1
 62
    2
 10
228.23909250678582
 20
692.30496083551111
 11
1236.9211049910073
 21
692.30496083551088
  0
LINE
  8
_0-0_計極細
  6
CENTER1
 62
    2
 10
227.15469607331499
 20
584.30496083551111
 11
1236.9211049910068
 21
584.30496083551088
  0
LINE
  8
_0-5_寸法線
  6
CONTINUOUS
 62
    7
 10
527.67657200425322
 20
534.7799608355117
 11
534.44257266342777
 21
527.41645385309857
  0
LINE
  8
_0-5_寸法線
  6
CONTINUOUS
 62
    7
 10
527.67657200425322
 20
534.7799608355117
 11
529.85434696591403
 21
525.01997639821047
  0
LINE
  8
_0-5_寸法線
  6
CONTINUOUS
 62
    7
 10
527.67657200425322
 20
534.7799608355117
 11
550.7588174741278
 21
490.58736824291918
  0
LINE
  8
_0-5_寸法線
  6
CONTINUOUS
 62
    7
 10
550.7588174741278
 20
490.58736824291918
 11
658.7588174741278
 21
490.58736824291918
  0
TEXT
  8
_0-5_寸法線
 62
    7
 10
550.7588174741278
 20
491.18736824291915
 40
15
 41
0.8000000000000001
 50
0
  1
ＳＵＳアングル受枠
  0
LINE
  8
_0-5_寸法線
  6
CONTINUOUS
 62
    7
 10
746.84427834169992
 20
578.25868198389207
 11
753.91534615356534
 21
571.18761417202654
  0
LINE
  8
_0-5_寸法線
  6
CONTINUOUS
 62
    7
 10
746.84427834169992
 20
578.25868198389207
 11
749.4324687927251
 21
568.59942372100136
  0
LINE
  8
_0-5_寸法線
  6
CONTINUOUS
 62
    7
 10
746.84427834169992
 20
578.25868198389207
 11
797.17265979566446
 21
491.08736824291736
  0
LINE
  8
_0-5_寸法線
  6
CONTINUOUS
 62
    7
 10
797.17265979566446
 20
491.08736824291736
 11
929.17265979566446
 21
491.08736824291736
  0
TEXT
  8
_0-5_寸法線
 62
    7
 10
797.17265979566446
 20
491.08736824291736
 40
15
 41
0.8000000000000001
 50
0
  1
セーフティグレーチング
  0
LINE
  8
_0-1_計細線
  6
CONTINUOUS
 62
    3
 10
1132.7632812499955
 20
537.80496083551134
 11
1132.7632812499946
 21
738.8049608355102
  0
LINE
  8
_0-1_計細線
  6
CONTINUOUS
 62
    3
 10
1132.7632812499955
 20
537.80496083551134
 11
1144.1632812499961
 21
537.80496083551134
  0
LINE
  8
_0-0_計極細
  6
CONTINUOUS
 62
    2
 10
1140.9632812499958
 20
537.80496083551134
 11
1140.9632812499949
 21
738.8049608355102
  0
LINE
  8
_0-0_計極細
  6
CONTINUOUS
 62
    2
 10
1135.9632812499958
 20
537.80496083551134
 11
1135.9632812499949
 21
738.8049608355102
  0
LINE
  8
_0-1_計細線
  6
CONTINUOUS
 62
    3
 10
1161.163281249997
 20
537.80496083551157
 11
1161.1632812499956
 21
738.8049608355102
  0
LINE
  8
_0-1_計細線
  6
CONTINUOUS
 62
    3
 10
1149.7632812499965
 20
537.80496083551134
 11
1161.163281249997
 21
537.80496083551157
  0
LINE
  8
_0-0_計極細
  6
CONTINUOUS
 62
    2
 10
1157.9632812499967
 20
537.80496083551134
 11
1157.9632812499954
 21
738.8049608355102
  0
LINE
  8
_0-0_計極細
  6
CONTINUOUS
 62
    2
 10
1152.9632812499967
 20
537.80496083551134
 11
1152.9632812499954
 21
738.8049608355102
  0
LINE
  8
_0-1_計細線
  6
CONTINUOUS
 62
    3
 10
1144.1632812499961
 20
537.80496083551134
 11
1144.1632812499961
 21
738.8049608355102
  0
LINE
  8
_0-1_計細線
  6
CONTINUOUS
 62
    3
 10
1132.7632812499946
 20
738.8049608355102
 11
1144.1632812499952
 21
738.8049608355102
  0
LINE
  8
_0-1_計細線
  6
CONTINUOUS
 62
    3
 10
1149.7632812499965
 20
738.8049608355102
 11
1161.1632812499956
 21
738.8049608355102
  0
LINE
  8
_0-1_計細線
  6
CONTINUOUS
 62
    3
 10
1149.7632812499965
 20
537.80496083551134
 11
1149.7632812499965
 21
738.8049608355102
  0
LINE
  8
_0-1_計細線
  6
CONTINUOUS
 62
    3
 10
1098.313281249993
 20
647.30496083550997
 11
1098.3132812499935
 21
706.30496083550997
  0
LINE
  8
_0-1_計細線
  6
CONTINUOUS
 62
    3
 10
1093.6132812499936
 20
706.30496083550997
 11
1093.6132812499932
 21
647.30496083550997
  0
LINE
  8
_0-1_計細線
  6
CONTINUOUS
 62
    3
 10
1093.6132812499932
 20
647.30496083550997
 11
1098.313281249993
 21
647.30496083550997
  0
LINE
  8
_0-1_計細線
  6
CONTINUOUS
 62
    3
 10
1093.6132812499936
 20
696.30496083550997
 11
1098.3132812499935
 21
696.30496083550997
  0
LINE
  8
_0-1_計細線
  6
CONTINUOUS
 62
    3
 10
1093.6132812499936
 20
704.30496083551009
 11
1098.3132812499935
 21
704.30496083551009
  0
LINE
  8
_0-1_計細線
  6
CONTINUOUS
 62
    3
 10
1093.6132812499936
 20
706.30496083550997
 11
1098.3132812499935
 21
706.30496083550997
  0
LINE
  8
_0-1_計細線
  6
CONTINUOUS
 62
    3
 10
1093.6132812499936
 20
702.30496083550997
 11
1098.3132812499935
 21
702.30496083550997
  0
LINE
  8
_0-1_計細線
  6
CONTINUOUS
 62
    3
 10
1093.6132812499936
 20
700.30496083550997
 11
1098.3132812499935
 21
700.30496083550997
  0
LINE
  8
_0-1_計細線
  6
CONTINUOUS
 62
    3
 10
1093.6132812499936
 20
698.30496083550997
 11
1098.3132812499935
 21
698.30496083550997
  0
LINE
  8
_0-0_計極細
  6
CONTINUOUS
 62
    2
 10
1093.1632812499938
 20
698.80496083551088
 11
1093.6132812499936
 21
698.80496083551088
  0
LINE
  8
_0-0_計極細
  6
CONTINUOUS
 62
    2
 10
1098.3132812499935
 20
698.80496083551088
 11
1098.7632812499951
 21
698.80496083551088
  0
LINE
  8
_0-0_計極細
  6
CONTINUOUS
 62
    2
 10
1093.1632812499938
 20
685.804960835511
 11
1093.6132812499936
 21
685.804960835511
  0
LINE
  8
_0-0_計極細
  6
CONTINUOUS
 62
    2
 10
1098.3132812499935
 20
685.804960835511
 11
1098.7632812499951
 21
685.804960835511
  0
LINE
  8
_0-5_寸法線
  6
CONTINUOUS
 62
    7
 10
654.2358661063945
 20
753.30496083550997
 11
654.2358661063945
 21
798.30496083550906
  0
LINE
  8
_0-5_寸法線
  6
CONTINUOUS
 62
    7
 10
654.2358661063945
 20
793.30496083550906
 11
644.57660784350378
 21
790.71677038448399
  0
LINE
  8
_0-5_寸法線
  6
CONTINUOUS
 62
    7
 10
654.2358661063945
 20
793.30496083550906
 11
644.57660784350378
 21
795.89315128653425
  0
LINE
  8
_0-5_寸法線
  6
CONTINUOUS
 62
    7
 10
665.63586610639493
 20
753.30496083550997
 11
665.63586610639504
 21
798.30496083550906
  0
CIRCLE
  8
_0-5_寸法線
  6
CONTINUOUS
 62
    1
 10
665.63586610639504
 20
793.30496083550906
 40
1.5000000000000002
  0
LINE
  8
_0-5_寸法線
  6
CONTINUOUS
 62
    7
 10
629.2358661063945
 20
793.30496083550906
 11
665.63586610639504
 21
793.30496083550906
  0
TEXT
  8
_0-5_寸法線
 62
    7
 10
635.58907963191348
 20
793.30496083550906
 40
15
 41
1
 50
0
  1
11.4
  0
LINE
  8
_0-5_寸法線
  6
CONTINUOUS
 62
    7
 10
671.23586610639438
 20
753.30496083550997
 11
671.2358661063945
 21
798.30496083550906
  0
LINE
  8
_0-5_寸法線
  6
CONTINUOUS
 62
    7
 10
671.2358661063945
 20
793.30496083550906
 11
680.89512436928533
 21
795.89315128653425
  0
LINE
  8
_0-5_寸法線
  6
CONTINUOUS
 62
    7
 10
671.2358661063945
 20
793.30496083550906
 11
680.89512436928533
 21
790.71677038448388
  0
LINE
  8
_0-5_寸法線
  6
CONTINUOUS
 62
    7
 10
665.63586610639504
 20
793.30496083550906
 11
708.45019074302672
 21
793.30496083550906
  0
TEXT
  8
_0-5_寸法線
 62
    7
 10
670.95019074302672
 20
778.30496083550906
 40
15
 41
1
 50
0
  1
6以下
  0
TEXT
  8
_0-5_寸法線
 62
    7
 10
550.7588174741278
 20
474.44869693453404
 40
15
 41
0.8000000000000001
 50
0
  1
ＧＳＬ－２５
  0
TEXT
  8
_0-5_寸法線
 62
    7
 10
797.17265979566446
 20
474.94869693453222
 40
15
 41
0.8000000000000001
 50
0
  1
ＧＲＳＪ－２５Ｗ２０１
  0
LINE
  8
_0-5_寸法線
  6
CONTINUOUS
 62
    7
 10
1096.7637032832354
 20
677.47589852690044
 11
1091.7637032832354
 21
686.13615256474486
  0
LINE
  8
_0-5_寸法線
  6
CONTINUOUS
 62
    7
 10
1096.7637032832354
 20
677.47589852690044
 11
1096.7637032832354
 21
687.47589852690044
  0
LINE
  8
_0-5_寸法線
  6
CONTINUOUS
 62
    7
 10
1096.7637032832354
 20
677.47589852690044
 11
1065.7273995775899
 21
793.30496083550906
  0
LINE
  8
_0-5_寸法線
  6
CONTINUOUS
 62
    7
 10
1065.7273995775899
 20
793.30496083550906
 11
1005.7273995775899
 21
793.30496083550906
  0
TEXT
  8
_0-5_寸法線
 62
    7
 10
1005.7273995775899
 20
793.30496083550906
 40
15
 41
0.8000000000000001
 50
0
  1
取　外　具
  0
TEXT
  8
_0-5_寸法線
 62
    7
 10
1005.0772906074553
 20
776.52399617488584
 40
15
 41
0.8000000000000001
 50
-0.0000000000002714
  1
(標準付属)
  0
LINE
  8
_0-7_枠細線
  6
CONTINUOUS
 62
    5
 10
1023.1855760593942
 20
810.34114796318022
 11
1015.6855760593941
 21
825.34114796318022
  0
LINE
  8
_0-7_枠細線
  6
CONTINUOUS
 62
    5
 10
1008.1855760593941
 20
810.34114796318022
 11
1023.1855760593942
 21
810.34114796318022
  0
LINE
  8
_0-7_枠細線
  6
CONTINUOUS
 62
    5
 10
1015.6855760593941
 20
825.34114796318022
 11
1008.1855760593941
 21
810.34114796318022
  0
TEXT
  8
_0-7_枠細線
 62
    5
 10
1010.5507273275421
 20
810.03414571779956
 40
12.5
 41
0.8
 50
0
  1
１
  0
LINE
  8
_0-7_枠細線
  6
CONTINUOUS
 62
    5
 10
1034.0551190866104
 20
825.34114796318022
 11
1026.5551190866104
 21
810.34114796318022
  0
LINE
  8
_0-7_枠細線
  6
CONTINUOUS
 62
    5
 10
1026.5551190866104
 20
810.34114796318022
 11
1041.5551190866104
 21
810.34114796318022
  0
LINE
  8
_0-7_枠細線
  6
CONTINUOUS
 62
    5
 10
1041.5551190866104
 20
810.34114796318022
 11
1034.0551190866104
 21
825.34114796318022
  0
TEXT
  8
_0-7_枠細線
 62
    5
 10
1029.040611177159
 20
809.79346407299886
 40
12.5
 41
0.8
 50
0
  1
２
  0
LINE
  8
_0-7_枠細線
  6
CONTINUOUS
 62
    5
 10
1425
 20
942.5
 11
890
 21
942.5
  0
TEXT
  8
_0-7_枠細線
 62
    5
 10
895
 20
945
 40
12.5
 41
1
 50
0
  1
記号
  0
TEXT
  8
_0-7_枠細線
 62
    5
 10
996.875
 20
945
 40
12.5
 41
1
 50
0
  1
訂　 正　 記　 事
  0
TEXT
  8
_0-7_枠細線
 62
    5
 10
1181.25
 20
945
 40
12.5
 41
1
 50
0
  1
訂 正 年 月 日
  0
TEXT
  8
_0-7_枠細線
 62
    5
 10
1306.25
 20
945
 40
12.5
 41
1
 50
0
  1
備　　　　　考
  0
LINE
  8
_0-7_枠細線
  6
CONTINUOUS
 62
    5
 10
1425
 20
925
 11
890
 21
925
  0
TEXT
  8
_0-7_枠細線
 62
    5
 10
938.85037037037023
 20
927.5
 40
12.5
 41
1
 50
0
  1
品番・色記号変更
  0
TEXT
  8
_0-7_枠細線
 62
    5
 10
1180
 20
927.5
 40
12.5
 41
0.7199999999999999
 50
0
  1
２０１３．０３．１３
  0
LINE
  8
_0-7_枠細線
  6
CONTINUOUS
 62
    5
 10
915
 20
908.75
 11
907.5
 21
923.75
  0
LINE
  8
_0-7_枠細線
  6
CONTINUOUS
 62
    5
 10
900
 20
908.75
 11
915
 21
908.75
  0
LINE
  8
_0-7_枠細線
  6
CONTINUOUS
 62
    5
 10
907.5
 20
923.75
 11
900
 21
908.75
  0
TEXT
  8
_0-7_枠細線
 62
    5
 10
902.36515126814822
 20
908.44299775461946
 40
12.5
 41
0.8
 50
0
  1
１
  0
LINE
  8
_0-7_枠細線
  6
CONTINUOUS
 62
    5
 10
1424.9999999999998
 20
907.5
 11
890
 21
907.5
  0
TEXT
  8
_0-7_枠細線
 62
    5
 10
938.85037037037011
 20
910
 40
12.500000000000002
 41
1
 50
0
  1
取外具形状変更
  0
TEXT
  8
_0-7_枠細線
 62
    5
 10
1180
 20
910
 40
12.500000000000002
 41
0.7199999999999998
 50
0
  1
２０１５．１１．２０
  0
LINE
  8
_0-7_枠細線
  6
CONTINUOUS
 62
    5
 10
1425
 20
890
 11
890
 21
890
  0
TEXT
  8
_0-7_枠細線
 62
    5
 10
1180
 20
892.5
 40
12.5
 41
0.7199999999999999
 50
0
  1
２０１７．０４．０１
  0
LINE
  8
_0-7_枠細線
  6
CONTINUOUS
 62
    5
 10
915
 20
873.94233397174685
 11
907.5
 21
888.94233397174685
  0
LINE
  8
_0-7_枠細線
  6
CONTINUOUS
 62
    5
 10
900
 20
873.94233397174685
 11
915
 21
873.94233397174685
  0
LINE
  8
_0-7_枠細線
  6
CONTINUOUS
 62
    5
 10
907.5
 20
888.94233397174685
 11
900
 21
873.94233397174685
  0
TEXT
  8
_0-7_枠細線
 62
    5
 10
1180
 20
875
 40
12.5
 41
0.7199999999999999
 50
0
  1
２０１７．０４．０１
  0
TEXT
  8
_0-7_枠細線
 62
    5
 10
938.85037037037023
 20
875
 40
12.5
 41
1
 50
0
  1
ブラウン色（Ｃ）追加
  0
LINE
  8
_0-7_枠細線
  6
CONTINUOUS
 62
    5
 10
1425
 20
872.5
 11
890
 21
872.5
  0
LINE
  8
_0-7_枠細線
  6
CONTINUOUS
 62
    5
 10
907.5
 20
906.44233397174685
 11
900
 21
891.44233397174685
  0
LINE
  8
_0-7_枠細線
  6
CONTINUOUS
 62
    5
 10
900
 20
891.44233397174685
 11
915
 21
891.44233397174685
  0
LINE
  8
_0-7_枠細線
  6
CONTINUOUS
 62
    5
 10
915
 20
891.44233397174685
 11
907.5
 21
906.44233397174685
  0
TEXT
  8
_0-7_枠細線
 62
    5
 10
938.85037037037023
 20
892.5
 40
12.5
 41
1
 50
0
  1
取外具形状変更
  0
TEXT
  8
_0-7_枠細線
 62
    5
 10
902.48549209054841
 20
890.89465008156549
 40
12.5
 41
0.8
 50
0
  1
２
  0
TEXT
  8
_0-7_枠細線
 62
    5
 10
902.36515126814811
 20
872.99351400689704
 40
12.5
 41
0.8
 50
0
  1
３
  0
LINE
  8
_0-7_枠細線
  6
CONTINUOUS
 62
    5
 10
915
 20
856.44233397174685
 11
907.5
 21
871.44233397174685
  0
LINE
  8
_0-7_枠細線
  6
CONTINUOUS
 62
    5
 10
900
 20
856.44233397174685
 11
915
 21
856.44233397174685
  0
LINE
  8
_0-7_枠細線
  6
CONTINUOUS
 62
    5
 10
907.5
 20
871.44233397174685
 11
900
 21
856.44233397174685
  0
LINE
  8
_0-7_枠細線
  6
CONTINUOUS
 62
    5
 10
1425
 20
855
 11
890
 21
855
  0
TEXT
  8
_0-7_枠細線
 62
    5
 10
1180
 20
857.5
 40
12.5
 41
0.7199999999999999
 50
0
  1
２０１９．０９．０１
  0
TEXT
  8
_0-7_枠細線
 62
    5
 10
902.36515126814822
 20
855.49351400689704
 40
12.5
 41
0.8
 50
0
  1
４
  0
LINE
  8
_0-7_枠細線
  6
CONTINUOUS
 62
    5
 10
890
 20
855
 11
890
 21
959.99999999999943
  0
LINE
  8
_0-7_枠細線
  6
CONTINUOUS
 62
    5
 10
925
 20
855
 11
925
 21
959.99999999999943
  0
LINE
  8
_0-7_枠細線
  6
CONTINUOUS
 62
    5
 10
1175
 20
855
 11
1175
 21
959.99999999999943
  0
LINE
  8
_0-7_枠細線
  6
CONTINUOUS
 62
    5
 10
1275
 20
855
 11
1275
 21
959.99999999999943
  0
LINE
  8
_0-9_枠極太
  6
CONTINUOUS
 62
    5
 10
60
 20
60
 11
60
 21
960
  0
LINE
  8
_0-9_枠極太
  6
CONTINUOUS
 62
    5
 10
60
 20
960
 11
1425
 21
960
  0
LINE
  8
_0-9_枠極太
  6
CONTINUOUS
 62
    5
 10
1425
 20
960
 11
1425
 21
60
  0
LINE
  8
_0-9_枠極太
  6
CONTINUOUS
 62
    5
 10
1425
 20
60
 11
60
 21
60
  0
LINE
  8
_0-a_極細3
  6
CONTINUOUS
 62
    7
 10
269.8379906479413
 20
264.92948986735337
 11
271.8379906479413
 21
264.92948986735337
  0
LINE
  8
_0-b_細線3
  6
CONTINUOUS
 62
    7
 10
271.8379906479413
 20
294.92948986735337
 11
271.8379906479413
 21
236.59615653402014
  0
LINE
  8
_0-b_細線3
  6
CONTINUOUS
 62
    7
 10
271.8379906479413
 20
236.59615653402014
 11
268.00465731460804
 21
236.59615653402014
  0
LINE
  8
_0-b_細線3
  6
CONTINUOUS
 62
    7
 10
268.00465731460804
 20
236.59615653402014
 11
268.00465731460804
 21
294.92948986735337
  0
LINE
  8
_0-b_細線3
  6
CONTINUOUS
 62
    7
 10
268.00465731460804
 20
294.92948986735337
 11
271.8379906479413
 21
294.92948986735337
  0
LINE
  8
_0-a_極細3
  6
CONTINUOUS
 62
    7
 10
268.00465731460804
 20
268.26282320068674
 11
271.8379906479413
 21
268.26282320068674
  0
LINE
  8
_0-a_極細3
  6
CONTINUOUS
 62
    7
 10
268.00465731460804
 20
271.59615653402011
 11
271.8379906479413
 21
271.59615653402011
  0
LINE
  8
_0-a_極細3
  6
CONTINUOUS
 62
    7
 10
268.00465731460804
 20
264.92948986735337
 11
271.8379906479413
 21
264.92948986735337
  0
LINE
  8
_0-a_極細3
  6
CONTINUOUS
 62
    7
 10
268.00465731460804
 20
274.92948986735337
 11
271.8379906479413
 21
274.92948986735337
  0
LINE
  8
_0-a_極細3
  6
CONTINUOUS
 62
    7
 10
271.8379906479413
 20
241.59615653402014
 11
268.00465731460804
 21
241.59615653402014
  0
LINE
  8
_0-a_極細3
  6
CONTINUOUS
 62
    7
 10
268.00465731460804
 20
291.59615653402011
 11
271.8379906479413
 21
291.59615653402011
  0
LINE
  8
_0-b_細線3
  6
CONTINUOUS
 62
    7
 10
621.83799064794061
 20
294.92948986735337
 11
621.83799064794061
 21
236.59615653402014
  0
LINE
  8
_0-b_細線3
  6
CONTINUOUS
 62
    7
 10
621.83799064794061
 20
236.59615653402014
 11
625.67132398127399
 21
236.59615653402014
  0
LINE
  8
_0-b_細線3
  6
CONTINUOUS
 62
    7
 10
625.67132398127399
 20
236.59615653402014
 11
625.67132398127399
 21
294.92948986735337
  0
LINE
  8
_0-b_細線3
  6
CONTINUOUS
 62
    7
 10
625.67132398127399
 20
294.92948986735337
 11
621.83799064794061
 21
294.92948986735337
  0
LINE
  8
_0-a_極細3
  6
CONTINUOUS
 62
    7
 10
625.67132398127399
 20
268.26282320068674
 11
621.83799064794061
 21
268.26282320068674
  0
LINE
  8
_0-a_極細3
  6
CONTINUOUS
 62
    7
 10
625.67132398127399
 20
271.59615653402011
 11
621.83799064794061
 21
271.59615653402011
  0
LINE
  8
_0-a_極細3
  6
CONTINUOUS
 62
    7
 10
625.67132398127399
 20
264.92948986735337
 11
621.83799064794061
 21
264.92948986735337
  0
LINE
  8
_0-a_極細3
  6
CONTINUOUS
 62
    7
 10
625.67132398127399
 20
274.92948986735337
 11
621.83799064794061
 21
274.92948986735337
  0
LINE
  8
_0-a_極細3
  6
CONTINUOUS
 62
    7
 10
621.83799064794061
 20
241.59615653402014
 11
625.67132398127399
 21
241.59615653402014
  0
LINE
  8
_0-a_極細3
  6
CONTINUOUS
 62
    7
 10
625.67132398127399
 20
291.59615653402011
 11
621.83799064794061
 21
291.59615653402011
  0
LINE
  8
_0-7_枠細線
  6
CONTINUOUS
 62
    5
 10
643.60204082189625
 20
284.26281166729325
 11
636.10204082189625
 21
299.26281166729325
  0
LINE
  8
_0-7_枠細線
  6
CONTINUOUS
 62
    5
 10
628.60204082189625
 20
284.26281166729325
 11
643.60204082189625
 21
284.26281166729325
  0
LINE
  8
_0-7_枠細線
  6
CONTINUOUS
 62
    5
 10
636.10204082189625
 20
299.26281166729325
 11
628.60204082189625
 21
284.26281166729325
  0
TEXT
  8
_0-7_枠細線
 62
    5
 10
630.96719209004436
 20
283.31399170244333
 40
12.5
 41
0.8
 50
0
  1
４
  0
TEXT
  8
_0-7_枠細線
 62
    5
 10
938.85037037037023
 20
857.5
 40
12.5
 41
1
 50
0
  1
アンカー材質･厚み変更
  0
LINE
  8
_0-5_寸法線
  6
CONTINUOUS
 62
    7
 10
1260.6632812499979
 20
743.30496083551554
 11
1305.6632812499922
 21
743.30496083551554
  0
LINE
  8
_0-5_寸法線
  6
CONTINUOUS
 62
    7
 10
1300.6632812499922
 20
743.30496083551554
 11
1298.0750907989668
 21
752.96421909840615
  0
LINE
  8
_0-5_寸法線
  6
CONTINUOUS
 62
    7
 10
1300.6632812499922
 20
743.30496083551554
 11
1303.2514717010172
 21
752.96421909840615
  0
LINE
  8
_0-5_寸法線
  6
CONTINUOUS
 62
    7
 10
1260.6632812499952
 20
740.30496083550997
 11
1305.6632812499922
 21
740.30496083550997
  0
CIRCLE
  8
_0-5_寸法線
  6
CONTINUOUS
 62
    1
 10
1300.6632812499922
 20
740.30496083550997
 40
1.5000000000000002
  0
LINE
  8
_0-5_寸法線
  6
CONTINUOUS
 62
    7
 10
1300.6632812499922
 20
768.30496083551554
 11
1300.6632812499922
 21
740.30496083550997
  0
TEXT
  8
_0-5_寸法線
 62
    7
 10
1300.6632812499922
 20
758.97300391949602
 40
15
 41
1
 50
90
  1
3
  0
LINE
  8
_0-5_寸法線
  6
CONTINUOUS
 62
    7
 10
1260.6632812499952
 20
738.80496083550997
 11
1305.6632812499915
 21
738.80496083550997
  0
LINE
  8
_0-5_寸法線
  6
CONTINUOUS
 62
    7
 10
1300.6632812499922
 20
740.30496083550997
 11
1300.6632812499915
 21
738.80496083550997
  0
TEXT
  8
_0-5_寸法線
 62
    7
 10
1320.6632812499922
 20
716.30496083550997
 40
15
 41
1
 50
90
  1
1.5
  0
LINE
  8
_0-5_寸法線
  6
CONTINUOUS
 62
    7
 10
1300.6632812499915
 20
738.80496083550997
 11
1303.2514717010167
 21
729.14570257261926
  0
LINE
  8
_0-5_寸法線
  6
CONTINUOUS
 62
    7
 10
1300.6632812499915
 20
738.80496083550997
 11
1298.0750907989664
 21
729.14570257261926
  0
LINE
  8
_0-5_寸法線
  6
CONTINUOUS
 62
    7
 10
1260.6632812499952
 20
537.80496083551134
 11
1305.6632812499922
 21
537.80496083551134
  0
LINE
  8
_0-5_寸法線
  6
CONTINUOUS
 62
    7
 10
1300.6632812499922
 20
537.80496083551134
 11
1298.0750907989668
 21
547.46421909840205
  0
LINE
  8
_0-5_寸法線
  6
CONTINUOUS
 62
    7
 10
1300.6632812499922
 20
537.80496083551134
 11
1303.2514717010172
 21
547.46421909840205
  0
LINE
  8
_0-5_寸法線
  6
CONTINUOUS
 62
    7
 10
1300.6632812499915
 20
738.80496083550997
 11
1300.6632812499922
 21
537.80496083551134
  0
TEXT
  8
_0-5_寸法線
 62
    7
 10
1300.6632812499922
 20
624.7051933064115
 40
15
 41
1
 50
90
  1
201
  0
LINE
  8
_0-5_寸法線
  6
CONTINUOUS
 62
    7
 10
1260.6632812499952
 20
536.30496083551134
 11
1305.6632812499922
 21
536.30496083551134
  0
CIRCLE
  8
_0-5_寸法線
  6
CONTINUOUS
 62
    1
 10
1300.6632812499922
 20
536.30496083551134
 40
1.5000000000000002
  0
LINE
  8
_0-5_寸法線
  6
CONTINUOUS
 62
    7
 10
1300.6632812499922
 20
537.80496083551134
 11
1300.6632812499922
 21
536.30496083551134
  0
TEXT
  8
_0-5_寸法線
 62
    7
 10
1322.6870568547145
 20
537.80496083551134
 40
15
 41
1
 50
90
  1
1.5
  0
LINE
  8
_0-5_寸法線
  6
CONTINUOUS
 62
    7
 10
1260.6632812499952
 20
533.30496083550952
 11
1305.6632812499922
 21
533.30496083550952
  0
LINE
  8
_0-5_寸法線
  6
CONTINUOUS
 62
    7
 10
1300.6632812499922
 20
533.30496083550952
 11
1303.2514717010172
 21
523.6457025726188
  0
LINE
  8
_0-5_寸法線
  6
CONTINUOUS
 62
    7
 10
1300.6632812499922
 20
533.30496083550952
 11
1298.0750907989668
 21
523.6457025726188
  0
LINE
  8
_0-5_寸法線
  6
CONTINUOUS
 62
    7
 10
1300.6632812499922
 20
536.30496083551134
 11
1300.6632812499922
 21
508.30496083550952
  0
TEXT
  8
_0-5_寸法線
 62
    7
 10
1300.6632812499922
 20
510.58693354472166
 40
15
 41
1
 50
90
  1
3
  0
LINE
  8
_0-d_寸法3
  6
CONTINUOUS
 62
    7
 10
271.8379906479413
 20
351.59615653402034
 11
271.8379906479413
 21
446.59615653402034
  0
LINE
  8
_0-d_寸法3
  6
CONTINUOUS
 62
    7
 10
271.8379906479413
 20
441.59615653402034
 11
281.49724891083196
 21
444.18434698504552
  0
LINE
  8
_0-d_寸法3
  6
CONTINUOUS
 62
    7
 10
271.8379906479413
 20
441.59615653402034
 11
281.49724891083196
 21
439.00796608299515
  0
LINE
  8
_0-d_寸法3
  6
CONTINUOUS
 62
    7
 10
621.8379906479413
 20
351.59615653402034
 11
621.8379906479413
 21
446.59615653402034
  0
LINE
  8
_0-d_寸法3
  6
CONTINUOUS
 62
    7
 10
621.8379906479413
 20
441.59615653402034
 11
612.17873238505058
 21
439.00796608299515
  0
LINE
  8
_0-d_寸法3
  6
CONTINUOUS
 62
    7
 10
621.8379906479413
 20
441.59615653402034
 11
612.17873238505058
 21
444.18434698504564
  0
LINE
  8
_0-d_寸法3
  6
CONTINUOUS
 62
    7
 10
271.8379906479413
 20
441.59615653402034
 11
621.8379906479413
 21
441.59615653402034
  0
TEXT
  8
_0-d_寸法3
 62
    7
 10
435.5879906479413
 20
441.59615653402034
 40
15
 41
1
 50
0
  1
210
  0
LINE
  8
_0-d_寸法3
  6
CONTINUOUS
 62
    7
 10
271.8379906479413
 20
336.59615653402034
 11
271.8379906479413
 21
411.59615653402034
  0
LINE
  8
_0-d_寸法3
  6
CONTINUOUS
 62
    7
 10
271.8379906479413
 20
406.59615653402034
 11
262.17873238505064
 21
404.00796608299515
  0
LINE
  8
_0-d_寸法3
  6
CONTINUOUS
 62
    7
 10
271.8379906479413
 20
406.59615653402034
 11
262.17873238505064
 21
409.18434698504564
  0
LINE
  8
_0-d_寸法3
  6
CONTINUOUS
 62
    7
 10
276.8379906479413
 20
335.7628232006864
 11
276.8379906479413
 21
411.59615653402034
  0
CIRCLE
  8
_0-d_寸法3
  6
CONTINUOUS
 62
    1
 10
276.8379906479413
 20
406.59615653402034
 40
1.5000000000000002
  0
LINE
  8
_0-d_寸法3
  6
CONTINUOUS
 62
    7
 10
246.8379906479413
 20
406.59615653402034
 11
276.8379906479413
 21
406.59615653402034
  0
TEXT
  8
_0-d_寸法3
 62
    7
 10
251.87061470438678
 20
406.59615653402034
 40
15
 41
1
 50
0
  1
3
  0
LINE
  8
_0-d_寸法3
  6
CONTINUOUS
 62
    7
 10
279.3379906479413
 20
336.59615653401994
 11
279.3379906479413
 21
411.59615653402034
  0
LINE
  8
_0-d_寸法3
  6
CONTINUOUS
 62
    7
 10
276.8379906479413
 20
406.59615653402034
 11
279.3379906479413
 21
406.59615653402034
  0
TEXT
  8
_0-d_寸法3
 62
    7
 10
282.05619412516114
 20
388.46677402929089
 40
15
 41
1
 50
0
  1
1.5
  0
LINE
  8
_0-d_寸法3
  6
CONTINUOUS
 62
    7
 10
279.3379906479413
 20
406.59615653402034
 11
288.99724891083196
 21
409.18434698504552
  0
LINE
  8
_0-d_寸法3
  6
CONTINUOUS
 62
    7
 10
279.3379906479413
 20
406.59615653402034
 11
288.99724891083196
 21
404.00796608299515
  0
LINE
  8
_0-d_寸法3
  6
CONTINUOUS
 62
    7
 10
614.33799064794039
 20
336.59615653401994
 11
614.33799064794039
 21
411.59615653402034
  0
LINE
  8
_0-d_寸法3
  6
CONTINUOUS
 62
    7
 10
614.33799064794039
 20
406.59615653402034
 11
604.67873238504967
 21
404.00796608299515
  0
LINE
  8
_0-d_寸法3
  6
CONTINUOUS
 62
    7
 10
614.33799064794039
 20
406.59615653402034
 11
604.67873238504967
 21
409.18434698504564
  0
LINE
  8
_0-d_寸法3
  6
CONTINUOUS
 62
    7
 10
279.3379906479413
 20
406.59615653402034
 11
614.33799064794039
 21
406.59615653402034
  0
TEXT
  8
_0-d_寸法3
 62
    7
 10
435.5879906479413
 20
406.59615653402034
 40
15
 41
1
 50
0
  1
201
  0
LINE
  8
_0-d_寸法3
  6
CONTINUOUS
 62
    7
 10
616.83799064794039
 20
335.7628232006864
 11
616.83799064794039
 21
411.59615653402034
  0
CIRCLE
  8
_0-d_寸法3
  6
CONTINUOUS
 62
    1
 10
616.83799064794039
 20
406.59615653402034
 40
1.5000000000000002
  0
LINE
  8
_0-d_寸法3
  6
CONTINUOUS
 62
    7
 10
614.33799064794039
 20
406.59615653402034
 11
616.83799064794039
 21
406.59615653402034
  0
TEXT
  8
_0-d_寸法3
 62
    7
 10
589.51318242539082
 20
388.19960237884516
 40
15
 41
1
 50
0
  1
1.5
  0
LINE
  8
_0-d_寸法3
  6
CONTINUOUS
 62
    7
 10
621.83799064794039
 20
336.59615653402034
 11
621.83799064794039
 21
411.59615653402034
  0
LINE
  8
_0-d_寸法3
  6
CONTINUOUS
 62
    7
 10
621.83799064794039
 20
406.59615653402034
 11
631.4972489108311
 21
409.18434698504547
  0
LINE
  8
_0-d_寸法3
  6
CONTINUOUS
 62
    7
 10
621.83799064794039
 20
406.59615653402034
 11
631.4972489108311
 21
404.00796608299515
  0
LINE
  8
_0-d_寸法3
  6
CONTINUOUS
 62
    7
 10
616.83799064794039
 20
406.59615653402034
 11
646.83799064794039
 21
406.59615653402034
  0
TEXT
  8
_0-d_寸法3
 62
    7
 10
634.3836702338499
 20
406.59615653402034
 40
15
 41
1
 50
0
  1
3
  0
LINE
  8
_0-d_寸法3
  6
CONTINUOUS
 62
    7
 10
438.64647020505055
 20
285.66525423086387
 11
403.50616551634982
 21
310.27076046887851
  0
LINE
  8
_0-d_寸法3
  6
CONTINUOUS
 62
    7
 10
407.60192573779477
 20
307.40287828712326
 11
405.01373528676964
 21
317.06213655001392
  0
LINE
  8
_0-d_寸法3
  6
CONTINUOUS
 62
    7
 10
407.60192573779477
 20
307.40287828712326
 11
410.19011618882007
 21
317.06213655001392
  0
LINE
  8
_0-d_寸法3
  6
CONTINUOUS
 62
    7
 10
438.64647020505055
 20
327.33192089753084
 11
403.50616551634982
 21
351.93742713554508
  0
LINE
  8
_0-d_寸法3
  6
CONTINUOUS
 62
    7
 10
407.60192573779477
 20
349.06954495378977
 11
410.19011618882007
 21
339.41028669089911
  0
LINE
  8
_0-d_寸法3
  6
CONTINUOUS
 62
    7
 10
407.60192573779477
 20
349.06954495378977
 11
405.01373528676964
 21
339.41028669089911
  0
LINE
  8
_0-d_寸法3
  6
CONTINUOUS
 62
    7
 10
407.60192573779477
 20
307.40287828712326
 11
407.60192573779477
 21
349.06954495378977
  0
TEXT
  8
_0-d_寸法3
 62
    7
 10
407.60192573779477
 20
324.41453443137948
 40
15
 41
1
 50
90
  1
25
  0
ENDSEC
  0
EOF
