  0
SECTION
  2
HEADER
  9
$ACADVER
  1
AC1009
  9
$INSBASE
 10
0
 20
0
 30
0
  9
$EXTMIN
 10
0
 20
0
  9
$EXTMAX
 10
1485
 20
1050
  9
$LIMMIN
 10
0
 20
0
  9
$LIMMAX
 10
1485
 20
1050
  9
$LTSCALE
 40
5
  0
ENDSEC
  0
SECTION
  2
TABLES
  0
TABLE
  2
LTYPE
 70
     9
  0
LTYPE
  2
CONTINUOUS
 70
    64
  3
実線
 72
    65
 73
     0
 40
0.0
  0
LTYPE
  2
DASHED1
 70
    64
  3
--  --  --  --  --  --  --  --  
 72
    65
 73
     2
 40
2.5
 49
1.25
 49
-1.25
  0
LTYPE
  2
DASHED2
 70
    64
  3
----    ----    ----    ----    
 72
    65
 73
     2
 40
5.0
 49
2.5
 49
-2.5
  0
LTYPE
  2
DASHED3
 70
    64
  3
------  ------  ------  ------  
 72
    65
 73
     2
 40
5.0
 49
3.75
 49
-1.25
  0
LTYPE
  2
CENTER1
 70
    64
  3
----- - ----- - ----- - ----- - 
 72
    65
 73
     4
 40
10.0
 49
6.25
 49
-1.25
 49
1.25
 49
-1.25
  0
LTYPE
  2
CENTER2
 70
    64
  3
----------  --  ----------  --  
 72
    65
 73
     4
 40
20.0
 49
12.5
 49
-2.5
 49
2.5
 49
-2.5
  0
LTYPE
  2
PHANTOM1
 70
    64
  3
--- - - --- - - --- - - --- - - 
 72
    65
 73
     6
 40
10.0
 49
3.25
 49
-1.25
 49
1.25
 49
-1.25
 49
1.25
 49
-1.25
  0
LTYPE
  2
PHANTOM2
 70
    64
  3
--------  -  -  --------  -  -  
 72
    65
 73
     6
 40
20.0
 49
10.0
 49
-2.5
 49
1.25
 49
-2.5
 49
1.25
 49
-2.5
  0
LTYPE
  2
DOT
 70
    64
  3
-   -   -   -   -   -   -   -   
 72
    65
 73
     2
 40
2.5
 49
0.625
 49
-1.875
  0
LTYPE
  2
DUMMY
 70
    64
  3
ダミー
 72
    65
 73
     0
 40
0.0
  0
LTYPE
  2
RAND1
 70
    64
  3
ランダム線1
 72
    65
 73
     4
 40
10.0
 49
1.0
 49
-2.0
 49
3.0
 49
-4.0
  0
LTYPE
  2
RAND2
 70
    64
  3
ランダム線2
 72
    65
 73
     4
 40
14.0
 49
2.0
 49
-3.0
 49
4.0
 49
-5.0
  0
LTYPE
  2
RAND3
 70
    64
  3
ランダム線3
 72
    65
 73
     4
 40
18.0
 49
3.0
 49
-4.0
 49
5.0
 49
-6.0
  0
LTYPE
  2
RAND4
 70
    64
  3
ランダム線4
 72
    65
 73
     4
 40
22.0
 49
4.0
 49
-5.0
 49
6.0
 49
-7.0
  0
LTYPE
  2
RAND5
 70
    64
  3
ランダム線5
 72
    65
 73
     4
 40
26.0
 49
5.0
 49
-6.0
 49
7.0
 49
-8.0
  0
LTYPE
  2
LONG1
 70
    64
  3
----------  --  ----------  --  
 72
    65
 73
     4
 40
40.0
 49
32.5
 49
-2.5
 49
2.5
 49
-2.5
  0
LTYPE
  2
LONG2
 70
    64
  3
--------  -  -  --------  -  -  
 72
    65
 73
     6
 40
40.0
 49
30.0
 49
-2.5
 49
1.25
 49
-2.5
 49
1.25
 49
-2.5
  0
LTYPE
  2
LONG3
 70
    64
  3
+++++++++++++++..+++++++++++++++
 72
    65
 73
     2
 40
40.0
 49
37.5
 49
-2.5
  0
LTYPE
  2
LONG4
 70
    64
  3
+++++++++++++++..+++++++++++++++
 72
    65
 73
     2
 40
80.0
 49
75.0
 49
-5.0
  0
LTYPE
  2
LONG5
 70
    64
  3
----------  --  ----------  --  
 72
    65
 73
     4
 40
60.0
 49
37.5
 49
-7.5
 49
7.5
 49
-7.5
  0
LTYPE
  2
dashed
 70
   64
  3
-------   -------------   ------
 72
   65
 73
    2
 40
7.5
 49
6
 49
-1.5
  0
LTYPE
  2
dashed_spaced
 70
   64
  3
----        --------        ----
 72
   65
 73
    2
 40
12
 49
6
 49
-6
  0
LTYPE
  2
long_dashed_dotted
 70
   64
  3
------------- --- --------------
 72
   65
 73
    4
 40
15.25
 49
12
 49
-1.5
 49
0.25
 49
-1.5
  0
LTYPE
  2
long_dashed_double-dotted
 70
   64
  3
----------- --- --- ------------
 72
   65
 73
    6
 40
17
 49
12
 49
-1.5
 49
0.25
 49
-1.5
 49
0.25
 49
-1.5
  0
LTYPE
  2
long_dashed_triplicate-dotted
 70
   64
  3
--------- --- --- --- ----------
 72
   65
 73
    8
 40
18.75
 49
12
 49
-1.5
 49
0.25
 49
-1.5
 49
0.25
 49
-1.5
 49
0.25
 49
-1.5
  0
LTYPE
  2
dotted
 70
   64
  3
   -       -       -       -    
 72
   65
 73
    2
 40
1.75
 49
0.25
 49
-1.5
  0
LTYPE
  2
chain
 70
   64
  3
-------------- -- --------------
 72
   65
 73
    4
 40
18.5
 49
12
 49
-1.5
 49
3.5
 49
-1.5
  0
LTYPE
  2
chain_double_dash
 70
   64
  3
------------ -- -- -------------
 72
   65
 73
    6
 40
23.5
 49
12
 49
-1.5
 49
3.5
 49
-1.5
 49
3.5
 49
-1.5
  0
LTYPE
  2
dashed_dotted
 70
   64
  3
-----------     -     ----------
 72
   65
 73
    4
 40
9.25
 49
6
 49
-1.5
 49
0.25
 49
-1.5
  0
LTYPE
  2
double-dashed_dotted
 70
   64
  3
------   -----------   -   -----
 72
   65
 73
    6
 40
16.75
 49
6
 49
-1.5
 49
6
 49
-1.5
 49
0.25
 49
-1.5
  0
LTYPE
  2
dashed_double-dotted
 70
   64
  3
---------    -    -    ---------
 72
   65
 73
    6
 40
11
 49
6
 49
-1.5
 49
0.25
 49
-1.5
 49
0.25
 49
-1.5
  0
LTYPE
  2
double-dashed_double-dotted
 70
   64
  3
-----   ---------   -   -   ----
 72
   65
 73
    8
 40
18.5
 49
6
 49
-1.5
 49
6
 49
-1.5
 49
0.25
 49
-1.5
 49
0.25
 49
-1.5
  0
LTYPE
  2
dashed_triplicate-dotted
 70
   64
  3
-------    -    -    -    ------
 72
   65
 73
    8
 40
12.75
 49
6
 49
-1.5
 49
0.25
 49
-1.5
 49
0.25
 49
-1.5
 49
0.25
 49
-1.5
  0
LTYPE
  2
double-dashed_triplicate-dotted
 70
   64
  3
-----  ---------  -  -  -  -----
 72
   65
 73
   10
 40
20.25
 49
6
 49
-1.5
 49
6
 49
-1.5
 49
0.25
 49
-1.5
 49
0.25
 49
-1.5
 49
0.25
 49
-1.5
  0
LTYPE
  2
undefined
 70
   64
  3
--------------------------------
 72
   65
 73
    0
 40
0
  0
ENDTAB
  0
TABLE
  2
STYLE
  5
3
100
AcDbSymbolTable
 70
     1
  0
STYLE
  5
10
100
AcDbSymbolTableRecord
100
AcDbTextStyleTableRecord
  2
STANDARD
 70
     0
 40
0.0
 41
1.0
 50
0.0
 71
     0
 42
0.2
  3
txt
  4
bigfont.shx
  0
STYLE
  5
26
100
AcDbSymbolTableRecord
100
AcDbTextStyleTableRecord
  2
TATEGAKI
 70
    68
 40
0.0
 41
1.0
 50
0.0
 71
     0
 42
1.0
  3
txt
  4
bigfont.shx
  0
ENDTAB
  0
TABLE
  2
LAYER
 70
   10
  0
LAYER
  2
_0-0_計極細
 70
   64
 62
    7
  6
CONTINUOUS
  0
LAYER
  2
_0-1_計細線
 70
   64
 62
    7
  6
CONTINUOUS
  0
LAYER
  2
_0-5_寸法線
 70
   64
 62
    7
  6
CONTINUOUS
  0
LAYER
  2
_0-7_枠細線
 70
   64
 62
    7
  6
CONTINUOUS
  0
LAYER
  2
_0-8_枠中線
 70
   64
 62
    7
  6
CONTINUOUS
  0
LAYER
  2
_0-9_枠極太
 70
   64
 62
    7
  6
CONTINUOUS
  0
LAYER
  2
_0-a_極細3
 70
   64
 62
    7
  6
CONTINUOUS
  0
LAYER
  2
_0-b_細線3
 70
   64
 62
    7
  6
CONTINUOUS
  0
LAYER
  2
_0-d_寸法3
 70
   64
 62
    7
  6
CONTINUOUS
  0
LAYER
  2
ADD_LINE
 70
   64
 62
    7
  6
CONTINUOUS
  0
ENDTAB
  0
ENDSEC
  0
SECTION
  2
BLOCKS
  0
ENDSEC
  0
SECTION
  2
ENTITIES
  0
LINE
  8
_0-7_枠細線
  6
CONTINUOUS
 62
    5
 10
1185
 20
180
 11
1185
 21
100
  0
TEXT
  8
_0-7_枠細線
 62
    5
 10
937.5
 20
97.5
 40
17.5
 41
1
 50
0
  1
備考
  7
TATEGAKI
  0
TEXT
  8
_0-7_枠細線
 62
    5
 10
937.5
 20
137.5
 40
17.5
 41
1
 50
0
  1
品番
  7
TATEGAKI
  0
TEXT
  8
_0-7_枠細線
 62
    5
 10
937.5
 20
177.5
 40
17.5
 41
1
 50
0
  1
品名
  7
TATEGAKI
  0
LINE
  8
_0-7_枠細線
  6
CONTINUOUS
 62
    5
 10
1185
 20
140
 11
925
 21
140
  0
LINE
  8
_0-7_枠細線
  6
CONTINUOUS
 62
    5
 10
950
 20
180
 11
950
 21
60
  0
LINE
  8
_0-8_枠中線
  6
CONTINUOUS
 62
    5
 10
1425
 20
180
 11
925
 21
180
  0
LINE
  8
_0-8_枠中線
  6
CONTINUOUS
 62
    5
 10
925
 20
180
 11
925
 21
60
  0
LINE
  8
_0-7_枠細線
  6
CONTINUOUS
 62
    5
 10
1245
 20
180
 11
1245
 21
60
  0
TEXT
  8
_0-7_枠細線
 62
    5
 10
1192.5
 20
160
 40
15
 41
1
 50
0
  1
縮　尺
  0
TEXT
  8
_0-7_枠細線
 62
    5
 10
1194
 20
117.5
 40
20
 41
0.7
 50
0
  1
１：５
  0
LINE
  8
_0-7_枠細線
  6
CONTINUOUS
 62
    5
 10
1185
 20
155
 11
1245
 21
155
  0
LINE
  8
_0-7_枠細線
  6
CONTINUOUS
 62
    5
 10
1245
 20
100
 11
925
 21
100
  0
LINE
  8
_0-7_枠細線
  6
CONTINUOUS
 62
    5
 10
1425
 20
90
 11
1245
 21
90
  0
LINE
  8
_0-7_枠細線
  6
CONTINUOUS
 62
    5
 10
1245
 20
120
 11
1425
 21
120
  0
LINE
  8
_0-7_枠細線
  6
CONTINUOUS
 62
    5
 10
1425
 20
140
 11
1245
 21
140
  0
TEXT
  8
_0-7_枠細線
 62
    5
 10
1255
 20
147.5
 40
25
 41
0.8
 50
0
  1
株式会社シマブン
  0
TEXT
  8
_0-7_枠細線
 62
    5
 10
1252.5
 20
60
 40
15
 41
1
 50
0
  1
年月日
  0
TEXT
  8
_0-7_枠細線
 62
    5
 10
1252.5
 20
75
 40
15
 41
1
 50
0
  1
作　成
  0
TEXT
  8
_0-7_枠細線
 62
    5
 10
1250
 20
95
 40
20
 41
1
 50
0
  1
島 英
  0
TEXT
  8
_0-7_枠細線
 62
    5
 10
1256.25
 20
122.5
 40
15
 41
1
 50
0
  1
承 認
  0
LINE
  8
_0-7_枠細線
  6
CONTINUOUS
 62
    5
 10
1305
 20
140
 11
1305
 21
60
  0
TEXT
  8
_0-7_枠細線
 62
    5
 10
1315
 20
95
 40
20
 41
1
 50
0
  1
隠塚
  0
TEXT
  8
_0-7_枠細線
 62
    5
 10
1316.25
 20
122.5
 40
15
 41
1
 50
0
  1
検 図
  0
LINE
  8
_0-7_枠細線
  6
CONTINUOUS
 62
    5
 10
1365
 20
140
 11
1365
 21
90
  0
TEXT
  8
_0-7_枠細線
 62
    5
 10
1375
 20
95
 40
20
 41
1
 50
0
  1
藤戸
  0
TEXT
  8
_0-7_枠細線
 62
    5
 10
1376.25
 20
122.5
 40
15
 41
1
 50
0
  1
設 計
  0
TEXT
  8
_0-7_枠細線
 62
    5
 10
965.50000000000011
 20
150
 40
20
 41
0.6
 50
0
  1
セーフティグレーチングＨ２５タイプ
  0
TEXT
  8
_0-7_枠細線
 62
    5
 10
965.50000000000011
 20
70
 40
20
 41
0.5999999999999998
 50
0
  1
色については品番表参照のこと
  0
TEXT
  8
_0-7_枠細線
 62
    5
 10
1310
 20
67.5
 40
15
 41
0.6666666666666666
 50
0
  1
２００９年０１月１６日
  0
TEXT
  8
_0-7_枠細線
 62
    5
 10
965.50000000000011
 20
110
 40
20
 41
0.6
 50
0
  1
ＧＲＳＪ－２５Ｗ２５１　ＳＥＴ
  0
LINE
  8
_0-d_寸法3
  6
CONTINUOUS
 62
    7
 10
663.50465731460645
 20
244.1351977793197
 11
663.50465731460645
 21
226.9905058784143
  0
LINE
  8
_0-d_寸法3
  6
CONTINUOUS
 62
    7
 10
663.50465731460645
 20
231.9905058784143
 11
653.84539905171573
 21
229.40231542738911
  0
LINE
  8
_0-d_寸法3
  6
CONTINUOUS
 62
    7
 10
663.50465731460645
 20
231.9905058784143
 11
653.84539905171573
 21
234.57869632943954
  0
LINE
  8
_0-d_寸法3
  6
CONTINUOUS
 62
    7
 10
613.50465731460736
 20
282.46853111265318
 11
613.50465731460736
 21
226.9905058784143
  0
LINE
  8
_0-d_寸法3
  6
CONTINUOUS
 62
    7
 10
613.50465731460736
 20
231.9905058784143
 11
623.16391557749807
 21
234.57869632943954
  0
LINE
  8
_0-d_寸法3
  6
CONTINUOUS
 62
    7
 10
613.50465731460736
 20
231.9905058784143
 11
623.16391557749807
 21
229.40231542738914
  0
LINE
  8
_0-d_寸法3
  6
CONTINUOUS
 62
    7
 10
663.50465731460645
 20
231.9905058784143
 11
613.50465731460736
 21
231.9905058784143
  0
TEXT
  8
_0-d_寸法3
 62
    7
 10
631.00465731460554
 20
231.99050587841427
 40
15
 41
1
 50
0.0000000000002714
  1
30
  0
LINE
  8
_0-d_寸法3
  6
CONTINUOUS
 62
    7
 10
230.17132398127345
 20
244.1351977793197
 11
230.17132398127345
 21
226.9905058784143
  0
LINE
  8
_0-d_寸法3
  6
CONTINUOUS
 62
    7
 10
230.17132398127345
 20
231.9905058784143
 11
239.83058224416411
 21
234.57869632943954
  0
LINE
  8
_0-d_寸法3
  6
CONTINUOUS
 62
    7
 10
230.17132398127345
 20
231.9905058784143
 11
239.83058224416411
 21
229.40231542738911
  0
LINE
  8
_0-d_寸法3
  6
CONTINUOUS
 62
    7
 10
280.1713239812733
 20
282.46853111265318
 11
280.17132398127245
 21
226.9905058784143
  0
LINE
  8
_0-d_寸法3
  6
CONTINUOUS
 62
    7
 10
280.17132398127251
 20
231.9905058784143
 11
270.51206571838179
 21
229.40231542738914
  0
LINE
  8
_0-d_寸法3
  6
CONTINUOUS
 62
    7
 10
280.17132398127251
 20
231.9905058784143
 11
270.51206571838185
 21
234.57869632943954
  0
LINE
  8
_0-d_寸法3
  6
CONTINUOUS
 62
    7
 10
230.17132398127345
 20
231.9905058784143
 11
280.17132398127251
 21
231.9905058784143
  0
TEXT
  8
_0-d_寸法3
 62
    7
 10
247.67132398127345
 20
231.9905058784143
 40
15
 41
1
 50
0
  1
30
  0
LINE
  8
_0-d_寸法3
  6
CONTINUOUS
 62
    7
 10
280.17132398127342
 20
287.46853111265318
 11
280.17132398127342
 21
226.9905058784143
  0
LINE
  8
_0-d_寸法3
  6
CONTINUOUS
 62
    7
 10
280.17132398127342
 20
231.9905058784143
 11
289.83058224416413
 21
234.57869632943954
  0
LINE
  8
_0-d_寸法3
  6
CONTINUOUS
 62
    7
 10
280.17132398127342
 20
231.9905058784143
 11
289.83058224416413
 21
229.40231542738911
  0
LINE
  8
_0-d_寸法3
  6
CONTINUOUS
 62
    7
 10
613.50465731460736
 20
287.46853111265318
 11
613.50465731460736
 21
226.9905058784143
  0
LINE
  8
_0-d_寸法3
  6
CONTINUOUS
 62
    7
 10
613.50465731460736
 20
231.9905058784143
 11
603.84539905171664
 21
229.40231542738914
  0
LINE
  8
_0-d_寸法3
  6
CONTINUOUS
 62
    7
 10
613.50465731460736
 20
231.9905058784143
 11
603.84539905171664
 21
234.57869632943954
  0
LINE
  8
_0-d_寸法3
  6
CONTINUOUS
 62
    7
 10
280.17132398127342
 20
231.9905058784143
 11
613.50465731460736
 21
231.9905058784143
  0
TEXT
  8
_0-d_寸法3
 62
    7
 10
435.58799064793953
 20
231.9905058784143
 40
15
 41
1
 50
0
  1
200
  0
CIRCLE
  8
_0-a_極細3
  6
CONTINUOUS
 62
    7
 10
209.83267455586883
 20
280.35265140585625
 40
1.825531472681392
  0
CIRCLE
  8
_0-a_極細3
  6
CONTINUOUS
 62
    7
 10
144.98700308032497
 20
293.9080526404241
 40
0.5530864197530718
  0
LINE
  8
_0-a_極細3
  6
CONTINUOUS
 62
    7
 10
163.50465731460736
 20
277.46853111265273
 11
163.50465731460736
 21
209.13519777931924
  0
LINE
  8
_0-a_極細3
  6
CONTINUOUS
 62
    7
 10
246.83799064794044
 20
209.13519777931924
 11
163.50465731460736
 21
209.13519777931924
  0
LINE
  8
_0-a_極細3
  6
CONTINUOUS
 62
    7
 10
163.50465731460736
 20
277.46853111265273
 11
132.66024350282621
 21
277.46853111265273
  0
LINE
  8
_0-a_極細3
  6
CONTINUOUS
 62
    7
 10
246.83799064794044
 20
209.13519777931924
 11
246.83799064794044
 21
182.89359748454032
  0
LINE
  8
_0-a_極細3
  6
CONTINUOUS
 62
    7
 10
209.41601608295059
 20
182.8935976009771
 11
235.65761626129373
 21
209.13519777931924
  0
LINE
  8
_0-a_極細3
  6
CONTINUOUS
 62
    7
 10
138.70533818430977
 20
182.89359782099018
 11
164.94693814263883
 21
209.13519777931924
  0
LINE
  8
_0-a_極細3
  6
CONTINUOUS
 62
    7
 10
132.66024350282621
 20
247.55918125816152
 11
162.56959335731793
 21
277.46853111265273
  0
LINE
  8
_0-a_極細3
  6
CONTINUOUS
 62
    7
 10
202.34494829308645
 20
182.89359762297863
 11
228.58654844942706
 21
209.13519777931924
  0
LINE
  8
_0-a_極細3
  6
CONTINUOUS
 62
    7
 10
132.66024350282621
 20
183.91957095137244
 11
163.50465731460736
 21
214.76398476315353
  0
LINE
  8
_0-a_極細3
  6
CONTINUOUS
 62
    7
 10
132.66024350282621
 20
254.6302490700273
 11
155.49852554545126
 21
277.46853111265273
  0
LINE
  8
_0-a_極細3
  6
CONTINUOUS
 62
    7
 10
195.2738805032223
 20
182.89359764497974
 11
221.51548063756223
 21
209.13519777931924
  0
LINE
  8
_0-a_極細3
  6
CONTINUOUS
 62
    7
 10
132.66024350282621
 20
190.99063876323768
 11
163.50465731460736
 21
221.83505257501932
  0
LINE
  8
_0-a_極細3
  6
CONTINUOUS
 62
    7
 10
132.66024350282621
 20
261.70131688189304
 11
148.42745773358638
 21
277.46853111265273
  0
CIRCLE
  8
_0-a_極細3
  6
CONTINUOUS
 62
    7
 10
140.22526714846299
 20
282.7163859737575
 40
0.5530864197530718
  0
CIRCLE
  8
_0-a_極細3
  6
CONTINUOUS
 62
    7
 10
163.45489677809198
 20
285.7386081959794
 40
0.5530864197530718
  0
CIRCLE
  8
_0-a_極細3
  6
CONTINUOUS
 62
    7
 10
170.39934122253641
 20
278.48305264042392
 40
0.5530864197530718
  0
CIRCLE
  8
_0-a_極細3
  6
CONTINUOUS
 62
    7
 10
190.84378566697978
 20
277.2386081959794
 40
0.5530864197530718
  0
CIRCLE
  8
_0-a_極細3
  6
CONTINUOUS
 62
    7
 10
215.9104523336473
 20
273.50527486264627
 40
0.5530864197530718
  0
CIRCLE
  8
_0-a_極細3
  6
CONTINUOUS
 62
    7
 10
203.28823011142418
 20
267.81638597375695
 40
0.5530864197530718
  0
CIRCLE
  8
_0-a_極細3
  6
CONTINUOUS
 62
    7
 10
188.53267455586959
 20
254.305274862646
 40
0.5530864197530718
  0
CIRCLE
  8
_0-a_極細3
  6
CONTINUOUS
 62
    7
 10
215.9104523336473
 20
261.59416375153523
 40
0.5530864197530718
  0
CIRCLE
  8
_0-a_極細3
  6
CONTINUOUS
 62
    7
 10
169.82156344475789
 20
248.17194152931279
 40
0.5530864197530718
  0
CIRCLE
  8
_0-a_極細3
  6
CONTINUOUS
 62
    7
 10
174.79934122253596
 20
234.48305264042392
 40
0.5530864197530718
  0
CIRCLE
  8
_0-a_極細3
  6
CONTINUOUS
 62
    7
 10
169.11045233364717
 20
216.52749708486866
 40
0.5530864197530718
  0
CIRCLE
  8
_0-a_極細3
  6
CONTINUOUS
 62
    7
 10
177.82156344475879
 20
223.28305264042413
 40
0.5530864197530718
  0
CIRCLE
  8
_0-a_極細3
  6
CONTINUOUS
 62
    7
 10
184.04378566698057
 20
214.74971930709128
 40
0.5530864197530718
  0
CIRCLE
  8
_0-a_極細3
  6
CONTINUOUS
 62
    7
 10
223.34378566697978
 20
232.63860819597994
 40
0.5530864197530718
  0
CIRCLE
  8
_0-a_極細3
  6
CONTINUOUS
 62
    7
 10
212.14378566698002
 20
227.12749708486899
 40
0.5530864197530718
  0
CIRCLE
  8
_0-a_極細3
  6
CONTINUOUS
 62
    7
 10
218.36600788920265
 20
224.63860819597997
 40
0.5530864197530718
  0
CIRCLE
  8
_0-a_極細3
  6
CONTINUOUS
 62
    7
 10
214.81045233364696
 20
215.39416375153542
 40
0.5530864197530718
  0
CIRCLE
  8
_0-a_極細3
  6
CONTINUOUS
 62
    7
 10
234.72156344475749
 20
216.46083041820205
 40
0.5530864197530718
  0
CIRCLE
  8
_0-a_極細3
  6
CONTINUOUS
 62
    7
 10
247.69934122253559
 20
219.66083041820229
 40
0.5530864197530718
  0
CIRCLE
  8
_0-a_極細3
  6
CONTINUOUS
 62
    7
 10
261.38823011142449
 20
204.72749708486887
 40
0.5530864197530718
  0
CIRCLE
  8
_0-a_極細3
  6
CONTINUOUS
 62
    7
 10
254.45489677809107
 20
189.79416375153548
 40
0.5530864197530718
  0
CIRCLE
  8
_0-a_極細3
  6
CONTINUOUS
 62
    7
 10
237.78823011142507
 20
233.40897856635002
 40
0.5530864197530718
  0
CIRCLE
  8
_0-a_極細3
  6
CONTINUOUS
 62
    7
 10
252.54378566697966
 20
267.54231189968323
 40
0.5530864197530718
  0
CIRCLE
  8
_0-a_極細3
  6
CONTINUOUS
 62
    7
 10
267.65489677809092
 20
257.58675634412793
 40
0.5530864197530718
  0
CIRCLE
  8
_0-a_極細3
  6
CONTINUOUS
 62
    7
 10
268.18823011142467
 20
239.63120078857264
 40
0.5530864197530718
  0
CIRCLE
  8
_0-a_極細3
  6
CONTINUOUS
 62
    7
 10
232.94378566698015
 20
269.36453412190531
 40
0.5530864197530718
  0
CIRCLE
  8
_0-a_極細3
  6
CONTINUOUS
 62
    7
 10
187.43267455586917
 20
268.54848473918946
 40
1.825531472681392
  0
CIRCLE
  8
_0-a_極細3
  6
CONTINUOUS
 62
    7
 10
167.8326745558698
 20
230.54848473918995
 40
1.825531472681392
  0
CIRCLE
  8
_0-a_極細3
  6
CONTINUOUS
 62
    7
 10
221.03267455586865
 20
217.74848473919022
 40
1.825531472681392
  0
CIRCLE
  8
_0-a_極細3
  6
CONTINUOUS
 62
    7
 10
257.01045233364584
 20
214.14848473919028
 40
1.825531472681392
  0
CIRCLE
  8
_0-a_極細3
  6
CONTINUOUS
 62
    7
 10
261.81045233364603
 20
195.48181807252377
 40
1.825531472681392
  0
LINE
  8
_0-a_極細3
  6
CONTINUOUS
 62
    7
 10
279.33799064794044
 20
284.13519777931924
 11
280.17132398127342
 21
284.13519777931924
  0
LINE
  8
_0-a_極細3
  6
CONTINUOUS
 62
    7
 10
280.17132398127342
 20
284.13519777931924
 11
280.17132398127342
 21
182.89359748454032
  0
CIRCLE
  8
_0-a_極細3
  6
CONTINUOUS
 62
    7
 10
273.28388983364493
 20
268.14848473918983
 40
1.825531472681392
  0
CIRCLE
  8
_0-a_極細3
  6
CONTINUOUS
 62
    7
 10
272.29193381512778
 20
213.43860819598012
 40
0.5530864197530718
  0
CIRCLE
  8
_0-a_極細3
  6
CONTINUOUS
 62
    7
 10
273.62526714846172
 20
190.78253716281054
 40
0.5530864197530718
  0
CIRCLE
  8
_0-a_極細3
  6
CONTINUOUS
 62
    7
 10
261.25489677808673
 20
249.037373628079
 40
1.825531472681392
  0
LINE
  8
_0-a_極細3
  6
CONTINUOUS
 62
    7
 10
730.17132398127342
 20
277.46853111265273
 11
730.17132398127342
 21
209.13519777931924
  0
LINE
  8
_0-a_極細3
  6
CONTINUOUS
 62
    7
 10
646.83799064794039
 20
209.13519777931924
 11
730.17132398127342
 21
209.13519777931924
  0
LINE
  8
_0-a_極細3
  6
CONTINUOUS
 62
    7
 10
730.17132398127342
 20
277.46853111265273
 11
761.01573779305556
 21
277.46853111265273
  0
LINE
  8
_0-a_極細3
  6
CONTINUOUS
 62
    7
 10
646.83799064794039
 20
209.13519777931924
 11
646.83799064794039
 21
182.89359748454032
  0
LINE
  8
_0-a_極細3
  6
CONTINUOUS
 62
    7
 10
738.46132639586722
 20
182.89359748454032
 11
761.01573783459571
 21
205.44800892326933
  0
LINE
  8
_0-a_極細3
  6
CONTINUOUS
 62
    7
 10
667.75064827721155
 20
182.89359748454032
 11
693.9922485719909
 21
209.13519777931924
  0
LINE
  8
_0-a_極細3
  6
CONTINUOUS
 62
    7
 10
730.17132398127342
 20
245.31427318860187
 11
761.01573779381044
 21
276.15868700113879
  0
LINE
  8
_0-a_極細3
  6
CONTINUOUS
 62
    7
 10
731.39025858400055
 20
182.89359748454032
 11
761.01573783051765
 21
212.51907673105597
  0
LINE
  8
_0-a_極細3
  6
CONTINUOUS
 62
    7
 10
660.67958046534568
 20
182.89359748454032
 11
686.92118076012594
 21
209.13519777931924
  0
LINE
  8
_0-a_極細3
  6
CONTINUOUS
 62
    7
 10
730.17132398127342
 20
252.38534100046763
 11
755.25451391390834
 21
277.46853093310256
  0
LINE
  8
_0-a_極細3
  6
CONTINUOUS
 62
    7
 10
724.31919077213581
 20
182.89359748454032
 11
761.01573782643857
 21
219.59014453884311
  0
LINE
  8
_0-a_極細3
  6
CONTINUOUS
 62
    7
 10
653.60851265348174
 20
182.89359748454032
 11
679.85011294826018
 21
209.13519777931924
  0
LINE
  8
_0-a_極細3
  6
CONTINUOUS
 62
    7
 10
730.17132398127342
 20
259.45640881233339
 11
748.1834461526596
 21
277.46853098371867
  0
CIRCLE
  8
_0-a_極細3
  6
CONTINUOUS
 62
    7
 10
633.2437856669776
 20
267.98953412190531
 40
0.5530864197530718
  0
CIRCLE
  8
_0-a_極細3
  6
CONTINUOUS
 62
    7
 10
643.1993412225338
 20
272.78953412190549
 40
0.5530864197530718
  0
CIRCLE
  8
_0-a_極細3
  6
CONTINUOUS
 62
    7
 10
639.1104523336453
 20
247.81175634412833
 40
0.5530864197530718
  0
CIRCLE
  8
_0-a_極細3
  6
CONTINUOUS
 62
    7
 10
656.64378566697815
 20
230.78953412190549
 40
0.5530864197530718
  0
CIRCLE
  8
_0-a_極細3
  6
CONTINUOUS
 62
    7
 10
638.81045233364512
 20
207.48953412190622
 40
0.5530864197530718
  0
CIRCLE
  8
_0-a_極細3
  6
CONTINUOUS
 62
    7
 10
629.47711900031209
 20
189.6228674552394
 40
0.5530864197530718
  0
CIRCLE
  8
_0-a_極細3
  6
CONTINUOUS
 62
    7
 10
640.94378566697844
 20
219.48953412190622
 40
0.5530864197530718
  0
CIRCLE
  8
_0-a_極細3
  6
CONTINUOUS
 62
    7
 10
654.81045233364421
 20
214.68953412190604
 40
0.5530864197530718
  0
CIRCLE
  8
_0-a_極細3
  6
CONTINUOUS
 62
    7
 10
681.74378566697669
 20
214.95620078857246
 40
0.5530864197530718
  0
CIRCLE
  8
_0-a_極細3
  6
CONTINUOUS
 62
    7
 10
669.74378566697851
 20
224.02286745523909
 40
0.5530864197530718
  0
CIRCLE
  8
_0-a_極細3
  6
CONTINUOUS
 62
    7
 10
680.94378566697742
 20
229.62286745523943
 40
0.5530864197530718
  0
CIRCLE
  8
_0-a_極細3
  6
CONTINUOUS
 62
    7
 10
668.96600788919943
 20
283.91175634412775
 40
0.5530864197530718
  0
CIRCLE
  8
_0-a_極細3
  6
CONTINUOUS
 62
    7
 10
689.49934122253228
 20
283.20064523301608
 40
0.5530864197530718
  0
CIRCLE
  8
_0-a_極細3
  6
CONTINUOUS
 62
    7
 10
677.89934122253271
 20
269.20064523301653
 40
0.5530864197530718
  0
CIRCLE
  8
_0-a_極細3
  6
CONTINUOUS
 62
    7
 10
717.09934122253253
 20
216.00064523301717
 40
0.5530864197530718
  0
CIRCLE
  8
_0-a_極細3
  6
CONTINUOUS
 62
    7
 10
724.29934122253246
 20
230.00064523301717
 40
0.5530864197530718
  0
CIRCLE
  8
_0-a_極細3
  6
CONTINUOUS
 62
    7
 10
722.69934122253289
 20
250.80064523301689
 40
0.5530864197530718
  0
CIRCLE
  8
_0-a_極細3
  6
CONTINUOUS
 62
    7
 10
701.89934122253271
 20
252.40064523301683
 40
0.5530864197530718
  0
CIRCLE
  8
_0-a_極細3
  6
CONTINUOUS
 62
    7
 10
682.29934122253326
 20
258.00064523301717
 40
0.5530864197530718
  0
CIRCLE
  8
_0-a_極細3
  6
CONTINUOUS
 62
    7
 10
704.69934122253289
 20
272.00064523301626
 40
0.5530864197530718
  0
CIRCLE
  8
_0-a_極細3
  6
CONTINUOUS
 62
    7
 10
718.69934122253301
 20
264.80064523301689
 40
0.5530864197530718
  0
CIRCLE
  8
_0-a_極細3
  6
CONTINUOUS
 62
    7
 10
748.29934122253144
 20
286.00064523301626
 40
0.5530864197530718
  0
CIRCLE
  8
_0-a_極細3
  6
CONTINUOUS
 62
    7
 10
727.854896778088
 20
284.30404029474494
 40
1.825531472681392
  0
CIRCLE
  8
_0-a_極細3
  6
CONTINUOUS
 62
    7
 10
704.43267455586567
 20
258.88181807252295
 40
1.825531472681392
  0
CIRCLE
  8
_0-a_極細3
  6
CONTINUOUS
 62
    7
 10
634.03823011142322
 20
214.33181807252367
 40
1.825531472681392
  0
CIRCLE
  8
_0-a_極細3
  6
CONTINUOUS
 62
    7
 10
644.26045233364403
 20
244.19848473919004
 40
1.825531472681392
  0
CIRCLE
  8
_0-a_極細3
  6
CONTINUOUS
 62
    7
 10
679.46045233364384
 20
221.79848473918995
 40
1.825531472681392
  0
CIRCLE
  8
_0-a_極細3
  6
CONTINUOUS
 62
    7
 10
725.72564496892755
 20
211.61143234722022
 40
1.825531472681392
  0
CIRCLE
  8
_0-a_極細3
  6
CONTINUOUS
 62
    7
 10
675.06045233364421
 20
264.99848473918973
 40
1.825531472681392
  0
CIRCLE
  8
_0-a_極細3
  6
CONTINUOUS
 62
    7
 10
627.59440295092918
 20
259.57527933215351
 40
0.5530864197530718
  0
CIRCLE
  8
_0-a_極細3
  6
CONTINUOUS
 62
    7
 10
627.79440295092991
 20
235.61972377659825
 40
0.5530864197530718
  0
LINE
  8
_0-a_極細3
  6
CONTINUOUS
 62
    7
 10
614.33799064793948
 20
284.13519777931924
 11
613.50465731460736
 21
284.13519777931924
  0
LINE
  8
_0-a_極細3
  6
CONTINUOUS
 62
    7
 10
613.50465731460736
 20
284.13519777931924
 11
613.50465731460736
 21
182.89359748454032
  0
CIRCLE
  8
_0-a_極細3
  6
CONTINUOUS
 62
    7
 10
619.48905315668981
 20
244.07842301079472
 40
0.5530864197530718
  0
CIRCLE
  8
_0-a_極細3
  6
CONTINUOUS
 62
    7
 10
620.79563751883052
 20
204.82286745523922
 40
0.5530864197530718
  0
CIRCLE
  8
_0-a_極細3
  6
CONTINUOUS
 62
    7
 10
620.15674862994001
 20
270.77626251696802
 40
1.825531472681392
  0
CIRCLE
  8
_0-a_極細3
  6
CONTINUOUS
 62
    7
 10
623.10489677808891
 20
198.15404029474578
 40
1.825531472681392
  0
LINE
  8
_0-b_細線3
  6
CONTINUOUS
 62
    7
 10
465.2546573149084
 20
289.13556278099804
 11
457.42132398157452
 21
289.13556278099804
  0
LINE
  8
_0-d_寸法3
  6
CONTINUOUS
 62
    7
 10
230.1713239812743
 20
335.80186444598621
 11
230.1713239812743
 21
445.80186277764193
  0
LINE
  8
_0-d_寸法3
  6
CONTINUOUS
 62
    7
 10
230.1713239812743
 20
440.80186277764193
 11
239.83058224416504
 21
443.39005322866711
  0
LINE
  8
_0-d_寸法3
  6
CONTINUOUS
 62
    7
 10
230.1713239812743
 20
440.80186277764193
 11
239.83058224416504
 21
438.21367232661669
  0
LINE
  8
_0-d_寸法3
  6
CONTINUOUS
 62
    7
 10
663.50465731460747
 20
335.80186444598621
 11
663.50465731460747
 21
445.80186277764193
  0
LINE
  8
_0-d_寸法3
  6
CONTINUOUS
 62
    7
 10
663.50465731460747
 20
440.80186277764193
 11
653.84539905171664
 21
438.21367232661669
  0
LINE
  8
_0-d_寸法3
  6
CONTINUOUS
 62
    7
 10
663.50465731460747
 20
440.80186277764193
 11
653.84539905171664
 21
443.39005322866711
  0
LINE
  8
_0-d_寸法3
  6
CONTINUOUS
 62
    7
 10
230.1713239812743
 20
440.80186277764193
 11
663.50465731460747
 21
440.80186277764193
  0
TEXT
  8
_0-d_寸法3
 62
    7
 10
435.5879906479413
 20
440.80186277764193
 40
15
 41
1
 50
0
  1
260
  0
CIRCLE
  8
_0-a_極細3
  6
CONTINUOUS
 62
    7
 10
195.6034683209991
 20
293.47417918363226
 40
1.825531472681392
  0
CIRCLE
  8
_0-a_極細3
  6
CONTINUOUS
 62
    7
 10
160.89277707665588
 20
292.60518234722031
 40
1.825531472681392
  0
CIRCLE
  8
_0-a_極細3
  6
CONTINUOUS
 62
    7
 10
743.49934122253217
 20
300.34154029474485
 40
1.825531472681392
  0
CIRCLE
  8
_0-a_極細3
  6
CONTINUOUS
 62
    7
 10
700.26813145270262
 20
294.46314523301635
 40
0.5530864197530718
  0
CIRCLE
  8
_0-a_極細3
  6
CONTINUOUS
 62
    7
 10
700.40146478603583
 20
288.14431807252276
 40
1.825531472681392
  0
LINE
  8
_0-a_極細3
  6
CENTER1
 62
    7
 10
446.83799064794044
 20
272.94936829386961
 11
446.83799064794044
 21
344.73270162720928
  0
CIRCLE
  8
_0-a_極細3
  6
CONTINUOUS
 62
    7
 10
150.55613134599298
 20
301.00527486264582
 40
0.5530864197530718
  0
CIRCLE
  8
_0-a_極細3
  6
CONTINUOUS
 62
    7
 10
191.89934122253632
 20
305.805274862646
 40
0.5530864197530718
  0
CIRCLE
  8
_0-a_極細3
  6
CONTINUOUS
 62
    7
 10
216.78823011142504
 20
315.76083041820129
 40
0.5530864197530718
  0
CIRCLE
  8
_0-a_極細3
  6
CONTINUOUS
 62
    7
 10
222.47711900031391
 20
299.58305264042383
 40
0.5530864197530718
  0
CIRCLE
  8
_0-a_極細3
  6
CONTINUOUS
 62
    7
 10
197.58823011142431
 20
299.04971930709053
 40
0.5530864197530718
  0
CIRCLE
  8
_0-a_極細3
  6
CONTINUOUS
 62
    7
 10
185.85489677809164
 20
313.98305264042392
 40
0.5530864197530718
  0
CIRCLE
  8
_0-a_極細3
  6
CONTINUOUS
 62
    7
 10
212.65489677809185
 20
299.68181807252267
 40
1.825531472681392
  0
CIRCLE
  8
_0-a_極細3
  6
CONTINUOUS
 62
    7
 10
140.69569753557701
 20
307.50404029474521
 40
1.825531472681392
  0
LINE
  8
_0-a_極細3
  6
CONTINUOUS
 62
    7
 10
221.83799064794044
 20
330.80186444598621
 11
221.83799064794044
 21
319.13519777931924
  0
LINE
  8
_0-a_極細3
  6
CONTINUOUS
 62
    7
 10
221.83799064794044
 20
330.80186444598621
 11
132.66024350282621
 21
330.80186444598621
  0
LINE
  8
_0-a_極細3
  6
CONTINUOUS
 62
    7
 10
230.17132398127345
 20
319.13519777931924
 11
132.66024350282621
 21
319.13519777931924
  0
LINE
  8
_0-a_極細3
  6
CONTINUOUS
 62
    7
 10
230.17132398127345
 20
330.80186444598621
 11
221.83799064794044
 21
330.80186444598621
  0
LINE
  8
_0-a_極細3
  6
CONTINUOUS
 62
    7
 10
230.17132398127345
 20
329.96853111265233
 11
230.17132398127345
 21
330.80186444598621
  0
LINE
  8
_0-a_極細3
  6
CONTINUOUS
 62
    7
 10
229.97323372491428
 20
319.13519777931924
 11
230.17132398127345
 21
319.33328803567838
  0
LINE
  8
_0-a_極細3
  6
CONTINUOUS
 62
    7
 10
225.73059303779516
 20
319.13519777931924
 11
230.17132398127345
 21
323.57592872279793
  0
LINE
  8
_0-a_極細3
  6
CONTINUOUS
 62
    7
 10
221.83799064794044
 20
319.48523607658399
 11
230.17132398127345
 21
327.81856940991753
  0
LINE
  8
_0-a_極細3
  6
CONTINUOUS
 62
    7
 10
221.83799064794044
 20
323.72787676370359
 11
228.91197833022304
 21
330.80186444598621
  0
LINE
  8
_0-a_極細3
  6
CONTINUOUS
 62
    7
 10
221.83799064794044
 20
327.97051745082263
 11
224.66933764310397
 21
330.80186444598621
  0
LINE
  8
_0-a_極細3
  6
CONTINUOUS
 62
    7
 10
230.17132398127345
 20
328.52089757372732
 11
227.89035710901501
 21
330.80186444598621
  0
LINE
  8
_0-a_極細3
  6
CONTINUOUS
 62
    7
 10
230.17132398127345
 20
324.27825688660783
 11
223.64771642189595
 21
330.80186444598621
  0
LINE
  8
_0-a_極細3
  6
CONTINUOUS
 62
    7
 10
221.83799064794044
 20
328.36894953282263
 11
230.17132398127345
 21
320.0356161994892
  0
LINE
  8
_0-a_極細3
  6
CONTINUOUS
 62
    7
 10
221.83799064794044
 20
324.12630884570314
 11
226.82910171432383
 21
319.13519777931924
  0
LINE
  8
_0-a_極細3
  6
CONTINUOUS
 62
    7
 10
221.83799064794044
 20
319.88366815858353
 11
222.58646102720468
 21
319.13519777931924
  0
LINE
  8
_0-a_極細3
  6
CONTINUOUS
 62
    7
 10
213.00267097030974
 20
319.13519777319198
 11
221.83799064794044
 21
327.97051745082263
  0
LINE
  8
_0-a_極細3
  6
CONTINUOUS
 62
    7
 10
191.78946752000229
 20
319.1351977584809
 11
203.45613420750766
 21
330.80186444598576
  0
LINE
  8
_0-a_極細3
  6
CONTINUOUS
 62
    7
 10
170.5762640696949
 20
319.13519774376982
 11
182.2429307719112
 21
330.80186444598621
  0
LINE
  8
_0-a_極細3
  6
CONTINUOUS
 62
    7
 10
149.36306061938652
 20
319.13519772905784
 11
161.02972733631489
 21
330.80186444598621
  0
LINE
  8
_0-a_極細3
  6
CONTINUOUS
 62
    7
 10
132.66024350282621
 20
323.64558404809395
 11
139.81652390071849
 21
330.80186444598576
  0
LINE
  8
_0-a_極細3
  6
DASHED2
 62
    7
 10
202.39606924515556
 20
319.13519776583644
 11
214.06273592530582
 21
330.80186444598621
  0
LINE
  8
_0-a_極細3
  6
DASHED2
 62
    7
 10
181.18286579484817
 20
319.13519775112491
 11
192.84953248970942
 21
330.80186444598621
  0
LINE
  8
_0-a_極細3
  6
DASHED2
 62
    7
 10
159.96966234454064
 20
319.13519773641383
 11
171.6363290541122
 21
330.80186444598621
  0
LINE
  8
_0-a_極細3
  6
DASHED2
 62
    7
 10
138.75645889423231
 20
319.13519772170275
 11
150.42312561851668
 21
330.80186444598621
  0
CIRCLE
  8
_0-a_極細3
  6
CONTINUOUS
 62
    7
 10
671.45489677808837
 20
311.97842301079436
 40
0.5530864197530718
  0
CIRCLE
  8
_0-a_極細3
  6
CONTINUOUS
 62
    7
 10
721.49934122253217
 20
299.93397856634965
 40
0.5530864197530718
  0
CIRCLE
  8
_0-a_極細3
  6
CONTINUOUS
 62
    7
 10
735.49934122253217
 20
316.06731189968286
 40
0.5530864197530718
  0
CIRCLE
  8
_0-a_極細3
  6
CONTINUOUS
 62
    7
 10
683.49934122253217
 20
317.00064523301626
 40
0.5530864197530718
  0
LINE
  8
_0-a_極細3
  6
CONTINUOUS
 62
    7
 10
671.83799064794039
 20
330.80186444598621
 11
671.83799064794039
 21
319.13519777931924
  0
LINE
  8
_0-a_極細3
  6
CONTINUOUS
 62
    7
 10
671.83799064794039
 20
330.80186444598621
 11
761.01573779305556
 21
330.80186444598621
  0
LINE
  8
_0-a_極細3
  6
CONTINUOUS
 62
    7
 10
663.50465731460645
 20
319.13519777931924
 11
761.01573779305556
 21
319.13519777931924
  0
LINE
  8
_0-a_極細3
  6
CONTINUOUS
 62
    7
 10
663.50465731460645
 20
330.80186444598621
 11
671.83799064794039
 21
330.80186444598621
  0
LINE
  8
_0-a_極細3
  6
CONTINUOUS
 62
    7
 10
663.50465731460645
 20
329.96853111265233
 11
663.50465731460645
 21
330.80186444598621
  0
LINE
  8
_0-a_極細3
  6
CONTINUOUS
 62
    7
 10
671.83799064794039
 20
322.80428406004427
 11
668.16890436721587
 21
319.13519777931924
  0
LINE
  8
_0-a_極細3
  6
CONTINUOUS
 62
    7
 10
671.83799064794039
 20
327.0469247471629
 11
663.92626368009587
 21
319.13519777931924
  0
LINE
  8
_0-a_極細3
  6
CONTINUOUS
 62
    7
 10
663.50465731460645
 20
322.95623210094982
 11
671.35028965964375
 21
330.80186444598621
  0
LINE
  8
_0-a_極細3
  6
CONTINUOUS
 62
    7
 10
663.50465731460645
 20
327.19887278806846
 11
667.10764897252375
 21
330.80186444598576
  0
LINE
  8
_0-a_極細3
  6
CONTINUOUS
 62
    7
 10
671.83799064794039
 20
329.29254223648059
 11
670.32866843843476
 21
330.80186444598621
  0
LINE
  8
_0-a_極細3
  6
CONTINUOUS
 62
    7
 10
671.83799064794039
 20
325.04990154936104
 11
666.08602775131658
 21
330.80186444598621
  0
LINE
  8
_0-a_極細3
  6
CONTINUOUS
 62
    7
 10
671.83799064794039
 20
320.8072608622424
 11
663.50465731460645
 21
329.14059419557543
  0
LINE
  8
_0-a_極細3
  6
CONTINUOUS
 62
    7
 10
669.26741304374445
 20
319.13519777931924
 11
663.50465731460645
 21
324.89795350845634
  0
LINE
  8
_0-a_極細3
  6
CONTINUOUS
 62
    7
 10
665.02477235662457
 20
319.13519777931924
 11
663.50465731460645
 21
320.65531282133685
  0
LINE
  8
_0-a_極細3
  6
CONTINUOUS
 62
    7
 10
740.29379604824317
 20
319.13519777931924
 11
751.96046208812095
 21
330.80186381919702
  0
LINE
  8
_0-a_極細3
  6
CONTINUOUS
 62
    7
 10
719.0805926126468
 20
319.13519777931924
 11
730.74725881847371
 21
330.80186398514525
  0
LINE
  8
_0-a_極細3
  6
CONTINUOUS
 62
    7
 10
697.86738917705054
 20
319.13519777931924
 11
709.53405554882568
 21
330.80186415109438
  0
LINE
  8
_0-a_極細3
  6
CONTINUOUS
 62
    7
 10
676.65418574145406
 20
319.13519777931924
 11
688.32085227917742
 21
330.8018643170426
  0
LINE
  8
_0-a_極細3
  6
DASHED2
 62
    7
 10
750.90039776604146
 20
319.13519777931924
 11
761.01573779305556
 21
329.25053780633289
  0
LINE
  8
_0-a_極細3
  6
DASHED2
 62
    7
 10
729.68719433044498
 20
319.13519777931924
 11
741.35386045329699
 21
330.80186390217114
  0
LINE
  8
_0-a_極細3
  6
DASHED2
 62
    7
 10
708.47399089484861
 20
319.13519777931924
 11
720.14065718364964
 21
330.80186406811941
  0
LINE
  8
_0-a_極細3
  6
DASHED2
 62
    7
 10
687.26078745925224
 20
319.13519777931924
 11
698.92745391400058
 21
330.80186423406849
  0
LINE
  8
_0-a_極細3
  6
DASHED2
 62
    7
 10
671.83799064794039
 20
324.92560440360376
 11
677.71425064435334
 21
330.80186440001677
  0
LINE
  8
_0-a_極細3
  6
CENTER1
 62
    7
 10
661.62493194333365
 20
311.80182734798609
 11
228.51733153673285
 21
311.80182734798609
  0
LINE
  8
_0-a_極細3
  6
CONTINUOUS
 62
    7
 10
656.00465731460645
 20
329.13519777931975
 11
237.67132398127345
 21
329.13519777931975
  0
CIRCLE
  8
_0-a_極細3
  6
CONTINUOUS
 62
    7
 10
266.83799064794044
 20
311.80186444598621
 40
3.333333333333333
  0
CIRCLE
  8
_0-a_極細3
  6
CONTINUOUS
 62
    7
 10
626.83799064794039
 20
311.80186444598621
 40
3.333333333333333
  0
CIRCLE
  8
_0-a_極細3
  6
CONTINUOUS
 62
    7
 10
446.83799064794044
 20
311.80186444598621
 40
3.333333333333333
  0
LINE
  8
_0-b_細線3
  6
CONTINUOUS
 62
    7
 10
237.67132398127345
 20
289.13519777931924
 11
237.67132398127345
 21
330.80186444598576
  0
LINE
  8
_0-b_細線3
  6
CONTINUOUS
 62
    7
 10
237.67132398127345
 20
330.80186444598576
 11
656.00465731460645
 21
330.80186444598576
  0
LINE
  8
_0-b_細線3
  6
CONTINUOUS
 62
    7
 10
656.00465731460645
 20
330.80186444598576
 11
656.00465731460645
 21
289.13519777931924
  0
LINE
  8
_0-b_細線3
  6
CONTINUOUS
 62
    7
 10
656.00465731460645
 20
289.13519777931924
 11
237.67132398127345
 21
289.13519777931924
  0
LINE
  8
_0-b_細線3
  6
CONTINUOUS
 62
    7
 10
457.42132398157452
 20
330.80222944766501
 11
465.2546573149084
 21
330.80222944766501
  0
ARC
  8
_0-b_細線3
  6
CONTINUOUS
 62
    7
 10
235.17132398127345
 20
289.13519777931924
 40
4.9999999999999991
 50
179.99999999999983
 51
269.99999999999977
  0
LINE
  8
_0-b_細線3
  6
CONTINUOUS
 62
    7
 10
230.17132398127345
 20
289.13519777931924
 11
230.17132398127345
 21
329.96853111265233
  0
LINE
  8
_0-b_細線3
  6
CONTINUOUS
 62
    7
 10
235.17132398127345
 20
284.13519777931924
 11
279.33799064794044
 21
284.13519777931924
  0
LINE
  8
_0-b_細線3
  6
CONTINUOUS
 62
    7
 10
280.17132398127342
 20
284.96853111265273
 11
279.33799064794044
 21
284.13519777931924
  0
LINE
  8
_0-b_細線3
  6
CONTINUOUS
 62
    7
 10
280.17132398127342
 20
288.30186444598621
 11
280.17132398127342
 21
284.96853111265273
  0
LINE
  8
_0-b_細線3
  6
CONTINUOUS
 62
    7
 10
279.33799064794044
 20
289.13519777931924
 11
280.17132398127342
 21
288.30186444598621
  0
LINE
  8
_0-b_細線3
  6
CONTINUOUS
 62
    7
 10
235.17132398127345
 20
289.13519777931924
 11
279.33799064794044
 21
289.13519777931924
  0
LINE
  8
_0-b_細線3
  6
CONTINUOUS
 62
    7
 10
231.00465731460736
 20
330.80186444598621
 11
230.17132398127345
 21
329.96853111265233
  0
LINE
  8
_0-b_細線3
  6
CONTINUOUS
 62
    7
 10
234.33799064794044
 20
330.80186444598621
 11
231.00465731460736
 21
330.80186444598621
  0
LINE
  8
_0-b_細線3
  6
CONTINUOUS
 62
    7
 10
235.17132398127345
 20
329.96853111265233
 11
234.33799064794044
 21
330.80186444598621
  0
LINE
  8
_0-b_細線3
  6
CONTINUOUS
 62
    7
 10
235.17132398127345
 20
289.13519777931924
 11
235.17132398127345
 21
329.96853111265233
  0
ARC
  8
_0-b_細線3
  6
CONTINUOUS
 62
    7
 10
658.50465731460645
 20
289.13519777931924
 40
4.9999999999999991
 50
269.99999999999977
 51
359.99999999999966
  0
LINE
  8
_0-b_細線3
  6
CONTINUOUS
 62
    7
 10
663.50465731460645
 20
289.13519777931924
 11
663.50465731460645
 21
329.96853111265233
  0
LINE
  8
_0-b_細線3
  6
CONTINUOUS
 62
    7
 10
658.50465731460645
 20
284.13519777931924
 11
614.33799064793948
 21
284.13519777931924
  0
LINE
  8
_0-b_細線3
  6
CONTINUOUS
 62
    7
 10
613.50465731460736
 20
284.96853111265273
 11
614.33799064793948
 21
284.13519777931924
  0
LINE
  8
_0-b_細線3
  6
CONTINUOUS
 62
    7
 10
613.50465731460736
 20
288.30186444598621
 11
613.50465731460736
 21
284.96853111265273
  0
LINE
  8
_0-b_細線3
  6
CONTINUOUS
 62
    7
 10
614.33799064793948
 20
289.13519777931924
 11
613.50465731460736
 21
288.30186444598621
  0
LINE
  8
_0-b_細線3
  6
CONTINUOUS
 62
    7
 10
658.50465731460645
 20
289.13519777931924
 11
614.33799064793948
 21
289.13519777931924
  0
LINE
  8
_0-b_細線3
  6
CONTINUOUS
 62
    7
 10
662.67132398127342
 20
330.80186444598621
 11
663.50465731460645
 21
329.96853111265233
  0
LINE
  8
_0-b_細線3
  6
CONTINUOUS
 62
    7
 10
659.33799064794039
 20
330.80186444598621
 11
662.67132398127342
 21
330.80186444598621
  0
LINE
  8
_0-b_細線3
  6
CONTINUOUS
 62
    7
 10
658.50465731460645
 20
329.96853111265233
 11
659.33799064794039
 21
330.80186444598621
  0
LINE
  8
_0-b_細線3
  6
CONTINUOUS
 62
    7
 10
658.50465731460645
 20
289.13519777931924
 11
658.50465731460645
 21
329.96853111265233
  0
LINE
  8
_0-b_細線3
  6
CONTINUOUS
 62
    7
 10
237.67132398127345
 20
324.30186444598627
 11
656.00465731460645
 21
324.30186444598627
  0
CIRCLE
  8
_0-b_細線3
  6
CONTINUOUS
 62
    7
 10
266.83799064794044
 20
311.80186444598621
 40
10.833333333333332
  0
LINE
  8
_0-b_細線3
  6
CONTINUOUS
 62
    7
 10
273.50465731460736
 20
311.80186444598621
 11
270.17132398127342
 21
317.57536713788249
  0
LINE
  8
_0-b_細線3
  6
CONTINUOUS
 62
    7
 10
270.17132398127342
 20
317.57536713788249
 11
263.50465731460736
 21
317.57536713788249
  0
LINE
  8
_0-b_細線3
  6
CONTINUOUS
 62
    7
 10
263.50465731460736
 20
317.57536713788249
 11
260.17132398127342
 21
311.80186444598621
  0
LINE
  8
_0-b_細線3
  6
CONTINUOUS
 62
    7
 10
260.17132398127342
 20
311.80186444598621
 11
263.50465731460736
 21
306.02836175408993
  0
LINE
  8
_0-b_細線3
  6
CONTINUOUS
 62
    7
 10
263.50465731460736
 20
306.02836175408993
 11
270.17132398127342
 21
306.02836175408993
  0
LINE
  8
_0-b_細線3
  6
CONTINUOUS
 62
    7
 10
270.17132398127342
 20
306.02836175408993
 11
273.50465731460736
 21
311.80186444598621
  0
CIRCLE
  8
_0-b_細線3
  6
CONTINUOUS
 62
    7
 10
626.83799064794039
 20
311.80186444598621
 40
10.833333333333332
  0
LINE
  8
_0-b_細線3
  6
CONTINUOUS
 62
    7
 10
620.17132398127342
 20
311.80186444598621
 11
623.50465731460736
 21
317.57536713788249
  0
LINE
  8
_0-b_細線3
  6
CONTINUOUS
 62
    7
 10
623.50465731460736
 20
317.57536713788249
 11
630.17132398127342
 21
317.57536713788249
  0
LINE
  8
_0-b_細線3
  6
CONTINUOUS
 62
    7
 10
630.17132398127342
 20
317.57536713788249
 11
633.50465731460736
 21
311.80186444598621
  0
LINE
  8
_0-b_細線3
  6
CONTINUOUS
 62
    7
 10
633.50465731460736
 20
311.80186444598621
 11
630.17132398127342
 21
306.02836175408993
  0
LINE
  8
_0-b_細線3
  6
CONTINUOUS
 62
    7
 10
630.17132398127342
 20
306.02836175408993
 11
623.50465731460736
 21
306.02836175408993
  0
LINE
  8
_0-b_細線3
  6
CONTINUOUS
 62
    7
 10
623.50465731460736
 20
306.02836175408993
 11
620.17132398127342
 21
311.80186444598621
  0
CIRCLE
  8
_0-b_細線3
  6
CONTINUOUS
 62
    7
 10
446.83799064794044
 20
311.80186444598621
 40
10.833333333333332
  0
LINE
  8
_0-b_細線3
  6
CONTINUOUS
 62
    7
 10
440.17132398127342
 20
311.80186444598621
 11
443.50465731460736
 21
317.57536713788249
  0
LINE
  8
_0-b_細線3
  6
CONTINUOUS
 62
    7
 10
443.50465731460736
 20
317.57536713788249
 11
450.17132398127342
 21
317.57536713788249
  0
LINE
  8
_0-b_細線3
  6
CONTINUOUS
 62
    7
 10
450.17132398127342
 20
317.57536713788249
 11
453.50465731460736
 21
311.80186444598621
  0
LINE
  8
_0-b_細線3
  6
CONTINUOUS
 62
    7
 10
453.50465731460736
 20
311.80186444598621
 11
450.17132398127342
 21
306.02836175408993
  0
LINE
  8
_0-b_細線3
  6
CONTINUOUS
 62
    7
 10
450.17132398127342
 20
306.02836175408993
 11
443.50465731460736
 21
306.02836175408993
  0
LINE
  8
_0-b_細線3
  6
CONTINUOUS
 62
    7
 10
443.50465731460736
 20
306.02836175408993
 11
440.17132398127342
 21
311.80186444598621
  0
LINE
  8
_0-d_寸法3
  6
CONTINUOUS
 62
    7
 10
220.1713239812743
 20
284.1351977793193
 11
174.22129290268458
 21
284.13519777931924
  0
LINE
  8
_0-d_寸法3
  6
CONTINUOUS
 62
    7
 10
179.22129290268458
 20
284.13519777931924
 11
181.80948335370971
 21
274.47593951642853
  0
LINE
  8
_0-d_寸法3
  6
CONTINUOUS
 62
    7
 10
179.22129290268458
 20
284.13519777931924
 11
176.63310245165931
 21
274.47593951642858
  0
LINE
  8
_0-d_寸法3
  6
CONTINUOUS
 62
    7
 10
218.17132398127433
 20
245.80186444598581
 11
174.22129290268549
 21
245.80186444598581
  0
LINE
  8
_0-d_寸法3
  6
CONTINUOUS
 62
    7
 10
179.22129290268549
 20
245.80186444598579
 11
176.63310245166031
 21
255.46112270887647
  0
LINE
  8
_0-d_寸法3
  6
CONTINUOUS
 62
    7
 10
179.22129290268549
 20
245.80186444598579
 11
181.8094833537107
 21
255.46112270887647
  0
LINE
  8
_0-d_寸法3
  6
CONTINUOUS
 62
    7
 10
179.22129290268458
 20
284.13519777931924
 11
179.22129290268549
 21
245.80186444598579
  0
TEXT
  8
_0-d_寸法3
 62
    7
 10
179.22129290268549
 20
257.46853111265227
 40
15
 41
1
 50
90
  1
23
  0
LINE
  8
_0-d_寸法3
  6
CONTINUOUS
 62
    7
 10
220.1713239812743
 20
330.80186444598633
 11
174.22129290268458
 21
330.80186444598621
  0
LINE
  8
_0-d_寸法3
  6
CONTINUOUS
 62
    7
 10
179.22129290268458
 20
330.80186444598621
 11
181.80948335370971
 21
321.14260618309549
  0
LINE
  8
_0-d_寸法3
  6
CONTINUOUS
 62
    7
 10
179.22129290268458
 20
330.80186444598621
 11
176.63310245165931
 21
321.14260618309561
  0
LINE
  8
_0-d_寸法3
  6
CONTINUOUS
 62
    7
 10
218.17132398127433
 20
284.1351977793193
 11
174.22129290268458
 21
284.13519777931924
  0
LINE
  8
_0-d_寸法3
  6
CONTINUOUS
 62
    7
 10
179.22129290268458
 20
284.13519777931924
 11
176.63310245165931
 21
293.7944560422099
  0
LINE
  8
_0-d_寸法3
  6
CONTINUOUS
 62
    7
 10
179.22129290268458
 20
284.13519777931924
 11
181.80948335370977
 21
293.79445604220996
  0
LINE
  8
_0-d_寸法3
  6
CONTINUOUS
 62
    7
 10
179.22129290268458
 20
330.80186444598621
 11
179.22129290268458
 21
284.13519777931924
  0
TEXT
  8
_0-d_寸法3
 62
    7
 10
179.22129290268458
 20
299.96853111265227
 40
15
 41
1
 50
90
  1
28
  0
LINE
  8
_0-a_極細3
  6
CONTINUOUS
 62
    7
 10
186.53125576078807
 20
234.01689894182255
 11
181.40095361090289
 21
248.11228825361104
  0
LINE
  8
_0-a_極細3
  6
CONTINUOUS
 62
    7
 10
236.52529843458439
 20
268.17590895285775
 11
241.65560058446914
 21
254.08051964106929
  0
LINE
  8
_0-a_極細3
  6
CONTINUOUS
 62
    7
 10
181.40095361090289
 20
248.11228825361104
 11
236.52529843458439
 21
268.17590895285775
  0
LINE
  8
_0-a_極細3
  6
CONTINUOUS
 62
    7
 10
186.53125576078807
 20
234.01689894182255
 11
241.65560058446914
 21
254.08051964106929
  0
LINE
  8
_0-a_極細3
  6
CENTER1
 62
    7
 10
179.01067129385274
 20
239.26096355768735
 11
243.04169177641867
 21
262.56634904272232
  0
LINE
  8
_0-a_極細3
  6
CONTINUOUS
 62
    7
 10
205.17132398127345
 20
209.13519777931924
 11
205.17132398127345
 21
253.22075912763557
  0
LINE
  8
_0-a_極細3
  6
CONTINUOUS
 62
    7
 10
205.17132398127345
 20
253.22075912763557
 11
190.17132398127345
 21
253.22075912763557
  0
LINE
  8
_0-a_極細3
  6
CONTINUOUS
 62
    7
 10
190.17132398127345
 20
253.22075912763557
 11
190.17132398127345
 21
209.13519777931924
  0
LINE
  8
_0-a_極細3
  6
CENTER1
 62
    7
 10
197.67132398127345
 20
200.85845749486637
 11
197.67132398127345
 21
257.49647929224466
  0
LINE
  8
_0-a_極細3
  6
CONTINUOUS
 62
    7
 10
707.14472553509222
 20
234.01689894182255
 11
712.27502768497743
 21
248.11228825361104
  0
LINE
  8
_0-a_極細3
  6
CONTINUOUS
 62
    7
 10
657.15068286129554
 20
268.17590895285775
 11
652.02038071141078
 21
254.08051964106929
  0
LINE
  8
_0-a_極細3
  6
CONTINUOUS
 62
    7
 10
712.27502768497743
 20
248.11228825361104
 11
657.15068286129554
 21
268.17590895285775
  0
LINE
  8
_0-a_極細3
  6
CONTINUOUS
 62
    7
 10
707.14472553509222
 20
234.01689894182255
 11
652.02038071141078
 21
254.08051964106929
  0
LINE
  8
_0-a_極細3
  6
CENTER1
 62
    7
 10
714.66531000202758
 20
239.26096355768735
 11
650.63428951946162
 21
262.56634904272232
  0
LINE
  8
_0-a_極細3
  6
CONTINUOUS
 62
    7
 10
688.5046573146069
 20
209.13519777931924
 11
688.5046573146069
 21
253.22075912763557
  0
LINE
  8
_0-a_極細3
  6
CONTINUOUS
 62
    7
 10
688.5046573146069
 20
253.22075912763557
 11
703.5046573146069
 21
253.22075912763557
  0
LINE
  8
_0-a_極細3
  6
CONTINUOUS
 62
    7
 10
703.5046573146069
 20
253.22075912763557
 11
703.5046573146069
 21
209.13519777931924
  0
LINE
  8
_0-a_極細3
  6
CENTER1
 62
    7
 10
696.0046573146069
 20
200.85845749486637
 11
696.0046573146069
 21
257.49647929224466
  0
LINE
  8
_0-d_寸法3
  6
CONTINUOUS
 62
    7
 10
438.64647020505055
 20
294.87096214282974
 11
403.50616551634982
 21
319.47646838084393
  0
LINE
  8
_0-d_寸法3
  6
CONTINUOUS
 62
    7
 10
407.60192573779477
 20
316.60858619908868
 11
405.01373528676964
 21
326.26784446197939
  0
LINE
  8
_0-d_寸法3
  6
CONTINUOUS
 62
    7
 10
407.60192573779477
 20
316.60858619908868
 11
410.19011618882007
 21
326.26784446197939
  0
LINE
  8
_0-d_寸法3
  6
CONTINUOUS
 62
    7
 10
438.64647020505055
 20
336.53762880949665
 11
403.50616551634982
 21
361.1431350475109
  0
LINE
  8
_0-d_寸法3
  6
CONTINUOUS
 62
    7
 10
407.60192573779477
 20
358.27525286575565
 11
410.19011618881996
 21
348.61599460286493
  0
LINE
  8
_0-d_寸法3
  6
CONTINUOUS
 62
    7
 10
407.60192573779477
 20
358.27525286575565
 11
405.01373528676959
 21
348.61599460286499
  0
LINE
  8
_0-d_寸法3
  6
CONTINUOUS
 62
    7
 10
407.60192573779477
 20
316.60858619908868
 11
407.60192573779477
 21
358.27525286575565
  0
TEXT
  8
_0-d_寸法3
 62
    7
 10
407.60192573779477
 20
329.94191953242216
 40
15
 41
1
 50
90
  1
25
  0
TEXT
  8
_0-7_枠細線
 62
    5
 10
396.91594300870662
 20
147.46816611097438
 40
25
 41
0.8
 50
0
  1
断面詳細図
  0
TEXT
  8
_0-7_枠細線
 62
    5
 10
511.86491275787466
 20
147.46816611097438
 40
20
 41
0.6
 50
0
  1
Ｓ＝１：３
  0
LINE
  8
_0-7_枠細線
  6
CONTINUOUS
 62
    5
 10
1074.9999999999998
 20
286.80454176804579
 11
1375
 21
286.80454176804579
  0
LINE
  8
_0-7_枠細線
  6
CONTINUOUS
 62
    5
 10
1074.9999999999998
 20
311.80454176804568
 11
1375
 21
311.80454176804568
  0
LINE
  8
_0-7_枠細線
  6
CONTINUOUS
 62
    5
 10
1074.9999999999998
 20
336.80454176804568
 11
1375
 21
336.80454176804568
  0
LINE
  8
_0-7_枠細線
  6
CONTINUOUS
 62
    5
 10
1074.9999999999998
 20
361.80454176804585
 11
1375
 21
361.80454176804585
  0
LINE
  8
_0-7_枠細線
  6
CONTINUOUS
 62
    5
 10
1074.9999999999998
 20
386.80454176804574
 11
1375
 21
386.80454176804574
  0
LINE
  8
_0-7_枠細線
  6
CONTINUOUS
 62
    5
 10
1074.9999999999998
 20
411.80454176804568
 11
1375
 21
411.80454176804568
  0
LINE
  8
_0-7_枠細線
  6
CONTINUOUS
 62
    5
 10
1074.9999999999998
 20
436.80454176804568
 11
1375
 21
436.80454176804568
  0
TEXT
  8
_0-7_枠細線
 62
    5
 10
1163.7499999999998
 20
441.80454176804568
 40
17.5
 41
1
 50
0
  1
品番表
  0
TEXT
  8
_0-7_枠細線
 62
    5
 10
1306
 20
416.80454176804568
 40
15
 41
0.8000000000000001
 50
0
  1
備　　考
  0
TEXT
  8
_0-7_枠細線
 62
    5
 10
1213.0000000000002
 20
366.80454176804585
 40
15
 41
0.5999999999999999
 50
0
  1
ライトグレー
  0
TEXT
  8
_0-7_枠細線
 62
    5
 10
1222.0000000000002
 20
391.80454176804568
 40
15
 41
0.5999999999999999
 50
0
  1
ベージュ
  0
TEXT
  8
_0-7_枠細線
 62
    5
 10
1234.0000000000005
 20
416.80454176804568
 40
15
 41
0.8000000000000001
 50
0
  1
色
  0
TEXT
  8
_0-7_枠細線
 62
    5
 10
1111
 20
416.80454176804568
 40
15
 41
0.8000000000000001
 50
0
  1
品　　番
  0
LINE
  8
_0-7_枠細線
  6
CONTINUOUS
 62
    5
 10
1074.9999999999998
 20
211.8045417680456
 11
1375
 21
211.8045417680456
  0
LINE
  8
_0-7_枠細線
  6
CONTINUOUS
 62
    5
 10
1074.9999999999998
 20
236.80454176804579
 11
1375
 21
236.80454176804579
  0
LINE
  8
_0-7_枠細線
  6
CONTINUOUS
 62
    5
 10
1074.9999999999998
 20
261.80454176804591
 11
1375
 21
261.80454176804591
  0
TEXT
  8
_0-7_枠細線
 62
    5
 10
1222.0000000000007
 20
341.80454176804597
 40
15
 41
0.5999999999999999
 50
0
  1
ホワイト
  0
TEXT
  8
_0-7_枠細線
 62
    5
 10
1226.5
 20
316.80454176804568
 40
15
 41
0.5999999999999999
 50
0
  1
ピンク
  0
TEXT
  8
_0-7_枠細線
 62
    5
 10
1226.5
 20
291.80454176804568
 40
15
 41
0.5999999999999999
 50
0
  1
ブルー
  0
TEXT
  8
_0-7_枠細線
 62
    5
 10
1212.9999999999998
 20
266.80454176804579
 40
15
 41
0.5999999999999999
 50
0
  1
ダークグレー
  0
TEXT
  8
_0-7_枠細線
 62
    5
 10
1079.75
 20
391.80454176804568
 40
15
 41
0.5666666666666667
 50
0
  1
ＧＲＳＪ－２５Ｗ２５１－Ｂ
  0
TEXT
  8
_0-7_枠細線
 62
    5
 10
1079.7500000000002
 20
366.80454176804574
 40
15
 41
0.5666666666666667
 50
0
  1
ＧＲＳＪ－２５Ｗ２５１－Ｇ
  0
TEXT
  8
_0-7_枠細線
 62
    5
 10
1079.7500000000002
 20
341.80454176804597
 40
15
 41
0.5666666666666667
 50
0
  1
ＧＲＳＪ－２５Ｗ２５１－Ｓ
  0
TEXT
  8
_0-7_枠細線
 62
    5
 10
1079.7500000000002
 20
316.80454176804568
 40
15
 41
0.5666666666666667
 50
0
  1
ＧＲＳＪ－２５Ｗ２５１－Ｐ
  0
TEXT
  8
_0-7_枠細線
 62
    5
 10
1079.7500000000002
 20
291.80454176804568
 40
15
 41
0.5666666666666667
 50
0
  1
ＧＲＳＪ－２５Ｗ２５１－Ａ
  0
TEXT
  8
_0-7_枠細線
 62
    5
 10
1079.7500000000002
 20
266.80454176804579
 40
15
 41
0.5666666666666667
 50
0
  1
ＧＲＳＪ－２５Ｗ２５１－Ｄ
  0
TEXT
  8
_0-7_枠細線
 62
    5
 10
1079.7500000000002
 20
241.80454176804571
 40
15
 41
0.5666666666666667
 50
0
  1
ＧＲＳＪ－２５Ｗ２５１－Ｍ
  0
TEXT
  8
_0-7_枠細線
 62
    5
 10
1226.5
 20
241.80454176804571
 40
15
 41
0.5999999999999999
 50
0
  1
ウッド
  0
LINE
  8
_0-7_枠細線
  6
CONTINUOUS
 62
    5
 10
1074.9999999999998
 20
186.80454176804531
 11
1375
 21
186.80454176804531
  0
TEXT
  8
_0-7_枠細線
 62
    5
 10
1222.0000000000007
 20
191.80454176804545
 40
15
 41
0.5999999999999999
 50
0
  1
ブラック
  0
TEXT
  8
_0-7_枠細線
 62
    5
 10
1079.7500000000002
 20
191.80454176804545
 40
15
 41
0.5666666666666667
 50
0
  1
ＧＲＳＪ－２５Ｗ２５１－Ｋ
  0
LINE
  8
_0-7_枠細線
  6
CONTINUOUS
 62
    5
 10
1195.0000000000002
 20
436.80454176804568
 11
1195.0000000000002
 21
186.80454176804545
  0
LINE
  8
_0-7_枠細線
  6
CONTINUOUS
 62
    5
 10
1284.9999999999998
 20
436.80454176804568
 11
1284.9999999999998
 21
186.80454176804545
  0
LINE
  8
_0-7_枠細線
  6
CONTINUOUS
 62
    5
 10
1375
 20
436.80454176804568
 11
1375
 21
186.80454176804531
  0
LINE
  8
_0-7_枠細線
  6
CONTINUOUS
 62
    5
 10
1074.9999999999998
 20
436.80454176804568
 11
1074.9999999999998
 21
186.80454176804545
  0
TEXT
  8
_0-7_枠細線
 62
    5
 10
1079.75
 20
216.80454176804571
 40
15
 41
0.5666666666666667
 50
0
  1
ＧＲＳＪ－２５Ｗ２５１－Ｃ
  0
TEXT
  8
_0-7_枠細線
 62
    5
 10
1222.0000000000002
 20
216.80454176804571
 40
15
 41
0.5999999999999999
 50
0
  1
ブラウン
  0
LINE
  8
_0-7_枠細線
  6
CONTINUOUS
 62
    5
 10
1070.9184583481085
 20
219.02147576772461
 11
1063.4184583481085
 21
234.02147576772461
  0
LINE
  8
_0-7_枠細線
  6
CONTINUOUS
 62
    5
 10
1055.9184583481085
 20
219.02147576772461
 11
1070.9184583481085
 21
219.02147576772461
  0
LINE
  8
_0-7_枠細線
  6
CONTINUOUS
 62
    5
 10
1063.4184583481085
 20
234.02147576772461
 11
1055.9184583481085
 21
219.02147576772461
  0
TEXT
  8
_0-7_枠細線
 62
    5
 10
1058.2836096162566
 20
218.07265580287466
 40
12.5
 41
0.8
 50
0
  1
３
  0
LINE
  8
_0-d_寸法3
  6
CONTINUOUS
 62
    7
 10
892.44378588537245
 20
284.83810605534273
 11
892.44378588537245
 21
326.50477272200925
  0
LINE
  8
_0-d_寸法3
  6
CONTINUOUS
 62
    7
 10
892.44378588537245
 20
321.50477272200925
 11
902.10304414826328
 21
324.09296317303443
  0
LINE
  8
_0-d_寸法3
  6
CONTINUOUS
 62
    7
 10
892.44378588537245
 20
321.50477272200925
 11
902.10304414826328
 21
318.91658227098407
  0
LINE
  8
_0-d_寸法3
  6
CONTINUOUS
 62
    7
 10
921.44378588597544
 20
284.83810605534273
 11
921.44378588597544
 21
326.50477272200925
  0
LINE
  8
_0-d_寸法3
  6
CONTINUOUS
 62
    7
 10
921.44378588597544
 20
321.50477272200925
 11
911.78452762308484
 21
318.91658227098407
  0
LINE
  8
_0-d_寸法3
  6
CONTINUOUS
 62
    7
 10
921.44378588597544
 20
321.50477272200925
 11
911.78452762308484
 21
324.09296317303449
  0
LINE
  8
_0-d_寸法3
  6
CONTINUOUS
 62
    7
 10
892.44378588537245
 20
321.50477272200925
 11
921.44378588597544
 21
321.50477272200925
  0
TEXT
  8
_0-d_寸法3
 62
    7
 10
880.89760797573126
 20
306.50477272200925
 40
15
 41
1
 50
0
  1
(17.4)
  0
LINE
  8
_0-d_寸法3
  6
CONTINUOUS
 62
    7
 10
921.44378588597544
 20
321.50477272200925
 11
931.10304414886627
 21
324.09296317303438
  0
LINE
  8
_0-d_寸法3
  6
CONTINUOUS
 62
    7
 10
921.44378588597544
 20
321.50477272200925
 11
931.10304414886627
 21
318.91658227098401
  0
LINE
  8
_0-d_寸法3
  6
CONTINUOUS
 62
    7
 10
950.44378588657855
 20
284.83810605534273
 11
950.44378588657855
 21
326.50477272200925
  0
LINE
  8
_0-d_寸法3
  6
CONTINUOUS
 62
    7
 10
950.44378588657855
 20
321.50477272200925
 11
940.78452762368784
 21
318.91658227098407
  0
LINE
  8
_0-d_寸法3
  6
CONTINUOUS
 62
    7
 10
950.44378588657855
 20
321.50477272200925
 11
940.78452762368784
 21
324.09296317303449
  0
LINE
  8
_0-d_寸法3
  6
CONTINUOUS
 62
    7
 10
921.44378588597544
 20
321.50477272200925
 11
950.44378588657855
 21
321.50477272200925
  0
TEXT
  8
_0-d_寸法3
 62
    7
 10
917.96427464239787
 20
321.50477272200925
 40
15
 41
1
 50
0
  1
(17.4)
  0
LINE
  8
_0-d_寸法3
  6
CONTINUOUS
 62
    7
 10
843.9437858820105
 20
281.50477272200925
 11
843.9437858820105
 21
326.50477272200925
  0
LINE
  8
_0-d_寸法3
  6
CONTINUOUS
 62
    7
 10
843.9437858820105
 20
321.50477272200925
 11
834.2845276191199
 21
318.91658227098407
  0
LINE
  8
_0-d_寸法3
  6
CONTINUOUS
 62
    7
 10
843.9437858820105
 20
321.50477272200925
 11
834.2845276191199
 21
324.09296317303449
  0
LINE
  8
_0-d_寸法3
  6
CONTINUOUS
 62
    7
 10
853.94378588629195
 20
281.50477272200925
 11
853.94378588629195
 21
326.50477272200925
  0
LINE
  8
_0-d_寸法3
  6
CONTINUOUS
 62
    7
 10
819.56983019884376
 20
321.50477272200925
 11
853.94378588629195
 21
321.50477272200925
  0
TEXT
  8
_0-d_寸法3
 62
    7
 10
819.56983019884365
 20
306.50477272200925
 40
15
 41
1
 50
0
  1
(6)
  0
LINE
  8
_0-d_寸法3
  6
CONTINUOUS
 62
    7
 10
853.94378588629195
 20
321.50477272200925
 11
863.60304414918278
 21
324.09296317303443
  0
LINE
  8
_0-d_寸法3
  6
CONTINUOUS
 62
    7
 10
853.94378588629195
 20
321.50477272200925
 11
863.60304414918278
 21
318.91658227098407
  0
LINE
  8
_0-d_寸法3
  6
CONTINUOUS
 62
    7
 10
872.94378588261316
 20
281.50477272200925
 11
872.94378588261316
 21
326.50477272200925
  0
LINE
  8
_0-d_寸法3
  6
CONTINUOUS
 62
    7
 10
872.94378588261316
 20
321.50477272200925
 11
863.28452761972244
 21
318.91658227098407
  0
LINE
  8
_0-d_寸法3
  6
CONTINUOUS
 62
    7
 10
872.94378588261316
 20
321.50477272200925
 11
863.28452761972244
 21
324.09296317303449
  0
LINE
  8
_0-d_寸法3
  6
CONTINUOUS
 62
    7
 10
853.94378588629195
 20
321.50477272200925
 11
872.94378588261316
 21
321.50477272200925
  0
TEXT
  8
_0-d_寸法3
 62
    7
 10
844.67908945810268
 20
321.50477272200925
 40
15
 41
1
 50
0
  1
11.4
  0
ARC
  8
_0-a_極細3
  6
CONTINUOUS
 62
    7
 10
981.27318921110873
 20
263.32482356365773
 40
17.558839598481345
 50
150.03871396148165
 51
205.23810402387883
  0
ARC
  8
_0-a_極細3
  6
CONTINUOUS
 62
    7
 10
949.50771402121063
 20
248.35131435102707
 40
17.558839598481345
 50
330.03871396148202
 51
25.238104023878222
  0
ARC
  8
_0-a_極細3
  6
CONTINUOUS
 62
    7
 10
836.35337377277483
 20
263.32482356365773
 40
17.558839598481345
 50
150.03871396148165
 51
205.23810402387883
  0
ARC
  8
_0-a_極細3
  6
CONTINUOUS
 62
    7
 10
804.58789858287673
 20
248.35131435102707
 40
17.558839598481345
 50
330.03871396148202
 51
25.238104023878222
  0
LINE
  8
_0-a_極細3
  6
CENTER1
 62
    7
 10
971.24255287566837
 20
255.83806895734261
 11
808.66401024774268
 21
255.83806895734261
  0
ARC
  8
_0-b_細線3
  6
CONTINUOUS
 62
    7
 10
884.61045255387842
 20
271.50477272200925
 40
1.666666666666667
 50
89.999999999999915
 51
179.99999999999983
  0
ARC
  8
_0-b_細線3
  6
CONTINUOUS
 62
    7
 10
885.39036787275734
 20
274.83810605534273
 40
1.666666666666667
 50
269.99999999999977
 51
330.00000000000301
  0
ARC
  8
_0-b_細線3
  6
CONTINUOUS
 62
    7
 10
888.27711921870559
 20
273.17143938867622
 40
1.666666666666667
 50
89.999999999999915
 51
150.00000000000134
  0
LINE
  8
_0-b_細線3
  6
CONTINUOUS
 62
    7
 10
884.61045255387842
 20
273.17143938867622
 11
885.39036787275734
 21
273.17143938867622
  0
ARC
  8
_0-b_細線3
  6
CONTINUOUS
 62
    7
 10
900.27711921686659
 20
271.50477272200925
 40
1.666666666666667
 50
0
 51
89.999999999999915
  0
ARC
  8
_0-b_細線3
  6
CONTINUOUS
 62
    7
 10
899.49720389798711
 20
274.83810605534273
 40
1.666666666666667
 50
210.00000000000404
 51
269.99999999999977
  0
ARC
  8
_0-b_細線3
  6
CONTINUOUS
 62
    7
 10
896.61045255203908
 20
273.17143938867622
 40
1.666666666666667
 50
29.999999999990862
 51
89.999999999984354
  0
LINE
  8
_0-b_細線3
  6
CONTINUOUS
 62
    7
 10
900.27711921686659
 20
273.17143938867622
 11
899.49720389798711
 21
273.17143938867622
  0
ARC
  8
_0-b_細線3
  6
CONTINUOUS
 62
    7
 10
883.77711922054505
 20
269.17143938867628
 40
0.8333333333333334
 50
179.99999999999983
 51
269.99999999999977
  0
LINE
  8
_0-b_細線3
  6
CONTINUOUS
 62
    7
 10
882.94378588721145
 20
271.50477272200925
 11
882.94378588721145
 21
269.17143938867628
  0
ARC
  8
_0-b_細線3
  6
CONTINUOUS
 62
    7
 10
901.11045255019962
 20
269.17143938867628
 40
0.8333333333333334
 50
269.99999999999977
 51
359.99999999999966
  0
LINE
  8
_0-b_細線3
  6
CONTINUOUS
 62
    7
 10
901.943785883533
 20
271.50477272200925
 11
901.943785883533
 21
269.17143938867628
  0
ARC
  8
_0-b_細線3
  6
CONTINUOUS
 62
    7
 10
887.94378588721145
 20
266.67143938867628
 40
1.666666666666667
 50
0
 51
89.999999999999915
  0
LINE
  8
_0-b_細線3
  6
CONTINUOUS
 62
    7
 10
887.94378588721145
 20
268.33810605534273
 11
883.77711922054505
 21
268.33810605534273
  0
ARC
  8
_0-b_細線3
  6
CONTINUOUS
 62
    7
 10
896.9437858872119
 20
266.67143938867628
 40
1.666666666666667
 50
89.999999999999915
 51
179.99999999999983
  0
LINE
  8
_0-b_細線3
  6
CONTINUOUS
 62
    7
 10
896.943785883533
 20
268.33810605534273
 11
901.11045255019962
 21
268.33810605534273
  0
LINE
  8
_0-b_細線3
  6
CONTINUOUS
 62
    7
 10
896.61045255203908
 20
274.83810605534273
 11
888.27711921870559
 21
274.83810605534273
  0
LINE
  8
_0-b_細線3
  6
CONTINUOUS
 62
    7
 10
889.61045255203896
 20
233.17143938867622
 11
889.61045255387842
 21
266.67143938867628
  0
LINE
  8
_0-b_細線3
  6
CONTINUOUS
 62
    7
 10
895.27711921870548
 20
233.17143938867622
 11
895.2771192205455
 21
266.67143938867628
  0
LINE
  8
_0-b_細線3
  6
CONTINUOUS
 62
    7
 10
895.27711921870548
 20
233.17143938867622
 11
889.61045255203896
 21
233.17143938867622
  0
ARC
  8
_0-b_細線3
  6
CONTINUOUS
 62
    7
 10
913.61045255448153
 20
271.50477272200925
 40
1.666666666666667
 50
89.999999999999915
 51
179.99999999999983
  0
ARC
  8
_0-b_細線3
  6
CONTINUOUS
 62
    7
 10
914.39036787336033
 20
274.83810605534273
 40
1.666666666666667
 50
269.99999999999977
 51
329.99999999999523
  0
ARC
  8
_0-b_細線3
  6
CONTINUOUS
 62
    7
 10
917.27711921930847
 20
273.17143938867622
 40
1.666666666666667
 50
89.999999999999915
 51
150.00000000000915
  0
LINE
  8
_0-b_細線3
  6
CONTINUOUS
 62
    7
 10
913.61045255448153
 20
273.17143938867622
 11
914.39036787336033
 21
273.17143938867622
  0
ARC
  8
_0-b_細線3
  6
CONTINUOUS
 62
    7
 10
929.27711921746948
 20
271.50477272200925
 40
1.666666666666667
 50
0
 51
89.999999999999915
  0
ARC
  8
_0-b_細線3
  6
CONTINUOUS
 62
    7
 10
928.49720389859021
 20
274.83810605534273
 40
1.666666666666667
 50
209.99999999999622
 51
269.99999999999977
  0
ARC
  8
_0-b_細線3
  6
CONTINUOUS
 62
    7
 10
925.61045255264207
 20
273.17143938867622
 40
1.666666666666667
 50
29.999999999998682
 51
89.999999999999915
  0
LINE
  8
_0-b_細線3
  6
CONTINUOUS
 62
    7
 10
929.27711921746948
 20
273.17143938867622
 11
928.49720389859021
 21
273.17143938867622
  0
ARC
  8
_0-b_細線3
  6
CONTINUOUS
 62
    7
 10
912.7771192211485
 20
269.17143938867628
 40
0.8333333333333334
 50
179.99999999999983
 51
269.99999999999977
  0
LINE
  8
_0-b_細線3
  6
CONTINUOUS
 62
    7
 10
911.94378588781444
 20
271.50477272200925
 11
911.94378588781444
 21
269.17143938867628
  0
ARC
  8
_0-b_細線3
  6
CONTINUOUS
 62
    7
 10
930.11045255080262
 20
269.17143938867628
 40
0.8333333333333334
 50
269.99999999999977
 51
359.99999999999966
  0
LINE
  8
_0-b_細線3
  6
CONTINUOUS
 62
    7
 10
930.9437858841361
 20
271.50477272200925
 11
930.9437858841361
 21
269.17143938867628
  0
ARC
  8
_0-b_細線3
  6
CONTINUOUS
 62
    7
 10
916.94378588781444
 20
266.67143938867628
 40
1.666666666666667
 50
0
 51
89.999999999999915
  0
LINE
  8
_0-b_細線3
  6
CONTINUOUS
 62
    7
 10
916.94378588781444
 20
268.33810605534273
 11
912.7771192211485
 21
268.33810605534273
  0
ARC
  8
_0-b_細線3
  6
CONTINUOUS
 62
    7
 10
925.94378588781501
 20
266.67143938867628
 40
1.666666666666667
 50
89.999999999999915
 51
179.99999999999983
  0
LINE
  8
_0-b_細線3
  6
CONTINUOUS
 62
    7
 10
925.9437858841361
 20
268.33810605534273
 11
930.11045255080262
 21
268.33810605534273
  0
LINE
  8
_0-b_細線3
  6
CONTINUOUS
 62
    7
 10
925.61045255264207
 20
274.83810605534273
 11
917.27711921930847
 21
274.83810605534273
  0
LINE
  8
_0-b_細線3
  6
CONTINUOUS
 62
    7
 10
918.61045255264207
 20
233.17143938867622
 11
918.61045255448153
 21
266.67143938867628
  0
LINE
  8
_0-b_細線3
  6
CONTINUOUS
 62
    7
 10
924.27711921930847
 20
233.17143938867622
 11
924.27711922114838
 21
266.67143938867628
  0
LINE
  8
_0-b_細線3
  6
CONTINUOUS
 62
    7
 10
924.27711921930847
 20
233.17143938867622
 11
918.61045255264207
 21
233.17143938867622
  0
ARC
  8
_0-b_細線3
  6
CONTINUOUS
 62
    7
 10
942.61045255508452
 20
271.50477272200925
 40
1.666666666666667
 50
89.999999999999915
 51
179.99999999999983
  0
ARC
  8
_0-b_細線3
  6
CONTINUOUS
 62
    7
 10
943.39036787396344
 20
274.83810605534273
 40
1.666666666666667
 50
269.99999999999977
 51
329.99999999999523
  0
ARC
  8
_0-b_細線3
  6
CONTINUOUS
 62
    7
 10
946.27711921991147
 20
273.17143938867622
 40
1.666666666666667
 50
89.999999999999915
 51
150.00000000000915
  0
LINE
  8
_0-b_細線3
  6
CONTINUOUS
 62
    7
 10
942.61045255508452
 20
273.17143938867622
 11
943.39036787396344
 21
273.17143938867622
  0
ARC
  8
_0-b_細線3
  6
CONTINUOUS
 62
    7
 10
958.27711921807247
 20
271.50477272200925
 40
1.666666666666667
 50
0
 51
89.999999999999915
  0
ARC
  8
_0-b_細線3
  6
CONTINUOUS
 62
    7
 10
957.49720389919321
 20
274.83810605534273
 40
1.666666666666667
 50
210.00000000000404
 51
269.99999999999977
  0
ARC
  8
_0-b_細線3
  6
CONTINUOUS
 62
    7
 10
954.61045255324507
 20
273.17143938867622
 40
1.666666666666667
 50
29.999999999990862
 51
89.999999999984354
  0
LINE
  8
_0-b_細線3
  6
CONTINUOUS
 62
    7
 10
958.27711921807247
 20
273.17143938867622
 11
957.49720389919321
 21
273.17143938867622
  0
ARC
  8
_0-b_細線3
  6
CONTINUOUS
 62
    7
 10
941.77711922175092
 20
269.17143938867628
 40
0.8333333333333334
 50
179.99999999999983
 51
269.99999999999977
  0
LINE
  8
_0-b_細線3
  6
CONTINUOUS
 62
    7
 10
940.94378588841755
 20
271.50477272200925
 11
940.94378588841755
 21
269.17143938867628
  0
ARC
  8
_0-b_細線3
  6
CONTINUOUS
 62
    7
 10
959.1104525514055
 20
269.17143938867628
 40
0.8333333333333334
 50
269.99999999999977
 51
359.99999999999966
  0
LINE
  8
_0-b_細線3
  6
CONTINUOUS
 62
    7
 10
959.9437858847391
 20
271.50477272200925
 11
959.9437858847391
 21
269.17143938867628
  0
ARC
  8
_0-b_細線3
  6
CONTINUOUS
 62
    7
 10
945.94378588841755
 20
266.67143938867628
 40
1.666666666666667
 50
0
 51
89.999999999999915
  0
LINE
  8
_0-b_細線3
  6
CONTINUOUS
 62
    7
 10
945.94378588841755
 20
268.33810605534273
 11
941.77711922175092
 21
268.33810605534273
  0
ARC
  8
_0-b_細線3
  6
CONTINUOUS
 62
    7
 10
954.94378588841755
 20
266.67143938867628
 40
1.666666666666667
 50
89.999999999999915
 51
179.99999999999983
  0
LINE
  8
_0-b_細線3
  6
CONTINUOUS
 62
    7
 10
954.94378588473865
 20
268.33810605534273
 11
959.1104525514055
 21
268.33810605534273
  0
LINE
  8
_0-b_細線3
  6
CONTINUOUS
 62
    7
 10
954.61045255324507
 20
274.83810605534273
 11
946.27711921991147
 21
274.83810605534273
  0
LINE
  8
_0-b_細線3
  6
CONTINUOUS
 62
    7
 10
947.61045255324507
 20
233.17143938867622
 11
947.61045255508452
 21
266.67143938867628
  0
LINE
  8
_0-b_細線3
  6
CONTINUOUS
 62
    7
 10
953.27711921991158
 20
233.17143938867622
 11
953.27711922175138
 21
266.67143938867628
  0
LINE
  8
_0-b_細線3
  6
CONTINUOUS
 62
    7
 10
953.27711921991158
 20
233.17143938867622
 11
947.61045255324507
 21
233.17143938867622
  0
ARC
  8
_0-b_細線3
  6
CONTINUOUS
 62
    7
 10
826.61045255235547
 20
271.50477272200925
 40
1.666666666666667
 50
89.999999999999915
 51
179.99999999999983
  0
ARC
  8
_0-b_細線3
  6
CONTINUOUS
 62
    7
 10
827.39036787123439
 20
274.83810605534273
 40
1.666666666666667
 50
269.99999999999977
 51
330.00000000000301
  0
ARC
  8
_0-b_細線3
  6
CONTINUOUS
 62
    7
 10
830.27711921718264
 20
273.17143938867622
 40
1.666666666666667
 50
89.999999999999915
 51
150.00000000000134
  0
LINE
  8
_0-b_細線3
  6
CONTINUOUS
 62
    7
 10
826.61045255235547
 20
273.17143938867622
 11
827.39036787123439
 21
273.17143938867622
  0
ARC
  8
_0-b_細線3
  6
CONTINUOUS
 62
    7
 10
842.27711921534365
 20
271.50477272200925
 40
1.666666666666667
 50
0
 51
89.999999999999915
  0
ARC
  8
_0-b_細線3
  6
CONTINUOUS
 62
    7
 10
841.49720389646461
 20
274.83810605534273
 40
1.666666666666667
 50
209.99999999999622
 51
269.99999999999977
  0
ARC
  8
_0-b_細線3
  6
CONTINUOUS
 62
    7
 10
838.61045255051613
 20
273.17143938867622
 40
1.666666666666667
 50
29.999999999990862
 51
89.999999999984354
  0
LINE
  8
_0-b_細線3
  6
CONTINUOUS
 62
    7
 10
842.27711921534365
 20
273.17143938867622
 11
841.49720389646461
 21
273.17143938867622
  0
ARC
  8
_0-b_細線3
  6
CONTINUOUS
 62
    7
 10
825.77711921902255
 20
269.17143938867628
 40
0.8333333333333334
 50
179.99999999999983
 51
269.99999999999977
  0
LINE
  8
_0-b_細線3
  6
CONTINUOUS
 62
    7
 10
824.9437858856885
 20
271.50477272200925
 11
824.9437858856885
 21
269.17143938867628
  0
ARC
  8
_0-b_細線3
  6
CONTINUOUS
 62
    7
 10
843.11045254867668
 20
269.17143938867628
 40
0.8333333333333334
 50
269.99999999999977
 51
359.99999999999966
  0
LINE
  8
_0-b_細線3
  6
CONTINUOUS
 62
    7
 10
843.9437858820105
 20
271.50477272200925
 11
843.9437858820105
 21
269.17143938867628
  0
ARC
  8
_0-b_細線3
  6
CONTINUOUS
 62
    7
 10
829.9437858856885
 20
266.67143938867628
 40
1.666666666666667
 50
0
 51
89.999999999999915
  0
LINE
  8
_0-b_細線3
  6
CONTINUOUS
 62
    7
 10
829.9437858856885
 20
268.33810605534273
 11
825.77711921902255
 21
268.33810605534273
  0
ARC
  8
_0-b_細線3
  6
CONTINUOUS
 62
    7
 10
838.94378588568895
 20
266.67143938867628
 40
1.666666666666667
 50
89.999999999999915
 51
179.99999999999983
  0
LINE
  8
_0-b_細線3
  6
CONTINUOUS
 62
    7
 10
838.94378588201005
 20
268.33810605534273
 11
843.11045254867668
 21
268.33810605534273
  0
LINE
  8
_0-b_細線3
  6
CONTINUOUS
 62
    7
 10
838.61045255051613
 20
274.83810605534273
 11
830.27711921718264
 21
274.83810605534273
  0
LINE
  8
_0-b_細線3
  6
CONTINUOUS
 62
    7
 10
831.61045255051647
 20
233.17143938867622
 11
831.61045255235547
 21
266.67143938867628
  0
LINE
  8
_0-b_細線3
  6
CONTINUOUS
 62
    7
 10
837.27711921718253
 20
233.17143938867622
 11
837.27711921902255
 21
266.67143938867628
  0
LINE
  8
_0-b_細線3
  6
CONTINUOUS
 62
    7
 10
837.27711921718253
 20
233.17143938867622
 11
831.61045255051647
 21
233.17143938867622
  0
ARC
  8
_0-b_細線3
  6
CONTINUOUS
 62
    7
 10
855.61045255295858
 20
271.50477272200925
 40
1.666666666666667
 50
89.999999999999915
 51
179.99999999999983
  0
ARC
  8
_0-b_細線3
  6
CONTINUOUS
 62
    7
 10
856.39036787183784
 20
274.83810605534273
 40
1.666666666666667
 50
269.99999999999977
 51
329.99999999998744
  0
ARC
  8
_0-b_細線3
  6
CONTINUOUS
 62
    7
 10
859.27711921778553
 20
273.17143938867622
 40
1.666666666666667
 50
89.999999999999915
 51
150.00000000000915
  0
LINE
  8
_0-b_細線3
  6
CONTINUOUS
 62
    7
 10
855.61045255295858
 20
273.17143938867622
 11
856.39036787183784
 21
273.17143938867622
  0
ARC
  8
_0-b_細線3
  6
CONTINUOUS
 62
    7
 10
871.27711921594653
 20
271.50477272200925
 40
1.666666666666667
 50
0
 51
89.999999999999915
  0
ARC
  8
_0-b_細線3
  6
CONTINUOUS
 62
    7
 10
870.49720389706727
 20
274.83810605534273
 40
1.666666666666667
 50
210.00000000000404
 51
269.99999999999977
  0
ARC
  8
_0-b_細線3
  6
CONTINUOUS
 62
    7
 10
867.61045255111958
 20
273.17143938867622
 40
1.666666666666667
 50
29.999999999998682
 51
89.999999999999915
  0
LINE
  8
_0-b_細線3
  6
CONTINUOUS
 62
    7
 10
871.27711921594653
 20
273.17143938867622
 11
870.49720389706727
 21
273.17143938867622
  0
ARC
  8
_0-b_細線3
  6
CONTINUOUS
 62
    7
 10
854.77711921962555
 20
269.17143938867628
 40
0.8333333333333334
 50
179.99999999999983
 51
269.99999999999977
  0
LINE
  8
_0-b_細線3
  6
CONTINUOUS
 62
    7
 10
853.94378588629195
 20
271.50477272200925
 11
853.94378588629195
 21
269.17143938867628
  0
ARC
  8
_0-b_細線3
  6
CONTINUOUS
 62
    7
 10
872.11045254927967
 20
269.17143938867628
 40
0.8333333333333334
 50
269.99999999999977
 51
359.99999999999966
  0
LINE
  8
_0-b_細線3
  6
CONTINUOUS
 62
    7
 10
872.94378588261316
 20
271.50477272200925
 11
872.94378588261316
 21
269.17143938867628
  0
ARC
  8
_0-b_細線3
  6
CONTINUOUS
 62
    7
 10
858.94378588629195
 20
266.67143938867628
 40
1.666666666666667
 50
0
 51
89.999999999999915
  0
LINE
  8
_0-b_細線3
  6
CONTINUOUS
 62
    7
 10
858.94378588629195
 20
268.33810605534273
 11
854.77711921962555
 21
268.33810605534273
  0
ARC
  8
_0-b_細線3
  6
CONTINUOUS
 62
    7
 10
867.94378588629206
 20
266.67143938867628
 40
1.666666666666667
 50
89.999999999999915
 51
179.99999999999983
  0
LINE
  8
_0-b_細線3
  6
CONTINUOUS
 62
    7
 10
867.94378588261316
 20
268.33810605534273
 11
872.11045254927967
 21
268.33810605534273
  0
LINE
  8
_0-b_細線3
  6
CONTINUOUS
 62
    7
 10
867.61045255111958
 20
274.83810605534273
 11
859.27711921778553
 21
274.83810605534273
  0
LINE
  8
_0-b_細線3
  6
CONTINUOUS
 62
    7
 10
860.61045255111912
 20
233.17143938867622
 11
860.61045255295858
 21
266.67143938867628
  0
LINE
  8
_0-b_細線3
  6
CONTINUOUS
 62
    7
 10
866.27711921778598
 20
233.17143938867622
 11
866.27711921962543
 21
266.67143938867628
  0
LINE
  8
_0-b_細線3
  6
CONTINUOUS
 62
    7
 10
866.27711921778598
 20
233.17143938867622
 11
860.61045255111912
 21
233.17143938867622
  0
LINE
  8
_0-d_寸法3
  6
CONTINUOUS
 62
    7
 10
958.63530632978438
 20
238.90720375218672
 11
993.98764805546989
 21
263.66117992187748
  0
LINE
  8
_0-d_寸法3
  6
CONTINUOUS
 62
    7
 10
989.89188783402494
 20
260.79329774012223
 11
987.30369738299987
 21
270.45255600301289
  0
LINE
  8
_0-d_寸法3
  6
CONTINUOUS
 62
    7
 10
989.89188783402494
 20
260.79329774012223
 11
992.48007828505024
 21
270.45255600301289
  0
LINE
  8
_0-d_寸法3
  6
CONTINUOUS
 62
    7
 10
958.63530632978438
 20
280.57387041885323
 11
993.98764805546989
 21
305.32784658854399
  0
LINE
  8
_0-d_寸法3
  6
CONTINUOUS
 62
    7
 10
989.89188783402494
 20
302.45996440678874
 11
992.48007828505024
 21
292.80070614389803
  0
LINE
  8
_0-d_寸法3
  6
CONTINUOUS
 62
    7
 10
989.89188783402494
 20
302.45996440678874
 11
987.30369738299964
 21
292.80070614389808
  0
LINE
  8
_0-d_寸法3
  6
CONTINUOUS
 62
    7
 10
989.89188783402494
 20
260.79329774012223
 11
989.89188783402494
 21
302.45996440678874
  0
TEXT
  8
_0-d_寸法3
 62
    7
 10
989.89188783402494
 20
274.12663107345668
 40
15
 41
1
 50
90
  1
25
  0
LINE
  8
_0-b_細線3
  6
CONTINUOUS
 62
    7
 10
895.27711921962555
 20
245.00473562400913
 11
918.61045255295892
 21
245.00473562400913
  0
LINE
  8
_0-b_細線3
  6
CONTINUOUS
 62
    7
 10
924.27711922022854
 20
245.00473562400913
 11
947.61045255356191
 21
245.00473562400913
  0
LINE
  8
_0-b_細線3
  6
CONTINUOUS
 62
    7
 10
837.2771192181026
 20
245.00473562400913
 11
860.61045255143597
 21
245.00473562400913
  0
LINE
  8
_0-b_細線3
  6
CONTINUOUS
 62
    7
 10
866.27711921870605
 20
245.00473562400913
 11
889.61045255203896
 21
245.00473562400913
  0
LINE
  8
_0-b_細線3
  6
CONTINUOUS
 62
    7
 10
895.27711921962555
 20
266.67140229067616
 11
918.61045255295892
 21
266.67140229067616
  0
LINE
  8
_0-b_細線3
  6
CONTINUOUS
 62
    7
 10
924.27711922022854
 20
266.67140229067616
 11
947.61045255356191
 21
266.67140229067616
  0
LINE
  8
_0-b_細線3
  6
CONTINUOUS
 62
    7
 10
837.2771192181026
 20
266.67140229067616
 11
860.61045255143597
 21
266.67140229067616
  0
LINE
  8
_0-b_細線3
  6
CONTINUOUS
 62
    7
 10
866.27711921870605
 20
266.67140229067616
 11
889.61045255203896
 21
266.67140229067616
  0
LINE
  8
_0-b_細線3
  6
CONTINUOUS
 62
    7
 10
953.27711922083154
 20
266.67140229067616
 11
964.03621561163163
 21
266.67140229067616
  0
LINE
  8
_0-b_細線3
  6
CONTINUOUS
 62
    7
 10
953.27711922083154
 20
245.00473562400913
 11
966.74468762068773
 21
245.00473562400913
  0
LINE
  8
_0-b_細線3
  6
CONTINUOUS
 62
    7
 10
819.11640017329773
 20
266.67140229067616
 11
831.61045255083309
 21
266.67140229067616
  0
LINE
  8
_0-b_細線3
  6
CONTINUOUS
 62
    7
 10
821.82487218235383
 20
245.00473562400913
 11
831.61045255083309
 21
245.00473562400913
  0
TEXT
  8
_0-7_枠細線
 62
    5
 10
846.95974537681195
 20
193.99710924360704
 40
25
 41
0.8
 50
0
  1
側面詳細図
  0
TEXT
  8
_0-7_枠細線
 62
    5
 10
961.90871512597994
 20
193.99710924360704
 40
20
 41
0.6
 50
0
  1
Ｓ＝１：３
  0
LINE
  8
_0-7_枠細線
  6
CONTINUOUS
 62
    5
 10
785.16995454985135
 20
356.80454176804568
 11
785.16995454985135
 21
436.80454176804568
  0
TEXT
  8
_0-7_枠細線
 62
    5
 10
807.66995454985135
 20
414.30454176804568
 40
15
 41
1
 50
0
  1
耐荷重
  0
TEXT
  8
_0-7_枠細線
 62
    5
 10
800.16995454985135
 20
384.30454176804568
 40
15
 41
1
 50
0
  1
3.5kN/㎡
  0
TEXT
  8
_0-7_枠細線
 62
    5
 10
792.66995454985135
 20
364.30454176804568
 40
15
 41
1
 50
0
  1
（歩道用）
  0
LINE
  8
_0-7_枠細線
  6
CONTINUOUS
 62
    5
 10
875.16995454985135
 20
356.80454176804568
 11
875.16995454985135
 21
436.80454176804568
  0
TEXT
  8
_0-7_枠細線
 62
    5
 10
897.66995454985135
 20
414.30454176804568
 40
15
 41
1
 50
0
  1
蓋重量
  0
LINE
  8
_0-7_枠細線
  6
CONTINUOUS
 62
    5
 10
965.16995454985135
 20
356.80454176804568
 11
965.16995454985135
 21
436.80454176804568
  0
TEXT
  8
_0-7_枠細線
 62
    5
 10
987.66995454985135
 20
414.30454176804568
 40
15
 41
1
 50
0
  1
枠重量
  0
LINE
  8
_0-7_枠細線
  6
CONTINUOUS
 62
    5
 10
785.16995454985135
 20
406.80454176804568
 11
1055.1699545498514
 21
406.80454176804568
  0
LINE
  8
_0-7_枠細線
  6
CONTINUOUS
 62
    5
 10
785.16995454985135
 20
436.80454176804568
 11
1055.1699545498514
 21
436.80454176804568
  0
LINE
  8
_0-7_枠細線
  6
CONTINUOUS
 62
    5
 10
785.16995454985135
 20
356.80454176804568
 11
1055.1699545498514
 21
356.80454176804568
  0
LINE
  8
_0-7_枠細線
  6
CONTINUOUS
 62
    5
 10
1055.1699545498514
 20
356.80454176804568
 11
1055.1699545498514
 21
436.80454176804568
  0
TEXT
  8
_0-7_枠細線
 62
    5
 10
980.16995454985135
 20
375.55454176804568
 40
15
 41
0.8000000000000001
 50
0
  1
2.6kg/ｍ組
  0
TEXT
  8
_0-7_枠細線
 62
    5
 10
896.16995454985044
 20
375.55454176804568
 40
15
 41
0.8000000000000001
 50
0
  1
3.1kg/枚
  0
LINE
  8
_0-0_計極細
  6
CENTER2
 62
    2
 10
214.27468171297463
 20
658.08345034329454
 11
1245.2080150463519
 21
658.08345034329454
  0
ARC
  8
_0-0_計極細
  6
CONTINUOUS
 62
    2
 10
217.10950240667813
 20
780.58345034329409
 40
11.295514677412786
 50
138.39585046827571
 51
221.60414953172395
  0
ARC
  8
_0-0_計極細
  6
CONTINUOUS
 62
    2
 10
200.21706009330771
 20
765.58345034329261
 40
11.295514677412786
 50
318.39585046827381
 51
41.604149531723962
  0
ARC
  8
_0-0_計極細
  6
CONTINUOUS
 62
    2
 10
217.10950240667813
 20
550.58345034329398
 40
11.295514677412786
 50
138.39585046827571
 51
221.60414953172395
  0
ARC
  8
_0-0_計極細
  6
CONTINUOUS
 62
    2
 10
200.21706009330771
 20
535.58345034329261
 40
11.295514677412786
 50
318.39585046827534
 51
41.604149531723962
  0
LINE
  8
_0-1_計細線
  6
CONTINUOUS
 62
    3
 10
208.663281249992
 20
788.08345034329409
 11
1250.6632812499936
 21
788.08345034329409
  0
LINE
  8
_0-1_計細線
  6
CONTINUOUS
 62
    3
 10
1250.6632812499936
 20
528.08345034329534
 11
208.66328124999242
 21
528.08345034329534
  0
ARC
  8
_0-0_計極細
  6
CONTINUOUS
 62
    2
 10
1259.1095024066792
 20
780.58345034329409
 40
11.295514677412786
 50
138.39585046827494
 51
221.60414953172469
  0
ARC
  8
_0-0_計極細
  6
CONTINUOUS
 62
    2
 10
1242.2170600933086
 20
765.58345034329261
 40
11.295514677412786
 50
318.39585046827455
 51
41.604149531724723
  0
ARC
  8
_0-0_計極細
  6
CONTINUOUS
 62
    2
 10
1259.1095024066792
 20
550.58345034329398
 40
11.295514677412786
 50
138.39585046827494
 51
221.60414953172469
  0
ARC
  8
_0-0_計極細
  6
CONTINUOUS
 62
    2
 10
1242.2170600933086
 20
535.58345034329261
 40
11.295514677412786
 50
318.39585046827455
 51
41.604149531724723
  0
LINE
  8
_0-1_計細線
  6
CONTINUOUS
 62
    3
 10
206.74906555161988
 20
785.08345034329409
 11
1248.7490655516212
 21
785.08345034329409
  0
LINE
  8
_0-1_計細線
  6
CONTINUOUS
 62
    3
 10
1252.5774969483682
 20
531.08345034329534
 11
210.57749694836821
 21
531.08345034329534
  0
LINE
  8
_0-5_寸法線
  6
CONTINUOUS
 62
    7
 10
198.663281249992
 20
788.08345034329409
 11
153.66328124999745
 21
788.08345034329409
  0
LINE
  8
_0-5_寸法線
  6
CONTINUOUS
 62
    7
 10
158.66328124999745
 20
788.08345034329409
 11
161.25147170102267
 21
778.42419208040326
  0
LINE
  8
_0-5_寸法線
  6
CONTINUOUS
 62
    7
 10
158.66328124999745
 20
788.08345034329409
 11
156.07509079897221
 21
778.42419208040326
  0
LINE
  8
_0-5_寸法線
  6
CONTINUOUS
 62
    7
 10
198.6632812499947
 20
758.08345034329409
 11
153.66328124999745
 21
758.08345034329409
  0
LINE
  8
_0-5_寸法線
  6
CONTINUOUS
 62
    7
 10
158.66328124999745
 20
758.08345034329409
 11
156.07509079897227
 21
767.74270860618469
  0
LINE
  8
_0-5_寸法線
  6
CONTINUOUS
 62
    7
 10
158.66328124999745
 20
758.08345034329409
 11
161.25147170102267
 21
767.74270860618469
  0
LINE
  8
_0-5_寸法線
  6
CONTINUOUS
 62
    7
 10
158.66328124999745
 20
788.08345034329409
 11
158.66328124999745
 21
758.08345034329409
  0
TEXT
  8
_0-5_寸法線
 62
    7
 10
158.66328124999745
 20
765.58345034329409
 40
15
 41
1
 50
90
  1
30
  0
LINE
  8
_0-5_寸法線
  6
CONTINUOUS
 62
    7
 10
158.66328124999745
 20
758.08345034329409
 11
161.25147170102267
 21
748.42419208040326
  0
LINE
  8
_0-5_寸法線
  6
CONTINUOUS
 62
    7
 10
158.66328124999745
 20
758.08345034329409
 11
156.07509079897227
 21
748.42419208040326
  0
LINE
  8
_0-5_寸法線
  6
CONTINUOUS
 62
    7
 10
198.66328124999242
 20
558.08345034329398
 11
153.66328124999745
 21
558.08345034329398
  0
LINE
  8
_0-5_寸法線
  6
CONTINUOUS
 62
    7
 10
158.66328124999745
 20
558.08345034329398
 11
156.07509079897227
 21
567.74270860618469
  0
LINE
  8
_0-5_寸法線
  6
CONTINUOUS
 62
    7
 10
158.66328124999745
 20
558.08345034329398
 11
161.25147170102267
 21
567.74270860618469
  0
LINE
  8
_0-5_寸法線
  6
CONTINUOUS
 62
    7
 10
158.66328124999745
 20
758.08345034329409
 11
158.66328124999745
 21
558.08345034329398
  0
TEXT
  8
_0-5_寸法線
 62
    7
 10
158.6632812499974
 20
646.83345034329409
 40
15
 41
1
 50
89.999999999999815
  1
200
  0
LINE
  8
_0-5_寸法線
  6
CONTINUOUS
 62
    7
 10
158.66328124999745
 20
558.08345034329398
 11
161.25147170102267
 21
548.42419208040326
  0
LINE
  8
_0-5_寸法線
  6
CONTINUOUS
 62
    7
 10
158.66328124999745
 20
558.08345034329398
 11
156.07509079897227
 21
548.42419208040326
  0
LINE
  8
_0-5_寸法線
  6
CONTINUOUS
 62
    7
 10
198.66328124999745
 20
528.08345034329716
 11
153.66328124999745
 21
528.08345034329716
  0
LINE
  8
_0-5_寸法線
  6
CONTINUOUS
 62
    7
 10
158.66328124999745
 20
528.08345034329716
 11
156.07509079897227
 21
537.74270860618788
  0
LINE
  8
_0-5_寸法線
  6
CONTINUOUS
 62
    7
 10
158.66328124999745
 20
528.08345034329716
 11
161.25147170102267
 21
537.74270860618788
  0
LINE
  8
_0-5_寸法線
  6
CONTINUOUS
 62
    7
 10
158.66328124999745
 20
558.08345034329398
 11
158.66328124999745
 21
528.08345034329716
  0
TEXT
  8
_0-5_寸法線
 62
    7
 10
158.66328124999745
 20
535.58345034329534
 40
15
 41
1
 50
90
  1
30
  0
LINE
  8
_0-5_寸法線
  6
CONTINUOUS
 62
    7
 10
1260.6632812499936
 20
788.08345034329409
 11
1340.6632812499925
 21
788.08345034329409
  0
LINE
  8
_0-5_寸法線
  6
CONTINUOUS
 62
    7
 10
1335.6632812499925
 20
788.08345034329409
 11
1338.2514717010176
 21
778.42419208040326
  0
LINE
  8
_0-5_寸法線
  6
CONTINUOUS
 62
    7
 10
1335.6632812499925
 20
788.08345034329409
 11
1333.0750907989673
 21
778.42419208040326
  0
LINE
  8
_0-5_寸法線
  6
CONTINUOUS
 62
    7
 10
1260.6632812499927
 20
528.08345034329034
 11
1340.6632812499927
 21
528.08345034329034
  0
LINE
  8
_0-5_寸法線
  6
CONTINUOUS
 62
    7
 10
1335.6632812499927
 20
528.08345034329034
 11
1333.0750907989677
 21
537.74270860618105
  0
LINE
  8
_0-5_寸法線
  6
CONTINUOUS
 62
    7
 10
1335.6632812499927
 20
528.08345034329034
 11
1338.2514717010179
 21
537.74270860618105
  0
LINE
  8
_0-5_寸法線
  6
CONTINUOUS
 62
    7
 10
1335.6632812499925
 20
788.08345034329409
 11
1335.6632812499927
 21
528.08345034329034
  0
TEXT
  8
_0-5_寸法線
 62
    7
 10
1335.6632812499927
 20
646.83345034329227
 40
15
 41
1
 50
90
  1
260
  0
LINE
  8
_0-1_計細線
  6
CONTINUOUS
 62
    3
 10
208.663281249992
 20
758.08345034329409
 11
230.16328124999382
 21
758.08345034329409
  0
LINE
  8
_0-1_計細線
  6
CONTINUOUS
 62
    3
 10
208.66328124999242
 20
558.08345034329534
 11
230.16328124999382
 21
558.08345034329534
  0
LINE
  8
_0-1_計細線
  6
CONTINUOUS
 62
    3
 10
1229.1632812499938
 20
558.08345034329534
 11
1250.6632812499936
 21
558.08345034329534
  0
LINE
  8
_0-1_計細線
  6
CONTINUOUS
 62
    3
 10
1229.1632812499938
 20
758.08345034329409
 11
1250.6632812499936
 21
758.08345034329409
  0
LINE
  8
_0-1_計細線
  6
CONTINUOUS
 62
    3
 10
1229.1632812499943
 20
532.58345034329534
 11
1229.1632812499934
 21
783.58345034329409
  0
LINE
  8
_0-1_計細線
  6
CONTINUOUS
 62
    3
 10
1217.7632812499937
 20
532.58345034329534
 11
1217.7632812499928
 21
783.58345034329409
  0
LINE
  8
_0-1_計細線
  6
CONTINUOUS
 62
    3
 10
1229.1632812499943
 20
532.58345034329534
 11
1217.7632812499937
 21
532.58345034329534
  0
LINE
  8
_0-1_計細線
  6
CONTINUOUS
 62
    3
 10
1229.1632812499934
 20
783.58345034329409
 11
1217.7632812499928
 21
783.58345034329409
  0
LINE
  8
_0-0_計極細
  6
CONTINUOUS
 62
    2
 10
1220.963281249994
 20
532.58345034329534
 11
1220.9632812499931
 21
783.58345034329409
  0
LINE
  8
_0-0_計極細
  6
CONTINUOUS
 62
    2
 10
1225.963281249994
 20
532.58345034329534
 11
1225.9632812499931
 21
783.58345034329409
  0
LINE
  8
_0-1_計細線
  6
CONTINUOUS
 62
    3
 10
1195.1632812499934
 20
532.58345034329534
 11
1195.1632812499925
 21
783.58345034329409
  0
LINE
  8
_0-1_計細線
  6
CONTINUOUS
 62
    3
 10
1183.7632812499928
 20
532.58345034329579
 11
1183.7632812499919
 21
783.58345034329409
  0
LINE
  8
_0-1_計細線
  6
CONTINUOUS
 62
    3
 10
1195.1632812499934
 20
532.58345034329534
 11
1183.7632812499928
 21
532.58345034329579
  0
LINE
  8
_0-1_計細線
  6
CONTINUOUS
 62
    3
 10
1195.1632812499925
 20
783.58345034329409
 11
1183.7632812499919
 21
783.58345034329409
  0
LINE
  8
_0-0_計極細
  6
CONTINUOUS
 62
    2
 10
1186.9632812499935
 20
532.58345034329579
 11
1186.9632812499926
 21
783.58345034329409
  0
LINE
  8
_0-0_計極細
  6
CONTINUOUS
 62
    2
 10
1191.9632812499935
 20
532.58345034329534
 11
1191.9632812499926
 21
783.58345034329409
  0
LINE
  8
_0-1_計細線
  6
CONTINUOUS
 62
    3
 10
1178.1632812499929
 20
532.58345034329579
 11
1178.163281249992
 21
783.58345034329409
  0
LINE
  8
_0-1_計細線
  6
CONTINUOUS
 62
    3
 10
1166.7632812499924
 20
532.58345034329579
 11
1166.7632812499912
 21
783.58345034329409
  0
LINE
  8
_0-1_計細線
  6
CONTINUOUS
 62
    3
 10
1178.1632812499929
 20
532.58345034329579
 11
1166.7632812499924
 21
532.58345034329579
  0
LINE
  8
_0-1_計細線
  6
CONTINUOUS
 62
    3
 10
1178.163281249992
 20
783.58345034329409
 11
1166.7632812499912
 21
783.58345034329409
  0
LINE
  8
_0-0_計極細
  6
CONTINUOUS
 62
    2
 10
1169.9632812499926
 20
532.58345034329579
 11
1169.9632812499915
 21
783.58345034329409
  0
LINE
  8
_0-0_計極細
  6
CONTINUOUS
 62
    2
 10
1174.9632812499926
 20
532.58345034329579
 11
1174.9632812499915
 21
783.58345034329409
  0
LINE
  8
_0-1_計細線
  6
CONTINUOUS
 62
    3
 10
1115.7632812499951
 20
532.58345034329579
 11
1115.7632812499942
 21
783.58345034329409
  0
LINE
  8
_0-1_計細線
  6
CONTINUOUS
 62
    3
 10
1127.1632812499956
 20
532.58345034329534
 11
1127.1632812499947
 21
783.58345034329409
  0
LINE
  8
_0-1_計細線
  6
CONTINUOUS
 62
    3
 10
1115.7632812499951
 20
532.58345034329579
 11
1127.1632812499956
 21
532.58345034329534
  0
LINE
  8
_0-1_計細線
  6
CONTINUOUS
 62
    3
 10
1115.7632812499942
 20
783.58345034329409
 11
1127.1632812499947
 21
783.58345034329409
  0
LINE
  8
_0-0_計極細
  6
CONTINUOUS
 62
    2
 10
1123.9632812499949
 20
532.58345034329534
 11
1123.963281249994
 21
783.58345034329409
  0
LINE
  8
_0-0_計極細
  6
CONTINUOUS
 62
    2
 10
1118.9632812499949
 20
532.58345034329579
 11
1118.963281249994
 21
783.58345034329409
  0
LINE
  8
_0-1_計細線
  6
CONTINUOUS
 62
    3
 10
1098.7632812499942
 20
532.58345034329579
 11
1098.763281249993
 21
783.58345034329409
  0
LINE
  8
_0-1_計細線
  6
CONTINUOUS
 62
    3
 10
1110.1632812499947
 20
532.58345034329579
 11
1110.1632812499936
 21
783.58345034329409
  0
LINE
  8
_0-1_計細線
  6
CONTINUOUS
 62
    3
 10
1098.7632812499942
 20
532.58345034329579
 11
1110.1632812499947
 21
532.58345034329579
  0
LINE
  8
_0-1_計細線
  6
CONTINUOUS
 62
    3
 10
1098.763281249993
 20
783.58345034329409
 11
1110.1632812499936
 21
783.58345034329409
  0
LINE
  8
_0-0_計極細
  6
CONTINUOUS
 62
    2
 10
1106.9632812499945
 20
532.58345034329579
 11
1106.9632812499933
 21
783.58345034329409
  0
LINE
  8
_0-0_計極細
  6
CONTINUOUS
 62
    2
 10
1101.9632812499945
 20
532.58345034329579
 11
1101.9632812499933
 21
783.58345034329409
  0
LINE
  8
_0-1_計細線
  6
CONTINUOUS
 62
    3
 10
1081.7632812499942
 20
532.58345034329579
 11
1081.7632812499933
 21
783.58345034329409
  0
LINE
  8
_0-1_計細線
  6
CONTINUOUS
 62
    3
 10
1093.1632812499947
 20
532.58345034329579
 11
1093.1632812499938
 21
783.58345034329409
  0
LINE
  8
_0-1_計細線
  6
CONTINUOUS
 62
    3
 10
1081.7632812499942
 20
532.58345034329579
 11
1093.1632812499947
 21
532.58345034329579
  0
LINE
  8
_0-1_計細線
  6
CONTINUOUS
 62
    3
 10
1081.7632812499933
 20
783.58345034329409
 11
1093.1632812499938
 21
783.58345034329409
  0
LINE
  8
_0-0_計極細
  6
CONTINUOUS
 62
    2
 10
1089.9632812499945
 20
532.58345034329579
 11
1089.9632812499935
 21
783.58345034329409
  0
LINE
  8
_0-0_計極細
  6
CONTINUOUS
 62
    2
 10
1084.9632812499945
 20
532.58345034329579
 11
1084.9632812499935
 21
783.58345034329409
  0
LINE
  8
_0-1_計細線
  6
CONTINUOUS
 62
    3
 10
1076.1632812499952
 20
532.58345034329534
 11
1076.163281249994
 21
783.58345034329409
  0
LINE
  8
_0-1_計細線
  6
CONTINUOUS
 62
    3
 10
1064.7632812499946
 20
532.58345034329534
 11
1064.7632812499935
 21
783.58345034329409
  0
LINE
  8
_0-1_計細線
  6
CONTINUOUS
 62
    3
 10
1076.1632812499952
 20
532.58345034329534
 11
1064.7632812499946
 21
532.58345034329534
  0
LINE
  8
_0-1_計細線
  6
CONTINUOUS
 62
    3
 10
1076.163281249994
 20
783.58345034329409
 11
1064.7632812499935
 21
783.58345034329409
  0
LINE
  8
_0-0_計極細
  6
CONTINUOUS
 62
    2
 10
1067.9632812499949
 20
532.58345034329534
 11
1067.9632812499938
 21
783.58345034329409
  0
LINE
  8
_0-0_計極細
  6
CONTINUOUS
 62
    2
 10
1072.9632812499949
 20
532.58345034329534
 11
1072.9632812499938
 21
783.58345034329409
  0
LINE
  8
_0-1_計細線
  6
CONTINUOUS
 62
    3
 10
1212.1632812499956
 20
532.58345034329534
 11
1212.1632812499945
 21
783.58345034329409
  0
LINE
  8
_0-1_計細線
  6
CONTINUOUS
 62
    3
 10
1200.7632812499951
 20
532.58345034329579
 11
1200.7632812499942
 21
783.58345034329409
  0
LINE
  8
_0-1_計細線
  6
CONTINUOUS
 62
    3
 10
1212.1632812499956
 20
532.58345034329534
 11
1200.7632812499951
 21
532.58345034329579
  0
LINE
  8
_0-1_計細線
  6
CONTINUOUS
 62
    3
 10
1212.1632812499945
 20
783.58345034329409
 11
1200.7632812499942
 21
783.58345034329409
  0
LINE
  8
_0-0_計極細
  6
CONTINUOUS
 62
    2
 10
1203.9632812499958
 20
532.58345034329579
 11
1203.9632812499947
 21
783.58345034329409
  0
LINE
  8
_0-0_計極細
  6
CONTINUOUS
 62
    2
 10
1208.9632812499958
 20
532.58345034329534
 11
1208.9632812499947
 21
783.58345034329409
  0
LINE
  8
_0-1_計細線
  6
CONTINUOUS
 62
    3
 10
1059.1632812499952
 20
532.58345034329534
 11
1059.1632812499943
 21
783.58345034329409
  0
LINE
  8
_0-1_計細線
  6
CONTINUOUS
 62
    3
 10
1047.7632812499946
 20
532.58345034329534
 11
1047.7632812499937
 21
783.58345034329409
  0
LINE
  8
_0-1_計細線
  6
CONTINUOUS
 62
    3
 10
1059.1632812499952
 20
532.58345034329534
 11
1047.7632812499946
 21
532.58345034329534
  0
LINE
  8
_0-1_計細線
  6
CONTINUOUS
 62
    3
 10
1059.1632812499943
 20
783.58345034329409
 11
1047.7632812499937
 21
783.58345034329409
  0
LINE
  8
_0-0_計極細
  6
CONTINUOUS
 62
    2
 10
1050.9632812499949
 20
532.58345034329534
 11
1050.963281249994
 21
783.58345034329409
  0
LINE
  8
_0-0_計極細
  6
CONTINUOUS
 62
    2
 10
1055.9632812499949
 20
532.58345034329534
 11
1055.963281249994
 21
783.58345034329409
  0
LINE
  8
_0-1_計細線
  6
CONTINUOUS
 62
    3
 10
1042.1632812499952
 20
532.58345034329534
 11
1042.1632812499943
 21
783.58345034329409
  0
LINE
  8
_0-1_計細線
  6
CONTINUOUS
 62
    3
 10
1030.7632812499946
 20
532.58345034329534
 11
1030.7632812499937
 21
783.58345034329409
  0
LINE
  8
_0-1_計細線
  6
CONTINUOUS
 62
    3
 10
1042.1632812499952
 20
532.58345034329534
 11
1030.7632812499946
 21
532.58345034329534
  0
LINE
  8
_0-1_計細線
  6
CONTINUOUS
 62
    3
 10
1042.1632812499943
 20
783.58345034329409
 11
1030.7632812499937
 21
783.58345034329409
  0
LINE
  8
_0-0_計極細
  6
CONTINUOUS
 62
    2
 10
1033.9632812499949
 20
532.58345034329534
 11
1033.963281249994
 21
783.58345034329409
  0
LINE
  8
_0-0_計極細
  6
CONTINUOUS
 62
    2
 10
1038.9632812499949
 20
532.58345034329534
 11
1038.963281249994
 21
783.58345034329409
  0
LINE
  8
_0-1_計細線
  6
CONTINUOUS
 62
    3
 10
1025.1632812499952
 20
532.58345034329534
 11
1025.1632812499943
 21
783.58345034329409
  0
LINE
  8
_0-1_計細線
  6
CONTINUOUS
 62
    3
 10
1013.7632812499947
 20
532.58345034329534
 11
1013.7632812499937
 21
783.58345034329409
  0
LINE
  8
_0-1_計細線
  6
CONTINUOUS
 62
    3
 10
1025.1632812499952
 20
532.58345034329534
 11
1013.7632812499947
 21
532.58345034329534
  0
LINE
  8
_0-1_計細線
  6
CONTINUOUS
 62
    3
 10
1025.1632812499943
 20
783.58345034329409
 11
1013.7632812499937
 21
783.58345034329409
  0
LINE
  8
_0-0_計極細
  6
CONTINUOUS
 62
    2
 10
1016.9632812499951
 20
532.58345034329534
 11
1016.9632812499941
 21
783.58345034329409
  0
LINE
  8
_0-0_計極細
  6
CONTINUOUS
 62
    2
 10
1021.9632812499951
 20
532.58345034329534
 11
1021.9632812499941
 21
783.58345034329409
  0
LINE
  8
_0-1_計細線
  6
CONTINUOUS
 62
    3
 10
1008.1632812499953
 20
532.58345034329534
 11
1008.1632812499943
 21
783.58345034329409
  0
LINE
  8
_0-1_計細線
  6
CONTINUOUS
 62
    3
 10
996.76328124999486
 20
532.58345034329534
 11
996.76328124999372
 21
783.58345034329409
  0
LINE
  8
_0-1_計細線
  6
CONTINUOUS
 62
    3
 10
1008.1632812499953
 20
532.58345034329534
 11
996.76328124999486
 21
532.58345034329534
  0
LINE
  8
_0-1_計細線
  6
CONTINUOUS
 62
    3
 10
1008.1632812499943
 20
783.58345034329409
 11
996.76328124999372
 21
783.58345034329409
  0
LINE
  8
_0-0_計極細
  6
CONTINUOUS
 62
    2
 10
999.96328124999513
 20
532.58345034329534
 11
999.96328124999411
 21
783.58345034329409
  0
LINE
  8
_0-0_計極細
  6
CONTINUOUS
 62
    2
 10
1004.9632812499951
 20
532.58345034329534
 11
1004.9632812499941
 21
783.58345034329409
  0
LINE
  8
_0-1_計細線
  6
CONTINUOUS
 62
    3
 10
991.16328124999541
 20
532.58345034329534
 11
991.16328124999427
 21
783.58345034329409
  0
LINE
  8
_0-1_計細線
  6
CONTINUOUS
 62
    3
 10
979.76328124999486
 20
532.58345034329534
 11
979.76328124999384
 21
783.58345034329409
  0
LINE
  8
_0-1_計細線
  6
CONTINUOUS
 62
    3
 10
991.16328124999541
 20
532.58345034329534
 11
979.76328124999486
 21
532.58345034329534
  0
LINE
  8
_0-1_計細線
  6
CONTINUOUS
 62
    3
 10
991.16328124999427
 20
783.58345034329409
 11
979.76328124999384
 21
783.58345034329409
  0
LINE
  8
_0-0_計極細
  6
CONTINUOUS
 62
    2
 10
982.96328124999502
 20
532.58345034329534
 11
982.963281249994
 21
783.58345034329409
  0
LINE
  8
_0-0_計極細
  6
CONTINUOUS
 62
    2
 10
987.96328124999502
 20
532.58345034329534
 11
987.963281249994
 21
783.58345034329409
  0
LINE
  8
_0-1_計細線
  6
CONTINUOUS
 62
    3
 10
974.16328124999541
 20
532.58345034329534
 11
974.16328124999438
 21
783.58345034329409
  0
LINE
  8
_0-1_計細線
  6
CONTINUOUS
 62
    3
 10
962.76328124999486
 20
532.58345034329534
 11
962.76328124999384
 21
783.58345034329409
  0
LINE
  8
_0-1_計細線
  6
CONTINUOUS
 62
    3
 10
974.16328124999541
 20
532.58345034329534
 11
962.76328124999486
 21
532.58345034329534
  0
LINE
  8
_0-1_計細線
  6
CONTINUOUS
 62
    3
 10
974.16328124999438
 20
783.58345034329409
 11
962.76328124999384
 21
783.58345034329409
  0
LINE
  8
_0-0_計極細
  6
CONTINUOUS
 62
    2
 10
965.96328124999502
 20
532.58345034329534
 11
965.963281249994
 21
783.58345034329409
  0
LINE
  8
_0-0_計極細
  6
CONTINUOUS
 62
    2
 10
970.96328124999502
 20
532.58345034329534
 11
970.963281249994
 21
783.58345034329409
  0
LINE
  8
_0-1_計細線
  6
CONTINUOUS
 62
    3
 10
957.16328124999541
 20
532.58345034329534
 11
957.16328124999438
 21
783.58345034329409
  0
LINE
  8
_0-1_計細線
  6
CONTINUOUS
 62
    3
 10
945.76328124999475
 20
532.58345034329534
 11
945.76328124999372
 21
783.58345034329409
  0
LINE
  8
_0-1_計細線
  6
CONTINUOUS
 62
    3
 10
957.16328124999541
 20
532.58345034329534
 11
945.76328124999475
 21
532.58345034329534
  0
LINE
  8
_0-1_計細線
  6
CONTINUOUS
 62
    3
 10
957.16328124999438
 20
783.58345034329409
 11
945.76328124999372
 21
783.58345034329409
  0
LINE
  8
_0-0_計極細
  6
CONTINUOUS
 62
    2
 10
948.96328124999513
 20
532.58345034329534
 11
948.963281249994
 21
783.58345034329409
  0
LINE
  8
_0-0_計極細
  6
CONTINUOUS
 62
    2
 10
953.96328124999513
 20
532.58345034329534
 11
953.963281249994
 21
783.58345034329409
  0
LINE
  8
_0-1_計細線
  6
CONTINUOUS
 62
    3
 10
940.16328124999529
 20
532.58345034329534
 11
940.16328124999427
 21
783.58345034329409
  0
LINE
  8
_0-1_計細線
  6
CONTINUOUS
 62
    3
 10
928.76328124999475
 20
532.58345034329534
 11
928.76328124999372
 21
783.58345034329409
  0
LINE
  8
_0-1_計細線
  6
CONTINUOUS
 62
    3
 10
940.16328124999529
 20
532.58345034329534
 11
928.76328124999475
 21
532.58345034329534
  0
LINE
  8
_0-1_計細線
  6
CONTINUOUS
 62
    3
 10
940.16328124999427
 20
783.58345034329409
 11
928.76328124999372
 21
783.58345034329409
  0
LINE
  8
_0-0_計極細
  6
CONTINUOUS
 62
    2
 10
931.96328124999513
 20
532.58345034329534
 11
931.96328124999411
 21
783.58345034329409
  0
LINE
  8
_0-0_計極細
  6
CONTINUOUS
 62
    2
 10
936.96328124999513
 20
532.58345034329534
 11
936.96328124999411
 21
783.58345034329409
  0
LINE
  8
_0-1_計細線
  6
CONTINUOUS
 62
    3
 10
923.16328124999529
 20
532.58345034329534
 11
923.16328124999427
 21
783.58345034329409
  0
LINE
  8
_0-1_計細線
  6
CONTINUOUS
 62
    3
 10
911.76328124999486
 20
532.58345034329534
 11
911.76328124999372
 21
783.58345034329409
  0
LINE
  8
_0-1_計細線
  6
CONTINUOUS
 62
    3
 10
923.16328124999529
 20
532.58345034329534
 11
911.76328124999486
 21
532.58345034329534
  0
LINE
  8
_0-1_計細線
  6
CONTINUOUS
 62
    3
 10
923.16328124999427
 20
783.58345034329409
 11
911.76328124999372
 21
783.58345034329409
  0
LINE
  8
_0-0_計極細
  6
CONTINUOUS
 62
    2
 10
914.96328124999513
 20
532.58345034329534
 11
914.96328124999411
 21
783.58345034329409
  0
LINE
  8
_0-0_計極細
  6
CONTINUOUS
 62
    2
 10
919.96328124999513
 20
532.58345034329534
 11
919.96328124999411
 21
783.58345034329409
  0
LINE
  8
_0-1_計細線
  6
CONTINUOUS
 62
    3
 10
906.16328124999541
 20
532.58345034329534
 11
906.16328124999427
 21
783.58345034329409
  0
LINE
  8
_0-1_計細線
  6
CONTINUOUS
 62
    3
 10
894.76328124999486
 20
532.58345034329534
 11
894.76328124999384
 21
783.58345034329409
  0
LINE
  8
_0-1_計細線
  6
CONTINUOUS
 62
    3
 10
906.16328124999541
 20
532.58345034329534
 11
894.76328124999486
 21
532.58345034329534
  0
LINE
  8
_0-1_計細線
  6
CONTINUOUS
 62
    3
 10
906.16328124999427
 20
783.58345034329409
 11
894.76328124999384
 21
783.58345034329409
  0
LINE
  8
_0-0_計極細
  6
CONTINUOUS
 62
    2
 10
897.96328124999502
 20
532.58345034329534
 11
897.963281249994
 21
783.58345034329409
  0
LINE
  8
_0-0_計極細
  6
CONTINUOUS
 62
    2
 10
902.96328124999502
 20
532.58345034329534
 11
902.963281249994
 21
783.58345034329409
  0
LINE
  8
_0-1_計細線
  6
CONTINUOUS
 62
    3
 10
889.16328124999541
 20
532.58345034329534
 11
889.16328124999438
 21
783.58345034329409
  0
LINE
  8
_0-1_計細線
  6
CONTINUOUS
 62
    3
 10
877.76328124999486
 20
532.58345034329534
 11
877.76328124999384
 21
783.58345034329409
  0
LINE
  8
_0-1_計細線
  6
CONTINUOUS
 62
    3
 10
889.16328124999541
 20
532.58345034329534
 11
877.76328124999486
 21
532.58345034329534
  0
LINE
  8
_0-1_計細線
  6
CONTINUOUS
 62
    3
 10
889.16328124999438
 20
783.58345034329409
 11
877.76328124999384
 21
783.58345034329409
  0
LINE
  8
_0-0_計極細
  6
CONTINUOUS
 62
    2
 10
880.96328124999502
 20
532.58345034329534
 11
880.963281249994
 21
783.58345034329409
  0
LINE
  8
_0-0_計極細
  6
CONTINUOUS
 62
    2
 10
885.96328124999502
 20
532.58345034329534
 11
885.963281249994
 21
783.58345034329409
  0
LINE
  8
_0-1_計細線
  6
CONTINUOUS
 62
    3
 10
872.16328124999541
 20
532.58345034329534
 11
872.16328124999438
 21
783.58345034329409
  0
LINE
  8
_0-1_計細線
  6
CONTINUOUS
 62
    3
 10
860.76328124999475
 20
532.58345034329534
 11
860.76328124999372
 21
783.58345034329409
  0
LINE
  8
_0-1_計細線
  6
CONTINUOUS
 62
    3
 10
872.16328124999541
 20
532.58345034329534
 11
860.76328124999475
 21
532.58345034329534
  0
LINE
  8
_0-1_計細線
  6
CONTINUOUS
 62
    3
 10
872.16328124999438
 20
783.58345034329409
 11
860.76328124999372
 21
783.58345034329409
  0
LINE
  8
_0-0_計極細
  6
CONTINUOUS
 62
    2
 10
863.96328124999513
 20
532.58345034329534
 11
863.963281249994
 21
783.58345034329409
  0
LINE
  8
_0-0_計極細
  6
CONTINUOUS
 62
    2
 10
868.96328124999513
 20
532.58345034329534
 11
868.963281249994
 21
783.58345034329409
  0
LINE
  8
_0-1_計細線
  6
CONTINUOUS
 62
    3
 10
855.16328124999529
 20
532.58345034329534
 11
855.16328124999427
 21
783.58345034329409
  0
LINE
  8
_0-1_計細線
  6
CONTINUOUS
 62
    3
 10
843.76328124999475
 20
532.58345034329534
 11
843.76328124999372
 21
783.58345034329409
  0
LINE
  8
_0-1_計細線
  6
CONTINUOUS
 62
    3
 10
855.16328124999529
 20
532.58345034329534
 11
843.76328124999475
 21
532.58345034329534
  0
LINE
  8
_0-1_計細線
  6
CONTINUOUS
 62
    3
 10
855.16328124999427
 20
783.58345034329409
 11
843.76328124999372
 21
783.58345034329409
  0
LINE
  8
_0-0_計極細
  6
CONTINUOUS
 62
    2
 10
846.96328124999513
 20
532.58345034329534
 11
846.96328124999411
 21
783.58345034329409
  0
LINE
  8
_0-0_計極細
  6
CONTINUOUS
 62
    2
 10
851.96328124999513
 20
532.58345034329534
 11
851.96328124999411
 21
783.58345034329409
  0
LINE
  8
_0-1_計細線
  6
CONTINUOUS
 62
    3
 10
838.16328124999529
 20
532.58345034329534
 11
838.16328124999427
 21
783.58345034329409
  0
LINE
  8
_0-1_計細線
  6
CONTINUOUS
 62
    3
 10
826.76328124999486
 20
532.58345034329534
 11
826.76328124999372
 21
783.58345034329409
  0
LINE
  8
_0-1_計細線
  6
CONTINUOUS
 62
    3
 10
838.16328124999529
 20
532.58345034329534
 11
826.76328124999486
 21
532.58345034329534
  0
LINE
  8
_0-1_計細線
  6
CONTINUOUS
 62
    3
 10
838.16328124999427
 20
783.58345034329409
 11
826.76328124999372
 21
783.58345034329409
  0
LINE
  8
_0-0_計極細
  6
CONTINUOUS
 62
    2
 10
829.96328124999513
 20
532.58345034329534
 11
829.96328124999411
 21
783.58345034329409
  0
LINE
  8
_0-0_計極細
  6
CONTINUOUS
 62
    2
 10
834.96328124999513
 20
532.58345034329534
 11
834.96328124999411
 21
783.58345034329409
  0
LINE
  8
_0-1_計細線
  6
CONTINUOUS
 62
    3
 10
821.16328124999541
 20
532.58345034329534
 11
821.16328124999427
 21
783.58345034329409
  0
LINE
  8
_0-1_計細線
  6
CONTINUOUS
 62
    3
 10
809.76328124999486
 20
532.58345034329534
 11
809.76328124999384
 21
783.58345034329409
  0
LINE
  8
_0-1_計細線
  6
CONTINUOUS
 62
    3
 10
821.16328124999541
 20
532.58345034329534
 11
809.76328124999486
 21
532.58345034329534
  0
LINE
  8
_0-1_計細線
  6
CONTINUOUS
 62
    3
 10
821.16328124999427
 20
783.58345034329409
 11
809.76328124999384
 21
783.58345034329409
  0
LINE
  8
_0-0_計極細
  6
CONTINUOUS
 62
    2
 10
812.96328124999502
 20
532.58345034329534
 11
812.963281249994
 21
783.58345034329409
  0
LINE
  8
_0-0_計極細
  6
CONTINUOUS
 62
    2
 10
817.96328124999502
 20
532.58345034329534
 11
817.963281249994
 21
783.58345034329409
  0
LINE
  8
_0-1_計細線
  6
CONTINUOUS
 62
    3
 10
804.16328124999541
 20
532.58345034329534
 11
804.16328124999438
 21
783.58345034329409
  0
LINE
  8
_0-1_計細線
  6
CONTINUOUS
 62
    3
 10
792.76328124999486
 20
532.58345034329534
 11
792.76328124999384
 21
783.58345034329409
  0
LINE
  8
_0-1_計細線
  6
CONTINUOUS
 62
    3
 10
804.16328124999541
 20
532.58345034329534
 11
792.76328124999486
 21
532.58345034329534
  0
LINE
  8
_0-1_計細線
  6
CONTINUOUS
 62
    3
 10
804.16328124999438
 20
783.58345034329409
 11
792.76328124999384
 21
783.58345034329409
  0
LINE
  8
_0-0_計極細
  6
CONTINUOUS
 62
    2
 10
795.96328124999502
 20
532.58345034329534
 11
795.963281249994
 21
783.58345034329409
  0
LINE
  8
_0-0_計極細
  6
CONTINUOUS
 62
    2
 10
800.96328124999502
 20
532.58345034329534
 11
800.963281249994
 21
783.58345034329409
  0
LINE
  8
_0-1_計細線
  6
CONTINUOUS
 62
    3
 10
787.16328124999541
 20
532.58345034329534
 11
787.16328124999438
 21
783.58345034329409
  0
LINE
  8
_0-1_計細線
  6
CONTINUOUS
 62
    3
 10
775.76328124999475
 20
532.58345034329534
 11
775.76328124999372
 21
783.58345034329409
  0
LINE
  8
_0-1_計細線
  6
CONTINUOUS
 62
    3
 10
787.16328124999541
 20
532.58345034329534
 11
775.76328124999475
 21
532.58345034329534
  0
LINE
  8
_0-1_計細線
  6
CONTINUOUS
 62
    3
 10
787.16328124999438
 20
783.58345034329409
 11
775.76328124999372
 21
783.58345034329409
  0
LINE
  8
_0-0_計極細
  6
CONTINUOUS
 62
    2
 10
778.96328124999513
 20
532.58345034329534
 11
778.963281249994
 21
783.58345034329409
  0
LINE
  8
_0-0_計極細
  6
CONTINUOUS
 62
    2
 10
783.96328124999513
 20
532.58345034329534
 11
783.963281249994
 21
783.58345034329409
  0
LINE
  8
_0-1_計細線
  6
CONTINUOUS
 62
    3
 10
770.16328124999529
 20
532.58345034329534
 11
770.16328124999427
 21
783.58345034329409
  0
LINE
  8
_0-1_計細線
  6
CONTINUOUS
 62
    3
 10
758.76328124999475
 20
532.58345034329534
 11
758.76328124999372
 21
783.58345034329409
  0
LINE
  8
_0-1_計細線
  6
CONTINUOUS
 62
    3
 10
770.16328124999529
 20
532.58345034329534
 11
758.76328124999475
 21
532.58345034329534
  0
LINE
  8
_0-1_計細線
  6
CONTINUOUS
 62
    3
 10
770.16328124999427
 20
783.58345034329409
 11
758.76328124999372
 21
783.58345034329409
  0
LINE
  8
_0-0_計極細
  6
CONTINUOUS
 62
    2
 10
761.96328124999513
 20
532.58345034329534
 11
761.963281249994
 21
783.58345034329409
  0
LINE
  8
_0-0_計極細
  6
CONTINUOUS
 62
    2
 10
766.96328124999513
 20
532.58345034329534
 11
766.963281249994
 21
783.58345034329409
  0
LINE
  8
_0-1_計細線
  6
CONTINUOUS
 62
    3
 10
753.16328124999529
 20
532.58345034329534
 11
753.16328124999427
 21
783.58345034329409
  0
LINE
  8
_0-1_計細線
  6
CONTINUOUS
 62
    3
 10
741.76328124999475
 20
532.58345034329534
 11
741.76328124999372
 21
783.58345034329409
  0
LINE
  8
_0-1_計細線
  6
CONTINUOUS
 62
    3
 10
753.16328124999529
 20
532.58345034329534
 11
741.76328124999475
 21
532.58345034329534
  0
LINE
  8
_0-1_計細線
  6
CONTINUOUS
 62
    3
 10
753.16328124999427
 20
783.58345034329409
 11
741.76328124999372
 21
783.58345034329409
  0
LINE
  8
_0-0_計極細
  6
CONTINUOUS
 62
    2
 10
744.96328124999513
 20
532.58345034329534
 11
744.96328124999411
 21
783.58345034329409
  0
LINE
  8
_0-0_計極細
  6
CONTINUOUS
 62
    2
 10
749.96328124999513
 20
532.58345034329534
 11
749.96328124999411
 21
783.58345034329409
  0
LINE
  8
_0-1_計細線
  6
CONTINUOUS
 62
    3
 10
736.16328124999529
 20
532.58345034329534
 11
736.16328124999427
 21
783.58345034329409
  0
LINE
  8
_0-1_計細線
  6
CONTINUOUS
 62
    3
 10
724.76328124999486
 20
532.58345034329534
 11
724.76328124999372
 21
783.58345034329409
  0
LINE
  8
_0-1_計細線
  6
CONTINUOUS
 62
    3
 10
736.16328124999529
 20
532.58345034329534
 11
724.76328124999486
 21
532.58345034329534
  0
LINE
  8
_0-1_計細線
  6
CONTINUOUS
 62
    3
 10
736.16328124999427
 20
783.58345034329409
 11
724.76328124999372
 21
783.58345034329409
  0
LINE
  8
_0-0_計極細
  6
CONTINUOUS
 62
    2
 10
727.96328124999502
 20
532.58345034329534
 11
727.963281249994
 21
783.58345034329409
  0
LINE
  8
_0-0_計極細
  6
CONTINUOUS
 62
    2
 10
732.96328124999502
 20
532.58345034329534
 11
732.963281249994
 21
783.58345034329409
  0
LINE
  8
_0-1_計細線
  6
CONTINUOUS
 62
    3
 10
719.16328124999541
 20
532.58345034329534
 11
719.16328124999427
 21
783.58345034329409
  0
LINE
  8
_0-1_計細線
  6
CONTINUOUS
 62
    3
 10
707.76328124999486
 20
532.58345034329534
 11
707.76328124999384
 21
783.58345034329409
  0
LINE
  8
_0-1_計細線
  6
CONTINUOUS
 62
    3
 10
719.16328124999541
 20
532.58345034329534
 11
707.76328124999486
 21
532.58345034329534
  0
LINE
  8
_0-1_計細線
  6
CONTINUOUS
 62
    3
 10
719.16328124999427
 20
783.58345034329409
 11
707.76328124999384
 21
783.58345034329409
  0
LINE
  8
_0-0_計極細
  6
CONTINUOUS
 62
    2
 10
710.96328124999502
 20
532.58345034329534
 11
710.963281249994
 21
783.58345034329409
  0
LINE
  8
_0-0_計極細
  6
CONTINUOUS
 62
    2
 10
715.96328124999502
 20
532.58345034329534
 11
715.963281249994
 21
783.58345034329409
  0
LINE
  8
_0-1_計細線
  6
CONTINUOUS
 62
    3
 10
702.16328124999541
 20
532.58345034329534
 11
702.16328124999438
 21
783.58345034329409
  0
LINE
  8
_0-1_計細線
  6
CONTINUOUS
 62
    3
 10
690.76328124999475
 20
532.58345034329534
 11
690.76328124999372
 21
783.58345034329409
  0
LINE
  8
_0-1_計細線
  6
CONTINUOUS
 62
    3
 10
702.16328124999541
 20
532.58345034329534
 11
690.76328124999475
 21
532.58345034329534
  0
LINE
  8
_0-1_計細線
  6
CONTINUOUS
 62
    3
 10
702.16328124999438
 20
783.58345034329409
 11
690.76328124999372
 21
783.58345034329409
  0
LINE
  8
_0-0_計極細
  6
CONTINUOUS
 62
    2
 10
693.96328124999502
 20
532.58345034329534
 11
693.963281249994
 21
783.58345034329409
  0
LINE
  8
_0-0_計極細
  6
CONTINUOUS
 62
    2
 10
698.96328124999502
 20
532.58345034329534
 11
698.963281249994
 21
783.58345034329409
  0
LINE
  8
_0-1_計細線
  6
CONTINUOUS
 62
    3
 10
685.16328124999529
 20
532.58345034329534
 11
685.16328124999427
 21
783.58345034329409
  0
LINE
  8
_0-1_計細線
  6
CONTINUOUS
 62
    3
 10
673.76328124999475
 20
532.58345034329534
 11
673.76328124999372
 21
783.58345034329409
  0
LINE
  8
_0-1_計細線
  6
CONTINUOUS
 62
    3
 10
685.16328124999529
 20
532.58345034329534
 11
673.76328124999475
 21
532.58345034329534
  0
LINE
  8
_0-1_計細線
  6
CONTINUOUS
 62
    3
 10
685.16328124999427
 20
783.58345034329409
 11
673.76328124999372
 21
783.58345034329409
  0
LINE
  8
_0-0_計極細
  6
CONTINUOUS
 62
    2
 10
676.96328124999513
 20
532.58345034329534
 11
676.963281249994
 21
783.58345034329409
  0
LINE
  8
_0-0_計極細
  6
CONTINUOUS
 62
    2
 10
681.96328124999513
 20
532.58345034329534
 11
681.963281249994
 21
783.58345034329409
  0
LINE
  8
_0-1_計細線
  6
CONTINUOUS
 62
    3
 10
668.16328124999529
 20
532.58345034329534
 11
668.16328124999427
 21
783.58345034329409
  0
LINE
  8
_0-1_計細線
  6
CONTINUOUS
 62
    3
 10
656.76328124999475
 20
532.58345034329534
 11
656.76328124999372
 21
783.58345034329409
  0
LINE
  8
_0-1_計細線
  6
CONTINUOUS
 62
    3
 10
668.16328124999529
 20
532.58345034329534
 11
656.76328124999475
 21
532.58345034329534
  0
LINE
  8
_0-1_計細線
  6
CONTINUOUS
 62
    3
 10
668.16328124999427
 20
783.58345034329409
 11
656.76328124999372
 21
783.58345034329409
  0
LINE
  8
_0-0_計極細
  6
CONTINUOUS
 62
    2
 10
659.96328124999513
 20
532.58345034329534
 11
659.96328124999411
 21
783.58345034329409
  0
LINE
  8
_0-0_計極細
  6
CONTINUOUS
 62
    2
 10
664.96328124999513
 20
532.58345034329534
 11
664.96328124999411
 21
783.58345034329409
  0
LINE
  8
_0-1_計細線
  6
CONTINUOUS
 62
    3
 10
651.16328124999529
 20
532.58345034329534
 11
651.16328124999427
 21
783.58345034329409
  0
LINE
  8
_0-1_計細線
  6
CONTINUOUS
 62
    3
 10
639.76328124999475
 20
532.58345034329534
 11
639.76328124999372
 21
783.58345034329409
  0
LINE
  8
_0-1_計細線
  6
CONTINUOUS
 62
    3
 10
651.16328124999529
 20
532.58345034329534
 11
639.76328124999475
 21
532.58345034329534
  0
LINE
  8
_0-1_計細線
  6
CONTINUOUS
 62
    3
 10
651.16328124999427
 20
783.58345034329409
 11
639.76328124999372
 21
783.58345034329409
  0
LINE
  8
_0-0_計極細
  6
CONTINUOUS
 62
    2
 10
642.96328124999502
 20
532.58345034329534
 11
642.963281249994
 21
783.58345034329409
  0
LINE
  8
_0-0_計極細
  6
CONTINUOUS
 62
    2
 10
647.96328124999502
 20
532.58345034329534
 11
647.963281249994
 21
783.58345034329409
  0
LINE
  8
_0-1_計細線
  6
CONTINUOUS
 62
    3
 10
634.16328124999529
 20
532.58345034329534
 11
634.16328124999427
 21
783.58345034329409
  0
LINE
  8
_0-1_計細線
  6
CONTINUOUS
 62
    3
 10
622.76328124999486
 20
532.58345034329534
 11
622.76328124999372
 21
783.58345034329409
  0
LINE
  8
_0-1_計細線
  6
CONTINUOUS
 62
    3
 10
634.16328124999529
 20
532.58345034329534
 11
622.76328124999486
 21
532.58345034329534
  0
LINE
  8
_0-1_計細線
  6
CONTINUOUS
 62
    3
 10
634.16328124999427
 20
783.58345034329409
 11
622.76328124999372
 21
783.58345034329409
  0
LINE
  8
_0-0_計極細
  6
CONTINUOUS
 62
    2
 10
625.96328124999502
 20
532.58345034329534
 11
625.963281249994
 21
783.58345034329409
  0
LINE
  8
_0-0_計極細
  6
CONTINUOUS
 62
    2
 10
630.96328124999502
 20
532.58345034329534
 11
630.963281249994
 21
783.58345034329409
  0
LINE
  8
_0-1_計細線
  6
CONTINUOUS
 62
    3
 10
617.16328124999541
 20
532.58345034329534
 11
617.16328124999427
 21
783.58345034329409
  0
LINE
  8
_0-1_計細線
  6
CONTINUOUS
 62
    3
 10
605.76328124999475
 20
532.58345034329534
 11
605.76328124999372
 21
783.58345034329409
  0
LINE
  8
_0-1_計細線
  6
CONTINUOUS
 62
    3
 10
617.16328124999541
 20
532.58345034329534
 11
605.76328124999475
 21
532.58345034329534
  0
LINE
  8
_0-1_計細線
  6
CONTINUOUS
 62
    3
 10
617.16328124999427
 20
783.58345034329409
 11
605.76328124999372
 21
783.58345034329409
  0
LINE
  8
_0-0_計極細
  6
CONTINUOUS
 62
    2
 10
608.96328124999502
 20
532.58345034329534
 11
608.963281249994
 21
783.58345034329409
  0
LINE
  8
_0-0_計極細
  6
CONTINUOUS
 62
    2
 10
613.96328124999502
 20
532.58345034329534
 11
613.963281249994
 21
783.58345034329409
  0
LINE
  8
_0-1_計細線
  6
CONTINUOUS
 62
    3
 10
600.16328124999529
 20
532.58345034329534
 11
600.16328124999427
 21
783.58345034329409
  0
LINE
  8
_0-1_計細線
  6
CONTINUOUS
 62
    3
 10
588.76328124999475
 20
532.58345034329534
 11
588.76328124999372
 21
783.58345034329409
  0
LINE
  8
_0-1_計細線
  6
CONTINUOUS
 62
    3
 10
600.16328124999529
 20
532.58345034329534
 11
588.76328124999475
 21
532.58345034329534
  0
LINE
  8
_0-1_計細線
  6
CONTINUOUS
 62
    3
 10
600.16328124999427
 20
783.58345034329409
 11
588.76328124999372
 21
783.58345034329409
  0
LINE
  8
_0-0_計極細
  6
CONTINUOUS
 62
    2
 10
591.96328124999502
 20
532.58345034329534
 11
591.963281249994
 21
783.58345034329409
  0
LINE
  8
_0-0_計極細
  6
CONTINUOUS
 62
    2
 10
596.96328124999502
 20
532.58345034329534
 11
596.963281249994
 21
783.58345034329409
  0
LINE
  8
_0-1_計細線
  6
CONTINUOUS
 62
    3
 10
583.16328124999529
 20
532.58345034329534
 11
583.16328124999427
 21
783.58345034329409
  0
LINE
  8
_0-1_計細線
  6
CONTINUOUS
 62
    3
 10
571.76328124999475
 20
532.58345034329534
 11
571.76328124999372
 21
783.58345034329409
  0
LINE
  8
_0-1_計細線
  6
CONTINUOUS
 62
    3
 10
583.16328124999529
 20
532.58345034329534
 11
571.76328124999475
 21
532.58345034329534
  0
LINE
  8
_0-1_計細線
  6
CONTINUOUS
 62
    3
 10
583.16328124999427
 20
783.58345034329409
 11
571.76328124999372
 21
783.58345034329409
  0
LINE
  8
_0-0_計極細
  6
CONTINUOUS
 62
    2
 10
574.96328124999513
 20
532.58345034329534
 11
574.963281249994
 21
783.58345034329409
  0
LINE
  8
_0-0_計極細
  6
CONTINUOUS
 62
    2
 10
579.96328124999513
 20
532.58345034329534
 11
579.963281249994
 21
783.58345034329409
  0
LINE
  8
_0-1_計細線
  6
CONTINUOUS
 62
    3
 10
566.16328124999529
 20
532.58345034329534
 11
566.16328124999427
 21
783.58345034329409
  0
LINE
  8
_0-1_計細線
  6
CONTINUOUS
 62
    3
 10
554.76328124999475
 20
532.58345034329534
 11
554.76328124999372
 21
783.58345034329409
  0
LINE
  8
_0-1_計細線
  6
CONTINUOUS
 62
    3
 10
566.16328124999529
 20
532.58345034329534
 11
554.76328124999475
 21
532.58345034329534
  0
LINE
  8
_0-1_計細線
  6
CONTINUOUS
 62
    3
 10
566.16328124999427
 20
783.58345034329409
 11
554.76328124999372
 21
783.58345034329409
  0
LINE
  8
_0-0_計極細
  6
CONTINUOUS
 62
    2
 10
557.96328124999502
 20
532.58345034329534
 11
557.963281249994
 21
783.58345034329409
  0
LINE
  8
_0-0_計極細
  6
CONTINUOUS
 62
    2
 10
562.96328124999502
 20
532.58345034329534
 11
562.963281249994
 21
783.58345034329409
  0
LINE
  8
_0-1_計細線
  6
CONTINUOUS
 62
    3
 10
549.16328124999529
 20
532.58345034329534
 11
549.16328124999427
 21
783.58345034329409
  0
LINE
  8
_0-1_計細線
  6
CONTINUOUS
 62
    3
 10
537.76328124999486
 20
532.58345034329534
 11
537.76328124999372
 21
783.58345034329409
  0
LINE
  8
_0-1_計細線
  6
CONTINUOUS
 62
    3
 10
549.16328124999529
 20
532.58345034329534
 11
537.76328124999486
 21
532.58345034329534
  0
LINE
  8
_0-1_計細線
  6
CONTINUOUS
 62
    3
 10
549.16328124999427
 20
783.58345034329409
 11
537.76328124999372
 21
783.58345034329409
  0
LINE
  8
_0-0_計極細
  6
CONTINUOUS
 62
    2
 10
540.96328124999502
 20
532.58345034329534
 11
540.963281249994
 21
783.58345034329409
  0
LINE
  8
_0-0_計極細
  6
CONTINUOUS
 62
    2
 10
545.96328124999502
 20
532.58345034329534
 11
545.963281249994
 21
783.58345034329409
  0
LINE
  8
_0-1_計細線
  6
CONTINUOUS
 62
    3
 10
532.16328124999541
 20
532.58345034329534
 11
532.16328124999427
 21
783.58345034329409
  0
LINE
  8
_0-1_計細線
  6
CONTINUOUS
 62
    3
 10
520.76328124999475
 20
532.58345034329534
 11
520.76328124999372
 21
783.58345034329409
  0
LINE
  8
_0-1_計細線
  6
CONTINUOUS
 62
    3
 10
532.16328124999541
 20
532.58345034329534
 11
520.76328124999475
 21
532.58345034329534
  0
LINE
  8
_0-1_計細線
  6
CONTINUOUS
 62
    3
 10
532.16328124999427
 20
783.58345034329409
 11
520.76328124999372
 21
783.58345034329409
  0
LINE
  8
_0-0_計極細
  6
CONTINUOUS
 62
    2
 10
523.96328124999502
 20
532.58345034329534
 11
523.963281249994
 21
783.58345034329409
  0
LINE
  8
_0-0_計極細
  6
CONTINUOUS
 62
    2
 10
528.96328124999502
 20
532.58345034329534
 11
528.963281249994
 21
783.58345034329409
  0
LINE
  8
_0-1_計細線
  6
CONTINUOUS
 62
    3
 10
515.16328124999529
 20
532.58345034329534
 11
515.16328124999427
 21
783.58345034329409
  0
LINE
  8
_0-1_計細線
  6
CONTINUOUS
 62
    3
 10
503.76328124999475
 20
532.58345034329534
 11
503.76328124999372
 21
783.58345034329409
  0
LINE
  8
_0-1_計細線
  6
CONTINUOUS
 62
    3
 10
515.16328124999529
 20
532.58345034329534
 11
503.76328124999475
 21
532.58345034329534
  0
LINE
  8
_0-1_計細線
  6
CONTINUOUS
 62
    3
 10
515.16328124999427
 20
783.58345034329409
 11
503.76328124999372
 21
783.58345034329409
  0
LINE
  8
_0-0_計極細
  6
CONTINUOUS
 62
    2
 10
506.96328124999502
 20
532.58345034329534
 11
506.96328124999405
 21
783.58345034329409
  0
LINE
  8
_0-0_計極細
  6
CONTINUOUS
 62
    2
 10
511.96328124999502
 20
532.58345034329534
 11
511.96328124999405
 21
783.58345034329409
  0
LINE
  8
_0-1_計細線
  6
CONTINUOUS
 62
    3
 10
498.16328124999529
 20
532.58345034329534
 11
498.16328124999427
 21
783.58345034329409
  0
LINE
  8
_0-1_計細線
  6
CONTINUOUS
 62
    3
 10
486.7632812499948
 20
532.58345034329534
 11
486.76328124999372
 21
783.58345034329409
  0
LINE
  8
_0-1_計細線
  6
CONTINUOUS
 62
    3
 10
498.16328124999529
 20
532.58345034329534
 11
486.7632812499948
 21
532.58345034329534
  0
LINE
  8
_0-1_計細線
  6
CONTINUOUS
 62
    3
 10
498.16328124999427
 20
783.58345034329409
 11
486.76328124999372
 21
783.58345034329409
  0
LINE
  8
_0-0_計極細
  6
CONTINUOUS
 62
    2
 10
489.96328124999508
 20
532.58345034329534
 11
489.963281249994
 21
783.58345034329409
  0
LINE
  8
_0-0_計極細
  6
CONTINUOUS
 62
    2
 10
494.96328124999508
 20
532.58345034329534
 11
494.963281249994
 21
783.58345034329409
  0
LINE
  8
_0-1_計細線
  6
CONTINUOUS
 62
    3
 10
481.16328124999535
 20
532.58345034329534
 11
481.16328124999427
 21
783.58345034329409
  0
LINE
  8
_0-1_計細線
  6
CONTINUOUS
 62
    3
 10
469.76328124999475
 20
532.58345034329534
 11
469.76328124999378
 21
783.58345034329409
  0
LINE
  8
_0-1_計細線
  6
CONTINUOUS
 62
    3
 10
481.16328124999535
 20
532.58345034329534
 11
469.76328124999475
 21
532.58345034329534
  0
LINE
  8
_0-1_計細線
  6
CONTINUOUS
 62
    3
 10
481.16328124999427
 20
783.58345034329409
 11
469.76328124999378
 21
783.58345034329409
  0
LINE
  8
_0-0_計極細
  6
CONTINUOUS
 62
    2
 10
472.96328124999502
 20
532.58345034329534
 11
472.96328124999405
 21
783.58345034329409
  0
LINE
  8
_0-0_計極細
  6
CONTINUOUS
 62
    2
 10
477.96328124999502
 20
532.58345034329534
 11
477.96328124999405
 21
783.58345034329409
  0
LINE
  8
_0-1_計細線
  6
CONTINUOUS
 62
    3
 10
464.16328124999529
 20
532.58345034329534
 11
464.16328124999433
 21
783.58345034329409
  0
LINE
  8
_0-1_計細線
  6
CONTINUOUS
 62
    3
 10
452.7632812499948
 20
532.58345034329534
 11
452.76328124999372
 21
783.58345034329409
  0
LINE
  8
_0-1_計細線
  6
CONTINUOUS
 62
    3
 10
464.16328124999529
 20
532.58345034329534
 11
452.7632812499948
 21
532.58345034329534
  0
LINE
  8
_0-1_計細線
  6
CONTINUOUS
 62
    3
 10
464.16328124999433
 20
783.58345034329409
 11
452.76328124999372
 21
783.58345034329409
  0
LINE
  8
_0-0_計極細
  6
CONTINUOUS
 62
    2
 10
455.96328124999502
 20
532.58345034329534
 11
455.963281249994
 21
783.58345034329409
  0
LINE
  8
_0-0_計極細
  6
CONTINUOUS
 62
    2
 10
460.96328124999502
 20
532.58345034329534
 11
460.963281249994
 21
783.58345034329409
  0
LINE
  8
_0-1_計細線
  6
CONTINUOUS
 62
    3
 10
447.16328124999535
 20
532.58345034329534
 11
447.16328124999427
 21
783.58345034329409
  0
LINE
  8
_0-1_計細線
  6
CONTINUOUS
 62
    3
 10
435.76328124999475
 20
532.58345034329534
 11
435.76328124999378
 21
783.58345034329409
  0
LINE
  8
_0-1_計細線
  6
CONTINUOUS
 62
    3
 10
447.16328124999535
 20
532.58345034329534
 11
435.76328124999475
 21
532.58345034329534
  0
LINE
  8
_0-1_計細線
  6
CONTINUOUS
 62
    3
 10
447.16328124999427
 20
783.58345034329409
 11
435.76328124999378
 21
783.58345034329409
  0
LINE
  8
_0-0_計極細
  6
CONTINUOUS
 62
    2
 10
438.96328124999508
 20
532.58345034329534
 11
438.963281249994
 21
783.58345034329409
  0
LINE
  8
_0-0_計極細
  6
CONTINUOUS
 62
    2
 10
443.96328124999508
 20
532.58345034329534
 11
443.963281249994
 21
783.58345034329409
  0
LINE
  8
_0-1_計細線
  6
CONTINUOUS
 62
    3
 10
430.16328124999529
 20
532.58345034329534
 11
430.16328124999433
 21
783.58345034329409
  0
LINE
  8
_0-1_計細線
  6
CONTINUOUS
 62
    3
 10
418.76328124999475
 20
532.58345034329534
 11
418.76328124999372
 21
783.58345034329409
  0
LINE
  8
_0-1_計細線
  6
CONTINUOUS
 62
    3
 10
430.16328124999529
 20
532.58345034329534
 11
418.76328124999475
 21
532.58345034329534
  0
LINE
  8
_0-1_計細線
  6
CONTINUOUS
 62
    3
 10
430.16328124999433
 20
783.58345034329409
 11
418.76328124999372
 21
783.58345034329409
  0
LINE
  8
_0-0_計極細
  6
CONTINUOUS
 62
    2
 10
421.96328124999502
 20
532.58345034329534
 11
421.96328124999405
 21
783.58345034329409
  0
LINE
  8
_0-0_計極細
  6
CONTINUOUS
 62
    2
 10
426.96328124999502
 20
532.58345034329534
 11
426.96328124999405
 21
783.58345034329409
  0
LINE
  8
_0-1_計細線
  6
CONTINUOUS
 62
    3
 10
413.16328124999529
 20
532.58345034329534
 11
413.16328124999427
 21
783.58345034329409
  0
LINE
  8
_0-1_計細線
  6
CONTINUOUS
 62
    3
 10
401.7632812499948
 20
532.58345034329534
 11
401.76328124999372
 21
783.58345034329409
  0
LINE
  8
_0-1_計細線
  6
CONTINUOUS
 62
    3
 10
413.16328124999529
 20
532.58345034329534
 11
401.7632812499948
 21
532.58345034329534
  0
LINE
  8
_0-1_計細線
  6
CONTINUOUS
 62
    3
 10
413.16328124999427
 20
783.58345034329409
 11
401.76328124999372
 21
783.58345034329409
  0
LINE
  8
_0-0_計極細
  6
CONTINUOUS
 62
    2
 10
404.96328124999508
 20
532.58345034329534
 11
404.963281249994
 21
783.58345034329409
  0
LINE
  8
_0-0_計極細
  6
CONTINUOUS
 62
    2
 10
409.96328124999508
 20
532.58345034329534
 11
409.963281249994
 21
783.58345034329409
  0
LINE
  8
_0-1_計細線
  6
CONTINUOUS
 62
    3
 10
396.16328124999535
 20
532.58345034329534
 11
396.16328124999427
 21
783.58345034329409
  0
LINE
  8
_0-1_計細線
  6
CONTINUOUS
 62
    3
 10
384.76328124999475
 20
532.58345034329534
 11
384.76328124999378
 21
783.58345034329409
  0
LINE
  8
_0-1_計細線
  6
CONTINUOUS
 62
    3
 10
396.16328124999535
 20
532.58345034329534
 11
384.76328124999475
 21
532.58345034329534
  0
LINE
  8
_0-1_計細線
  6
CONTINUOUS
 62
    3
 10
396.16328124999427
 20
783.58345034329409
 11
384.76328124999378
 21
783.58345034329409
  0
LINE
  8
_0-0_計極細
  6
CONTINUOUS
 62
    2
 10
387.96328124999502
 20
532.58345034329534
 11
387.96328124999405
 21
783.58345034329409
  0
LINE
  8
_0-0_計極細
  6
CONTINUOUS
 62
    2
 10
392.96328124999502
 20
532.58345034329534
 11
392.96328124999405
 21
783.58345034329409
  0
LINE
  8
_0-1_計細線
  6
CONTINUOUS
 62
    3
 10
379.16328124999529
 20
532.58345034329534
 11
379.16328124999433
 21
783.58345034329409
  0
LINE
  8
_0-1_計細線
  6
CONTINUOUS
 62
    3
 10
367.76328124999475
 20
532.58345034329534
 11
367.76328124999372
 21
783.58345034329409
  0
LINE
  8
_0-1_計細線
  6
CONTINUOUS
 62
    3
 10
379.16328124999529
 20
532.58345034329534
 11
367.76328124999475
 21
532.58345034329534
  0
LINE
  8
_0-1_計細線
  6
CONTINUOUS
 62
    3
 10
379.16328124999433
 20
783.58345034329409
 11
367.76328124999372
 21
783.58345034329409
  0
LINE
  8
_0-0_計極細
  6
CONTINUOUS
 62
    2
 10
370.96328124999502
 20
532.58345034329534
 11
370.963281249994
 21
783.58345034329409
  0
LINE
  8
_0-0_計極細
  6
CONTINUOUS
 62
    2
 10
375.96328124999502
 20
532.58345034329534
 11
375.963281249994
 21
783.58345034329409
  0
LINE
  8
_0-1_計細線
  6
CONTINUOUS
 62
    3
 10
362.16328124999529
 20
532.58345034329534
 11
362.16328124999427
 21
783.58345034329409
  0
LINE
  8
_0-1_計細線
  6
CONTINUOUS
 62
    3
 10
350.76328124999475
 20
532.58345034329534
 11
350.76328124999372
 21
783.58345034329409
  0
LINE
  8
_0-1_計細線
  6
CONTINUOUS
 62
    3
 10
362.16328124999529
 20
532.58345034329534
 11
350.76328124999475
 21
532.58345034329534
  0
LINE
  8
_0-1_計細線
  6
CONTINUOUS
 62
    3
 10
362.16328124999427
 20
783.58345034329409
 11
350.76328124999372
 21
783.58345034329409
  0
LINE
  8
_0-0_計極細
  6
CONTINUOUS
 62
    2
 10
353.96328124999508
 20
532.58345034329534
 11
353.963281249994
 21
783.58345034329409
  0
LINE
  8
_0-0_計極細
  6
CONTINUOUS
 62
    2
 10
358.96328124999508
 20
532.58345034329534
 11
358.963281249994
 21
783.58345034329409
  0
LINE
  8
_0-1_計細線
  6
CONTINUOUS
 62
    3
 10
345.16328124999529
 20
532.58345034329534
 11
345.16328124999427
 21
783.58345034329409
  0
LINE
  8
_0-1_計細線
  6
CONTINUOUS
 62
    3
 10
333.76328124999475
 20
532.58345034329534
 11
333.76328124999372
 21
783.58345034329409
  0
LINE
  8
_0-1_計細線
  6
CONTINUOUS
 62
    3
 10
345.16328124999529
 20
532.58345034329534
 11
333.76328124999475
 21
532.58345034329534
  0
LINE
  8
_0-1_計細線
  6
CONTINUOUS
 62
    3
 10
345.16328124999427
 20
783.58345034329409
 11
333.76328124999372
 21
783.58345034329409
  0
LINE
  8
_0-0_計極細
  6
CONTINUOUS
 62
    2
 10
336.96328124999502
 20
532.58345034329534
 11
336.96328124999405
 21
783.58345034329409
  0
LINE
  8
_0-0_計極細
  6
CONTINUOUS
 62
    2
 10
341.96328124999502
 20
532.58345034329534
 11
341.96328124999405
 21
783.58345034329409
  0
LINE
  8
_0-1_計細線
  6
CONTINUOUS
 62
    3
 10
328.16328124999529
 20
532.58345034329534
 11
328.16328124999427
 21
783.58345034329409
  0
LINE
  8
_0-1_計細線
  6
CONTINUOUS
 62
    3
 10
316.76328124999475
 20
532.58345034329534
 11
316.76328124999372
 21
783.58345034329409
  0
LINE
  8
_0-1_計細線
  6
CONTINUOUS
 62
    3
 10
328.16328124999529
 20
532.58345034329534
 11
316.76328124999475
 21
532.58345034329534
  0
LINE
  8
_0-1_計細線
  6
CONTINUOUS
 62
    3
 10
328.16328124999427
 20
783.58345034329409
 11
316.76328124999372
 21
783.58345034329409
  0
LINE
  8
_0-0_計極細
  6
CONTINUOUS
 62
    2
 10
319.96328124999508
 20
532.58345034329534
 11
319.963281249994
 21
783.58345034329409
  0
LINE
  8
_0-0_計極細
  6
CONTINUOUS
 62
    2
 10
324.96328124999502
 20
532.58345034329534
 11
324.963281249994
 21
783.58345034329409
  0
LINE
  8
_0-1_計細線
  6
CONTINUOUS
 62
    3
 10
311.16328124999529
 20
532.58345034329534
 11
311.16328124999427
 21
783.58345034329409
  0
LINE
  8
_0-1_計細線
  6
CONTINUOUS
 62
    3
 10
299.76328124999475
 20
532.58345034329534
 11
299.76328124999372
 21
783.58345034329409
  0
LINE
  8
_0-1_計細線
  6
CONTINUOUS
 62
    3
 10
311.16328124999529
 20
532.58345034329534
 11
299.76328124999475
 21
532.58345034329534
  0
LINE
  8
_0-1_計細線
  6
CONTINUOUS
 62
    3
 10
311.16328124999427
 20
783.58345034329409
 11
299.76328124999372
 21
783.58345034329409
  0
LINE
  8
_0-0_計極細
  6
CONTINUOUS
 62
    2
 10
302.96328124999502
 20
532.58345034329534
 11
302.96328124999405
 21
783.58345034329409
  0
LINE
  8
_0-0_計極細
  6
CONTINUOUS
 62
    2
 10
307.96328124999502
 20
532.58345034329534
 11
307.96328124999405
 21
783.58345034329409
  0
LINE
  8
_0-1_計細線
  6
CONTINUOUS
 62
    3
 10
293.76328124999532
 20
532.58345034329534
 11
293.76328124999418
 21
783.58345034329409
  0
LINE
  8
_0-1_計細線
  6
CONTINUOUS
 62
    3
 10
282.36328124999477
 20
532.58345034329534
 11
282.36328124999363
 21
783.58345034329409
  0
LINE
  8
_0-1_計細線
  6
CONTINUOUS
 62
    3
 10
293.76328124999532
 20
532.58345034329534
 11
282.36328124999477
 21
532.58345034329534
  0
LINE
  8
_0-1_計細線
  6
CONTINUOUS
 62
    3
 10
293.76328124999418
 20
783.58345034329409
 11
282.36328124999363
 21
783.58345034329409
  0
LINE
  8
_0-0_計極細
  6
CONTINUOUS
 62
    2
 10
285.5632812499951
 20
532.58345034329534
 11
285.56328124999396
 21
783.58345034329409
  0
LINE
  8
_0-0_計極細
  6
CONTINUOUS
 62
    2
 10
290.5632812499951
 20
532.58345034329534
 11
290.56328124999396
 21
783.58345034329409
  0
LINE
  8
_0-1_計細線
  6
CONTINUOUS
 62
    3
 10
276.36328124999551
 20
532.58345034329534
 11
276.36328124999437
 21
783.58345034329409
  0
LINE
  8
_0-1_計細線
  6
CONTINUOUS
 62
    3
 10
264.96328124999491
 20
532.58345034329534
 11
264.96328124999377
 21
783.58345034329409
  0
LINE
  8
_0-1_計細線
  6
CONTINUOUS
 62
    3
 10
276.36328124999551
 20
532.58345034329534
 11
264.96328124999491
 21
532.58345034329534
  0
LINE
  8
_0-1_計細線
  6
CONTINUOUS
 62
    3
 10
276.36328124999437
 20
783.58345034329409
 11
264.96328124999377
 21
783.58345034329409
  0
LINE
  8
_0-0_計極細
  6
CONTINUOUS
 62
    2
 10
268.16328124999518
 20
532.58345034329534
 11
268.16328124999404
 21
783.58345034329409
  0
LINE
  8
_0-0_計極細
  6
CONTINUOUS
 62
    2
 10
273.16328124999518
 20
532.58345034329534
 11
273.16328124999404
 21
783.58345034329409
  0
LINE
  8
_0-1_計細線
  6
CONTINUOUS
 62
    3
 10
258.96328124999559
 20
532.58345034329534
 11
258.96328124999445
 21
783.58345034329409
  0
LINE
  8
_0-1_計細線
  6
CONTINUOUS
 62
    3
 10
247.56328124999504
 20
532.58345034329534
 11
247.56328124999391
 21
783.58345034329409
  0
LINE
  8
_0-1_計細線
  6
CONTINUOUS
 62
    3
 10
258.96328124999559
 20
532.58345034329534
 11
247.56328124999504
 21
532.58345034329534
  0
LINE
  8
_0-1_計細線
  6
CONTINUOUS
 62
    3
 10
258.96328124999445
 20
783.58345034329409
 11
247.56328124999391
 21
783.58345034329409
  0
LINE
  8
_0-0_計極細
  6
CONTINUOUS
 62
    2
 10
250.76328124999534
 20
532.58345034329534
 11
250.76328124999421
 21
783.58345034329409
  0
LINE
  8
_0-0_計極細
  6
CONTINUOUS
 62
    2
 10
255.76328124999534
 20
532.58345034329534
 11
255.76328124999421
 21
783.58345034329409
  0
LINE
  8
_0-1_計細線
  6
CONTINUOUS
 62
    3
 10
241.56328124999575
 20
532.58345034329534
 11
241.56328124999462
 21
783.58345034329409
  0
LINE
  8
_0-1_計細線
  6
CONTINUOUS
 62
    3
 10
230.16328124999518
 20
532.58345034329534
 11
230.16328124999404
 21
783.58345034329409
  0
LINE
  8
_0-1_計細線
  6
CONTINUOUS
 62
    3
 10
241.56328124999575
 20
532.58345034329534
 11
230.16328124999518
 21
532.58345034329534
  0
LINE
  8
_0-1_計細線
  6
CONTINUOUS
 62
    3
 10
241.56328124999462
 20
783.58345034329409
 11
230.16328124999404
 21
783.58345034329409
  0
LINE
  8
_0-0_計極細
  6
CONTINUOUS
 62
    2
 10
233.36328124999545
 20
532.58345034329534
 11
233.36328124999432
 21
783.58345034329409
  0
LINE
  8
_0-0_計極細
  6
CONTINUOUS
 62
    2
 10
238.36328124999545
 20
532.58345034329534
 11
238.36328124999432
 21
783.58345034329409
  0
LINE
  8
_0-0_計極細
  6
CONTINUOUS
 62
    2
 10
1200.7632812499942
 20
651.58345034329398
 11
1195.1632812499936
 21
651.58345034329398
  0
LINE
  8
_0-0_計極細
  6
CONTINUOUS
 62
    2
 10
1200.7632812499942
 20
664.58345034329398
 11
1195.1632812499936
 21
664.58345034329398
  0
LINE
  8
_0-0_計極細
  6
CONTINUOUS
 62
    2
 10
1183.763281249993
 20
651.58345034329443
 11
1178.1632812499929
 21
651.58345034329443
  0
LINE
  8
_0-0_計極細
  6
CONTINUOUS
 62
    2
 10
1183.763281249993
 20
664.58345034329443
 11
1178.1632812499929
 21
664.58345034329443
  0
LINE
  8
_0-0_計極細
  6
CONTINUOUS
 62
    2
 10
1161.163281249997
 20
651.58345034329443
 11
1166.7632812499969
 21
651.58345034329443
  0
LINE
  8
_0-0_計極細
  6
CONTINUOUS
 62
    2
 10
1161.163281249997
 20
664.58345034329443
 11
1166.7632812499969
 21
664.58345034329443
  0
LINE
  8
_0-0_計極細
  6
CONTINUOUS
 62
    2
 10
1144.1632812499963
 20
651.58345034329398
 11
1149.7632812499965
 21
651.58345034329398
  0
LINE
  8
_0-0_計極細
  6
CONTINUOUS
 62
    2
 10
1144.1632812499965
 20
664.58345034329398
 11
1149.7632812499965
 21
664.58345034329398
  0
LINE
  8
_0-0_計極細
  6
CONTINUOUS
 62
    2
 10
1127.1632812499959
 20
651.58345034329398
 11
1132.7632812499958
 21
651.58345034329398
  0
LINE
  8
_0-0_計極細
  6
CONTINUOUS
 62
    2
 10
1127.1632812499959
 20
664.58345034329398
 11
1132.763281249996
 21
664.58345034329398
  0
LINE
  8
_0-0_計極細
  6
CONTINUOUS
 62
    2
 10
1110.1632812499947
 20
651.58345034329443
 11
1115.7632812499953
 21
651.58345034329443
  0
LINE
  8
_0-0_計極細
  6
CONTINUOUS
 62
    2
 10
1110.1632812499947
 20
664.58345034329443
 11
1115.7632812499953
 21
664.58345034329443
  0
LINE
  8
_0-0_計極細
  6
CONTINUOUS
 62
    2
 10
1081.7632812499944
 20
651.58345034329398
 11
1076.1632812499943
 21
651.58345034329398
  0
LINE
  8
_0-0_計極細
  6
CONTINUOUS
 62
    2
 10
1081.7632812499944
 20
664.58345034329398
 11
1076.1632812499943
 21
664.58345034329398
  0
LINE
  8
_0-0_計極細
  6
CONTINUOUS
 62
    2
 10
1217.763281249996
 20
651.58345034329398
 11
1212.1632812499956
 21
651.58345034329398
  0
LINE
  8
_0-0_計極細
  6
CONTINUOUS
 62
    2
 10
1217.763281249996
 20
664.58345034329398
 11
1212.1632812499956
 21
664.58345034329398
  0
LINE
  8
_0-0_計極細
  6
CONTINUOUS
 62
    2
 10
1064.7632812499946
 20
651.58345034329398
 11
1059.1632812499945
 21
651.58345034329398
  0
LINE
  8
_0-0_計極細
  6
CONTINUOUS
 62
    2
 10
1064.7632812499946
 20
664.58345034329398
 11
1059.1632812499945
 21
664.58345034329398
  0
LINE
  8
_0-0_計極細
  6
CONTINUOUS
 62
    2
 10
1047.7632812499946
 20
651.58345034329398
 11
1042.1632812499945
 21
651.58345034329398
  0
LINE
  8
_0-0_計極細
  6
CONTINUOUS
 62
    2
 10
1047.7632812499946
 20
664.58345034329398
 11
1042.1632812499945
 21
664.58345034329398
  0
LINE
  8
_0-0_計極細
  6
CONTINUOUS
 62
    2
 10
1030.7632812499946
 20
651.58345034329398
 11
1025.1632812499947
 21
651.58345034329398
  0
LINE
  8
_0-0_計極細
  6
CONTINUOUS
 62
    2
 10
1030.7632812499946
 20
664.58345034329398
 11
1025.1632812499947
 21
664.58345034329398
  0
LINE
  8
_0-0_計極細
  6
CONTINUOUS
 62
    2
 10
1013.7632812499947
 20
651.58345034329398
 11
1008.1632812499946
 21
651.58345034329398
  0
LINE
  8
_0-0_計極細
  6
CONTINUOUS
 62
    2
 10
1013.7632812499947
 20
664.58345034329398
 11
1008.1632812499946
 21
664.58345034329398
  0
LINE
  8
_0-0_計極細
  6
CONTINUOUS
 62
    2
 10
996.76328124999475
 20
651.58345034329398
 11
991.1632812499945
 21
651.58345034329398
  0
LINE
  8
_0-0_計極細
  6
CONTINUOUS
 62
    2
 10
996.76328124999475
 20
664.58345034329398
 11
991.1632812499945
 21
664.58345034329398
  0
LINE
  8
_0-0_計極細
  6
CONTINUOUS
 62
    2
 10
979.76328124999463
 20
651.58345034329398
 11
974.1632812499945
 21
651.58345034329398
  0
LINE
  8
_0-0_計極細
  6
CONTINUOUS
 62
    2
 10
979.76328124999463
 20
664.58345034329398
 11
974.1632812499945
 21
664.58345034329398
  0
LINE
  8
_0-0_計極細
  6
CONTINUOUS
 62
    2
 10
962.76328124999463
 20
651.58345034329398
 11
957.1632812499945
 21
651.58345034329398
  0
LINE
  8
_0-0_計極細
  6
CONTINUOUS
 62
    2
 10
962.76328124999463
 20
664.58345034329398
 11
957.1632812499945
 21
664.58345034329398
  0
LINE
  8
_0-0_計極細
  6
CONTINUOUS
 62
    2
 10
945.76328124999463
 20
651.58345034329398
 11
940.16328124999461
 21
651.58345034329398
  0
LINE
  8
_0-0_計極細
  6
CONTINUOUS
 62
    2
 10
945.76328124999463
 20
664.58345034329398
 11
940.16328124999461
 21
664.58345034329398
  0
LINE
  8
_0-0_計極細
  6
CONTINUOUS
 62
    2
 10
928.76328124999475
 20
651.58345034329398
 11
923.16328124999461
 21
651.58345034329398
  0
LINE
  8
_0-0_計極細
  6
CONTINUOUS
 62
    2
 10
928.76328124999475
 20
664.58345034329398
 11
923.16328124999461
 21
664.58345034329398
  0
LINE
  8
_0-0_計極細
  6
CONTINUOUS
 62
    2
 10
911.76328124999475
 20
651.58345034329398
 11
906.1632812499945
 21
651.58345034329398
  0
LINE
  8
_0-0_計極細
  6
CONTINUOUS
 62
    2
 10
911.76328124999475
 20
664.58345034329398
 11
906.1632812499945
 21
664.58345034329398
  0
LINE
  8
_0-0_計極細
  6
CONTINUOUS
 62
    2
 10
894.76328124999463
 20
651.58345034329398
 11
889.1632812499945
 21
651.58345034329398
  0
LINE
  8
_0-0_計極細
  6
CONTINUOUS
 62
    2
 10
894.76328124999463
 20
664.58345034329398
 11
889.1632812499945
 21
664.58345034329398
  0
LINE
  8
_0-0_計極細
  6
CONTINUOUS
 62
    2
 10
877.76328124999463
 20
651.58345034329398
 11
872.1632812499945
 21
651.58345034329398
  0
LINE
  8
_0-0_計極細
  6
CONTINUOUS
 62
    2
 10
877.76328124999463
 20
664.58345034329398
 11
872.1632812499945
 21
664.58345034329398
  0
LINE
  8
_0-0_計極細
  6
CONTINUOUS
 62
    2
 10
860.76328124999463
 20
651.58345034329398
 11
855.16328124999461
 21
651.58345034329398
  0
LINE
  8
_0-0_計極細
  6
CONTINUOUS
 62
    2
 10
860.76328124999463
 20
664.58345034329398
 11
855.16328124999461
 21
664.58345034329398
  0
LINE
  8
_0-0_計極細
  6
CONTINUOUS
 62
    2
 10
843.76328124999475
 20
651.58345034329398
 11
838.16328124999461
 21
651.58345034329398
  0
LINE
  8
_0-0_計極細
  6
CONTINUOUS
 62
    2
 10
843.76328124999475
 20
664.58345034329398
 11
838.16328124999461
 21
664.58345034329398
  0
LINE
  8
_0-0_計極細
  6
CONTINUOUS
 62
    2
 10
826.76328124999475
 20
651.58345034329398
 11
821.1632812499945
 21
651.58345034329398
  0
LINE
  8
_0-0_計極細
  6
CONTINUOUS
 62
    2
 10
826.76328124999475
 20
664.58345034329398
 11
821.1632812499945
 21
664.58345034329398
  0
LINE
  8
_0-0_計極細
  6
CONTINUOUS
 62
    2
 10
809.76328124999463
 20
651.58345034329398
 11
804.1632812499945
 21
651.58345034329398
  0
LINE
  8
_0-0_計極細
  6
CONTINUOUS
 62
    2
 10
809.76328124999463
 20
664.58345034329398
 11
804.1632812499945
 21
664.58345034329398
  0
LINE
  8
_0-0_計極細
  6
CONTINUOUS
 62
    2
 10
792.76328124999463
 20
651.58345034329398
 11
787.1632812499945
 21
651.58345034329398
  0
LINE
  8
_0-0_計極細
  6
CONTINUOUS
 62
    2
 10
792.76328124999463
 20
664.58345034329398
 11
787.1632812499945
 21
664.58345034329398
  0
LINE
  8
_0-0_計極細
  6
CONTINUOUS
 62
    2
 10
775.76328124999463
 20
651.58345034329398
 11
770.16328124999461
 21
651.58345034329398
  0
LINE
  8
_0-0_計極細
  6
CONTINUOUS
 62
    2
 10
775.76328124999463
 20
664.58345034329398
 11
770.16328124999461
 21
664.58345034329398
  0
LINE
  8
_0-0_計極細
  6
CONTINUOUS
 62
    2
 10
758.76328124999463
 20
651.58345034329398
 11
753.16328124999461
 21
651.58345034329398
  0
LINE
  8
_0-0_計極細
  6
CONTINUOUS
 62
    2
 10
758.76328124999463
 20
664.58345034329398
 11
753.16328124999461
 21
664.58345034329398
  0
LINE
  8
_0-0_計極細
  6
CONTINUOUS
 62
    2
 10
741.76328124999475
 20
651.58345034329398
 11
736.1632812499945
 21
651.58345034329398
  0
LINE
  8
_0-0_計極細
  6
CONTINUOUS
 62
    2
 10
741.76328124999475
 20
664.58345034329398
 11
736.1632812499945
 21
664.58345034329398
  0
LINE
  8
_0-0_計極細
  6
CONTINUOUS
 62
    2
 10
724.76328124999463
 20
651.58345034329398
 11
719.1632812499945
 21
651.58345034329398
  0
LINE
  8
_0-0_計極細
  6
CONTINUOUS
 62
    2
 10
724.76328124999463
 20
664.58345034329398
 11
719.1632812499945
 21
664.58345034329398
  0
LINE
  8
_0-0_計極細
  6
CONTINUOUS
 62
    2
 10
707.76328124999463
 20
651.58345034329398
 11
702.1632812499945
 21
651.58345034329398
  0
LINE
  8
_0-0_計極細
  6
CONTINUOUS
 62
    2
 10
707.76328124999463
 20
664.58345034329398
 11
702.1632812499945
 21
664.58345034329398
  0
LINE
  8
_0-0_計極細
  6
CONTINUOUS
 62
    2
 10
690.76328124999463
 20
651.58345034329398
 11
685.1632812499945
 21
651.58345034329398
  0
LINE
  8
_0-0_計極細
  6
CONTINUOUS
 62
    2
 10
690.76328124999463
 20
664.58345034329398
 11
685.1632812499945
 21
664.58345034329398
  0
LINE
  8
_0-0_計極細
  6
CONTINUOUS
 62
    2
 10
673.76328124999463
 20
651.58345034329398
 11
668.16328124999461
 21
651.58345034329398
  0
LINE
  8
_0-0_計極細
  6
CONTINUOUS
 62
    2
 10
673.76328124999463
 20
664.58345034329398
 11
668.16328124999461
 21
664.58345034329398
  0
LINE
  8
_0-0_計極細
  6
CONTINUOUS
 62
    2
 10
656.76328124999475
 20
651.58345034329398
 11
651.1632812499945
 21
651.58345034329398
  0
LINE
  8
_0-0_計極細
  6
CONTINUOUS
 62
    2
 10
656.76328124999475
 20
664.58345034329398
 11
651.1632812499945
 21
664.58345034329398
  0
LINE
  8
_0-0_計極細
  6
CONTINUOUS
 62
    2
 10
639.76328124999463
 20
651.58345034329398
 11
634.1632812499945
 21
651.58345034329398
  0
LINE
  8
_0-0_計極細
  6
CONTINUOUS
 62
    2
 10
639.76328124999463
 20
664.58345034329398
 11
634.1632812499945
 21
664.58345034329398
  0
LINE
  8
_0-0_計極細
  6
CONTINUOUS
 62
    2
 10
622.76328124999463
 20
651.58345034329398
 11
617.1632812499945
 21
651.58345034329398
  0
LINE
  8
_0-0_計極細
  6
CONTINUOUS
 62
    2
 10
622.76328124999463
 20
664.58345034329398
 11
617.1632812499945
 21
664.58345034329398
  0
LINE
  8
_0-0_計極細
  6
CONTINUOUS
 62
    2
 10
605.76328124999463
 20
651.58345034329398
 11
600.1632812499945
 21
651.58345034329398
  0
LINE
  8
_0-0_計極細
  6
CONTINUOUS
 62
    2
 10
605.76328124999463
 20
664.58345034329398
 11
600.1632812499945
 21
664.58345034329398
  0
LINE
  8
_0-0_計極細
  6
CONTINUOUS
 62
    2
 10
588.76328124999463
 20
651.58345034329398
 11
583.1632812499945
 21
651.58345034329398
  0
LINE
  8
_0-0_計極細
  6
CONTINUOUS
 62
    2
 10
588.76328124999463
 20
664.58345034329398
 11
583.1632812499945
 21
664.58345034329398
  0
LINE
  8
_0-0_計極細
  6
CONTINUOUS
 62
    2
 10
571.76328124999463
 20
651.58345034329398
 11
566.1632812499945
 21
651.58345034329398
  0
LINE
  8
_0-0_計極細
  6
CONTINUOUS
 62
    2
 10
571.76328124999463
 20
664.58345034329398
 11
566.1632812499945
 21
664.58345034329398
  0
LINE
  8
_0-0_計極細
  6
CONTINUOUS
 62
    2
 10
554.76328124999463
 20
651.58345034329398
 11
549.1632812499945
 21
651.58345034329398
  0
LINE
  8
_0-0_計極細
  6
CONTINUOUS
 62
    2
 10
554.76328124999463
 20
664.58345034329398
 11
549.1632812499945
 21
664.58345034329398
  0
LINE
  8
_0-0_計極細
  6
CONTINUOUS
 62
    2
 10
537.76328124999463
 20
651.58345034329398
 11
532.1632812499945
 21
651.58345034329398
  0
LINE
  8
_0-0_計極細
  6
CONTINUOUS
 62
    2
 10
537.76328124999463
 20
664.58345034329398
 11
532.1632812499945
 21
664.58345034329398
  0
LINE
  8
_0-0_計極細
  6
CONTINUOUS
 62
    2
 10
520.76328124999463
 20
651.58345034329398
 11
515.1632812499945
 21
651.58345034329398
  0
LINE
  8
_0-0_計極細
  6
CONTINUOUS
 62
    2
 10
520.76328124999463
 20
664.58345034329398
 11
515.1632812499945
 21
664.58345034329398
  0
LINE
  8
_0-0_計極細
  6
CONTINUOUS
 62
    2
 10
503.76328124999469
 20
651.58345034329398
 11
498.1632812499945
 21
651.58345034329398
  0
LINE
  8
_0-0_計極細
  6
CONTINUOUS
 62
    2
 10
503.76328124999469
 20
664.58345034329398
 11
498.1632812499945
 21
664.58345034329398
  0
LINE
  8
_0-0_計極細
  6
CONTINUOUS
 62
    2
 10
486.76328124999463
 20
651.58345034329398
 11
481.16328124999455
 21
651.58345034329398
  0
LINE
  8
_0-0_計極細
  6
CONTINUOUS
 62
    2
 10
486.76328124999463
 20
664.58345034329398
 11
481.16328124999455
 21
664.58345034329398
  0
LINE
  8
_0-0_計極細
  6
CONTINUOUS
 62
    2
 10
469.76328124999469
 20
651.58345034329398
 11
464.1632812499945
 21
651.58345034329398
  0
LINE
  8
_0-0_計極細
  6
CONTINUOUS
 62
    2
 10
469.76328124999469
 20
664.58345034329398
 11
464.1632812499945
 21
664.58345034329398
  0
LINE
  8
_0-0_計極細
  6
CONTINUOUS
 62
    2
 10
452.76328124999463
 20
651.58345034329398
 11
447.1632812499945
 21
651.58345034329398
  0
LINE
  8
_0-0_計極細
  6
CONTINUOUS
 62
    2
 10
452.76328124999463
 20
664.58345034329398
 11
447.1632812499945
 21
664.58345034329398
  0
LINE
  8
_0-0_計極細
  6
CONTINUOUS
 62
    2
 10
435.76328124999463
 20
651.58345034329398
 11
430.16328124999455
 21
651.58345034329398
  0
LINE
  8
_0-0_計極細
  6
CONTINUOUS
 62
    2
 10
435.76328124999463
 20
664.58345034329398
 11
430.16328124999455
 21
664.58345034329398
  0
LINE
  8
_0-0_計極細
  6
CONTINUOUS
 62
    2
 10
418.76328124999469
 20
651.58345034329398
 11
413.1632812499945
 21
651.58345034329398
  0
LINE
  8
_0-0_計極細
  6
CONTINUOUS
 62
    2
 10
418.76328124999469
 20
664.58345034329398
 11
413.1632812499945
 21
664.58345034329398
  0
LINE
  8
_0-0_計極細
  6
CONTINUOUS
 62
    2
 10
401.76328124999463
 20
651.58345034329398
 11
396.16328124999455
 21
651.58345034329398
  0
LINE
  8
_0-0_計極細
  6
CONTINUOUS
 62
    2
 10
401.76328124999463
 20
664.58345034329398
 11
396.16328124999455
 21
664.58345034329398
  0
LINE
  8
_0-0_計極細
  6
CONTINUOUS
 62
    2
 10
384.76328124999469
 20
651.58345034329398
 11
379.1632812499945
 21
651.58345034329398
  0
LINE
  8
_0-0_計極細
  6
CONTINUOUS
 62
    2
 10
384.76328124999469
 20
664.58345034329398
 11
379.1632812499945
 21
664.58345034329398
  0
LINE
  8
_0-0_計極細
  6
CONTINUOUS
 62
    2
 10
367.76328124999463
 20
651.58345034329398
 11
362.1632812499945
 21
651.58345034329398
  0
LINE
  8
_0-0_計極細
  6
CONTINUOUS
 62
    2
 10
367.76328124999463
 20
664.58345034329398
 11
362.1632812499945
 21
664.58345034329398
  0
LINE
  8
_0-0_計極細
  6
CONTINUOUS
 62
    2
 10
350.76328124999463
 20
651.58345034329398
 11
345.16328124999455
 21
651.58345034329398
  0
LINE
  8
_0-0_計極細
  6
CONTINUOUS
 62
    2
 10
350.76328124999463
 20
664.58345034329398
 11
345.16328124999455
 21
664.58345034329398
  0
LINE
  8
_0-0_計極細
  6
CONTINUOUS
 62
    2
 10
333.76328124999469
 20
651.58345034329398
 11
328.1632812499945
 21
651.58345034329398
  0
LINE
  8
_0-0_計極細
  6
CONTINUOUS
 62
    2
 10
333.76328124999469
 20
664.58345034329398
 11
328.1632812499945
 21
664.58345034329398
  0
LINE
  8
_0-0_計極細
  6
CONTINUOUS
 62
    2
 10
316.76328124999463
 20
651.58345034329398
 11
311.16328124999455
 21
651.58345034329398
  0
LINE
  8
_0-0_計極細
  6
CONTINUOUS
 62
    2
 10
316.76328124999463
 20
664.58345034329398
 11
311.16328124999455
 21
664.58345034329398
  0
LINE
  8
_0-0_計極細
  6
CONTINUOUS
 62
    2
 10
299.76328124999469
 20
651.58345034329398
 11
293.76328124999446
 21
651.58345034329398
  0
LINE
  8
_0-0_計極細
  6
CONTINUOUS
 62
    2
 10
299.76328124999469
 20
664.58345034329398
 11
293.76328124999446
 21
664.58345034329398
  0
LINE
  8
_0-0_計極細
  6
CONTINUOUS
 62
    2
 10
282.36328124999477
 20
651.58345034329398
 11
276.36328124999454
 21
651.58345034329398
  0
LINE
  8
_0-0_計極細
  6
CONTINUOUS
 62
    2
 10
282.36328124999477
 20
664.58345034329398
 11
276.36328124999454
 21
664.58345034329398
  0
LINE
  8
_0-0_計極細
  6
CONTINUOUS
 62
    2
 10
264.96328124999491
 20
651.58345034329398
 11
258.96328124999468
 21
651.58345034329398
  0
LINE
  8
_0-0_計極細
  6
CONTINUOUS
 62
    2
 10
264.96328124999491
 20
664.58345034329398
 11
258.96328124999468
 21
664.58345034329398
  0
LINE
  8
_0-0_計極細
  6
CONTINUOUS
 62
    2
 10
247.56328124999504
 20
651.58345034329398
 11
241.56328124999482
 21
651.58345034329398
  0
LINE
  8
_0-0_計極細
  6
CONTINUOUS
 62
    2
 10
247.56328124999504
 20
664.58345034329398
 11
241.56328124999482
 21
664.58345034329398
  0
LINE
  8
_0-0_計極細
  6
CONTINUOUS
 62
    2
 10
1200.7632812499942
 20
759.58345034329398
 11
1195.1632812499938
 21
759.58345034329398
  0
LINE
  8
_0-0_計極細
  6
CONTINUOUS
 62
    2
 10
1200.7632812499942
 20
772.58345034329409
 11
1195.1632812499938
 21
772.58345034329409
  0
LINE
  8
_0-0_計極細
  6
CONTINUOUS
 62
    2
 10
1183.7632812499933
 20
759.58345034329443
 11
1178.1632812499931
 21
759.58345034329443
  0
LINE
  8
_0-0_計極細
  6
CONTINUOUS
 62
    2
 10
1183.7632812499933
 20
772.58345034329454
 11
1178.1632812499931
 21
772.58345034329454
  0
LINE
  8
_0-0_計極細
  6
CONTINUOUS
 62
    2
 10
1161.163281249997
 20
759.58345034329443
 11
1166.7632812499971
 21
759.58345034329443
  0
LINE
  8
_0-0_計極細
  6
CONTINUOUS
 62
    2
 10
1161.163281249997
 20
772.58345034329454
 11
1166.7632812499971
 21
772.58345034329454
  0
LINE
  8
_0-0_計極細
  6
CONTINUOUS
 62
    2
 10
1127.1632812499961
 20
759.58345034329398
 11
1132.763281249996
 21
759.58345034329398
  0
LINE
  8
_0-0_計極細
  6
CONTINUOUS
 62
    2
 10
1127.1632812499961
 20
772.58345034329409
 11
1132.763281249996
 21
772.58345034329409
  0
LINE
  8
_0-0_計極細
  6
CONTINUOUS
 62
    2
 10
1110.163281249995
 20
759.58345034329443
 11
1115.7632812499955
 21
759.58345034329443
  0
LINE
  8
_0-0_計極細
  6
CONTINUOUS
 62
    2
 10
1110.163281249995
 20
772.58345034329454
 11
1115.7632812499955
 21
772.58345034329454
  0
LINE
  8
_0-0_計極細
  6
CONTINUOUS
 62
    2
 10
1144.1632812499975
 20
759.58345034329398
 11
1149.7632812499974
 21
759.58345034329398
  0
LINE
  8
_0-0_計極細
  6
CONTINUOUS
 62
    2
 10
1144.1632812499975
 20
772.58345034329409
 11
1149.7632812499974
 21
772.58345034329409
  0
LINE
  8
_0-0_計極細
  6
CONTINUOUS
 62
    2
 10
1081.7632812499946
 20
759.58345034329398
 11
1076.1632812499943
 21
759.58345034329398
  0
LINE
  8
_0-0_計極細
  6
CONTINUOUS
 62
    2
 10
1081.7632812499946
 20
772.58345034329409
 11
1076.1632812499943
 21
772.58345034329409
  0
LINE
  8
_0-0_計極細
  6
CONTINUOUS
 62
    2
 10
1217.7632812499962
 20
759.58345034329398
 11
1212.1632812499959
 21
759.58345034329398
  0
LINE
  8
_0-0_計極細
  6
CONTINUOUS
 62
    2
 10
1217.7632812499962
 20
772.58345034329409
 11
1212.1632812499959
 21
772.58345034329409
  0
LINE
  8
_0-0_計極細
  6
CONTINUOUS
 62
    2
 10
1064.7632812499951
 20
759.58345034329398
 11
1059.1632812499947
 21
759.58345034329398
  0
LINE
  8
_0-0_計極細
  6
CONTINUOUS
 62
    2
 10
1064.7632812499951
 20
772.58345034329409
 11
1059.1632812499947
 21
772.58345034329409
  0
LINE
  8
_0-0_計極細
  6
CONTINUOUS
 62
    2
 10
1047.7632812499949
 20
759.58345034329398
 11
1042.1632812499947
 21
759.58345034329398
  0
LINE
  8
_0-0_計極細
  6
CONTINUOUS
 62
    2
 10
1047.7632812499949
 20
772.58345034329409
 11
1042.1632812499947
 21
772.58345034329409
  0
LINE
  8
_0-0_計極細
  6
CONTINUOUS
 62
    2
 10
1030.7632812499949
 20
759.58345034329398
 11
1025.1632812499947
 21
759.58345034329398
  0
LINE
  8
_0-0_計極細
  6
CONTINUOUS
 62
    2
 10
1030.7632812499949
 20
772.58345034329409
 11
1025.1632812499947
 21
772.58345034329409
  0
LINE
  8
_0-0_計極細
  6
CONTINUOUS
 62
    2
 10
1013.7632812499949
 20
759.58345034329398
 11
1008.1632812499947
 21
759.58345034329398
  0
LINE
  8
_0-0_計極細
  6
CONTINUOUS
 62
    2
 10
1013.7632812499949
 20
772.58345034329409
 11
1008.1632812499947
 21
772.58345034329409
  0
LINE
  8
_0-0_計極細
  6
CONTINUOUS
 62
    2
 10
996.76328124999486
 20
759.58345034329398
 11
991.16328124999472
 21
759.58345034329398
  0
LINE
  8
_0-0_計極細
  6
CONTINUOUS
 62
    2
 10
996.76328124999486
 20
772.58345034329409
 11
991.16328124999472
 21
772.58345034329409
  0
LINE
  8
_0-0_計極細
  6
CONTINUOUS
 62
    2
 10
979.76328124999498
 20
759.58345034329398
 11
974.16328124999472
 21
759.58345034329398
  0
LINE
  8
_0-0_計極細
  6
CONTINUOUS
 62
    2
 10
979.76328124999498
 20
772.58345034329409
 11
974.16328124999472
 21
772.58345034329409
  0
LINE
  8
_0-0_計極細
  6
CONTINUOUS
 62
    2
 10
962.76328124999498
 20
759.58345034329398
 11
957.16328124999461
 21
759.58345034329398
  0
LINE
  8
_0-0_計極細
  6
CONTINUOUS
 62
    2
 10
962.76328124999498
 20
772.58345034329409
 11
957.16328124999461
 21
772.58345034329409
  0
LINE
  8
_0-0_計極細
  6
CONTINUOUS
 62
    2
 10
945.76328124999486
 20
759.58345034329398
 11
940.16328124999461
 21
759.58345034329398
  0
LINE
  8
_0-0_計極細
  6
CONTINUOUS
 62
    2
 10
945.76328124999486
 20
772.58345034329409
 11
940.16328124999461
 21
772.58345034329409
  0
LINE
  8
_0-0_計極細
  6
CONTINUOUS
 62
    2
 10
928.76328124999486
 20
759.58345034329398
 11
923.16328124999472
 21
759.58345034329398
  0
LINE
  8
_0-0_計極細
  6
CONTINUOUS
 62
    2
 10
928.76328124999486
 20
772.58345034329409
 11
923.16328124999472
 21
772.58345034329409
  0
LINE
  8
_0-0_計極細
  6
CONTINUOUS
 62
    2
 10
911.76328124999486
 20
759.58345034329398
 11
906.16328124999472
 21
759.58345034329398
  0
LINE
  8
_0-0_計極細
  6
CONTINUOUS
 62
    2
 10
911.76328124999486
 20
772.58345034329409
 11
906.16328124999472
 21
772.58345034329409
  0
LINE
  8
_0-0_計極細
  6
CONTINUOUS
 62
    2
 10
894.76328124999498
 20
759.58345034329398
 11
889.16328124999472
 21
759.58345034329398
  0
LINE
  8
_0-0_計極細
  6
CONTINUOUS
 62
    2
 10
894.76328124999498
 20
772.58345034329409
 11
889.16328124999472
 21
772.58345034329409
  0
LINE
  8
_0-0_計極細
  6
CONTINUOUS
 62
    2
 10
877.76328124999498
 20
759.58345034329398
 11
872.16328124999461
 21
759.58345034329398
  0
LINE
  8
_0-0_計極細
  6
CONTINUOUS
 62
    2
 10
877.76328124999498
 20
772.58345034329409
 11
872.16328124999461
 21
772.58345034329409
  0
LINE
  8
_0-0_計極細
  6
CONTINUOUS
 62
    2
 10
860.76328124999486
 20
759.58345034329398
 11
855.16328124999461
 21
759.58345034329398
  0
LINE
  8
_0-0_計極細
  6
CONTINUOUS
 62
    2
 10
860.76328124999486
 20
772.58345034329409
 11
855.16328124999461
 21
772.58345034329409
  0
LINE
  8
_0-0_計極細
  6
CONTINUOUS
 62
    2
 10
843.76328124999486
 20
759.58345034329398
 11
838.16328124999472
 21
759.58345034329398
  0
LINE
  8
_0-0_計極細
  6
CONTINUOUS
 62
    2
 10
843.76328124999486
 20
772.58345034329409
 11
838.16328124999472
 21
772.58345034329409
  0
LINE
  8
_0-0_計極細
  6
CONTINUOUS
 62
    2
 10
826.76328124999486
 20
759.58345034329398
 11
821.16328124999472
 21
759.58345034329398
  0
LINE
  8
_0-0_計極細
  6
CONTINUOUS
 62
    2
 10
826.76328124999486
 20
772.58345034329409
 11
821.16328124999472
 21
772.58345034329409
  0
LINE
  8
_0-0_計極細
  6
CONTINUOUS
 62
    2
 10
809.76328124999498
 20
759.58345034329398
 11
804.16328124999472
 21
759.58345034329398
  0
LINE
  8
_0-0_計極細
  6
CONTINUOUS
 62
    2
 10
809.76328124999498
 20
772.58345034329409
 11
804.16328124999472
 21
772.58345034329409
  0
LINE
  8
_0-0_計極細
  6
CONTINUOUS
 62
    2
 10
792.76328124999498
 20
759.58345034329398
 11
787.16328124999461
 21
759.58345034329398
  0
LINE
  8
_0-0_計極細
  6
CONTINUOUS
 62
    2
 10
792.76328124999498
 20
772.58345034329409
 11
787.16328124999461
 21
772.58345034329409
  0
LINE
  8
_0-0_計極細
  6
CONTINUOUS
 62
    2
 10
775.76328124999486
 20
759.58345034329398
 11
770.16328124999461
 21
759.58345034329398
  0
LINE
  8
_0-0_計極細
  6
CONTINUOUS
 62
    2
 10
775.76328124999486
 20
772.58345034329409
 11
770.16328124999461
 21
772.58345034329409
  0
LINE
  8
_0-0_計極細
  6
CONTINUOUS
 62
    2
 10
758.76328124999486
 20
759.58345034329398
 11
753.16328124999461
 21
759.58345034329398
  0
LINE
  8
_0-0_計極細
  6
CONTINUOUS
 62
    2
 10
758.76328124999486
 20
772.58345034329409
 11
753.16328124999461
 21
772.58345034329409
  0
LINE
  8
_0-0_計極細
  6
CONTINUOUS
 62
    2
 10
741.76328124999486
 20
759.58345034329398
 11
736.16328124999472
 21
759.58345034329398
  0
LINE
  8
_0-0_計極細
  6
CONTINUOUS
 62
    2
 10
741.76328124999486
 20
772.58345034329409
 11
736.16328124999472
 21
772.58345034329409
  0
LINE
  8
_0-0_計極細
  6
CONTINUOUS
 62
    2
 10
724.76328124999486
 20
759.58345034329398
 11
719.16328124999472
 21
759.58345034329398
  0
LINE
  8
_0-0_計極細
  6
CONTINUOUS
 62
    2
 10
724.76328124999486
 20
772.58345034329409
 11
719.16328124999472
 21
772.58345034329409
  0
LINE
  8
_0-0_計極細
  6
CONTINUOUS
 62
    2
 10
707.76328124999498
 20
759.58345034329398
 11
702.16328124999461
 21
759.58345034329398
  0
LINE
  8
_0-0_計極細
  6
CONTINUOUS
 62
    2
 10
707.76328124999498
 20
772.58345034329409
 11
702.16328124999461
 21
772.58345034329409
  0
LINE
  8
_0-0_計極細
  6
CONTINUOUS
 62
    2
 10
690.76328124999486
 20
759.58345034329398
 11
685.16328124999461
 21
759.58345034329398
  0
LINE
  8
_0-0_計極細
  6
CONTINUOUS
 62
    2
 10
690.76328124999486
 20
772.58345034329409
 11
685.16328124999461
 21
772.58345034329409
  0
LINE
  8
_0-0_計極細
  6
CONTINUOUS
 62
    2
 10
673.76328124999486
 20
759.58345034329398
 11
668.16328124999461
 21
759.58345034329398
  0
LINE
  8
_0-0_計極細
  6
CONTINUOUS
 62
    2
 10
673.76328124999486
 20
772.58345034329409
 11
668.16328124999461
 21
772.58345034329409
  0
LINE
  8
_0-0_計極細
  6
CONTINUOUS
 62
    2
 10
656.76328124999486
 20
759.58345034329398
 11
651.16328124999472
 21
759.58345034329398
  0
LINE
  8
_0-0_計極細
  6
CONTINUOUS
 62
    2
 10
656.76328124999486
 20
772.58345034329409
 11
651.16328124999472
 21
772.58345034329409
  0
LINE
  8
_0-0_計極細
  6
CONTINUOUS
 62
    2
 10
639.76328124999486
 20
759.58345034329398
 11
634.16328124999472
 21
759.58345034329398
  0
LINE
  8
_0-0_計極細
  6
CONTINUOUS
 62
    2
 10
639.76328124999486
 20
772.58345034329409
 11
634.16328124999472
 21
772.58345034329409
  0
LINE
  8
_0-0_計極細
  6
CONTINUOUS
 62
    2
 10
622.76328124999486
 20
759.58345034329398
 11
617.16328124999461
 21
759.58345034329398
  0
LINE
  8
_0-0_計極細
  6
CONTINUOUS
 62
    2
 10
622.76328124999486
 20
772.58345034329409
 11
617.16328124999461
 21
772.58345034329409
  0
LINE
  8
_0-0_計極細
  6
CONTINUOUS
 62
    2
 10
605.76328124999486
 20
759.58345034329398
 11
600.16328124999461
 21
759.58345034329398
  0
LINE
  8
_0-0_計極細
  6
CONTINUOUS
 62
    2
 10
605.76328124999486
 20
772.58345034329409
 11
600.16328124999461
 21
772.58345034329409
  0
LINE
  8
_0-0_計極細
  6
CONTINUOUS
 62
    2
 10
588.76328124999486
 20
759.58345034329398
 11
583.16328124999461
 21
759.58345034329398
  0
LINE
  8
_0-0_計極細
  6
CONTINUOUS
 62
    2
 10
588.76328124999486
 20
772.58345034329409
 11
583.16328124999461
 21
772.58345034329409
  0
LINE
  8
_0-0_計極細
  6
CONTINUOUS
 62
    2
 10
571.76328124999486
 20
759.58345034329398
 11
566.16328124999461
 21
759.58345034329398
  0
LINE
  8
_0-0_計極細
  6
CONTINUOUS
 62
    2
 10
571.76328124999486
 20
772.58345034329409
 11
566.16328124999461
 21
772.58345034329409
  0
LINE
  8
_0-0_計極細
  6
CONTINUOUS
 62
    2
 10
554.76328124999486
 20
759.58345034329398
 11
549.16328124999472
 21
759.58345034329398
  0
LINE
  8
_0-0_計極細
  6
CONTINUOUS
 62
    2
 10
554.76328124999486
 20
772.58345034329409
 11
549.16328124999472
 21
772.58345034329409
  0
LINE
  8
_0-0_計極細
  6
CONTINUOUS
 62
    2
 10
537.76328124999486
 20
759.58345034329398
 11
532.16328124999461
 21
759.58345034329398
  0
LINE
  8
_0-0_計極細
  6
CONTINUOUS
 62
    2
 10
537.76328124999486
 20
772.58345034329409
 11
532.16328124999461
 21
772.58345034329409
  0
LINE
  8
_0-0_計極細
  6
CONTINUOUS
 62
    2
 10
520.76328124999486
 20
759.58345034329398
 11
515.16328124999461
 21
759.58345034329398
  0
LINE
  8
_0-0_計極細
  6
CONTINUOUS
 62
    2
 10
520.76328124999486
 20
772.58345034329409
 11
515.16328124999461
 21
772.58345034329409
  0
LINE
  8
_0-0_計極細
  6
CONTINUOUS
 62
    2
 10
503.76328124999486
 20
759.58345034329398
 11
498.16328124999467
 21
759.58345034329398
  0
LINE
  8
_0-0_計極細
  6
CONTINUOUS
 62
    2
 10
503.76328124999486
 20
772.58345034329409
 11
498.16328124999467
 21
772.58345034329409
  0
LINE
  8
_0-0_計極細
  6
CONTINUOUS
 62
    2
 10
486.76328124999486
 20
759.58345034329398
 11
481.16328124999461
 21
759.58345034329398
  0
LINE
  8
_0-0_計極細
  6
CONTINUOUS
 62
    2
 10
486.76328124999486
 20
772.58345034329409
 11
481.16328124999461
 21
772.58345034329409
  0
LINE
  8
_0-0_計極細
  6
CONTINUOUS
 62
    2
 10
469.76328124999492
 20
759.58345034329398
 11
464.16328124999467
 21
759.58345034329398
  0
LINE
  8
_0-0_計極細
  6
CONTINUOUS
 62
    2
 10
469.76328124999492
 20
772.58345034329409
 11
464.16328124999467
 21
772.58345034329409
  0
LINE
  8
_0-0_計極細
  6
CONTINUOUS
 62
    2
 10
452.76328124999486
 20
759.58345034329398
 11
447.16328124999461
 21
759.58345034329398
  0
LINE
  8
_0-0_計極細
  6
CONTINUOUS
 62
    2
 10
452.76328124999486
 20
772.58345034329409
 11
447.16328124999461
 21
772.58345034329409
  0
LINE
  8
_0-0_計極細
  6
CONTINUOUS
 62
    2
 10
435.76328124999492
 20
759.58345034329398
 11
430.16328124999461
 21
759.58345034329398
  0
LINE
  8
_0-0_計極細
  6
CONTINUOUS
 62
    2
 10
435.76328124999492
 20
772.58345034329409
 11
430.16328124999461
 21
772.58345034329409
  0
LINE
  8
_0-0_計極細
  6
CONTINUOUS
 62
    2
 10
418.76328124999486
 20
759.58345034329398
 11
413.16328124999467
 21
759.58345034329398
  0
LINE
  8
_0-0_計極細
  6
CONTINUOUS
 62
    2
 10
418.76328124999486
 20
772.58345034329409
 11
413.16328124999467
 21
772.58345034329409
  0
LINE
  8
_0-0_計極細
  6
CONTINUOUS
 62
    2
 10
401.76328124999486
 20
759.58345034329398
 11
396.16328124999461
 21
759.58345034329398
  0
LINE
  8
_0-0_計極細
  6
CONTINUOUS
 62
    2
 10
401.76328124999486
 20
772.58345034329409
 11
396.16328124999461
 21
772.58345034329409
  0
LINE
  8
_0-0_計極細
  6
CONTINUOUS
 62
    2
 10
384.76328124999492
 20
759.58345034329398
 11
379.16328124999461
 21
759.58345034329398
  0
LINE
  8
_0-0_計極細
  6
CONTINUOUS
 62
    2
 10
384.76328124999492
 20
772.58345034329409
 11
379.16328124999461
 21
772.58345034329409
  0
LINE
  8
_0-0_計極細
  6
CONTINUOUS
 62
    2
 10
367.76328124999486
 20
759.58345034329398
 11
362.16328124999461
 21
759.58345034329398
  0
LINE
  8
_0-0_計極細
  6
CONTINUOUS
 62
    2
 10
367.76328124999486
 20
772.58345034329409
 11
362.16328124999461
 21
772.58345034329409
  0
LINE
  8
_0-0_計極細
  6
CONTINUOUS
 62
    2
 10
350.76328124999486
 20
759.58345034329398
 11
345.16328124999461
 21
759.58345034329398
  0
LINE
  8
_0-0_計極細
  6
CONTINUOUS
 62
    2
 10
350.76328124999486
 20
772.58345034329409
 11
345.16328124999461
 21
772.58345034329409
  0
LINE
  8
_0-0_計極細
  6
CONTINUOUS
 62
    2
 10
333.76328124999486
 20
759.58345034329398
 11
328.16328124999467
 21
759.58345034329398
  0
LINE
  8
_0-0_計極細
  6
CONTINUOUS
 62
    2
 10
333.76328124999486
 20
772.58345034329409
 11
328.16328124999467
 21
772.58345034329409
  0
LINE
  8
_0-0_計極細
  6
CONTINUOUS
 62
    2
 10
316.76328124999486
 20
759.58345034329398
 11
311.16328124999461
 21
759.58345034329398
  0
LINE
  8
_0-0_計極細
  6
CONTINUOUS
 62
    2
 10
316.76328124999486
 20
772.58345034329409
 11
311.16328124999461
 21
772.58345034329409
  0
LINE
  8
_0-0_計極細
  6
CONTINUOUS
 62
    2
 10
299.76328124999486
 20
759.58345034329398
 11
293.76328124999463
 21
759.58345034329398
  0
LINE
  8
_0-0_計極細
  6
CONTINUOUS
 62
    2
 10
299.76328124999486
 20
772.58345034329409
 11
293.76328124999463
 21
772.58345034329409
  0
LINE
  8
_0-0_計極細
  6
CONTINUOUS
 62
    2
 10
282.363281249995
 20
759.58345034329398
 11
276.36328124999477
 21
759.58345034329398
  0
LINE
  8
_0-0_計極細
  6
CONTINUOUS
 62
    2
 10
282.363281249995
 20
772.58345034329409
 11
276.36328124999477
 21
772.58345034329409
  0
LINE
  8
_0-0_計極細
  6
CONTINUOUS
 62
    2
 10
264.96328124999513
 20
759.58345034329398
 11
258.96328124999491
 21
759.58345034329398
  0
LINE
  8
_0-0_計極細
  6
CONTINUOUS
 62
    2
 10
264.96328124999513
 20
772.58345034329409
 11
258.96328124999491
 21
772.58345034329409
  0
LINE
  8
_0-0_計極細
  6
CONTINUOUS
 62
    2
 10
247.56328124999527
 20
759.58345034329398
 11
241.56328124999504
 21
759.58345034329398
  0
LINE
  8
_0-0_計極細
  6
CONTINUOUS
 62
    2
 10
247.56328124999527
 20
772.58345034329409
 11
241.56328124999504
 21
772.58345034329409
  0
LINE
  8
_0-0_計極細
  6
CENTER1
 62
    2
 10
228.23909250678597
 20
766.08345034329443
 11
1236.9211049910073
 21
766.08345034329409
  0
LINE
  8
_0-0_計極細
  6
CONTINUOUS
 62
    2
 10
1200.7632812499942
 20
543.58345034329409
 11
1195.1632812499936
 21
543.58345034329409
  0
LINE
  8
_0-0_計極細
  6
CONTINUOUS
 62
    2
 10
1200.7632812499942
 20
556.58345034329398
 11
1195.1632812499936
 21
556.58345034329398
  0
LINE
  8
_0-0_計極細
  6
CONTINUOUS
 62
    2
 10
1183.763281249993
 20
543.58345034329443
 11
1178.1632812499929
 21
543.58345034329443
  0
LINE
  8
_0-0_計極細
  6
CONTINUOUS
 62
    2
 10
1183.763281249993
 20
556.58345034329443
 11
1178.1632812499929
 21
556.58345034329443
  0
LINE
  8
_0-0_計極細
  6
CONTINUOUS
 62
    2
 10
1161.163281249997
 20
543.58345034329443
 11
1166.7632812499969
 21
543.58345034329443
  0
LINE
  8
_0-0_計極細
  6
CONTINUOUS
 62
    2
 10
1161.163281249997
 20
556.58345034329443
 11
1166.7632812499969
 21
556.58345034329443
  0
LINE
  8
_0-0_計極細
  6
CONTINUOUS
 62
    2
 10
1144.1632812499963
 20
543.58345034329409
 11
1149.7632812499965
 21
543.58345034329409
  0
LINE
  8
_0-0_計極細
  6
CONTINUOUS
 62
    2
 10
1144.1632812499965
 20
556.58345034329398
 11
1149.7632812499965
 21
556.58345034329398
  0
LINE
  8
_0-0_計極細
  6
CONTINUOUS
 62
    2
 10
1127.1632812499959
 20
543.58345034329409
 11
1132.7632812499958
 21
543.58345034329409
  0
LINE
  8
_0-0_計極細
  6
CONTINUOUS
 62
    2
 10
1127.1632812499959
 20
556.58345034329398
 11
1132.763281249996
 21
556.58345034329398
  0
LINE
  8
_0-0_計極細
  6
CONTINUOUS
 62
    2
 10
1110.1632812499947
 20
543.58345034329443
 11
1115.7632812499953
 21
543.58345034329443
  0
LINE
  8
_0-0_計極細
  6
CONTINUOUS
 62
    2
 10
1110.1632812499947
 20
556.58345034329443
 11
1115.7632812499953
 21
556.58345034329443
  0
LINE
  8
_0-0_計極細
  6
CONTINUOUS
 62
    2
 10
1093.163281249995
 20
543.58345034329443
 11
1098.7632812499951
 21
543.58345034329443
  0
LINE
  8
_0-0_計極細
  6
CONTINUOUS
 62
    2
 10
1093.163281249995
 20
556.58345034329443
 11
1098.7632812499951
 21
556.58345034329443
  0
LINE
  8
_0-0_計極細
  6
CONTINUOUS
 62
    2
 10
1081.7632812499944
 20
543.58345034329409
 11
1076.1632812499943
 21
543.58345034329409
  0
LINE
  8
_0-0_計極細
  6
CONTINUOUS
 62
    2
 10
1081.7632812499944
 20
556.58345034329398
 11
1076.1632812499943
 21
556.58345034329398
  0
LINE
  8
_0-0_計極細
  6
CONTINUOUS
 62
    2
 10
1217.763281249996
 20
543.58345034329409
 11
1212.1632812499956
 21
543.58345034329409
  0
LINE
  8
_0-0_計極細
  6
CONTINUOUS
 62
    2
 10
1217.763281249996
 20
556.58345034329398
 11
1212.1632812499956
 21
556.58345034329398
  0
LINE
  8
_0-0_計極細
  6
CONTINUOUS
 62
    2
 10
1064.7632812499946
 20
543.58345034329409
 11
1059.1632812499945
 21
543.58345034329409
  0
LINE
  8
_0-0_計極細
  6
CONTINUOUS
 62
    2
 10
1064.7632812499946
 20
556.58345034329398
 11
1059.1632812499945
 21
556.58345034329398
  0
LINE
  8
_0-0_計極細
  6
CONTINUOUS
 62
    2
 10
1047.7632812499946
 20
543.58345034329409
 11
1042.1632812499945
 21
543.58345034329409
  0
LINE
  8
_0-0_計極細
  6
CONTINUOUS
 62
    2
 10
1047.7632812499946
 20
556.58345034329398
 11
1042.1632812499945
 21
556.58345034329398
  0
LINE
  8
_0-0_計極細
  6
CONTINUOUS
 62
    2
 10
1030.7632812499946
 20
543.58345034329409
 11
1025.1632812499947
 21
543.58345034329409
  0
LINE
  8
_0-0_計極細
  6
CONTINUOUS
 62
    2
 10
1030.7632812499946
 20
556.58345034329398
 11
1025.1632812499947
 21
556.58345034329398
  0
LINE
  8
_0-0_計極細
  6
CONTINUOUS
 62
    2
 10
1013.7632812499947
 20
543.58345034329409
 11
1008.1632812499946
 21
543.58345034329409
  0
LINE
  8
_0-0_計極細
  6
CONTINUOUS
 62
    2
 10
1013.7632812499947
 20
556.58345034329398
 11
1008.1632812499946
 21
556.58345034329398
  0
LINE
  8
_0-0_計極細
  6
CONTINUOUS
 62
    2
 10
996.76328124999475
 20
543.58345034329409
 11
991.1632812499945
 21
543.58345034329409
  0
LINE
  8
_0-0_計極細
  6
CONTINUOUS
 62
    2
 10
996.76328124999475
 20
556.58345034329398
 11
991.1632812499945
 21
556.58345034329398
  0
LINE
  8
_0-0_計極細
  6
CONTINUOUS
 62
    2
 10
979.76328124999463
 20
543.58345034329409
 11
974.1632812499945
 21
543.58345034329409
  0
LINE
  8
_0-0_計極細
  6
CONTINUOUS
 62
    2
 10
979.76328124999463
 20
556.58345034329398
 11
974.1632812499945
 21
556.58345034329398
  0
LINE
  8
_0-0_計極細
  6
CONTINUOUS
 62
    2
 10
962.76328124999463
 20
543.58345034329409
 11
957.1632812499945
 21
543.58345034329409
  0
LINE
  8
_0-0_計極細
  6
CONTINUOUS
 62
    2
 10
962.76328124999463
 20
556.58345034329398
 11
957.1632812499945
 21
556.58345034329398
  0
LINE
  8
_0-0_計極細
  6
CONTINUOUS
 62
    2
 10
945.76328124999463
 20
543.58345034329409
 11
940.16328124999461
 21
543.58345034329409
  0
LINE
  8
_0-0_計極細
  6
CONTINUOUS
 62
    2
 10
945.76328124999463
 20
556.58345034329398
 11
940.16328124999461
 21
556.58345034329398
  0
LINE
  8
_0-0_計極細
  6
CONTINUOUS
 62
    2
 10
928.76328124999475
 20
543.58345034329409
 11
923.16328124999461
 21
543.58345034329409
  0
LINE
  8
_0-0_計極細
  6
CONTINUOUS
 62
    2
 10
928.76328124999475
 20
556.58345034329398
 11
923.16328124999461
 21
556.58345034329398
  0
LINE
  8
_0-0_計極細
  6
CONTINUOUS
 62
    2
 10
911.76328124999475
 20
543.58345034329409
 11
906.1632812499945
 21
543.58345034329409
  0
LINE
  8
_0-0_計極細
  6
CONTINUOUS
 62
    2
 10
911.76328124999475
 20
556.58345034329398
 11
906.1632812499945
 21
556.58345034329398
  0
LINE
  8
_0-0_計極細
  6
CONTINUOUS
 62
    2
 10
894.76328124999463
 20
543.58345034329409
 11
889.1632812499945
 21
543.58345034329409
  0
LINE
  8
_0-0_計極細
  6
CONTINUOUS
 62
    2
 10
894.76328124999463
 20
556.58345034329398
 11
889.1632812499945
 21
556.58345034329398
  0
LINE
  8
_0-0_計極細
  6
CONTINUOUS
 62
    2
 10
877.76328124999463
 20
543.58345034329409
 11
872.1632812499945
 21
543.58345034329409
  0
LINE
  8
_0-0_計極細
  6
CONTINUOUS
 62
    2
 10
877.76328124999463
 20
556.58345034329398
 11
872.1632812499945
 21
556.58345034329398
  0
LINE
  8
_0-0_計極細
  6
CONTINUOUS
 62
    2
 10
860.76328124999463
 20
543.58345034329409
 11
855.16328124999461
 21
543.58345034329409
  0
LINE
  8
_0-0_計極細
  6
CONTINUOUS
 62
    2
 10
860.76328124999463
 20
556.58345034329398
 11
855.16328124999461
 21
556.58345034329398
  0
LINE
  8
_0-0_計極細
  6
CONTINUOUS
 62
    2
 10
843.76328124999475
 20
543.58345034329409
 11
838.16328124999461
 21
543.58345034329409
  0
LINE
  8
_0-0_計極細
  6
CONTINUOUS
 62
    2
 10
843.76328124999475
 20
556.58345034329398
 11
838.16328124999461
 21
556.58345034329398
  0
LINE
  8
_0-0_計極細
  6
CONTINUOUS
 62
    2
 10
826.76328124999475
 20
543.58345034329409
 11
821.1632812499945
 21
543.58345034329409
  0
LINE
  8
_0-0_計極細
  6
CONTINUOUS
 62
    2
 10
826.76328124999475
 20
556.58345034329398
 11
821.1632812499945
 21
556.58345034329398
  0
LINE
  8
_0-0_計極細
  6
CONTINUOUS
 62
    2
 10
809.76328124999463
 20
543.58345034329409
 11
804.1632812499945
 21
543.58345034329409
  0
LINE
  8
_0-0_計極細
  6
CONTINUOUS
 62
    2
 10
809.76328124999463
 20
556.58345034329398
 11
804.1632812499945
 21
556.58345034329398
  0
LINE
  8
_0-0_計極細
  6
CONTINUOUS
 62
    2
 10
792.76328124999463
 20
543.58345034329409
 11
787.1632812499945
 21
543.58345034329409
  0
LINE
  8
_0-0_計極細
  6
CONTINUOUS
 62
    2
 10
792.76328124999463
 20
556.58345034329398
 11
787.1632812499945
 21
556.58345034329398
  0
LINE
  8
_0-0_計極細
  6
CONTINUOUS
 62
    2
 10
775.76328124999463
 20
543.58345034329409
 11
770.16328124999461
 21
543.58345034329409
  0
LINE
  8
_0-0_計極細
  6
CONTINUOUS
 62
    2
 10
775.76328124999463
 20
556.58345034329398
 11
770.16328124999461
 21
556.58345034329398
  0
LINE
  8
_0-0_計極細
  6
CONTINUOUS
 62
    2
 10
758.76328124999463
 20
543.58345034329409
 11
753.16328124999461
 21
543.58345034329409
  0
LINE
  8
_0-0_計極細
  6
CONTINUOUS
 62
    2
 10
758.76328124999463
 20
556.58345034329398
 11
753.16328124999461
 21
556.58345034329398
  0
LINE
  8
_0-0_計極細
  6
CONTINUOUS
 62
    2
 10
741.76328124999475
 20
543.58345034329409
 11
736.1632812499945
 21
543.58345034329409
  0
LINE
  8
_0-0_計極細
  6
CONTINUOUS
 62
    2
 10
741.76328124999475
 20
556.58345034329398
 11
736.1632812499945
 21
556.58345034329398
  0
LINE
  8
_0-0_計極細
  6
CONTINUOUS
 62
    2
 10
724.76328124999463
 20
543.58345034329409
 11
719.1632812499945
 21
543.58345034329409
  0
LINE
  8
_0-0_計極細
  6
CONTINUOUS
 62
    2
 10
724.76328124999463
 20
556.58345034329398
 11
719.1632812499945
 21
556.58345034329398
  0
LINE
  8
_0-0_計極細
  6
CONTINUOUS
 62
    2
 10
707.76328124999463
 20
543.58345034329409
 11
702.1632812499945
 21
543.58345034329409
  0
LINE
  8
_0-0_計極細
  6
CONTINUOUS
 62
    2
 10
707.76328124999463
 20
556.58345034329398
 11
702.1632812499945
 21
556.58345034329398
  0
LINE
  8
_0-0_計極細
  6
CONTINUOUS
 62
    2
 10
690.76328124999463
 20
543.58345034329409
 11
685.1632812499945
 21
543.58345034329409
  0
LINE
  8
_0-0_計極細
  6
CONTINUOUS
 62
    2
 10
690.76328124999463
 20
556.58345034329398
 11
685.1632812499945
 21
556.58345034329398
  0
LINE
  8
_0-0_計極細
  6
CONTINUOUS
 62
    2
 10
673.76328124999463
 20
543.58345034329409
 11
668.16328124999461
 21
543.58345034329409
  0
LINE
  8
_0-0_計極細
  6
CONTINUOUS
 62
    2
 10
673.76328124999463
 20
556.58345034329398
 11
668.16328124999461
 21
556.58345034329398
  0
LINE
  8
_0-0_計極細
  6
CONTINUOUS
 62
    2
 10
656.76328124999475
 20
543.58345034329409
 11
651.1632812499945
 21
543.58345034329409
  0
LINE
  8
_0-0_計極細
  6
CONTINUOUS
 62
    2
 10
656.76328124999475
 20
556.58345034329398
 11
651.1632812499945
 21
556.58345034329398
  0
LINE
  8
_0-0_計極細
  6
CONTINUOUS
 62
    2
 10
639.76328124999463
 20
543.58345034329409
 11
634.1632812499945
 21
543.58345034329409
  0
LINE
  8
_0-0_計極細
  6
CONTINUOUS
 62
    2
 10
639.76328124999463
 20
556.58345034329398
 11
634.1632812499945
 21
556.58345034329398
  0
LINE
  8
_0-0_計極細
  6
CONTINUOUS
 62
    2
 10
622.76328124999463
 20
543.58345034329409
 11
617.1632812499945
 21
543.58345034329409
  0
LINE
  8
_0-0_計極細
  6
CONTINUOUS
 62
    2
 10
622.76328124999463
 20
556.58345034329398
 11
617.1632812499945
 21
556.58345034329398
  0
LINE
  8
_0-0_計極細
  6
CONTINUOUS
 62
    2
 10
605.76328124999463
 20
543.58345034329409
 11
600.1632812499945
 21
543.58345034329409
  0
LINE
  8
_0-0_計極細
  6
CONTINUOUS
 62
    2
 10
605.76328124999463
 20
556.58345034329398
 11
600.1632812499945
 21
556.58345034329398
  0
LINE
  8
_0-0_計極細
  6
CONTINUOUS
 62
    2
 10
588.76328124999463
 20
543.58345034329409
 11
583.1632812499945
 21
543.58345034329409
  0
LINE
  8
_0-0_計極細
  6
CONTINUOUS
 62
    2
 10
588.76328124999463
 20
556.58345034329398
 11
583.1632812499945
 21
556.58345034329398
  0
LINE
  8
_0-0_計極細
  6
CONTINUOUS
 62
    2
 10
571.76328124999463
 20
543.58345034329409
 11
566.1632812499945
 21
543.58345034329409
  0
LINE
  8
_0-0_計極細
  6
CONTINUOUS
 62
    2
 10
571.76328124999463
 20
556.58345034329398
 11
566.1632812499945
 21
556.58345034329398
  0
LINE
  8
_0-0_計極細
  6
CONTINUOUS
 62
    2
 10
554.76328124999463
 20
543.58345034329409
 11
549.1632812499945
 21
543.58345034329409
  0
LINE
  8
_0-0_計極細
  6
CONTINUOUS
 62
    2
 10
554.76328124999463
 20
556.58345034329398
 11
549.1632812499945
 21
556.58345034329398
  0
LINE
  8
_0-0_計極細
  6
CONTINUOUS
 62
    2
 10
537.76328124999463
 20
543.58345034329409
 11
532.1632812499945
 21
543.58345034329409
  0
LINE
  8
_0-0_計極細
  6
CONTINUOUS
 62
    2
 10
537.76328124999463
 20
556.58345034329398
 11
532.1632812499945
 21
556.58345034329398
  0
LINE
  8
_0-0_計極細
  6
CONTINUOUS
 62
    2
 10
520.76328124999463
 20
543.58345034329409
 11
515.1632812499945
 21
543.58345034329409
  0
LINE
  8
_0-0_計極細
  6
CONTINUOUS
 62
    2
 10
520.76328124999463
 20
556.58345034329398
 11
515.1632812499945
 21
556.58345034329398
  0
LINE
  8
_0-0_計極細
  6
CONTINUOUS
 62
    2
 10
503.76328124999469
 20
543.58345034329409
 11
498.1632812499945
 21
543.58345034329409
  0
LINE
  8
_0-0_計極細
  6
CONTINUOUS
 62
    2
 10
503.76328124999469
 20
556.58345034329398
 11
498.1632812499945
 21
556.58345034329398
  0
LINE
  8
_0-0_計極細
  6
CONTINUOUS
 62
    2
 10
486.76328124999463
 20
543.58345034329409
 11
481.16328124999455
 21
543.58345034329409
  0
LINE
  8
_0-0_計極細
  6
CONTINUOUS
 62
    2
 10
486.76328124999463
 20
556.58345034329398
 11
481.16328124999455
 21
556.58345034329398
  0
LINE
  8
_0-0_計極細
  6
CONTINUOUS
 62
    2
 10
469.76328124999469
 20
543.58345034329409
 11
464.1632812499945
 21
543.58345034329409
  0
LINE
  8
_0-0_計極細
  6
CONTINUOUS
 62
    2
 10
469.76328124999469
 20
556.58345034329398
 11
464.1632812499945
 21
556.58345034329398
  0
LINE
  8
_0-0_計極細
  6
CONTINUOUS
 62
    2
 10
452.76328124999463
 20
543.58345034329409
 11
447.1632812499945
 21
543.58345034329409
  0
LINE
  8
_0-0_計極細
  6
CONTINUOUS
 62
    2
 10
452.76328124999463
 20
556.58345034329398
 11
447.1632812499945
 21
556.58345034329398
  0
LINE
  8
_0-0_計極細
  6
CONTINUOUS
 62
    2
 10
435.76328124999463
 20
543.58345034329409
 11
430.16328124999455
 21
543.58345034329409
  0
LINE
  8
_0-0_計極細
  6
CONTINUOUS
 62
    2
 10
435.76328124999463
 20
556.58345034329398
 11
430.16328124999455
 21
556.58345034329398
  0
LINE
  8
_0-0_計極細
  6
CONTINUOUS
 62
    2
 10
418.76328124999469
 20
543.58345034329409
 11
413.1632812499945
 21
543.58345034329409
  0
LINE
  8
_0-0_計極細
  6
CONTINUOUS
 62
    2
 10
418.76328124999469
 20
556.58345034329398
 11
413.1632812499945
 21
556.58345034329398
  0
LINE
  8
_0-0_計極細
  6
CONTINUOUS
 62
    2
 10
401.76328124999463
 20
543.58345034329409
 11
396.16328124999455
 21
543.58345034329409
  0
LINE
  8
_0-0_計極細
  6
CONTINUOUS
 62
    2
 10
401.76328124999463
 20
556.58345034329398
 11
396.16328124999455
 21
556.58345034329398
  0
LINE
  8
_0-0_計極細
  6
CONTINUOUS
 62
    2
 10
384.76328124999469
 20
543.58345034329409
 11
379.1632812499945
 21
543.58345034329409
  0
LINE
  8
_0-0_計極細
  6
CONTINUOUS
 62
    2
 10
384.76328124999469
 20
556.58345034329398
 11
379.1632812499945
 21
556.58345034329398
  0
LINE
  8
_0-0_計極細
  6
CONTINUOUS
 62
    2
 10
367.76328124999463
 20
543.58345034329409
 11
362.1632812499945
 21
543.58345034329409
  0
LINE
  8
_0-0_計極細
  6
CONTINUOUS
 62
    2
 10
367.76328124999463
 20
556.58345034329398
 11
362.1632812499945
 21
556.58345034329398
  0
LINE
  8
_0-0_計極細
  6
CONTINUOUS
 62
    2
 10
350.76328124999463
 20
543.58345034329409
 11
345.16328124999455
 21
543.58345034329409
  0
LINE
  8
_0-0_計極細
  6
CONTINUOUS
 62
    2
 10
350.76328124999463
 20
556.58345034329398
 11
345.16328124999455
 21
556.58345034329398
  0
LINE
  8
_0-0_計極細
  6
CONTINUOUS
 62
    2
 10
333.76328124999469
 20
543.58345034329409
 11
328.1632812499945
 21
543.58345034329409
  0
LINE
  8
_0-0_計極細
  6
CONTINUOUS
 62
    2
 10
333.76328124999469
 20
556.58345034329398
 11
328.1632812499945
 21
556.58345034329398
  0
LINE
  8
_0-0_計極細
  6
CONTINUOUS
 62
    2
 10
316.76328124999463
 20
543.58345034329409
 11
311.16328124999455
 21
543.58345034329409
  0
LINE
  8
_0-0_計極細
  6
CONTINUOUS
 62
    2
 10
316.76328124999463
 20
556.58345034329398
 11
311.16328124999455
 21
556.58345034329398
  0
LINE
  8
_0-0_計極細
  6
CONTINUOUS
 62
    2
 10
299.76328124999469
 20
543.58345034329409
 11
293.76328124999446
 21
543.58345034329409
  0
LINE
  8
_0-0_計極細
  6
CONTINUOUS
 62
    2
 10
299.76328124999469
 20
556.58345034329398
 11
293.76328124999446
 21
556.58345034329398
  0
LINE
  8
_0-0_計極細
  6
CONTINUOUS
 62
    2
 10
282.36328124999477
 20
543.58345034329409
 11
276.36328124999454
 21
543.58345034329409
  0
LINE
  8
_0-0_計極細
  6
CONTINUOUS
 62
    2
 10
282.36328124999477
 20
556.58345034329398
 11
276.36328124999454
 21
556.58345034329398
  0
LINE
  8
_0-0_計極細
  6
CONTINUOUS
 62
    2
 10
264.96328124999491
 20
543.58345034329409
 11
258.96328124999468
 21
543.58345034329409
  0
LINE
  8
_0-0_計極細
  6
CONTINUOUS
 62
    2
 10
264.96328124999491
 20
556.58345034329398
 11
258.96328124999468
 21
556.58345034329398
  0
LINE
  8
_0-0_計極細
  6
CONTINUOUS
 62
    2
 10
247.56328124999504
 20
543.58345034329409
 11
241.56328124999482
 21
543.58345034329409
  0
LINE
  8
_0-0_計極細
  6
CONTINUOUS
 62
    2
 10
247.56328124999504
 20
556.58345034329398
 11
241.56328124999482
 21
556.58345034329398
  0
LINE
  8
_0-0_計極細
  6
CENTER1
 62
    2
 10
227.15469607331514
 20
550.08345034329443
 11
1236.921104991007
 21
550.08345034329398
  0
LINE
  8
_0-0_計極細
  6
CONTINUOUS
 62
    2
 10
1093.1632812499943
 20
759.58345034329443
 11
1098.7632812499946
 21
759.58345034329443
  0
LINE
  8
_0-0_計極細
  6
CONTINUOUS
 62
    2
 10
1093.1632812499943
 20
772.58345034329454
 11
1098.7632812499946
 21
772.58345034329454
  0
LINE
  8
_0-5_寸法線
  6
CONTINUOUS
 62
    7
 10
527.67657200425333
 20
529.5584503432957
 11
534.44257266342788
 21
522.19494336088246
  0
LINE
  8
_0-5_寸法線
  6
CONTINUOUS
 62
    7
 10
527.67657200425333
 20
529.5584503432957
 11
529.85434696591415
 21
519.79846590599448
  0
LINE
  8
_0-5_寸法線
  6
CONTINUOUS
 62
    7
 10
527.67657200425333
 20
529.5584503432957
 11
550.75881747412791
 21
485.36585775070319
  0
LINE
  8
_0-5_寸法線
  6
CONTINUOUS
 62
    7
 10
550.75881747412791
 20
485.36585775070319
 11
658.75881747412802
 21
485.36585775070319
  0
TEXT
  8
_0-5_寸法線
 62
    7
 10
550.75881747412791
 20
485.96585775070309
 40
15
 41
0.8000000000000001
 50
0
  1
ＳＵＳアングル受枠
  0
LINE
  8
_0-5_寸法線
  6
CONTINUOUS
 62
    7
 10
746.8442783417014
 20
573.03717149167744
 11
753.91534615356682
 21
565.96610367981191
  0
LINE
  8
_0-5_寸法線
  6
CONTINUOUS
 62
    7
 10
746.8442783417014
 20
573.03717149167744
 11
749.43246879272647
 21
563.37791322878672
  0
LINE
  8
_0-5_寸法線
  6
CONTINUOUS
 62
    7
 10
746.8442783417014
 20
573.03717149167744
 11
797.17265979566594
 21
485.86585775070273
  0
LINE
  8
_0-5_寸法線
  6
CONTINUOUS
 62
    7
 10
797.17265979566594
 20
485.86585775070273
 11
929.17265979566582
 21
485.86585775070273
  0
TEXT
  8
_0-5_寸法線
 62
    7
 10
797.17265979566582
 20
485.86585775070273
 40
15
 41
0.8000000000000001
 50
0
  1
セーフティグレーチング
  0
TEXT
  8
_0-5_寸法線
 62
    7
 10
550.75881747412791
 20
470.36585775070319
 40
15
 41
0.8000000000000001
 50
0
  1
ＧＳＬ－２５
  0
TEXT
  8
_0-5_寸法線
 62
    7
 10
797.17265979566594
 20
470.86585775070273
 40
15
 41
0.8000000000000001
 50
0
  1
ＧＲＳＪ－２５Ｗ２５１
  0
LINE
  8
_0-1_計細線
  6
CONTINUOUS
 62
    3
 10
1161.163281249997
 20
532.58345034329579
 11
1161.1632812499961
 21
783.58345034329409
  0
LINE
  8
_0-1_計細線
  6
CONTINUOUS
 62
    3
 10
1149.7632812499965
 20
532.58345034329534
 11
1161.163281249997
 21
532.58345034329579
  0
LINE
  8
_0-0_計極細
  6
CONTINUOUS
 62
    2
 10
1157.9632812499967
 20
532.58345034329534
 11
1157.9632812499956
 21
783.58345034329409
  0
LINE
  8
_0-0_計極細
  6
CONTINUOUS
 62
    2
 10
1152.9632812499967
 20
532.58345034329534
 11
1152.9632812499956
 21
783.58345034329409
  0
LINE
  8
_0-1_計細線
  6
CONTINUOUS
 62
    3
 10
1149.7632812499965
 20
532.58345034329534
 11
1149.7632812499965
 21
783.58345034329409
  0
LINE
  8
_0-1_計細線
  6
CONTINUOUS
 62
    3
 10
1149.7632812499965
 20
783.58345034329409
 11
1161.1632812499961
 21
783.58345034329409
  0
LINE
  8
_0-1_計細線
  6
CONTINUOUS
 62
    3
 10
1132.7632812499958
 20
532.58345034329534
 11
1132.7632812499946
 21
783.58345034329409
  0
LINE
  8
_0-1_計細線
  6
CONTINUOUS
 62
    3
 10
1132.7632812499958
 20
532.58345034329534
 11
1144.1632812499963
 21
532.58345034329534
  0
LINE
  8
_0-0_計極細
  6
CONTINUOUS
 62
    2
 10
1140.9632812499963
 20
532.58345034329534
 11
1140.9632812499949
 21
783.58345034329409
  0
LINE
  8
_0-0_計極細
  6
CONTINUOUS
 62
    2
 10
1135.9632812499963
 20
532.58345034329534
 11
1135.9632812499949
 21
783.58345034329409
  0
LINE
  8
_0-1_計細線
  6
CONTINUOUS
 62
    3
 10
1132.7632812499946
 20
783.58345034329409
 11
1144.1632812499963
 21
783.58345034329409
  0
LINE
  8
_0-1_計細線
  6
CONTINUOUS
 62
    3
 10
1144.1632812499963
 20
532.58345034329534
 11
1144.1632812499963
 21
783.58345034329409
  0
LINE
  8
_0-1_計細線
  6
CONTINUOUS
 62
    3
 10
1098.3132812499932
 20
613.08345034329341
 11
1098.3132812499935
 21
672.08345034329341
  0
LINE
  8
_0-1_計細線
  6
CONTINUOUS
 62
    3
 10
1093.6132812499936
 20
672.08345034329341
 11
1093.6132812499934
 21
613.08345034329341
  0
LINE
  8
_0-1_計細線
  6
CONTINUOUS
 62
    3
 10
1093.6132812499934
 20
613.08345034329341
 11
1098.3132812499932
 21
613.08345034329341
  0
LINE
  8
_0-1_計細線
  6
CONTINUOUS
 62
    3
 10
1093.6132812499936
 20
662.08345034329341
 11
1098.3132812499935
 21
662.08345034329341
  0
LINE
  8
_0-1_計細線
  6
CONTINUOUS
 62
    3
 10
1093.6132812499936
 20
670.08345034329341
 11
1098.3132812499935
 21
670.08345034329341
  0
LINE
  8
_0-1_計細線
  6
CONTINUOUS
 62
    3
 10
1093.6132812499936
 20
672.08345034329341
 11
1098.3132812499935
 21
672.08345034329341
  0
LINE
  8
_0-1_計細線
  6
CONTINUOUS
 62
    3
 10
1093.6132812499936
 20
668.08345034329352
 11
1098.3132812499935
 21
668.08345034329352
  0
LINE
  8
_0-1_計細線
  6
CONTINUOUS
 62
    3
 10
1093.6132812499936
 20
666.08345034329341
 11
1098.3132812499935
 21
666.08345034329341
  0
LINE
  8
_0-1_計細線
  6
CONTINUOUS
 62
    3
 10
1093.6132812499936
 20
664.08345034329341
 11
1098.3132812499935
 21
664.08345034329341
  0
LINE
  8
_0-5_寸法線
  6
CONTINUOUS
 62
    7
 10
1095.0840386045709
 20
671.24012953551346
 11
1090.0840386045709
 21
679.90038357335777
  0
LINE
  8
_0-5_寸法線
  6
CONTINUOUS
 62
    7
 10
1095.0840386045709
 20
671.24012953551346
 11
1095.0840386045709
 21
681.24012953551346
  0
LINE
  8
_0-5_寸法線
  6
CONTINUOUS
 62
    7
 10
1095.0840386045709
 20
671.24012953551346
 11
1058.4169813045332
 21
808.08345034329409
  0
LINE
  8
_0-5_寸法線
  6
CONTINUOUS
 62
    7
 10
1058.4169813045332
 20
808.08345034329409
 11
998.41698130453324
 21
808.08345034329409
  0
TEXT
  8
_0-5_寸法線
 62
    7
 10
998.41698130453324
 20
808.08345034329409
 40
15
 41
0.8000000000000001
 50
0
  1
取　外　具
  0
TEXT
  8
_0-5_寸法線
 62
    7
 10
999.09121855978674
 20
791.54607914558414
 40
15
 41
0.8000000000000001
 50
-0.0000000000002714
  1
(標準付属)
  0
LINE
  8
_0-7_枠細線
  6
CONTINUOUS
 62
    5
 10
973.1184650626144
 20
809.33242455915899
 11
965.61846506261429
 21
824.33242455915899
  0
LINE
  8
_0-7_枠細線
  6
CONTINUOUS
 62
    5
 10
958.11846506261429
 20
809.33242455915899
 11
973.1184650626144
 21
809.33242455915899
  0
LINE
  8
_0-7_枠細線
  6
CONTINUOUS
 62
    5
 10
965.61846506261429
 20
824.33242455915899
 11
958.11846506261429
 21
809.33242455915899
  0
TEXT
  8
_0-7_枠細線
 62
    5
 10
960.4836163307624
 20
809.02542231377856
 40
12.5
 41
0.8
 50
0
  1
１
  0
LINE
  8
_0-7_枠細線
  6
CONTINUOUS
 62
    5
 10
983.98800808983083
 20
824.33242455915899
 11
976.48800808983083
 21
809.33242455915899
  0
LINE
  8
_0-7_枠細線
  6
CONTINUOUS
 62
    5
 10
976.48800808983083
 20
809.33242455915899
 11
991.48800808983083
 21
809.33242455915899
  0
LINE
  8
_0-7_枠細線
  6
CONTINUOUS
 62
    5
 10
991.48800808983083
 20
809.33242455915899
 11
983.98800808983083
 21
824.33242455915899
  0
TEXT
  8
_0-7_枠細線
 62
    5
 10
978.97350018037957
 20
808.78474066897763
 40
12.5
 41
0.8
 50
0
  1
２
  0
LINE
  8
_0-0_計極細
  6
CONTINUOUS
 62
    2
 10
1093.1632812499943
 20
664.58345034329443
 11
1093.6132812499936
 21
664.58345034329443
  0
LINE
  8
_0-0_計極細
  6
CONTINUOUS
 62
    2
 10
1098.3132812499935
 20
664.58345034329443
 11
1098.7632812499955
 21
664.58345034329443
  0
LINE
  8
_0-0_計極細
  6
CONTINUOUS
 62
    2
 10
1093.1632812499943
 20
651.58345034329443
 11
1093.6132812499936
 21
651.58345034329443
  0
LINE
  8
_0-0_計極細
  6
CONTINUOUS
 62
    2
 10
1098.3132812499935
 20
651.58345034329443
 11
1098.7632812499955
 21
651.58345034329443
  0
LINE
  8
_0-7_枠細線
  6
CONTINUOUS
 62
    5
 10
1425
 20
942.5
 11
890
 21
942.5
  0
TEXT
  8
_0-7_枠細線
 62
    5
 10
895
 20
945
 40
12.5
 41
1
 50
0
  1
記号
  0
TEXT
  8
_0-7_枠細線
 62
    5
 10
996.875
 20
945
 40
12.5
 41
1
 50
0
  1
訂　 正　 記　 事
  0
TEXT
  8
_0-7_枠細線
 62
    5
 10
1181.25
 20
945
 40
12.5
 41
1
 50
0
  1
訂 正 年 月 日
  0
TEXT
  8
_0-7_枠細線
 62
    5
 10
1306.25
 20
945
 40
12.5
 41
1
 50
0
  1
備　　　　　考
  0
LINE
  8
_0-7_枠細線
  6
CONTINUOUS
 62
    5
 10
1425
 20
925
 11
890
 21
925
  0
TEXT
  8
_0-7_枠細線
 62
    5
 10
938.85037037037023
 20
927.5
 40
12.5
 41
1
 50
0
  1
品番・色記号変更
  0
TEXT
  8
_0-7_枠細線
 62
    5
 10
1180
 20
927.5
 40
12.5
 41
0.7199999999999999
 50
0
  1
２０１３．０３．１３
  0
LINE
  8
_0-7_枠細線
  6
CONTINUOUS
 62
    5
 10
915
 20
908.75
 11
907.5
 21
923.75
  0
LINE
  8
_0-7_枠細線
  6
CONTINUOUS
 62
    5
 10
900
 20
908.75
 11
915
 21
908.75
  0
LINE
  8
_0-7_枠細線
  6
CONTINUOUS
 62
    5
 10
907.5
 20
923.75
 11
900
 21
908.75
  0
TEXT
  8
_0-7_枠細線
 62
    5
 10
902.36515126814822
 20
908.44299775461946
 40
12.5
 41
0.8
 50
0
  1
１
  0
LINE
  8
_0-7_枠細線
  6
CONTINUOUS
 62
    5
 10
1424.9999999999998
 20
907.5
 11
890
 21
907.5
  0
TEXT
  8
_0-7_枠細線
 62
    5
 10
938.85037037037011
 20
910
 40
12.500000000000002
 41
1
 50
0
  1
取外具形状変更
  0
TEXT
  8
_0-7_枠細線
 62
    5
 10
1180
 20
910
 40
12.500000000000002
 41
0.7199999999999998
 50
0
  1
２０１５．１１．２０
  0
LINE
  8
_0-7_枠細線
  6
CONTINUOUS
 62
    5
 10
1425
 20
890
 11
890
 21
890
  0
TEXT
  8
_0-7_枠細線
 62
    5
 10
1180
 20
892.5
 40
12.5
 41
0.7199999999999999
 50
0
  1
２０１７．０４．０１
  0
LINE
  8
_0-7_枠細線
  6
CONTINUOUS
 62
    5
 10
915
 20
873.94233397174685
 11
907.5
 21
888.94233397174685
  0
LINE
  8
_0-7_枠細線
  6
CONTINUOUS
 62
    5
 10
900
 20
873.94233397174685
 11
915
 21
873.94233397174685
  0
LINE
  8
_0-7_枠細線
  6
CONTINUOUS
 62
    5
 10
907.5
 20
888.94233397174685
 11
900
 21
873.94233397174685
  0
TEXT
  8
_0-7_枠細線
 62
    5
 10
1180
 20
875
 40
12.5
 41
0.7199999999999999
 50
0
  1
２０１７．０４．０１
  0
TEXT
  8
_0-7_枠細線
 62
    5
 10
938.85037037037023
 20
875
 40
12.5
 41
1
 50
0
  1
ブラウン色（Ｃ）追加
  0
LINE
  8
_0-7_枠細線
  6
CONTINUOUS
 62
    5
 10
1425
 20
872.5
 11
890
 21
872.5
  0
LINE
  8
_0-7_枠細線
  6
CONTINUOUS
 62
    5
 10
907.5
 20
906.44233397174685
 11
900
 21
891.44233397174685
  0
LINE
  8
_0-7_枠細線
  6
CONTINUOUS
 62
    5
 10
900
 20
891.44233397174685
 11
915
 21
891.44233397174685
  0
LINE
  8
_0-7_枠細線
  6
CONTINUOUS
 62
    5
 10
915
 20
891.44233397174685
 11
907.5
 21
906.44233397174685
  0
TEXT
  8
_0-7_枠細線
 62
    5
 10
938.85037037037023
 20
892.5
 40
12.5
 41
1
 50
0
  1
取外具形状変更
  0
TEXT
  8
_0-7_枠細線
 62
    5
 10
902.48549209054841
 20
890.89465008156549
 40
12.5
 41
0.8
 50
0
  1
２
  0
TEXT
  8
_0-7_枠細線
 62
    5
 10
902.36515126814811
 20
872.99351400689704
 40
12.5
 41
0.8
 50
0
  1
３
  0
LINE
  8
_0-7_枠細線
  6
CONTINUOUS
 62
    5
 10
915
 20
856.44233397174685
 11
907.5
 21
871.44233397174685
  0
LINE
  8
_0-7_枠細線
  6
CONTINUOUS
 62
    5
 10
900
 20
856.44233397174685
 11
915
 21
856.44233397174685
  0
LINE
  8
_0-7_枠細線
  6
CONTINUOUS
 62
    5
 10
907.5
 20
871.44233397174685
 11
900
 21
856.44233397174685
  0
LINE
  8
_0-7_枠細線
  6
CONTINUOUS
 62
    5
 10
1425
 20
855
 11
890
 21
855
  0
TEXT
  8
_0-7_枠細線
 62
    5
 10
1180
 20
857.5
 40
12.5
 41
0.7199999999999999
 50
0
  1
２０１９．０９．０１
  0
TEXT
  8
_0-7_枠細線
 62
    5
 10
902.36515126814822
 20
855.49351400689704
 40
12.5
 41
0.8
 50
0
  1
４
  0
LINE
  8
_0-7_枠細線
  6
CONTINUOUS
 62
    5
 10
890
 20
855
 11
890
 21
959.99999999999943
  0
LINE
  8
_0-7_枠細線
  6
CONTINUOUS
 62
    5
 10
925
 20
855
 11
925
 21
959.99999999999943
  0
LINE
  8
_0-7_枠細線
  6
CONTINUOUS
 62
    5
 10
1175
 20
855
 11
1175
 21
959.99999999999943
  0
LINE
  8
_0-7_枠細線
  6
CONTINUOUS
 62
    5
 10
1275
 20
855
 11
1275
 21
959.99999999999943
  0
LINE
  8
_0-9_枠極太
  6
CONTINUOUS
 62
    5
 10
60
 20
60
 11
60
 21
960
  0
LINE
  8
_0-9_枠極太
  6
CONTINUOUS
 62
    5
 10
60
 20
960
 11
1425
 21
960
  0
LINE
  8
_0-9_枠極太
  6
CONTINUOUS
 62
    5
 10
1425
 20
960
 11
1425
 21
60
  0
LINE
  8
_0-9_枠極太
  6
CONTINUOUS
 62
    5
 10
1425
 20
60
 11
60
 21
60
  0
LINE
  8
_0-b_細線3
  6
CONTINUOUS
 62
    7
 10
230.17132398127345
 20
304.13519777931924
 11
230.17132398127345
 21
245.80186444598598
  0
LINE
  8
_0-b_細線3
  6
CONTINUOUS
 62
    7
 10
230.17132398127345
 20
245.80186444598598
 11
226.3379906479401
 21
245.80186444598598
  0
LINE
  8
_0-b_細線3
  6
CONTINUOUS
 62
    7
 10
226.3379906479401
 20
245.80186444598598
 11
226.3379906479401
 21
304.13519777931924
  0
LINE
  8
_0-b_細線3
  6
CONTINUOUS
 62
    7
 10
226.3379906479401
 20
304.13519777931924
 11
230.17132398127345
 21
304.13519777931924
  0
LINE
  8
_0-a_極細3
  6
CONTINUOUS
 62
    7
 10
226.3379906479401
 20
277.46853111265261
 11
230.17132398127345
 21
277.46853111265261
  0
LINE
  8
_0-a_極細3
  6
CONTINUOUS
 62
    7
 10
226.3379906479401
 20
280.80186444598598
 11
230.17132398127345
 21
280.80186444598598
  0
LINE
  8
_0-a_極細3
  6
CONTINUOUS
 62
    7
 10
226.3379906479401
 20
274.13519777931924
 11
230.17132398127345
 21
274.13519777931924
  0
LINE
  8
_0-a_極細3
  6
CONTINUOUS
 62
    7
 10
226.3379906479401
 20
284.13519777931924
 11
230.17132398127345
 21
284.13519777931924
  0
LINE
  8
_0-a_極細3
  6
CONTINUOUS
 62
    7
 10
230.17132398127345
 20
250.80186444598598
 11
226.3379906479401
 21
250.80186444598598
  0
LINE
  8
_0-a_極細3
  6
CONTINUOUS
 62
    7
 10
226.3379906479401
 20
300.80186444598598
 11
230.17132398127345
 21
300.80186444598598
  0
LINE
  8
_0-b_細線3
  6
CONTINUOUS
 62
    7
 10
663.50465731460667
 20
304.13519777931924
 11
663.50465731460667
 21
245.80186444598598
  0
LINE
  8
_0-b_細線3
  6
CONTINUOUS
 62
    7
 10
663.50465731460667
 20
245.80186444598598
 11
667.33799064794016
 21
245.80186444598598
  0
LINE
  8
_0-b_細線3
  6
CONTINUOUS
 62
    7
 10
667.33799064794016
 20
245.80186444598598
 11
667.33799064794016
 21
304.13519777931924
  0
LINE
  8
_0-b_細線3
  6
CONTINUOUS
 62
    7
 10
667.33799064794016
 20
304.13519777931924
 11
663.50465731460667
 21
304.13519777931924
  0
LINE
  8
_0-a_極細3
  6
CONTINUOUS
 62
    7
 10
667.33799064794016
 20
277.46853111265261
 11
663.50465731460667
 21
277.46853111265261
  0
LINE
  8
_0-a_極細3
  6
CONTINUOUS
 62
    7
 10
667.33799064794016
 20
280.80186444598598
 11
663.50465731460667
 21
280.80186444598598
  0
LINE
  8
_0-a_極細3
  6
CONTINUOUS
 62
    7
 10
667.33799064794016
 20
274.13519777931924
 11
663.50465731460667
 21
274.13519777931924
  0
LINE
  8
_0-a_極細3
  6
CONTINUOUS
 62
    7
 10
667.33799064794016
 20
284.13519777931924
 11
663.50465731460667
 21
284.13519777931924
  0
LINE
  8
_0-a_極細3
  6
CONTINUOUS
 62
    7
 10
663.50465731460667
 20
250.80186444598598
 11
667.33799064794016
 21
250.80186444598598
  0
LINE
  8
_0-a_極細3
  6
CONTINUOUS
 62
    7
 10
667.33799064794016
 20
300.80186444598598
 11
663.50465731460667
 21
300.80186444598598
  0
LINE
  8
_0-7_枠細線
  6
CONTINUOUS
 62
    5
 10
685.26870748856243
 20
293.46851957925912
 11
677.76870748856243
 21
308.46851957925912
  0
LINE
  8
_0-7_枠細線
  6
CONTINUOUS
 62
    5
 10
670.26870748856243
 20
293.46851957925912
 11
685.26870748856243
 21
293.46851957925912
  0
LINE
  8
_0-7_枠細線
  6
CONTINUOUS
 62
    5
 10
677.76870748856243
 20
308.46851957925912
 11
670.26870748856243
 21
293.46851957925912
  0
TEXT
  8
_0-7_枠細線
 62
    5
 10
672.63385875671042
 20
292.51969961440921
 40
12.5
 41
0.8
 50
0
  1
４
  0
TEXT
  8
_0-7_枠細線
 62
    5
 10
938.85037037037023
 20
857.5
 40
12.5
 41
1
 50
0
  1
アンカー材質･厚み変更
  0
LINE
  8
_0-5_寸法線
  6
CONTINUOUS
 62
    7
 10
1260.6632812499954
 20
528.08345034329363
 11
1305.6632812499922
 21
528.08345034329352
  0
LINE
  8
_0-5_寸法線
  6
CONTINUOUS
 62
    7
 10
1300.6632812499922
 20
528.08345034329352
 11
1303.2514717010176
 21
518.4241920804028
  0
LINE
  8
_0-5_寸法線
  6
CONTINUOUS
 62
    7
 10
1300.6632812499922
 20
528.08345034329352
 11
1298.075090798967
 21
518.4241920804028
  0
LINE
  8
_0-5_寸法線
  6
CONTINUOUS
 62
    7
 10
1260.6632812499954
 20
531.08345034329534
 11
1305.6632812499922
 21
531.08345034329523
  0
CIRCLE
  8
_0-5_寸法線
  6
CONTINUOUS
 62
    1
 10
1300.6632812499922
 20
531.08345034329523
 40
1.5000000000000002
  0
LINE
  8
_0-5_寸法線
  6
CONTINUOUS
 62
    7
 10
1300.6632812499922
 20
503.08345034329358
 11
1300.6632812499922
 21
531.08345034329523
  0
TEXT
  8
_0-5_寸法線
 62
    7
 10
1300.6632812499922
 20
508.46286795228735
 40
15
 41
1
 50
90
  1
3
  0
LINE
  8
_0-5_寸法線
  6
CONTINUOUS
 62
    7
 10
1260.6632812499965
 20
532.58345034329534
 11
1305.6632812499922
 21
532.58345034329523
  0
LINE
  8
_0-5_寸法線
  6
CONTINUOUS
 62
    7
 10
1300.6632812499922
 20
531.08345034329523
 11
1300.6632812499922
 21
532.58345034329523
  0
TEXT
  8
_0-5_寸法線
 62
    7
 10
1320.4773287401999
 20
530.39285283213349
 40
15
 41
1
 50
90
  1
1.5
  0
LINE
  8
_0-5_寸法線
  6
CONTINUOUS
 62
    7
 10
1300.6632812499922
 20
532.58345034329523
 11
1298.075090798967
 21
542.24270860618594
  0
LINE
  8
_0-5_寸法線
  6
CONTINUOUS
 62
    7
 10
1300.6632812499922
 20
532.58345034329523
 11
1303.2514717010176
 21
542.24270860618594
  0
LINE
  8
_0-5_寸法線
  6
CONTINUOUS
 62
    7
 10
1260.6632812499954
 20
783.58345034329409
 11
1305.6632812499922
 21
783.58345034329386
  0
LINE
  8
_0-5_寸法線
  6
CONTINUOUS
 62
    7
 10
1300.6632812499922
 20
783.58345034329386
 11
1303.2514717010176
 21
773.92419208040326
  0
LINE
  8
_0-5_寸法線
  6
CONTINUOUS
 62
    7
 10
1300.6632812499922
 20
783.58345034329386
 11
1298.075090798967
 21
773.92419208040326
  0
LINE
  8
_0-5_寸法線
  6
CONTINUOUS
 62
    7
 10
1300.6632812499922
 20
532.58345034329523
 11
1300.6632812499922
 21
783.58345034329386
  0
TEXT
  8
_0-5_寸法線
 62
    7
 10
1300.6632812499922
 20
646.83345034329466
 40
15
 41
1
 50
90
  1
251
  0
LINE
  8
_0-5_寸法線
  6
CONTINUOUS
 62
    7
 10
1260.6632812499954
 20
785.08345034329409
 11
1305.6632812499922
 21
785.08345034329398
  0
CIRCLE
  8
_0-5_寸法線
  6
CONTINUOUS
 62
    1
 10
1300.6632812499922
 20
785.08345034329398
 40
1.5000000000000002
  0
LINE
  8
_0-5_寸法線
  6
CONTINUOUS
 62
    7
 10
1300.6632812499922
 20
783.58345034329386
 11
1300.6632812499922
 21
785.08345034329398
  0
TEXT
  8
_0-5_寸法線
 62
    7
 10
1321.3045332733095
 20
762.75768893260283
 40
15
 41
1
 50
90
  1
1.5
  0
LINE
  8
_0-5_寸法線
  6
CONTINUOUS
 62
    7
 10
1260.6632812499954
 20
788.08345034329409
 11
1305.6632812499922
 21
788.08345034329386
  0
LINE
  8
_0-5_寸法線
  6
CONTINUOUS
 62
    7
 10
1300.6632812499922
 20
788.08345034329386
 11
1298.075090798967
 21
797.74270860618458
  0
LINE
  8
_0-5_寸法線
  6
CONTINUOUS
 62
    7
 10
1300.6632812499922
 20
788.08345034329386
 11
1303.2514717010176
 21
797.74270860618458
  0
LINE
  8
_0-5_寸法線
  6
CONTINUOUS
 62
    7
 10
1300.6632812499922
 20
785.08345034329398
 11
1300.6632812499922
 21
813.08345034329386
  0
TEXT
  8
_0-5_寸法線
 62
    7
 10
1300.6632812499922
 20
801.66063369266226
 40
15
 41
1
 50
90
  1
3
  0
LINE
  8
_0-5_寸法線
  6
CONTINUOUS
 62
    7
 10
230.1632812499939
 20
798.08345034329363
 11
230.16328124999382
 21
849.42594480514526
  0
LINE
  8
_0-5_寸法線
  6
CONTINUOUS
 62
    7
 10
230.16328124999382
 20
844.42594480514526
 11
237.40772494716182
 21
846.36708764341415
  0
LINE
  8
_0-5_寸法線
  6
CONTINUOUS
 62
    7
 10
230.16328124999382
 20
844.42594480514526
 11
237.40772494716182
 21
842.48480196687638
  0
LINE
  8
_0-5_寸法線
  6
CONTINUOUS
 62
    7
 10
1229.1632812499938
 20
798.08345034329363
 11
1229.1632812499938
 21
849.42594480514526
  0
LINE
  8
_0-5_寸法線
  6
CONTINUOUS
 62
    7
 10
1229.1632812499938
 20
844.42594480514526
 11
1221.9188375528258
 21
842.48480196687638
  0
LINE
  8
_0-5_寸法線
  6
CONTINUOUS
 62
    7
 10
1229.1632812499938
 20
844.42594480514526
 11
1221.9188375528258
 21
846.36708764341415
  0
LINE
  8
_0-5_寸法線
  6
CONTINUOUS
 62
    7
 10
230.16328124999382
 20
844.42594480514526
 11
1229.1632812499938
 21
844.42594480514526
  0
TEXT
  8
_0-5_寸法線
 62
    7
 10
718.41328124999427
 20
844.42594480514515
 40
15
 41
1
 50
0
  1
999
  0
LINE
  8
_0-5_寸法線
  6
CONTINUOUS
 62
    7
 10
860.76328124999418
 20
798.08345034329409
 11
860.76328124999418
 21
823.08345034329409
  0
LINE
  8
_0-5_寸法線
  6
CONTINUOUS
 62
    7
 10
860.76328124999418
 20
818.08345034329409
 11
851.10402298710358
 21
815.49525989226879
  0
LINE
  8
_0-5_寸法線
  6
CONTINUOUS
 62
    7
 10
860.76328124999418
 20
818.08345034329409
 11
851.10402298710358
 21
820.67164079431916
  0
LINE
  8
_0-5_寸法線
  6
CONTINUOUS
 62
    7
 10
872.16328124999472
 20
798.08345034329409
 11
872.16328124999472
 21
823.08345034329409
  0
CIRCLE
  8
_0-5_寸法線
  6
CONTINUOUS
 62
    1
 10
872.16328124999472
 20
818.08345034329409
 40
1.5000000000000002
  0
LINE
  8
_0-5_寸法線
  6
CONTINUOUS
 62
    7
 10
835.76328124999418
 20
818.08345034329409
 11
872.16328124999472
 21
818.08345034329409
  0
TEXT
  8
_0-5_寸法線
 62
    7
 10
842.11649477551305
 20
818.08345034329386
 40
15
 41
1
 50
0
  1
11.4
  0
LINE
  8
_0-5_寸法線
  6
CONTINUOUS
 62
    7
 10
877.76328124999418
 20
798.08345034329409
 11
877.76328124999418
 21
823.08345034329409
  0
LINE
  8
_0-5_寸法線
  6
CONTINUOUS
 62
    7
 10
877.76328124999418
 20
818.08345034329409
 11
887.4225395128849
 21
820.67164079431916
  0
LINE
  8
_0-5_寸法線
  6
CONTINUOUS
 62
    7
 10
877.76328124999418
 20
818.08345034329409
 11
887.4225395128849
 21
815.49525989226879
  0
LINE
  8
_0-5_寸法線
  6
CONTINUOUS
 62
    7
 10
872.16328124999472
 20
818.08345034329409
 11
914.97760588662629
 21
818.08345034329409
  0
TEXT
  8
_0-5_寸法線
 62
    7
 10
877.47760588662629
 20
803.08345034329386
 40
15
 41
1
 50
0
  1
6以下
  0
LINE
  8
_0-d_寸法3
  6
CONTINUOUS
 62
    7
 10
230.17132398127438
 20
345.80186444598621
 11
230.1713239812743
 21
410.80186277764193
  0
LINE
  8
_0-d_寸法3
  6
CONTINUOUS
 62
    7
 10
230.1713239812743
 20
405.80186277764193
 11
220.51206571838364
 21
403.21367232661669
  0
LINE
  8
_0-d_寸法3
  6
CONTINUOUS
 62
    7
 10
230.1713239812743
 20
405.80186277764193
 11
220.51206571838364
 21
408.39005322866711
  0
LINE
  8
_0-d_寸法3
  6
CONTINUOUS
 62
    7
 10
235.17132398127438
 20
344.96853111265233
 11
235.1713239812743
 21
410.80186277764193
  0
CIRCLE
  8
_0-d_寸法3
  6
CONTINUOUS
 62
    1
 10
235.1713239812743
 20
405.80186277764193
 40
1.5000000000000002
  0
LINE
  8
_0-d_寸法3
  6
CONTINUOUS
 62
    7
 10
205.1713239812743
 20
405.80186277764193
 11
235.1713239812743
 21
405.80186277764193
  0
TEXT
  8
_0-d_寸法3
 62
    7
 10
210.20394803771978
 20
405.80186277764193
 40
15
 41
1
 50
0
  1
3
  0
LINE
  8
_0-d_寸法3
  6
CONTINUOUS
 62
    7
 10
237.67132398127438
 20
345.80186444598576
 11
237.6713239812743
 21
410.80186277764193
  0
LINE
  8
_0-d_寸法3
  6
CONTINUOUS
 62
    7
 10
235.1713239812743
 20
405.80186277764193
 11
237.6713239812743
 21
405.80186277764193
  0
TEXT
  8
_0-d_寸法3
 62
    7
 10
241.52003216498301
 20
387.34195198413198
 40
15
 41
1
 50
0
  1
1.5
  0
LINE
  8
_0-d_寸法3
  6
CONTINUOUS
 62
    7
 10
237.6713239812743
 20
405.80186277764193
 11
247.33058224416504
 21
408.39005322866711
  0
LINE
  8
_0-d_寸法3
  6
CONTINUOUS
 62
    7
 10
237.6713239812743
 20
405.80186277764193
 11
247.33058224416504
 21
403.21367232661669
  0
LINE
  8
_0-d_寸法3
  6
CONTINUOUS
 62
    7
 10
656.00465731460645
 20
345.80186444598576
 11
656.00465731460645
 21
410.80186277764193
  0
LINE
  8
_0-d_寸法3
  6
CONTINUOUS
 62
    7
 10
656.00465731460645
 20
405.80186277764193
 11
646.34539905171573
 21
403.21367232661669
  0
LINE
  8
_0-d_寸法3
  6
CONTINUOUS
 62
    7
 10
656.00465731460645
 20
405.80186277764193
 11
646.34539905171573
 21
408.39005322866711
  0
LINE
  8
_0-d_寸法3
  6
CONTINUOUS
 62
    7
 10
237.6713239812743
 20
405.80186277764193
 11
656.00465731460645
 21
405.80186277764193
  0
TEXT
  8
_0-d_寸法3
 62
    7
 10
435.58799064794044
 20
405.80186277764193
 40
15
 41
1
 50
0
  1
251
  0
LINE
  8
_0-d_寸法3
  6
CONTINUOUS
 62
    7
 10
658.50465731460645
 20
344.96853111265233
 11
658.50465731460645
 21
410.80186277764193
  0
CIRCLE
  8
_0-d_寸法3
  6
CONTINUOUS
 62
    1
 10
658.50465731460645
 20
405.80186277764193
 40
1.5000000000000002
  0
LINE
  8
_0-d_寸法3
  6
CONTINUOUS
 62
    7
 10
656.00465731460645
 20
405.80186277764193
 11
658.50465731460645
 21
405.80186277764193
  0
TEXT
  8
_0-d_寸法3
 62
    7
 10
630.56713217819663
 20
386.82302243230509
 40
15
 41
1
 50
0
  1
1.5
  0
LINE
  8
_0-d_寸法3
  6
CONTINUOUS
 62
    7
 10
663.50465731460645
 20
345.80186444598621
 11
663.50465731460645
 21
410.80186277764193
  0
LINE
  8
_0-d_寸法3
  6
CONTINUOUS
 62
    7
 10
663.50465731460645
 20
405.80186277764193
 11
673.16391557749728
 21
408.39005322866706
  0
LINE
  8
_0-d_寸法3
  6
CONTINUOUS
 62
    7
 10
663.50465731460645
 20
405.80186277764193
 11
673.16391557749728
 21
403.21367232661663
  0
LINE
  8
_0-d_寸法3
  6
CONTINUOUS
 62
    7
 10
658.50465731460645
 20
405.80186277764193
 11
688.50465731460645
 21
405.80186277764193
  0
TEXT
  8
_0-d_寸法3
 62
    7
 10
678.40811470438621
 20
405.80186277764193
 40
15
 41
1
 50
0
  1
3
  0
ENDSEC
  0
EOF
