  0
SECTION
  2
HEADER
  9
$ACADVER
  1
AC1009
  9
$INSBASE
 10
0
 20
0
 30
0
  9
$EXTMIN
 10
0
 20
0
  9
$EXTMAX
 10
1485
 20
1050
  9
$LIMMIN
 10
0
 20
0
  9
$LIMMAX
 10
1485
 20
1050
  9
$LTSCALE
 40
5
  0
ENDSEC
  0
SECTION
  2
TABLES
  0
TABLE
  2
LTYPE
 70
     9
  0
LTYPE
  2
CONTINUOUS
 70
    64
  3
実線
 72
    65
 73
     0
 40
0.0
  0
LTYPE
  2
DASHED1
 70
    64
  3
--  --  --  --  --  --  --  --  
 72
    65
 73
     2
 40
2.5
 49
1.25
 49
-1.25
  0
LTYPE
  2
DASHED2
 70
    64
  3
----    ----    ----    ----    
 72
    65
 73
     2
 40
5.0
 49
2.5
 49
-2.5
  0
LTYPE
  2
DASHED3
 70
    64
  3
------  ------  ------  ------  
 72
    65
 73
     2
 40
5.0
 49
3.75
 49
-1.25
  0
LTYPE
  2
CENTER1
 70
    64
  3
----- - ----- - ----- - ----- - 
 72
    65
 73
     4
 40
10.0
 49
6.25
 49
-1.25
 49
1.25
 49
-1.25
  0
LTYPE
  2
CENTER2
 70
    64
  3
----------  --  ----------  --  
 72
    65
 73
     4
 40
20.0
 49
12.5
 49
-2.5
 49
2.5
 49
-2.5
  0
LTYPE
  2
PHANTOM1
 70
    64
  3
--- - - --- - - --- - - --- - - 
 72
    65
 73
     6
 40
10.0
 49
3.25
 49
-1.25
 49
1.25
 49
-1.25
 49
1.25
 49
-1.25
  0
LTYPE
  2
PHANTOM2
 70
    64
  3
--------  -  -  --------  -  -  
 72
    65
 73
     6
 40
20.0
 49
10.0
 49
-2.5
 49
1.25
 49
-2.5
 49
1.25
 49
-2.5
  0
LTYPE
  2
DOT
 70
    64
  3
-   -   -   -   -   -   -   -   
 72
    65
 73
     2
 40
2.5
 49
0.625
 49
-1.875
  0
LTYPE
  2
DUMMY
 70
    64
  3
ダミー
 72
    65
 73
     0
 40
0.0
  0
LTYPE
  2
RAND1
 70
    64
  3
ランダム線1
 72
    65
 73
     4
 40
10.0
 49
1.0
 49
-2.0
 49
3.0
 49
-4.0
  0
LTYPE
  2
RAND2
 70
    64
  3
ランダム線2
 72
    65
 73
     4
 40
14.0
 49
2.0
 49
-3.0
 49
4.0
 49
-5.0
  0
LTYPE
  2
RAND3
 70
    64
  3
ランダム線3
 72
    65
 73
     4
 40
18.0
 49
3.0
 49
-4.0
 49
5.0
 49
-6.0
  0
LTYPE
  2
RAND4
 70
    64
  3
ランダム線4
 72
    65
 73
     4
 40
22.0
 49
4.0
 49
-5.0
 49
6.0
 49
-7.0
  0
LTYPE
  2
RAND5
 70
    64
  3
ランダム線5
 72
    65
 73
     4
 40
26.0
 49
5.0
 49
-6.0
 49
7.0
 49
-8.0
  0
LTYPE
  2
LONG1
 70
    64
  3
----------  --  ----------  --  
 72
    65
 73
     4
 40
40.0
 49
32.5
 49
-2.5
 49
2.5
 49
-2.5
  0
LTYPE
  2
LONG2
 70
    64
  3
--------  -  -  --------  -  -  
 72
    65
 73
     6
 40
40.0
 49
30.0
 49
-2.5
 49
1.25
 49
-2.5
 49
1.25
 49
-2.5
  0
LTYPE
  2
LONG3
 70
    64
  3
+++++++++++++++..+++++++++++++++
 72
    65
 73
     2
 40
40.0
 49
37.5
 49
-2.5
  0
LTYPE
  2
LONG4
 70
    64
  3
+++++++++++++++..+++++++++++++++
 72
    65
 73
     2
 40
80.0
 49
75.0
 49
-5.0
  0
LTYPE
  2
LONG5
 70
    64
  3
----------  --  ----------  --  
 72
    65
 73
     4
 40
60.0
 49
37.5
 49
-7.5
 49
7.5
 49
-7.5
  0
LTYPE
  2
dashed
 70
   64
  3
-------   -------------   ------
 72
   65
 73
    2
 40
7.5
 49
6
 49
-1.5
  0
LTYPE
  2
dashed_spaced
 70
   64
  3
----        --------        ----
 72
   65
 73
    2
 40
12
 49
6
 49
-6
  0
LTYPE
  2
long_dashed_dotted
 70
   64
  3
------------- --- --------------
 72
   65
 73
    4
 40
15.25
 49
12
 49
-1.5
 49
0.25
 49
-1.5
  0
LTYPE
  2
long_dashed_double-dotted
 70
   64
  3
----------- --- --- ------------
 72
   65
 73
    6
 40
17
 49
12
 49
-1.5
 49
0.25
 49
-1.5
 49
0.25
 49
-1.5
  0
LTYPE
  2
long_dashed_triplicate-dotted
 70
   64
  3
--------- --- --- --- ----------
 72
   65
 73
    8
 40
18.75
 49
12
 49
-1.5
 49
0.25
 49
-1.5
 49
0.25
 49
-1.5
 49
0.25
 49
-1.5
  0
LTYPE
  2
dotted
 70
   64
  3
   -       -       -       -    
 72
   65
 73
    2
 40
1.75
 49
0.25
 49
-1.5
  0
LTYPE
  2
chain
 70
   64
  3
-------------- -- --------------
 72
   65
 73
    4
 40
18.5
 49
12
 49
-1.5
 49
3.5
 49
-1.5
  0
LTYPE
  2
chain_double_dash
 70
   64
  3
------------ -- -- -------------
 72
   65
 73
    6
 40
23.5
 49
12
 49
-1.5
 49
3.5
 49
-1.5
 49
3.5
 49
-1.5
  0
LTYPE
  2
dashed_dotted
 70
   64
  3
-----------     -     ----------
 72
   65
 73
    4
 40
9.25
 49
6
 49
-1.5
 49
0.25
 49
-1.5
  0
LTYPE
  2
double-dashed_dotted
 70
   64
  3
------   -----------   -   -----
 72
   65
 73
    6
 40
16.75
 49
6
 49
-1.5
 49
6
 49
-1.5
 49
0.25
 49
-1.5
  0
LTYPE
  2
dashed_double-dotted
 70
   64
  3
---------    -    -    ---------
 72
   65
 73
    6
 40
11
 49
6
 49
-1.5
 49
0.25
 49
-1.5
 49
0.25
 49
-1.5
  0
LTYPE
  2
double-dashed_double-dotted
 70
   64
  3
-----   ---------   -   -   ----
 72
   65
 73
    8
 40
18.5
 49
6
 49
-1.5
 49
6
 49
-1.5
 49
0.25
 49
-1.5
 49
0.25
 49
-1.5
  0
LTYPE
  2
dashed_triplicate-dotted
 70
   64
  3
-------    -    -    -    ------
 72
   65
 73
    8
 40
12.75
 49
6
 49
-1.5
 49
0.25
 49
-1.5
 49
0.25
 49
-1.5
 49
0.25
 49
-1.5
  0
LTYPE
  2
double-dashed_triplicate-dotted
 70
   64
  3
-----  ---------  -  -  -  -----
 72
   65
 73
   10
 40
20.25
 49
6
 49
-1.5
 49
6
 49
-1.5
 49
0.25
 49
-1.5
 49
0.25
 49
-1.5
 49
0.25
 49
-1.5
  0
LTYPE
  2
undefined
 70
   64
  3
--------------------------------
 72
   65
 73
    0
 40
0
  0
ENDTAB
  0
TABLE
  2
STYLE
  5
3
100
AcDbSymbolTable
 70
     1
  0
STYLE
  5
10
100
AcDbSymbolTableRecord
100
AcDbTextStyleTableRecord
  2
STANDARD
 70
     0
 40
0.0
 41
1.0
 50
0.0
 71
     0
 42
0.2
  3
txt
  4
bigfont.shx
  0
STYLE
  5
26
100
AcDbSymbolTableRecord
100
AcDbTextStyleTableRecord
  2
TATEGAKI
 70
    68
 40
0.0
 41
1.0
 50
0.0
 71
     0
 42
1.0
  3
txt
  4
bigfont.shx
  0
ENDTAB
  0
TABLE
  2
LAYER
 70
   10
  0
LAYER
  2
_0-0_計極細
 70
   64
 62
    7
  6
CONTINUOUS
  0
LAYER
  2
_0-1_計細線
 70
   64
 62
    7
  6
CONTINUOUS
  0
LAYER
  2
_0-5_寸法線
 70
   64
 62
    7
  6
CONTINUOUS
  0
LAYER
  2
_0-7_枠細線
 70
   64
 62
    7
  6
CONTINUOUS
  0
LAYER
  2
_0-8_枠中線
 70
   64
 62
    7
  6
CONTINUOUS
  0
LAYER
  2
_0-9_枠極太
 70
   64
 62
    7
  6
CONTINUOUS
  0
LAYER
  2
_0-a_極細3
 70
   64
 62
    7
  6
CONTINUOUS
  0
LAYER
  2
_0-b_細線3
 70
   64
 62
    7
  6
CONTINUOUS
  0
LAYER
  2
_0-d_寸法3
 70
   64
 62
    7
  6
CONTINUOUS
  0
LAYER
  2
ADD_LINE
 70
   64
 62
    7
  6
CONTINUOUS
  0
ENDTAB
  0
ENDSEC
  0
SECTION
  2
BLOCKS
  0
ENDSEC
  0
SECTION
  2
ENTITIES
  0
LINE
  8
_0-7_枠細線
  6
CONTINUOUS
 62
    5
 10
1185
 20
180
 11
1185
 21
100
  0
TEXT
  8
_0-7_枠細線
 62
    5
 10
937.5
 20
97.5
 40
17.5
 41
1
 50
0
  1
備考
  7
TATEGAKI
  0
TEXT
  8
_0-7_枠細線
 62
    5
 10
937.5
 20
137.5
 40
17.5
 41
1
 50
0
  1
品番
  7
TATEGAKI
  0
TEXT
  8
_0-7_枠細線
 62
    5
 10
937.5
 20
177.5
 40
17.5
 41
1
 50
0
  1
品名
  7
TATEGAKI
  0
LINE
  8
_0-7_枠細線
  6
CONTINUOUS
 62
    5
 10
1185
 20
140
 11
925
 21
140
  0
LINE
  8
_0-7_枠細線
  6
CONTINUOUS
 62
    5
 10
950
 20
180
 11
950
 21
60
  0
LINE
  8
_0-8_枠中線
  6
CONTINUOUS
 62
    5
 10
1425
 20
180
 11
925
 21
180
  0
LINE
  8
_0-8_枠中線
  6
CONTINUOUS
 62
    5
 10
925
 20
180
 11
925
 21
60
  0
LINE
  8
_0-7_枠細線
  6
CONTINUOUS
 62
    5
 10
1245
 20
180
 11
1245
 21
60
  0
TEXT
  8
_0-7_枠細線
 62
    5
 10
1192.5
 20
160
 40
15
 41
1
 50
0
  1
縮　尺
  0
LINE
  8
_0-7_枠細線
  6
CONTINUOUS
 62
    5
 10
1185
 20
155
 11
1245
 21
155
  0
LINE
  8
_0-7_枠細線
  6
CONTINUOUS
 62
    5
 10
1245
 20
100
 11
925
 21
100
  0
LINE
  8
_0-7_枠細線
  6
CONTINUOUS
 62
    5
 10
1425
 20
90
 11
1245
 21
90
  0
LINE
  8
_0-7_枠細線
  6
CONTINUOUS
 62
    5
 10
1245
 20
120
 11
1425
 21
120
  0
LINE
  8
_0-7_枠細線
  6
CONTINUOUS
 62
    5
 10
1425
 20
140
 11
1245
 21
140
  0
TEXT
  8
_0-7_枠細線
 62
    5
 10
1255
 20
147.5
 40
25
 41
0.8
 50
0
  1
株式会社シマブン
  0
TEXT
  8
_0-7_枠細線
 62
    5
 10
1252.5
 20
60
 40
15
 41
1
 50
0
  1
年月日
  0
TEXT
  8
_0-7_枠細線
 62
    5
 10
1252.5
 20
75
 40
15
 41
1
 50
0
  1
作　成
  0
TEXT
  8
_0-7_枠細線
 62
    5
 10
1256.25
 20
122.5
 40
15
 41
1
 50
0
  1
承 認
  0
LINE
  8
_0-7_枠細線
  6
CONTINUOUS
 62
    5
 10
1305
 20
140
 11
1305
 21
60
  0
TEXT
  8
_0-7_枠細線
 62
    5
 10
1316.25
 20
122.5
 40
15
 41
1
 50
0
  1
検 図
  0
LINE
  8
_0-7_枠細線
  6
CONTINUOUS
 62
    5
 10
1365
 20
140
 11
1365
 21
90
  0
TEXT
  8
_0-7_枠細線
 62
    5
 10
1375
 20
95
 40
20
 41
1
 50
0
  1
藤戸
  0
TEXT
  8
_0-7_枠細線
 62
    5
 10
1376.25
 20
122.5
 40
15
 41
1
 50
0
  1
設 計
  0
TEXT
  8
_0-7_枠細線
 62
    5
 10
1255
 20
95
 40
20
 41
1
 50
0
  1
隠塚
  0
TEXT
  8
_0-7_枠細線
 62
    5
 10
1315
 20
95
 40
20
 41
1
 50
0
  1
渋田
  0
TEXT
  8
_0-7_枠細線
 62
    5
 10
1193.9999999999998
 20
117.5
 40
20
 41
0.7000000000000001
 50
0
  1
１：５
  0
TEXT
  8
_0-7_枠細線
 62
    5
 10
960.5
 20
69.999999999999858
 40
20
 41
0.5999999999999998
 50
0
  1
品番・色については表参照のこと
  0
TEXT
  8
_0-7_枠細線
 62
    5
 10
1309.9999999999998
 20
67.499999999999929
 40
15.000000000000009
 41
0.6666666666666665
 50
0
  1
２０１０年０３月０１日
  0
TEXT
  8
_0-7_枠細線
 62
    5
 10
960.5
 20
158.74999999999994
 40
20.000000000000007
 41
0.5999999999999998
 50
0
  1
セーフティグレーチングＨ２０タイプ
  0
TEXT
  8
_0-7_枠細線
 62
    5
 10
1128.5
 20
141.25
 40
20.000000000000007
 41
0.5999999999999998
 50
0
  1
集水マス
  0
LINE
  8
_0-7_枠細線
  6
CONTINUOUS
 62
    5
 10
1425
 20
942.5
 11
890
 21
942.5
  0
TEXT
  8
_0-7_枠細線
 62
    5
 10
895
 20
945
 40
12.5
 41
1
 50
0
  1
記号
  0
TEXT
  8
_0-7_枠細線
 62
    5
 10
996.875
 20
945
 40
12.5
 41
1
 50
0
  1
訂　 正　 記　 事
  0
TEXT
  8
_0-7_枠細線
 62
    5
 10
1181.25
 20
945
 40
12.5
 41
1
 50
0
  1
訂 正 年 月 日
  0
TEXT
  8
_0-7_枠細線
 62
    5
 10
1306.25
 20
945
 40
12.5
 41
1
 50
0
  1
備　　　　　考
  0
LINE
  8
_0-7_枠細線
  6
CONTINUOUS
 62
    5
 10
1425
 20
925
 11
890
 21
925
  0
TEXT
  8
_0-7_枠細線
 62
    5
 10
938.85037037037023
 20
927.5
 40
12.5
 41
1
 50
0
  1
品番・色記号変更
  0
TEXT
  8
_0-7_枠細線
 62
    5
 10
1180
 20
927.5
 40
12.5
 41
0.7199999999999999
 50
0
  1
２０１３．０３．１３
  0
LINE
  8
_0-7_枠細線
  6
CONTINUOUS
 62
    5
 10
1425
 20
907.5
 11
890
 21
907.5
  0
LINE
  8
_0-7_枠細線
  6
CONTINUOUS
 62
    5
 10
1425
 20
890
 11
890
 21
890
  0
TEXT
  8
_0-7_枠細線
 62
    5
 10
938.85037037037023
 20
910
 40
12.5
 41
1
 50
0
  1
クロスバーピッチ変更
  0
TEXT
  8
_0-7_枠細線
 62
    5
 10
938.85037037037023
 20
892.5
 40
12.5
 41
1
 50
0
  1
取外具形状変更
  0
TEXT
  8
_0-7_枠細線
 62
    5
 10
1180
 20
910
 40
12.5
 41
0.7199999999999999
 50
0
  1
２０１５．１１．２０
  0
LINE
  8
_0-7_枠細線
  6
CONTINUOUS
 62
    5
 10
915
 20
908.94233397174685
 11
907.5
 21
923.94233397174685
  0
LINE
  8
_0-7_枠細線
  6
CONTINUOUS
 62
    5
 10
900
 20
908.94233397174685
 11
915
 21
908.94233397174685
  0
LINE
  8
_0-7_枠細線
  6
CONTINUOUS
 62
    5
 10
907.5
 20
923.94233397174685
 11
900
 21
908.94233397174685
  0
TEXT
  8
_0-7_枠細線
 62
    5
 10
902.36515126814822
 20
908.63533172636664
 40
12.5
 41
0.8
 50
0
  1
１
  0
TEXT
  8
_0-7_枠細線
 62
    5
 10
902.36515126814822
 20
891.13533172636664
 40
12.5
 41
0.8
 50
0
  1
２
  0
LINE
  8
_0-7_枠細線
  6
CONTINUOUS
 62
    5
 10
1425
 20
872.5
 11
890
 21
872.5
  0
LINE
  8
_0-7_枠細線
  6
CONTINUOUS
 62
    5
 10
907.5
 20
906.44233397174685
 11
900
 21
891.44233397174685
  0
LINE
  8
_0-7_枠細線
  6
CONTINUOUS
 62
    5
 10
900
 20
891.44233397174685
 11
915
 21
891.44233397174685
  0
LINE
  8
_0-7_枠細線
  6
CONTINUOUS
 62
    5
 10
915
 20
891.44233397174685
 11
907.5
 21
906.44233397174685
  0
TEXT
  8
_0-7_枠細線
 62
    5
 10
902.36515126814822
 20
873.39465008156549
 40
12.5
 41
0.8
 50
0
  1
３
  0
TEXT
  8
_0-7_枠細線
 62
    5
 10
1180
 20
875
 40
12.5
 41
0.7199999999999999
 50
0
  1
２０１７．０４．０１
  0
LINE
  8
_0-7_枠細線
  6
CONTINUOUS
 62
    5
 10
915
 20
856.44233397174685
 11
907.5
 21
871.44233397174685
  0
LINE
  8
_0-7_枠細線
  6
CONTINUOUS
 62
    5
 10
900
 20
856.44233397174685
 11
915
 21
856.44233397174685
  0
LINE
  8
_0-7_枠細線
  6
CONTINUOUS
 62
    5
 10
907.5
 20
871.44233397174685
 11
900
 21
856.44233397174685
  0
TEXT
  8
_0-7_枠細線
 62
    5
 10
1180
 20
857.5
 40
12.5
 41
0.7199999999999999
 50
0
  1
２０１７．０４．０１
  0
TEXT
  8
_0-7_枠細線
 62
    5
 10
938.85037037037023
 20
857.5
 40
12.5
 41
1
 50
0
  1
ブラウン色（Ｃ）追加
  0
LINE
  8
_0-7_枠細線
  6
CONTINUOUS
 62
    5
 10
1425
 20
855
 11
890
 21
855
  0
LINE
  8
_0-7_枠細線
  6
CONTINUOUS
 62
    5
 10
907.5
 20
888.94233397174685
 11
900
 21
873.94233397174685
  0
LINE
  8
_0-7_枠細線
  6
CONTINUOUS
 62
    5
 10
900
 20
873.94233397174685
 11
915
 21
873.94233397174685
  0
LINE
  8
_0-7_枠細線
  6
CONTINUOUS
 62
    5
 10
915
 20
873.94233397174685
 11
907.5
 21
888.94233397174685
  0
TEXT
  8
_0-7_枠細線
 62
    5
 10
902.36515126814822
 20
855.49351400689704
 40
12.5
 41
0.8
 50
0
  1
４
  0
TEXT
  8
_0-7_枠細線
 62
    5
 10
938.85037037037023
 20
875
 40
12.5
 41
1
 50
0
  1
取外具形状変更
  0
TEXT
  8
_0-7_枠細線
 62
    5
 10
1180
 20
892.5
 40
12.5
 41
0.7199999999999999
 50
0
  1
２０１５．１１．２０
  0
LINE
  8
_0-9_枠極太
  6
CONTINUOUS
 62
    5
 10
60
 20
60
 11
60
 21
960
  0
LINE
  8
_0-9_枠極太
  6
CONTINUOUS
 62
    5
 10
60
 20
960
 11
1425
 21
960
  0
LINE
  8
_0-9_枠極太
  6
CONTINUOUS
 62
    5
 10
1425
 20
960
 11
1425
 21
60
  0
LINE
  8
_0-9_枠極太
  6
CONTINUOUS
 62
    5
 10
1425
 20
60
 11
60
 21
60
  0
LINE
  8
_0-7_枠細線
  6
CONTINUOUS
 62
    5
 10
915
 20
838.94233397174685
 11
907.5
 21
853.94233397174685
  0
LINE
  8
_0-7_枠細線
  6
CONTINUOUS
 62
    5
 10
900
 20
838.94233397174685
 11
915
 21
838.94233397174685
  0
LINE
  8
_0-7_枠細線
  6
CONTINUOUS
 62
    5
 10
907.5
 20
853.94233397174685
 11
900
 21
838.94233397174685
  0
LINE
  8
_0-7_枠細線
  6
CONTINUOUS
 62
    5
 10
1425
 20
837.5
 11
890
 21
837.5
  0
TEXT
  8
_0-7_枠細線
 62
    5
 10
1180
 20
840
 40
12.5
 41
0.7199999999999999
 50
0
  1
２０１９．０９．０１
  0
TEXT
  8
_0-7_枠細線
 62
    5
 10
902.36515126814822
 20
837.99351400689704
 40
12.5
 41
0.8
 50
0
  1
５
  0
TEXT
  8
_0-7_枠細線
 62
    5
 10
938.85037037037023
 20
840
 40
12.5
 41
1
 50
0
  1
アンカー材質･厚み変更
  0
LINE
  8
_0-7_枠細線
  6
CONTINUOUS
 62
    5
 10
1275
 20
837.5
 11
1275
 21
959.99999999999909
  0
LINE
  8
_0-7_枠細線
  6
CONTINUOUS
 62
    5
 10
1175
 20
837.5
 11
1175
 21
959.99999999999909
  0
LINE
  8
_0-7_枠細線
  6
CONTINUOUS
 62
    5
 10
925
 20
837.5
 11
925
 21
959.99999999999909
  0
LINE
  8
_0-7_枠細線
  6
CONTINUOUS
 62
    5
 10
890
 20
837.5
 11
890
 21
959.99999999999909
  0
TEXT
  8
_0-7_枠細線
 62
    5
 10
960.5
 20
109.99999999999993
 40
20.000000000000007
 41
0.5999999999999998
 50
0
  1
ＧＲＳ－２０Ｋ１５０
  0
LINE
  8
_0-7_枠細線
  6
CONTINUOUS
 62
    5
 10
925
 20
323.73000000000059
 11
1225.0000000000005
 21
323.73000000000059
  0
LINE
  8
_0-7_枠細線
  6
CONTINUOUS
 62
    5
 10
925
 20
348.73000000000047
 11
1225.0000000000005
 21
348.73000000000047
  0
LINE
  8
_0-7_枠細線
  6
CONTINUOUS
 62
    5
 10
925
 20
373.73000000000047
 11
1225.0000000000005
 21
373.73000000000047
  0
LINE
  8
_0-7_枠細線
  6
CONTINUOUS
 62
    5
 10
925
 20
398.73000000000076
 11
1225.0000000000005
 21
398.73000000000076
  0
TEXT
  8
_0-7_枠細線
 62
    5
 10
1048.0000000000005
 20
403.73000000000076
 40
15
 41
0.5999999999999999
 50
0
  1
ライトグレー
  0
LINE
  8
_0-7_枠細線
  6
CONTINUOUS
 62
    5
 10
925
 20
423.73000000000047
 11
1225.0000000000005
 21
423.73000000000047
  0
TEXT
  8
_0-7_枠細線
 62
    5
 10
1057.0000000000005
 20
428.73000000000047
 40
15
 41
0.5999999999999999
 50
0
  1
ベージュ
  0
LINE
  8
_0-7_枠細線
  6
CONTINUOUS
 62
    5
 10
925
 20
448.73000000000047
 11
1225.0000000000005
 21
448.73000000000047
  0
TEXT
  8
_0-7_枠細線
 62
    5
 10
1069.0000000000005
 20
453.73000000000047
 40
15
 41
0.8000000000000001
 50
0
  1
色
  0
TEXT
  8
_0-7_枠細線
 62
    5
 10
951.00000000000034
 20
453.73000000000047
 40
15
 41
0.8000000000000001
 50
0
  1
品　　番
  0
TEXT
  8
_0-7_枠細線
 62
    5
 10
1151.0000000000005
 20
453.73000000000047
 40
15
 41
0.8000000000000001
 50
0
  1
備　　考
  0
LINE
  8
_0-7_枠細線
  6
CONTINUOUS
 62
    5
 10
925
 20
473.73000000000047
 11
1225.0000000000005
 21
473.73000000000047
  0
TEXT
  8
_0-7_枠細線
 62
    5
 10
1013.75
 20
478.73000000000047
 40
17.5
 41
1
 50
0
  1
品番表
  0
LINE
  8
_0-7_枠細線
  6
CONTINUOUS
 62
    5
 10
925
 20
248.73000000000033
 11
1225.0000000000005
 21
248.73000000000033
  0
LINE
  8
_0-7_枠細線
  6
CONTINUOUS
 62
    5
 10
925
 20
273.73000000000059
 11
1225.0000000000005
 21
273.73000000000059
  0
LINE
  8
_0-7_枠細線
  6
CONTINUOUS
 62
    5
 10
925
 20
298.7300000000007
 11
1225.0000000000005
 21
298.7300000000007
  0
TEXT
  8
_0-7_枠細線
 62
    5
 10
1057.0000000000009
 20
378.7300000000007
 40
15
 41
0.5999999999999999
 50
0
  1
ホワイト
  0
TEXT
  8
_0-7_枠細線
 62
    5
 10
1061.5000000000005
 20
353.73000000000047
 40
15
 41
0.5999999999999999
 50
0
  1
ピンク
  0
TEXT
  8
_0-7_枠細線
 62
    5
 10
1061.5000000000005
 20
328.73000000000047
 40
15
 41
0.5999999999999999
 50
0
  1
ブルー
  0
TEXT
  8
_0-7_枠細線
 62
    5
 10
1048
 20
303.73000000000059
 40
15
 41
0.5999999999999999
 50
0
  1
ダークグレー
  0
TEXT
  8
_0-7_枠細線
 62
    5
 10
1061.5000000000005
 20
278.7300000000007
 40
15
 41
0.5999999999999999
 50
0
  1
ウッド
  0
LINE
  8
_0-7_枠細線
  6
CONTINUOUS
 62
    5
 10
925
 20
223.73000000000002
 11
1225.0000000000005
 21
223.73000000000002
  0
TEXT
  8
_0-7_枠細線
 62
    5
 10
1057.0000000000009
 20
228.73000000000013
 40
15
 41
0.5999999999999999
 50
0
  1
ブラック
  0
LINE
  8
_0-7_枠細線
  6
CONTINUOUS
 62
    5
 10
1225.0000000000005
 20
473.73000000000047
 11
1225.0000000000005
 21
223.73000000000002
  0
LINE
  8
_0-7_枠細線
  6
CONTINUOUS
 62
    5
 10
1125
 20
473.73000000000047
 11
1125
 21
223.73000000000002
  0
LINE
  8
_0-7_枠細線
  6
CONTINUOUS
 62
    5
 10
1025.0000000000005
 20
473.73000000000047
 11
1025.0000000000005
 21
223.73000000000002
  0
LINE
  8
_0-7_枠細線
  6
CONTINUOUS
 62
    5
 10
925
 20
473.73000000000047
 11
925
 21
223.73000000000002
  0
TEXT
  8
_0-7_枠細線
 62
    5
 10
1057.0000000000005
 20
253.73000000000033
 40
15
 41
0.5999999999999999
 50
0
  1
ブラウン
  0
LINE
  8
_0-7_枠細線
  6
CONTINUOUS
 62
    5
 10
918.52762466555532
 20
254.30604122127349
 11
911.02762466555532
 21
269.30604122127352
  0
LINE
  8
_0-7_枠細線
  6
CONTINUOUS
 62
    5
 10
903.52762466555532
 20
254.30604122127349
 11
918.52762466555532
 21
254.30604122127349
  0
LINE
  8
_0-7_枠細線
  6
CONTINUOUS
 62
    5
 10
911.02762466555532
 20
269.30604122127352
 11
903.52762466555532
 21
254.30604122127349
  0
TEXT
  8
_0-7_枠細線
 62
    5
 10
905.89277593370343
 20
253.3572212564236
 40
12.5
 41
0.8
 50
0
  1
４
  0
TEXT
  8
_0-7_枠細線
 62
    5
 10
930.00000000000045
 20
428.73000000000047
 40
15
 41
0.5
 50
0
  1
ＧＲＳ－２０Ｋ１５０－Ｂ
  0
TEXT
  8
_0-7_枠細線
 62
    5
 10
930.00000000000045
 20
403.73000000000047
 40
15
 41
0.5
 50
0
  1
ＧＲＳ－２０Ｋ１５０－Ｇ
  0
TEXT
  8
_0-7_枠細線
 62
    5
 10
930.00000000000045
 20
378.7300000000007
 40
15
 41
0.5
 50
0
  1
ＧＲＳ－２０Ｋ１５０－Ｓ
  0
TEXT
  8
_0-7_枠細線
 62
    5
 10
930.00000000000045
 20
353.73000000000047
 40
15
 41
0.5
 50
0
  1
ＧＲＳ－２０Ｋ１５０－Ｐ
  0
TEXT
  8
_0-7_枠細線
 62
    5
 10
930.00000000000045
 20
328.73000000000047
 40
15
 41
0.5
 50
0
  1
ＧＲＳ－２０Ｋ１５０－Ａ
  0
TEXT
  8
_0-7_枠細線
 62
    5
 10
930.00000000000045
 20
303.73000000000059
 40
15
 41
0.5
 50
0
  1
ＧＲＳ－２０Ｋ１５０－Ｄ
  0
TEXT
  8
_0-7_枠細線
 62
    5
 10
930.00000000000045
 20
278.7300000000007
 40
15
 41
0.5
 50
0
  1
ＧＲＳ－２０Ｋ１５０－Ｍ
  0
TEXT
  8
_0-7_枠細線
 62
    5
 10
930.00000000000045
 20
253.73000000000033
 40
15
 41
0.5
 50
0
  1
ＧＲＳ－２０Ｋ１５０－Ｃ
  0
TEXT
  8
_0-7_枠細線
 62
    5
 10
930.00000000000045
 20
228.73000000000013
 40
15
 41
0.5
 50
0
  1
ＧＲＳ－２０Ｋ１５０－Ｋ
  0
LINE
  8
_0-7_枠細線
  6
CONTINUOUS
 62
    5
 10
1270.7300000000005
 20
393.73000000000059
 11
1270.7300000000005
 21
473.73000000000059
  0
TEXT
  8
_0-7_枠細線
 62
    5
 10
1293.2300000000007
 20
451.23000000000059
 40
15
 41
1
 50
0
  1
耐荷重
  0
TEXT
  8
_0-7_枠細線
 62
    5
 10
1285.7300000000007
 20
421.23000000000059
 40
15
 41
1
 50
0
  1
3.5kN/㎡
  0
TEXT
  8
_0-7_枠細線
 62
    5
 10
1278.2300000000005
 20
401.23000000000059
 40
15
 41
1
 50
0
  1
（歩道用）
  0
LINE
  8
_0-7_枠細線
  6
CONTINUOUS
 62
    5
 10
1360.7300000000007
 20
393.73000000000059
 11
1360.7300000000007
 21
473.73000000000059
  0
LINE
  8
_0-7_枠細線
  6
CONTINUOUS
 62
    5
 10
1270.7300000000005
 20
393.73000000000059
 11
1360.7300000000007
 21
393.73000000000059
  0
LINE
  8
_0-7_枠細線
  6
CONTINUOUS
 62
    5
 10
1270.7300000000005
 20
443.73000000000059
 11
1360.7300000000007
 21
443.73000000000059
  0
LINE
  8
_0-7_枠細線
  6
CONTINUOUS
 62
    5
 10
1270.7300000000005
 20
473.73000000000059
 11
1360.7300000000007
 21
473.73000000000059
  0
LINE
  8
_0-1_計細線
  6
CONTINUOUS
 62
    3
 10
1096.0500000001812
 20
676.36024125980737
 11
1096.0500000001812
 21
656.36024125980714
  0
LINE
  8
_0-1_計細線
  6
CONTINUOUS
 62
    3
 10
1091.3500000001804
 20
656.36024125980714
 11
1091.3500000001804
 21
676.36024125980737
  0
LINE
  8
_0-1_計細線
  6
CONTINUOUS
 62
    3
 10
1096.0500000001812
 20
656.36024125980714
 11
1091.3500000001804
 21
656.36024125980714
  0
LINE
  8
_0-1_計細線
  6
CONTINUOUS
 62
    3
 10
1091.3500000001804
 20
676.36024125980737
 11
1096.0500000001812
 21
676.36024125980737
  0
LINE
  8
_0-1_計細線
  6
DASHED2
 62
    3
 10
1091.3500000001804
 20
659.36024125980703
 11
1096.0500000001812
 21
659.36024125980703
  0
LINE
  8
_0-1_計細線
  6
DASHED2
 62
    3
 10
1091.3500000001804
 20
673.36024125980748
 11
1096.0500000001812
 21
673.36024125980748
  0
LINE
  8
_0-1_計細線
  6
CONTINUOUS
 62
    3
 10
1086.7000000001317
 20
658.45999999999992
 11
1091.3500000001804
 21
658.45999999999992
  0
LINE
  8
_0-1_計細線
  6
CONTINUOUS
 62
    3
 10
1096.0500000001812
 20
658.45999999999992
 11
1100.7000000005301
 21
658.45999999999992
  0
LINE
  8
_0-1_計細線
  6
CONTINUOUS
 62
    3
 10
1086.6464041983827
 20
671.46000000000004
 11
1091.3500000001804
 21
671.46000000000004
  0
LINE
  8
_0-1_計細線
  6
CONTINUOUS
 62
    3
 10
1096.0500000001812
 20
671.46000000000004
 11
1100.7000000005301
 21
671.46000000000004
  0
LINE
  8
_0-1_計細線
  6
CONTINUOUS
 62
    3
 10
1121.5000000012537
 20
671.46000000000004
 11
1135.5000000012537
 21
671.46000000000004
  0
LINE
  8
_0-1_計細線
  6
CONTINUOUS
 62
    3
 10
1104.1000000008921
 20
671.46000000000004
 11
1118.1000000008921
 21
671.46000000000004
  0
LINE
  8
_0-1_計細線
  6
CONTINUOUS
 62
    3
 10
1069.3000000001684
 20
671.46000000000004
 11
1083.3000000001684
 21
671.46000000000004
  0
LINE
  8
_0-1_計細線
  6
CONTINUOUS
 62
    3
 10
1051.8999999998068
 20
671.46000000000004
 11
1065.8999999998068
 21
671.46000000000004
  0
LINE
  8
_0-1_計細線
  6
CONTINUOUS
 62
    3
 10
1034.4999999994448
 20
671.46000000000004
 11
1048.4999999994448
 21
671.46000000000004
  0
LINE
  8
_0-1_計細線
  6
CONTINUOUS
 62
    3
 10
1138.9000000016154
 20
671.46000000000004
 11
1152.6000000016156
 21
671.46000000000004
  0
LINE
  8
_0-1_計細線
  6
CONTINUOUS
 62
    3
 10
1017.3999999990829
 20
671.46000000000004
 11
1031.0999999990831
 21
671.46000000000004
  0
LINE
  8
_0-1_計細線
  6
CONTINUOUS
 62
    3
 10
1121.5000000012537
 20
658.45999999999992
 11
1135.5000000012537
 21
658.45999999999992
  0
LINE
  8
_0-1_計細線
  6
CONTINUOUS
 62
    3
 10
1104.1000000008921
 20
658.45999999999992
 11
1118.1000000008917
 21
658.45999999999992
  0
LINE
  8
_0-1_計細線
  6
CONTINUOUS
 62
    3
 10
1069.300000000168
 20
658.45999999999992
 11
1083.3000000001684
 21
658.45999999999992
  0
LINE
  8
_0-1_計細線
  6
CONTINUOUS
 62
    3
 10
1051.8999999998068
 20
658.45999999999992
 11
1065.8999999998064
 21
658.45999999999992
  0
LINE
  8
_0-1_計細線
  6
CONTINUOUS
 62
    3
 10
1034.4999999994448
 20
658.45999999999992
 11
1048.4999999994448
 21
658.45999999999992
  0
LINE
  8
_0-1_計細線
  6
CONTINUOUS
 62
    3
 10
1138.9000000016154
 20
658.45999999999992
 11
1152.6000000016152
 21
658.45999999999992
  0
LINE
  8
_0-1_計細線
  6
CONTINUOUS
 62
    3
 10
1017.3999999990829
 20
658.45999999999992
 11
1031.0999999990827
 21
658.45999999999992
  0
ARC
  8
_0-1_計細線
  6
CONTINUOUS
 62
    3
 10
1080.3000000011039
 20
674.15999999999997
 40
1
 50
89.999999999999915
 51
179.99999999999983
  0
ARC
  8
_0-1_計細線
  6
CONTINUOUS
 62
    3
 10
1080.7679491924309
 20
676.16000000000008
 40
1
 50
269.99999999999977
 51
329.9999999999967
  0
ARC
  8
_0-1_計細線
  6
CONTINUOUS
 62
    3
 10
1082.5
 20
675.1600000000002
 40
1
 50
89.999999999999915
 51
150.00000000001401
  0
LINE
  8
_0-1_計細線
  6
CONTINUOUS
 62
    3
 10
1080.3000000011039
 20
675.1600000000002
 11
1080.7679491924309
 21
675.1600000000002
  0
ARC
  8
_0-1_計細線
  6
CONTINUOUS
 62
    3
 10
1089.6999999988966
 20
674.15999999999997
 40
1
 50
0
 51
89.999999999999915
  0
ARC
  8
_0-1_計細線
  6
CONTINUOUS
 62
    3
 10
1089.2320508075691
 20
676.16000000000008
 40
1
 50
210.00000000000256
 51
269.99999999999977
  0
ARC
  8
_0-1_計細線
  6
CONTINUOUS
 62
    3
 10
1087.5
 20
675.1600000000002
 40
1
 50
29.999999999986002
 51
89.999999999973952
  0
LINE
  8
_0-1_計細線
  6
CONTINUOUS
 62
    3
 10
1089.6999999988966
 20
675.1600000000002
 11
1089.2320508075691
 21
675.1600000000002
  0
ARC
  8
_0-1_計細線
  6
CONTINUOUS
 62
    3
 10
1079.8000000011039
 20
672.76000000000022
 40
0.5
 50
179.99999999999983
 51
269.99999999999977
  0
LINE
  8
_0-1_計細線
  6
CONTINUOUS
 62
    3
 10
1079.3000000011034
 20
674.15999999999997
 11
1079.3000000011034
 21
672.76000000000022
  0
ARC
  8
_0-1_計細線
  6
CONTINUOUS
 62
    3
 10
1090.1999999988966
 20
672.76000000000022
 40
0.5
 50
269.99999999999977
 51
359.99999999999966
  0
LINE
  8
_0-1_計細線
  6
CONTINUOUS
 62
    3
 10
1090.6999999988966
 20
674.15999999999997
 11
1090.6999999988966
 21
672.76000000000022
  0
ARC
  8
_0-1_計細線
  6
CONTINUOUS
 62
    3
 10
1082.3000000011034
 20
671.26000000000022
 40
1
 50
0
 51
89.999999999999915
  0
LINE
  8
_0-1_計細線
  6
CONTINUOUS
 62
    3
 10
1082.3000000011034
 20
672.2600000000001
 11
1079.8000000011039
 21
672.2600000000001
  0
ARC
  8
_0-1_計細線
  6
CONTINUOUS
 62
    3
 10
1087.7000000011035
 20
671.26000000000022
 40
1
 50
89.999999999999915
 51
179.99999999999983
  0
LINE
  8
_0-1_計細線
  6
CONTINUOUS
 62
    3
 10
1087.6999999988961
 20
672.2600000000001
 11
1090.1999999988966
 21
672.2600000000001
  0
LINE
  8
_0-1_計細線
  6
CONTINUOUS
 62
    3
 10
1087.5
 20
676.16000000000008
 11
1082.5
 21
676.16000000000008
  0
LINE
  8
_0-1_計細線
  6
CONTINUOUS
 62
    3
 10
1083.3000000000002
 20
656.15999999999997
 11
1083.3000000011039
 21
671.26000000000022
  0
LINE
  8
_0-1_計細線
  6
CONTINUOUS
 62
    3
 10
1086.6999999999998
 20
656.15999999999997
 11
1086.7000000011039
 21
671.26000000000022
  0
LINE
  8
_0-1_計細線
  6
CONTINUOUS
 62
    3
 10
1086.6999999999998
 20
656.15999999999997
 11
1083.3000000000002
 21
656.15999999999997
  0
LINE
  8
_0-1_計細線
  6
CONTINUOUS
 62
    3
 10
1157.5503438047131
 20
664.96000000000026
 11
1160.554859804713
 21
664.96000000000026
  0
LINE
  8
_0-1_計細線
  6
CONTINUOUS
 62
    3
 10
1157.5503438047131
 20
661.4600000000006
 11
1160.5548718047125
 21
661.4600000000006
  0
ARC
  8
_0-1_計細線
  6
CONTINUOUS
 62
    3
 10
1160.5548718047125
 20
661.66000000000042
 40
0.2000000000000001
 50
269.99999999999977
 51
359.99999999999966
  0
ARC
  8
_0-1_計細線
  6
CONTINUOUS
 62
    3
 10
1152.996891804713
 20
663.20985400000086
 40
7.7579560000000001
 50
346.96432999999968
 51
13.038021999994573
  0
ARC
  8
_0-1_計細線
  6
CONTINUOUS
 62
    3
 10
1160.5548718047125
 20
668.26000000000067
 40
0.2000000000000001
 50
0
 51
89.999999999999915
  0
ARC
  8
_0-1_計細線
  6
CONTINUOUS
 62
    3
 10
1152.996891804713
 20
666.71014400000013
 40
7.7579560000000001
 50
346.96197800000141
 51
13.035669999999625
  0
LINE
  8
_0-1_計細線
  6
CONTINUOUS
 62
    3
 10
1157.5503438047131
 20
668.46000000000049
 11
1160.5548718047125
 21
668.46000000000049
  0
LINE
  8
_0-1_計細線
  6
CONTINUOUS
 62
    3
 10
1160.7548718047128
 20
661.66000000000042
 11
1160.7548718047128
 21
668.26000000000067
  0
ARC
  8
_0-1_計細線
  6
CONTINUOUS
 62
    3
 10
1157.3503438047128
 20
658.66000000000031
 40
0.2000000000000001
 50
269.99999999999977
 51
359.99999999999966
  0
LINE
  8
_0-1_計細線
  6
CONTINUOUS
 62
    3
 10
1156.0535958047126
 20
658.46000000000026
 11
1157.3503438047128
 21
658.46000000000026
  0
ARC
  8
_0-1_計細線
  6
CONTINUOUS
 62
    3
 10
1157.3503438047128
 20
671.25999999999999
 40
0.2000000000000001
 50
0
 51
89.999999999999915
  0
LINE
  8
_0-1_計細線
  6
CONTINUOUS
 62
    3
 10
1156.0535958047126
 20
671.46000000000049
 11
1157.3503438047128
 21
671.46000000000049
  0
LINE
  8
_0-1_計細線
  6
CONTINUOUS
 62
    3
 10
1157.5503438047131
 20
664.46000000000026
 11
1157.5503438047131
 21
658.66000000000031
  0
LINE
  8
_0-1_計細線
  6
CONTINUOUS
 62
    3
 10
1157.5503438047131
 20
671.25999999999999
 11
1157.5503438047131
 21
664.46000000000026
  0
LINE
  8
_0-1_計細線
  6
CONTINUOUS
 62
    3
 10
1012.5568478007144
 20
664.96000000000026
 11
1009.5523318007145
 21
664.96000000000026
  0
LINE
  8
_0-1_計細線
  6
CONTINUOUS
 62
    3
 10
1012.5568478007144
 20
661.4600000000006
 11
1009.5523198007151
 21
661.4600000000006
  0
ARC
  8
_0-1_計細線
  6
CONTINUOUS
 62
    3
 10
1009.5523198007151
 20
661.66000000000042
 40
0.2000000000000001
 50
179.99999999999983
 51
269.99999999999977
  0
ARC
  8
_0-1_計細線
  6
CONTINUOUS
 62
    3
 10
1017.1102998007145
 20
663.20985400000086
 40
7.7579560000000001
 50
166.96197800000505
 51
193.03566999999961
  0
ARC
  8
_0-1_計細線
  6
CONTINUOUS
 62
    3
 10
1009.5523198007151
 20
668.26000000000067
 40
0.2000000000000001
 50
89.999999999999915
 51
179.99999999999983
  0
ARC
  8
_0-1_計細線
  6
CONTINUOUS
 62
    3
 10
1017.1102998007145
 20
666.71014400000013
 40
7.7579560000000001
 50
166.96433000000002
 51
193.03802199999785
  0
LINE
  8
_0-1_計細線
  6
CONTINUOUS
 62
    3
 10
1012.5568478007144
 20
668.46000000000049
 11
1009.5523198007151
 21
668.46000000000049
  0
LINE
  8
_0-1_計細線
  6
CONTINUOUS
 62
    3
 10
1009.3523198007148
 20
661.66000000000042
 11
1009.3523198007148
 21
668.26000000000067
  0
ARC
  8
_0-1_計細線
  6
CONTINUOUS
 62
    3
 10
1012.7568478007147
 20
658.66000000000031
 40
0.2000000000000001
 50
179.99999999999983
 51
269.99999999999977
  0
LINE
  8
_0-1_計細線
  6
CONTINUOUS
 62
    3
 10
1014.0535958007149
 20
658.46000000000026
 11
1012.7568478007147
 21
658.46000000000026
  0
ARC
  8
_0-1_計細線
  6
CONTINUOUS
 62
    3
 10
1012.7568478007147
 20
671.25999999999999
 40
0.2000000000000001
 50
89.999999999999915
 51
179.99999999999983
  0
LINE
  8
_0-1_計細線
  6
CONTINUOUS
 62
    3
 10
1014.0535958007149
 20
671.46000000000049
 11
1012.7568478007147
 21
671.46000000000049
  0
LINE
  8
_0-1_計細線
  6
CONTINUOUS
 62
    3
 10
1012.5568478007144
 20
664.46000000000026
 11
1012.5568478007144
 21
658.66000000000031
  0
LINE
  8
_0-1_計細線
  6
CONTINUOUS
 62
    3
 10
1012.5568478007144
 20
671.25999999999999
 11
1012.5568478007144
 21
664.46000000000026
  0
ARC
  8
_0-1_計細線
  6
CONTINUOUS
 62
    3
 10
1149.600000002551
 20
674.15999999999997
 40
1
 50
89.999999999999915
 51
179.99999999999983
  0
ARC
  8
_0-1_計細線
  6
CONTINUOUS
 62
    3
 10
1150.0679491938781
 20
676.16000000000008
 40
1
 50
269.99999999999977
 51
329.9999999999967
  0
ARC
  8
_0-1_計細線
  6
CONTINUOUS
 62
    3
 10
1151.8000000014472
 20
675.1600000000002
 40
1
 50
89.999999999999915
 51
150.00000000001401
  0
LINE
  8
_0-1_計細線
  6
CONTINUOUS
 62
    3
 10
1149.600000002551
 20
675.1600000000002
 11
1150.0679491938781
 21
675.1600000000002
  0
ARC
  8
_0-1_計細線
  6
CONTINUOUS
 62
    3
 10
1159.0000000003438
 20
674.15999999999997
 40
1
 50
0
 51
89.999999999999915
  0
ARC
  8
_0-1_計細線
  6
CONTINUOUS
 62
    3
 10
1158.5320508090163
 20
676.16000000000008
 40
1
 50
210.00000000000256
 51
269.99999999999977
  0
ARC
  8
_0-1_計細線
  6
CONTINUOUS
 62
    3
 10
1156.8000000014472
 20
675.1600000000002
 40
1
 50
29.999999999986002
 51
89.999999999999901
  0
LINE
  8
_0-1_計細線
  6
CONTINUOUS
 62
    3
 10
1159.0000000003438
 20
675.1600000000002
 11
1158.5320508090163
 21
675.1600000000002
  0
ARC
  8
_0-1_計細線
  6
CONTINUOUS
 62
    3
 10
1149.100000002551
 20
672.76000000000022
 40
0.5
 50
179.99999999999983
 51
269.99999999999977
  0
LINE
  8
_0-1_計細線
  6
CONTINUOUS
 62
    3
 10
1148.6000000025506
 20
674.15999999999997
 11
1148.6000000025506
 21
672.76000000000022
  0
ARC
  8
_0-1_計細線
  6
CONTINUOUS
 62
    3
 10
1159.5000000003438
 20
672.76000000000022
 40
0.5
 50
269.99999999999977
 51
359.99999999999966
  0
LINE
  8
_0-1_計細線
  6
CONTINUOUS
 62
    3
 10
1160.0000000003438
 20
674.15999999999997
 11
1160.0000000003438
 21
672.76000000000022
  0
ARC
  8
_0-1_計細線
  6
CONTINUOUS
 62
    3
 10
1151.6000000025506
 20
671.26000000000022
 40
1
 50
0
 51
89.999999999999915
  0
LINE
  8
_0-1_計細線
  6
CONTINUOUS
 62
    3
 10
1151.6000000025506
 20
672.2600000000001
 11
1149.100000002551
 21
672.2600000000001
  0
ARC
  8
_0-1_計細線
  6
CONTINUOUS
 62
    3
 10
1157.0000000025507
 20
671.26000000000022
 40
1
 50
89.999999999999915
 51
179.99999999999983
  0
LINE
  8
_0-1_計細線
  6
CONTINUOUS
 62
    3
 10
1157.0000000003433
 20
672.2600000000001
 11
1159.5000000003438
 21
672.2600000000001
  0
LINE
  8
_0-1_計細線
  6
CONTINUOUS
 62
    3
 10
1156.8000000014472
 20
676.16000000000008
 11
1151.8000000014472
 21
676.16000000000008
  0
LINE
  8
_0-1_計細線
  6
CONTINUOUS
 62
    3
 10
1152.6000000014474
 20
656.15999999999997
 11
1152.600000002551
 21
671.26000000000022
  0
LINE
  8
_0-1_計細線
  6
CONTINUOUS
 62
    3
 10
1156.0000000014475
 20
656.15999999999997
 11
1156.0000000025511
 21
671.26000000000022
  0
LINE
  8
_0-1_計細線
  6
CONTINUOUS
 62
    3
 10
1156.0000000014475
 20
656.15999999999997
 11
1152.6000000014474
 21
656.15999999999997
  0
ARC
  8
_0-1_計細線
  6
CONTINUOUS
 62
    3
 10
1132.5000000021892
 20
674.15999999999997
 40
1
 50
89.999999999999915
 51
179.99999999999983
  0
ARC
  8
_0-1_計細線
  6
CONTINUOUS
 62
    3
 10
1132.9679491935167
 20
676.16000000000008
 40
1
 50
269.99999999999977
 51
329.99999999998369
  0
ARC
  8
_0-1_計細線
  6
CONTINUOUS
 62
    3
 10
1134.7000000010853
 20
675.1600000000002
 40
1
 50
89.999999999999915
 51
150.00000000001401
  0
LINE
  8
_0-1_計細線
  6
CONTINUOUS
 62
    3
 10
1132.5000000021892
 20
675.1600000000002
 11
1132.9679491935167
 21
675.1600000000002
  0
ARC
  8
_0-1_計細線
  6
CONTINUOUS
 62
    3
 10
1141.8999999999819
 20
674.15999999999997
 40
1
 50
0
 51
89.999999999999915
  0
ARC
  8
_0-1_計細線
  6
CONTINUOUS
 62
    3
 10
1141.4320508086544
 20
676.16000000000008
 40
1
 50
210.00000000000256
 51
269.99999999999977
  0
ARC
  8
_0-1_計細線
  6
CONTINUOUS
 62
    3
 10
1139.7000000010853
 20
675.1600000000002
 40
1
 50
29.999999999986002
 51
89.999999999973952
  0
LINE
  8
_0-1_計細線
  6
CONTINUOUS
 62
    3
 10
1141.8999999999819
 20
675.1600000000002
 11
1141.4320508086544
 21
675.1600000000002
  0
ARC
  8
_0-1_計細線
  6
CONTINUOUS
 62
    3
 10
1132.0000000021892
 20
672.76000000000022
 40
0.5
 50
179.99999999999983
 51
269.99999999999977
  0
LINE
  8
_0-1_計細線
  6
CONTINUOUS
 62
    3
 10
1131.5000000021892
 20
674.15999999999997
 11
1131.5000000021892
 21
672.76000000000022
  0
ARC
  8
_0-1_計細線
  6
CONTINUOUS
 62
    3
 10
1142.3999999999819
 20
672.76000000000022
 40
0.5
 50
269.99999999999977
 51
359.99999999999966
  0
LINE
  8
_0-1_計細線
  6
CONTINUOUS
 62
    3
 10
1142.8999999999819
 20
674.15999999999997
 11
1142.8999999999819
 21
672.76000000000022
  0
ARC
  8
_0-1_計細線
  6
CONTINUOUS
 62
    3
 10
1134.5000000021892
 20
671.26000000000022
 40
1
 50
0
 51
89.999999999999915
  0
LINE
  8
_0-1_計細線
  6
CONTINUOUS
 62
    3
 10
1134.5000000021892
 20
672.2600000000001
 11
1132.0000000021892
 21
672.2600000000001
  0
ARC
  8
_0-1_計細線
  6
CONTINUOUS
 62
    3
 10
1139.9000000021888
 20
671.26000000000022
 40
1
 50
89.999999999999915
 51
179.99999999999983
  0
LINE
  8
_0-1_計細線
  6
CONTINUOUS
 62
    3
 10
1139.8999999999814
 20
672.2600000000001
 11
1142.3999999999819
 21
672.2600000000001
  0
LINE
  8
_0-1_計細線
  6
CONTINUOUS
 62
    3
 10
1139.7000000010853
 20
676.16000000000008
 11
1134.7000000010853
 21
676.16000000000008
  0
LINE
  8
_0-1_計細線
  6
CONTINUOUS
 62
    3
 10
1135.5000000010855
 20
656.15999999999997
 11
1135.5000000021892
 21
671.26000000000022
  0
LINE
  8
_0-1_計細線
  6
CONTINUOUS
 62
    3
 10
1138.9000000010856
 20
656.15999999999997
 11
1138.9000000021892
 21
671.26000000000022
  0
LINE
  8
_0-1_計細線
  6
CONTINUOUS
 62
    3
 10
1138.9000000010856
 20
656.15999999999997
 11
1135.5000000010855
 21
656.15999999999997
  0
ARC
  8
_0-1_計細線
  6
CONTINUOUS
 62
    3
 10
1115.1000000018275
 20
674.15999999999997
 40
1
 50
89.999999999999915
 51
179.99999999999983
  0
ARC
  8
_0-1_計細線
  6
CONTINUOUS
 62
    3
 10
1115.5679491931546
 20
676.16000000000008
 40
1
 50
269.99999999999977
 51
329.9999999999967
  0
ARC
  8
_0-1_計細線
  6
CONTINUOUS
 62
    3
 10
1117.3000000007237
 20
675.1600000000002
 40
1
 50
89.999999999999915
 51
150.00000000001401
  0
LINE
  8
_0-1_計細線
  6
CONTINUOUS
 62
    3
 10
1115.1000000018275
 20
675.1600000000002
 11
1115.5679491931546
 21
675.1600000000002
  0
ARC
  8
_0-1_計細線
  6
CONTINUOUS
 62
    3
 10
1124.4999999996203
 20
674.15999999999997
 40
1
 50
0
 51
89.999999999999915
  0
ARC
  8
_0-1_計細線
  6
CONTINUOUS
 62
    3
 10
1124.0320508082928
 20
676.16000000000008
 40
1
 50
209.99999999998954
 51
269.99999999999977
  0
ARC
  8
_0-1_計細線
  6
CONTINUOUS
 62
    3
 10
1122.3000000007237
 20
675.1600000000002
 40
1
 50
29.99999999999903
 51
89.999999999999901
  0
LINE
  8
_0-1_計細線
  6
CONTINUOUS
 62
    3
 10
1124.4999999996203
 20
675.1600000000002
 11
1124.0320508082928
 21
675.1600000000002
  0
ARC
  8
_0-1_計細線
  6
CONTINUOUS
 62
    3
 10
1114.6000000018275
 20
672.76000000000022
 40
0.5
 50
179.99999999999983
 51
269.99999999999977
  0
LINE
  8
_0-1_計細線
  6
CONTINUOUS
 62
    3
 10
1114.1000000018271
 20
674.15999999999997
 11
1114.1000000018271
 21
672.76000000000022
  0
ARC
  8
_0-1_計細線
  6
CONTINUOUS
 62
    3
 10
1124.9999999996198
 20
672.76000000000022
 40
0.5
 50
269.99999999999977
 51
359.99999999999966
  0
LINE
  8
_0-1_計細線
  6
CONTINUOUS
 62
    3
 10
1125.4999999996203
 20
674.15999999999997
 11
1125.4999999996203
 21
672.76000000000022
  0
ARC
  8
_0-1_計細線
  6
CONTINUOUS
 62
    3
 10
1117.1000000018271
 20
671.26000000000022
 40
1
 50
0
 51
89.999999999999915
  0
LINE
  8
_0-1_計細線
  6
CONTINUOUS
 62
    3
 10
1117.1000000018271
 20
672.2600000000001
 11
1114.6000000018275
 21
672.2600000000001
  0
ARC
  8
_0-1_計細線
  6
CONTINUOUS
 62
    3
 10
1122.5000000018276
 20
671.26000000000022
 40
1
 50
89.999999999999915
 51
179.99999999999983
  0
LINE
  8
_0-1_計細線
  6
CONTINUOUS
 62
    3
 10
1122.4999999996203
 20
672.2600000000001
 11
1124.9999999996198
 21
672.2600000000001
  0
LINE
  8
_0-1_計細線
  6
CONTINUOUS
 62
    3
 10
1122.3000000007237
 20
676.16000000000008
 11
1117.3000000007237
 21
676.16000000000008
  0
LINE
  8
_0-1_計細線
  6
CONTINUOUS
 62
    3
 10
1118.1000000007239
 20
656.15999999999997
 11
1118.1000000018275
 21
671.26000000000022
  0
LINE
  8
_0-1_計細線
  6
CONTINUOUS
 62
    3
 10
1121.5000000007235
 20
656.15999999999997
 11
1121.5000000018276
 21
671.26000000000022
  0
LINE
  8
_0-1_計細線
  6
CONTINUOUS
 62
    3
 10
1121.5000000007235
 20
656.15999999999997
 11
1118.1000000007239
 21
656.15999999999997
  0
ARC
  8
_0-1_計細線
  6
CONTINUOUS
 62
    3
 10
1097.7000000014655
 20
674.15999999999997
 40
1
 50
89.999999999999915
 51
179.99999999999983
  0
ARC
  8
_0-1_計細線
  6
CONTINUOUS
 62
    3
 10
1098.167949192793
 20
676.16000000000008
 40
1
 50
269.99999999999977
 51
329.9999999999967
  0
ARC
  8
_0-1_計細線
  6
CONTINUOUS
 62
    3
 10
1099.9000000003616
 20
675.1600000000002
 40
1
 50
89.999999999999915
 51
150.00000000000097
  0
LINE
  8
_0-1_計細線
  6
CONTINUOUS
 62
    3
 10
1097.7000000014655
 20
675.1600000000002
 11
1098.167949192793
 21
675.1600000000002
  0
ARC
  8
_0-1_計細線
  6
CONTINUOUS
 62
    3
 10
1107.0999999992582
 20
674.15999999999997
 40
1
 50
0
 51
89.999999999999915
  0
ARC
  8
_0-1_計細線
  6
CONTINUOUS
 62
    3
 10
1106.6320508079307
 20
676.16000000000008
 40
1
 50
210.00000000000256
 51
269.99999999999977
  0
ARC
  8
_0-1_計細線
  6
CONTINUOUS
 62
    3
 10
1104.9000000003621
 20
675.1600000000002
 40
1
 50
29.99999999999903
 51
89.999999999999901
  0
LINE
  8
_0-1_計細線
  6
CONTINUOUS
 62
    3
 10
1107.0999999992582
 20
675.1600000000002
 11
1106.6320508079307
 21
675.1600000000002
  0
ARC
  8
_0-1_計細線
  6
CONTINUOUS
 62
    3
 10
1097.2000000014655
 20
672.76000000000022
 40
0.5
 50
179.99999999999983
 51
269.99999999999977
  0
LINE
  8
_0-1_計細線
  6
CONTINUOUS
 62
    3
 10
1096.7000000014655
 20
674.15999999999997
 11
1096.7000000014655
 21
672.76000000000022
  0
ARC
  8
_0-1_計細線
  6
CONTINUOUS
 62
    3
 10
1107.5999999992582
 20
672.76000000000022
 40
0.5
 50
269.99999999999977
 51
359.99999999999966
  0
LINE
  8
_0-1_計細線
  6
CONTINUOUS
 62
    3
 10
1108.0999999992582
 20
674.15999999999997
 11
1108.0999999992582
 21
672.76000000000022
  0
ARC
  8
_0-1_計細線
  6
CONTINUOUS
 62
    3
 10
1099.7000000014655
 20
671.26000000000022
 40
1
 50
0
 51
89.999999999999915
  0
LINE
  8
_0-1_計細線
  6
CONTINUOUS
 62
    3
 10
1099.7000000014655
 20
672.2600000000001
 11
1097.2000000014655
 21
672.2600000000001
  0
ARC
  8
_0-1_計細線
  6
CONTINUOUS
 62
    3
 10
1105.1000000014656
 20
671.26000000000022
 40
1
 50
89.999999999999915
 51
179.99999999999983
  0
LINE
  8
_0-1_計細線
  6
CONTINUOUS
 62
    3
 10
1105.0999999992582
 20
672.2600000000001
 11
1107.5999999992582
 21
672.2600000000001
  0
LINE
  8
_0-1_計細線
  6
CONTINUOUS
 62
    3
 10
1104.9000000003621
 20
676.16000000000008
 11
1099.9000000003616
 21
676.16000000000008
  0
LINE
  8
_0-1_計細線
  6
CONTINUOUS
 62
    3
 10
1100.7000000003618
 20
656.15999999999997
 11
1100.7000000014655
 21
671.26000000000022
  0
LINE
  8
_0-1_計細線
  6
CONTINUOUS
 62
    3
 10
1104.1000000003619
 20
656.15999999999997
 11
1104.1000000014656
 21
671.26000000000022
  0
LINE
  8
_0-1_計細線
  6
CONTINUOUS
 62
    3
 10
1104.1000000003619
 20
656.15999999999997
 11
1100.7000000003618
 21
656.15999999999997
  0
ARC
  8
_0-1_計細線
  6
CONTINUOUS
 62
    3
 10
1062.9000000007418
 20
674.15999999999997
 40
1
 50
89.999999999999915
 51
179.99999999999983
  0
ARC
  8
_0-1_計細線
  6
CONTINUOUS
 62
    3
 10
1063.3679491920693
 20
676.16000000000008
 40
1
 50
269.99999999999977
 51
329.9999999999967
  0
ARC
  8
_0-1_計細線
  6
CONTINUOUS
 62
    3
 10
1065.0999999996384
 20
675.1600000000002
 40
1
 50
89.999999999999915
 51
150.00000000001401
  0
LINE
  8
_0-1_計細線
  6
CONTINUOUS
 62
    3
 10
1062.9000000007418
 20
675.1600000000002
 11
1063.3679491920693
 21
675.1600000000002
  0
ARC
  8
_0-1_計細線
  6
CONTINUOUS
 62
    3
 10
1072.299999998535
 20
674.15999999999997
 40
1
 50
0
 51
89.999999999999915
  0
ARC
  8
_0-1_計細線
  6
CONTINUOUS
 62
    3
 10
1071.8320508072075
 20
676.16000000000008
 40
1
 50
210.00000000000256
 51
269.99999999999977
  0
ARC
  8
_0-1_計細線
  6
CONTINUOUS
 62
    3
 10
1070.0999999996384
 20
675.1600000000002
 40
1
 50
29.999999999986002
 51
89.999999999999901
  0
LINE
  8
_0-1_計細線
  6
CONTINUOUS
 62
    3
 10
1072.299999998535
 20
675.1600000000002
 11
1071.8320508072075
 21
675.1600000000002
  0
ARC
  8
_0-1_計細線
  6
CONTINUOUS
 62
    3
 10
1062.4000000007418
 20
672.76000000000022
 40
0.5
 50
179.99999999999983
 51
269.99999999999977
  0
LINE
  8
_0-1_計細線
  6
CONTINUOUS
 62
    3
 10
1061.9000000007418
 20
674.15999999999997
 11
1061.9000000007418
 21
672.76000000000022
  0
ARC
  8
_0-1_計細線
  6
CONTINUOUS
 62
    3
 10
1072.7999999985345
 20
672.76000000000022
 40
0.5
 50
269.99999999999977
 51
359.99999999999966
  0
LINE
  8
_0-1_計細線
  6
CONTINUOUS
 62
    3
 10
1073.299999998535
 20
674.15999999999997
 11
1073.299999998535
 21
672.76000000000022
  0
ARC
  8
_0-1_計細線
  6
CONTINUOUS
 62
    3
 10
1064.9000000007418
 20
671.26000000000022
 40
1
 50
0
 51
89.999999999999915
  0
LINE
  8
_0-1_計細線
  6
CONTINUOUS
 62
    3
 10
1064.9000000007418
 20
672.2600000000001
 11
1062.4000000007418
 21
672.2600000000001
  0
ARC
  8
_0-1_計細線
  6
CONTINUOUS
 62
    3
 10
1070.3000000007419
 20
671.26000000000022
 40
1
 50
89.999999999999915
 51
179.99999999999983
  0
LINE
  8
_0-1_計細線
  6
CONTINUOUS
 62
    3
 10
1070.2999999985345
 20
672.2600000000001
 11
1072.7999999985345
 21
672.2600000000001
  0
LINE
  8
_0-1_計細線
  6
CONTINUOUS
 62
    3
 10
1070.0999999996384
 20
676.16000000000008
 11
1065.0999999996384
 21
676.16000000000008
  0
LINE
  8
_0-1_計細線
  6
CONTINUOUS
 62
    3
 10
1065.8999999996386
 20
656.15999999999997
 11
1065.9000000007418
 21
671.26000000000022
  0
LINE
  8
_0-1_計細線
  6
CONTINUOUS
 62
    3
 10
1069.2999999996382
 20
656.15999999999997
 11
1069.3000000007423
 21
671.26000000000022
  0
LINE
  8
_0-1_計細線
  6
CONTINUOUS
 62
    3
 10
1069.2999999996382
 20
656.15999999999997
 11
1065.8999999996386
 21
656.15999999999997
  0
ARC
  8
_0-1_計細線
  6
CONTINUOUS
 62
    3
 10
1045.5000000003802
 20
674.15999999999997
 40
1
 50
89.999999999999915
 51
179.99999999999983
  0
ARC
  8
_0-1_計細線
  6
CONTINUOUS
 62
    3
 10
1045.9679491917077
 20
676.16000000000008
 40
1
 50
269.99999999999977
 51
329.99999999998369
  0
ARC
  8
_0-1_計細線
  6
CONTINUOUS
 62
    3
 10
1047.6999999992763
 20
675.1600000000002
 40
1
 50
89.999999999999915
 51
150.00000000001401
  0
LINE
  8
_0-1_計細線
  6
CONTINUOUS
 62
    3
 10
1045.5000000003802
 20
675.1600000000002
 11
1045.9679491917077
 21
675.1600000000002
  0
ARC
  8
_0-1_計細線
  6
CONTINUOUS
 62
    3
 10
1054.8999999981729
 20
674.15999999999997
 40
1
 50
0
 51
89.999999999999915
  0
ARC
  8
_0-1_計細線
  6
CONTINUOUS
 62
    3
 10
1054.4320508068454
 20
676.16000000000008
 40
1
 50
210.00000000000256
 51
269.99999999999977
  0
ARC
  8
_0-1_計細線
  6
CONTINUOUS
 62
    3
 10
1052.6999999992768
 20
675.1600000000002
 40
1
 50
29.99999999999903
 51
89.999999999999901
  0
LINE
  8
_0-1_計細線
  6
CONTINUOUS
 62
    3
 10
1054.8999999981729
 20
675.1600000000002
 11
1054.4320508068454
 21
675.1600000000002
  0
ARC
  8
_0-1_計細線
  6
CONTINUOUS
 62
    3
 10
1045.0000000003802
 20
672.76000000000022
 40
0.5
 50
179.99999999999983
 51
269.99999999999977
  0
LINE
  8
_0-1_計細線
  6
CONTINUOUS
 62
    3
 10
1044.5000000003802
 20
674.15999999999997
 11
1044.5000000003802
 21
672.76000000000022
  0
ARC
  8
_0-1_計細線
  6
CONTINUOUS
 62
    3
 10
1055.3999999981729
 20
672.76000000000022
 40
0.5
 50
269.99999999999977
 51
359.99999999999966
  0
LINE
  8
_0-1_計細線
  6
CONTINUOUS
 62
    3
 10
1055.8999999981729
 20
674.15999999999997
 11
1055.8999999981729
 21
672.76000000000022
  0
ARC
  8
_0-1_計細線
  6
CONTINUOUS
 62
    3
 10
1047.5000000003802
 20
671.26000000000022
 40
1
 50
0
 51
89.999999999999915
  0
LINE
  8
_0-1_計細線
  6
CONTINUOUS
 62
    3
 10
1047.5000000003802
 20
672.2600000000001
 11
1045.0000000003802
 21
672.2600000000001
  0
ARC
  8
_0-1_計細線
  6
CONTINUOUS
 62
    3
 10
1052.9000000003803
 20
671.26000000000022
 40
1
 50
89.999999999999915
 51
179.99999999999983
  0
LINE
  8
_0-1_計細線
  6
CONTINUOUS
 62
    3
 10
1052.8999999981729
 20
672.2600000000001
 11
1055.3999999981729
 21
672.2600000000001
  0
LINE
  8
_0-1_計細線
  6
CONTINUOUS
 62
    3
 10
1052.6999999992768
 20
676.16000000000008
 11
1047.6999999992763
 21
676.16000000000008
  0
LINE
  8
_0-1_計細線
  6
CONTINUOUS
 62
    3
 10
1048.4999999992765
 20
656.15999999999997
 11
1048.5000000003802
 21
671.26000000000022
  0
LINE
  8
_0-1_計細線
  6
CONTINUOUS
 62
    3
 10
1051.8999999992766
 20
656.15999999999997
 11
1051.9000000003803
 21
671.26000000000022
  0
LINE
  8
_0-1_計細線
  6
CONTINUOUS
 62
    3
 10
1051.8999999992766
 20
656.15999999999997
 11
1048.4999999992765
 21
656.15999999999997
  0
ARC
  8
_0-1_計細線
  6
CONTINUOUS
 62
    3
 10
1028.1000000000186
 20
674.15999999999997
 40
1
 50
89.999999999999915
 51
179.99999999999983
  0
ARC
  8
_0-1_計細線
  6
CONTINUOUS
 62
    3
 10
1028.5679491913456
 20
676.16000000000008
 40
1
 50
269.99999999999977
 51
330.00000000000978
  0
ARC
  8
_0-1_計細線
  6
CONTINUOUS
 62
    3
 10
1030.2999999989147
 20
675.1600000000002
 40
1
 50
89.999999999999915
 51
150.00000000000097
  0
LINE
  8
_0-1_計細線
  6
CONTINUOUS
 62
    3
 10
1028.1000000000186
 20
675.1600000000002
 11
1028.5679491913456
 21
675.1600000000002
  0
ARC
  8
_0-1_計細線
  6
CONTINUOUS
 62
    3
 10
1037.4999999978113
 20
674.15999999999997
 40
1
 50
0
 51
89.999999999999915
  0
ARC
  8
_0-1_計細線
  6
CONTINUOUS
 62
    3
 10
1037.0320508064838
 20
676.16000000000008
 40
1
 50
210.00000000000256
 51
269.99999999999977
  0
ARC
  8
_0-1_計細線
  6
CONTINUOUS
 62
    3
 10
1035.2999999989147
 20
675.1600000000002
 40
1
 50
29.999999999986002
 51
89.999999999973952
  0
LINE
  8
_0-1_計細線
  6
CONTINUOUS
 62
    3
 10
1037.4999999978113
 20
675.1600000000002
 11
1037.0320508064838
 21
675.1600000000002
  0
ARC
  8
_0-1_計細線
  6
CONTINUOUS
 62
    3
 10
1027.6000000000186
 20
672.76000000000022
 40
0.5
 50
179.99999999999983
 51
269.99999999999977
  0
LINE
  8
_0-1_計細線
  6
CONTINUOUS
 62
    3
 10
1027.1000000000181
 20
674.15999999999997
 11
1027.1000000000181
 21
672.76000000000022
  0
ARC
  8
_0-1_計細線
  6
CONTINUOUS
 62
    3
 10
1037.9999999978108
 20
672.76000000000022
 40
0.5
 50
269.99999999999977
 51
359.99999999999966
  0
LINE
  8
_0-1_計細線
  6
CONTINUOUS
 62
    3
 10
1038.4999999978113
 20
674.15999999999997
 11
1038.4999999978113
 21
672.76000000000022
  0
ARC
  8
_0-1_計細線
  6
CONTINUOUS
 62
    3
 10
1030.1000000000181
 20
671.26000000000022
 40
1
 50
0
 51
89.999999999999915
  0
LINE
  8
_0-1_計細線
  6
CONTINUOUS
 62
    3
 10
1030.1000000000181
 20
672.2600000000001
 11
1027.6000000000186
 21
672.2600000000001
  0
ARC
  8
_0-1_計細線
  6
CONTINUOUS
 62
    3
 10
1035.5000000000186
 20
671.26000000000022
 40
1
 50
89.999999999999915
 51
179.99999999999983
  0
LINE
  8
_0-1_計細線
  6
CONTINUOUS
 62
    3
 10
1035.4999999978113
 20
672.2600000000001
 11
1037.9999999978108
 21
672.2600000000001
  0
LINE
  8
_0-1_計細線
  6
CONTINUOUS
 62
    3
 10
1035.2999999989147
 20
676.16000000000008
 11
1030.2999999989147
 21
676.16000000000008
  0
LINE
  8
_0-1_計細線
  6
CONTINUOUS
 62
    3
 10
1031.0999999989149
 20
656.15999999999997
 11
1031.1000000000186
 21
671.26000000000022
  0
LINE
  8
_0-1_計細線
  6
CONTINUOUS
 62
    3
 10
1034.4999999989145
 20
656.15999999999997
 11
1034.5000000000186
 21
671.26000000000022
  0
LINE
  8
_0-1_計細線
  6
CONTINUOUS
 62
    3
 10
1034.4999999989145
 20
656.15999999999997
 11
1031.0999999989149
 21
656.15999999999997
  0
ARC
  8
_0-1_計細線
  6
CONTINUOUS
 62
    3
 10
1010.9999999996568
 20
674.15999999999997
 40
1
 50
89.999999999999915
 51
179.99999999999983
  0
ARC
  8
_0-1_計細線
  6
CONTINUOUS
 62
    3
 10
1011.4679491909839
 20
676.16000000000008
 40
1
 50
269.99999999999977
 51
329.9999999999967
  0
ARC
  8
_0-1_計細線
  6
CONTINUOUS
 62
    3
 10
1013.1999999985528
 20
675.1600000000002
 40
1
 50
89.999999999999915
 51
150.00000000001401
  0
LINE
  8
_0-1_計細線
  6
CONTINUOUS
 62
    3
 10
1010.9999999996568
 20
675.1600000000002
 11
1011.4679491909839
 21
675.1600000000002
  0
ARC
  8
_0-1_計細線
  6
CONTINUOUS
 62
    3
 10
1020.3999999974495
 20
674.15999999999997
 40
1
 50
0
 51
89.999999999999915
  0
ARC
  8
_0-1_計細線
  6
CONTINUOUS
 62
    3
 10
1019.932050806122
 20
676.16000000000008
 40
1
 50
210.00000000000256
 51
269.99999999999977
  0
ARC
  8
_0-1_計細線
  6
CONTINUOUS
 62
    3
 10
1018.1999999985528
 20
675.1600000000002
 40
1
 50
29.999999999986002
 51
89.999999999973952
  0
LINE
  8
_0-1_計細線
  6
CONTINUOUS
 62
    3
 10
1020.3999999974495
 20
675.1600000000002
 11
1019.932050806122
 21
675.1600000000002
  0
ARC
  8
_0-1_計細線
  6
CONTINUOUS
 62
    3
 10
1010.4999999996568
 20
672.76000000000022
 40
0.5
 50
179.99999999999983
 51
269.99999999999977
  0
LINE
  8
_0-1_計細線
  6
CONTINUOUS
 62
    3
 10
1009.9999999996562
 20
674.15999999999997
 11
1009.9999999996562
 21
672.76000000000022
  0
ARC
  8
_0-1_計細線
  6
CONTINUOUS
 62
    3
 10
1020.8999999974494
 20
672.76000000000022
 40
0.5
 50
269.99999999999977
 51
359.99999999999966
  0
LINE
  8
_0-1_計細線
  6
CONTINUOUS
 62
    3
 10
1021.3999999974494
 20
674.15999999999997
 11
1021.3999999974494
 21
672.76000000000022
  0
ARC
  8
_0-1_計細線
  6
CONTINUOUS
 62
    3
 10
1012.9999999996562
 20
671.26000000000022
 40
1
 50
0
 51
89.999999999999915
  0
LINE
  8
_0-1_計細線
  6
CONTINUOUS
 62
    3
 10
1012.9999999996562
 20
672.2600000000001
 11
1010.4999999996568
 21
672.2600000000001
  0
ARC
  8
_0-1_計細線
  6
CONTINUOUS
 62
    3
 10
1018.3999999996569
 20
671.26000000000022
 40
1
 50
89.999999999999915
 51
179.99999999999983
  0
LINE
  8
_0-1_計細線
  6
CONTINUOUS
 62
    3
 10
1018.3999999974494
 20
672.2600000000001
 11
1020.8999999974494
 21
672.2600000000001
  0
LINE
  8
_0-1_計細線
  6
CONTINUOUS
 62
    3
 10
1018.1999999985528
 20
676.16000000000008
 11
1013.1999999985528
 21
676.16000000000008
  0
LINE
  8
_0-1_計細線
  6
CONTINUOUS
 62
    3
 10
1013.9999999985531
 20
656.15999999999997
 11
1013.9999999996567
 21
671.26000000000022
  0
LINE
  8
_0-1_計細線
  6
CONTINUOUS
 62
    3
 10
1017.3999999985527
 20
656.15999999999997
 11
1017.3999999996568
 21
671.26000000000022
  0
LINE
  8
_0-1_計細線
  6
CONTINUOUS
 62
    3
 10
1017.3999999985527
 20
656.15999999999997
 11
1013.9999999985531
 21
656.15999999999997
  0
ARC
  8
_0-1_計細線
  6
CONTINUOUS
 62
    3
 10
1162
 20
656.15999999999997
 40
3.0000000000000004
 50
269.99999999999977
 51
359.99999999999966
  0
LINE
  8
_0-1_計細線
  6
CONTINUOUS
 62
    3
 10
1165
 20
656.15999999999997
 11
1165
 21
675.66000000000008
  0
LINE
  8
_0-1_計細線
  6
CONTINUOUS
 62
    3
 10
1162
 20
653.16000000000008
 11
1135.5
 21
653.16000000000008
  0
LINE
  8
_0-1_計細線
  6
CONTINUOUS
 62
    3
 10
1135
 20
653.65999999999997
 11
1135.5
 21
653.16000000000008
  0
LINE
  8
_0-1_計細線
  6
CONTINUOUS
 62
    3
 10
1135
 20
655.6600000000002
 11
1135
 21
653.65999999999997
  0
LINE
  8
_0-1_計細線
  6
CONTINUOUS
 62
    3
 10
1135.5
 20
656.15999999999997
 11
1135
 21
655.6600000000002
  0
LINE
  8
_0-1_計細線
  6
CONTINUOUS
 62
    3
 10
1162
 20
656.15999999999997
 11
1135.5
 21
656.15999999999997
  0
LINE
  8
_0-1_計細線
  6
CONTINUOUS
 62
    3
 10
1164.5000000000005
 20
676.16000000000008
 11
1165
 21
675.66000000000008
  0
LINE
  8
_0-1_計細線
  6
CONTINUOUS
 62
    3
 10
1162.5
 20
676.16000000000008
 11
1164.5000000000005
 21
676.16000000000008
  0
LINE
  8
_0-1_計細線
  6
CONTINUOUS
 62
    3
 10
1162
 20
675.66000000000008
 11
1162.5
 21
676.16000000000008
  0
LINE
  8
_0-1_計細線
  6
CONTINUOUS
 62
    3
 10
1162
 20
656.15999999999997
 11
1162
 21
675.66000000000008
  0
ARC
  8
_0-1_計細線
  6
CONTINUOUS
 62
    3
 10
1008.0000000000001
 20
656.15999999999997
 40
3.0000000000000004
 50
179.99999999999983
 51
269.99999999999977
  0
LINE
  8
_0-1_計細線
  6
CONTINUOUS
 62
    3
 10
1005
 20
656.15999999999997
 11
1005
 21
675.66000000000008
  0
LINE
  8
_0-1_計細線
  6
CONTINUOUS
 62
    3
 10
1008.0000000000001
 20
653.16000000000008
 11
1034.5
 21
653.16000000000008
  0
LINE
  8
_0-1_計細線
  6
CONTINUOUS
 62
    3
 10
1035
 20
653.65999999999997
 11
1034.5
 21
653.16000000000008
  0
LINE
  8
_0-1_計細線
  6
CONTINUOUS
 62
    3
 10
1035
 20
655.6600000000002
 11
1035
 21
653.65999999999997
  0
LINE
  8
_0-1_計細線
  6
CONTINUOUS
 62
    3
 10
1034.5
 20
656.15999999999997
 11
1035
 21
655.6600000000002
  0
LINE
  8
_0-1_計細線
  6
CONTINUOUS
 62
    3
 10
1008.0000000000001
 20
656.15999999999997
 11
1034.5
 21
656.15999999999997
  0
LINE
  8
_0-1_計細線
  6
CONTINUOUS
 62
    3
 10
1005.5000000000001
 20
676.16000000000008
 11
1005
 21
675.66000000000008
  0
LINE
  8
_0-1_計細線
  6
CONTINUOUS
 62
    3
 10
1007.5
 20
676.16000000000008
 11
1005.5000000000001
 21
676.16000000000008
  0
LINE
  8
_0-1_計細線
  6
CONTINUOUS
 62
    3
 10
1008.0000000000001
 20
675.66000000000008
 11
1007.5
 21
676.16000000000008
  0
LINE
  8
_0-1_計細線
  6
CONTINUOUS
 62
    3
 10
1008.0000000000001
 20
656.15999999999997
 11
1008.0000000000001
 21
675.66000000000008
  0
LINE
  8
_0-5_寸法線
  6
CONTINUOUS
 62
    7
 10
1076.8084795571101
 20
661.89576436351047
 11
1057.2353786102772
 21
675.60099719262269
  0
LINE
  8
_0-5_寸法線
  6
CONTINUOUS
 62
    7
 10
1061.331138831722
 20
672.73311501086755
 11
1058.7429483806968
 21
682.39237327375815
  0
LINE
  8
_0-5_寸法線
  6
CONTINUOUS
 62
    7
 10
1061.331138831722
 20
672.73311501086755
 11
1063.9193292827472
 21
682.39237327375815
  0
LINE
  8
_0-5_寸法線
  6
CONTINUOUS
 62
    7
 10
1076.8084795571101
 20
681.89576436351058
 11
1057.2353786102769
 21
695.60099719262269
  0
LINE
  8
_0-5_寸法線
  6
CONTINUOUS
 62
    7
 10
1061.331138831722
 20
692.73311501086755
 11
1063.9193292827472
 21
683.07385674797672
  0
LINE
  8
_0-5_寸法線
  6
CONTINUOUS
 62
    7
 10
1061.331138831722
 20
692.73311501086755
 11
1058.7429483806968
 21
683.07385674797672
  0
LINE
  8
_0-5_寸法線
  6
CONTINUOUS
 62
    7
 10
1061.331138831722
 20
672.73311501086755
 11
1061.331138831722
 21
692.73311501086755
  0
TEXT
  8
_0-5_寸法線
 62
    7
 10
1061.331138831722
 20
675.23311501086755
 40
15
 41
1
 50
90
  1
20
  0
LINE
  8
_0-1_計細線
  6
CONTINUOUS
 62
    3
 10
1005
 20
665.16000000000008
 11
1005
 21
630.16000000000008
  0
LINE
  8
_0-1_計細線
  6
CONTINUOUS
 62
    3
 10
1005
 20
630.16000000000008
 11
1002.6999999999998
 21
630.16000000000008
  0
LINE
  8
_0-1_計細線
  6
CONTINUOUS
 62
    3
 10
1002.6999999999998
 20
630.16000000000008
 11
1002.6999999999998
 21
665.16000000000008
  0
LINE
  8
_0-1_計細線
  6
CONTINUOUS
 62
    3
 10
1002.6999999999998
 20
665.16000000000008
 11
1005
 21
665.16000000000008
  0
LINE
  8
_0-0_計極細
  6
CONTINUOUS
 62
    2
 10
1002.6999999999998
 20
649.15999999999997
 11
1005
 21
649.15999999999997
  0
LINE
  8
_0-0_計極細
  6
CONTINUOUS
 62
    2
 10
1002.6999999999998
 20
651.16000000000008
 11
1005
 21
651.16000000000008
  0
LINE
  8
_0-0_計極細
  6
CONTINUOUS
 62
    2
 10
1002.6999999999998
 20
647.15999999999997
 11
1005
 21
647.15999999999997
  0
LINE
  8
_0-0_計極細
  6
CONTINUOUS
 62
    2
 10
1002.6999999999998
 20
653.16000000000008
 11
1005
 21
653.16000000000008
  0
LINE
  8
_0-0_計極細
  6
CONTINUOUS
 62
    2
 10
1005
 20
633.16000000000008
 11
1002.6999999999998
 21
633.16000000000008
  0
LINE
  8
_0-0_計極細
  6
CONTINUOUS
 62
    2
 10
1002.6999999999998
 20
663.1600000000002
 11
1005
 21
663.1600000000002
  0
LINE
  8
_0-1_計細線
  6
CONTINUOUS
 62
    3
 10
1165.0000000000005
 20
665.16000000000008
 11
1165.0000000000005
 21
630.16000000000008
  0
LINE
  8
_0-1_計細線
  6
CONTINUOUS
 62
    3
 10
1165.0000000000005
 20
630.16000000000008
 11
1167.3000000000002
 21
630.16000000000008
  0
LINE
  8
_0-1_計細線
  6
CONTINUOUS
 62
    3
 10
1167.3000000000002
 20
630.16000000000008
 11
1167.3000000000002
 21
665.16000000000008
  0
LINE
  8
_0-1_計細線
  6
CONTINUOUS
 62
    3
 10
1167.3000000000002
 20
665.16000000000008
 11
1165.0000000000005
 21
665.16000000000008
  0
LINE
  8
_0-0_計極細
  6
CONTINUOUS
 62
    2
 10
1167.3000000000002
 20
649.15999999999997
 11
1165.0000000000005
 21
649.15999999999997
  0
LINE
  8
_0-0_計極細
  6
CONTINUOUS
 62
    2
 10
1167.3000000000002
 20
651.16000000000008
 11
1165.0000000000005
 21
651.16000000000008
  0
LINE
  8
_0-0_計極細
  6
CONTINUOUS
 62
    2
 10
1167.3000000000002
 20
647.15999999999997
 11
1165.0000000000005
 21
647.15999999999997
  0
LINE
  8
_0-0_計極細
  6
CONTINUOUS
 62
    2
 10
1167.3000000000002
 20
653.16000000000008
 11
1165.0000000000005
 21
653.16000000000008
  0
LINE
  8
_0-0_計極細
  6
CONTINUOUS
 62
    2
 10
1165.0000000000005
 20
633.16000000000008
 11
1167.3000000000002
 21
633.16000000000008
  0
LINE
  8
_0-0_計極細
  6
CONTINUOUS
 62
    2
 10
1167.3000000000002
 20
663.1600000000002
 11
1165.0000000000005
 21
663.1600000000002
  0
LINE
  8
_0-0_計極細
  6
CENTER1
 62
    2
 10
1163.9257605799503
 20
664.96000000000026
 11
1004.0612003359894
 21
664.96000000000026
  0
CIRCLE
  8
_0-0_計極細
  6
CONTINUOUS
 62
    2
 10
1194.2998556122452
 20
634.4511203240703
 40
0.3318518518518431
  0
CIRCLE
  8
_0-0_計極細
  6
CONTINUOUS
 62
    2
 10
1180.970143678089
 20
642.45704624999621
 40
0.3318518518518431
  0
LINE
  8
_0-0_計極細
  6
CENTER1
 62
    2
 10
1184.5000000000002
 20
603.19395582932827
 11
1184.5000000000002
 21
637.17676890775533
  0
LINE
  8
_0-0_計極細
  6
CONTINUOUS
 62
    2
 10
1189.0000000000005
 20
634.61133680898968
 11
1189.0000000000005
 21
608.16000000000008
  0
LINE
  8
_0-0_計極細
  6
CONTINUOUS
 62
    2
 10
1180.0000000000002
 20
634.61133680898968
 11
1189.0000000000005
 21
634.61133680898968
  0
LINE
  8
_0-0_計極細
  6
CONTINUOUS
 62
    2
 10
1180.0000000000002
 20
608.16000000000008
 11
1180.0000000000002
 21
634.61133680898968
  0
LINE
  8
_0-0_計極細
  6
CENTER1
 62
    2
 10
1195.6963916124528
 20
626.23545946702075
 11
1157.2777793229129
 21
640.21869075804193
  0
LINE
  8
_0-0_計極細
  6
CONTINUOUS
 62
    2
 10
1191.1840409322913
 20
623.08902069750206
 11
1158.1094340380828
 21
635.12719311704984
  0
LINE
  8
_0-0_計極細
  6
CONTINUOUS
 62
    2
 10
1194.2622222222226
 20
631.5462542845753
 11
1161.1876153280136
 21
643.58442670412319
  0
LINE
  8
_0-0_計極細
  6
CONTINUOUS
 62
    2
 10
1161.1876153280136
 20
643.58442670412319
 11
1158.1094340380828
 21
635.12719311704984
  0
LINE
  8
_0-0_計極細
  6
CONTINUOUS
 62
    2
 10
1191.1840409322913
 20
623.08902069750206
 11
1194.2622222222226
 21
631.5462542845753
  0
LINE
  8
_0-0_計極細
  6
CENTER1
 62
    2
 10
985.50000000000011
 20
603.19395582932827
 11
985.50000000000011
 21
637.17676890775533
  0
CIRCLE
  8
_0-0_計極細
  6
CONTINUOUS
 62
    2
 10
1011.6531066410535
 20
629.84649069444072
 40
1.0953188836088352
  0
CIRCLE
  8
_0-0_計極細
  6
CONTINUOUS
 62
    2
 10
998.62792145586866
 20
626.11315736110737
 40
1.0953188836088352
  0
LINE
  8
_0-0_計極細
  6
CONTINUOUS
 62
    2
 10
981.00000000000011
 20
634.61133680898968
 11
981.00000000000011
 21
608.16000000000008
  0
LINE
  8
_0-0_計極細
  6
CONTINUOUS
 62
    2
 10
990
 20
634.61133680898968
 11
981.00000000000011
 21
634.61133680898968
  0
LINE
  8
_0-0_計極細
  6
CONTINUOUS
 62
    2
 10
990
 20
608.16000000000008
 11
990
 21
634.61133680898968
  0
LINE
  8
_0-0_計極細
  6
CENTER1
 62
    2
 10
974.3036083875478
 20
626.23545946702075
 11
1012.7222206770871
 21
640.21869075804193
  0
LINE
  8
_0-0_計極細
  6
CONTINUOUS
 62
    2
 10
978.81595906770883
 20
623.08902069750206
 11
1011.8905659619178
 21
635.12719311704984
  0
LINE
  8
_0-0_計極細
  6
CONTINUOUS
 62
    2
 10
975.73777777777786
 20
631.5462542845753
 11
1008.8123846719868
 21
643.58442670412319
  0
LINE
  8
_0-0_計極細
  6
CONTINUOUS
 62
    2
 10
1008.8123846719868
 20
643.58442670412319
 11
1011.8905659619178
 21
635.12719311704984
  0
LINE
  8
_0-0_計極細
  6
CONTINUOUS
 62
    2
 10
978.81595906770883
 20
623.08902069750206
 11
975.73777777777786
 21
631.5462542845753
  0
CIRCLE
  8
_0-0_計極細
  6
CONTINUOUS
 62
    2
 10
987.10792145586868
 20
664.3946388425876
 40
1.0953188836088352
  0
LINE
  8
_0-0_計極細
  6
CONTINUOUS
 62
    2
 10
1211.073483240182
 20
669.16000000000008
 11
1218.0734828641084
 21
676.15999962392675
  0
LINE
  8
_0-0_計極細
  6
CONTINUOUS
 62
    2
 10
1198.345561178824
 20
669.16000000000008
 11
1205.3455609023199
 21
676.15999972349573
  0
LINE
  8
_0-0_計極細
  6
CONTINUOUS
 62
    2
 10
1185.6176391174663
 20
669.16000000000008
 11
1192.6176389405309
 21
676.15999982306494
  0
LINE
  8
_0-0_計極細
  6
CONTINUOUS
 62
    2
 10
1172.8897170561086
 20
669.16000000000008
 11
1179.8897169787424
 21
676.15999992263392
  0
LINE
  8
_0-0_計極細
  6
DASHED2
 62
    2
 10
1217.4374442708611
 20
669.16000000000008
 11
1223.5066482870689
 21
675.22920401620809
  0
LINE
  8
_0-0_計極細
  6
DASHED2
 62
    2
 10
1204.7095222095031
 20
669.16000000000008
 11
1211.7095218832142
 21
676.15999967371113
  0
LINE
  8
_0-0_計極細
  6
DASHED2
 62
    2
 10
1191.9816001481452
 20
669.16000000000008
 11
1198.9815999214256
 21
676.15999977328033
  0
LINE
  8
_0-0_計極細
  6
DASHED2
 62
    2
 10
1179.2536780867872
 20
669.16000000000008
 11
1186.2536779596367
 21
676.15999987284931
  0
LINE
  8
_0-0_計極細
  6
DASHED2
 62
    2
 10
1170
 20
672.63424397457061
 11
1173.5257559978481
 21
676.1599999724184
  0
LINE
  8
_0-0_計極細
  6
CONTINUOUS
 62
    2
 10
1170
 20
671.36145176843502
 11
1167.7985482315653
 21
669.16000000000008
  0
LINE
  8
_0-0_計極細
  6
CONTINUOUS
 62
    2
 10
1170
 20
673.90703618070631
 11
1165.2529638192937
 21
669.16000000000008
  0
LINE
  8
_0-0_計極細
  6
CONTINUOUS
 62
    2
 10
1165
 20
671.45262059297806
 11
1169.707379407022
 21
676.16000000000008
  0
LINE
  8
_0-0_計極細
  6
CONTINUOUS
 62
    2
 10
1165
 20
673.9982050052497
 11
1167.1617949947504
 21
676.15999999999997
  0
LINE
  8
_0-0_計極細
  6
CONTINUOUS
 62
    2
 10
1170
 20
675.25440667429666
 11
1169.0944066742968
 21
676.16000000000008
  0
LINE
  8
_0-0_計極細
  6
CONTINUOUS
 62
    2
 10
1170
 20
672.70882226202514
 11
1166.5488222620252
 21
676.16000000000008
  0
LINE
  8
_0-0_計極細
  6
CONTINUOUS
 62
    2
 10
1170
 20
670.16323784975373
 11
1165
 21
675.16323784975373
  0
LINE
  8
_0-0_計極細
  6
CONTINUOUS
 62
    2
 10
1168.4576534374819
 20
669.16000000000008
 11
1165
 21
672.61765343748198
  0
LINE
  8
_0-0_計極細
  6
CONTINUOUS
 62
    2
 10
1165.9120690252107
 20
669.16000000000008
 11
1165
 21
670.07206902521045
  0
LINE
  8
_0-0_計極細
  6
CONTINUOUS
 62
    2
 10
1165
 20
675.66000000000008
 11
1165
 21
676.16000000000008
  0
LINE
  8
_0-0_計極細
  6
CONTINUOUS
 62
    2
 10
1165
 20
676.16000000000008
 11
1170
 21
676.16000000000008
  0
LINE
  8
_0-0_計極細
  6
CONTINUOUS
 62
    2
 10
1165
 20
669.16000000000008
 11
1223.5066482870689
 21
669.16000000000008
  0
LINE
  8
_0-0_計極細
  6
CONTINUOUS
 62
    2
 10
1170
 20
676.16000000000008
 11
1223.5066482870689
 21
676.16000000000008
  0
LINE
  8
_0-0_計極細
  6
CONTINUOUS
 62
    2
 10
1170
 20
676.16000000000008
 11
1170
 21
669.16000000000008
  0
LINE
  8
_0-0_計極細
  6
CONTINUOUS
 62
    2
 10
994.69880819342154
 20
669.15999999632379
 11
1000
 21
674.46119180290202
  0
LINE
  8
_0-0_計極細
  6
CONTINUOUS
 62
    2
 10
981.97088612323705
 20
669.15999998749703
 11
988.97088613574044
 21
676.15999999999997
  0
LINE
  8
_0-0_計極細
  6
CONTINUOUS
 62
    2
 10
969.24296405305222
 20
669.15999997867016
 11
976.24296407438226
 21
676.16000000000008
  0
LINE
  8
_0-0_計極細
  6
CONTINUOUS
 62
    2
 10
956.51504198286784
 20
669.15999996984328
 11
963.51504201302441
 21
676.16000000000008
  0
LINE
  8
_0-0_計極細
  6
CONTINUOUS
 62
    2
 10
946.49335171293114
 20
671.86623176126454
 11
950.78711995166668
 21
676.15999999999997
  0
LINE
  8
_0-0_計極細
  6
DASHED2
 62
    2
 10
988.33484715832947
 20
669.15999999191035
 11
995.33484716641954
 21
676.16000000000008
  0
LINE
  8
_0-0_計極細
  6
DASHED2
 62
    2
 10
975.60692508814464
 20
669.15999998308348
 11
982.60692510506135
 21
676.16000000000008
  0
LINE
  8
_0-0_計極細
  6
DASHED2
 62
    2
 10
962.87900301796026
 20
669.15999997425683
 11
969.87900304370351
 21
676.16000000000008
  0
LINE
  8
_0-0_計極細
  6
DASHED2
 62
    2
 10
950.15108094777543
 20
669.15999996542996
 11
957.15108098234532
 21
676.16000000000008
  0
LINE
  8
_0-0_計極細
  6
CONTINUOUS
 62
    2
 10
1004.8811458461842
 20
669.16000000000008
 11
1005
 21
669.2788541538157
  0
LINE
  8
_0-0_計極細
  6
CONTINUOUS
 62
    2
 10
1002.335561433913
 20
669.16000000000008
 11
1005
 21
671.82443856608711
  0
LINE
  8
_0-0_計極細
  6
CONTINUOUS
 62
    2
 10
1000
 20
669.37002297835875
 11
1005
 21
674.37002297835875
  0
LINE
  8
_0-0_計極細
  6
CONTINUOUS
 62
    2
 10
1000
 20
671.91560739063038
 11
1004.2443926093698
 21
676.16000000000008
  0
LINE
  8
_0-0_計極細
  6
CONTINUOUS
 62
    2
 10
1000
 20
674.46119180290202
 11
1001.6988081970982
 21
676.16000000000008
  0
LINE
  8
_0-0_計極細
  6
CONTINUOUS
 62
    2
 10
1005
 20
674.79141987664491
 11
1003.6314198766451
 21
676.16000000000008
  0
LINE
  8
_0-0_計極細
  6
CONTINUOUS
 62
    2
 10
1005
 20
672.24583546437327
 11
1001.0858354643733
 21
676.16000000000008
  0
LINE
  8
_0-0_計極細
  6
CONTINUOUS
 62
    2
 10
1000
 20
674.70025105210186
 11
1005
 21
669.70025105210186
  0
LINE
  8
_0-0_計極細
  6
CONTINUOUS
 62
    2
 10
1000
 20
672.15466663983022
 11
1002.9946666398301
 21
669.16000000000008
  0
LINE
  8
_0-0_計極細
  6
CONTINUOUS
 62
    2
 10
1000
 20
669.60908222755859
 11
1000.4490822275585
 21
669.16000000000008
  0
LINE
  8
_0-0_計極細
  6
CONTINUOUS
 62
    2
 10
1005
 20
675.66000000000008
 11
1005
 21
676.16000000000008
  0
LINE
  8
_0-0_計極細
  6
CONTINUOUS
 62
    2
 10
1005
 20
676.16000000000008
 11
1000
 21
676.16000000000008
  0
LINE
  8
_0-0_計極細
  6
CONTINUOUS
 62
    2
 10
1005
 20
669.16000000000008
 11
946.49335171293114
 21
669.16000000000008
  0
LINE
  8
_0-0_計極細
  6
CONTINUOUS
 62
    2
 10
1000
 20
676.16000000000008
 11
946.49335171293114
 21
676.16000000000008
  0
LINE
  8
_0-0_計極細
  6
CONTINUOUS
 62
    2
 10
1000
 20
676.16000000000008
 11
1000
 21
669.16000000000008
  0
LINE
  8
_0-0_計極細
  6
CENTER1
 62
    2
 10
1085
 20
646.44850230873021
 11
1085
 21
684.5185023087339
  0
CIRCLE
  8
_0-0_計極細
  6
CONTINUOUS
 62
    2
 10
1140.7601436780888
 20
601.57130550925558
 40
1.0953188836088352
  0
CIRCLE
  8
_0-0_計極細
  6
CONTINUOUS
 62
    2
 10
1138.9912547892
 20
645.14463884258919
 40
1.0953188836088352
  0
CIRCLE
  8
_0-0_計極細
  6
CONTINUOUS
 62
    2
 10
1139.3745881225341
 20
605.57260180555204
 40
0.3318518518518431
  0
CIRCLE
  8
_0-0_計極細
  6
CONTINUOUS
 62
    2
 10
1138.59063750525
 20
629.1259351388851
 40
0.3318518518518431
  0
LINE
  8
_0-0_計極細
  6
CONTINUOUS
 62
    2
 10
1135
 20
653.16000000000008
 11
1135
 21
592.41503982313259
  0
LINE
  8
_0-0_計極細
  6
CONTINUOUS
 62
    2
 10
1135.5
 20
653.16000000000008
 11
1135
 21
653.16000000000008
  0
CIRCLE
  8
_0-0_計極細
  6
CONTINUOUS
 62
    2
 10
1176.9968103447554
 20
667.87926847221809
 40
0.3318518518518431
  0
CIRCLE
  8
_0-0_計極細
  6
CONTINUOUS
 62
    2
 10
1189.7968103447554
 20
660.48797217592198
 40
1.0953188836088352
  0
CIRCLE
  8
_0-0_計極細
  6
CONTINUOUS
 62
    2
 10
1189.7168103447555
 20
664.27926847221829
 40
0.3318518518518431
  0
CIRCLE
  8
_0-0_計極細
  6
CONTINUOUS
 62
    2
 10
1208.1968103447552
 20
667.31926847221803
 40
0.3318518518518431
  0
CIRCLE
  8
_0-0_計極細
  6
CONTINUOUS
 62
    2
 10
1143.5738473817937
 20
624.05071559836711
 40
0.3318518518518431
  0
CIRCLE
  8
_0-0_計極細
  6
CONTINUOUS
 62
    2
 10
1143.4538473817929
 20
638.42404893170033
 40
0.3318518518518431
  0
CIRCLE
  8
_0-0_計極細
  6
CONTINUOUS
 62
    2
 10
1171.9334770114224
 20
641.67797217592226
 40
1.0953188836088352
  0
CIRCLE
  8
_0-0_計極細
  6
CONTINUOUS
 62
    2
 10
1202.3325925925924
 20
609.64574074074085
 40
1.0953188836088352
  0
CIRCLE
  8
_0-0_計極細
  6
CONTINUOUS
 62
    2
 10
1174.5734770114223
 20
615.75797217592242
 40
1.0953188836088352
  0
CIRCLE
  8
_0-0_計極細
  6
CONTINUOUS
 62
    2
 10
1153.4534770114224
 20
629.19797217592236
 40
1.0953188836088352
  0
CIRCLE
  8
_0-0_計極細
  6
CONTINUOUS
 62
    2
 10
1147.3201436780896
 20
611.27797217592251
 40
1.0953188836088352
  0
CIRCLE
  8
_0-0_計極細
  6
CONTINUOUS
 62
    2
 10
1189.5568103447554
 20
638.00797217592219
 40
1.0953188836088352
  0
CIRCLE
  8
_0-0_計極細
  6
CONTINUOUS
 62
    2
 10
1170.3568103447556
 20
657.2079721759219
 40
1.0953188836088352
  0
CIRCLE
  8
_0-0_計極細
  6
CONTINUOUS
 62
    2
 10
1203.6101436780887
 20
653.26130550925529
 40
1.0953188836088352
  0
CIRCLE
  8
_0-0_計極細
  6
CONTINUOUS
 62
    2
 10
1212.996810344755
 20
662.54130550925527
 40
1.0953188836088352
  0
CIRCLE
  8
_0-0_計極細
  6
CONTINUOUS
 62
    2
 10
1215.8768103447551
 20
654.27926847221829
 40
0.3318518518518431
  0
CIRCLE
  8
_0-0_計極細
  6
CONTINUOUS
 62
    2
 10
1198.1168103447553
 20
641.55926847221838
 40
0.3318518518518431
  0
CIRCLE
  8
_0-0_計極細
  6
CONTINUOUS
 62
    2
 10
1199.7968103447552
 20
657.63926847221819
 40
0.3318518518518431
  0
CIRCLE
  8
_0-0_計極細
  6
CONTINUOUS
 62
    2
 10
1189.7168103447555
 20
645.87926847221843
 40
0.3318518518518431
  0
CIRCLE
  8
_0-0_計極細
  6
CONTINUOUS
 62
    2
 10
1200.5168103447554
 20
633.1592684722184
 40
0.3318518518518431
  0
CIRCLE
  8
_0-0_計極細
  6
CONTINUOUS
 62
    2
 10
1201.4768103447554
 20
620.67926847221861
 40
0.3318518518518431
  0
CIRCLE
  8
_0-0_計極細
  6
CONTINUOUS
 62
    2
 10
1197.1568103447553
 20
612.27926847221863
 40
0.3318518518518431
  0
CIRCLE
  8
_0-0_計極細
  6
CONTINUOUS
 62
    2
 10
1173.6368103447558
 20
644.19926847221836
 40
0.3318518518518431
  0
CIRCLE
  8
_0-0_計極細
  6
CONTINUOUS
 62
    2
 10
1168.2768103447556
 20
653.02593513888485
 40
0.3318518518518431
  0
CIRCLE
  8
_0-0_計極細
  6
CONTINUOUS
 62
    2
 10
1169.770143678089
 20
664.86593513888477
 40
0.3318518518518431
  0
CIRCLE
  8
_0-0_計極細
  6
CONTINUOUS
 62
    2
 10
1175.4634770114226
 20
620.45260180555192
 40
0.3318518518518431
  0
CIRCLE
  8
_0-0_計極細
  6
CONTINUOUS
 62
    2
 10
1168.7434770114223
 20
617.09260180555191
 40
0.3318518518518431
  0
CIRCLE
  8
_0-0_計極細
  6
CONTINUOUS
 62
    2
 10
1175.9434770114224
 20
611.65260180555197
 40
0.3318518518518431
  0
CIRCLE
  8
_0-0_計極細
  6
CONTINUOUS
 62
    2
 10
1159.7834770114223
 20
611.492601805552
 40
0.3318518518518431
  0
CIRCLE
  8
_0-0_計極細
  6
CONTINUOUS
 62
    2
 10
1151.4634770114226
 20
614.37260180555199
 40
0.3318518518518431
  0
CIRCLE
  8
_0-0_計極細
  6
CONTINUOUS
 62
    2
 10
1144.5834770114229
 20
596.45260180555215
 40
0.3318518518518431
  0
CIRCLE
  8
_0-0_計極細
  6
CONTINUOUS
 62
    2
 10
1150.1834770114228
 20
607.17260180555206
 40
0.3318518518518431
  0
CIRCLE
  8
_0-0_計極細
  6
CONTINUOUS
 62
    2
 10
1160.8834770114227
 20
621.15260180555185
 40
0.3318518518518431
  0
CIRCLE
  8
_0-0_計極細
  6
CONTINUOUS
 62
    2
 10
1150.3634770114227
 20
631.36593513888511
 40
0.3318518518518431
  0
CIRCLE
  8
_0-0_計極細
  6
CONTINUOUS
 62
    2
 10
1152.816810344756
 20
646.35260180555167
 40
0.3318518518518431
  0
CIRCLE
  8
_0-0_計極細
  6
CONTINUOUS
 62
    2
 10
1146.8434770114227
 20
643.47260180555168
 40
0.3318518518518431
  0
LINE
  8
_0-0_計極細
  6
CONTINUOUS
 62
    2
 10
1209.9740014487561
 20
592.41503982313259
 11
1223.5066483119936
 21
605.94768668636993
  0
LINE
  8
_0-0_計極細
  6
CONTINUOUS
 62
    2
 10
1167.5475945775629
 20
592.41503982313259
 11
1183.2925547544305
 21
608.16000000000008
  0
LINE
  8
_0-0_計極細
  6
CONTINUOUS
 62
    2
 10
1205
 20
629.86744524556968
 11
1223.5066482875222
 21
648.3740935330917
  0
LINE
  8
_0-0_計極細
  6
CONTINUOUS
 62
    2
 10
1205.7313607616366
 20
592.41503982313259
 11
1223.5066483095461
 21
610.19032737104214
  0
LINE
  8
_0-0_計極細
  6
CONTINUOUS
 62
    2
 10
1163.3049538904438
 20
592.41503982313259
 11
1179.0499140673114
 21
608.16000000000008
  0
LINE
  8
_0-0_計極細
  6
CONTINUOUS
 62
    2
 10
1205
 20
634.110085932689
 11
1220.0499139595809
 21
649.15999989226975
  0
LINE
  8
_0-0_計極細
  6
CONTINUOUS
 62
    2
 10
1201.4887200745175
 20
592.41503982313259
 11
1223.5066483070991
 21
614.43296805571435
  0
LINE
  8
_0-0_計極細
  6
CONTINUOUS
 62
    2
 10
1159.0623132033243
 20
592.41503982313259
 11
1174.8072733801919
 21
608.16000000000008
  0
LINE
  8
_0-0_計極細
  6
CONTINUOUS
 62
    2
 10
1205
 20
638.35272661980821
 11
1215.8072733028316
 21
649.15999992263949
  0
LINE
  8
_0-0_計極細
  6
CONTINUOUS
 62
    2
 10
1155
 20
608.16000000000008
 11
1155
 21
592.41503982313259
  0
LINE
  8
_0-0_計極細
  6
CONTINUOUS
 62
    2
 10
1205
 20
649.15999999999997
 11
1223.5066482870689
 21
649.15999999999997
  0
LINE
  8
_0-0_計極細
  6
CONTINUOUS
 62
    2
 10
1155
 20
608.16000000000008
 11
1205
 21
608.16000000000008
  0
LINE
  8
_0-0_計極細
  6
CONTINUOUS
 62
    2
 10
1205
 20
649.15999999999997
 11
1205
 21
608.16000000000008
  0
CIRCLE
  8
_0-0_計極細
  6
CONTINUOUS
 62
    2
 10
1023.6501436780878
 20
632.10130550925578
 40
1.0953188836088352
  0
CIRCLE
  8
_0-0_計極細
  6
CONTINUOUS
 62
    2
 10
1031.0723659003129
 20
597.14840363009444
 40
0.3318518518518431
  0
CIRCLE
  8
_0-0_計極細
  6
CONTINUOUS
 62
    2
 10
1030.2723659003123
 20
610.74204624999641
 40
0.3318518518518431
  0
CIRCLE
  8
_0-0_計極細
  6
CONTINUOUS
 62
    2
 10
1030.8675395114228
 20
643.56797217592248
 40
1.0953188836088352
  0
LINE
  8
_0-0_計極細
  6
CONTINUOUS
 62
    2
 10
1035
 20
653.16000000000008
 11
1035
 21
592.41503982313259
  0
LINE
  8
_0-0_計極細
  6
CONTINUOUS
 62
    2
 10
1034.5
 20
653.16000000000008
 11
1035
 21
653.16000000000008
  0
CIRCLE
  8
_0-0_計極細
  6
CONTINUOUS
 62
    2
 10
951.31462413258214
 20
662.18130550925525
 40
1.0953188836088352
  0
CIRCLE
  8
_0-0_計極細
  6
CONTINUOUS
 62
    2
 10
1023.9834770114236
 20
599.9679721759228
 40
1.0953188836088352
  0
CIRCLE
  8
_0-0_計極細
  6
CONTINUOUS
 62
    2
 10
1021.1034770114235
 20
611.1679721759225
 40
1.0953188836088352
  0
CIRCLE
  8
_0-0_計極細
  6
CONTINUOUS
 62
    2
 10
999.51681034475678
 20
613.32797217592247
 40
1.0953188836088352
  0
CIRCLE
  8
_0-0_計極細
  6
CONTINUOUS
 62
    2
 10
967.59681034475716
 20
621.0079721759223
 40
1.0953188836088352
  0
CIRCLE
  8
_0-0_計極細
  6
CONTINUOUS
 62
    2
 10
979.35681034475749
 20
643.80797217592203
 40
1.0953188836088352
  0
CIRCLE
  8
_0-0_計極細
  6
CONTINUOUS
 62
    2
 10
963.43287185722966
 20
661.64574074074085
 40
1.0953188836088352
  0
CIRCLE
  8
_0-0_計極細
  6
CONTINUOUS
 62
    2
 10
994.4901436780907
 20
657.48797217592198
 40
1.0953188836088352
  0
CIRCLE
  8
_0-0_計極細
  6
CONTINUOUS
 62
    2
 10
1006.6634770114239
 20
644.29760180555172
 40
0.3318518518518431
  0
CIRCLE
  8
_0-0_計極細
  6
CONTINUOUS
 62
    2
 10
1027.8101436780903
 20
626.4576018055518
 40
0.3318518518518431
  0
CIRCLE
  8
_0-0_計極細
  6
CONTINUOUS
 62
    2
 10
1027.4901436780901
 20
637.23093513888512
 40
0.3318518518518431
  0
CIRCLE
  8
_0-0_計極細
  6
CONTINUOUS
 62
    2
 10
1018.423477011424
 20
643.20426847221836
 40
0.3318518518518431
  0
CIRCLE
  8
_0-0_計極細
  6
CONTINUOUS
 62
    2
 10
1009.5701436780905
 20
622.72426847221857
 40
0.3318518518518431
  0
CIRCLE
  8
_0-0_計極細
  6
CONTINUOUS
 62
    2
 10
1019.5701436780905
 20
596.5553795833298
 40
0.3318518518518431
  0
CIRCLE
  8
_0-0_計極細
  6
CONTINUOUS
 62
    2
 10
1023.7301436780905
 20
605.51537958332983
 40
0.3318518518518431
  0
CIRCLE
  8
_0-0_計極細
  6
CONTINUOUS
 62
    2
 10
1015.5168103447573
 20
614.47537958332964
 40
0.3318518518518431
  0
CIRCLE
  8
_0-0_計極細
  6
CONTINUOUS
 62
    2
 10
1007.7301436780904
 20
612.55537958332968
 40
0.3318518518518431
  0
CIRCLE
  8
_0-0_計極細
  6
CONTINUOUS
 62
    2
 10
995.78347701142422
 20
611.9153795833297
 40
0.3318518518518431
  0
CIRCLE
  8
_0-0_計極細
  6
CONTINUOUS
 62
    2
 10
997.91681034475744
 20
617.46204624999632
 40
0.3318518518518431
  0
CIRCLE
  8
_0-0_計極細
  6
CONTINUOUS
 62
    2
 10
994.1834770114242
 20
618.95537958332966
 40
0.3318518518518431
  0
CIRCLE
  8
_0-0_計極細
  6
CONTINUOUS
 62
    2
 10
1000.903477011424
 20
622.26204624999639
 40
0.3318518518518431
  0
CIRCLE
  8
_0-0_計極細
  6
CONTINUOUS
 62
    2
 10
977.32347701142419
 20
611.52871291666304
 40
0.3318518518518431
  0
CIRCLE
  8
_0-0_計極細
  6
CONTINUOUS
 62
    2
 10
973.59014367809095
 20
616.64871291666293
 40
0.3318518518518431
  0
CIRCLE
  8
_0-0_計極細
  6
CONTINUOUS
 62
    2
 10
968.36347701142415
 20
612.59537958332976
 40
0.3318518518518431
  0
CIRCLE
  8
_0-0_計極細
  6
CONTINUOUS
 62
    2
 10
971.77681034475756
 20
623.36871291666296
 40
0.3318518518518431
  0
CIRCLE
  8
_0-0_計極細
  6
CONTINUOUS
 62
    2
 10
996.44347701142408
 20
639.6353795833295
 40
0.3318518518518431
  0
CIRCLE
  8
_0-0_計極細
  6
CONTINUOUS
 62
    2
 10
980.0168103447578
 20
635.26204624999627
 40
0.3318518518518431
  0
CIRCLE
  8
_0-0_計極細
  6
CONTINUOUS
 62
    2
 10
988.8701436780907
 20
643.36871291666273
 40
0.3318518518518431
  0
CIRCLE
  8
_0-0_計極細
  6
CONTINUOUS
 62
    2
 10
996.44347701142408
 20
646.78204624999603
 40
0.3318518518518431
  0
CIRCLE
  8
_0-0_計極細
  6
CONTINUOUS
 62
    2
 10
981.403477011424
 20
649.02204624999615
 40
0.3318518518518431
  0
CIRCLE
  8
_0-0_計極細
  6
CONTINUOUS
 62
    2
 10
969.13681034475758
 20
649.76871291666271
 40
0.3318518518518431
  0
CIRCLE
  8
_0-0_計極細
  6
CONTINUOUS
 62
    2
 10
978.41014367809066
 20
666.06871291666255
 40
0.3318518518518431
  0
CIRCLE
  8
_0-0_計極細
  6
CONTINUOUS
 62
    2
 10
985.45014367809074
 20
657.10871291666263
 40
0.3318518518518431
  0
CIRCLE
  8
_0-0_計極細
  6
CONTINUOUS
 62
    2
 10
1000.3834770114241
 20
657.42871291666279
 40
0.3318518518518431
  0
CIRCLE
  8
_0-0_計極細
  6
CONTINUOUS
 62
    2
 10
996.97014367809061
 20
667.13537958332938
 40
0.3318518518518431
  0
CIRCLE
  8
_0-0_計極細
  6
CONTINUOUS
 62
    2
 10
982.03681034475721
 20
661.16204624999591
 40
0.3318518518518431
  0
CIRCLE
  8
_0-0_計極細
  6
CONTINUOUS
 62
    2
 10
964.97014367809118
 20
654.12204624999606
 40
0.3318518518518431
  0
CIRCLE
  8
_0-0_計極細
  6
CONTINUOUS
 62
    2
 10
957.3968103447578
 20
652.94871291666266
 40
0.3318518518518431
  0
CIRCLE
  8
_0-0_計極細
  6
CONTINUOUS
 62
    2
 10
951.03236590031338
 20
652.30871291666278
 40
0.3318518518518431
  0
CIRCLE
  8
_0-0_計極細
  6
CONTINUOUS
 62
    2
 10
957.23088441883147
 20
658.28204624999603
 40
0.3318518518518431
  0
LINE
  8
_0-0_計極細
  6
CONTINUOUS
 62
    2
 10
992.54681526100615
 20
592.41503989299463
 11
1008.2917753680118
 21
608.16000000000008
  0
LINE
  8
_0-0_計極細
  6
CONTINUOUS
 62
    2
 10
950.12040852182156
 20
592.41504002500267
 11
965.86536849681909
 21
608.16000000000008
  0
LINE
  8
_0-0_計極細
  6
CONTINUOUS
 62
    2
 10
946.49335171293114
 20
631.21439008730533
 11
964.43896162562578
 21
649.15999999999997
  0
LINE
  8
_0-0_計極細
  6
CONTINUOUS
 62
    2
 10
988.3041745870878
 20
592.41503990619549
 11
1004.0491346808922
 21
608.16000000000008
  0
LINE
  8
_0-0_計極細
  6
CONTINUOUS
 62
    2
 10
946.49335171293114
 20
593.0306239032318
 11
965
 21
611.53727219030065
  0
LINE
  8
_0-0_計極細
  6
CONTINUOUS
 62
    2
 10
946.49335171293114
 20
635.45703077442465
 11
960.19632093850669
 21
649.15999999999997
  0
LINE
  8
_0-0_計極細
  6
CONTINUOUS
 62
    2
 10
984.06153391316957
 20
592.41503991939635
 11
999.80649399377307
 21
608.16000000000008
  0
LINE
  8
_0-0_計極細
  6
CONTINUOUS
 62
    2
 10
946.49335171293114
 20
597.27326459035112
 11
965
 21
615.77991287741986
  0
LINE
  8
_0-0_計極細
  6
CONTINUOUS
 62
    2
 10
946.49335171293114
 20
639.69967146154409
 11
955.95368025138725
 21
649.15999999999997
  0
LINE
  8
_0-0_計極細
  6
CONTINUOUS
 62
    2
 10
1015
 20
608.16000000000008
 11
1015
 21
592.41503982313259
  0
LINE
  8
_0-0_計極細
  6
CONTINUOUS
 62
    2
 10
965
 20
649.15999999999997
 11
946.49335171293114
 21
649.15999999999997
  0
LINE
  8
_0-0_計極細
  6
CONTINUOUS
 62
    2
 10
1015
 20
608.16000000000008
 11
965
 21
608.16000000000008
  0
LINE
  8
_0-0_計極細
  6
CONTINUOUS
 62
    2
 10
965
 20
649.15999999999997
 11
965
 21
608.16000000000008
  0
LINE
  8
_0-7_枠細線
  6
CONTINUOUS
 62
    5
 10
1183.9140288208209
 20
650.30808383106444
 11
1176.4140288208209
 21
665.30808383106444
  0
LINE
  8
_0-7_枠細線
  6
CONTINUOUS
 62
    5
 10
1168.9140288208209
 20
650.30808383106444
 11
1183.9140288208209
 21
650.30808383106444
  0
LINE
  8
_0-7_枠細線
  6
CONTINUOUS
 62
    5
 10
1176.4140288208209
 20
665.30808383106444
 11
1168.9140288208209
 21
650.30808383106444
  0
TEXT
  8
_0-7_枠細線
 62
    5
 10
1171.279180088969
 20
649.35926386621463
 40
12.5
 41
0.8
 50
0
  1
５
  0
LINE
  8
_0-5_寸法線
  6
CONTINUOUS
 62
    7
 10
1005
 20
681.16000000000008
 11
1005
 21
800.66000000000031
  0
LINE
  8
_0-5_寸法線
  6
CONTINUOUS
 62
    7
 10
1005
 20
795.66000000000031
 11
1014.6592582628908
 21
798.24819045102561
  0
LINE
  8
_0-5_寸法線
  6
CONTINUOUS
 62
    7
 10
1005
 20
795.66000000000031
 11
1014.6592582628908
 21
793.07180954897512
  0
LINE
  8
_0-5_寸法線
  6
CONTINUOUS
 62
    7
 10
1165
 20
681.16000000000008
 11
1165.0000000000005
 21
800.66000000000031
  0
LINE
  8
_0-5_寸法線
  6
CONTINUOUS
 62
    7
 10
1165.0000000000005
 20
795.66000000000031
 11
1155.3407417371097
 21
793.07180954897512
  0
LINE
  8
_0-5_寸法線
  6
CONTINUOUS
 62
    7
 10
1165.0000000000005
 20
795.66000000000031
 11
1155.3407417371097
 21
798.24819045102561
  0
LINE
  8
_0-5_寸法線
  6
CONTINUOUS
 62
    7
 10
1005
 20
795.66000000000031
 11
1165.0000000000005
 21
795.66000000000031
  0
TEXT
  8
_0-5_寸法線
 62
    7
 10
1073.7500000000005
 20
795.66000000000031
 40
15
 41
1
 50
0
  1
160
  0
LINE
  8
_0-5_寸法線
  6
CONTINUOUS
 62
    7
 10
1165.0000000000005
 20
620.16000000000008
 11
1165.0000000000005
 21
575.15999999999974
  0
LINE
  8
_0-5_寸法線
  6
CONTINUOUS
 62
    7
 10
1165.0000000000005
 20
580.15999999999974
 11
1155.3407417371097
 21
577.57180954897456
  0
LINE
  8
_0-5_寸法線
  6
CONTINUOUS
 62
    7
 10
1165.0000000000005
 20
580.15999999999974
 11
1155.3407417371097
 21
582.74819045102493
  0
LINE
  8
_0-5_寸法線
  6
CONTINUOUS
 62
    7
 10
1135.0000000000005
 20
643.16000000000008
 11
1135.0000000000009
 21
575.15999999999974
  0
LINE
  8
_0-5_寸法線
  6
CONTINUOUS
 62
    7
 10
1135.0000000000009
 20
580.15999999999974
 11
1144.6592582628916
 21
582.74819045102493
  0
LINE
  8
_0-5_寸法線
  6
CONTINUOUS
 62
    7
 10
1135.0000000000009
 20
580.15999999999974
 11
1144.6592582628916
 21
577.57180954897456
  0
LINE
  8
_0-5_寸法線
  6
CONTINUOUS
 62
    7
 10
1165.0000000000005
 20
580.15999999999974
 11
1135.0000000000009
 21
580.15999999999974
  0
TEXT
  8
_0-5_寸法線
 62
    7
 10
1142.5000000000005
 20
580.15999999999974
 40
15
 41
1
 50
0
  1
30
  0
LINE
  8
_0-5_寸法線
  6
CONTINUOUS
 62
    7
 10
1005
 20
620.16000000000008
 11
1004.9999999999993
 21
575.15999999999974
  0
LINE
  8
_0-5_寸法線
  6
CONTINUOUS
 62
    7
 10
1004.9999999999994
 20
580.15999999999974
 11
1014.65925826289
 21
582.74819045102493
  0
LINE
  8
_0-5_寸法線
  6
CONTINUOUS
 62
    7
 10
1004.9999999999994
 20
580.15999999999974
 11
1014.65925826289
 21
577.57180954897456
  0
LINE
  8
_0-5_寸法線
  6
CONTINUOUS
 62
    7
 10
1034.9999999999998
 20
643.16000000000008
 11
1034.9999999999991
 21
575.15999999999974
  0
LINE
  8
_0-5_寸法線
  6
CONTINUOUS
 62
    7
 10
1034.9999999999991
 20
580.15999999999974
 11
1025.3407417371086
 21
577.57180954897456
  0
LINE
  8
_0-5_寸法線
  6
CONTINUOUS
 62
    7
 10
1034.9999999999991
 20
580.15999999999974
 11
1025.3407417371086
 21
582.74819045102493
  0
LINE
  8
_0-5_寸法線
  6
CONTINUOUS
 62
    7
 10
1004.9999999999994
 20
580.15999999999974
 11
1034.9999999999991
 21
580.15999999999974
  0
TEXT
  8
_0-5_寸法線
 62
    7
 10
1012.4999999999995
 20
580.15999999999974
 40
15
 41
1
 50
0
  1
30
  0
LINE
  8
_0-5_寸法線
  6
CONTINUOUS
 62
    7
 10
1035
 20
648.16000000000008
 11
1035
 21
575.15999999999974
  0
LINE
  8
_0-5_寸法線
  6
CONTINUOUS
 62
    7
 10
1035
 20
580.15999999999974
 11
1044.6592582628907
 21
582.74819045102493
  0
LINE
  8
_0-5_寸法線
  6
CONTINUOUS
 62
    7
 10
1035
 20
580.15999999999974
 11
1044.6592582628907
 21
577.57180954897456
  0
LINE
  8
_0-5_寸法線
  6
CONTINUOUS
 62
    7
 10
1135
 20
648.16000000000008
 11
1135
 21
575.15999999999974
  0
LINE
  8
_0-5_寸法線
  6
CONTINUOUS
 62
    7
 10
1135
 20
580.15999999999974
 11
1125.3407417371093
 21
577.57180954897456
  0
LINE
  8
_0-5_寸法線
  6
CONTINUOUS
 62
    7
 10
1135
 20
580.15999999999974
 11
1125.3407417371093
 21
582.74819045102493
  0
LINE
  8
_0-5_寸法線
  6
CONTINUOUS
 62
    7
 10
1035
 20
580.15999999999974
 11
1135
 21
580.15999999999974
  0
TEXT
  8
_0-5_寸法線
 62
    7
 10
1073.7500000000002
 20
580.15999999999974
 40
15
 41
1
 50
0
  1
100
  0
LINE
  8
_0-5_寸法線
  6
CONTINUOUS
 62
    7
 10
993.80000000000018
 20
653.16000000000008
 11
947.69999999999982
 21
653.1600000000002
  0
LINE
  8
_0-5_寸法線
  6
CONTINUOUS
 62
    7
 10
952.69999999999982
 20
653.1600000000002
 11
955.28819045102512
 21
643.50074173710937
  0
LINE
  8
_0-5_寸法線
  6
CONTINUOUS
 62
    7
 10
952.69999999999982
 20
653.1600000000002
 11
950.11180954897463
 21
643.50074173710937
  0
LINE
  8
_0-5_寸法線
  6
CONTINUOUS
 62
    7
 10
993.80000000000018
 20
630.16000000000008
 11
947.69999999999982
 21
630.1600000000002
  0
LINE
  8
_0-5_寸法線
  6
CONTINUOUS
 62
    7
 10
952.69999999999982
 20
630.1600000000002
 11
950.11180954897463
 21
639.81925826289091
  0
LINE
  8
_0-5_寸法線
  6
CONTINUOUS
 62
    7
 10
952.69999999999982
 20
630.1600000000002
 11
955.28819045102512
 21
639.81925826289091
  0
LINE
  8
_0-5_寸法線
  6
CONTINUOUS
 62
    7
 10
952.69999999999982
 20
653.1600000000002
 11
952.69999999999982
 21
630.1600000000002
  0
TEXT
  8
_0-5_寸法線
 62
    7
 10
952.69999999999982
 20
634.16000000000031
 40
15
 41
1
 50
90
  1
23
  0
LINE
  8
_0-5_寸法線
  6
CONTINUOUS
 62
    7
 10
956.49335171293114
 20
676.15999999999985
 11
957.69999999999982
 21
676.15999999999985
  0
LINE
  8
_0-5_寸法線
  6
CONTINUOUS
 62
    7
 10
952.69999999999982
 20
676.15999999999985
 11
955.28819045102512
 21
666.50074173710914
  0
LINE
  8
_0-5_寸法線
  6
CONTINUOUS
 62
    7
 10
952.69999999999982
 20
676.15999999999985
 11
950.11180954897463
 21
666.50074173710914
  0
LINE
  8
_0-5_寸法線
  6
CONTINUOUS
 62
    7
 10
993.80000000000018
 20
653.16000000000008
 11
947.69999999999982
 21
653.16000000000008
  0
LINE
  8
_0-5_寸法線
  6
CONTINUOUS
 62
    7
 10
952.69999999999982
 20
653.16000000000008
 11
950.11180954897463
 21
662.81925826289068
  0
LINE
  8
_0-5_寸法線
  6
CONTINUOUS
 62
    7
 10
952.69999999999982
 20
653.16000000000008
 11
955.28819045102512
 21
662.81925826289068
  0
LINE
  8
_0-5_寸法線
  6
CONTINUOUS
 62
    7
 10
952.69999999999982
 20
676.15999999999985
 11
952.69999999999982
 21
653.16000000000008
  0
TEXT
  8
_0-5_寸法線
 62
    7
 10
952.69999999999982
 20
657.16000000000008
 40
15
 41
1
 50
90
  1
23
  0
TEXT
  8
_0-7_枠細線
 62
    5
 10
1035.0791055968334
 20
532.9361183425375
 40
25
 41
0.8
 50
0
  1
断面詳細図
  0
TEXT
  8
_0-7_枠細線
 62
    5
 10
1150.0280753460015
 20
536.26660165412977
 40
20
 41
0.6
 50
0
  1
Ｓ＝１：５
  0
LINE
  8
_0-1_計細線
  6
CONTINUOUS
 62
    3
 10
373.51795824097098
 20
560.30583080107976
 11
373.51795824097098
 21
548.90583080107922
  0
LINE
  8
_0-1_計細線
  6
CONTINUOUS
 62
    3
 10
373.51795824097098
 20
548.90583080107922
 11
523.51795824097098
 21
548.90583080107922
  0
LINE
  8
_0-1_計細線
  6
CONTINUOUS
 62
    3
 10
523.51795824097098
 20
560.30583080107976
 11
523.51795824097098
 21
548.90583080107922
  0
LINE
  8
_0-0_計極細
  6
CONTINUOUS
 62
    2
 10
373.51795824097098
 20
552.10583080107949
 11
523.51795824097098
 21
552.10583080107949
  0
LINE
  8
_0-0_計極細
  6
CONTINUOUS
 62
    2
 10
373.51795824097098
 20
557.10583080107949
 11
523.51795824097098
 21
557.10583080107949
  0
LINE
  8
_0-1_計細線
  6
CONTINUOUS
 62
    3
 10
373.51795824097098
 20
560.30583080107976
 11
523.51795824097098
 21
560.30583080107976
  0
LINE
  8
_0-1_計細線
  6
CONTINUOUS
 62
    3
 10
373.51795824097098
 20
577.70583080108031
 11
373.51795824097098
 21
566.30583080107976
  0
LINE
  8
_0-0_計極細
  6
CONTINUOUS
 62
    2
 10
374.01795824097093
 20
566.30583080107976
 11
374.01795824097093
 21
560.30583080107976
  0
LINE
  8
_0-0_計極細
  6
CONTINUOUS
 62
    2
 10
387.01795824097098
 20
566.30583080107976
 11
387.01795824097098
 21
560.30583080107976
  0
LINE
  8
_0-1_計細線
  6
CONTINUOUS
 62
    3
 10
373.51795824097098
 20
577.70583080108031
 11
523.51795824097098
 21
577.70583080108031
  0
LINE
  8
_0-1_計細線
  6
CONTINUOUS
 62
    3
 10
523.51795824097098
 20
577.70583080108031
 11
523.51795824097098
 21
566.30583080107976
  0
LINE
  8
_0-0_計極細
  6
CONTINUOUS
 62
    2
 10
373.51795824097098
 20
569.50583080108004
 11
523.51795824097098
 21
569.50583080108004
  0
LINE
  8
_0-0_計極細
  6
CONTINUOUS
 62
    2
 10
373.51795824097098
 20
574.50583080108004
 11
523.51795824097098
 21
574.50583080108004
  0
LINE
  8
_0-1_計細線
  6
CONTINUOUS
 62
    3
 10
373.51795824097098
 20
566.30583080107976
 11
523.51795824097098
 21
566.30583080107976
  0
LINE
  8
_0-0_計極細
  6
CONTINUOUS
 62
    2
 10
510.01795824097093
 20
566.30583080107976
 11
510.01795824097093
 21
560.30583080107976
  0
LINE
  8
_0-0_計極細
  6
CONTINUOUS
 62
    2
 10
523.01795824097098
 20
566.30583080107976
 11
523.01795824097098
 21
560.30583080107976
  0
LINE
  8
_0-1_計細線
  6
CONTINUOUS
 62
    3
 10
432.51795824097002
 20
560.95583080107986
 11
491.51795824097007
 21
560.95583080107986
  0
LINE
  8
_0-1_計細線
  6
CONTINUOUS
 62
    3
 10
491.51795824097007
 20
565.65583080107967
 11
432.51795824097002
 21
565.65583080107967
  0
LINE
  8
_0-1_計細線
  6
CONTINUOUS
 62
    3
 10
432.51795824097002
 20
565.65583080107967
 11
432.51795824097002
 21
560.95583080107986
  0
LINE
  8
_0-1_計細線
  6
CONTINUOUS
 62
    3
 10
481.51795824097007
 20
565.65583080107967
 11
481.51795824097007
 21
560.95583080107986
  0
LINE
  8
_0-1_計細線
  6
CONTINUOUS
 62
    3
 10
489.51795824097007
 20
565.65583080107967
 11
489.51795824097007
 21
560.95583080107986
  0
LINE
  8
_0-1_計細線
  6
CONTINUOUS
 62
    3
 10
491.51795824097007
 20
565.65583080107967
 11
491.51795824097007
 21
560.95583080107986
  0
LINE
  8
_0-1_計細線
  6
CONTINUOUS
 62
    3
 10
487.51795824097002
 20
565.65583080107967
 11
487.51795824097002
 21
560.95583080107986
  0
LINE
  8
_0-1_計細線
  6
CONTINUOUS
 62
    3
 10
485.51795824097007
 20
565.65583080107967
 11
485.51795824097007
 21
560.95583080107986
  0
LINE
  8
_0-1_計細線
  6
CONTINUOUS
 62
    3
 10
483.51795824097002
 20
565.65583080107967
 11
483.51795824097002
 21
560.95583080107986
  0
LINE
  8
_0-0_計極細
  6
CONTINUOUS
 62
    2
 10
471.01795824097098
 20
560.95583080107986
 11
471.01795824097098
 21
560.30583080107976
  0
LINE
  8
_0-0_計極細
  6
CONTINUOUS
 62
    2
 10
484.01795824097093
 20
560.95583080107986
 11
484.01795824097093
 21
560.30583080107976
  0
LINE
  8
_0-0_計極細
  6
CONTINUOUS
 62
    2
 10
471.01795824097098
 20
566.30583080107976
 11
471.01795824097098
 21
565.65583080107967
  0
LINE
  8
_0-0_計極細
  6
CONTINUOUS
 62
    2
 10
484.01795824097093
 20
566.30583080107976
 11
484.01795824097093
 21
565.65583080107967
  0
LINE
  8
_0-1_計細線
  6
CONTINUOUS
 62
    3
 10
373.51795824097098
 20
595.10583080107972
 11
523.51795824097098
 21
595.10583080107972
  0
LINE
  8
_0-1_計細線
  6
CONTINUOUS
 62
    3
 10
373.51795824097098
 20
583.70583080107917
 11
523.51795824097098
 21
583.70583080107917
  0
LINE
  8
_0-1_計細線
  6
CONTINUOUS
 62
    3
 10
373.51795824097098
 20
595.10583080107972
 11
373.51795824097098
 21
583.70583080107917
  0
LINE
  8
_0-1_計細線
  6
CONTINUOUS
 62
    3
 10
523.51795824097098
 20
595.10583080107972
 11
523.51795824097098
 21
583.70583080107917
  0
LINE
  8
_0-0_計極細
  6
CONTINUOUS
 62
    2
 10
373.51795824097098
 20
586.90583080107945
 11
523.51795824097098
 21
586.90583080107945
  0
LINE
  8
_0-0_計極細
  6
CONTINUOUS
 62
    2
 10
373.51795824097098
 20
591.90583080107945
 11
523.51795824097098
 21
591.90583080107945
  0
LINE
  8
_0-0_計極細
  6
CONTINUOUS
 62
    2
 10
374.01795824097093
 20
583.70583080107917
 11
374.01795824097093
 21
577.70583080108031
  0
LINE
  8
_0-0_計極細
  6
CONTINUOUS
 62
    2
 10
387.01795824097098
 20
583.70583080107917
 11
387.01795824097098
 21
577.70583080108031
  0
LINE
  8
_0-0_計極細
  6
CONTINUOUS
 62
    2
 10
471.01795824097098
 20
583.70583080107917
 11
471.01795824097098
 21
577.70583080108031
  0
LINE
  8
_0-0_計極細
  6
CONTINUOUS
 62
    2
 10
484.01795824097093
 20
583.70583080107917
 11
484.01795824097093
 21
577.70583080108031
  0
LINE
  8
_0-0_計極細
  6
CONTINUOUS
 62
    2
 10
510.01795824097093
 20
583.70583080107917
 11
510.01795824097093
 21
577.70583080108031
  0
LINE
  8
_0-0_計極細
  6
CONTINUOUS
 62
    2
 10
523.01795824097098
 20
583.70583080107917
 11
523.01795824097098
 21
577.70583080108031
  0
LINE
  8
_0-1_計細線
  6
CONTINUOUS
 62
    3
 10
373.51795824097098
 20
612.50583080108026
 11
523.51795824097098
 21
612.50583080108026
  0
LINE
  8
_0-1_計細線
  6
CONTINUOUS
 62
    3
 10
373.51795824097098
 20
601.10583080107972
 11
523.51795824097098
 21
601.10583080107972
  0
LINE
  8
_0-1_計細線
  6
CONTINUOUS
 62
    3
 10
373.51795824097098
 20
612.50583080108026
 11
373.51795824097098
 21
601.10583080107972
  0
LINE
  8
_0-1_計細線
  6
CONTINUOUS
 62
    3
 10
523.51795824097098
 20
612.50583080108026
 11
523.51795824097098
 21
601.10583080107972
  0
LINE
  8
_0-0_計極細
  6
CONTINUOUS
 62
    2
 10
373.51795824097098
 20
604.30583080107999
 11
523.51795824097098
 21
604.30583080107999
  0
LINE
  8
_0-0_計極細
  6
CONTINUOUS
 62
    2
 10
373.51795824097098
 20
609.30583080107999
 11
523.51795824097098
 21
609.30583080107999
  0
LINE
  8
_0-0_計極細
  6
CONTINUOUS
 62
    2
 10
374.01795824097093
 20
601.10583080107972
 11
374.01795824097093
 21
595.10583080107972
  0
LINE
  8
_0-0_計極細
  6
CONTINUOUS
 62
    2
 10
387.01795824097098
 20
601.10583080107972
 11
387.01795824097098
 21
595.10583080107972
  0
LINE
  8
_0-0_計極細
  6
CONTINUOUS
 62
    2
 10
471.01795824097098
 20
601.10583080107972
 11
471.01795824097098
 21
595.10583080107972
  0
LINE
  8
_0-0_計極細
  6
CONTINUOUS
 62
    2
 10
484.01795824097093
 20
601.10583080107972
 11
484.01795824097093
 21
595.10583080107972
  0
LINE
  8
_0-0_計極細
  6
CONTINUOUS
 62
    2
 10
510.01795824097093
 20
601.10583080107972
 11
510.01795824097093
 21
595.10583080107972
  0
LINE
  8
_0-0_計極細
  6
CONTINUOUS
 62
    2
 10
523.01795824097098
 20
601.10583080107972
 11
523.01795824097098
 21
595.10583080107972
  0
LINE
  8
_0-1_計細線
  6
CONTINUOUS
 62
    3
 10
373.51795824097098
 20
629.60583080108029
 11
523.51795824097098
 21
629.60583080108029
  0
LINE
  8
_0-1_計細線
  6
CONTINUOUS
 62
    3
 10
373.51795824097098
 20
618.20583080107986
 11
523.51795824097098
 21
618.20583080107986
  0
LINE
  8
_0-1_計細線
  6
CONTINUOUS
 62
    3
 10
373.51795824097098
 20
629.60583080108029
 11
373.51795824097098
 21
618.20583080107986
  0
LINE
  8
_0-1_計細線
  6
CONTINUOUS
 62
    3
 10
523.51795824097098
 20
629.60583080108029
 11
523.51795824097098
 21
618.20583080107986
  0
LINE
  8
_0-0_計極細
  6
CONTINUOUS
 62
    2
 10
373.51795824097098
 20
621.40583080108001
 11
523.51795824097098
 21
621.40583080108001
  0
LINE
  8
_0-0_計極細
  6
CONTINUOUS
 62
    2
 10
373.51795824097098
 20
626.40583080108001
 11
523.51795824097098
 21
626.40583080108001
  0
LINE
  8
_0-0_計極細
  6
CONTINUOUS
 62
    2
 10
374.01795824097093
 20
618.20583080108111
 11
374.01795824097093
 21
612.50583080108026
  0
LINE
  8
_0-0_計極細
  6
CONTINUOUS
 62
    2
 10
387.01795824097098
 20
618.20583080108111
 11
387.01795824097098
 21
612.50583080108026
  0
LINE
  8
_0-0_計極細
  6
CONTINUOUS
 62
    2
 10
471.01795824097098
 20
618.20583080108111
 11
471.01795824097098
 21
612.50583080108026
  0
LINE
  8
_0-0_計極細
  6
CONTINUOUS
 62
    2
 10
484.01795824097093
 20
618.20583080108111
 11
484.01795824097093
 21
612.50583080108026
  0
LINE
  8
_0-0_計極細
  6
CONTINUOUS
 62
    2
 10
510.01795824097093
 20
618.20583080108111
 11
510.01795824097093
 21
612.50583080108026
  0
LINE
  8
_0-0_計極細
  6
CONTINUOUS
 62
    2
 10
523.01795824097098
 20
618.20583080108111
 11
523.01795824097098
 21
612.50583080108026
  0
LINE
  8
_0-1_計細線
  6
CONTINUOUS
 62
    3
 10
525.51795824097144
 20
631.60583080108029
 11
371.51795824097093
 21
631.60583080108029
  0
LINE
  8
_0-0_計極細
  6
CONTINUOUS
 62
    2
 10
374.01795824097093
 20
548.90583080107922
 11
374.01795824097093
 21
542.90583080107467
  0
LINE
  8
_0-0_計極細
  6
CONTINUOUS
 62
    2
 10
387.01795824097098
 20
548.90583080107922
 11
387.01795824097098
 21
542.90583080107467
  0
LINE
  8
_0-0_計極細
  6
CONTINUOUS
 62
    2
 10
471.01795824097098
 20
548.90583080107922
 11
471.01795824097098
 21
542.90583080107467
  0
LINE
  8
_0-0_計極細
  6
CONTINUOUS
 62
    2
 10
484.01795824097093
 20
548.90583080107922
 11
484.01795824097093
 21
542.90583080107467
  0
LINE
  8
_0-1_計細線
  6
CONTINUOUS
 62
    3
 10
373.51795824097098
 20
531.50583080107867
 11
523.51795824097098
 21
531.50583080107867
  0
LINE
  8
_0-1_計細線
  6
CONTINUOUS
 62
    3
 10
373.51795824097098
 20
542.90583080107922
 11
523.51795824097098
 21
542.90583080107922
  0
LINE
  8
_0-1_計細線
  6
CONTINUOUS
 62
    3
 10
373.51795824097098
 20
531.50583080107867
 11
373.51795824097098
 21
542.90583080107922
  0
LINE
  8
_0-1_計細線
  6
CONTINUOUS
 62
    3
 10
523.51795824097098
 20
531.50583080107867
 11
523.51795824097098
 21
542.90583080107922
  0
LINE
  8
_0-0_計極細
  6
CONTINUOUS
 62
    2
 10
373.51795824097098
 20
539.70583080107895
 11
523.51795824097098
 21
539.70583080107895
  0
LINE
  8
_0-0_計極細
  6
CONTINUOUS
 62
    2
 10
373.51795824097098
 20
534.70583080107895
 11
523.51795824097098
 21
534.70583080107895
  0
LINE
  8
_0-0_計極細
  6
CONTINUOUS
 62
    2
 10
510.01795824097093
 20
548.90583080107922
 11
510.01795824097093
 21
542.90583080107467
  0
LINE
  8
_0-0_計極細
  6
CONTINUOUS
 62
    2
 10
523.01795824097098
 20
548.90583080107922
 11
523.01795824097098
 21
542.90583080107467
  0
LINE
  8
_0-1_計細線
  6
CONTINUOUS
 62
    3
 10
373.51795824097098
 20
514.10583080107926
 11
523.51795824097098
 21
514.10583080107926
  0
LINE
  8
_0-1_計細線
  6
CONTINUOUS
 62
    3
 10
373.51795824097098
 20
525.50583080107981
 11
523.51795824097098
 21
525.50583080107981
  0
LINE
  8
_0-1_計細線
  6
CONTINUOUS
 62
    3
 10
373.51795824097098
 20
514.10583080107926
 11
373.51795824097098
 21
525.50583080107981
  0
LINE
  8
_0-1_計細線
  6
CONTINUOUS
 62
    3
 10
523.51795824097098
 20
514.10583080107926
 11
523.51795824097098
 21
525.50583080107981
  0
LINE
  8
_0-0_計極細
  6
CONTINUOUS
 62
    2
 10
373.51795824097098
 20
522.30583080107908
 11
523.51795824097098
 21
522.30583080107908
  0
LINE
  8
_0-0_計極細
  6
CONTINUOUS
 62
    2
 10
373.51795824097098
 20
517.30583080107908
 11
523.51795824097098
 21
517.30583080107908
  0
LINE
  8
_0-0_計極細
  6
CONTINUOUS
 62
    2
 10
374.01795824097093
 20
525.50583080107981
 11
374.01795824097093
 21
531.50583080107867
  0
LINE
  8
_0-0_計極細
  6
CONTINUOUS
 62
    2
 10
387.01795824097098
 20
525.50583080107981
 11
387.01795824097098
 21
531.50583080107867
  0
LINE
  8
_0-0_計極細
  6
CONTINUOUS
 62
    2
 10
471.01795824097098
 20
525.50583080107981
 11
471.01795824097098
 21
531.50583080107867
  0
LINE
  8
_0-0_計極細
  6
CONTINUOUS
 62
    2
 10
484.01795824097093
 20
525.50583080107981
 11
484.01795824097093
 21
531.50583080107867
  0
LINE
  8
_0-0_計極細
  6
CONTINUOUS
 62
    2
 10
510.01795824097093
 20
525.50583080107981
 11
510.01795824097093
 21
531.50583080107867
  0
LINE
  8
_0-0_計極細
  6
CONTINUOUS
 62
    2
 10
523.01795824097098
 20
525.50583080107981
 11
523.01795824097098
 21
531.50583080107867
  0
LINE
  8
_0-1_計細線
  6
CONTINUOUS
 62
    3
 10
373.51795824097098
 20
496.70583080107929
 11
523.51795824097098
 21
496.70583080107929
  0
LINE
  8
_0-1_計細線
  6
CONTINUOUS
 62
    3
 10
373.51795824097098
 20
508.10583080107989
 11
523.51795824097098
 21
508.10583080107989
  0
LINE
  8
_0-1_計細線
  6
CONTINUOUS
 62
    3
 10
373.51795824097098
 20
496.70583080107929
 11
373.51795824097098
 21
508.10583080107989
  0
LINE
  8
_0-1_計細線
  6
CONTINUOUS
 62
    3
 10
523.51795824097098
 20
496.70583080107929
 11
523.51795824097098
 21
508.10583080107989
  0
LINE
  8
_0-0_計極細
  6
CONTINUOUS
 62
    2
 10
373.51795824097098
 20
504.90583080107962
 11
523.51795824097098
 21
504.90583080107962
  0
LINE
  8
_0-0_計極細
  6
CONTINUOUS
 62
    2
 10
373.51795824097098
 20
499.90583080107962
 11
523.51795824097098
 21
499.90583080107962
  0
LINE
  8
_0-0_計極細
  6
CONTINUOUS
 62
    2
 10
374.01795824097093
 20
508.10583080107989
 11
374.01795824097093
 21
514.10583080107926
  0
LINE
  8
_0-0_計極細
  6
CONTINUOUS
 62
    2
 10
387.01795824097098
 20
508.10583080107989
 11
387.01795824097098
 21
514.10583080107926
  0
LINE
  8
_0-0_計極細
  6
CONTINUOUS
 62
    2
 10
471.01795824097098
 20
508.10583080107989
 11
471.01795824097098
 21
514.10583080107926
  0
LINE
  8
_0-0_計極細
  6
CONTINUOUS
 62
    2
 10
484.01795824097093
 20
508.10583080107989
 11
484.01795824097093
 21
514.10583080107926
  0
LINE
  8
_0-0_計極細
  6
CONTINUOUS
 62
    2
 10
510.01795824097093
 20
508.10583080107989
 11
510.01795824097093
 21
514.10583080107926
  0
LINE
  8
_0-0_計極細
  6
CONTINUOUS
 62
    2
 10
523.01795824097098
 20
508.10583080107989
 11
523.01795824097098
 21
514.10583080107926
  0
LINE
  8
_0-1_計細線
  6
CONTINUOUS
 62
    3
 10
373.51795824097098
 20
479.60583080107875
 11
523.51795824097098
 21
479.60583080107875
  0
LINE
  8
_0-1_計細線
  6
CONTINUOUS
 62
    3
 10
373.51795824097098
 20
491.00583080107924
 11
523.51795824097098
 21
491.00583080107924
  0
LINE
  8
_0-1_計細線
  6
CONTINUOUS
 62
    3
 10
373.51795824097098
 20
479.60583080107875
 11
373.51795824097098
 21
491.00583080107924
  0
LINE
  8
_0-1_計細線
  6
CONTINUOUS
 62
    3
 10
523.51795824097098
 20
479.60583080107875
 11
523.51795824097098
 21
491.00583080107924
  0
LINE
  8
_0-0_計極細
  6
CONTINUOUS
 62
    2
 10
373.51795824097098
 20
487.80583080107903
 11
523.51795824097098
 21
487.80583080107903
  0
LINE
  8
_0-0_計極細
  6
CONTINUOUS
 62
    2
 10
373.51795824097098
 20
482.80583080107903
 11
523.51795824097098
 21
482.80583080107903
  0
LINE
  8
_0-0_計極細
  6
CONTINUOUS
 62
    2
 10
374.01795824097093
 20
491.00583080107788
 11
374.01795824097093
 21
496.70583080107974
  0
LINE
  8
_0-0_計極細
  6
CONTINUOUS
 62
    2
 10
387.01795824097098
 20
491.00583080107788
 11
387.01795824097098
 21
496.70583080107974
  0
LINE
  8
_0-0_計極細
  6
CONTINUOUS
 62
    2
 10
471.01795824097098
 20
491.00583080107788
 11
471.01795824097098
 21
496.70583080107974
  0
LINE
  8
_0-0_計極細
  6
CONTINUOUS
 62
    2
 10
484.01795824097093
 20
491.00583080107788
 11
484.01795824097093
 21
496.70583080107974
  0
LINE
  8
_0-0_計極細
  6
CONTINUOUS
 62
    2
 10
510.01795824097093
 20
491.00583080107788
 11
510.01795824097093
 21
496.70583080107974
  0
LINE
  8
_0-0_計極細
  6
CONTINUOUS
 62
    2
 10
523.01795824097098
 20
491.00583080107788
 11
523.01795824097098
 21
496.70583080107974
  0
LINE
  8
_0-1_計細線
  6
CONTINUOUS
 62
    3
 10
371.51795824097093
 20
477.6058308010787
 11
525.51795824097144
 21
477.6058308010787
  0
LINE
  8
_0-1_計細線
  6
CONTINUOUS
 62
    3
 10
371.51795824097093
 20
631.60583080108029
 11
371.51795824097093
 21
477.6058308010787
  0
LINE
  8
_0-0_計極細
  6
CENTER1
 62
    2
 10
380.51795824097093
 20
638.35655022554204
 11
380.51795824097093
 21
471.84800706006712
  0
LINE
  8
_0-0_計極細
  6
CENTER1
 62
    2
 10
477.51795824097093
 20
638.35655022554204
 11
477.51795824097093
 21
471.84800706006712
  0
LINE
  8
_0-1_計細線
  6
CONTINUOUS
 62
    3
 10
525.51795824097144
 20
477.6058308010787
 11
525.51795824097144
 21
631.60583080108029
  0
LINE
  8
_0-1_計細線
  6
CONTINUOUS
 62
    3
 10
368.51795824097098
 20
474.60583080107875
 11
368.51795824097098
 21
634.60583080108029
  0
LINE
  8
_0-1_計細線
  6
CONTINUOUS
 62
    3
 10
368.51795824097098
 20
634.60583080108029
 11
528.51795824097144
 21
634.60583080108029
  0
LINE
  8
_0-1_計細線
  6
CONTINUOUS
 62
    3
 10
528.51795824097144
 20
634.60583080108029
 11
528.51795824097144
 21
474.60583080107875
  0
LINE
  8
_0-1_計細線
  6
CONTINUOUS
 62
    3
 10
528.51795824097144
 20
474.60583080107875
 11
368.51795824097098
 21
474.60583080107875
  0
LINE
  8
_0-0_計極細
  6
CENTER1
 62
    2
 10
516.51795824097098
 20
638.35655022554204
 11
516.51795824097098
 21
471.84800706006712
  0
LINE
  8
_0-5_寸法線
  6
CONTINUOUS
 62
    7
 10
358.51795824097098
 20
629.60583080108029
 11
313.51795824097081
 21
629.60583080108029
  0
LINE
  8
_0-5_寸法線
  6
CONTINUOUS
 62
    7
 10
318.51795824097081
 20
629.60583080108029
 11
321.10614869199605
 21
619.94657253818957
  0
LINE
  8
_0-5_寸法線
  6
CONTINUOUS
 62
    7
 10
318.51795824097081
 20
629.60583080108029
 11
315.92976778994569
 21
619.94657253818957
  0
LINE
  8
_0-5_寸法線
  6
CONTINUOUS
 62
    7
 10
358.51795824097098
 20
479.60583080107926
 11
313.51795824097081
 21
479.60583080107915
  0
LINE
  8
_0-5_寸法線
  6
CONTINUOUS
 62
    7
 10
318.51795824097081
 20
479.60583080107915
 11
315.92976778994569
 21
489.26508906396981
  0
LINE
  8
_0-5_寸法線
  6
CONTINUOUS
 62
    7
 10
318.51795824097081
 20
479.60583080107915
 11
321.10614869199605
 21
489.26508906396981
  0
LINE
  8
_0-5_寸法線
  6
CONTINUOUS
 62
    7
 10
318.51795824097081
 20
629.60583080108029
 11
318.51795824097081
 21
479.60583080107915
  0
TEXT
  8
_0-5_寸法線
 62
    7
 10
318.51795824097098
 20
543.35583080107972
 40
15
 41
1
 50
90
  1
150
  0
LINE
  8
_0-5_寸法線
  6
CONTINUOUS
 62
    7
 10
358.51795824097098
 20
474.60583080107881
 11
243.5179582409711
 21
474.60583080107915
  0
LINE
  8
_0-5_寸法線
  6
CONTINUOUS
 62
    7
 10
248.5179582409711
 20
474.60583080107915
 11
245.92976778994597
 21
484.26508906396981
  0
LINE
  8
_0-5_寸法線
  6
CONTINUOUS
 62
    7
 10
248.5179582409711
 20
474.60583080107915
 11
251.10614869199637
 21
484.26508906396981
  0
LINE
  8
_0-5_寸法線
  6
CONTINUOUS
 62
    7
 10
358.51795824097144
 20
634.60583080108086
 11
243.5179582409711
 21
634.6058308010812
  0
LINE
  8
_0-5_寸法線
  6
CONTINUOUS
 62
    7
 10
248.5179582409711
 20
634.6058308010812
 11
251.10614869199637
 21
624.94657253819048
  0
LINE
  8
_0-5_寸法線
  6
CONTINUOUS
 62
    7
 10
248.5179582409711
 20
634.6058308010812
 11
245.92976778994597
 21
624.94657253819048
  0
LINE
  8
_0-5_寸法線
  6
CONTINUOUS
 62
    7
 10
248.5179582409711
 20
474.60583080107915
 11
248.5179582409711
 21
634.6058308010812
  0
TEXT
  8
_0-5_寸法線
 62
    7
 10
248.51795824097104
 20
543.35583080108017
 40
15
 41
1
 50
89.999999999999815
  1
160
  0
LINE
  8
_0-5_寸法線
  6
CONTINUOUS
 62
    7
 10
373.51795824097098
 20
644.6058308010804
 11
373.51795824097104
 21
689.6058308010804
  0
LINE
  8
_0-5_寸法線
  6
CONTINUOUS
 62
    7
 10
373.51795824097104
 20
684.6058308010804
 11
383.1772165038617
 21
687.19402125210547
  0
LINE
  8
_0-5_寸法線
  6
CONTINUOUS
 62
    7
 10
373.51795824097104
 20
684.6058308010804
 11
383.1772165038617
 21
682.0176403500551
  0
LINE
  8
_0-5_寸法線
  6
CONTINUOUS
 62
    7
 10
380.51795824097093
 20
644.6058308010804
 11
380.51795824097093
 21
689.6058308010804
  0
LINE
  8
_0-5_寸法線
  6
CONTINUOUS
 62
    7
 10
380.51795824097093
 20
684.6058308010804
 11
370.85869997808027
 21
682.0176403500551
  0
LINE
  8
_0-5_寸法線
  6
CONTINUOUS
 62
    7
 10
380.51795824097093
 20
684.6058308010804
 11
370.85869997808027
 21
687.19402125210547
  0
LINE
  8
_0-5_寸法線
  6
CONTINUOUS
 62
    7
 10
373.51795824097104
 20
684.6058308010804
 11
380.51795824097093
 21
684.6058308010804
  0
TEXT
  8
_0-5_寸法線
 62
    7
 10
373.26795824097098
 20
684.60583080108017
 40
15
 41
1
 50
0
  1
7
  0
LINE
  8
_0-5_寸法線
  6
CONTINUOUS
 62
    7
 10
380.51795824097093
 20
684.6058308010804
 11
390.17721650386164
 21
687.19402125210547
  0
LINE
  8
_0-5_寸法線
  6
CONTINUOUS
 62
    7
 10
380.51795824097093
 20
684.6058308010804
 11
390.17721650386164
 21
682.01764035005499
  0
LINE
  8
_0-5_寸法線
  6
CONTINUOUS
 62
    7
 10
477.51795824097093
 20
644.6058308010804
 11
477.51795824097093
 21
689.6058308010804
  0
LINE
  8
_0-5_寸法線
  6
CONTINUOUS
 62
    7
 10
477.51795824097093
 20
684.6058308010804
 11
467.85869997808021
 21
682.0176403500551
  0
LINE
  8
_0-5_寸法線
  6
CONTINUOUS
 62
    7
 10
477.51795824097093
 20
684.6058308010804
 11
467.85869997808027
 21
687.19402125210547
  0
LINE
  8
_0-5_寸法線
  6
CONTINUOUS
 62
    7
 10
380.51795824097093
 20
684.6058308010804
 11
477.51795824097093
 21
684.6058308010804
  0
TEXT
  8
_0-5_寸法線
 62
    7
 10
421.51795824097093
 20
684.60583080108017
 40
15
 41
1
 50
0
  1
97
  0
LINE
  8
_0-5_寸法線
  6
CONTINUOUS
 62
    7
 10
477.51795824097093
 20
684.6058308010804
 11
487.1772165038617
 21
687.19402125210547
  0
LINE
  8
_0-5_寸法線
  6
CONTINUOUS
 62
    7
 10
477.51795824097093
 20
684.6058308010804
 11
487.17721650386159
 21
682.01764035005499
  0
LINE
  8
_0-5_寸法線
  6
CONTINUOUS
 62
    7
 10
516.51795824097098
 20
644.6058308010804
 11
516.51795824097098
 21
689.6058308010804
  0
LINE
  8
_0-5_寸法線
  6
CONTINUOUS
 62
    7
 10
516.51795824097098
 20
684.6058308010804
 11
506.85869997808027
 21
682.0176403500551
  0
LINE
  8
_0-5_寸法線
  6
CONTINUOUS
 62
    7
 10
516.51795824097098
 20
684.6058308010804
 11
506.85869997808032
 21
687.19402125210547
  0
LINE
  8
_0-5_寸法線
  6
CONTINUOUS
 62
    7
 10
477.51795824097093
 20
684.6058308010804
 11
516.51795824097098
 21
684.6058308010804
  0
TEXT
  8
_0-5_寸法線
 62
    7
 10
489.51795824097098
 20
684.60583080108017
 40
15
 41
1
 50
0
  1
39
  0
LINE
  8
_0-5_寸法線
  6
CONTINUOUS
 62
    7
 10
516.51795824097098
 20
684.6058308010804
 11
526.1772165038617
 21
687.19402125210547
  0
LINE
  8
_0-5_寸法線
  6
CONTINUOUS
 62
    7
 10
516.51795824097098
 20
684.6058308010804
 11
526.1772165038617
 21
682.01764035005499
  0
LINE
  8
_0-5_寸法線
  6
CONTINUOUS
 62
    7
 10
523.51795824097098
 20
644.6058308010804
 11
523.51795824097098
 21
689.6058308010804
  0
LINE
  8
_0-5_寸法線
  6
CONTINUOUS
 62
    7
 10
523.51795824097098
 20
684.6058308010804
 11
513.85869997808027
 21
682.0176403500551
  0
LINE
  8
_0-5_寸法線
  6
CONTINUOUS
 62
    7
 10
523.51795824097098
 20
684.6058308010804
 11
513.85869997808027
 21
687.19402125210547
  0
LINE
  8
_0-5_寸法線
  6
CONTINUOUS
 62
    7
 10
516.51795824097098
 20
684.6058308010804
 11
523.51795824097098
 21
684.6058308010804
  0
TEXT
  8
_0-5_寸法線
 62
    7
 10
516.26795824097098
 20
684.60583080108017
 40
15
 41
1
 50
0
  1
7
  0
LINE
  8
_0-5_寸法線
  6
CONTINUOUS
 62
    7
 10
283.5179582409711
 20
474.60583080107892
 11
286.10614869199622
 21
464.94657253818821
  0
LINE
  8
_0-5_寸法線
  6
CONTINUOUS
 62
    7
 10
283.5179582409711
 20
474.60583080107892
 11
280.9297677899458
 21
464.94657253818832
  0
LINE
  8
_0-5_寸法線
  6
CONTINUOUS
 62
    7
 10
358.51795824097098
 20
477.6058308010787
 11
278.5179582409711
 21
477.60583080107892
  0
LINE
  8
_0-5_寸法線
  6
CONTINUOUS
 62
    7
 10
283.5179582409711
 20
449.60583080107892
 11
283.5179582409711
 21
477.60583080107892
  0
TEXT
  8
_0-5_寸法線
 62
    7
 10
283.5179582409711
 20
452.95918897220901
 40
15
 41
1
 50
90
  1
3
  0
LINE
  8
_0-5_寸法線
  6
CONTINUOUS
 62
    7
 10
283.5179582409711
 20
477.60583080107892
 11
280.9297677899458
 21
487.26508906396958
  0
LINE
  8
_0-5_寸法線
  6
CONTINUOUS
 62
    7
 10
283.5179582409711
 20
477.60583080107892
 11
286.10614869199628
 21
487.26508906396958
  0
LINE
  8
_0-5_寸法線
  6
CONTINUOUS
 62
    7
 10
358.51795824097144
 20
631.60583080108074
 11
278.5179582409711
 21
631.60583080108097
  0
LINE
  8
_0-5_寸法線
  6
CONTINUOUS
 62
    7
 10
283.5179582409711
 20
631.60583080108097
 11
286.10614869199622
 21
621.94657253819037
  0
LINE
  8
_0-5_寸法線
  6
CONTINUOUS
 62
    7
 10
283.5179582409711
 20
631.60583080108097
 11
280.9297677899458
 21
621.94657253819037
  0
LINE
  8
_0-5_寸法線
  6
CONTINUOUS
 62
    7
 10
283.5179582409711
 20
477.60583080107892
 11
283.5179582409711
 21
631.60583080108097
  0
TEXT
  8
_0-5_寸法線
 62
    7
 10
283.5179582409711
 20
543.35583080107995
 40
15
 41
1
 50
90
  1
154
  0
LINE
  8
_0-5_寸法線
  6
CONTINUOUS
 62
    7
 10
283.5179582409711
 20
634.60583080108097
 11
280.9297677899458
 21
644.2650890639718
  0
LINE
  8
_0-5_寸法線
  6
CONTINUOUS
 62
    7
 10
283.5179582409711
 20
634.60583080108097
 11
286.10614869199628
 21
644.2650890639718
  0
LINE
  8
_0-5_寸法線
  6
CONTINUOUS
 62
    7
 10
283.5179582409711
 20
631.60583080108097
 11
283.5179582409711
 21
659.60583080108097
  0
TEXT
  8
_0-5_寸法線
 62
    7
 10
283.5179582409711
 20
648.87159773133271
 40
15
 41
1
 50
90
  1
3
  0
LINE
  8
_0-0_計極細
  6
CENTER2
 62
    2
 10
351.22001002306729
 20
554.60583080107949
 11
537.53619767512919
 21
554.60583080107949
  0
LINE
  8
_0-5_寸法線
  6
CONTINUOUS
 62
    7
 10
504.0343975973679
 20
571.73354346491215
 11
511.10546540923337
 21
578.80461127677745
  0
LINE
  8
_0-5_寸法線
  6
CONTINUOUS
 62
    7
 10
504.0343975973679
 20
571.73354346491215
 11
513.69365586025856
 21
574.32173391593722
  0
LINE
  8
_0-5_寸法線
  6
CONTINUOUS
 62
    7
 10
504.0343975973679
 20
571.73354346491215
 11
568.83439759736802
 21
609.1458409083998
  0
LINE
  8
_0-5_寸法線
  6
CONTINUOUS
 62
    7
 10
568.83439759736802
 20
609.1458409083998
 11
700.83439759736837
 21
609.1458409083998
  0
TEXT
  8
_0-5_寸法線
 62
    7
 10
568.83439759736825
 20
609.1458409083998
 40
15
 41
0.8000000000000001
 50
0
  1
セーフティグレーチング
  0
LINE
  8
_0-5_寸法線
  6
CONTINUOUS
 62
    7
 10
526.71773093070124
 20
508.2389570902165
 11
533.78879874256677
 21
515.31002490208186
  0
LINE
  8
_0-5_寸法線
  6
CONTINUOUS
 62
    7
 10
526.71773093070124
 20
508.2389570902165
 11
536.37698919359195
 21
510.82714754124169
  0
LINE
  8
_0-5_寸法線
  6
CONTINUOUS
 62
    7
 10
526.71773093070124
 20
508.2389570902165
 11
568.11773093070133
 21
532.14125823466702
  0
LINE
  8
_0-5_寸法線
  6
CONTINUOUS
 62
    7
 10
568.11773093070133
 20
532.14125823466702
 11
676.11773093070144
 21
532.14125823466702
  0
TEXT
  8
_0-5_寸法線
 62
    7
 10
568.11773093070133
 20
532.14125823466702
 40
15
 41
0.8000000000000001
 50
0
  1
ＳＵＳアングル受枠
  0
TEXT
  8
_0-5_寸法線
 62
    7
 10
568.11773093070133
 20
517.14125823466702
 40
15
 41
0.8000000000000001
 50
0
  1
ＧＳＬ－２０
  0
LINE
  8
_0-5_寸法線
  6
CONTINUOUS
 62
    7
 10
443.08707771761624
 20
564.58709186681745
 11
435.10773417312578
 21
570.61453548737495
  0
LINE
  8
_0-5_寸法線
  6
CONTINUOUS
 62
    7
 10
443.08707771761624
 20
564.58709186681745
 11
439.19048531284284
 21
573.79668293434383
  0
LINE
  8
_0-5_寸法線
  6
CONTINUOUS
 62
    7
 10
443.08707771761624
 20
564.58709186681745
 11
342.88019981867455
 21
693.15427857561554
  0
LINE
  8
_0-5_寸法線
  6
CONTINUOUS
 62
    7
 10
342.88019981867455
 20
693.15427857561554
 11
282.88019981867455
 21
693.15427857561554
  0
TEXT
  8
_0-5_寸法線
 62
    7
 10
282.88019981867455
 20
693.15427857561554
 40
15
 41
0.8000000000000001
 50
0
  1
取　外　具
  0
TEXT
  8
_0-5_寸法線
 62
    7
 10
278.97731624029791
 20
676.06779181405955
 40
15
 41
0.8000000000000001
 50
0
  1
(標準付属)
  0
TEXT
  8
_0-7_枠細線
 62
    5
 10
282.17046367576876
 20
710.00644557597082
 40
12.5
 41
0.8
 50
0
  1
２
  0
LINE
  8
_0-7_枠細線
  6
CONTINUOUS
 62
    5
 10
294.80531240762059
 20
710.31344782135136
 11
287.30531240762059
 21
725.31344782135136
  0
LINE
  8
_0-7_枠細線
  6
CONTINUOUS
 62
    5
 10
279.80531240762059
 20
710.31344782135136
 11
294.80531240762059
 21
710.31344782135136
  0
LINE
  8
_0-7_枠細線
  6
CONTINUOUS
 62
    5
 10
287.30531240762059
 20
725.31344782135136
 11
279.80531240762059
 21
710.31344782135136
  0
TEXT
  8
_0-7_枠細線
 62
    5
 10
301.06235750364505
 20
709.71330285390479
 40
12.5
 41
0.8
 50
0
  1
３
  0
LINE
  8
_0-7_枠細線
  6
CONTINUOUS
 62
    5
 10
306.19720623549688
 20
725.26098674408615
 11
298.69720623549688
 21
710.26098674408615
  0
LINE
  8
_0-7_枠細線
  6
CONTINUOUS
 62
    5
 10
298.69720623549688
 20
710.26098674408615
 11
313.69720623549688
 21
710.26098674408615
  0
LINE
  8
_0-7_枠細線
  6
CONTINUOUS
 62
    5
 10
313.69720623549688
 20
710.26098674408615
 11
306.19720623549688
 21
725.26098674408615
  0
LINE
  8
_0-d_寸法3
  6
CONTINUOUS
 62
    7
 10
451.63992445384292
 20
268.36412902531367
 11
451.63992445384292
 21
310.03079569198019
  0
LINE
  8
_0-d_寸法3
  6
CONTINUOUS
 62
    7
 10
451.63992445384292
 20
305.03079569198019
 11
461.29918271673364
 21
307.61898614300537
  0
LINE
  8
_0-d_寸法3
  6
CONTINUOUS
 62
    7
 10
451.63992445384292
 20
305.03079569198019
 11
461.29918271673364
 21
302.442605240955
  0
LINE
  8
_0-d_寸法3
  6
CONTINUOUS
 62
    7
 10
480.63992445444597
 20
268.36412902531367
 11
480.63992445444597
 21
310.03079569198019
  0
LINE
  8
_0-d_寸法3
  6
CONTINUOUS
 62
    7
 10
480.63992445444597
 20
305.03079569198019
 11
470.98066619155526
 21
302.442605240955
  0
LINE
  8
_0-d_寸法3
  6
CONTINUOUS
 62
    7
 10
480.63992445444597
 20
305.03079569198019
 11
470.98066619155531
 21
307.61898614300543
  0
LINE
  8
_0-d_寸法3
  6
CONTINUOUS
 62
    7
 10
451.63992445384292
 20
305.03079569198019
 11
480.63992445444597
 21
305.03079569198019
  0
TEXT
  8
_0-d_寸法3
 62
    7
 10
440.09374654420213
 20
290.03079569198019
 40
15
 41
1
 50
0
  1
(17.4)
  0
LINE
  8
_0-d_寸法3
  6
CONTINUOUS
 62
    7
 10
480.63992445444597
 20
305.03079569198019
 11
490.29918271733663
 21
307.61898614300537
  0
LINE
  8
_0-d_寸法3
  6
CONTINUOUS
 62
    7
 10
480.63992445444597
 20
305.03079569198019
 11
490.29918271733663
 21
302.44260524095495
  0
LINE
  8
_0-d_寸法3
  6
CONTINUOUS
 62
    7
 10
509.63992445504891
 20
268.36412902531367
 11
509.63992445504891
 21
310.03079569198019
  0
LINE
  8
_0-d_寸法3
  6
CONTINUOUS
 62
    7
 10
509.63992445504891
 20
305.03079569198019
 11
499.9806661921582
 21
302.442605240955
  0
LINE
  8
_0-d_寸法3
  6
CONTINUOUS
 62
    7
 10
509.63992445504891
 20
305.03079569198019
 11
499.98066619215825
 21
307.61898614300543
  0
LINE
  8
_0-d_寸法3
  6
CONTINUOUS
 62
    7
 10
480.63992445444597
 20
305.03079569198019
 11
509.63992445504891
 21
305.03079569198019
  0
TEXT
  8
_0-d_寸法3
 62
    7
 10
477.16041321086828
 20
305.03079569198019
 40
15
 41
1
 50
0
  1
(17.4)
  0
LINE
  8
_0-d_寸法3
  6
CONTINUOUS
 62
    7
 10
403.13992445048098
 20
265.03079569198019
 11
403.13992445048098
 21
310.03079569198019
  0
LINE
  8
_0-d_寸法3
  6
CONTINUOUS
 62
    7
 10
403.13992445048098
 20
305.03079569198019
 11
393.48066618759026
 21
302.442605240955
  0
LINE
  8
_0-d_寸法3
  6
CONTINUOUS
 62
    7
 10
403.13992445048098
 20
305.03079569198019
 11
393.48066618759037
 21
307.61898614300543
  0
LINE
  8
_0-d_寸法3
  6
CONTINUOUS
 62
    7
 10
413.13992445476242
 20
265.03079569198019
 11
413.13992445476242
 21
310.03079569198019
  0
LINE
  8
_0-d_寸法3
  6
CONTINUOUS
 62
    7
 10
378.76596876731406
 20
305.03079569198019
 11
413.13992445476242
 21
305.03079569198019
  0
TEXT
  8
_0-d_寸法3
 62
    7
 10
378.76596876731406
 20
290.03079569198019
 40
15
 41
1
 50
0
  1
(6)
  0
LINE
  8
_0-d_寸法3
  6
CONTINUOUS
 62
    7
 10
413.13992445476242
 20
305.03079569198019
 11
422.79918271765314
 21
307.61898614300537
  0
LINE
  8
_0-d_寸法3
  6
CONTINUOUS
 62
    7
 10
413.13992445476242
 20
305.03079569198019
 11
422.79918271765314
 21
302.442605240955
  0
LINE
  8
_0-d_寸法3
  6
CONTINUOUS
 62
    7
 10
432.13992445108352
 20
265.03079569198019
 11
432.13992445108352
 21
310.03079569198019
  0
LINE
  8
_0-d_寸法3
  6
CONTINUOUS
 62
    7
 10
432.13992445108352
 20
305.03079569198019
 11
422.4806661881928
 21
302.442605240955
  0
LINE
  8
_0-d_寸法3
  6
CONTINUOUS
 62
    7
 10
432.13992445108352
 20
305.03079569198019
 11
422.48066618819286
 21
307.61898614300543
  0
LINE
  8
_0-d_寸法3
  6
CONTINUOUS
 62
    7
 10
413.13992445476242
 20
305.03079569198019
 11
432.13992445108352
 21
305.03079569198019
  0
TEXT
  8
_0-d_寸法3
 62
    7
 10
403.87522802657327
 20
305.03079569198019
 40
15
 41
1
 50
0
  1
11.4
  0
ARC
  8
_0-a_極細3
  6
CONTINUOUS
 62
    7
 10
540.46932777957909
 20
246.85084653362867
 40
17.558839598481345
 50
150.03871396148165
 51
205.23810402387883
  0
ARC
  8
_0-a_極細3
  6
CONTINUOUS
 62
    7
 10
508.70385258968099
 20
231.87733732099801
 40
17.558839598481345
 50
330.03871396148202
 51
25.238104023878222
  0
ARC
  8
_0-a_極細3
  6
CONTINUOUS
 62
    7
 10
395.54951234124525
 20
246.85084653362867
 40
17.558839598481345
 50
150.03871396148165
 51
205.23810402387883
  0
ARC
  8
_0-a_極細3
  6
CONTINUOUS
 62
    7
 10
363.78403715134709
 20
231.87733732099801
 40
17.558839598481345
 50
330.03871396148202
 51
25.238104023878222
  0
LINE
  8
_0-a_極細3
  6
CENTER1
 62
    7
 10
530.43869144413884
 20
239.69746235864693
 11
367.86014881621304
 21
239.69746235864693
  0
LINE
  8
_0-b_細線3
  6
CONTINUOUS
 62
    7
 10
454.47325778809591
 20
228.86412902531367
 11
477.80659112142939
 21
228.86412902531367
  0
LINE
  8
_0-b_細線3
  6
CONTINUOUS
 62
    7
 10
483.47325778869896
 20
228.86412902531367
 11
506.80659112203244
 21
228.86412902531367
  0
LINE
  8
_0-b_細線3
  6
CONTINUOUS
 62
    7
 10
396.47325778657296
 20
228.86412902531367
 11
419.80659111990644
 21
228.86412902531367
  0
LINE
  8
_0-b_細線3
  6
CONTINUOUS
 62
    7
 10
425.47325778717641
 20
228.86412902531367
 11
448.80659112050949
 21
228.86412902531367
  0
LINE
  8
_0-b_細線3
  6
CONTINUOUS
 62
    7
 10
454.47325778809591
 20
250.53079569198033
 11
477.80659112142939
 21
250.53079569198033
  0
LINE
  8
_0-b_細線3
  6
CONTINUOUS
 62
    7
 10
483.47325778869896
 20
250.53079569198033
 11
506.80659112203244
 21
250.53079569198033
  0
LINE
  8
_0-b_細線3
  6
CONTINUOUS
 62
    7
 10
396.47325778657296
 20
250.53079569198033
 11
419.80659111990644
 21
250.53079569198033
  0
LINE
  8
_0-b_細線3
  6
CONTINUOUS
 62
    7
 10
425.47325778717641
 20
250.53079569198033
 11
448.80659112050949
 21
250.53079569198033
  0
LINE
  8
_0-b_細線3
  6
CONTINUOUS
 62
    7
 10
512.4732577893019
 20
250.53079569198033
 11
523.23235418010199
 21
250.53079569198033
  0
LINE
  8
_0-b_細線3
  6
CONTINUOUS
 62
    7
 10
512.4732577893019
 20
228.86412902531367
 11
525.94082618915809
 21
228.86412902531367
  0
LINE
  8
_0-b_細線3
  6
CONTINUOUS
 62
    7
 10
378.31253874176809
 20
250.53079569198033
 11
390.80659111930345
 21
250.53079569198033
  0
LINE
  8
_0-b_細線3
  6
CONTINUOUS
 62
    7
 10
381.02101075082425
 20
228.86412902531367
 11
390.80659111930345
 21
228.86412902531367
  0
TEXT
  8
_0-7_枠細線
 62
    5
 10
417.22469092493753
 20
170.0670836765407
 40
25.000000000000007
 41
0.8
 50
0
  1
断面詳細
  0
TEXT
  8
_0-7_枠細線
 62
    5
 10
521.18718073399953
 20
173.02652349686042
 40
20.000000000000004
 41
0.5999999999999999
 50
0
  1
Ｓ＝１：３
  0
ARC
  8
_0-b_細線3
  6
CONTINUOUS
 62
    7
 10
443.80659112234895
 20
255.03079569198022
 40
1.666666666666667
 50
89.999999999999915
 51
179.99999999999983
  0
ARC
  8
_0-b_細線3
  6
CONTINUOUS
 62
    7
 10
444.58650644122781
 20
258.36412902531367
 40
1.666666666666667
 50
269.99999999999977
 51
330.00000000000301
  0
ARC
  8
_0-b_細線3
  6
CONTINUOUS
 62
    7
 10
447.47325778717595
 20
256.69746235864716
 40
1.666666666666667
 50
89.999999999999915
 51
150.00000000000134
  0
LINE
  8
_0-b_細線3
  6
CONTINUOUS
 62
    7
 10
443.80659112234895
 20
256.69746235864716
 11
444.58650644122781
 21
256.69746235864716
  0
ARC
  8
_0-b_細線3
  6
CONTINUOUS
 62
    7
 10
459.47325778533695
 20
255.03079569198022
 40
1.666666666666667
 50
0
 51
89.999999999999915
  0
ARC
  8
_0-b_細線3
  6
CONTINUOUS
 62
    7
 10
458.69334246645764
 20
258.36412902531367
 40
1.666666666666667
 50
210.00000000000404
 51
269.99999999999977
  0
ARC
  8
_0-b_細線3
  6
CONTINUOUS
 62
    7
 10
455.80659112050944
 20
256.69746235864716
 40
1.666666666666667
 50
29.999999999990862
 51
89.999999999984354
  0
LINE
  8
_0-b_細線3
  6
CONTINUOUS
 62
    7
 10
459.47325778533695
 20
256.69746235864716
 11
458.69334246645764
 21
256.69746235864716
  0
ARC
  8
_0-b_細線3
  6
CONTINUOUS
 62
    7
 10
442.97325778901546
 20
252.69746235864716
 40
0.8333333333333334
 50
179.99999999999983
 51
269.99999999999977
  0
LINE
  8
_0-b_細線3
  6
CONTINUOUS
 62
    7
 10
442.13992445568192
 20
255.03079569198022
 11
442.13992445568192
 21
252.69746235864716
  0
ARC
  8
_0-b_細線3
  6
CONTINUOUS
 62
    7
 10
460.30659111867004
 20
252.69746235864716
 40
0.8333333333333334
 50
269.99999999999977
 51
359.99999999999966
  0
LINE
  8
_0-b_細線3
  6
CONTINUOUS
 62
    7
 10
461.13992445200353
 20
255.03079569198022
 11
461.13992445200353
 21
252.69746235864716
  0
ARC
  8
_0-b_細線3
  6
CONTINUOUS
 62
    7
 10
447.13992445568192
 20
250.19746235864716
 40
1.666666666666667
 50
0
 51
89.999999999999915
  0
LINE
  8
_0-b_細線3
  6
CONTINUOUS
 62
    7
 10
447.13992445568192
 20
251.8641290253137
 11
442.97325778901546
 21
251.8641290253137
  0
ARC
  8
_0-b_細線3
  6
CONTINUOUS
 62
    7
 10
456.13992445568243
 20
250.19746235864716
 40
1.666666666666667
 50
89.999999999999915
 51
179.99999999999983
  0
LINE
  8
_0-b_細線3
  6
CONTINUOUS
 62
    7
 10
456.13992445200353
 20
251.8641290253137
 11
460.30659111867004
 21
251.8641290253137
  0
LINE
  8
_0-b_細線3
  6
CONTINUOUS
 62
    7
 10
455.80659112050944
 20
258.36412902531367
 11
447.47325778717595
 21
258.36412902531367
  0
LINE
  8
_0-b_細線3
  6
CONTINUOUS
 62
    7
 10
448.80659112050949
 20
225.03079569198033
 11
448.80659112234895
 21
250.19746235864716
  0
LINE
  8
_0-b_細線3
  6
CONTINUOUS
 62
    7
 10
454.47325778717595
 20
225.03079569198033
 11
454.47325778901586
 21
250.19746235864716
  0
LINE
  8
_0-b_細線3
  6
CONTINUOUS
 62
    7
 10
454.47325778717595
 20
225.03079569198033
 11
448.80659112050949
 21
225.03079569198033
  0
ARC
  8
_0-b_細線3
  6
CONTINUOUS
 62
    7
 10
472.80659112295189
 20
255.03079569198022
 40
1.666666666666667
 50
89.999999999999915
 51
179.99999999999983
  0
ARC
  8
_0-b_細線3
  6
CONTINUOUS
 62
    7
 10
473.58650644183086
 20
258.36412902531367
 40
1.666666666666667
 50
269.99999999999977
 51
329.99999999999523
  0
ARC
  8
_0-b_細線3
  6
CONTINUOUS
 62
    7
 10
476.47325778777895
 20
256.69746235864716
 40
1.666666666666667
 50
89.999999999999915
 51
150.00000000000915
  0
LINE
  8
_0-b_細線3
  6
CONTINUOUS
 62
    7
 10
472.80659112295189
 20
256.69746235864716
 11
473.58650644183086
 21
256.69746235864716
  0
ARC
  8
_0-b_細線3
  6
CONTINUOUS
 62
    7
 10
488.47325778593995
 20
255.03079569198022
 40
1.666666666666667
 50
0
 51
89.999999999999915
  0
ARC
  8
_0-b_細線3
  6
CONTINUOUS
 62
    7
 10
487.69334246706057
 20
258.36412902531367
 40
1.666666666666667
 50
209.99999999999622
 51
269.99999999999977
  0
ARC
  8
_0-b_細線3
  6
CONTINUOUS
 62
    7
 10
484.80659112111249
 20
256.69746235864716
 40
1.666666666666667
 50
29.999999999998682
 51
89.999999999999915
  0
LINE
  8
_0-b_細線3
  6
CONTINUOUS
 62
    7
 10
488.47325778593995
 20
256.69746235864716
 11
487.69334246706057
 21
256.69746235864716
  0
ARC
  8
_0-b_細線3
  6
CONTINUOUS
 62
    7
 10
471.97325778961891
 20
252.69746235864716
 40
0.8333333333333334
 50
179.99999999999983
 51
269.99999999999977
  0
LINE
  8
_0-b_細線3
  6
CONTINUOUS
 62
    7
 10
471.13992445628497
 20
255.03079569198022
 11
471.13992445628497
 21
252.69746235864716
  0
ARC
  8
_0-b_細線3
  6
CONTINUOUS
 62
    7
 10
489.30659111927298
 20
252.69746235864716
 40
0.8333333333333334
 50
269.99999999999977
 51
359.99999999999966
  0
LINE
  8
_0-b_細線3
  6
CONTINUOUS
 62
    7
 10
490.13992445260646
 20
255.03079569198022
 11
490.13992445260646
 21
252.69746235864716
  0
ARC
  8
_0-b_細線3
  6
CONTINUOUS
 62
    7
 10
476.13992445628497
 20
250.19746235864716
 40
1.666666666666667
 50
0
 51
89.999999999999915
  0
LINE
  8
_0-b_細線3
  6
CONTINUOUS
 62
    7
 10
476.13992445628497
 20
251.8641290253137
 11
471.97325778961891
 21
251.8641290253137
  0
ARC
  8
_0-b_細線3
  6
CONTINUOUS
 62
    7
 10
485.13992445628537
 20
250.19746235864716
 40
1.666666666666667
 50
89.999999999999915
 51
179.99999999999983
  0
LINE
  8
_0-b_細線3
  6
CONTINUOUS
 62
    7
 10
485.13992445260646
 20
251.8641290253137
 11
489.30659111927298
 21
251.8641290253137
  0
LINE
  8
_0-b_細線3
  6
CONTINUOUS
 62
    7
 10
484.80659112111249
 20
258.36412902531367
 11
476.47325778777895
 21
258.36412902531367
  0
LINE
  8
_0-b_細線3
  6
CONTINUOUS
 62
    7
 10
477.80659112111243
 20
225.03079569198033
 11
477.80659112295189
 21
250.19746235864716
  0
LINE
  8
_0-b_細線3
  6
CONTINUOUS
 62
    7
 10
483.473257787779
 20
225.03079569198033
 11
483.47325778961886
 21
250.19746235864716
  0
LINE
  8
_0-b_細線3
  6
CONTINUOUS
 62
    7
 10
483.473257787779
 20
225.03079569198033
 11
477.80659112111243
 21
225.03079569198033
  0
ARC
  8
_0-b_細線3
  6
CONTINUOUS
 62
    7
 10
501.80659112355494
 20
255.03079569198022
 40
1.666666666666667
 50
89.999999999999915
 51
179.99999999999983
  0
ARC
  8
_0-b_細線3
  6
CONTINUOUS
 62
    7
 10
502.5865064424338
 20
258.36412902531367
 40
1.666666666666667
 50
269.99999999999977
 51
329.99999999999523
  0
ARC
  8
_0-b_細線3
  6
CONTINUOUS
 62
    7
 10
505.473257788382
 20
256.69746235864716
 40
1.666666666666667
 50
89.999999999999915
 51
150.00000000000915
  0
LINE
  8
_0-b_細線3
  6
CONTINUOUS
 62
    7
 10
501.80659112355494
 20
256.69746235864716
 11
502.5865064424338
 21
256.69746235864716
  0
ARC
  8
_0-b_細線3
  6
CONTINUOUS
 62
    7
 10
517.47325778654294
 20
255.03079569198022
 40
1.666666666666667
 50
0
 51
89.999999999999915
  0
ARC
  8
_0-b_細線3
  6
CONTINUOUS
 62
    7
 10
516.69334246766357
 20
258.36412902531367
 40
1.666666666666667
 50
210.00000000000404
 51
269.99999999999977
  0
ARC
  8
_0-b_細線3
  6
CONTINUOUS
 62
    7
 10
513.80659112171543
 20
256.69746235864716
 40
1.666666666666667
 50
29.999999999990862
 51
89.999999999984354
  0
LINE
  8
_0-b_細線3
  6
CONTINUOUS
 62
    7
 10
517.47325778654294
 20
256.69746235864716
 11
516.69334246766357
 21
256.69746235864716
  0
ARC
  8
_0-b_細線3
  6
CONTINUOUS
 62
    7
 10
500.9732577902214
 20
252.69746235864716
 40
0.8333333333333334
 50
179.99999999999983
 51
269.99999999999977
  0
LINE
  8
_0-b_細線3
  6
CONTINUOUS
 62
    7
 10
500.13992445688791
 20
255.03079569198022
 11
500.13992445688791
 21
252.69746235864716
  0
ARC
  8
_0-b_細線3
  6
CONTINUOUS
 62
    7
 10
518.30659111987597
 20
252.69746235864716
 40
0.8333333333333334
 50
269.99999999999977
 51
359.99999999999966
  0
LINE
  8
_0-b_細線3
  6
CONTINUOUS
 62
    7
 10
519.13992445320946
 20
255.03079569198022
 11
519.13992445320946
 21
252.69746235864716
  0
ARC
  8
_0-b_細線3
  6
CONTINUOUS
 62
    7
 10
505.13992445688791
 20
250.19746235864716
 40
1.666666666666667
 50
0
 51
89.999999999999915
  0
LINE
  8
_0-b_細線3
  6
CONTINUOUS
 62
    7
 10
505.13992445688791
 20
251.8641290253137
 11
500.9732577902214
 21
251.8641290253137
  0
ARC
  8
_0-b_細線3
  6
CONTINUOUS
 62
    7
 10
514.13992445688791
 20
250.19746235864716
 40
1.666666666666667
 50
89.999999999999915
 51
179.99999999999983
  0
LINE
  8
_0-b_細線3
  6
CONTINUOUS
 62
    7
 10
514.13992445320901
 20
251.8641290253137
 11
518.30659111987597
 21
251.8641290253137
  0
LINE
  8
_0-b_細線3
  6
CONTINUOUS
 62
    7
 10
513.80659112171543
 20
258.36412902531367
 11
505.473257788382
 21
258.36412902531367
  0
LINE
  8
_0-b_細線3
  6
CONTINUOUS
 62
    7
 10
506.80659112171548
 20
225.03079569198033
 11
506.80659112355494
 21
250.19746235864716
  0
LINE
  8
_0-b_細線3
  6
CONTINUOUS
 62
    7
 10
512.47325778838194
 20
225.03079569198033
 11
512.47325779022185
 21
250.19746235864716
  0
LINE
  8
_0-b_細線3
  6
CONTINUOUS
 62
    7
 10
512.47325778838194
 20
225.03079569198033
 11
506.80659112171548
 21
225.03079569198033
  0
ARC
  8
_0-b_細線3
  6
CONTINUOUS
 62
    7
 10
385.806591120826
 20
255.03079569198022
 40
1.666666666666667
 50
89.999999999999915
 51
179.99999999999983
  0
ARC
  8
_0-b_細線3
  6
CONTINUOUS
 62
    7
 10
386.58650643970486
 20
258.36412902531367
 40
1.666666666666667
 50
269.99999999999977
 51
330.00000000000301
  0
ARC
  8
_0-b_細線3
  6
CONTINUOUS
 62
    7
 10
389.473257785653
 20
256.69746235864716
 40
1.666666666666667
 50
89.999999999999915
 51
150.00000000000134
  0
LINE
  8
_0-b_細線3
  6
CONTINUOUS
 62
    7
 10
385.806591120826
 20
256.69746235864716
 11
386.58650643970486
 21
256.69746235864716
  0
ARC
  8
_0-b_細線3
  6
CONTINUOUS
 62
    7
 10
401.47325778381401
 20
255.03079569198022
 40
1.666666666666667
 50
0
 51
89.999999999999915
  0
ARC
  8
_0-b_細線3
  6
CONTINUOUS
 62
    7
 10
400.69334246493509
 20
258.36412902531367
 40
1.666666666666667
 50
209.99999999999622
 51
269.99999999999977
  0
ARC
  8
_0-b_細線3
  6
CONTINUOUS
 62
    7
 10
397.80659111898649
 20
256.69746235864716
 40
1.666666666666667
 50
29.999999999990862
 51
89.999999999984354
  0
LINE
  8
_0-b_細線3
  6
CONTINUOUS
 62
    7
 10
401.47325778381401
 20
256.69746235864716
 11
400.69334246493509
 21
256.69746235864716
  0
ARC
  8
_0-b_細線3
  6
CONTINUOUS
 62
    7
 10
384.97325778749291
 20
252.69746235864716
 40
0.8333333333333334
 50
179.99999999999983
 51
269.99999999999977
  0
LINE
  8
_0-b_細線3
  6
CONTINUOUS
 62
    7
 10
384.13992445415897
 20
255.03079569198022
 11
384.13992445415897
 21
252.69746235864716
  0
ARC
  8
_0-b_細線3
  6
CONTINUOUS
 62
    7
 10
402.30659111714709
 20
252.69746235864716
 40
0.8333333333333334
 50
269.99999999999977
 51
359.99999999999966
  0
LINE
  8
_0-b_細線3
  6
CONTINUOUS
 62
    7
 10
403.13992445048098
 20
255.03079569198022
 11
403.13992445048098
 21
252.69746235864716
  0
ARC
  8
_0-b_細線3
  6
CONTINUOUS
 62
    7
 10
389.13992445415897
 20
250.19746235864716
 40
1.666666666666667
 50
0
 51
89.999999999999915
  0
LINE
  8
_0-b_細線3
  6
CONTINUOUS
 62
    7
 10
389.13992445415897
 20
251.8641290253137
 11
384.97325778749291
 21
251.8641290253137
  0
ARC
  8
_0-b_細線3
  6
CONTINUOUS
 62
    7
 10
398.13992445415948
 20
250.19746235864716
 40
1.666666666666667
 50
89.999999999999915
 51
179.99999999999983
  0
LINE
  8
_0-b_細線3
  6
CONTINUOUS
 62
    7
 10
398.13992445048058
 20
251.8641290253137
 11
402.30659111714709
 21
251.8641290253137
  0
LINE
  8
_0-b_細線3
  6
CONTINUOUS
 62
    7
 10
397.80659111898649
 20
258.36412902531367
 11
389.473257785653
 21
258.36412902531367
  0
LINE
  8
_0-b_細線3
  6
CONTINUOUS
 62
    7
 10
390.80659111898694
 20
225.03079569198033
 11
390.806591120826
 21
250.19746235864716
  0
LINE
  8
_0-b_細線3
  6
CONTINUOUS
 62
    7
 10
396.473257785653
 20
225.03079569198033
 11
396.47325778749291
 21
250.19746235864716
  0
LINE
  8
_0-b_細線3
  6
CONTINUOUS
 62
    7
 10
396.473257785653
 20
225.03079569198033
 11
390.80659111898694
 21
225.03079569198033
  0
ARC
  8
_0-b_細線3
  6
CONTINUOUS
 62
    7
 10
414.80659112142894
 20
255.03079569198022
 40
1.666666666666667
 50
89.999999999999915
 51
179.99999999999983
  0
ARC
  8
_0-b_細線3
  6
CONTINUOUS
 62
    7
 10
415.58650644030831
 20
258.36412902531367
 40
1.666666666666667
 50
269.99999999999977
 51
329.99999999998744
  0
ARC
  8
_0-b_細線3
  6
CONTINUOUS
 62
    7
 10
418.473257786256
 20
256.69746235864716
 40
1.666666666666667
 50
89.999999999999915
 51
150.00000000000915
  0
LINE
  8
_0-b_細線3
  6
CONTINUOUS
 62
    7
 10
414.80659112142894
 20
256.69746235864716
 11
415.58650644030831
 21
256.69746235864716
  0
ARC
  8
_0-b_細線3
  6
CONTINUOUS
 62
    7
 10
430.473257784417
 20
255.03079569198022
 40
1.666666666666667
 50
0
 51
89.999999999999915
  0
ARC
  8
_0-b_細線3
  6
CONTINUOUS
 62
    7
 10
429.69334246553763
 20
258.36412902531367
 40
1.666666666666667
 50
210.00000000000404
 51
269.99999999999977
  0
ARC
  8
_0-b_細線3
  6
CONTINUOUS
 62
    7
 10
426.80659111958994
 20
256.69746235864716
 40
1.666666666666667
 50
29.999999999998682
 51
89.999999999999915
  0
LINE
  8
_0-b_細線3
  6
CONTINUOUS
 62
    7
 10
430.473257784417
 20
256.69746235864716
 11
429.69334246553763
 21
256.69746235864716
  0
ARC
  8
_0-b_細線3
  6
CONTINUOUS
 62
    7
 10
413.97325778809596
 20
252.69746235864716
 40
0.8333333333333334
 50
179.99999999999983
 51
269.99999999999977
  0
LINE
  8
_0-b_細線3
  6
CONTINUOUS
 62
    7
 10
413.13992445476242
 20
255.03079569198022
 11
413.13992445476242
 21
252.69746235864716
  0
ARC
  8
_0-b_細線3
  6
CONTINUOUS
 62
    7
 10
431.30659111775003
 20
252.69746235864716
 40
0.8333333333333334
 50
269.99999999999977
 51
359.99999999999966
  0
LINE
  8
_0-b_細線3
  6
CONTINUOUS
 62
    7
 10
432.13992445108352
 20
255.03079569198022
 11
432.13992445108352
 21
252.69746235864716
  0
ARC
  8
_0-b_細線3
  6
CONTINUOUS
 62
    7
 10
418.13992445476242
 20
250.19746235864716
 40
1.666666666666667
 50
0
 51
89.999999999999915
  0
LINE
  8
_0-b_細線3
  6
CONTINUOUS
 62
    7
 10
418.13992445476242
 20
251.8641290253137
 11
413.97325778809596
 21
251.8641290253137
  0
ARC
  8
_0-b_細線3
  6
CONTINUOUS
 62
    7
 10
427.13992445476242
 20
250.19746235864716
 40
1.666666666666667
 50
89.999999999999915
 51
179.99999999999983
  0
LINE
  8
_0-b_細線3
  6
CONTINUOUS
 62
    7
 10
427.13992445108352
 20
251.8641290253137
 11
431.30659111775003
 21
251.8641290253137
  0
LINE
  8
_0-b_細線3
  6
CONTINUOUS
 62
    7
 10
426.80659111958994
 20
258.36412902531367
 11
418.473257786256
 21
258.36412902531367
  0
LINE
  8
_0-b_細線3
  6
CONTINUOUS
 62
    7
 10
419.80659111958948
 20
225.03079569198033
 11
419.80659112142894
 21
250.19746235864716
  0
LINE
  8
_0-b_細線3
  6
CONTINUOUS
 62
    7
 10
425.47325778625645
 20
225.03079569198033
 11
425.47325778809591
 21
250.19746235864716
  0
LINE
  8
_0-b_細線3
  6
CONTINUOUS
 62
    7
 10
425.47325778625645
 20
225.03079569198033
 11
419.80659111958948
 21
225.03079569198033
  0
LINE
  8
_0-d_寸法3
  6
CONTINUOUS
 62
    7
 10
517.83144489825486
 20
230.76656005549083
 11
553.18378662394036
 21
255.52053622518162
  0
LINE
  8
_0-d_寸法3
  6
CONTINUOUS
 62
    7
 10
549.08802640249542
 20
252.65265404342639
 11
546.49983595147023
 21
262.31191230631703
  0
LINE
  8
_0-d_寸法3
  6
CONTINUOUS
 62
    7
 10
549.08802640249542
 20
252.65265404342639
 11
551.6762168535206
 21
262.31191230631703
  0
LINE
  8
_0-d_寸法3
  6
CONTINUOUS
 62
    7
 10
517.83144489825486
 20
264.09989338882417
 11
553.18378662394036
 21
288.85386955851493
  0
LINE
  8
_0-d_寸法3
  6
CONTINUOUS
 62
    7
 10
549.08802640249542
 20
285.98598737675968
 11
551.6762168535206
 21
276.32672911386896
  0
LINE
  8
_0-d_寸法3
  6
CONTINUOUS
 62
    7
 10
549.08802640249542
 20
285.98598737675968
 11
546.49983595147012
 21
276.32672911386908
  0
LINE
  8
_0-d_寸法3
  6
CONTINUOUS
 62
    7
 10
549.08802640249542
 20
252.65265404342639
 11
549.08802640249542
 21
285.98598737675968
  0
TEXT
  8
_0-d_寸法3
 62
    7
 10
549.08802640249542
 20
261.81932071009402
 40
15
 41
1
 50
90
  1
20
  0
LINE
  8
_0-7_枠細線
  6
CONTINUOUS
 62
    5
 10
539.6230220632151
 20
703.92835803928153
 11
532.1230220632151
 21
688.92835803928153
  0
LINE
  8
_0-7_枠細線
  6
CONTINUOUS
 62
    5
 10
532.1230220632151
 20
688.92835803928153
 11
547.1230220632151
 21
688.92835803928153
  0
LINE
  8
_0-7_枠細線
  6
CONTINUOUS
 62
    5
 10
547.1230220632151
 20
688.92835803928153
 11
539.6230220632151
 21
703.92835803928153
  0
TEXT
  8
_0-7_枠細線
 62
    5
 10
536.98817333136321
 20
688.38067414910017
 40
12.5
 41
0.8
 50
0
  1
1
  0
LINE
  8
_0-5_寸法線
  6
CONTINUOUS
 62
    7
 10
368.51795824097098
 20
644.6058308010804
 11
368.51795824097115
 21
794.6058308010804
  0
LINE
  8
_0-5_寸法線
  6
CONTINUOUS
 62
    7
 10
368.51795824097115
 20
789.6058308010804
 11
378.17721650386181
 21
792.19402125210547
  0
LINE
  8
_0-5_寸法線
  6
CONTINUOUS
 62
    7
 10
368.51795824097115
 20
789.6058308010804
 11
378.17721650386181
 21
787.0176403500551
  0
LINE
  8
_0-5_寸法線
  6
CONTINUOUS
 62
    7
 10
528.51795824097144
 20
644.6058308010804
 11
528.51795824097178
 21
794.6058308010804
  0
LINE
  8
_0-5_寸法線
  6
CONTINUOUS
 62
    7
 10
528.51795824097178
 20
789.6058308010804
 11
518.85869997808106
 21
787.0176403500551
  0
LINE
  8
_0-5_寸法線
  6
CONTINUOUS
 62
    7
 10
528.51795824097178
 20
789.6058308010804
 11
518.85869997808106
 21
792.19402125210547
  0
LINE
  8
_0-5_寸法線
  6
CONTINUOUS
 62
    7
 10
368.51795824097115
 20
789.6058308010804
 11
528.51795824097178
 21
789.6058308010804
  0
TEXT
  8
_0-5_寸法線
 62
    7
 10
437.26795824097138
 20
789.60583080108017
 40
15
 41
1
 50
0
  1
160
  0
LINE
  8
_0-5_寸法線
  6
CONTINUOUS
 62
    7
 10
368.5179582409711
 20
754.6058308010804
 11
358.85869997808038
 21
752.0176403500551
  0
LINE
  8
_0-5_寸法線
  6
CONTINUOUS
 62
    7
 10
368.5179582409711
 20
754.6058308010804
 11
358.85869997808044
 21
757.19402125210547
  0
LINE
  8
_0-5_寸法線
  6
CONTINUOUS
 62
    7
 10
371.51795824097093
 20
644.6058308010804
 11
371.51795824097115
 21
759.6058308010804
  0
LINE
  8
_0-5_寸法線
  6
CONTINUOUS
 62
    7
 10
343.5179582409711
 20
754.6058308010804
 11
371.51795824097115
 21
754.6058308010804
  0
TEXT
  8
_0-5_寸法線
 62
    7
 10
347.4118819817042
 20
754.60583080108017
 40
15
 41
1
 50
0
  1
3
  0
LINE
  8
_0-5_寸法線
  6
CONTINUOUS
 62
    7
 10
371.51795824097115
 20
754.6058308010804
 11
381.17721650386181
 21
757.19402125210547
  0
LINE
  8
_0-5_寸法線
  6
CONTINUOUS
 62
    7
 10
371.51795824097115
 20
754.6058308010804
 11
381.17721650386181
 21
752.01764035005499
  0
LINE
  8
_0-5_寸法線
  6
CONTINUOUS
 62
    7
 10
525.51795824097144
 20
644.6058308010804
 11
525.51795824097189
 21
759.6058308010804
  0
LINE
  8
_0-5_寸法線
  6
CONTINUOUS
 62
    7
 10
525.51795824097189
 20
754.6058308010804
 11
515.85869997808106
 21
752.0176403500551
  0
LINE
  8
_0-5_寸法線
  6
CONTINUOUS
 62
    7
 10
525.51795824097189
 20
754.6058308010804
 11
515.85869997808106
 21
757.19402125210547
  0
LINE
  8
_0-5_寸法線
  6
CONTINUOUS
 62
    7
 10
371.51795824097115
 20
754.6058308010804
 11
525.51795824097189
 21
754.6058308010804
  0
TEXT
  8
_0-5_寸法線
 62
    7
 10
437.26795824097138
 20
754.60583080108017
 40
15
 41
1
 50
0
  1
154
  0
LINE
  8
_0-5_寸法線
  6
CONTINUOUS
 62
    7
 10
528.51795824097178
 20
754.6058308010804
 11
538.1772165038625
 21
757.19402125210547
  0
LINE
  8
_0-5_寸法線
  6
CONTINUOUS
 62
    7
 10
528.51795824097178
 20
754.6058308010804
 11
538.1772165038625
 21
752.01764035005499
  0
LINE
  8
_0-5_寸法線
  6
CONTINUOUS
 62
    7
 10
525.51795824097189
 20
754.6058308010804
 11
553.51795824097178
 21
754.6058308010804
  0
TEXT
  8
_0-5_寸法線
 62
    7
 10
542.6856046094415
 20
754.6058308010804
 40
15
 41
1
 50
0
  1
3
  0
LINE
  8
_0-5_寸法線
  6
CONTINUOUS
 62
    7
 10
373.51795824097098
 20
644.6058308010804
 11
373.51795824097104
 21
724.6058308010804
  0
LINE
  8
_0-5_寸法線
  6
CONTINUOUS
 62
    7
 10
373.51795824097104
 20
719.6058308010804
 11
383.1772165038617
 21
722.19402125210547
  0
LINE
  8
_0-5_寸法線
  6
CONTINUOUS
 62
    7
 10
373.51795824097104
 20
719.6058308010804
 11
383.1772165038617
 21
717.0176403500551
  0
LINE
  8
_0-5_寸法線
  6
CONTINUOUS
 62
    7
 10
523.51795824097098
 20
644.6058308010804
 11
523.5179582409711
 21
724.6058308010804
  0
LINE
  8
_0-5_寸法線
  6
CONTINUOUS
 62
    7
 10
523.5179582409711
 20
719.6058308010804
 11
513.85869997808049
 21
717.0176403500551
  0
LINE
  8
_0-5_寸法線
  6
CONTINUOUS
 62
    7
 10
523.5179582409711
 20
719.6058308010804
 11
513.85869997808049
 21
722.19402125210547
  0
LINE
  8
_0-5_寸法線
  6
CONTINUOUS
 62
    7
 10
373.51795824097104
 20
719.6058308010804
 11
523.5179582409711
 21
719.6058308010804
  0
TEXT
  8
_0-5_寸法線
 62
    7
 10
437.2679582409711
 20
719.6058308010804
 40
15
 41
1
 50
0
  1
150
  0
LINE
  8
_0-5_寸法線
  6
CONTINUOUS
 62
    7
 10
1009.9999999996562
 20
686.15999999999997
 11
1009.9999999996564
 21
731.16000000000008
  0
LINE
  8
_0-5_寸法線
  6
CONTINUOUS
 62
    7
 10
1009.9999999996564
 20
726.16000000000008
 11
1019.659258262547
 21
728.74819045102527
  0
LINE
  8
_0-5_寸法線
  6
CONTINUOUS
 62
    7
 10
1009.9999999996564
 20
726.16000000000008
 11
1019.659258262547
 21
723.5718095489749
  0
LINE
  8
_0-5_寸法線
  6
CONTINUOUS
 62
    7
 10
1160.0000000003438
 20
686.16000000000008
 11
1160.000000000344
 21
731.16000000000008
  0
LINE
  8
_0-5_寸法線
  6
CONTINUOUS
 62
    7
 10
1160.000000000344
 20
726.16000000000008
 11
1150.3407417374533
 21
723.5718095489749
  0
LINE
  8
_0-5_寸法線
  6
CONTINUOUS
 62
    7
 10
1160.000000000344
 20
726.16000000000008
 11
1150.3407417374533
 21
728.74819045102527
  0
LINE
  8
_0-5_寸法線
  6
CONTINUOUS
 62
    7
 10
1009.9999999996564
 20
726.16000000000008
 11
1160.000000000344
 21
726.16000000000008
  0
TEXT
  8
_0-5_寸法線
 62
    7
 10
1073.7500000000002
 20
726.16000000000008
 40
15
 41
1
 50
0
  1
150
  0
LINE
  8
_0-5_寸法線
  6
CONTINUOUS
 62
    7
 10
1005
 20
760.66000000000031
 11
995.34074173710928
 21
758.07180954897512
  0
LINE
  8
_0-5_寸法線
  6
CONTINUOUS
 62
    7
 10
1005
 20
760.66000000000031
 11
995.34074173710928
 21
763.24819045102561
  0
LINE
  8
_0-5_寸法線
  6
CONTINUOUS
 62
    7
 10
1008.0000000000001
 20
680.66000000000008
 11
1008.0000000000001
 21
765.66000000000031
  0
LINE
  8
_0-5_寸法線
  6
CONTINUOUS
 62
    7
 10
980
 20
760.66000000000031
 11
1008.0000000000001
 21
760.66000000000031
  0
TEXT
  8
_0-5_寸法線
 62
    7
 10
983.8553320560768
 20
760.66000000000031
 40
15
 41
1
 50
0
  1
3
  0
LINE
  8
_0-5_寸法線
  6
CONTINUOUS
 62
    7
 10
1008.0000000000001
 20
760.66000000000031
 11
1017.6592582628907
 21
763.24819045102561
  0
LINE
  8
_0-5_寸法線
  6
CONTINUOUS
 62
    7
 10
1008.0000000000001
 20
760.66000000000031
 11
1017.6592582628907
 21
758.07180954897512
  0
LINE
  8
_0-5_寸法線
  6
CONTINUOUS
 62
    7
 10
1162
 20
680.66000000000008
 11
1162.0000000000005
 21
765.66000000000031
  0
LINE
  8
_0-5_寸法線
  6
CONTINUOUS
 62
    7
 10
1162.0000000000005
 20
760.66000000000031
 11
1152.3407417371097
 21
758.07180954897512
  0
LINE
  8
_0-5_寸法線
  6
CONTINUOUS
 62
    7
 10
1162.0000000000005
 20
760.66000000000031
 11
1152.3407417371097
 21
763.24819045102561
  0
LINE
  8
_0-5_寸法線
  6
CONTINUOUS
 62
    7
 10
1008.0000000000001
 20
760.66000000000031
 11
1162.0000000000005
 21
760.66000000000031
  0
TEXT
  8
_0-5_寸法線
 62
    7
 10
1073.7500000000002
 20
760.66000000000031
 40
15
 41
1
 50
0
  1
154
  0
LINE
  8
_0-5_寸法線
  6
CONTINUOUS
 62
    7
 10
1165.0000000000005
 20
760.66000000000031
 11
1174.6592582628912
 21
763.24819045102561
  0
LINE
  8
_0-5_寸法線
  6
CONTINUOUS
 62
    7
 10
1165.0000000000005
 20
760.66000000000031
 11
1174.6592582628912
 21
758.07180954897501
  0
LINE
  8
_0-5_寸法線
  6
CONTINUOUS
 62
    7
 10
1162.0000000000005
 20
760.66000000000031
 11
1190.0000000000005
 21
760.66000000000031
  0
TEXT
  8
_0-5_寸法線
 62
    7
 10
1179.5194293325812
 20
760.66000000000031
 40
15
 41
1
 50
0
  1
3
  0
ENDSEC
  0
EOF
