  0
SECTION
  2
HEADER
  9
$ACADVER
  1
AC1009
  9
$INSBASE
 10
0
 20
0
 30
0
  9
$EXTMIN
 10
0
 20
0
  9
$EXTMAX
 10
1485
 20
1050
  9
$LIMMIN
 10
0
 20
0
  9
$LIMMAX
 10
1485
 20
1050
  9
$LTSCALE
 40
5
  0
ENDSEC
  0
SECTION
  2
TABLES
  0
TABLE
  2
LTYPE
 70
     9
  0
LTYPE
  2
CONTINUOUS
 70
    64
  3
実線
 72
    65
 73
     0
 40
0.0
  0
LTYPE
  2
DASHED1
 70
    64
  3
--  --  --  --  --  --  --  --  
 72
    65
 73
     2
 40
2.5
 49
1.25
 49
-1.25
  0
LTYPE
  2
DASHED2
 70
    64
  3
----    ----    ----    ----    
 72
    65
 73
     2
 40
5.0
 49
2.5
 49
-2.5
  0
LTYPE
  2
DASHED3
 70
    64
  3
------  ------  ------  ------  
 72
    65
 73
     2
 40
5.0
 49
3.75
 49
-1.25
  0
LTYPE
  2
CENTER1
 70
    64
  3
----- - ----- - ----- - ----- - 
 72
    65
 73
     4
 40
10.0
 49
6.25
 49
-1.25
 49
1.25
 49
-1.25
  0
LTYPE
  2
CENTER2
 70
    64
  3
----------  --  ----------  --  
 72
    65
 73
     4
 40
20.0
 49
12.5
 49
-2.5
 49
2.5
 49
-2.5
  0
LTYPE
  2
PHANTOM1
 70
    64
  3
--- - - --- - - --- - - --- - - 
 72
    65
 73
     6
 40
10.0
 49
3.25
 49
-1.25
 49
1.25
 49
-1.25
 49
1.25
 49
-1.25
  0
LTYPE
  2
PHANTOM2
 70
    64
  3
--------  -  -  --------  -  -  
 72
    65
 73
     6
 40
20.0
 49
10.0
 49
-2.5
 49
1.25
 49
-2.5
 49
1.25
 49
-2.5
  0
LTYPE
  2
DOT
 70
    64
  3
-   -   -   -   -   -   -   -   
 72
    65
 73
     2
 40
2.5
 49
0.625
 49
-1.875
  0
LTYPE
  2
DUMMY
 70
    64
  3
ダミー
 72
    65
 73
     0
 40
0.0
  0
LTYPE
  2
RAND1
 70
    64
  3
ランダム線1
 72
    65
 73
     4
 40
10.0
 49
1.0
 49
-2.0
 49
3.0
 49
-4.0
  0
LTYPE
  2
RAND2
 70
    64
  3
ランダム線2
 72
    65
 73
     4
 40
14.0
 49
2.0
 49
-3.0
 49
4.0
 49
-5.0
  0
LTYPE
  2
RAND3
 70
    64
  3
ランダム線3
 72
    65
 73
     4
 40
18.0
 49
3.0
 49
-4.0
 49
5.0
 49
-6.0
  0
LTYPE
  2
RAND4
 70
    64
  3
ランダム線4
 72
    65
 73
     4
 40
22.0
 49
4.0
 49
-5.0
 49
6.0
 49
-7.0
  0
LTYPE
  2
RAND5
 70
    64
  3
ランダム線5
 72
    65
 73
     4
 40
26.0
 49
5.0
 49
-6.0
 49
7.0
 49
-8.0
  0
LTYPE
  2
LONG1
 70
    64
  3
----------  --  ----------  --  
 72
    65
 73
     4
 40
40.0
 49
32.5
 49
-2.5
 49
2.5
 49
-2.5
  0
LTYPE
  2
LONG2
 70
    64
  3
--------  -  -  --------  -  -  
 72
    65
 73
     6
 40
40.0
 49
30.0
 49
-2.5
 49
1.25
 49
-2.5
 49
1.25
 49
-2.5
  0
LTYPE
  2
LONG3
 70
    64
  3
+++++++++++++++..+++++++++++++++
 72
    65
 73
     2
 40
40.0
 49
37.5
 49
-2.5
  0
LTYPE
  2
LONG4
 70
    64
  3
+++++++++++++++..+++++++++++++++
 72
    65
 73
     2
 40
80.0
 49
75.0
 49
-5.0
  0
LTYPE
  2
LONG5
 70
    64
  3
----------  --  ----------  --  
 72
    65
 73
     4
 40
60.0
 49
37.5
 49
-7.5
 49
7.5
 49
-7.5
  0
LTYPE
  2
dashed
 70
   64
  3
-------   -------------   ------
 72
   65
 73
    2
 40
7.5
 49
6
 49
-1.5
  0
LTYPE
  2
dashed_spaced
 70
   64
  3
----        --------        ----
 72
   65
 73
    2
 40
12
 49
6
 49
-6
  0
LTYPE
  2
long_dashed_dotted
 70
   64
  3
------------- --- --------------
 72
   65
 73
    4
 40
15.25
 49
12
 49
-1.5
 49
0.25
 49
-1.5
  0
LTYPE
  2
long_dashed_double-dotted
 70
   64
  3
----------- --- --- ------------
 72
   65
 73
    6
 40
17
 49
12
 49
-1.5
 49
0.25
 49
-1.5
 49
0.25
 49
-1.5
  0
LTYPE
  2
long_dashed_triplicate-dotted
 70
   64
  3
--------- --- --- --- ----------
 72
   65
 73
    8
 40
18.75
 49
12
 49
-1.5
 49
0.25
 49
-1.5
 49
0.25
 49
-1.5
 49
0.25
 49
-1.5
  0
LTYPE
  2
dotted
 70
   64
  3
   -       -       -       -    
 72
   65
 73
    2
 40
1.75
 49
0.25
 49
-1.5
  0
LTYPE
  2
chain
 70
   64
  3
-------------- -- --------------
 72
   65
 73
    4
 40
18.5
 49
12
 49
-1.5
 49
3.5
 49
-1.5
  0
LTYPE
  2
chain_double_dash
 70
   64
  3
------------ -- -- -------------
 72
   65
 73
    6
 40
23.5
 49
12
 49
-1.5
 49
3.5
 49
-1.5
 49
3.5
 49
-1.5
  0
LTYPE
  2
dashed_dotted
 70
   64
  3
-----------     -     ----------
 72
   65
 73
    4
 40
9.25
 49
6
 49
-1.5
 49
0.25
 49
-1.5
  0
LTYPE
  2
double-dashed_dotted
 70
   64
  3
------   -----------   -   -----
 72
   65
 73
    6
 40
16.75
 49
6
 49
-1.5
 49
6
 49
-1.5
 49
0.25
 49
-1.5
  0
LTYPE
  2
dashed_double-dotted
 70
   64
  3
---------    -    -    ---------
 72
   65
 73
    6
 40
11
 49
6
 49
-1.5
 49
0.25
 49
-1.5
 49
0.25
 49
-1.5
  0
LTYPE
  2
double-dashed_double-dotted
 70
   64
  3
-----   ---------   -   -   ----
 72
   65
 73
    8
 40
18.5
 49
6
 49
-1.5
 49
6
 49
-1.5
 49
0.25
 49
-1.5
 49
0.25
 49
-1.5
  0
LTYPE
  2
dashed_triplicate-dotted
 70
   64
  3
-------    -    -    -    ------
 72
   65
 73
    8
 40
12.75
 49
6
 49
-1.5
 49
0.25
 49
-1.5
 49
0.25
 49
-1.5
 49
0.25
 49
-1.5
  0
LTYPE
  2
double-dashed_triplicate-dotted
 70
   64
  3
-----  ---------  -  -  -  -----
 72
   65
 73
   10
 40
20.25
 49
6
 49
-1.5
 49
6
 49
-1.5
 49
0.25
 49
-1.5
 49
0.25
 49
-1.5
 49
0.25
 49
-1.5
  0
LTYPE
  2
undefined
 70
   64
  3
--------------------------------
 72
   65
 73
    0
 40
0
  0
ENDTAB
  0
TABLE
  2
STYLE
  5
3
100
AcDbSymbolTable
 70
     1
  0
STYLE
  5
10
100
AcDbSymbolTableRecord
100
AcDbTextStyleTableRecord
  2
STANDARD
 70
     0
 40
0.0
 41
1.0
 50
0.0
 71
     0
 42
0.2
  3
txt
  4
bigfont.shx
  0
STYLE
  5
26
100
AcDbSymbolTableRecord
100
AcDbTextStyleTableRecord
  2
TATEGAKI
 70
    68
 40
0.0
 41
1.0
 50
0.0
 71
     0
 42
1.0
  3
txt
  4
bigfont.shx
  0
ENDTAB
  0
TABLE
  2
LAYER
 70
   10
  0
LAYER
  2
_0-0_計極細
 70
   64
 62
    7
  6
CONTINUOUS
  0
LAYER
  2
_0-1_計細線
 70
   64
 62
    7
  6
CONTINUOUS
  0
LAYER
  2
_0-5_寸法線
 70
   64
 62
    7
  6
CONTINUOUS
  0
LAYER
  2
_0-7_枠細線
 70
   64
 62
    7
  6
CONTINUOUS
  0
LAYER
  2
_0-8_枠中線
 70
   64
 62
    7
  6
CONTINUOUS
  0
LAYER
  2
_0-9_枠極太
 70
   64
 62
    7
  6
CONTINUOUS
  0
LAYER
  2
_0-a_極細3
 70
   64
 62
    7
  6
CONTINUOUS
  0
LAYER
  2
_0-b_細線3
 70
   64
 62
    7
  6
CONTINUOUS
  0
LAYER
  2
_0-d_寸法3
 70
   64
 62
    7
  6
CONTINUOUS
  0
LAYER
  2
ADD_LINE
 70
   64
 62
    7
  6
CONTINUOUS
  0
ENDTAB
  0
ENDSEC
  0
SECTION
  2
BLOCKS
  0
ENDSEC
  0
SECTION
  2
ENTITIES
  0
LINE
  8
_0-7_枠細線
  6
CONTINUOUS
 62
    5
 10
1185
 20
180
 11
1185
 21
100
  0
TEXT
  8
_0-7_枠細線
 62
    5
 10
937.5
 20
97.5
 40
17.5
 41
1
 50
0
  1
備考
  7
TATEGAKI
  0
TEXT
  8
_0-7_枠細線
 62
    5
 10
937.5
 20
137.5
 40
17.5
 41
1
 50
0
  1
品番
  7
TATEGAKI
  0
TEXT
  8
_0-7_枠細線
 62
    5
 10
937.5
 20
177.5
 40
17.5
 41
1
 50
0
  1
品名
  7
TATEGAKI
  0
LINE
  8
_0-7_枠細線
  6
CONTINUOUS
 62
    5
 10
1185
 20
140
 11
925
 21
140
  0
LINE
  8
_0-7_枠細線
  6
CONTINUOUS
 62
    5
 10
950
 20
180
 11
950
 21
60
  0
LINE
  8
_0-8_枠中線
  6
CONTINUOUS
 62
    5
 10
1425
 20
180
 11
925
 21
180
  0
LINE
  8
_0-8_枠中線
  6
CONTINUOUS
 62
    5
 10
925
 20
180
 11
925
 21
60
  0
LINE
  8
_0-7_枠細線
  6
CONTINUOUS
 62
    5
 10
1245
 20
180
 11
1245
 21
60
  0
TEXT
  8
_0-7_枠細線
 62
    5
 10
1192.5
 20
160
 40
15
 41
1
 50
0
  1
縮　尺
  0
LINE
  8
_0-7_枠細線
  6
CONTINUOUS
 62
    5
 10
1185
 20
155
 11
1245
 21
155
  0
LINE
  8
_0-7_枠細線
  6
CONTINUOUS
 62
    5
 10
1245
 20
100
 11
925
 21
100
  0
LINE
  8
_0-7_枠細線
  6
CONTINUOUS
 62
    5
 10
1425
 20
90
 11
1245
 21
90
  0
LINE
  8
_0-7_枠細線
  6
CONTINUOUS
 62
    5
 10
1245
 20
120
 11
1425
 21
120
  0
LINE
  8
_0-7_枠細線
  6
CONTINUOUS
 62
    5
 10
1425
 20
140
 11
1245
 21
140
  0
TEXT
  8
_0-7_枠細線
 62
    5
 10
1255
 20
147.5
 40
25
 41
0.8
 50
0
  1
株式会社シマブン
  0
TEXT
  8
_0-7_枠細線
 62
    5
 10
1252.5
 20
60
 40
15
 41
1
 50
0
  1
年月日
  0
TEXT
  8
_0-7_枠細線
 62
    5
 10
1252.5
 20
75
 40
15
 41
1
 50
0
  1
作　成
  0
TEXT
  8
_0-7_枠細線
 62
    5
 10
1256.25
 20
122.5
 40
15
 41
1
 50
0
  1
承 認
  0
LINE
  8
_0-7_枠細線
  6
CONTINUOUS
 62
    5
 10
1305
 20
140
 11
1305
 21
60
  0
TEXT
  8
_0-7_枠細線
 62
    5
 10
1316.25
 20
122.5
 40
15
 41
1
 50
0
  1
検 図
  0
LINE
  8
_0-7_枠細線
  6
CONTINUOUS
 62
    5
 10
1365
 20
140
 11
1365
 21
90
  0
TEXT
  8
_0-7_枠細線
 62
    5
 10
1375
 20
95
 40
20
 41
1
 50
0
  1
藤戸
  0
TEXT
  8
_0-7_枠細線
 62
    5
 10
1376.25
 20
122.5
 40
15
 41
1
 50
0
  1
設 計
  0
TEXT
  8
_0-7_枠細線
 62
    5
 10
1255
 20
95
 40
20
 41
1
 50
0
  1
隠塚
  0
TEXT
  8
_0-7_枠細線
 62
    5
 10
1315
 20
95
 40
20
 41
1
 50
0
  1
渋田
  0
TEXT
  8
_0-7_枠細線
 62
    5
 10
1193.9999999999998
 20
117.5
 40
20
 41
0.7000000000000001
 50
0
  1
１：５
  0
TEXT
  8
_0-7_枠細線
 62
    5
 10
960.5
 20
69.999999999999858
 40
20
 41
0.5999999999999998
 50
0
  1
品番・色については表参照のこと
  0
TEXT
  8
_0-7_枠細線
 62
    5
 10
1309.9999999999998
 20
67.499999999999929
 40
15.000000000000009
 41
0.6666666666666665
 50
0
  1
２０１０年０３月０１日
  0
TEXT
  8
_0-7_枠細線
 62
    5
 10
960.5
 20
158.74999999999994
 40
20.000000000000007
 41
0.5999999999999998
 50
0
  1
セーフティグレーチングＨ２０タイプ
  0
TEXT
  8
_0-7_枠細線
 62
    5
 10
1128.5
 20
141.25
 40
20.000000000000007
 41
0.5999999999999998
 50
0
  1
集水マス
  0
LINE
  8
_0-7_枠細線
  6
CONTINUOUS
 62
    5
 10
1425
 20
942.5
 11
890
 21
942.5
  0
TEXT
  8
_0-7_枠細線
 62
    5
 10
895
 20
945
 40
12.5
 41
1
 50
0
  1
記号
  0
TEXT
  8
_0-7_枠細線
 62
    5
 10
996.875
 20
945
 40
12.5
 41
1
 50
0
  1
訂　 正　 記　 事
  0
TEXT
  8
_0-7_枠細線
 62
    5
 10
1181.25
 20
945
 40
12.5
 41
1
 50
0
  1
訂 正 年 月 日
  0
TEXT
  8
_0-7_枠細線
 62
    5
 10
1306.25
 20
945
 40
12.5
 41
1
 50
0
  1
備　　　　　考
  0
LINE
  8
_0-7_枠細線
  6
CONTINUOUS
 62
    5
 10
1425
 20
925
 11
890
 21
925
  0
TEXT
  8
_0-7_枠細線
 62
    5
 10
938.85037037037023
 20
927.5
 40
12.5
 41
1
 50
0
  1
品番・色記号変更
  0
TEXT
  8
_0-7_枠細線
 62
    5
 10
1180
 20
927.5
 40
12.5
 41
0.7199999999999999
 50
0
  1
２０１３．０３．１３
  0
LINE
  8
_0-7_枠細線
  6
CONTINUOUS
 62
    5
 10
1425
 20
907.5
 11
890
 21
907.5
  0
LINE
  8
_0-7_枠細線
  6
CONTINUOUS
 62
    5
 10
1425
 20
890
 11
890
 21
890
  0
TEXT
  8
_0-7_枠細線
 62
    5
 10
938.85037037037023
 20
910
 40
12.5
 41
1
 50
0
  1
クロスバーピッチ変更
  0
TEXT
  8
_0-7_枠細線
 62
    5
 10
938.85037037037023
 20
892.5
 40
12.5
 41
1
 50
0
  1
取外具形状変更
  0
TEXT
  8
_0-7_枠細線
 62
    5
 10
1180
 20
910
 40
12.5
 41
0.7199999999999999
 50
0
  1
２０１５．１１．２０
  0
LINE
  8
_0-7_枠細線
  6
CONTINUOUS
 62
    5
 10
915
 20
908.94233397174685
 11
907.5
 21
923.94233397174685
  0
LINE
  8
_0-7_枠細線
  6
CONTINUOUS
 62
    5
 10
900
 20
908.94233397174685
 11
915
 21
908.94233397174685
  0
LINE
  8
_0-7_枠細線
  6
CONTINUOUS
 62
    5
 10
907.5
 20
923.94233397174685
 11
900
 21
908.94233397174685
  0
TEXT
  8
_0-7_枠細線
 62
    5
 10
902.36515126814822
 20
908.63533172636664
 40
12.5
 41
0.8
 50
0
  1
１
  0
TEXT
  8
_0-7_枠細線
 62
    5
 10
902.36515126814822
 20
891.13533172636664
 40
12.5
 41
0.8
 50
0
  1
２
  0
LINE
  8
_0-7_枠細線
  6
CONTINUOUS
 62
    5
 10
1425
 20
872.5
 11
890
 21
872.5
  0
LINE
  8
_0-7_枠細線
  6
CONTINUOUS
 62
    5
 10
907.5
 20
906.44233397174685
 11
900
 21
891.44233397174685
  0
LINE
  8
_0-7_枠細線
  6
CONTINUOUS
 62
    5
 10
900
 20
891.44233397174685
 11
915
 21
891.44233397174685
  0
LINE
  8
_0-7_枠細線
  6
CONTINUOUS
 62
    5
 10
915
 20
891.44233397174685
 11
907.5
 21
906.44233397174685
  0
TEXT
  8
_0-7_枠細線
 62
    5
 10
902.36515126814822
 20
873.39465008156549
 40
12.5
 41
0.8
 50
0
  1
３
  0
TEXT
  8
_0-7_枠細線
 62
    5
 10
1180
 20
875
 40
12.5
 41
0.7199999999999999
 50
0
  1
２０１７．０４．０１
  0
LINE
  8
_0-7_枠細線
  6
CONTINUOUS
 62
    5
 10
915
 20
856.44233397174685
 11
907.5
 21
871.44233397174685
  0
LINE
  8
_0-7_枠細線
  6
CONTINUOUS
 62
    5
 10
900
 20
856.44233397174685
 11
915
 21
856.44233397174685
  0
LINE
  8
_0-7_枠細線
  6
CONTINUOUS
 62
    5
 10
907.5
 20
871.44233397174685
 11
900
 21
856.44233397174685
  0
TEXT
  8
_0-7_枠細線
 62
    5
 10
1180
 20
857.5
 40
12.5
 41
0.7199999999999999
 50
0
  1
２０１７．０４．０１
  0
TEXT
  8
_0-7_枠細線
 62
    5
 10
938.85037037037023
 20
857.5
 40
12.5
 41
1
 50
0
  1
ブラウン色（Ｃ）追加
  0
LINE
  8
_0-7_枠細線
  6
CONTINUOUS
 62
    5
 10
1425
 20
855
 11
890
 21
855
  0
LINE
  8
_0-7_枠細線
  6
CONTINUOUS
 62
    5
 10
907.5
 20
888.94233397174685
 11
900
 21
873.94233397174685
  0
LINE
  8
_0-7_枠細線
  6
CONTINUOUS
 62
    5
 10
900
 20
873.94233397174685
 11
915
 21
873.94233397174685
  0
LINE
  8
_0-7_枠細線
  6
CONTINUOUS
 62
    5
 10
915
 20
873.94233397174685
 11
907.5
 21
888.94233397174685
  0
TEXT
  8
_0-7_枠細線
 62
    5
 10
902.36515126814822
 20
855.49351400689704
 40
12.5
 41
0.8
 50
0
  1
４
  0
TEXT
  8
_0-7_枠細線
 62
    5
 10
938.85037037037023
 20
875
 40
12.5
 41
1
 50
0
  1
取外具形状変更
  0
TEXT
  8
_0-7_枠細線
 62
    5
 10
1180
 20
892.5
 40
12.5
 41
0.7199999999999999
 50
0
  1
２０１５．１１．２０
  0
LINE
  8
_0-9_枠極太
  6
CONTINUOUS
 62
    5
 10
60
 20
60
 11
60
 21
960
  0
LINE
  8
_0-9_枠極太
  6
CONTINUOUS
 62
    5
 10
60
 20
960
 11
1425
 21
960
  0
LINE
  8
_0-9_枠極太
  6
CONTINUOUS
 62
    5
 10
1425
 20
960
 11
1425
 21
60
  0
LINE
  8
_0-9_枠極太
  6
CONTINUOUS
 62
    5
 10
1425
 20
60
 11
60
 21
60
  0
LINE
  8
_0-7_枠細線
  6
CONTINUOUS
 62
    5
 10
915
 20
838.94233397174685
 11
907.5
 21
853.94233397174685
  0
LINE
  8
_0-7_枠細線
  6
CONTINUOUS
 62
    5
 10
900
 20
838.94233397174685
 11
915
 21
838.94233397174685
  0
LINE
  8
_0-7_枠細線
  6
CONTINUOUS
 62
    5
 10
907.5
 20
853.94233397174685
 11
900
 21
838.94233397174685
  0
LINE
  8
_0-7_枠細線
  6
CONTINUOUS
 62
    5
 10
1425
 20
837.5
 11
890
 21
837.5
  0
TEXT
  8
_0-7_枠細線
 62
    5
 10
1180
 20
840
 40
12.5
 41
0.7199999999999999
 50
0
  1
２０１９．０９．０１
  0
TEXT
  8
_0-7_枠細線
 62
    5
 10
902.36515126814822
 20
837.99351400689704
 40
12.5
 41
0.8
 50
0
  1
５
  0
TEXT
  8
_0-7_枠細線
 62
    5
 10
938.85037037037023
 20
840
 40
12.5
 41
1
 50
0
  1
アンカー材質･厚み変更
  0
LINE
  8
_0-7_枠細線
  6
CONTINUOUS
 62
    5
 10
1275
 20
837.5
 11
1275
 21
959.99999999999909
  0
LINE
  8
_0-7_枠細線
  6
CONTINUOUS
 62
    5
 10
1175
 20
837.5
 11
1175
 21
959.99999999999909
  0
LINE
  8
_0-7_枠細線
  6
CONTINUOUS
 62
    5
 10
925
 20
837.5
 11
925
 21
959.99999999999909
  0
LINE
  8
_0-7_枠細線
  6
CONTINUOUS
 62
    5
 10
890
 20
837.5
 11
890
 21
959.99999999999909
  0
TEXT
  8
_0-7_枠細線
 62
    5
 10
960.5
 20
109.99999999999993
 40
20.000000000000007
 41
0.5999999999999998
 50
0
  1
ＧＲＳ－２０Ｋ２５０
  0
LINE
  8
_0-7_枠細線
  6
CONTINUOUS
 62
    5
 10
925
 20
473.73000000000047
 11
925
 21
223.73000000000002
  0
LINE
  8
_0-7_枠細線
  6
CONTINUOUS
 62
    5
 10
1270.7300000000005
 20
393.73000000000059
 11
1270.7300000000005
 21
473.73000000000059
  0
TEXT
  8
_0-7_枠細線
 62
    5
 10
1293.2300000000007
 20
451.23000000000059
 40
15
 41
1
 50
0
  1
耐荷重
  0
TEXT
  8
_0-7_枠細線
 62
    5
 10
1285.7300000000007
 20
421.23000000000059
 40
15
 41
1
 50
0
  1
3.5kN/㎡
  0
TEXT
  8
_0-7_枠細線
 62
    5
 10
1278.2300000000005
 20
401.23000000000059
 40
15
 41
1
 50
0
  1
（歩道用）
  0
LINE
  8
_0-7_枠細線
  6
CONTINUOUS
 62
    5
 10
1360.7300000000007
 20
393.73000000000059
 11
1360.7300000000007
 21
473.73000000000059
  0
LINE
  8
_0-7_枠細線
  6
CONTINUOUS
 62
    5
 10
1270.7300000000005
 20
393.73000000000059
 11
1360.7300000000005
 21
393.73000000000059
  0
LINE
  8
_0-7_枠細線
  6
CONTINUOUS
 62
    5
 10
1270.7300000000005
 20
443.73000000000059
 11
1360.7300000000005
 21
443.73000000000059
  0
LINE
  8
_0-7_枠細線
  6
CONTINUOUS
 62
    5
 10
1270.7300000000005
 20
473.73000000000059
 11
1360.7300000000005
 21
473.73000000000059
  0
LINE
  8
_0-7_枠細線
  6
CONTINUOUS
 62
    5
 10
925
 20
323.73000000000059
 11
1225.0000000000005
 21
323.73000000000059
  0
LINE
  8
_0-7_枠細線
  6
CONTINUOUS
 62
    5
 10
925
 20
348.73000000000047
 11
1225.0000000000005
 21
348.73000000000047
  0
LINE
  8
_0-7_枠細線
  6
CONTINUOUS
 62
    5
 10
925
 20
373.73000000000047
 11
1225.0000000000005
 21
373.73000000000047
  0
LINE
  8
_0-7_枠細線
  6
CONTINUOUS
 62
    5
 10
925
 20
398.73000000000076
 11
1225.0000000000005
 21
398.73000000000076
  0
TEXT
  8
_0-7_枠細線
 62
    5
 10
1048.0000000000005
 20
403.73000000000076
 40
15
 41
0.5999999999999999
 50
0
  1
ライトグレー
  0
LINE
  8
_0-7_枠細線
  6
CONTINUOUS
 62
    5
 10
925
 20
423.73000000000047
 11
1225.0000000000005
 21
423.73000000000047
  0
TEXT
  8
_0-7_枠細線
 62
    5
 10
1057.0000000000005
 20
428.73000000000047
 40
15
 41
0.5999999999999999
 50
0
  1
ベージュ
  0
LINE
  8
_0-7_枠細線
  6
CONTINUOUS
 62
    5
 10
925
 20
448.73000000000047
 11
1225.0000000000005
 21
448.73000000000047
  0
TEXT
  8
_0-7_枠細線
 62
    5
 10
1069.0000000000005
 20
453.73000000000047
 40
15
 41
0.8000000000000001
 50
0
  1
色
  0
TEXT
  8
_0-7_枠細線
 62
    5
 10
951.00000000000034
 20
453.73000000000047
 40
15
 41
0.8000000000000001
 50
0
  1
品　　番
  0
TEXT
  8
_0-7_枠細線
 62
    5
 10
1151.0000000000005
 20
453.73000000000047
 40
15
 41
0.8000000000000001
 50
0
  1
備　　考
  0
LINE
  8
_0-7_枠細線
  6
CONTINUOUS
 62
    5
 10
925
 20
473.73000000000047
 11
1225.0000000000005
 21
473.73000000000047
  0
TEXT
  8
_0-7_枠細線
 62
    5
 10
1013.75
 20
478.73000000000047
 40
17.5
 41
1
 50
0
  1
品番表
  0
LINE
  8
_0-7_枠細線
  6
CONTINUOUS
 62
    5
 10
925
 20
248.73000000000033
 11
1225.0000000000005
 21
248.73000000000033
  0
LINE
  8
_0-7_枠細線
  6
CONTINUOUS
 62
    5
 10
925
 20
273.73000000000059
 11
1225.0000000000005
 21
273.73000000000059
  0
LINE
  8
_0-7_枠細線
  6
CONTINUOUS
 62
    5
 10
925
 20
298.7300000000007
 11
1225.0000000000005
 21
298.7300000000007
  0
TEXT
  8
_0-7_枠細線
 62
    5
 10
1057.0000000000009
 20
378.7300000000007
 40
15
 41
0.5999999999999999
 50
0
  1
ホワイト
  0
TEXT
  8
_0-7_枠細線
 62
    5
 10
1061.5000000000005
 20
353.73000000000047
 40
15
 41
0.5999999999999999
 50
0
  1
ピンク
  0
TEXT
  8
_0-7_枠細線
 62
    5
 10
1061.5000000000005
 20
328.73000000000047
 40
15
 41
0.5999999999999999
 50
0
  1
ブルー
  0
TEXT
  8
_0-7_枠細線
 62
    5
 10
1048
 20
303.73000000000059
 40
15
 41
0.5999999999999999
 50
0
  1
ダークグレー
  0
TEXT
  8
_0-7_枠細線
 62
    5
 10
1061.5000000000005
 20
278.7300000000007
 40
15
 41
0.5999999999999999
 50
0
  1
ウッド
  0
LINE
  8
_0-7_枠細線
  6
CONTINUOUS
 62
    5
 10
925
 20
223.73000000000002
 11
1225.0000000000005
 21
223.73000000000002
  0
TEXT
  8
_0-7_枠細線
 62
    5
 10
1057.0000000000009
 20
228.73000000000013
 40
15
 41
0.5999999999999999
 50
0
  1
ブラック
  0
LINE
  8
_0-7_枠細線
  6
CONTINUOUS
 62
    5
 10
1225.0000000000005
 20
473.73000000000047
 11
1225.0000000000005
 21
223.73000000000002
  0
LINE
  8
_0-7_枠細線
  6
CONTINUOUS
 62
    5
 10
1125
 20
473.73000000000047
 11
1125
 21
223.73000000000002
  0
LINE
  8
_0-7_枠細線
  6
CONTINUOUS
 62
    5
 10
1025.0000000000005
 20
473.73000000000047
 11
1025.0000000000005
 21
223.73000000000002
  0
TEXT
  8
_0-7_枠細線
 62
    5
 10
1057.0000000000005
 20
253.73000000000033
 40
15
 41
0.5999999999999999
 50
0
  1
ブラウン
  0
LINE
  8
_0-7_枠細線
  6
CONTINUOUS
 62
    5
 10
918.52762466555532
 20
254.30604122127349
 11
911.02762466555532
 21
269.30604122127352
  0
LINE
  8
_0-7_枠細線
  6
CONTINUOUS
 62
    5
 10
903.52762466555532
 20
254.30604122127349
 11
918.52762466555532
 21
254.30604122127349
  0
LINE
  8
_0-7_枠細線
  6
CONTINUOUS
 62
    5
 10
911.02762466555532
 20
269.30604122127352
 11
903.52762466555532
 21
254.30604122127349
  0
TEXT
  8
_0-7_枠細線
 62
    5
 10
905.89277593370343
 20
253.3572212564236
 40
12.5
 41
0.8
 50
0
  1
４
  0
TEXT
  8
_0-7_枠細線
 62
    5
 10
930.00000000000045
 20
428.73000000000047
 40
15
 41
0.5
 50
0
  1
ＧＲＳ－２０Ｋ２５０－Ｂ
  0
TEXT
  8
_0-7_枠細線
 62
    5
 10
930.00000000000045
 20
403.73000000000047
 40
15
 41
0.5
 50
0
  1
ＧＲＳ－２０Ｋ２５０－Ｇ
  0
TEXT
  8
_0-7_枠細線
 62
    5
 10
930.00000000000045
 20
378.7300000000007
 40
15
 41
0.5
 50
0
  1
ＧＲＳ－２０Ｋ２５０－Ｓ
  0
TEXT
  8
_0-7_枠細線
 62
    5
 10
930.00000000000045
 20
353.73000000000047
 40
15
 41
0.5
 50
0
  1
ＧＲＳ－２０Ｋ２５０－Ｐ
  0
TEXT
  8
_0-7_枠細線
 62
    5
 10
930.00000000000045
 20
328.73000000000047
 40
15
 41
0.5
 50
0
  1
ＧＲＳ－２０Ｋ２５０－Ａ
  0
TEXT
  8
_0-7_枠細線
 62
    5
 10
930.00000000000045
 20
303.73000000000059
 40
15
 41
0.5
 50
0
  1
ＧＲＳ－２０Ｋ２５０－Ｄ
  0
TEXT
  8
_0-7_枠細線
 62
    5
 10
930.00000000000045
 20
278.7300000000007
 40
15
 41
0.5
 50
0
  1
ＧＲＳ－２０Ｋ２５０－Ｍ
  0
TEXT
  8
_0-7_枠細線
 62
    5
 10
930.00000000000045
 20
253.73000000000033
 40
15
 41
0.5
 50
0
  1
ＧＲＳ－２０Ｋ２５０－Ｃ
  0
TEXT
  8
_0-7_枠細線
 62
    5
 10
930.00000000000045
 20
228.73000000000013
 40
15
 41
0.5
 50
0
  1
ＧＲＳ－２０Ｋ２５０－Ｋ
  0
LINE
  8
_0-1_計細線
  6
CONTINUOUS
 62
    3
 10
1095.8500000007334
 20
671.46000000000015
 11
1100.3000000005522
 21
671.46000000000015
  0
LINE
  8
_0-1_計細線
  6
CONTINUOUS
 62
    3
 10
1095.8500000007334
 20
658.45999999999935
 11
1100.3000000005522
 21
658.45999999999935
  0
LINE
  8
_0-1_計細線
  6
CONTINUOUS
 62
    3
 10
1095.8500000007334
 20
676.41383109814547
 11
1095.8500000007334
 21
656.41383109814444
  0
LINE
  8
_0-1_計細線
  6
CONTINUOUS
 62
    3
 10
1091.1500000007363
 20
656.41383109814444
 11
1091.1500000007363
 21
676.41383109814547
  0
LINE
  8
_0-1_計細線
  6
CONTINUOUS
 62
    3
 10
1095.8500000007334
 20
656.41383109814444
 11
1091.1500000007363
 21
656.41383109814444
  0
LINE
  8
_0-1_計細線
  6
CONTINUOUS
 62
    3
 10
1091.1500000007363
 20
676.41383109814547
 11
1095.8500000007334
 21
676.41383109814547
  0
LINE
  8
_0-1_計細線
  6
DASHED2
 62
    3
 10
1091.1500000007363
 20
659.41383109814456
 11
1095.8500000007334
 21
659.41383109814456
  0
LINE
  8
_0-1_計細線
  6
DASHED2
 62
    3
 10
1091.1500000007363
 20
673.41383109814547
 11
1095.8500000007334
 21
673.41383109814547
  0
LINE
  8
_0-1_計細線
  6
CONTINUOUS
 62
    3
 10
1086.7000000011212
 20
671.46000000000015
 11
1091.1500000007363
 21
671.46000000000015
  0
LINE
  8
_0-1_計細線
  6
CONTINUOUS
 62
    3
 10
1086.7000000001572
 20
658.45999999999935
 11
1091.1500000007363
 21
658.45999999999935
  0
ARC
  8
_0-1_計細線
  6
CONTINUOUS
 62
    3
 10
1080.3000000011052
 20
674.15999999999997
 40
1
 50
89.999999999999915
 51
179.99999999999983
  0
ARC
  8
_0-1_計細線
  6
CONTINUOUS
 62
    3
 10
1080.7679491924318
 20
676.16000000000088
 40
1
 50
269.99999999999977
 51
329.99999999999631
  0
ARC
  8
_0-1_計細線
  6
CONTINUOUS
 62
    3
 10
1082.5
 20
675.16000000000008
 40
1
 50
89.999999999999915
 51
149.99999999993759
  0
LINE
  8
_0-1_計細線
  6
CONTINUOUS
 62
    3
 10
1080.3000000011052
 20
675.16000000000008
 11
1080.7679491924318
 21
675.16000000000008
  0
ARC
  8
_0-1_計細線
  6
CONTINUOUS
 62
    3
 10
1089.6999999988984
 20
674.15999999999997
 40
1
 50
0
 51
89.999999999999915
  0
ARC
  8
_0-1_計細線
  6
CONTINUOUS
 62
    3
 10
1089.2320508075718
 20
676.16000000000088
 40
1
 50
210.00000000000296
 51
269.99999999999977
  0
ARC
  8
_0-1_計細線
  6
CONTINUOUS
 62
    3
 10
1087.5000000000036
 20
675.16000000000008
 40
1
 50
30.000000000062425
 51
89.999999999999929
  0
LINE
  8
_0-1_計細線
  6
CONTINUOUS
 62
    3
 10
1089.6999999988984
 20
675.16000000000008
 11
1089.2320508075718
 21
675.16000000000008
  0
ARC
  8
_0-1_計細線
  6
CONTINUOUS
 62
    3
 10
1079.8000000011052
 20
672.75999999999942
 40
0.5
 50
179.99999999999983
 51
269.99999999999977
  0
LINE
  8
_0-1_計細線
  6
CONTINUOUS
 62
    3
 10
1079.3000000011052
 20
674.15999999999997
 11
1079.3000000011052
 21
672.75999999999942
  0
ARC
  8
_0-1_計細線
  6
CONTINUOUS
 62
    3
 10
1090.1999999988984
 20
672.75999999999942
 40
0.5
 50
269.99999999999977
 51
359.99999999999966
  0
LINE
  8
_0-1_計細線
  6
CONTINUOUS
 62
    3
 10
1090.6999999988984
 20
674.15999999999997
 11
1090.6999999988984
 21
672.75999999999942
  0
ARC
  8
_0-1_計細線
  6
CONTINUOUS
 62
    3
 10
1082.3000000011052
 20
671.25999999999954
 40
1
 50
0
 51
89.999999999999915
  0
LINE
  8
_0-1_計細線
  6
CONTINUOUS
 62
    3
 10
1082.3000000011052
 20
672.26000000000045
 11
1079.8000000011052
 21
672.26000000000045
  0
ARC
  8
_0-1_計細線
  6
CONTINUOUS
 62
    3
 10
1087.7000000011067
 20
671.25999999999954
 40
1
 50
89.999999999999915
 51
179.99999999999983
  0
LINE
  8
_0-1_計細線
  6
CONTINUOUS
 62
    3
 10
1087.6999999988984
 20
672.26000000000045
 11
1090.1999999988984
 21
672.26000000000045
  0
LINE
  8
_0-1_計細線
  6
CONTINUOUS
 62
    3
 10
1087.5000000000036
 20
676.16000000000088
 11
1082.5
 21
676.16000000000088
  0
LINE
  8
_0-1_計細線
  6
CONTINUOUS
 62
    3
 10
1083.3000000000029
 20
656.15999999999997
 11
1083.3000000011052
 21
671.25999999999954
  0
LINE
  8
_0-1_計細線
  6
CONTINUOUS
 62
    3
 10
1086.7000000000007
 20
656.15999999999997
 11
1086.7000000011067
 21
671.25999999999954
  0
LINE
  8
_0-1_計細線
  6
CONTINUOUS
 62
    3
 10
1086.7000000000007
 20
656.15999999999997
 11
1083.3000000000029
 21
656.15999999999997
  0
LINE
  8
_0-1_計細線
  6
CONTINUOUS
 62
    3
 10
1207.4967480020023
 20
664.96000000000026
 11
1210.5012640020032
 21
664.96000000000026
  0
LINE
  8
_0-1_計細線
  6
CONTINUOUS
 62
    3
 10
1207.4967480020023
 20
661.46000000000015
 11
1210.5012760019999
 21
661.46000000000015
  0
ARC
  8
_0-1_計細線
  6
CONTINUOUS
 62
    3
 10
1210.5012760019999
 20
661.65999999999997
 40
0.2000000000000001
 50
269.99999999999977
 51
359.99999999999966
  0
ARC
  8
_0-1_計細線
  6
CONTINUOUS
 62
    3
 10
1202.9432960020022
 20
663.20985400000086
 40
7.7579560000000001
 50
346.96432999999735
 51
13.038021999992335
  0
ARC
  8
_0-1_計細線
  6
CONTINUOUS
 62
    3
 10
1210.5012760019999
 20
668.26000000000124
 40
0.2000000000000001
 50
0
 51
89.999999999999915
  0
ARC
  8
_0-1_計細線
  6
CONTINUOUS
 62
    3
 10
1202.9432960020022
 20
666.71014399999979
 40
7.7579560000000001
 50
346.96197800000698
 51
13.035670000001915
  0
LINE
  8
_0-1_計細線
  6
CONTINUOUS
 62
    3
 10
1207.4967480020023
 20
668.46000000000015
 11
1210.5012760019999
 21
668.46000000000015
  0
LINE
  8
_0-1_計細線
  6
CONTINUOUS
 62
    3
 10
1210.7012760020007
 20
661.65999999999997
 11
1210.7012760020007
 21
668.26000000000124
  0
ARC
  8
_0-1_計細線
  6
CONTINUOUS
 62
    3
 10
1207.2967480020016
 20
658.65999999999997
 40
0.2000000000000001
 50
269.99999999999977
 51
359.99999999999966
  0
LINE
  8
_0-1_計細線
  6
CONTINUOUS
 62
    3
 10
1206.0000000020009
 20
658.46000000000015
 11
1207.2967480020016
 21
658.46000000000015
  0
ARC
  8
_0-1_計細線
  6
CONTINUOUS
 62
    3
 10
1207.2967480020016
 20
671.25999999999954
 40
0.2000000000000001
 50
0
 51
89.999999999999915
  0
LINE
  8
_0-1_計細線
  6
CONTINUOUS
 62
    3
 10
1206.0000000020009
 20
671.46000000000015
 11
1207.2967480020016
 21
671.46000000000015
  0
LINE
  8
_0-1_計細線
  6
CONTINUOUS
 62
    3
 10
1207.4967480020023
 20
664.46000000000015
 11
1207.4967480020023
 21
658.65999999999997
  0
LINE
  8
_0-1_計細線
  6
CONTINUOUS
 62
    3
 10
1207.4967480020023
 20
671.25999999999954
 11
1207.4967480020023
 21
664.46000000000015
  0
LINE
  8
_0-1_計細線
  6
CONTINUOUS
 62
    3
 10
962.50325199800147
 20
664.96000000000026
 11
959.49873599800412
 21
664.96000000000026
  0
LINE
  8
_0-1_計細線
  6
CONTINUOUS
 62
    3
 10
962.50325199800147
 20
661.46000000000015
 11
959.4987239980037
 21
661.46000000000015
  0
ARC
  8
_0-1_計細線
  6
CONTINUOUS
 62
    3
 10
959.4987239980037
 20
661.65999999999997
 40
0.2000000000000001
 50
179.99999999999983
 51
269.99999999999977
  0
ARC
  8
_0-1_計細線
  6
CONTINUOUS
 62
    3
 10
967.05670399800158
 20
663.20985400000086
 40
7.7579560000000001
 50
166.96197800000124
 51
193.03567000000189
  0
ARC
  8
_0-1_計細線
  6
CONTINUOUS
 62
    3
 10
959.4987239980037
 20
668.26000000000124
 40
0.2000000000000001
 50
89.999999999999915
 51
179.99999999999983
  0
ARC
  8
_0-1_計細線
  6
CONTINUOUS
 62
    3
 10
967.05670399800158
 20
666.71014399999979
 40
7.7579560000000001
 50
166.96432999999774
 51
193.03802199999839
  0
LINE
  8
_0-1_計細線
  6
CONTINUOUS
 62
    3
 10
962.50325199800147
 20
668.46000000000015
 11
959.4987239980037
 21
668.46000000000015
  0
LINE
  8
_0-1_計細線
  6
CONTINUOUS
 62
    3
 10
959.29872399800297
 20
661.65999999999997
 11
959.29872399800297
 21
668.26000000000124
  0
ARC
  8
_0-1_計細線
  6
CONTINUOUS
 62
    3
 10
962.70325199800209
 20
658.65999999999997
 40
0.2000000000000001
 50
179.99999999999983
 51
269.99999999999977
  0
LINE
  8
_0-1_計細線
  6
CONTINUOUS
 62
    3
 10
963.99999999800286
 20
658.46000000000015
 11
962.70325199800209
 21
658.46000000000015
  0
ARC
  8
_0-1_計細線
  6
CONTINUOUS
 62
    3
 10
962.70325199800209
 20
671.25999999999954
 40
0.2000000000000001
 50
89.999999999999915
 51
179.99999999999983
  0
LINE
  8
_0-1_計細線
  6
CONTINUOUS
 62
    3
 10
963.99999999800286
 20
671.46000000000015
 11
962.70325199800209
 21
671.46000000000015
  0
LINE
  8
_0-1_計細線
  6
CONTINUOUS
 62
    3
 10
962.50325199800147
 20
664.46000000000015
 11
962.50325199800147
 21
658.65999999999997
  0
LINE
  8
_0-1_計細線
  6
CONTINUOUS
 62
    3
 10
962.50325199800147
 20
671.25999999999954
 11
962.50325199800147
 21
664.46000000000015
  0
LINE
  8
_0-1_計細線
  6
CONTINUOUS
 62
    3
 10
1188.7000000027256
 20
671.46000000000015
 11
1202.600000002727
 21
671.46000000000015
  0
LINE
  8
_0-1_計細線
  6
CONTINUOUS
 62
    3
 10
967.39999999707288
 20
671.46000000000015
 11
981.29999999707081
 21
671.46000000000015
  0
LINE
  8
_0-1_計細線
  6
CONTINUOUS
 62
    3
 10
984.6999999978143
 20
671.46000000000015
 11
998.29999999781296
 21
671.46000000000015
  0
LINE
  8
_0-1_計細線
  6
CONTINUOUS
 62
    3
 10
1001.6999999983636
 20
671.46000000000015
 11
1015.2999999983659
 21
671.46000000000015
  0
LINE
  8
_0-1_計細線
  6
CONTINUOUS
 62
    3
 10
1018.6999999989166
 20
671.46000000000015
 11
1032.2999999989188
 21
671.46000000000015
  0
LINE
  8
_0-1_計細線
  6
CONTINUOUS
 62
    3
 10
1171.7000000023618
 20
671.46000000000015
 11
1185.3000000023603
 21
671.46000000000015
  0
LINE
  8
_0-1_計細線
  6
CONTINUOUS
 62
    3
 10
1154.7000000020016
 20
671.46000000000015
 11
1168.3000000020002
 21
671.46000000000015
  0
LINE
  8
_0-1_計細線
  6
CONTINUOUS
 62
    3
 10
1137.7000000016415
 20
671.46000000000015
 11
1151.30000000164
 21
671.46000000000015
  0
LINE
  8
_0-1_計細線
  6
CONTINUOUS
 62
    3
 10
1035.6999999994696
 20
671.46000000000015
 11
1049.2999999994681
 21
671.46000000000015
  0
LINE
  8
_0-1_計細線
  6
CONTINUOUS
 62
    3
 10
1052.6999999998297
 20
671.46000000000015
 11
1066.2999999998319
 21
671.46000000000015
  0
LINE
  8
_0-1_計細線
  6
CONTINUOUS
 62
    3
 10
1069.7000000001899
 20
671.46000000000015
 11
1083.3000000001921
 21
671.46000000000015
  0
LINE
  8
_0-1_計細線
  6
CONTINUOUS
 62
    3
 10
1103.7000000009139
 20
671.46000000000015
 11
1117.300000000916
 21
671.46000000000015
  0
LINE
  8
_0-1_計細線
  6
CONTINUOUS
 62
    3
 10
1120.7000000012777
 20
671.46000000000015
 11
1134.3000000012762
 21
671.46000000000015
  0
LINE
  8
_0-1_計細線
  6
CONTINUOUS
 62
    3
 10
1188.7000000027256
 20
658.45999999999935
 11
1202.600000002727
 21
658.45999999999935
  0
LINE
  8
_0-1_計細線
  6
CONTINUOUS
 62
    3
 10
967.39999999707288
 20
658.45999999999935
 11
981.29999999707081
 21
658.45999999999935
  0
LINE
  8
_0-1_計細線
  6
CONTINUOUS
 62
    3
 10
984.6999999978143
 20
658.45999999999935
 11
998.29999999781296
 21
658.45999999999935
  0
LINE
  8
_0-1_計細線
  6
CONTINUOUS
 62
    3
 10
1001.6999999983636
 20
658.45999999999935
 11
1015.2999999983659
 21
658.45999999999935
  0
LINE
  8
_0-1_計細線
  6
CONTINUOUS
 62
    3
 10
1018.6999999989166
 20
658.45999999999935
 11
1032.2999999989188
 21
658.45999999999935
  0
LINE
  8
_0-1_計細線
  6
CONTINUOUS
 62
    3
 10
1171.7000000023618
 20
658.45999999999935
 11
1185.3000000023603
 21
658.45999999999935
  0
LINE
  8
_0-1_計細線
  6
CONTINUOUS
 62
    3
 10
1154.7000000020016
 20
658.45999999999935
 11
1168.3000000020002
 21
658.45999999999935
  0
LINE
  8
_0-1_計細線
  6
CONTINUOUS
 62
    3
 10
1137.7000000016415
 20
658.45999999999935
 11
1151.30000000164
 21
658.45999999999935
  0
LINE
  8
_0-1_計細線
  6
CONTINUOUS
 62
    3
 10
1035.6999999994696
 20
658.45999999999935
 11
1049.2999999994681
 21
658.45999999999935
  0
LINE
  8
_0-1_計細線
  6
CONTINUOUS
 62
    3
 10
1052.6999999998297
 20
658.45999999999935
 11
1066.2999999998319
 21
658.45999999999935
  0
LINE
  8
_0-1_計細線
  6
CONTINUOUS
 62
    3
 10
1069.7000000001899
 20
658.45999999999935
 11
1083.3000000001921
 21
658.45999999999935
  0
LINE
  8
_0-1_計細線
  6
CONTINUOUS
 62
    3
 10
1103.7000000009139
 20
658.45999999999935
 11
1117.300000000916
 21
658.45999999999935
  0
LINE
  8
_0-1_計細線
  6
CONTINUOUS
 62
    3
 10
1120.7000000012777
 20
658.45999999999935
 11
1134.3000000012762
 21
658.45999999999935
  0
ARC
  8
_0-1_計細線
  6
CONTINUOUS
 62
    3
 10
1199.6000000025524
 20
674.15999999999997
 40
1
 50
89.999999999999915
 51
179.99999999999983
  0
ARC
  8
_0-1_計細線
  6
CONTINUOUS
 62
    3
 10
1200.067949193879
 20
676.16000000000088
 40
1
 50
269.99999999999977
 51
329.99999999999631
  0
ARC
  8
_0-1_計細線
  6
CONTINUOUS
 62
    3
 10
1201.8000000014508
 20
675.16000000000008
 40
1
 50
89.999999999999915
 51
150.00000000004181
  0
LINE
  8
_0-1_計細線
  6
CONTINUOUS
 62
    3
 10
1199.6000000025524
 20
675.16000000000008
 11
1200.067949193879
 21
675.16000000000008
  0
ARC
  8
_0-1_計細線
  6
CONTINUOUS
 62
    3
 10
1209.0000000003456
 20
674.15999999999997
 40
1
 50
0
 51
89.999999999999915
  0
ARC
  8
_0-1_計細線
  6
CONTINUOUS
 62
    3
 10
1208.532050809019
 20
676.16000000000088
 40
1
 50
210.00000000000296
 51
269.99999999999977
  0
ARC
  8
_0-1_計細線
  6
CONTINUOUS
 62
    3
 10
1206.8000000014472
 20
675.16000000000008
 40
1
 50
29.999999999958206
 51
89.999999999999929
  0
LINE
  8
_0-1_計細線
  6
CONTINUOUS
 62
    3
 10
1209.0000000003456
 20
675.16000000000008
 11
1208.532050809019
 21
675.16000000000008
  0
ARC
  8
_0-1_計細線
  6
CONTINUOUS
 62
    3
 10
1199.1000000025524
 20
672.75999999999942
 40
0.5
 50
179.99999999999983
 51
269.99999999999977
  0
LINE
  8
_0-1_計細線
  6
CONTINUOUS
 62
    3
 10
1198.6000000025524
 20
674.15999999999997
 11
1198.6000000025524
 21
672.75999999999942
  0
ARC
  8
_0-1_計細線
  6
CONTINUOUS
 62
    3
 10
1209.5000000003456
 20
672.75999999999942
 40
0.5
 50
269.99999999999977
 51
359.99999999999966
  0
LINE
  8
_0-1_計細線
  6
CONTINUOUS
 62
    3
 10
1210.0000000003456
 20
674.15999999999997
 11
1210.0000000003456
 21
672.75999999999942
  0
ARC
  8
_0-1_計細線
  6
CONTINUOUS
 62
    3
 10
1201.6000000025524
 20
671.25999999999954
 40
1
 50
0
 51
89.999999999999915
  0
LINE
  8
_0-1_計細線
  6
CONTINUOUS
 62
    3
 10
1201.6000000025524
 20
672.26000000000045
 11
1199.1000000025524
 21
672.26000000000045
  0
ARC
  8
_0-1_計細線
  6
CONTINUOUS
 62
    3
 10
1207.0000000025539
 20
671.25999999999954
 40
1
 50
89.999999999999915
 51
179.99999999999983
  0
LINE
  8
_0-1_計細線
  6
CONTINUOUS
 62
    3
 10
1207.0000000003456
 20
672.26000000000045
 11
1209.5000000003456
 21
672.26000000000045
  0
LINE
  8
_0-1_計細線
  6
CONTINUOUS
 62
    3
 10
1206.8000000014472
 20
676.16000000000088
 11
1201.8000000014508
 21
676.16000000000088
  0
LINE
  8
_0-1_計細線
  6
CONTINUOUS
 62
    3
 10
1202.6000000014501
 20
656.15999999999997
 11
1202.6000000025524
 21
671.25999999999954
  0
LINE
  8
_0-1_計細線
  6
CONTINUOUS
 62
    3
 10
1206.0000000014479
 20
656.15999999999997
 11
1206.0000000025539
 21
671.25999999999954
  0
LINE
  8
_0-1_計細線
  6
CONTINUOUS
 62
    3
 10
1206.0000000014479
 20
656.15999999999997
 11
1202.6000000014501
 21
656.15999999999997
  0
ARC
  8
_0-1_計細線
  6
CONTINUOUS
 62
    3
 10
960.99999999965803
 20
674.15999999999997
 40
1
 50
89.999999999999915
 51
179.99999999999983
  0
ARC
  8
_0-1_計細線
  6
CONTINUOUS
 62
    3
 10
961.46794919098465
 20
676.16000000000088
 40
1
 50
269.99999999999977
 51
329.99999999999631
  0
ARC
  8
_0-1_計細線
  6
CONTINUOUS
 62
    3
 10
963.19999999855281
 20
675.16000000000008
 40
1
 50
89.999999999999915
 51
149.99999999993759
  0
LINE
  8
_0-1_計細線
  6
CONTINUOUS
 62
    3
 10
960.99999999965803
 20
675.16000000000008
 11
961.46794919098465
 21
675.16000000000008
  0
ARC
  8
_0-1_計細線
  6
CONTINUOUS
 62
    3
 10
970.39999999745135
 20
674.15999999999997
 40
1
 50
0
 51
89.999999999999915
  0
ARC
  8
_0-1_計細線
  6
CONTINUOUS
 62
    3
 10
969.93205080612097
 20
676.16000000000088
 40
1
 50
210.00000000010718
 51
269.99999999999977
  0
ARC
  8
_0-1_計細線
  6
CONTINUOUS
 62
    3
 10
968.19999999855281
 20
675.16000000000008
 40
1
 50
29.999999999958206
 51
89.999999999999929
  0
LINE
  8
_0-1_計細線
  6
CONTINUOUS
 62
    3
 10
970.39999999745135
 20
675.16000000000008
 11
969.93205080612097
 21
675.16000000000008
  0
ARC
  8
_0-1_計細線
  6
CONTINUOUS
 62
    3
 10
960.49999999965803
 20
672.75999999999942
 40
0.5
 50
179.99999999999983
 51
269.99999999999977
  0
LINE
  8
_0-1_計細線
  6
CONTINUOUS
 62
    3
 10
959.99999999965803
 20
674.15999999999997
 11
959.99999999965803
 21
672.75999999999942
  0
ARC
  8
_0-1_計細線
  6
CONTINUOUS
 62
    3
 10
970.89999999745135
 20
672.75999999999942
 40
0.5
 50
269.99999999999977
 51
359.99999999999966
  0
LINE
  8
_0-1_計細線
  6
CONTINUOUS
 62
    3
 10
971.39999999745123
 20
674.15999999999997
 11
971.39999999745123
 21
672.75999999999942
  0
ARC
  8
_0-1_計細線
  6
CONTINUOUS
 62
    3
 10
962.99999999965803
 20
671.25999999999954
 40
1
 50
0
 51
89.999999999999915
  0
LINE
  8
_0-1_計細線
  6
CONTINUOUS
 62
    3
 10
962.99999999965803
 20
672.26000000000045
 11
960.49999999965803
 21
672.26000000000045
  0
ARC
  8
_0-1_計細線
  6
CONTINUOUS
 62
    3
 10
968.39999999965949
 20
671.25999999999954
 40
1
 50
89.999999999999915
 51
179.99999999999983
  0
LINE
  8
_0-1_計細線
  6
CONTINUOUS
 62
    3
 10
968.39999999745135
 20
672.26000000000045
 11
970.89999999745135
 21
672.26000000000045
  0
LINE
  8
_0-1_計細線
  6
CONTINUOUS
 62
    3
 10
968.19999999855281
 20
676.16000000000088
 11
963.19999999855281
 21
676.16000000000088
  0
LINE
  8
_0-1_計細線
  6
CONTINUOUS
 62
    3
 10
963.99999999855208
 20
656.15999999999997
 11
963.99999999965814
 21
671.25999999999954
  0
LINE
  8
_0-1_計細線
  6
CONTINUOUS
 62
    3
 10
967.39999999855354
 20
656.15999999999997
 11
967.3999999996596
 21
671.25999999999954
  0
LINE
  8
_0-1_計細線
  6
CONTINUOUS
 62
    3
 10
967.39999999855354
 20
656.15999999999997
 11
963.99999999855208
 21
656.15999999999997
  0
ARC
  8
_0-1_計細線
  6
CONTINUOUS
 62
    3
 10
978.29999999836582
 20
674.15999999999997
 40
1
 50
89.999999999999915
 51
179.99999999999983
  0
ARC
  8
_0-1_計細線
  6
CONTINUOUS
 62
    3
 10
978.76794918969256
 20
676.16000000000088
 40
1
 50
269.99999999999977
 51
329.99999999999631
  0
ARC
  8
_0-1_計細線
  6
CONTINUOUS
 62
    3
 10
980.49999999726072
 20
675.16000000000008
 40
1
 50
89.999999999999915
 51
149.99999999993759
  0
LINE
  8
_0-1_計細線
  6
CONTINUOUS
 62
    3
 10
978.29999999836582
 20
675.16000000000008
 11
978.76794918969256
 21
675.16000000000008
  0
ARC
  8
_0-1_計細線
  6
CONTINUOUS
 62
    3
 10
987.6999999961555
 20
674.15999999999997
 40
1
 50
0
 51
89.999999999999915
  0
ARC
  8
_0-1_計細線
  6
CONTINUOUS
 62
    3
 10
987.2320508048324
 20
676.16000000000088
 40
1
 50
210.00000000000296
 51
269.99999999999977
  0
ARC
  8
_0-1_計細線
  6
CONTINUOUS
 62
    3
 10
985.49999999726072
 20
675.16000000000008
 40
1
 50
29.999999999958206
 51
89.999999999791555
  0
LINE
  8
_0-1_計細線
  6
CONTINUOUS
 62
    3
 10
987.6999999961555
 20
675.16000000000008
 11
987.2320508048324
 21
675.16000000000008
  0
ARC
  8
_0-1_計細線
  6
CONTINUOUS
 62
    3
 10
977.79999999836593
 20
672.75999999999942
 40
0.5
 50
179.99999999999983
 51
269.99999999999977
  0
LINE
  8
_0-1_計細線
  6
CONTINUOUS
 62
    3
 10
977.29999999836593
 20
674.15999999999997
 11
977.29999999836593
 21
672.75999999999942
  0
ARC
  8
_0-1_計細線
  6
CONTINUOUS
 62
    3
 10
988.19999999615902
 20
672.75999999999942
 40
0.5
 50
269.99999999999977
 51
359.99999999999966
  0
LINE
  8
_0-1_計細線
  6
CONTINUOUS
 62
    3
 10
988.69999999615914
 20
674.15999999999997
 11
988.69999999615914
 21
672.75999999999942
  0
ARC
  8
_0-1_計細線
  6
CONTINUOUS
 62
    3
 10
980.29999999836593
 20
671.25999999999954
 40
1
 50
0
 51
89.999999999999915
  0
LINE
  8
_0-1_計細線
  6
CONTINUOUS
 62
    3
 10
980.29999999836593
 20
672.26000000000045
 11
977.79999999836593
 21
672.26000000000045
  0
ARC
  8
_0-1_計細線
  6
CONTINUOUS
 62
    3
 10
985.69999999836364
 20
671.25999999999954
 40
1
 50
89.999999999999915
 51
179.99999999999983
  0
LINE
  8
_0-1_計細線
  6
CONTINUOUS
 62
    3
 10
985.69999999615902
 20
672.26000000000045
 11
988.19999999615902
 21
672.26000000000045
  0
LINE
  8
_0-1_計細線
  6
CONTINUOUS
 62
    3
 10
985.49999999726072
 20
676.16000000000088
 11
980.49999999726072
 21
676.16000000000088
  0
LINE
  8
_0-1_計細線
  6
CONTINUOUS
 62
    3
 10
981.29999999726351
 20
656.15999999999997
 11
981.29999999836582
 21
671.25999999999954
  0
LINE
  8
_0-1_計細線
  6
CONTINUOUS
 62
    3
 10
984.69999999726144
 20
656.15999999999997
 11
984.69999999836728
 21
671.25999999999954
  0
LINE
  8
_0-1_計細線
  6
CONTINUOUS
 62
    3
 10
984.69999999726144
 20
656.15999999999997
 11
981.29999999726351
 21
656.15999999999997
  0
ARC
  8
_0-1_計細線
  6
CONTINUOUS
 62
    3
 10
995.29999999891515
 20
674.15999999999997
 40
1
 50
89.999999999999915
 51
179.99999999999983
  0
ARC
  8
_0-1_計細線
  6
CONTINUOUS
 62
    3
 10
995.76794919024553
 20
676.16000000000088
 40
1
 50
269.99999999999977
 51
329.99999999989211
  0
ARC
  8
_0-1_計細線
  6
CONTINUOUS
 62
    3
 10
997.49999999781369
 20
675.16000000000008
 40
1
 50
89.999999999999915
 51
150.00000000004181
  0
LINE
  8
_0-1_計細線
  6
CONTINUOUS
 62
    3
 10
995.29999999891515
 20
675.16000000000008
 11
995.76794919024553
 21
675.16000000000008
  0
ARC
  8
_0-1_計細線
  6
CONTINUOUS
 62
    3
 10
1004.6999999967085
 20
674.15999999999997
 40
1
 50
0
 51
89.999999999999915
  0
ARC
  8
_0-1_計細線
  6
CONTINUOUS
 62
    3
 10
1004.2320508053818
 20
676.16000000000088
 40
1
 50
210.00000000000296
 51
269.99999999999977
  0
ARC
  8
_0-1_計細線
  6
CONTINUOUS
 62
    3
 10
1002.4999999978137
 20
675.16000000000008
 40
1
 50
30.000000000062425
 51
89.999999999999929
  0
LINE
  8
_0-1_計細線
  6
CONTINUOUS
 62
    3
 10
1004.6999999967085
 20
675.16000000000008
 11
1004.2320508053818
 21
675.16000000000008
  0
ARC
  8
_0-1_計細線
  6
CONTINUOUS
 62
    3
 10
994.79999999891891
 20
672.75999999999942
 40
0.5
 50
179.99999999999983
 51
269.99999999999977
  0
LINE
  8
_0-1_計細線
  6
CONTINUOUS
 62
    3
 10
994.29999999891515
 20
674.15999999999997
 11
994.29999999891515
 21
672.75999999999942
  0
ARC
  8
_0-1_計細線
  6
CONTINUOUS
 62
    3
 10
1005.1999999967085
 20
672.75999999999942
 40
0.5
 50
269.99999999999977
 51
359.99999999999966
  0
LINE
  8
_0-1_計細線
  6
CONTINUOUS
 62
    3
 10
1005.6999999967084
 20
674.15999999999997
 11
1005.6999999967084
 21
672.75999999999942
  0
ARC
  8
_0-1_計細線
  6
CONTINUOUS
 62
    3
 10
997.29999999891515
 20
671.25999999999954
 40
1
 50
0
 51
89.999999999999915
  0
LINE
  8
_0-1_計細線
  6
CONTINUOUS
 62
    3
 10
997.29999999891515
 20
672.26000000000045
 11
994.79999999891891
 21
672.26000000000045
  0
ARC
  8
_0-1_計細線
  6
CONTINUOUS
 62
    3
 10
1002.6999999989166
 20
671.25999999999954
 40
1
 50
89.999999999999915
 51
179.99999999999983
  0
LINE
  8
_0-1_計細線
  6
CONTINUOUS
 62
    3
 10
1002.6999999967085
 20
672.26000000000045
 11
1005.1999999967085
 21
672.26000000000045
  0
LINE
  8
_0-1_計細線
  6
CONTINUOUS
 62
    3
 10
1002.4999999978137
 20
676.16000000000088
 11
997.49999999781369
 21
676.16000000000088
  0
LINE
  8
_0-1_計細線
  6
CONTINUOUS
 62
    3
 10
998.29999999781296
 20
656.15999999999997
 11
998.29999999891527
 21
671.25999999999954
  0
LINE
  8
_0-1_計細線
  6
CONTINUOUS
 62
    3
 10
1001.6999999978144
 20
656.15999999999997
 11
1001.6999999989167
 21
671.25999999999954
  0
LINE
  8
_0-1_計細線
  6
CONTINUOUS
 62
    3
 10
1001.6999999978144
 20
656.15999999999997
 11
998.29999999781296
 21
656.15999999999997
  0
ARC
  8
_0-1_計細線
  6
CONTINUOUS
 62
    3
 10
1012.2999999994681
 20
674.15999999999997
 40
1
 50
89.999999999999915
 51
179.99999999999983
  0
ARC
  8
_0-1_計細線
  6
CONTINUOUS
 62
    3
 10
1012.7679491907948
 20
676.16000000000088
 40
1
 50
269.99999999999977
 51
329.99999999999631
  0
ARC
  8
_0-1_計細線
  6
CONTINUOUS
 62
    3
 10
1014.4999999983629
 20
675.16000000000008
 40
1
 50
89.999999999999915
 51
149.99999999993759
  0
LINE
  8
_0-1_計細線
  6
CONTINUOUS
 62
    3
 10
1012.2999999994681
 20
675.16000000000008
 11
1012.7679491907948
 21
675.16000000000008
  0
ARC
  8
_0-1_計細線
  6
CONTINUOUS
 62
    3
 10
1021.6999999972614
 20
674.15999999999997
 40
1
 50
0
 51
89.999999999999915
  0
ARC
  8
_0-1_計細線
  6
CONTINUOUS
 62
    3
 10
1021.2320508059348
 20
676.16000000000088
 40
1
 50
210.00000000000296
 51
269.99999999999977
  0
ARC
  8
_0-1_計細線
  6
CONTINUOUS
 62
    3
 10
1019.4999999983667
 20
675.16000000000008
 40
1
 50
30.000000000062425
 51
89.999999999999929
  0
LINE
  8
_0-1_計細線
  6
CONTINUOUS
 62
    3
 10
1021.6999999972614
 20
675.16000000000008
 11
1021.2320508059348
 21
675.16000000000008
  0
ARC
  8
_0-1_計細線
  6
CONTINUOUS
 62
    3
 10
1011.7999999994681
 20
672.75999999999942
 40
0.5
 50
179.99999999999983
 51
269.99999999999977
  0
LINE
  8
_0-1_計細線
  6
CONTINUOUS
 62
    3
 10
1011.2999999994681
 20
674.15999999999997
 11
1011.2999999994681
 21
672.75999999999942
  0
ARC
  8
_0-1_計細線
  6
CONTINUOUS
 62
    3
 10
1022.1999999972614
 20
672.75999999999942
 40
0.5
 50
269.99999999999977
 51
359.99999999999966
  0
LINE
  8
_0-1_計細線
  6
CONTINUOUS
 62
    3
 10
1022.6999999972613
 20
674.15999999999997
 11
1022.6999999972613
 21
672.75999999999942
  0
ARC
  8
_0-1_計細線
  6
CONTINUOUS
 62
    3
 10
1014.2999999994681
 20
671.25999999999954
 40
1
 50
0
 51
89.999999999999915
  0
LINE
  8
_0-1_計細線
  6
CONTINUOUS
 62
    3
 10
1014.2999999994681
 20
672.26000000000045
 11
1011.7999999994681
 21
672.26000000000045
  0
ARC
  8
_0-1_計細線
  6
CONTINUOUS
 62
    3
 10
1019.6999999994659
 20
671.25999999999954
 40
1
 50
89.999999999999915
 51
179.99999999999983
  0
LINE
  8
_0-1_計細線
  6
CONTINUOUS
 62
    3
 10
1019.6999999972614
 20
672.26000000000045
 11
1022.1999999972614
 21
672.26000000000045
  0
LINE
  8
_0-1_計細線
  6
CONTINUOUS
 62
    3
 10
1019.4999999983667
 20
676.16000000000088
 11
1014.4999999983629
 21
676.16000000000088
  0
LINE
  8
_0-1_計細線
  6
CONTINUOUS
 62
    3
 10
1015.2999999983659
 20
656.15999999999997
 11
1015.2999999994682
 21
671.25999999999954
  0
LINE
  8
_0-1_計細線
  6
CONTINUOUS
 62
    3
 10
1018.6999999983636
 20
656.15999999999997
 11
1018.6999999994697
 21
671.25999999999954
  0
LINE
  8
_0-1_計細線
  6
CONTINUOUS
 62
    3
 10
1018.6999999983636
 20
656.15999999999997
 11
1015.2999999983659
 21
656.15999999999997
  0
ARC
  8
_0-1_計細線
  6
CONTINUOUS
 62
    3
 10
1182.3000000032771
 20
674.15999999999997
 40
1
 50
89.999999999999915
 51
179.99999999999983
  0
ARC
  8
_0-1_計細線
  6
CONTINUOUS
 62
    3
 10
1182.7679491946037
 20
676.16000000000088
 40
1
 50
269.99999999999977
 51
329.99999999999631
  0
ARC
  8
_0-1_計細線
  6
CONTINUOUS
 62
    3
 10
1184.5000000021719
 20
675.16000000000008
 40
1
 50
89.999999999999915
 51
149.99999999993759
  0
LINE
  8
_0-1_計細線
  6
CONTINUOUS
 62
    3
 10
1182.3000000032771
 20
675.16000000000008
 11
1182.7679491946037
 21
675.16000000000008
  0
ARC
  8
_0-1_計細線
  6
CONTINUOUS
 62
    3
 10
1191.7000000010667
 20
674.15999999999997
 40
1
 50
0
 51
89.999999999999915
  0
ARC
  8
_0-1_計細線
  6
CONTINUOUS
 62
    3
 10
1191.23205080974
 20
676.16000000000088
 40
1
 50
210.00000000010718
 51
269.99999999999977
  0
ARC
  8
_0-1_計細線
  6
CONTINUOUS
 62
    3
 10
1189.5000000021719
 20
675.16000000000008
 40
1
 50
29.999999999958206
 51
89.999999999791555
  0
LINE
  8
_0-1_計細線
  6
CONTINUOUS
 62
    3
 10
1191.7000000010667
 20
675.16000000000008
 11
1191.23205080974
 21
675.16000000000008
  0
ARC
  8
_0-1_計細線
  6
CONTINUOUS
 62
    3
 10
1181.8000000032771
 20
672.75999999999942
 40
0.5
 50
179.99999999999983
 51
269.99999999999977
  0
LINE
  8
_0-1_計細線
  6
CONTINUOUS
 62
    3
 10
1181.3000000032771
 20
674.15999999999997
 11
1181.3000000032771
 21
672.75999999999942
  0
ARC
  8
_0-1_計細線
  6
CONTINUOUS
 62
    3
 10
1192.2000000010703
 20
672.75999999999942
 40
0.5
 50
269.99999999999977
 51
359.99999999999966
  0
LINE
  8
_0-1_計細線
  6
CONTINUOUS
 62
    3
 10
1192.7000000010703
 20
674.15999999999997
 11
1192.7000000010703
 21
672.75999999999942
  0
ARC
  8
_0-1_計細線
  6
CONTINUOUS
 62
    3
 10
1184.3000000032771
 20
671.25999999999954
 40
1
 50
0
 51
89.999999999999915
  0
LINE
  8
_0-1_計細線
  6
CONTINUOUS
 62
    3
 10
1184.3000000032771
 20
672.26000000000045
 11
1181.8000000032771
 21
672.26000000000045
  0
ARC
  8
_0-1_計細線
  6
CONTINUOUS
 62
    3
 10
1189.7000000032749
 20
671.25999999999954
 40
1
 50
89.999999999999915
 51
179.99999999999983
  0
LINE
  8
_0-1_計細線
  6
CONTINUOUS
 62
    3
 10
1189.7000000010703
 20
672.26000000000045
 11
1192.2000000010703
 21
672.26000000000045
  0
LINE
  8
_0-1_計細線
  6
CONTINUOUS
 62
    3
 10
1189.5000000021719
 20
676.16000000000088
 11
1184.5000000021719
 21
676.16000000000088
  0
LINE
  8
_0-1_計細線
  6
CONTINUOUS
 62
    3
 10
1185.3000000021711
 20
656.15999999999997
 11
1185.3000000032771
 21
671.25999999999954
  0
LINE
  8
_0-1_計細線
  6
CONTINUOUS
 62
    3
 10
1188.7000000021726
 20
656.15999999999997
 11
1188.7000000032785
 21
671.25999999999954
  0
LINE
  8
_0-1_計細線
  6
CONTINUOUS
 62
    3
 10
1188.7000000021726
 20
656.15999999999997
 11
1185.3000000021711
 21
656.15999999999997
  0
ARC
  8
_0-1_計細線
  6
CONTINUOUS
 62
    3
 10
1165.3000000029133
 20
674.15999999999997
 40
1
 50
89.999999999999915
 51
179.99999999999983
  0
ARC
  8
_0-1_計細線
  6
CONTINUOUS
 62
    3
 10
1165.7679491942436
 20
676.16000000000088
 40
1
 50
269.99999999999977
 51
329.99999999989211
  0
ARC
  8
_0-1_計細線
  6
CONTINUOUS
 62
    3
 10
1167.5000000018117
 20
675.16000000000008
 40
1
 50
89.999999999999915
 51
150.00000000004181
  0
LINE
  8
_0-1_計細線
  6
CONTINUOUS
 62
    3
 10
1165.3000000029133
 20
675.16000000000008
 11
1165.7679491942436
 21
675.16000000000008
  0
ARC
  8
_0-1_計細線
  6
CONTINUOUS
 62
    3
 10
1174.7000000007065
 20
674.15999999999997
 40
1
 50
0
 51
89.999999999999915
  0
ARC
  8
_0-1_計細線
  6
CONTINUOUS
 62
    3
 10
1174.2320508093799
 20
676.16000000000088
 40
1
 50
210.00000000000296
 51
269.99999999999977
  0
ARC
  8
_0-1_計細線
  6
CONTINUOUS
 62
    3
 10
1172.5000000018117
 20
675.16000000000008
 40
1
 50
30.000000000062425
 51
89.999999999999929
  0
LINE
  8
_0-1_計細線
  6
CONTINUOUS
 62
    3
 10
1174.7000000007065
 20
675.16000000000008
 11
1174.2320508093799
 21
675.16000000000008
  0
ARC
  8
_0-1_計細線
  6
CONTINUOUS
 62
    3
 10
1164.8000000029133
 20
672.75999999999942
 40
0.5
 50
179.99999999999983
 51
269.99999999999977
  0
LINE
  8
_0-1_計細線
  6
CONTINUOUS
 62
    3
 10
1164.3000000029133
 20
674.15999999999997
 11
1164.3000000029133
 21
672.75999999999942
  0
ARC
  8
_0-1_計細線
  6
CONTINUOUS
 62
    3
 10
1175.2000000007065
 20
672.75999999999942
 40
0.5
 50
269.99999999999977
 51
359.99999999999966
  0
LINE
  8
_0-1_計細線
  6
CONTINUOUS
 62
    3
 10
1175.7000000007065
 20
674.15999999999997
 11
1175.7000000007065
 21
672.75999999999942
  0
ARC
  8
_0-1_計細線
  6
CONTINUOUS
 62
    3
 10
1167.3000000029133
 20
671.25999999999954
 40
1
 50
0
 51
89.999999999999915
  0
LINE
  8
_0-1_計細線
  6
CONTINUOUS
 62
    3
 10
1167.3000000029133
 20
672.26000000000045
 11
1164.8000000029133
 21
672.26000000000045
  0
ARC
  8
_0-1_計細線
  6
CONTINUOUS
 62
    3
 10
1172.7000000029147
 20
671.25999999999954
 40
1
 50
89.999999999999915
 51
179.99999999999983
  0
LINE
  8
_0-1_計細線
  6
CONTINUOUS
 62
    3
 10
1172.7000000007065
 20
672.26000000000045
 11
1175.2000000007065
 21
672.26000000000045
  0
LINE
  8
_0-1_計細線
  6
CONTINUOUS
 62
    3
 10
1172.5000000018117
 20
676.16000000000088
 11
1167.5000000018117
 21
676.16000000000088
  0
LINE
  8
_0-1_計細線
  6
CONTINUOUS
 62
    3
 10
1168.300000001811
 20
656.15999999999997
 11
1168.3000000029133
 21
671.25999999999954
  0
LINE
  8
_0-1_計細線
  6
CONTINUOUS
 62
    3
 10
1171.7000000018124
 20
656.15999999999997
 11
1171.7000000029147
 21
671.25999999999954
  0
LINE
  8
_0-1_計細線
  6
CONTINUOUS
 62
    3
 10
1171.7000000018124
 20
656.15999999999997
 11
1168.300000001811
 21
656.15999999999997
  0
ARC
  8
_0-1_計細線
  6
CONTINUOUS
 62
    3
 10
1148.3000000025531
 20
674.15999999999997
 40
1
 50
89.999999999999915
 51
179.99999999999983
  0
ARC
  8
_0-1_計細線
  6
CONTINUOUS
 62
    3
 10
1148.7679491938798
 20
676.16000000000088
 40
1
 50
269.99999999999977
 51
329.99999999999631
  0
ARC
  8
_0-1_計細線
  6
CONTINUOUS
 62
    3
 10
1150.5000000014479
 20
675.16000000000008
 40
1
 50
89.999999999999915
 51
149.99999999993759
  0
LINE
  8
_0-1_計細線
  6
CONTINUOUS
 62
    3
 10
1148.3000000025531
 20
675.16000000000008
 11
1148.7679491938798
 21
675.16000000000008
  0
ARC
  8
_0-1_計細線
  6
CONTINUOUS
 62
    3
 10
1157.7000000003463
 20
674.15999999999997
 40
1
 50
0
 51
89.999999999999915
  0
ARC
  8
_0-1_計細線
  6
CONTINUOUS
 62
    3
 10
1157.2320508090161
 20
676.16000000000088
 40
1
 50
210.00000000010718
 51
269.99999999999977
  0
ARC
  8
_0-1_計細線
  6
CONTINUOUS
 62
    3
 10
1155.5000000014479
 20
675.16000000000008
 40
1
 50
29.999999999958206
 51
89.999999999999929
  0
LINE
  8
_0-1_計細線
  6
CONTINUOUS
 62
    3
 10
1157.7000000003463
 20
675.16000000000008
 11
1157.2320508090161
 21
675.16000000000008
  0
ARC
  8
_0-1_計細線
  6
CONTINUOUS
 62
    3
 10
1147.8000000025531
 20
672.75999999999942
 40
0.5
 50
179.99999999999983
 51
269.99999999999977
  0
LINE
  8
_0-1_計細線
  6
CONTINUOUS
 62
    3
 10
1147.3000000025531
 20
674.15999999999997
 11
1147.3000000025531
 21
672.75999999999942
  0
ARC
  8
_0-1_計細線
  6
CONTINUOUS
 62
    3
 10
1158.2000000003463
 20
672.75999999999942
 40
0.5
 50
269.99999999999977
 51
359.99999999999966
  0
LINE
  8
_0-1_計細線
  6
CONTINUOUS
 62
    3
 10
1158.7000000003463
 20
674.15999999999997
 11
1158.7000000003463
 21
672.75999999999942
  0
ARC
  8
_0-1_計細線
  6
CONTINUOUS
 62
    3
 10
1150.3000000025531
 20
671.25999999999954
 40
1
 50
0
 51
89.999999999999915
  0
LINE
  8
_0-1_計細線
  6
CONTINUOUS
 62
    3
 10
1150.3000000025531
 20
672.26000000000045
 11
1147.8000000025531
 21
672.26000000000045
  0
ARC
  8
_0-1_計細線
  6
CONTINUOUS
 62
    3
 10
1155.700000002551
 20
671.25999999999954
 40
1
 50
89.999999999999915
 51
179.99999999999983
  0
LINE
  8
_0-1_計細線
  6
CONTINUOUS
 62
    3
 10
1155.7000000003463
 20
672.26000000000045
 11
1158.2000000003463
 21
672.26000000000045
  0
LINE
  8
_0-1_計細線
  6
CONTINUOUS
 62
    3
 10
1155.5000000014479
 20
676.16000000000088
 11
1150.5000000014479
 21
676.16000000000088
  0
LINE
  8
_0-1_計細線
  6
CONTINUOUS
 62
    3
 10
1151.3000000014472
 20
656.15999999999997
 11
1151.3000000025531
 21
671.25999999999954
  0
LINE
  8
_0-1_計細線
  6
CONTINUOUS
 62
    3
 10
1154.7000000014486
 20
656.15999999999997
 11
1154.7000000025546
 21
671.25999999999954
  0
LINE
  8
_0-1_計細線
  6
CONTINUOUS
 62
    3
 10
1154.7000000014486
 20
656.15999999999997
 11
1151.3000000014472
 21
656.15999999999997
  0
ARC
  8
_0-1_計細線
  6
CONTINUOUS
 62
    3
 10
1029.3000000000211
 20
674.15999999999997
 40
1
 50
89.999999999999915
 51
179.99999999999983
  0
ARC
  8
_0-1_計細線
  6
CONTINUOUS
 62
    3
 10
1029.7679491913477
 20
676.16000000000088
 40
1
 50
269.99999999999977
 51
329.99999999989211
  0
ARC
  8
_0-1_計細線
  6
CONTINUOUS
 62
    3
 10
1031.4999999989159
 20
675.16000000000008
 40
1
 50
89.999999999999915
 51
150.00000000004181
  0
LINE
  8
_0-1_計細線
  6
CONTINUOUS
 62
    3
 10
1029.3000000000211
 20
675.16000000000008
 11
1029.7679491913477
 21
675.16000000000008
  0
ARC
  8
_0-1_計細線
  6
CONTINUOUS
 62
    3
 10
1038.6999999978107
 20
674.15999999999997
 40
1
 50
0
 51
89.999999999999915
  0
ARC
  8
_0-1_計細線
  6
CONTINUOUS
 62
    3
 10
1038.2320508064877
 20
676.16000000000088
 40
1
 50
209.99999999989876
 51
269.99999999999977
  0
ARC
  8
_0-1_計細線
  6
CONTINUOUS
 62
    3
 10
1036.4999999989159
 20
675.16000000000008
 40
1
 50
30.000000000062425
 51
89.999999999999929
  0
LINE
  8
_0-1_計細線
  6
CONTINUOUS
 62
    3
 10
1038.6999999978107
 20
675.16000000000008
 11
1038.2320508064877
 21
675.16000000000008
  0
ARC
  8
_0-1_計細線
  6
CONTINUOUS
 62
    3
 10
1028.8000000000211
 20
672.75999999999942
 40
0.5
 50
179.99999999999983
 51
269.99999999999977
  0
LINE
  8
_0-1_計細線
  6
CONTINUOUS
 62
    3
 10
1028.3000000000175
 20
674.15999999999997
 11
1028.3000000000175
 21
672.75999999999942
  0
ARC
  8
_0-1_計細線
  6
CONTINUOUS
 62
    3
 10
1039.1999999978143
 20
672.75999999999942
 40
0.5
 50
269.99999999999977
 51
359.99999999999966
  0
LINE
  8
_0-1_計細線
  6
CONTINUOUS
 62
    3
 10
1039.6999999978107
 20
674.15999999999997
 11
1039.6999999978107
 21
672.75999999999942
  0
ARC
  8
_0-1_計細線
  6
CONTINUOUS
 62
    3
 10
1031.3000000000175
 20
671.25999999999954
 40
1
 50
0
 51
89.999999999999915
  0
LINE
  8
_0-1_計細線
  6
CONTINUOUS
 62
    3
 10
1031.3000000000175
 20
672.26000000000045
 11
1028.8000000000211
 21
672.26000000000045
  0
ARC
  8
_0-1_計細線
  6
CONTINUOUS
 62
    3
 10
1036.7000000000189
 20
671.25999999999954
 40
1
 50
89.999999999999915
 51
179.99999999999983
  0
LINE
  8
_0-1_計細線
  6
CONTINUOUS
 62
    3
 10
1036.6999999978107
 20
672.26000000000045
 11
1039.1999999978143
 21
672.26000000000045
  0
LINE
  8
_0-1_計細線
  6
CONTINUOUS
 62
    3
 10
1036.4999999989159
 20
676.16000000000088
 11
1031.4999999989159
 21
676.16000000000088
  0
LINE
  8
_0-1_計細線
  6
CONTINUOUS
 62
    3
 10
1032.2999999989188
 20
656.15999999999997
 11
1032.3000000000211
 21
671.25999999999954
  0
LINE
  8
_0-1_計細線
  6
CONTINUOUS
 62
    3
 10
1035.6999999989166
 20
656.15999999999997
 11
1035.7000000000189
 21
671.25999999999954
  0
LINE
  8
_0-1_計細線
  6
CONTINUOUS
 62
    3
 10
1035.6999999989166
 20
656.15999999999997
 11
1032.2999999989188
 21
656.15999999999997
  0
ARC
  8
_0-1_計細線
  6
CONTINUOUS
 62
    3
 10
1046.3000000003813
 20
674.15999999999997
 40
1
 50
89.999999999999915
 51
179.99999999999983
  0
ARC
  8
_0-1_計細線
  6
CONTINUOUS
 62
    3
 10
1046.7679491917079
 20
676.16000000000088
 40
1
 50
269.99999999999977
 51
329.99999999999631
  0
ARC
  8
_0-1_計細線
  6
CONTINUOUS
 62
    3
 10
1048.499999999276
 20
675.16000000000008
 40
1
 50
89.999999999999915
 51
149.99999999993759
  0
LINE
  8
_0-1_計細線
  6
CONTINUOUS
 62
    3
 10
1046.3000000003813
 20
675.16000000000008
 11
1046.7679491917079
 21
675.16000000000008
  0
ARC
  8
_0-1_計細線
  6
CONTINUOUS
 62
    3
 10
1055.6999999981745
 20
674.15999999999997
 40
1
 50
0
 51
89.999999999999915
  0
ARC
  8
_0-1_計細線
  6
CONTINUOUS
 62
    3
 10
1055.2320508068442
 20
676.16000000000088
 40
1
 50
210.00000000010718
 51
269.99999999999977
  0
ARC
  8
_0-1_計細線
  6
CONTINUOUS
 62
    3
 10
1053.4999999992797
 20
675.16000000000008
 40
1
 50
30.000000000062425
 51
89.999999999999929
  0
LINE
  8
_0-1_計細線
  6
CONTINUOUS
 62
    3
 10
1055.6999999981745
 20
675.16000000000008
 11
1055.2320508068442
 21
675.16000000000008
  0
ARC
  8
_0-1_計細線
  6
CONTINUOUS
 62
    3
 10
1045.8000000003813
 20
672.75999999999942
 40
0.5
 50
179.99999999999983
 51
269.99999999999977
  0
LINE
  8
_0-1_計細線
  6
CONTINUOUS
 62
    3
 10
1045.3000000003813
 20
674.15999999999997
 11
1045.3000000003813
 21
672.75999999999942
  0
ARC
  8
_0-1_計細線
  6
CONTINUOUS
 62
    3
 10
1056.1999999981745
 20
672.75999999999942
 40
0.5
 50
269.99999999999977
 51
359.99999999999966
  0
LINE
  8
_0-1_計細線
  6
CONTINUOUS
 62
    3
 10
1056.6999999981745
 20
674.15999999999997
 11
1056.6999999981745
 21
672.75999999999942
  0
ARC
  8
_0-1_計細線
  6
CONTINUOUS
 62
    3
 10
1048.3000000003813
 20
671.25999999999954
 40
1
 50
0
 51
89.999999999999915
  0
LINE
  8
_0-1_計細線
  6
CONTINUOUS
 62
    3
 10
1048.3000000003813
 20
672.26000000000045
 11
1045.8000000003813
 21
672.26000000000045
  0
ARC
  8
_0-1_計細線
  6
CONTINUOUS
 62
    3
 10
1053.7000000003827
 20
671.25999999999954
 40
1
 50
89.999999999999915
 51
179.99999999999983
  0
LINE
  8
_0-1_計細線
  6
CONTINUOUS
 62
    3
 10
1053.6999999981745
 20
672.26000000000045
 11
1056.1999999981745
 21
672.26000000000045
  0
LINE
  8
_0-1_計細線
  6
CONTINUOUS
 62
    3
 10
1053.4999999992797
 20
676.16000000000088
 11
1048.499999999276
 21
676.16000000000088
  0
LINE
  8
_0-1_計細線
  6
CONTINUOUS
 62
    3
 10
1049.2999999992753
 20
656.15999999999997
 11
1049.3000000003813
 21
671.25999999999954
  0
LINE
  8
_0-1_計細線
  6
CONTINUOUS
 62
    3
 10
1052.6999999992768
 20
656.15999999999997
 11
1052.7000000003827
 21
671.25999999999954
  0
LINE
  8
_0-1_計細線
  6
CONTINUOUS
 62
    3
 10
1052.6999999992768
 20
656.15999999999997
 11
1049.2999999992753
 21
656.15999999999997
  0
ARC
  8
_0-1_計細線
  6
CONTINUOUS
 62
    3
 10
1063.3000000007414
 20
674.15999999999997
 40
1
 50
89.999999999999915
 51
179.99999999999983
  0
ARC
  8
_0-1_計細線
  6
CONTINUOUS
 62
    3
 10
1063.7679491920717
 20
676.16000000000088
 40
1
 50
269.99999999999977
 51
329.99999999989211
  0
ARC
  8
_0-1_計細線
  6
CONTINUOUS
 62
    3
 10
1065.4999999996398
 20
675.16000000000008
 40
1
 50
89.999999999999915
 51
150.00000000004181
  0
LINE
  8
_0-1_計細線
  6
CONTINUOUS
 62
    3
 10
1063.3000000007414
 20
675.16000000000008
 11
1063.7679491920717
 21
675.16000000000008
  0
ARC
  8
_0-1_計細線
  6
CONTINUOUS
 62
    3
 10
1072.6999999985383
 20
674.15999999999997
 40
1
 50
0
 51
89.999999999999915
  0
ARC
  8
_0-1_計細線
  6
CONTINUOUS
 62
    3
 10
1072.232050807208
 20
676.16000000000088
 40
1
 50
210.00000000010718
 51
269.99999999999977
  0
ARC
  8
_0-1_計細線
  6
CONTINUOUS
 62
    3
 10
1070.4999999996398
 20
675.16000000000008
 40
1
 50
29.999999999958206
 51
89.999999999999929
  0
LINE
  8
_0-1_計細線
  6
CONTINUOUS
 62
    3
 10
1072.6999999985383
 20
675.16000000000008
 11
1072.232050807208
 21
675.16000000000008
  0
ARC
  8
_0-1_計細線
  6
CONTINUOUS
 62
    3
 10
1062.8000000007451
 20
672.75999999999942
 40
0.5
 50
179.99999999999983
 51
269.99999999999977
  0
LINE
  8
_0-1_計細線
  6
CONTINUOUS
 62
    3
 10
1062.3000000007451
 20
674.15999999999997
 11
1062.3000000007451
 21
672.75999999999942
  0
ARC
  8
_0-1_計細線
  6
CONTINUOUS
 62
    3
 10
1073.1999999985346
 20
672.75999999999942
 40
0.5
 50
269.99999999999977
 51
359.99999999999966
  0
LINE
  8
_0-1_計細線
  6
CONTINUOUS
 62
    3
 10
1073.6999999985383
 20
674.15999999999997
 11
1073.6999999985383
 21
672.75999999999942
  0
ARC
  8
_0-1_計細線
  6
CONTINUOUS
 62
    3
 10
1065.3000000007451
 20
671.25999999999954
 40
1
 50
0
 51
89.999999999999915
  0
LINE
  8
_0-1_計細線
  6
CONTINUOUS
 62
    3
 10
1065.3000000007451
 20
672.26000000000045
 11
1062.8000000007451
 21
672.26000000000045
  0
ARC
  8
_0-1_計細線
  6
CONTINUOUS
 62
    3
 10
1070.7000000007429
 20
671.25999999999954
 40
1
 50
89.999999999999915
 51
179.99999999999983
  0
LINE
  8
_0-1_計細線
  6
CONTINUOUS
 62
    3
 10
1070.6999999985346
 20
672.26000000000045
 11
1073.1999999985346
 21
672.26000000000045
  0
LINE
  8
_0-1_計細線
  6
CONTINUOUS
 62
    3
 10
1070.4999999996398
 20
676.16000000000088
 11
1065.4999999996398
 21
676.16000000000088
  0
LINE
  8
_0-1_計細線
  6
CONTINUOUS
 62
    3
 10
1066.2999999996391
 20
656.15999999999997
 11
1066.3000000007414
 21
671.25999999999954
  0
LINE
  8
_0-1_計細線
  6
CONTINUOUS
 62
    3
 10
1069.6999999996406
 20
656.15999999999997
 11
1069.7000000007429
 21
671.25999999999954
  0
LINE
  8
_0-1_計細線
  6
CONTINUOUS
 62
    3
 10
1069.6999999996406
 20
656.15999999999997
 11
1066.2999999996391
 21
656.15999999999997
  0
ARC
  8
_0-1_計細線
  6
CONTINUOUS
 62
    3
 10
1097.300000001469
 20
674.15999999999997
 40
1
 50
89.999999999999915
 51
179.99999999999983
  0
ARC
  8
_0-1_計細線
  6
CONTINUOUS
 62
    3
 10
1097.767949192792
 20
676.16000000000088
 40
1
 50
269.99999999999977
 51
330.00000000010056
  0
ARC
  8
_0-1_計細線
  6
CONTINUOUS
 62
    3
 10
1099.5000000003638
 20
675.16000000000008
 40
1
 50
89.999999999999915
 51
149.99999999993759
  0
LINE
  8
_0-1_計細線
  6
CONTINUOUS
 62
    3
 10
1097.300000001469
 20
675.16000000000008
 11
1097.767949192792
 21
675.16000000000008
  0
ARC
  8
_0-1_計細線
  6
CONTINUOUS
 62
    3
 10
1106.6999999992586
 20
674.15999999999997
 40
1
 50
0
 51
89.999999999999915
  0
ARC
  8
_0-1_計細線
  6
CONTINUOUS
 62
    3
 10
1106.232050807932
 20
676.16000000000088
 40
1
 50
210.00000000010718
 51
269.99999999999977
  0
ARC
  8
_0-1_計細線
  6
CONTINUOUS
 62
    3
 10
1104.5000000003638
 20
675.16000000000008
 40
1
 50
29.999999999958206
 51
89.999999999999929
  0
LINE
  8
_0-1_計細線
  6
CONTINUOUS
 62
    3
 10
1106.6999999992586
 20
675.16000000000008
 11
1106.232050807932
 21
675.16000000000008
  0
ARC
  8
_0-1_計細線
  6
CONTINUOUS
 62
    3
 10
1096.8000000014654
 20
672.75999999999942
 40
0.5
 50
179.99999999999983
 51
269.99999999999977
  0
LINE
  8
_0-1_計細線
  6
CONTINUOUS
 62
    3
 10
1096.300000001469
 20
674.15999999999997
 11
1096.300000001469
 21
672.75999999999942
  0
ARC
  8
_0-1_計細線
  6
CONTINUOUS
 62
    3
 10
1107.1999999992586
 20
672.75999999999942
 40
0.5
 50
269.99999999999977
 51
359.99999999999966
  0
LINE
  8
_0-1_計細線
  6
CONTINUOUS
 62
    3
 10
1107.6999999992622
 20
674.15999999999997
 11
1107.6999999992622
 21
672.75999999999942
  0
ARC
  8
_0-1_計細線
  6
CONTINUOUS
 62
    3
 10
1099.300000001469
 20
671.25999999999954
 40
1
 50
0
 51
89.999999999999915
  0
LINE
  8
_0-1_計細線
  6
CONTINUOUS
 62
    3
 10
1099.300000001469
 20
672.26000000000045
 11
1096.8000000014654
 21
672.26000000000045
  0
ARC
  8
_0-1_計細線
  6
CONTINUOUS
 62
    3
 10
1104.7000000014668
 20
671.25999999999954
 40
1
 50
89.999999999999915
 51
179.99999999999983
  0
LINE
  8
_0-1_計細線
  6
CONTINUOUS
 62
    3
 10
1104.6999999992622
 20
672.26000000000045
 11
1107.1999999992586
 21
672.26000000000045
  0
LINE
  8
_0-1_計細線
  6
CONTINUOUS
 62
    3
 10
1104.5000000003638
 20
676.16000000000088
 11
1099.5000000003638
 21
676.16000000000088
  0
LINE
  8
_0-1_計細線
  6
CONTINUOUS
 62
    3
 10
1100.3000000003631
 20
656.15999999999997
 11
1100.300000001469
 21
671.25999999999954
  0
LINE
  8
_0-1_計細線
  6
CONTINUOUS
 62
    3
 10
1103.7000000003609
 20
656.15999999999997
 11
1103.7000000014668
 21
671.25999999999954
  0
LINE
  8
_0-1_計細線
  6
CONTINUOUS
 62
    3
 10
1103.7000000003609
 20
656.15999999999997
 11
1100.3000000003631
 21
656.15999999999997
  0
ARC
  8
_0-1_計細線
  6
CONTINUOUS
 62
    3
 10
1114.3000000018292
 20
674.15999999999997
 40
1
 50
89.999999999999915
 51
179.99999999999983
  0
ARC
  8
_0-1_計細線
  6
CONTINUOUS
 62
    3
 10
1114.7679491931558
 20
676.16000000000088
 40
1
 50
269.99999999999977
 51
329.99999999999631
  0
ARC
  8
_0-1_計細線
  6
CONTINUOUS
 62
    3
 10
1116.5000000007276
 20
675.16000000000008
 40
1
 50
89.999999999999915
 51
150.00000000004181
  0
LINE
  8
_0-1_計細線
  6
CONTINUOUS
 62
    3
 10
1114.3000000018292
 20
675.16000000000008
 11
1114.7679491931558
 21
675.16000000000008
  0
ARC
  8
_0-1_計細線
  6
CONTINUOUS
 62
    3
 10
1123.6999999996224
 20
674.15999999999997
 40
1
 50
0
 51
89.999999999999915
  0
ARC
  8
_0-1_計細線
  6
CONTINUOUS
 62
    3
 10
1123.2320508082958
 20
676.16000000000088
 40
1
 50
210.00000000000296
 51
269.99999999999977
  0
ARC
  8
_0-1_計細線
  6
CONTINUOUS
 62
    3
 10
1121.500000000724
 20
675.16000000000008
 40
1
 50
29.999999999958206
 51
89.999999999999929
  0
LINE
  8
_0-1_計細線
  6
CONTINUOUS
 62
    3
 10
1123.6999999996224
 20
675.16000000000008
 11
1123.2320508082958
 21
675.16000000000008
  0
ARC
  8
_0-1_計細線
  6
CONTINUOUS
 62
    3
 10
1113.8000000018292
 20
672.75999999999942
 40
0.5
 50
179.99999999999983
 51
269.99999999999977
  0
LINE
  8
_0-1_計細線
  6
CONTINUOUS
 62
    3
 10
1113.3000000018292
 20
674.15999999999997
 11
1113.3000000018292
 21
672.75999999999942
  0
ARC
  8
_0-1_計細線
  6
CONTINUOUS
 62
    3
 10
1124.1999999996224
 20
672.75999999999942
 40
0.5
 50
269.99999999999977
 51
359.99999999999966
  0
LINE
  8
_0-1_計細線
  6
CONTINUOUS
 62
    3
 10
1124.6999999996224
 20
674.15999999999997
 11
1124.6999999996224
 21
672.75999999999942
  0
ARC
  8
_0-1_計細線
  6
CONTINUOUS
 62
    3
 10
1116.3000000018292
 20
671.25999999999954
 40
1
 50
0
 51
89.999999999999915
  0
LINE
  8
_0-1_計細線
  6
CONTINUOUS
 62
    3
 10
1116.3000000018292
 20
672.26000000000045
 11
1113.8000000018292
 21
672.26000000000045
  0
ARC
  8
_0-1_計細線
  6
CONTINUOUS
 62
    3
 10
1121.7000000018306
 20
671.25999999999954
 40
1
 50
89.999999999999915
 51
179.99999999999983
  0
LINE
  8
_0-1_計細線
  6
CONTINUOUS
 62
    3
 10
1121.6999999996224
 20
672.26000000000045
 11
1124.1999999996224
 21
672.26000000000045
  0
LINE
  8
_0-1_計細線
  6
CONTINUOUS
 62
    3
 10
1121.500000000724
 20
676.16000000000088
 11
1116.5000000007276
 21
676.16000000000088
  0
LINE
  8
_0-1_計細線
  6
CONTINUOUS
 62
    3
 10
1117.3000000007269
 20
656.15999999999997
 11
1117.3000000018292
 21
671.25999999999954
  0
LINE
  8
_0-1_計細線
  6
CONTINUOUS
 62
    3
 10
1120.7000000007247
 20
656.15999999999997
 11
1120.700000001827
 21
671.25999999999954
  0
LINE
  8
_0-1_計細線
  6
CONTINUOUS
 62
    3
 10
1120.7000000007247
 20
656.15999999999997
 11
1117.3000000007269
 21
656.15999999999997
  0
ARC
  8
_0-1_計細線
  6
CONTINUOUS
 62
    3
 10
1131.300000002193
 20
674.15999999999997
 40
1
 50
89.999999999999915
 51
179.99999999999983
  0
ARC
  8
_0-1_計細線
  6
CONTINUOUS
 62
    3
 10
1131.7679491935196
 20
676.16000000000088
 40
1
 50
269.99999999999977
 51
329.99999999989211
  0
ARC
  8
_0-1_計細線
  6
CONTINUOUS
 62
    3
 10
1133.5000000010878
 20
675.16000000000008
 40
1
 50
89.999999999999915
 51
150.00000000004181
  0
LINE
  8
_0-1_計細線
  6
CONTINUOUS
 62
    3
 10
1131.300000002193
 20
675.16000000000008
 11
1131.7679491935196
 21
675.16000000000008
  0
ARC
  8
_0-1_計細線
  6
CONTINUOUS
 62
    3
 10
1140.6999999999825
 20
674.15999999999997
 40
1
 50
0
 51
89.999999999999915
  0
ARC
  8
_0-1_計細線
  6
CONTINUOUS
 62
    3
 10
1140.2320508086559
 20
676.16000000000088
 40
1
 50
210.00000000000296
 51
269.99999999999977
  0
ARC
  8
_0-1_計細線
  6
CONTINUOUS
 62
    3
 10
1138.5000000010878
 20
675.16000000000008
 40
1
 50
30.000000000062425
 51
89.999999999999929
  0
LINE
  8
_0-1_計細線
  6
CONTINUOUS
 62
    3
 10
1140.6999999999825
 20
675.16000000000008
 11
1140.2320508086559
 21
675.16000000000008
  0
ARC
  8
_0-1_計細線
  6
CONTINUOUS
 62
    3
 10
1130.8000000021893
 20
672.75999999999942
 40
0.5
 50
179.99999999999983
 51
269.99999999999977
  0
LINE
  8
_0-1_計細線
  6
CONTINUOUS
 62
    3
 10
1130.3000000021893
 20
674.15999999999997
 11
1130.3000000021893
 21
672.75999999999942
  0
ARC
  8
_0-1_計細線
  6
CONTINUOUS
 62
    3
 10
1141.1999999999825
 20
672.75999999999942
 40
0.5
 50
269.99999999999977
 51
359.99999999999966
  0
LINE
  8
_0-1_計細線
  6
CONTINUOUS
 62
    3
 10
1141.6999999999825
 20
674.15999999999997
 11
1141.6999999999825
 21
672.75999999999942
  0
ARC
  8
_0-1_計細線
  6
CONTINUOUS
 62
    3
 10
1133.3000000021893
 20
671.25999999999954
 40
1
 50
0
 51
89.999999999999915
  0
LINE
  8
_0-1_計細線
  6
CONTINUOUS
 62
    3
 10
1133.3000000021893
 20
672.26000000000045
 11
1130.8000000021893
 21
672.26000000000045
  0
ARC
  8
_0-1_計細線
  6
CONTINUOUS
 62
    3
 10
1138.7000000021908
 20
671.25999999999954
 40
1
 50
89.999999999999915
 51
179.99999999999983
  0
LINE
  8
_0-1_計細線
  6
CONTINUOUS
 62
    3
 10
1138.6999999999825
 20
672.26000000000045
 11
1141.1999999999825
 21
672.26000000000045
  0
LINE
  8
_0-1_計細線
  6
CONTINUOUS
 62
    3
 10
1138.5000000010878
 20
676.16000000000088
 11
1133.5000000010878
 21
676.16000000000088
  0
LINE
  8
_0-1_計細線
  6
CONTINUOUS
 62
    3
 10
1134.300000001087
 20
656.15999999999997
 11
1134.300000002193
 21
671.25999999999954
  0
LINE
  8
_0-1_計細線
  6
CONTINUOUS
 62
    3
 10
1137.7000000010885
 20
656.15999999999997
 11
1137.7000000021908
 21
671.25999999999954
  0
LINE
  8
_0-1_計細線
  6
CONTINUOUS
 62
    3
 10
1137.7000000010885
 20
656.15999999999997
 11
1134.300000001087
 21
656.15999999999997
  0
ARC
  8
_0-1_計細線
  6
CONTINUOUS
 62
    3
 10
1212.0000000000036
 20
656.15999999999997
 40
3.0000000000000004
 50
269.99999999999977
 51
359.99999999999966
  0
LINE
  8
_0-1_計細線
  6
CONTINUOUS
 62
    3
 10
1215.0000000000036
 20
656.15999999999997
 11
1215.0000000000036
 21
675.66000000000008
  0
LINE
  8
_0-1_計細線
  6
CONTINUOUS
 62
    3
 10
1212.0000000000036
 20
653.16000000000008
 11
1185.5
 21
653.16000000000008
  0
LINE
  8
_0-1_計細線
  6
CONTINUOUS
 62
    3
 10
1185.0000000000036
 20
653.66000000000088
 11
1185.5
 21
653.16000000000008
  0
LINE
  8
_0-1_計細線
  6
CONTINUOUS
 62
    3
 10
1185.0000000000036
 20
655.66000000000008
 11
1185.0000000000036
 21
653.66000000000088
  0
LINE
  8
_0-1_計細線
  6
CONTINUOUS
 62
    3
 10
1185.5
 20
656.15999999999997
 11
1185.0000000000036
 21
655.66000000000008
  0
LINE
  8
_0-1_計細線
  6
CONTINUOUS
 62
    3
 10
1212.0000000000036
 20
656.15999999999997
 11
1185.5
 21
656.15999999999997
  0
LINE
  8
_0-1_計細線
  6
CONTINUOUS
 62
    3
 10
1214.5000000000036
 20
676.16000000000088
 11
1215.0000000000036
 21
675.66000000000008
  0
LINE
  8
_0-1_計細線
  6
CONTINUOUS
 62
    3
 10
1212.5
 20
676.16000000000088
 11
1214.5000000000036
 21
676.16000000000088
  0
LINE
  8
_0-1_計細線
  6
CONTINUOUS
 62
    3
 10
1212.0000000000036
 20
675.66000000000008
 11
1212.5
 21
676.16000000000088
  0
LINE
  8
_0-1_計細線
  6
CONTINUOUS
 62
    3
 10
1212.0000000000036
 20
656.15999999999997
 11
1212.0000000000036
 21
675.66000000000008
  0
ARC
  8
_0-1_計細線
  6
CONTINUOUS
 62
    3
 10
958.00000000000364
 20
656.15999999999997
 40
3.0000000000000004
 50
179.99999999999983
 51
269.99999999999977
  0
LINE
  8
_0-1_計細線
  6
CONTINUOUS
 62
    3
 10
955.00000000000364
 20
656.15999999999997
 11
955.00000000000364
 21
675.66000000000008
  0
LINE
  8
_0-1_計細線
  6
CONTINUOUS
 62
    3
 10
958.00000000000364
 20
653.16000000000008
 11
984.5
 21
653.16000000000008
  0
LINE
  8
_0-1_計細線
  6
CONTINUOUS
 62
    3
 10
985.00000000000364
 20
653.66000000000088
 11
984.5
 21
653.16000000000008
  0
LINE
  8
_0-1_計細線
  6
CONTINUOUS
 62
    3
 10
985.00000000000364
 20
655.66000000000008
 11
985.00000000000364
 21
653.66000000000088
  0
LINE
  8
_0-1_計細線
  6
CONTINUOUS
 62
    3
 10
984.5
 20
656.15999999999997
 11
985.00000000000364
 21
655.66000000000008
  0
LINE
  8
_0-1_計細線
  6
CONTINUOUS
 62
    3
 10
958.00000000000364
 20
656.15999999999997
 11
984.5
 21
656.15999999999997
  0
LINE
  8
_0-1_計細線
  6
CONTINUOUS
 62
    3
 10
955.50000000000364
 20
676.16000000000088
 11
955.00000000000364
 21
675.66000000000008
  0
LINE
  8
_0-1_計細線
  6
CONTINUOUS
 62
    3
 10
957.5
 20
676.16000000000088
 11
955.50000000000364
 21
676.16000000000088
  0
LINE
  8
_0-1_計細線
  6
CONTINUOUS
 62
    3
 10
958.00000000000364
 20
675.66000000000008
 11
957.5
 21
676.16000000000088
  0
LINE
  8
_0-1_計細線
  6
CONTINUOUS
 62
    3
 10
958.00000000000364
 20
656.15999999999997
 11
958.00000000000364
 21
675.66000000000008
  0
LINE
  8
_0-0_計極細
  6
CENTER1
 62
    2
 10
1213.87216477724
 20
664.96000000000026
 11
954.00760453327905
 21
664.96000000000026
  0
CIRCLE
  8
_0-0_計極細
  6
CONTINUOUS
 62
    2
 10
1231.9367280402294
 20
641.18231373970787
 40
0.3318518518518431
  0
CIRCLE
  8
_0-0_計極細
  6
CONTINUOUS
 62
    2
 10
1243.6967280402314
 20
637.82231373970819
 40
0.3318518518518431
  0
LINE
  8
_0-0_計極細
  6
CONTINUOUS
 62
    2
 10
1230.0000000000036
 20
634.61133680899013
 11
1239.0000000000036
 21
634.61133680899013
  0
LINE
  8
_0-0_計極細
  6
CENTER1
 62
    2
 10
1234.5000000000036
 20
603.19395582932805
 11
1234.5000000000036
 21
637.17676890775522
  0
LINE
  8
_0-0_計極細
  6
CONTINUOUS
 62
    2
 10
1239.0000000000036
 20
634.61133680899013
 11
1239.0000000000036
 21
608.16000000000008
  0
LINE
  8
_0-0_計極細
  6
CONTINUOUS
 62
    2
 10
1230.0000000000036
 20
608.16000000000008
 11
1230.0000000000036
 21
634.61133680899013
  0
LINE
  8
_0-0_計極細
  6
CENTER1
 62
    2
 10
1245.696391612455
 20
626.23545946702063
 11
1207.2777793229143
 21
640.21869075804193
  0
LINE
  8
_0-0_計極細
  6
CONTINUOUS
 62
    2
 10
1241.184040932294
 20
623.08902069750195
 11
1208.1094340380841
 21
635.12719311704961
  0
LINE
  8
_0-0_計極細
  6
CONTINUOUS
 62
    2
 10
1244.2622222222235
 20
631.54625428457541
 11
1211.1876153280136
 21
643.58442670412319
  0
LINE
  8
_0-0_計極細
  6
CONTINUOUS
 62
    2
 10
1211.1876153280136
 20
643.58442670412319
 11
1208.1094340380841
 21
635.12719311704961
  0
LINE
  8
_0-0_計極細
  6
CONTINUOUS
 62
    2
 10
1241.184040932294
 20
623.08902069750195
 11
1244.2622222222235
 21
631.54625428457541
  0
LINE
  8
_0-0_計極細
  6
CENTER1
 62
    2
 10
935.50000000000364
 20
603.19395582932805
 11
935.50000000000364
 21
637.17676890775522
  0
LINE
  8
_0-0_計極細
  6
CONTINUOUS
 62
    2
 10
931.00000000000364
 20
634.61133680899013
 11
931.00000000000364
 21
608.16000000000008
  0
LINE
  8
_0-0_計極細
  6
CONTINUOUS
 62
    2
 10
940.00000000000364
 20
634.61133680899013
 11
931.00000000000364
 21
634.61133680899013
  0
LINE
  8
_0-0_計極細
  6
CONTINUOUS
 62
    2
 10
940.00000000000364
 20
608.16000000000008
 11
940.00000000000364
 21
634.61133680899013
  0
LINE
  8
_0-0_計極細
  6
CENTER1
 62
    2
 10
924.30360838754859
 20
626.23545946702063
 11
962.72222067708935
 21
640.21869075804193
  0
LINE
  8
_0-0_計極細
  6
CONTINUOUS
 62
    2
 10
928.81595906770963
 20
623.08902069750195
 11
961.89056596191961
 21
635.12719311704961
  0
LINE
  8
_0-0_計極細
  6
CONTINUOUS
 62
    2
 10
925.73777777778014
 20
631.54625428457541
 11
958.81238467198636
 21
643.58442670412319
  0
LINE
  8
_0-0_計極細
  6
CONTINUOUS
 62
    2
 10
958.81238467198636
 20
643.58442670412319
 11
961.89056596191961
 21
635.12719311704961
  0
LINE
  8
_0-0_計極細
  6
CONTINUOUS
 62
    2
 10
928.81595906770963
 20
623.08902069750195
 11
925.73777777778014
 21
631.54625428457541
  0
LINE
  8
_0-0_計極細
  6
CONTINUOUS
 62
    2
 10
1261.0734832401831
 20
669.15999999999997
 11
1268.0734828641107
 21
676.15999962392664
  0
LINE
  8
_0-0_計極細
  6
CONTINUOUS
 62
    2
 10
1248.3455611788268
 20
669.15999999999997
 11
1255.3455609023222
 21
676.1599997234963
  0
LINE
  8
_0-0_計極細
  6
CONTINUOUS
 62
    2
 10
1235.6176391174668
 20
669.15999999999997
 11
1242.61763894053
 21
676.15999982306505
  0
LINE
  8
_0-0_計極細
  6
CONTINUOUS
 62
    2
 10
1222.8897170561104
 20
669.15999999999997
 11
1229.8897169787451
 21
676.1599999226338
  0
LINE
  8
_0-0_計極細
  6
DASHED2
 62
    2
 10
1267.4374442708613
 20
669.15999999999997
 11
1273.5066482870679
 21
675.22920401620854
  0
LINE
  8
_0-0_計極細
  6
DASHED2
 62
    2
 10
1254.7095222095049
 20
669.15999999999997
 11
1261.7095218832146
 21
676.15999967371056
  0
LINE
  8
_0-0_計極細
  6
DASHED2
 62
    2
 10
1241.9816001481449
 20
669.15999999999997
 11
1248.9815999214261
 21
676.15999977328033
  0
LINE
  8
_0-0_計極細
  6
DASHED2
 62
    2
 10
1229.2536780867886
 20
669.15999999999997
 11
1236.2536779596376
 21
676.15999987284897
  0
LINE
  8
_0-0_計極細
  6
DASHED2
 62
    2
 10
1220
 20
672.63424397457061
 11
1223.525755997849
 21
676.15999997241875
  0
LINE
  8
_0-0_計極細
  6
CONTINUOUS
 62
    2
 10
1220
 20
671.36145176843468
 11
1217.7985482315671
 21
669.15999999999997
  0
LINE
  8
_0-0_計極細
  6
CONTINUOUS
 62
    2
 10
1220
 20
673.90703618070631
 11
1215.2529638192973
 21
669.15999999999997
  0
LINE
  8
_0-0_計極細
  6
CONTINUOUS
 62
    2
 10
1215.0000000000036
 20
671.45262059297795
 11
1219.7073794070238
 21
676.16000000000088
  0
LINE
  8
_0-0_計極細
  6
CONTINUOUS
 62
    2
 10
1215.0000000000036
 20
673.99820500524868
 11
1217.161794994754
 21
676.15999999999917
  0
LINE
  8
_0-0_計極細
  6
CONTINUOUS
 62
    2
 10
1220
 20
675.25440667429677
 11
1219.0944066742995
 21
676.16000000000088
  0
LINE
  8
_0-0_計極細
  6
CONTINUOUS
 62
    2
 10
1220
 20
672.70882226202514
 11
1216.5488222620261
 21
676.16000000000088
  0
LINE
  8
_0-0_計極細
  6
CONTINUOUS
 62
    2
 10
1220
 20
670.16323784975361
 11
1215.0000000000036
 21
675.16323784975361
  0
LINE
  8
_0-0_計極細
  6
CONTINUOUS
 62
    2
 10
1218.4576534374864
 20
669.15999999999997
 11
1215.0000000000036
 21
672.61765343748198
  0
LINE
  8
_0-0_計極細
  6
CONTINUOUS
 62
    2
 10
1215.912069025213
 20
669.15999999999997
 11
1215.0000000000036
 21
670.07206902521023
  0
LINE
  8
_0-0_計極細
  6
CONTINUOUS
 62
    2
 10
1215.0000000000036
 20
675.66000000000008
 11
1215.0000000000036
 21
676.16000000000088
  0
LINE
  8
_0-0_計極細
  6
CONTINUOUS
 62
    2
 10
1215.0000000000036
 20
676.16000000000088
 11
1220
 21
676.16000000000088
  0
LINE
  8
_0-0_計極細
  6
CONTINUOUS
 62
    2
 10
1215.0000000000036
 20
669.15999999999997
 11
1273.5066482870679
 21
669.15999999999997
  0
LINE
  8
_0-0_計極細
  6
CONTINUOUS
 62
    2
 10
1220
 20
676.16000000000088
 11
1273.5066482870679
 21
676.16000000000088
  0
LINE
  8
_0-0_計極細
  6
CONTINUOUS
 62
    2
 10
1220
 20
676.16000000000088
 11
1220
 21
669.15999999999997
  0
CIRCLE
  8
_0-0_計極細
  6
CONTINUOUS
 62
    2
 10
1190.7601436780897
 20
601.57130550925478
 40
1.0953188836088352
  0
CIRCLE
  8
_0-0_計極細
  6
CONTINUOUS
 62
    2
 10
1188.9912547892018
 20
645.14463884258942
 40
1.0953188836088352
  0
CIRCLE
  8
_0-0_計極細
  6
CONTINUOUS
 62
    2
 10
1189.3745881225368
 20
605.57260180555124
 40
0.3318518518518431
  0
CIRCLE
  8
_0-0_計極細
  6
CONTINUOUS
 62
    2
 10
1188.5906375052509
 20
629.12593513888453
 40
0.3318518518518431
  0
LINE
  8
_0-0_計極細
  6
CONTINUOUS
 62
    2
 10
1185.0000000000036
 20
653.16000000000008
 11
1185.0000000000036
 21
592.41503982313236
  0
LINE
  8
_0-0_計極細
  6
CONTINUOUS
 62
    2
 10
1185.5
 20
653.16000000000008
 11
1185.0000000000036
 21
653.16000000000008
  0
CIRCLE
  8
_0-0_計極細
  6
CONTINUOUS
 62
    2
 10
1226.9968103447573
 20
667.87926847221775
 40
0.3318518518518431
  0
CIRCLE
  8
_0-0_計極細
  6
CONTINUOUS
 62
    2
 10
1239.7968103447565
 20
660.48797217592187
 40
1.0953188836088352
  0
CIRCLE
  8
_0-0_計極細
  6
CONTINUOUS
 62
    2
 10
1239.7168103447584
 20
664.27926847221829
 40
0.3318518518518431
  0
CIRCLE
  8
_0-0_計極細
  6
CONTINUOUS
 62
    2
 10
1258.196810344758
 20
667.31926847221814
 40
0.3318518518518431
  0
CIRCLE
  8
_0-0_計極細
  6
CONTINUOUS
 62
    2
 10
1193.5738473817946
 20
624.0507155983662
 40
0.3318518518518431
  0
CIRCLE
  8
_0-0_計極細
  6
CONTINUOUS
 62
    2
 10
1193.4538473817956
 20
638.42404893169999
 40
0.3318518518518431
  0
CIRCLE
  8
_0-0_計極細
  6
CONTINUOUS
 62
    2
 10
1221.9334770114256
 20
641.67797217592226
 40
1.0953188836088352
  0
CIRCLE
  8
_0-0_計極細
  6
CONTINUOUS
 62
    2
 10
1252.3325925925928
 20
609.64574074074085
 40
1.0953188836088352
  0
CIRCLE
  8
_0-0_計極細
  6
CONTINUOUS
 62
    2
 10
1224.573477011425
 20
615.7579721759223
 40
1.0953188836088352
  0
CIRCLE
  8
_0-0_計極細
  6
CONTINUOUS
 62
    2
 10
1203.4534770114224
 20
629.19797217592281
 40
1.0953188836088352
  0
CIRCLE
  8
_0-0_計極細
  6
CONTINUOUS
 62
    2
 10
1197.320143678091
 20
611.27797217592263
 40
1.0953188836088352
  0
CIRCLE
  8
_0-0_計極細
  6
CONTINUOUS
 62
    2
 10
1239.5568103447586
 20
638.00797217592219
 40
1.0953188836088352
  0
CIRCLE
  8
_0-0_計極細
  6
CONTINUOUS
 62
    2
 10
1220.3568103447578
 20
657.20797217592212
 40
1.0953188836088352
  0
CIRCLE
  8
_0-0_計極細
  6
CONTINUOUS
 62
    2
 10
1253.6101436780918
 20
653.26130550925632
 40
1.0953188836088352
  0
CIRCLE
  8
_0-0_計極細
  6
CONTINUOUS
 62
    2
 10
1262.9968103447573
 20
662.54130550925515
 40
1.0953188836088352
  0
CIRCLE
  8
_0-0_計極細
  6
CONTINUOUS
 62
    2
 10
1265.8768103447546
 20
654.27926847221829
 40
0.3318518518518431
  0
CIRCLE
  8
_0-0_計極細
  6
CONTINUOUS
 62
    2
 10
1248.1168103447562
 20
641.55926847221895
 40
0.3318518518518431
  0
CIRCLE
  8
_0-0_計極細
  6
CONTINUOUS
 62
    2
 10
1249.7968103447565
 20
657.63926847221785
 40
0.3318518518518431
  0
CIRCLE
  8
_0-0_計極細
  6
CONTINUOUS
 62
    2
 10
1239.7168103447584
 20
645.87926847221763
 40
0.3318518518518431
  0
CIRCLE
  8
_0-0_計極細
  6
CONTINUOUS
 62
    2
 10
1250.5168103447577
 20
633.15926847221829
 40
0.3318518518518431
  0
CIRCLE
  8
_0-0_計極細
  6
CONTINUOUS
 62
    2
 10
1251.4768103447568
 20
620.67926847221872
 40
0.3318518518518431
  0
CIRCLE
  8
_0-0_計極細
  6
CONTINUOUS
 62
    2
 10
1247.1568103447571
 20
612.27926847221909
 40
0.3318518518518431
  0
CIRCLE
  8
_0-0_計極細
  6
CONTINUOUS
 62
    2
 10
1223.6368103447567
 20
644.19926847221836
 40
0.3318518518518431
  0
CIRCLE
  8
_0-0_計極細
  6
CONTINUOUS
 62
    2
 10
1218.2768103447561
 20
653.02593513888507
 40
0.3318518518518431
  0
CIRCLE
  8
_0-0_計極細
  6
CONTINUOUS
 62
    2
 10
1219.7701436780917
 20
664.86593513888442
 40
0.3318518518518431
  0
CIRCLE
  8
_0-0_計極細
  6
CONTINUOUS
 62
    2
 10
1225.4634770114244
 20
620.45260180555238
 40
0.3318518518518431
  0
CIRCLE
  8
_0-0_計極細
  6
CONTINUOUS
 62
    2
 10
1218.7434770114269
 20
617.09260180555168
 40
0.3318518518518431
  0
CIRCLE
  8
_0-0_計極細
  6
CONTINUOUS
 62
    2
 10
1225.943477011424
 20
611.65260180555128
 40
0.3318518518518431
  0
CIRCLE
  8
_0-0_計極細
  6
CONTINUOUS
 62
    2
 10
1209.7834770114241
 20
611.49260180555132
 40
0.3318518518518431
  0
CIRCLE
  8
_0-0_計極細
  6
CONTINUOUS
 62
    2
 10
1201.4634770114244
 20
614.37260180555234
 40
0.3318518518518431
  0
CIRCLE
  8
_0-0_計極細
  6
CONTINUOUS
 62
    2
 10
1194.5834770114234
 20
596.45260180555226
 40
0.3318518518518431
  0
CIRCLE
  8
_0-0_計極細
  6
CONTINUOUS
 62
    2
 10
1200.1834770114256
 20
607.17260180555263
 40
0.3318518518518431
  0
CIRCLE
  8
_0-0_計極細
  6
CONTINUOUS
 62
    2
 10
1210.8834770114227
 20
621.15260180555208
 40
0.3318518518518431
  0
CIRCLE
  8
_0-0_計極細
  6
CONTINUOUS
 62
    2
 10
1200.3634770114259
 20
631.36593513888533
 40
0.3318518518518431
  0
CIRCLE
  8
_0-0_計極細
  6
CONTINUOUS
 62
    2
 10
1202.816810344757
 20
646.3526018055519
 40
0.3318518518518431
  0
CIRCLE
  8
_0-0_計極細
  6
CONTINUOUS
 62
    2
 10
1196.8434770114254
 20
643.47260180555099
 40
0.3318518518518431
  0
LINE
  8
_0-0_計極細
  6
CONTINUOUS
 62
    2
 10
1259.9740014487579
 20
592.41503982313236
 11
1273.5066483119954
 21
605.94768668636993
  0
LINE
  8
_0-0_計極細
  6
CONTINUOUS
 62
    2
 10
1217.5475945775652
 20
592.41503982313236
 11
1233.2925547544328
 21
608.16000000000008
  0
LINE
  8
_0-0_計極細
  6
CONTINUOUS
 62
    2
 10
1255.0000000000036
 20
629.867445245569
 11
1273.5066482875227
 21
648.3740935330917
  0
LINE
  8
_0-0_計極細
  6
CONTINUOUS
 62
    2
 10
1255.7313607616379
 20
592.41503982313236
 11
1273.506648309547
 21
610.19032737104146
  0
LINE
  8
_0-0_計極細
  6
CONTINUOUS
 62
    2
 10
1213.3049538904452
 20
592.41503982313236
 11
1229.0499140673128
 21
608.16000000000008
  0
LINE
  8
_0-0_計極細
  6
CONTINUOUS
 62
    2
 10
1255.0000000000036
 20
634.110085932689
 11
1270.0499139595813
 21
649.15999989227032
  0
LINE
  8
_0-0_計極細
  6
CONTINUOUS
 62
    2
 10
1251.4887200745179
 20
592.41503982313236
 11
1273.5066483071023
 21
614.43296805571413
  0
LINE
  8
_0-0_計極細
  6
CONTINUOUS
 62
    2
 10
1209.0623132033288
 20
592.41503982313236
 11
1224.8072733801964
 21
608.16000000000008
  0
LINE
  8
_0-0_計極細
  6
CONTINUOUS
 62
    2
 10
1255.0000000000036
 20
638.3527266198081
 11
1265.8072733028348
 21
649.15999992263937
  0
LINE
  8
_0-0_計極細
  6
CONTINUOUS
 62
    2
 10
1205
 20
608.16000000000008
 11
1205
 21
592.41503982313236
  0
LINE
  8
_0-0_計極細
  6
CONTINUOUS
 62
    2
 10
1255.0000000000036
 20
649.16000000000099
 11
1273.5066482870679
 21
649.16000000000099
  0
LINE
  8
_0-0_計極細
  6
CONTINUOUS
 62
    2
 10
1205
 20
608.16000000000008
 11
1255.0000000000036
 21
608.16000000000008
  0
LINE
  8
_0-0_計極細
  6
CONTINUOUS
 62
    2
 10
1255.0000000000036
 20
649.16000000000099
 11
1255.0000000000036
 21
608.16000000000008
  0
CIRCLE
  8
_0-0_計極細
  6
CONTINUOUS
 62
    2
 10
937.1079214558705
 20
664.3946388425876
 40
1.0953188836088352
  0
LINE
  8
_0-0_計極細
  6
CONTINUOUS
 62
    2
 10
944.69880819342507
 20
669.15999999632379
 11
950
 21
674.46119180290157
  0
LINE
  8
_0-0_計極細
  6
CONTINUOUS
 62
    2
 10
931.97088612323932
 20
669.15999998749714
 11
938.97088613574306
 21
676.15999999999917
  0
LINE
  8
_0-0_計極細
  6
CONTINUOUS
 62
    2
 10
919.2429640530537
 20
669.15999997866959
 11
926.24296407438305
 21
676.16000000000088
  0
LINE
  8
_0-0_計極細
  6
CONTINUOUS
 62
    2
 10
906.51504198286784
 20
669.15999996984385
 11
913.51504201302669
 21
676.16000000000088
  0
LINE
  8
_0-0_計極細
  6
CONTINUOUS
 62
    2
 10
896.49335171293217
 20
671.86623176126443
 11
900.78711995167043
 21
676.15999999999917
  0
LINE
  8
_0-0_計極細
  6
DASHED2
 62
    2
 10
938.33484715833038
 20
669.15999999191001
 11
945.33484716642135
 21
676.16000000000088
  0
LINE
  8
_0-0_計極細
  6
DASHED2
 62
    2
 10
925.60692508814464
 20
669.15999998308337
 11
932.60692510506487
 21
676.16000000000088
  0
LINE
  8
_0-0_計極細
  6
DASHED2
 62
    2
 10
912.87900301796253
 20
669.15999997425672
 11
919.87900304370498
 21
676.16000000000088
  0
LINE
  8
_0-0_計極細
  6
DASHED2
 62
    2
 10
900.1510809477769
 20
669.15999996543007
 11
907.1510809823485
 21
676.16000000000088
  0
LINE
  8
_0-0_計極細
  6
CONTINUOUS
 62
    2
 10
954.88114584618597
 20
669.15999999999997
 11
955.00000000000364
 21
669.27885415381502
  0
LINE
  8
_0-0_計極細
  6
CONTINUOUS
 62
    2
 10
952.33556143391627
 20
669.15999999999997
 11
955.00000000000364
 21
671.82443856608745
  0
LINE
  8
_0-0_計極細
  6
CONTINUOUS
 62
    2
 10
950
 20
669.3700229783592
 11
955.00000000000364
 21
674.37002297835818
  0
LINE
  8
_0-0_計極細
  6
CONTINUOUS
 62
    2
 10
950
 20
671.91560739062982
 11
954.24439260937288
 21
676.16000000000088
  0
LINE
  8
_0-0_計極細
  6
CONTINUOUS
 62
    2
 10
950
 20
674.46119180290157
 11
951.69880819709942
 21
676.16000000000088
  0
LINE
  8
_0-0_計極細
  6
CONTINUOUS
 62
    2
 10
955.00000000000364
 20
674.79141987664411
 11
953.63141987664505
 21
676.16000000000088
  0
LINE
  8
_0-0_計極細
  6
CONTINUOUS
 62
    2
 10
955.00000000000364
 20
672.24583546437327
 11
951.08583546437512
 21
676.16000000000088
  0
LINE
  8
_0-0_計極細
  6
CONTINUOUS
 62
    2
 10
950
 20
674.70025105210175
 11
955.00000000000364
 21
669.70025105210175
  0
LINE
  8
_0-0_計極細
  6
CONTINUOUS
 62
    2
 10
950
 20
672.15466663983011
 11
952.99466663983196
 21
669.15999999999997
  0
LINE
  8
_0-0_計極細
  6
CONTINUOUS
 62
    2
 10
950
 20
669.60908222755938
 11
950.44908222756203
 21
669.15999999999997
  0
LINE
  8
_0-0_計極細
  6
CONTINUOUS
 62
    2
 10
955.00000000000364
 20
675.66000000000008
 11
955.00000000000364
 21
676.16000000000088
  0
LINE
  8
_0-0_計極細
  6
CONTINUOUS
 62
    2
 10
955.00000000000364
 20
676.16000000000088
 11
950
 21
676.16000000000088
  0
LINE
  8
_0-0_計極細
  6
CONTINUOUS
 62
    2
 10
955.00000000000364
 20
669.15999999999997
 11
896.49335171293217
 21
669.15999999999997
  0
LINE
  8
_0-0_計極細
  6
CONTINUOUS
 62
    2
 10
950
 20
676.16000000000088
 11
896.49335171293217
 21
676.16000000000088
  0
LINE
  8
_0-0_計極細
  6
CONTINUOUS
 62
    2
 10
950
 20
676.16000000000088
 11
950
 21
669.15999999999997
  0
CIRCLE
  8
_0-0_計極細
  6
CONTINUOUS
 62
    2
 10
973.65014367808908
 20
632.10130550925646
 40
1.0953188836088352
  0
CIRCLE
  8
_0-0_計極細
  6
CONTINUOUS
 62
    2
 10
981.07236590031619
 20
597.14840363009455
 40
0.3318518518518431
  0
CIRCLE
  8
_0-0_計極細
  6
CONTINUOUS
 62
    2
 10
980.27236590031316
 20
610.74204624999595
 40
0.3318518518518431
  0
CIRCLE
  8
_0-0_計極細
  6
CONTINUOUS
 62
    2
 10
980.86753951142612
 20
643.5679721759218
 40
1.0953188836088352
  0
LINE
  8
_0-0_計極細
  6
CONTINUOUS
 62
    2
 10
985.00000000000364
 20
653.16000000000008
 11
985.00000000000364
 21
592.41503982313236
  0
LINE
  8
_0-0_計極細
  6
CONTINUOUS
 62
    2
 10
984.5
 20
653.16000000000008
 11
985.00000000000364
 21
653.16000000000008
  0
CIRCLE
  8
_0-0_計極細
  6
CONTINUOUS
 62
    2
 10
901.31462413258487
 20
662.18130550925457
 40
1.0953188836088352
  0
CIRCLE
  8
_0-0_計極細
  6
CONTINUOUS
 62
    2
 10
973.98347701142484
 20
599.96797217592314
 40
1.0953188836088352
  0
CIRCLE
  8
_0-0_計極細
  6
CONTINUOUS
 62
    2
 10
971.10347701142382
 20
611.16797217592296
 40
1.0953188836088352
  0
CIRCLE
  8
_0-0_計極細
  6
CONTINUOUS
 62
    2
 10
949.51681034475769
 20
613.3279721759219
 40
1.0953188836088352
  0
CIRCLE
  8
_0-0_計極細
  6
CONTINUOUS
 62
    2
 10
917.59681034475943
 20
621.00797217592219
 40
1.0953188836088352
  0
CIRCLE
  8
_0-0_計極細
  6
CONTINUOUS
 62
    2
 10
929.35681034475795
 20
643.80797217592249
 40
1.0953188836088352
  0
CIRCLE
  8
_0-0_計極細
  6
CONTINUOUS
 62
    2
 10
942.79681034475652
 20
637.72797217592154
 40
1.0953188836088352
  0
CIRCLE
  8
_0-0_計極細
  6
CONTINUOUS
 62
    2
 10
913.43287185722886
 20
661.64574074074085
 40
1.0953188836088352
  0
CIRCLE
  8
_0-0_計極細
  6
CONTINUOUS
 62
    2
 10
944.49014367809298
 20
657.48797217592187
 40
1.0953188836088352
  0
CIRCLE
  8
_0-0_計極細
  6
CONTINUOUS
 62
    2
 10
956.66347701142513
 20
644.29760180555161
 40
0.3318518518518431
  0
CIRCLE
  8
_0-0_計極細
  6
CONTINUOUS
 62
    2
 10
977.81014367809257
 20
626.45760180555249
 40
0.3318518518518431
  0
CIRCLE
  8
_0-0_計極細
  6
CONTINUOUS
 62
    2
 10
977.49014367809298
 20
637.230935138885
 40
0.3318518518518431
  0
CIRCLE
  8
_0-0_計極細
  6
CONTINUOUS
 62
    2
 10
968.42347701142353
 20
643.20426847221836
 40
0.3318518518518431
  0
CIRCLE
  8
_0-0_計極細
  6
CONTINUOUS
 62
    2
 10
959.57014367809109
 20
622.7242684722188
 40
0.3318518518518431
  0
CIRCLE
  8
_0-0_計極細
  6
CONTINUOUS
 62
    2
 10
969.57014367809109
 20
596.55537958332945
 40
0.3318518518518431
  0
CIRCLE
  8
_0-0_計極細
  6
CONTINUOUS
 62
    2
 10
973.73014367809446
 20
605.51537958332949
 40
0.3318518518518431
  0
CIRCLE
  8
_0-0_計極細
  6
CONTINUOUS
 62
    2
 10
965.5168103447578
 20
614.47537958332964
 40
0.3318518518518431
  0
CIRCLE
  8
_0-0_計極細
  6
CONTINUOUS
 62
    2
 10
957.73014367809083
 20
612.55537958332957
 40
0.3318518518518431
  0
CIRCLE
  8
_0-0_計極細
  6
CONTINUOUS
 62
    2
 10
945.78347701142422
 20
611.91537958333004
 40
0.3318518518518431
  0
CIRCLE
  8
_0-0_計極細
  6
CONTINUOUS
 62
    2
 10
947.91681034475914
 20
617.46204624999621
 40
0.3318518518518431
  0
CIRCLE
  8
_0-0_計極細
  6
CONTINUOUS
 62
    2
 10
944.18347701142568
 20
618.95537958333
 40
0.3318518518518431
  0
CIRCLE
  8
_0-0_計極細
  6
CONTINUOUS
 62
    2
 10
950.90347701142321
 20
622.26204624999639
 40
0.3318518518518431
  0
CIRCLE
  8
_0-0_計極細
  6
CONTINUOUS
 62
    2
 10
927.32347701142874
 20
611.52871291666372
 40
0.3318518518518431
  0
CIRCLE
  8
_0-0_計極細
  6
CONTINUOUS
 62
    2
 10
923.59014367809152
 20
616.6487129166627
 40
0.3318518518518431
  0
CIRCLE
  8
_0-0_計極細
  6
CONTINUOUS
 62
    2
 10
918.36347701142586
 20
612.59537958332942
 40
0.3318518518518431
  0
CIRCLE
  8
_0-0_計極細
  6
CONTINUOUS
 62
    2
 10
921.77681034475984
 20
623.36871291666205
 40
0.3318518518518431
  0
CIRCLE
  8
_0-0_計極細
  6
CONTINUOUS
 62
    2
 10
946.4434770114276
 20
639.63537958332938
 40
0.3318518518518431
  0
CIRCLE
  8
_0-0_計極細
  6
CONTINUOUS
 62
    2
 10
930.01681034476132
 20
635.26204624999639
 40
0.3318518518518431
  0
CIRCLE
  8
_0-0_計極細
  6
CONTINUOUS
 62
    2
 10
938.87014367809024
 20
643.36871291666296
 40
0.3318518518518431
  0
CIRCLE
  8
_0-0_計極細
  6
CONTINUOUS
 62
    2
 10
946.4434770114276
 20
646.78204624999591
 40
0.3318518518518431
  0
CIRCLE
  8
_0-0_計極細
  6
CONTINUOUS
 62
    2
 10
931.40347701142321
 20
649.0220462499957
 40
0.3318518518518431
  0
CIRCLE
  8
_0-0_計極細
  6
CONTINUOUS
 62
    2
 10
919.13681034476042
 20
649.76871291666259
 40
0.3318518518518431
  0
CIRCLE
  8
_0-0_計極細
  6
CONTINUOUS
 62
    2
 10
928.41014367809476
 20
666.06871291666198
 40
0.3318518518518431
  0
CIRCLE
  8
_0-0_計極細
  6
CONTINUOUS
 62
    2
 10
935.45014367809199
 20
657.10871291666285
 40
0.3318518518518431
  0
CIRCLE
  8
_0-0_計極細
  6
CONTINUOUS
 62
    2
 10
950.38347701142641
 20
657.42871291666245
 40
0.3318518518518431
  0
CIRCLE
  8
_0-0_計極細
  6
CONTINUOUS
 62
    2
 10
946.97014367809243
 20
667.13537958332938
 40
0.3318518518518431
  0
CIRCLE
  8
_0-0_計極細
  6
CONTINUOUS
 62
    2
 10
932.03681034475824
 20
661.16204624999614
 40
0.3318518518518431
  0
CIRCLE
  8
_0-0_計極細
  6
CONTINUOUS
 62
    2
 10
914.97014367809243
 20
654.12204624999606
 40
0.3318518518518431
  0
CIRCLE
  8
_0-0_計極細
  6
CONTINUOUS
 62
    2
 10
907.39681034475882
 20
652.948712916663
 40
0.3318518518518431
  0
CIRCLE
  8
_0-0_計極細
  6
CONTINUOUS
 62
    2
 10
901.03236590031531
 20
652.30871291666267
 40
0.3318518518518431
  0
CIRCLE
  8
_0-0_計極細
  6
CONTINUOUS
 62
    2
 10
907.23088441883374
 20
658.28204624999603
 40
0.3318518518518431
  0
LINE
  8
_0-0_計極細
  6
CONTINUOUS
 62
    2
 10
942.54681526100842
 20
592.4150398929952
 11
958.29177536801228
 21
608.16000000000008
  0
LINE
  8
_0-0_計極細
  6
CONTINUOUS
 62
    2
 10
900.12040852182338
 20
592.41504002500199
 11
915.86536849682318
 21
608.16000000000008
  0
LINE
  8
_0-0_計極細
  6
CONTINUOUS
 62
    2
 10
896.49335171293217
 20
631.21439008730533
 11
914.4389616256268
 21
649.16000000000099
  0
LINE
  8
_0-0_計極細
  6
CONTINUOUS
 62
    2
 10
938.30417458709064
 20
592.4150399061956
 11
954.04913468089592
 21
608.16000000000008
  0
LINE
  8
_0-0_計極細
  6
CONTINUOUS
 62
    2
 10
896.49335171293217
 20
593.03062390323169
 11
915.00000000000364
 21
611.53727219030065
  0
LINE
  8
_0-0_計極細
  6
CONTINUOUS
 62
    2
 10
896.49335171293217
 20
635.45703077442442
 11
910.19632093851044
 21
649.16000000000099
  0
LINE
  8
_0-0_計極細
  6
CONTINUOUS
 62
    2
 10
934.06153391316923
 20
592.41503991939692
 11
949.8064939937758
 21
608.16000000000008
  0
LINE
  8
_0-0_計極細
  6
CONTINUOUS
 62
    2
 10
896.49335171293217
 20
597.27326459035089
 11
915.00000000000364
 21
615.77991287741963
  0
LINE
  8
_0-0_計極細
  6
CONTINUOUS
 62
    2
 10
896.49335171293217
 20
639.69967146154443
 11
905.95368025139032
 21
649.16000000000099
  0
LINE
  8
_0-0_計極細
  6
CONTINUOUS
 62
    2
 10
965
 20
608.16000000000008
 11
965
 21
592.41503982313236
  0
LINE
  8
_0-0_計極細
  6
CONTINUOUS
 62
    2
 10
915.00000000000364
 20
649.16000000000099
 11
896.49335171293217
 21
649.16000000000099
  0
LINE
  8
_0-0_計極細
  6
CONTINUOUS
 62
    2
 10
965
 20
608.16000000000008
 11
915.00000000000364
 21
608.16000000000008
  0
LINE
  8
_0-0_計極細
  6
CONTINUOUS
 62
    2
 10
915.00000000000364
 20
649.16000000000099
 11
915.00000000000364
 21
608.16000000000008
  0
LINE
  8
_0-5_寸法線
  6
CONTINUOUS
 62
    7
 10
1076.8084795571103
 20
661.89576436351081
 11
1057.2353786102785
 21
675.60099719262314
  0
LINE
  8
_0-5_寸法線
  6
CONTINUOUS
 62
    7
 10
1061.3311388317234
 20
672.73311501086766
 11
1058.7429483806982
 21
682.39237327375849
  0
LINE
  8
_0-5_寸法線
  6
CONTINUOUS
 62
    7
 10
1061.3311388317234
 20
672.73311501086766
 11
1063.9193292827485
 21
682.39237327375849
  0
LINE
  8
_0-5_寸法線
  6
CONTINUOUS
 62
    7
 10
1076.8084795571101
 20
681.89576436351149
 11
1057.2353786102785
 21
695.60099719262303
  0
LINE
  8
_0-5_寸法線
  6
CONTINUOUS
 62
    7
 10
1061.3311388317234
 20
692.73311501086766
 11
1063.9193292827485
 21
683.07385674797706
  0
LINE
  8
_0-5_寸法線
  6
CONTINUOUS
 62
    7
 10
1061.3311388317234
 20
692.73311501086766
 11
1058.7429483806982
 21
683.07385674797706
  0
LINE
  8
_0-5_寸法線
  6
CONTINUOUS
 62
    7
 10
1061.3311388317234
 20
672.73311501086766
 11
1061.3311388317234
 21
692.73311501086766
  0
TEXT
  8
_0-5_寸法線
 62
    7
 10
1061.3311388317234
 20
675.23311501086687
 40
15
 41
1
 50
90
  1
20
  0
LINE
  8
_0-5_寸法線
  6
CONTINUOUS
 62
    7
 10
955.00000000000364
 20
681.16000000000088
 11
955.00000000000364
 21
801.16000000000099
  0
LINE
  8
_0-5_寸法線
  6
CONTINUOUS
 62
    7
 10
955.00000000000364
 20
796.16000000000099
 11
964.65925826289435
 21
798.74819045102618
  0
LINE
  8
_0-5_寸法線
  6
CONTINUOUS
 62
    7
 10
955.00000000000364
 20
796.16000000000099
 11
964.65925826289435
 21
793.57180954897569
  0
LINE
  8
_0-5_寸法線
  6
CONTINUOUS
 62
    7
 10
1215.0000000000036
 20
681.16000000000088
 11
1215.0000000000036
 21
801.16000000000099
  0
LINE
  8
_0-5_寸法線
  6
CONTINUOUS
 62
    7
 10
1215.0000000000036
 20
796.16000000000099
 11
1205.3407417371131
 21
793.57180954897569
  0
LINE
  8
_0-5_寸法線
  6
CONTINUOUS
 62
    7
 10
1215.0000000000036
 20
796.16000000000099
 11
1205.3407417371131
 21
798.74819045102618
  0
LINE
  8
_0-5_寸法線
  6
CONTINUOUS
 62
    7
 10
955.00000000000364
 20
796.16000000000099
 11
1215.0000000000036
 21
796.16000000000099
  0
TEXT
  8
_0-5_寸法線
 62
    7
 10
1073.75
 20
796.16000000000099
 40
15
 41
1
 50
0
  1
260
  0
LINE
  8
_0-5_寸法線
  6
CONTINUOUS
 62
    7
 10
945.00000000000364
 20
676.16000000000088
 11
898.80000000000291
 21
676.16000000000088
  0
LINE
  8
_0-5_寸法線
  6
CONTINUOUS
 62
    7
 10
903.80000000000291
 20
676.16000000000088
 11
906.38819045102821
 21
666.50074173711016
  0
LINE
  8
_0-5_寸法線
  6
CONTINUOUS
 62
    7
 10
903.80000000000291
 20
676.16000000000088
 11
901.21180954897784
 21
666.50074173711016
  0
LINE
  8
_0-5_寸法線
  6
CONTINUOUS
 62
    7
 10
943.80000000000291
 20
653.16000000000008
 11
898.80000000000291
 21
653.16000000000008
  0
LINE
  8
_0-5_寸法線
  6
CONTINUOUS
 62
    7
 10
903.80000000000291
 20
653.16000000000008
 11
901.21180954897784
 21
662.81925826289068
  0
LINE
  8
_0-5_寸法線
  6
CONTINUOUS
 62
    7
 10
903.80000000000291
 20
653.16000000000008
 11
906.38819045102821
 21
662.81925826289068
  0
LINE
  8
_0-5_寸法線
  6
CONTINUOUS
 62
    7
 10
903.80000000000291
 20
676.16000000000088
 11
903.80000000000291
 21
653.16000000000008
  0
TEXT
  8
_0-5_寸法線
 62
    7
 10
903.80000000000291
 20
657.15999999999997
 40
15
 41
1
 50
90
  1
23
  0
LINE
  8
_0-5_寸法線
  6
CONTINUOUS
 62
    7
 10
945.00000000000364
 20
653.16000000000008
 11
898.80000000000291
 21
653.16000000000008
  0
LINE
  8
_0-5_寸法線
  6
CONTINUOUS
 62
    7
 10
903.80000000000291
 20
653.16000000000008
 11
906.38819045102821
 21
643.50074173710925
  0
LINE
  8
_0-5_寸法線
  6
CONTINUOUS
 62
    7
 10
903.80000000000291
 20
653.16000000000008
 11
901.21180954897784
 21
643.50074173710925
  0
LINE
  8
_0-5_寸法線
  6
CONTINUOUS
 62
    7
 10
943.80000000000291
 20
630.15999999999997
 11
898.80000000000291
 21
630.15999999999997
  0
LINE
  8
_0-5_寸法線
  6
CONTINUOUS
 62
    7
 10
903.80000000000291
 20
630.15999999999997
 11
901.21180954897784
 21
639.81925826289068
  0
LINE
  8
_0-5_寸法線
  6
CONTINUOUS
 62
    7
 10
903.80000000000291
 20
630.15999999999997
 11
906.38819045102821
 21
639.81925826289068
  0
LINE
  8
_0-5_寸法線
  6
CONTINUOUS
 62
    7
 10
903.80000000000291
 20
653.16000000000008
 11
903.80000000000291
 21
630.15999999999997
  0
TEXT
  8
_0-5_寸法線
 62
    7
 10
903.80000000000291
 20
634.15999999999917
 40
15
 41
1
 50
90
  1
23
  0
LINE
  8
_0-5_寸法線
  6
CONTINUOUS
 62
    7
 10
1215.0000000000036
 20
620.15999999999997
 11
1215.0000000000036
 21
575.15999999999997
  0
LINE
  8
_0-5_寸法線
  6
CONTINUOUS
 62
    7
 10
1215.0000000000036
 20
580.15999999999997
 11
1205.3407417371131
 21
577.57180954897478
  0
LINE
  8
_0-5_寸法線
  6
CONTINUOUS
 62
    7
 10
1215.0000000000036
 20
580.15999999999997
 11
1205.3407417371131
 21
582.74819045102515
  0
LINE
  8
_0-5_寸法線
  6
CONTINUOUS
 62
    7
 10
1185.0000000000036
 20
643.16000000000008
 11
1185.0000000000036
 21
575.15999999999997
  0
LINE
  8
_0-5_寸法線
  6
CONTINUOUS
 62
    7
 10
1185.0000000000036
 20
580.15999999999997
 11
1194.6592582628944
 21
582.74819045102515
  0
LINE
  8
_0-5_寸法線
  6
CONTINUOUS
 62
    7
 10
1185.0000000000036
 20
580.15999999999997
 11
1194.6592582628944
 21
577.57180954897478
  0
LINE
  8
_0-5_寸法線
  6
CONTINUOUS
 62
    7
 10
1215.0000000000036
 20
580.15999999999997
 11
1185.0000000000036
 21
580.15999999999997
  0
TEXT
  8
_0-5_寸法線
 62
    7
 10
1192.5000000000036
 20
580.15999999999997
 40
15
 41
1
 50
0
  1
30
  0
LINE
  8
_0-5_寸法線
  6
CONTINUOUS
 62
    7
 10
955.00000000000102
 20
620.15999999999997
 11
954.99999999998863
 21
575.15999999999997
  0
LINE
  8
_0-5_寸法線
  6
CONTINUOUS
 62
    7
 10
954.99999999999
 20
580.15999999999997
 11
964.65925826288071
 21
582.74819045102515
  0
LINE
  8
_0-5_寸法線
  6
CONTINUOUS
 62
    7
 10
954.99999999999
 20
580.15999999999997
 11
964.65925826288071
 21
577.57180954897478
  0
LINE
  8
_0-5_寸法線
  6
CONTINUOUS
 62
    7
 10
985.00000000000273
 20
643.16000000000008
 11
984.99999999999602
 21
575.15999999999997
  0
LINE
  8
_0-5_寸法線
  6
CONTINUOUS
 62
    7
 10
984.99999999999648
 20
580.15999999999997
 11
975.34074173710565
 21
577.57180954897478
  0
LINE
  8
_0-5_寸法線
  6
CONTINUOUS
 62
    7
 10
984.99999999999648
 20
580.15999999999997
 11
975.34074173710565
 21
582.74819045102515
  0
LINE
  8
_0-5_寸法線
  6
CONTINUOUS
 62
    7
 10
954.99999999999
 20
580.15999999999997
 11
984.99999999999648
 21
580.15999999999997
  0
TEXT
  8
_0-5_寸法線
 62
    7
 10
962.49999999999318
 20
580.15999999999997
 40
15
 41
1
 50
0
  1
30
  0
LINE
  8
_0-5_寸法線
  6
CONTINUOUS
 62
    7
 10
985.00000000000364
 20
648.16000000000008
 11
985.00000000000364
 21
575.15999999999997
  0
LINE
  8
_0-5_寸法線
  6
CONTINUOUS
 62
    7
 10
985.00000000000364
 20
580.15999999999997
 11
994.65925826289435
 21
582.74819045102515
  0
LINE
  8
_0-5_寸法線
  6
CONTINUOUS
 62
    7
 10
985.00000000000364
 20
580.15999999999997
 11
994.65925826289435
 21
577.57180954897478
  0
LINE
  8
_0-5_寸法線
  6
CONTINUOUS
 62
    7
 10
1185.0000000000036
 20
648.16000000000008
 11
1185.0000000000036
 21
575.15999999999997
  0
LINE
  8
_0-5_寸法線
  6
CONTINUOUS
 62
    7
 10
1185.0000000000036
 20
580.15999999999997
 11
1175.3407417371131
 21
577.57180954897478
  0
LINE
  8
_0-5_寸法線
  6
CONTINUOUS
 62
    7
 10
1185.0000000000036
 20
580.15999999999997
 11
1175.3407417371131
 21
582.74819045102515
  0
LINE
  8
_0-5_寸法線
  6
CONTINUOUS
 62
    7
 10
985.00000000000364
 20
580.15999999999997
 11
1185.0000000000036
 21
580.15999999999997
  0
TEXT
  8
_0-5_寸法線
 62
    7
 10
1073.75
 20
580.15999999999997
 40
15
 41
1
 50
0
  1
200
  0
LINE
  8
_0-1_計細線
  6
CONTINUOUS
 62
    3
 10
955.00000000000364
 20
665.16000000000008
 11
955.00000000000364
 21
630.16000000000008
  0
LINE
  8
_0-1_計細線
  6
CONTINUOUS
 62
    3
 10
955.00000000000364
 20
630.16000000000008
 11
952.70000000000346
 21
630.16000000000008
  0
LINE
  8
_0-1_計細線
  6
CONTINUOUS
 62
    3
 10
952.70000000000346
 20
630.16000000000008
 11
952.70000000000346
 21
665.16000000000008
  0
LINE
  8
_0-1_計細線
  6
CONTINUOUS
 62
    3
 10
952.70000000000346
 20
665.16000000000008
 11
955.00000000000364
 21
665.16000000000008
  0
LINE
  8
_0-0_計極細
  6
CONTINUOUS
 62
    2
 10
952.70000000000346
 20
649.15999999999997
 11
955.00000000000364
 21
649.15999999999997
  0
LINE
  8
_0-0_計極細
  6
CONTINUOUS
 62
    2
 10
952.70000000000346
 20
651.16000000000008
 11
955.00000000000364
 21
651.16000000000008
  0
LINE
  8
_0-0_計極細
  6
CONTINUOUS
 62
    2
 10
952.70000000000346
 20
647.15999999999997
 11
955.00000000000364
 21
647.15999999999997
  0
LINE
  8
_0-0_計極細
  6
CONTINUOUS
 62
    2
 10
952.70000000000346
 20
653.16000000000008
 11
955.00000000000364
 21
653.16000000000008
  0
LINE
  8
_0-0_計極細
  6
CONTINUOUS
 62
    2
 10
955.00000000000364
 20
633.16000000000008
 11
952.70000000000346
 21
633.16000000000008
  0
LINE
  8
_0-0_計極細
  6
CONTINUOUS
 62
    2
 10
952.70000000000346
 20
663.1600000000002
 11
955.00000000000364
 21
663.1600000000002
  0
LINE
  8
_0-1_計細線
  6
CONTINUOUS
 62
    3
 10
1215.0000000000041
 20
665.16000000000008
 11
1215.0000000000041
 21
630.16000000000008
  0
LINE
  8
_0-1_計細線
  6
CONTINUOUS
 62
    3
 10
1215.0000000000041
 20
630.16000000000008
 11
1217.3000000000038
 21
630.16000000000008
  0
LINE
  8
_0-1_計細線
  6
CONTINUOUS
 62
    3
 10
1217.3000000000038
 20
630.16000000000008
 11
1217.3000000000038
 21
665.16000000000008
  0
LINE
  8
_0-1_計細線
  6
CONTINUOUS
 62
    3
 10
1217.3000000000038
 20
665.16000000000008
 11
1215.0000000000041
 21
665.16000000000008
  0
LINE
  8
_0-0_計極細
  6
CONTINUOUS
 62
    2
 10
1217.3000000000038
 20
649.15999999999997
 11
1215.0000000000041
 21
649.15999999999997
  0
LINE
  8
_0-0_計極細
  6
CONTINUOUS
 62
    2
 10
1217.3000000000038
 20
651.16000000000008
 11
1215.0000000000041
 21
651.16000000000008
  0
LINE
  8
_0-0_計極細
  6
CONTINUOUS
 62
    2
 10
1217.3000000000038
 20
647.15999999999997
 11
1215.0000000000041
 21
647.15999999999997
  0
LINE
  8
_0-0_計極細
  6
CONTINUOUS
 62
    2
 10
1217.3000000000038
 20
653.16000000000008
 11
1215.0000000000041
 21
653.16000000000008
  0
LINE
  8
_0-0_計極細
  6
CONTINUOUS
 62
    2
 10
1215.0000000000041
 20
633.16000000000008
 11
1217.3000000000038
 21
633.16000000000008
  0
LINE
  8
_0-0_計極細
  6
CONTINUOUS
 62
    2
 10
1217.3000000000038
 20
663.1600000000002
 11
1215.0000000000041
 21
663.1600000000002
  0
LINE
  8
_0-7_枠細線
  6
CONTINUOUS
 62
    5
 10
1233.9140288208246
 20
650.30808383106444
 11
1226.4140288208246
 21
665.30808383106444
  0
LINE
  8
_0-7_枠細線
  6
CONTINUOUS
 62
    5
 10
1218.9140288208246
 20
650.30808383106444
 11
1233.9140288208246
 21
650.30808383106444
  0
LINE
  8
_0-7_枠細線
  6
CONTINUOUS
 62
    5
 10
1226.4140288208246
 20
665.30808383106444
 11
1218.9140288208246
 21
650.30808383106444
  0
TEXT
  8
_0-7_枠細線
 62
    5
 10
1221.2791800889725
 20
649.35926386621463
 40
12.5
 41
0.8
 50
0
  1
５
  0
LINE
  8
_0-0_計極細
  6
CENTER1
 62
    2
 10
1085
 20
646.44872130973727
 11
1085
 21
684.51872130974084
  0
TEXT
  8
_0-7_枠細線
 62
    5
 10
1035.0791055968334
 20
528.57416483540601
 40
25
 41
0.8
 50
0
  1
断面詳細図
  0
TEXT
  8
_0-7_枠細線
 62
    5
 10
1149.7814553609749
 20
530.67154822186501
 40
20
 41
0.6
 50
0
  1
Ｓ＝１：５
  0
LINE
  8
_0-d_寸法3
  6
CONTINUOUS
 62
    7
 10
451.63992445384292
 20
268.36412902531367
 11
451.63992445384292
 21
310.03079569198019
  0
LINE
  8
_0-d_寸法3
  6
CONTINUOUS
 62
    7
 10
451.63992445384292
 20
305.03079569198019
 11
461.29918271673364
 21
307.61898614300537
  0
LINE
  8
_0-d_寸法3
  6
CONTINUOUS
 62
    7
 10
451.63992445384292
 20
305.03079569198019
 11
461.29918271673364
 21
302.442605240955
  0
LINE
  8
_0-d_寸法3
  6
CONTINUOUS
 62
    7
 10
480.63992445444597
 20
268.36412902531367
 11
480.63992445444597
 21
310.03079569198019
  0
LINE
  8
_0-d_寸法3
  6
CONTINUOUS
 62
    7
 10
480.63992445444597
 20
305.03079569198019
 11
470.98066619155526
 21
302.442605240955
  0
LINE
  8
_0-d_寸法3
  6
CONTINUOUS
 62
    7
 10
480.63992445444597
 20
305.03079569198019
 11
470.98066619155531
 21
307.61898614300543
  0
LINE
  8
_0-d_寸法3
  6
CONTINUOUS
 62
    7
 10
451.63992445384292
 20
305.03079569198019
 11
480.63992445444597
 21
305.03079569198019
  0
TEXT
  8
_0-d_寸法3
 62
    7
 10
440.09374654420213
 20
290.03079569198019
 40
15
 41
1
 50
0
  1
(17.4)
  0
LINE
  8
_0-d_寸法3
  6
CONTINUOUS
 62
    7
 10
480.63992445444597
 20
305.03079569198019
 11
490.29918271733663
 21
307.61898614300537
  0
LINE
  8
_0-d_寸法3
  6
CONTINUOUS
 62
    7
 10
480.63992445444597
 20
305.03079569198019
 11
490.29918271733663
 21
302.44260524095495
  0
LINE
  8
_0-d_寸法3
  6
CONTINUOUS
 62
    7
 10
509.63992445504891
 20
268.36412902531367
 11
509.63992445504891
 21
310.03079569198019
  0
LINE
  8
_0-d_寸法3
  6
CONTINUOUS
 62
    7
 10
509.63992445504891
 20
305.03079569198019
 11
499.9806661921582
 21
302.442605240955
  0
LINE
  8
_0-d_寸法3
  6
CONTINUOUS
 62
    7
 10
509.63992445504891
 20
305.03079569198019
 11
499.98066619215825
 21
307.61898614300543
  0
LINE
  8
_0-d_寸法3
  6
CONTINUOUS
 62
    7
 10
480.63992445444597
 20
305.03079569198019
 11
509.63992445504891
 21
305.03079569198019
  0
TEXT
  8
_0-d_寸法3
 62
    7
 10
477.16041321086828
 20
305.03079569198019
 40
15
 41
1
 50
0
  1
(17.4)
  0
LINE
  8
_0-d_寸法3
  6
CONTINUOUS
 62
    7
 10
403.13992445048098
 20
265.03079569198019
 11
403.13992445048098
 21
310.03079569198019
  0
LINE
  8
_0-d_寸法3
  6
CONTINUOUS
 62
    7
 10
403.13992445048098
 20
305.03079569198019
 11
393.48066618759026
 21
302.442605240955
  0
LINE
  8
_0-d_寸法3
  6
CONTINUOUS
 62
    7
 10
403.13992445048098
 20
305.03079569198019
 11
393.48066618759037
 21
307.61898614300543
  0
LINE
  8
_0-d_寸法3
  6
CONTINUOUS
 62
    7
 10
413.13992445476242
 20
265.03079569198019
 11
413.13992445476242
 21
310.03079569198019
  0
LINE
  8
_0-d_寸法3
  6
CONTINUOUS
 62
    7
 10
378.76596876731406
 20
305.03079569198019
 11
413.13992445476242
 21
305.03079569198019
  0
TEXT
  8
_0-d_寸法3
 62
    7
 10
378.76596876731406
 20
290.03079569198019
 40
15
 41
1
 50
0
  1
(6)
  0
LINE
  8
_0-d_寸法3
  6
CONTINUOUS
 62
    7
 10
413.13992445476242
 20
305.03079569198019
 11
422.79918271765314
 21
307.61898614300537
  0
LINE
  8
_0-d_寸法3
  6
CONTINUOUS
 62
    7
 10
413.13992445476242
 20
305.03079569198019
 11
422.79918271765314
 21
302.442605240955
  0
LINE
  8
_0-d_寸法3
  6
CONTINUOUS
 62
    7
 10
432.13992445108352
 20
265.03079569198019
 11
432.13992445108352
 21
310.03079569198019
  0
LINE
  8
_0-d_寸法3
  6
CONTINUOUS
 62
    7
 10
432.13992445108352
 20
305.03079569198019
 11
422.4806661881928
 21
302.442605240955
  0
LINE
  8
_0-d_寸法3
  6
CONTINUOUS
 62
    7
 10
432.13992445108352
 20
305.03079569198019
 11
422.48066618819286
 21
307.61898614300543
  0
LINE
  8
_0-d_寸法3
  6
CONTINUOUS
 62
    7
 10
413.13992445476242
 20
305.03079569198019
 11
432.13992445108352
 21
305.03079569198019
  0
TEXT
  8
_0-d_寸法3
 62
    7
 10
403.87522802657327
 20
305.03079569198019
 40
15
 41
1
 50
0
  1
11.4
  0
ARC
  8
_0-a_極細3
  6
CONTINUOUS
 62
    7
 10
540.46932777957909
 20
246.85084653362867
 40
17.558839598481345
 50
150.03871396148165
 51
205.23810402387883
  0
ARC
  8
_0-a_極細3
  6
CONTINUOUS
 62
    7
 10
508.70385258968099
 20
231.87733732099801
 40
17.558839598481345
 50
330.03871396148202
 51
25.238104023878222
  0
ARC
  8
_0-a_極細3
  6
CONTINUOUS
 62
    7
 10
395.54951234124525
 20
246.85084653362867
 40
17.558839598481345
 50
150.03871396148165
 51
205.23810402387883
  0
ARC
  8
_0-a_極細3
  6
CONTINUOUS
 62
    7
 10
363.78403715134709
 20
231.87733732099801
 40
17.558839598481345
 50
330.03871396148202
 51
25.238104023878222
  0
LINE
  8
_0-a_極細3
  6
CENTER1
 62
    7
 10
530.43869144413884
 20
239.69746235864693
 11
367.86014881621304
 21
239.69746235864693
  0
LINE
  8
_0-b_細線3
  6
CONTINUOUS
 62
    7
 10
454.47325778809591
 20
228.86412902531367
 11
477.80659112142939
 21
228.86412902531367
  0
LINE
  8
_0-b_細線3
  6
CONTINUOUS
 62
    7
 10
483.47325778869896
 20
228.86412902531367
 11
506.80659112203244
 21
228.86412902531367
  0
LINE
  8
_0-b_細線3
  6
CONTINUOUS
 62
    7
 10
396.47325778657296
 20
228.86412902531367
 11
419.80659111990644
 21
228.86412902531367
  0
LINE
  8
_0-b_細線3
  6
CONTINUOUS
 62
    7
 10
425.47325778717641
 20
228.86412902531367
 11
448.80659112050949
 21
228.86412902531367
  0
LINE
  8
_0-b_細線3
  6
CONTINUOUS
 62
    7
 10
454.47325778809591
 20
250.53079569198033
 11
477.80659112142939
 21
250.53079569198033
  0
LINE
  8
_0-b_細線3
  6
CONTINUOUS
 62
    7
 10
483.47325778869896
 20
250.53079569198033
 11
506.80659112203244
 21
250.53079569198033
  0
LINE
  8
_0-b_細線3
  6
CONTINUOUS
 62
    7
 10
396.47325778657296
 20
250.53079569198033
 11
419.80659111990644
 21
250.53079569198033
  0
LINE
  8
_0-b_細線3
  6
CONTINUOUS
 62
    7
 10
425.47325778717641
 20
250.53079569198033
 11
448.80659112050949
 21
250.53079569198033
  0
LINE
  8
_0-b_細線3
  6
CONTINUOUS
 62
    7
 10
512.4732577893019
 20
250.53079569198033
 11
523.23235418010199
 21
250.53079569198033
  0
LINE
  8
_0-b_細線3
  6
CONTINUOUS
 62
    7
 10
512.4732577893019
 20
228.86412902531367
 11
525.94082618915809
 21
228.86412902531367
  0
LINE
  8
_0-b_細線3
  6
CONTINUOUS
 62
    7
 10
378.31253874176809
 20
250.53079569198033
 11
390.80659111930345
 21
250.53079569198033
  0
LINE
  8
_0-b_細線3
  6
CONTINUOUS
 62
    7
 10
381.02101075082425
 20
228.86412902531367
 11
390.80659111930345
 21
228.86412902531367
  0
TEXT
  8
_0-7_枠細線
 62
    5
 10
417.22469092493753
 20
170.0670836765407
 40
25.000000000000007
 41
0.8
 50
0
  1
断面詳細
  0
TEXT
  8
_0-7_枠細線
 62
    5
 10
521.18718073399953
 20
173.02652349686042
 40
20.000000000000004
 41
0.5999999999999999
 50
0
  1
Ｓ＝１：３
  0
ARC
  8
_0-b_細線3
  6
CONTINUOUS
 62
    7
 10
443.80659112234895
 20
255.03079569198022
 40
1.666666666666667
 50
89.999999999999915
 51
179.99999999999983
  0
ARC
  8
_0-b_細線3
  6
CONTINUOUS
 62
    7
 10
444.58650644122781
 20
258.36412902531367
 40
1.666666666666667
 50
269.99999999999977
 51
330.00000000000301
  0
ARC
  8
_0-b_細線3
  6
CONTINUOUS
 62
    7
 10
447.47325778717595
 20
256.69746235864716
 40
1.666666666666667
 50
89.999999999999915
 51
150.00000000000134
  0
LINE
  8
_0-b_細線3
  6
CONTINUOUS
 62
    7
 10
443.80659112234895
 20
256.69746235864716
 11
444.58650644122781
 21
256.69746235864716
  0
ARC
  8
_0-b_細線3
  6
CONTINUOUS
 62
    7
 10
459.47325778533695
 20
255.03079569198022
 40
1.666666666666667
 50
0
 51
89.999999999999915
  0
ARC
  8
_0-b_細線3
  6
CONTINUOUS
 62
    7
 10
458.69334246645764
 20
258.36412902531367
 40
1.666666666666667
 50
210.00000000000404
 51
269.99999999999977
  0
ARC
  8
_0-b_細線3
  6
CONTINUOUS
 62
    7
 10
455.80659112050944
 20
256.69746235864716
 40
1.666666666666667
 50
29.999999999990862
 51
89.999999999984354
  0
LINE
  8
_0-b_細線3
  6
CONTINUOUS
 62
    7
 10
459.47325778533695
 20
256.69746235864716
 11
458.69334246645764
 21
256.69746235864716
  0
ARC
  8
_0-b_細線3
  6
CONTINUOUS
 62
    7
 10
442.97325778901546
 20
252.69746235864716
 40
0.8333333333333334
 50
179.99999999999983
 51
269.99999999999977
  0
LINE
  8
_0-b_細線3
  6
CONTINUOUS
 62
    7
 10
442.13992445568192
 20
255.03079569198022
 11
442.13992445568192
 21
252.69746235864716
  0
ARC
  8
_0-b_細線3
  6
CONTINUOUS
 62
    7
 10
460.30659111867004
 20
252.69746235864716
 40
0.8333333333333334
 50
269.99999999999977
 51
359.99999999999966
  0
LINE
  8
_0-b_細線3
  6
CONTINUOUS
 62
    7
 10
461.13992445200353
 20
255.03079569198022
 11
461.13992445200353
 21
252.69746235864716
  0
ARC
  8
_0-b_細線3
  6
CONTINUOUS
 62
    7
 10
447.13992445568192
 20
250.19746235864716
 40
1.666666666666667
 50
0
 51
89.999999999999915
  0
LINE
  8
_0-b_細線3
  6
CONTINUOUS
 62
    7
 10
447.13992445568192
 20
251.8641290253137
 11
442.97325778901546
 21
251.8641290253137
  0
ARC
  8
_0-b_細線3
  6
CONTINUOUS
 62
    7
 10
456.13992445568243
 20
250.19746235864716
 40
1.666666666666667
 50
89.999999999999915
 51
179.99999999999983
  0
LINE
  8
_0-b_細線3
  6
CONTINUOUS
 62
    7
 10
456.13992445200353
 20
251.8641290253137
 11
460.30659111867004
 21
251.8641290253137
  0
LINE
  8
_0-b_細線3
  6
CONTINUOUS
 62
    7
 10
455.80659112050944
 20
258.36412902531367
 11
447.47325778717595
 21
258.36412902531367
  0
LINE
  8
_0-b_細線3
  6
CONTINUOUS
 62
    7
 10
448.80659112050949
 20
225.03079569198033
 11
448.80659112234895
 21
250.19746235864716
  0
LINE
  8
_0-b_細線3
  6
CONTINUOUS
 62
    7
 10
454.47325778717595
 20
225.03079569198033
 11
454.47325778901586
 21
250.19746235864716
  0
LINE
  8
_0-b_細線3
  6
CONTINUOUS
 62
    7
 10
454.47325778717595
 20
225.03079569198033
 11
448.80659112050949
 21
225.03079569198033
  0
ARC
  8
_0-b_細線3
  6
CONTINUOUS
 62
    7
 10
472.80659112295189
 20
255.03079569198022
 40
1.666666666666667
 50
89.999999999999915
 51
179.99999999999983
  0
ARC
  8
_0-b_細線3
  6
CONTINUOUS
 62
    7
 10
473.58650644183086
 20
258.36412902531367
 40
1.666666666666667
 50
269.99999999999977
 51
329.99999999999523
  0
ARC
  8
_0-b_細線3
  6
CONTINUOUS
 62
    7
 10
476.47325778777895
 20
256.69746235864716
 40
1.666666666666667
 50
89.999999999999915
 51
150.00000000000915
  0
LINE
  8
_0-b_細線3
  6
CONTINUOUS
 62
    7
 10
472.80659112295189
 20
256.69746235864716
 11
473.58650644183086
 21
256.69746235864716
  0
ARC
  8
_0-b_細線3
  6
CONTINUOUS
 62
    7
 10
488.47325778593995
 20
255.03079569198022
 40
1.666666666666667
 50
0
 51
89.999999999999915
  0
ARC
  8
_0-b_細線3
  6
CONTINUOUS
 62
    7
 10
487.69334246706057
 20
258.36412902531367
 40
1.666666666666667
 50
209.99999999999622
 51
269.99999999999977
  0
ARC
  8
_0-b_細線3
  6
CONTINUOUS
 62
    7
 10
484.80659112111249
 20
256.69746235864716
 40
1.666666666666667
 50
29.999999999998682
 51
89.999999999999915
  0
LINE
  8
_0-b_細線3
  6
CONTINUOUS
 62
    7
 10
488.47325778593995
 20
256.69746235864716
 11
487.69334246706057
 21
256.69746235864716
  0
ARC
  8
_0-b_細線3
  6
CONTINUOUS
 62
    7
 10
471.97325778961891
 20
252.69746235864716
 40
0.8333333333333334
 50
179.99999999999983
 51
269.99999999999977
  0
LINE
  8
_0-b_細線3
  6
CONTINUOUS
 62
    7
 10
471.13992445628497
 20
255.03079569198022
 11
471.13992445628497
 21
252.69746235864716
  0
ARC
  8
_0-b_細線3
  6
CONTINUOUS
 62
    7
 10
489.30659111927298
 20
252.69746235864716
 40
0.8333333333333334
 50
269.99999999999977
 51
359.99999999999966
  0
LINE
  8
_0-b_細線3
  6
CONTINUOUS
 62
    7
 10
490.13992445260646
 20
255.03079569198022
 11
490.13992445260646
 21
252.69746235864716
  0
ARC
  8
_0-b_細線3
  6
CONTINUOUS
 62
    7
 10
476.13992445628497
 20
250.19746235864716
 40
1.666666666666667
 50
0
 51
89.999999999999915
  0
LINE
  8
_0-b_細線3
  6
CONTINUOUS
 62
    7
 10
476.13992445628497
 20
251.8641290253137
 11
471.97325778961891
 21
251.8641290253137
  0
ARC
  8
_0-b_細線3
  6
CONTINUOUS
 62
    7
 10
485.13992445628537
 20
250.19746235864716
 40
1.666666666666667
 50
89.999999999999915
 51
179.99999999999983
  0
LINE
  8
_0-b_細線3
  6
CONTINUOUS
 62
    7
 10
485.13992445260646
 20
251.8641290253137
 11
489.30659111927298
 21
251.8641290253137
  0
LINE
  8
_0-b_細線3
  6
CONTINUOUS
 62
    7
 10
484.80659112111249
 20
258.36412902531367
 11
476.47325778777895
 21
258.36412902531367
  0
LINE
  8
_0-b_細線3
  6
CONTINUOUS
 62
    7
 10
477.80659112111243
 20
225.03079569198033
 11
477.80659112295189
 21
250.19746235864716
  0
LINE
  8
_0-b_細線3
  6
CONTINUOUS
 62
    7
 10
483.473257787779
 20
225.03079569198033
 11
483.47325778961886
 21
250.19746235864716
  0
LINE
  8
_0-b_細線3
  6
CONTINUOUS
 62
    7
 10
483.473257787779
 20
225.03079569198033
 11
477.80659112111243
 21
225.03079569198033
  0
ARC
  8
_0-b_細線3
  6
CONTINUOUS
 62
    7
 10
501.80659112355494
 20
255.03079569198022
 40
1.666666666666667
 50
89.999999999999915
 51
179.99999999999983
  0
ARC
  8
_0-b_細線3
  6
CONTINUOUS
 62
    7
 10
502.5865064424338
 20
258.36412902531367
 40
1.666666666666667
 50
269.99999999999977
 51
329.99999999999523
  0
ARC
  8
_0-b_細線3
  6
CONTINUOUS
 62
    7
 10
505.473257788382
 20
256.69746235864716
 40
1.666666666666667
 50
89.999999999999915
 51
150.00000000000915
  0
LINE
  8
_0-b_細線3
  6
CONTINUOUS
 62
    7
 10
501.80659112355494
 20
256.69746235864716
 11
502.5865064424338
 21
256.69746235864716
  0
ARC
  8
_0-b_細線3
  6
CONTINUOUS
 62
    7
 10
517.47325778654294
 20
255.03079569198022
 40
1.666666666666667
 50
0
 51
89.999999999999915
  0
ARC
  8
_0-b_細線3
  6
CONTINUOUS
 62
    7
 10
516.69334246766357
 20
258.36412902531367
 40
1.666666666666667
 50
210.00000000000404
 51
269.99999999999977
  0
ARC
  8
_0-b_細線3
  6
CONTINUOUS
 62
    7
 10
513.80659112171543
 20
256.69746235864716
 40
1.666666666666667
 50
29.999999999990862
 51
89.999999999984354
  0
LINE
  8
_0-b_細線3
  6
CONTINUOUS
 62
    7
 10
517.47325778654294
 20
256.69746235864716
 11
516.69334246766357
 21
256.69746235864716
  0
ARC
  8
_0-b_細線3
  6
CONTINUOUS
 62
    7
 10
500.9732577902214
 20
252.69746235864716
 40
0.8333333333333334
 50
179.99999999999983
 51
269.99999999999977
  0
LINE
  8
_0-b_細線3
  6
CONTINUOUS
 62
    7
 10
500.13992445688791
 20
255.03079569198022
 11
500.13992445688791
 21
252.69746235864716
  0
ARC
  8
_0-b_細線3
  6
CONTINUOUS
 62
    7
 10
518.30659111987597
 20
252.69746235864716
 40
0.8333333333333334
 50
269.99999999999977
 51
359.99999999999966
  0
LINE
  8
_0-b_細線3
  6
CONTINUOUS
 62
    7
 10
519.13992445320946
 20
255.03079569198022
 11
519.13992445320946
 21
252.69746235864716
  0
ARC
  8
_0-b_細線3
  6
CONTINUOUS
 62
    7
 10
505.13992445688791
 20
250.19746235864716
 40
1.666666666666667
 50
0
 51
89.999999999999915
  0
LINE
  8
_0-b_細線3
  6
CONTINUOUS
 62
    7
 10
505.13992445688791
 20
251.8641290253137
 11
500.9732577902214
 21
251.8641290253137
  0
ARC
  8
_0-b_細線3
  6
CONTINUOUS
 62
    7
 10
514.13992445688791
 20
250.19746235864716
 40
1.666666666666667
 50
89.999999999999915
 51
179.99999999999983
  0
LINE
  8
_0-b_細線3
  6
CONTINUOUS
 62
    7
 10
514.13992445320901
 20
251.8641290253137
 11
518.30659111987597
 21
251.8641290253137
  0
LINE
  8
_0-b_細線3
  6
CONTINUOUS
 62
    7
 10
513.80659112171543
 20
258.36412902531367
 11
505.473257788382
 21
258.36412902531367
  0
LINE
  8
_0-b_細線3
  6
CONTINUOUS
 62
    7
 10
506.80659112171548
 20
225.03079569198033
 11
506.80659112355494
 21
250.19746235864716
  0
LINE
  8
_0-b_細線3
  6
CONTINUOUS
 62
    7
 10
512.47325778838194
 20
225.03079569198033
 11
512.47325779022185
 21
250.19746235864716
  0
LINE
  8
_0-b_細線3
  6
CONTINUOUS
 62
    7
 10
512.47325778838194
 20
225.03079569198033
 11
506.80659112171548
 21
225.03079569198033
  0
ARC
  8
_0-b_細線3
  6
CONTINUOUS
 62
    7
 10
385.806591120826
 20
255.03079569198022
 40
1.666666666666667
 50
89.999999999999915
 51
179.99999999999983
  0
ARC
  8
_0-b_細線3
  6
CONTINUOUS
 62
    7
 10
386.58650643970486
 20
258.36412902531367
 40
1.666666666666667
 50
269.99999999999977
 51
330.00000000000301
  0
ARC
  8
_0-b_細線3
  6
CONTINUOUS
 62
    7
 10
389.473257785653
 20
256.69746235864716
 40
1.666666666666667
 50
89.999999999999915
 51
150.00000000000134
  0
LINE
  8
_0-b_細線3
  6
CONTINUOUS
 62
    7
 10
385.806591120826
 20
256.69746235864716
 11
386.58650643970486
 21
256.69746235864716
  0
ARC
  8
_0-b_細線3
  6
CONTINUOUS
 62
    7
 10
401.47325778381401
 20
255.03079569198022
 40
1.666666666666667
 50
0
 51
89.999999999999915
  0
ARC
  8
_0-b_細線3
  6
CONTINUOUS
 62
    7
 10
400.69334246493509
 20
258.36412902531367
 40
1.666666666666667
 50
209.99999999999622
 51
269.99999999999977
  0
ARC
  8
_0-b_細線3
  6
CONTINUOUS
 62
    7
 10
397.80659111898649
 20
256.69746235864716
 40
1.666666666666667
 50
29.999999999990862
 51
89.999999999984354
  0
LINE
  8
_0-b_細線3
  6
CONTINUOUS
 62
    7
 10
401.47325778381401
 20
256.69746235864716
 11
400.69334246493509
 21
256.69746235864716
  0
ARC
  8
_0-b_細線3
  6
CONTINUOUS
 62
    7
 10
384.97325778749291
 20
252.69746235864716
 40
0.8333333333333334
 50
179.99999999999983
 51
269.99999999999977
  0
LINE
  8
_0-b_細線3
  6
CONTINUOUS
 62
    7
 10
384.13992445415897
 20
255.03079569198022
 11
384.13992445415897
 21
252.69746235864716
  0
ARC
  8
_0-b_細線3
  6
CONTINUOUS
 62
    7
 10
402.30659111714709
 20
252.69746235864716
 40
0.8333333333333334
 50
269.99999999999977
 51
359.99999999999966
  0
LINE
  8
_0-b_細線3
  6
CONTINUOUS
 62
    7
 10
403.13992445048098
 20
255.03079569198022
 11
403.13992445048098
 21
252.69746235864716
  0
ARC
  8
_0-b_細線3
  6
CONTINUOUS
 62
    7
 10
389.13992445415897
 20
250.19746235864716
 40
1.666666666666667
 50
0
 51
89.999999999999915
  0
LINE
  8
_0-b_細線3
  6
CONTINUOUS
 62
    7
 10
389.13992445415897
 20
251.8641290253137
 11
384.97325778749291
 21
251.8641290253137
  0
ARC
  8
_0-b_細線3
  6
CONTINUOUS
 62
    7
 10
398.13992445415948
 20
250.19746235864716
 40
1.666666666666667
 50
89.999999999999915
 51
179.99999999999983
  0
LINE
  8
_0-b_細線3
  6
CONTINUOUS
 62
    7
 10
398.13992445048058
 20
251.8641290253137
 11
402.30659111714709
 21
251.8641290253137
  0
LINE
  8
_0-b_細線3
  6
CONTINUOUS
 62
    7
 10
397.80659111898649
 20
258.36412902531367
 11
389.473257785653
 21
258.36412902531367
  0
LINE
  8
_0-b_細線3
  6
CONTINUOUS
 62
    7
 10
390.80659111898694
 20
225.03079569198033
 11
390.806591120826
 21
250.19746235864716
  0
LINE
  8
_0-b_細線3
  6
CONTINUOUS
 62
    7
 10
396.473257785653
 20
225.03079569198033
 11
396.47325778749291
 21
250.19746235864716
  0
LINE
  8
_0-b_細線3
  6
CONTINUOUS
 62
    7
 10
396.473257785653
 20
225.03079569198033
 11
390.80659111898694
 21
225.03079569198033
  0
ARC
  8
_0-b_細線3
  6
CONTINUOUS
 62
    7
 10
414.80659112142894
 20
255.03079569198022
 40
1.666666666666667
 50
89.999999999999915
 51
179.99999999999983
  0
ARC
  8
_0-b_細線3
  6
CONTINUOUS
 62
    7
 10
415.58650644030831
 20
258.36412902531367
 40
1.666666666666667
 50
269.99999999999977
 51
329.99999999998744
  0
ARC
  8
_0-b_細線3
  6
CONTINUOUS
 62
    7
 10
418.473257786256
 20
256.69746235864716
 40
1.666666666666667
 50
89.999999999999915
 51
150.00000000000915
  0
LINE
  8
_0-b_細線3
  6
CONTINUOUS
 62
    7
 10
414.80659112142894
 20
256.69746235864716
 11
415.58650644030831
 21
256.69746235864716
  0
ARC
  8
_0-b_細線3
  6
CONTINUOUS
 62
    7
 10
430.473257784417
 20
255.03079569198022
 40
1.666666666666667
 50
0
 51
89.999999999999915
  0
ARC
  8
_0-b_細線3
  6
CONTINUOUS
 62
    7
 10
429.69334246553763
 20
258.36412902531367
 40
1.666666666666667
 50
210.00000000000404
 51
269.99999999999977
  0
ARC
  8
_0-b_細線3
  6
CONTINUOUS
 62
    7
 10
426.80659111958994
 20
256.69746235864716
 40
1.666666666666667
 50
29.999999999998682
 51
89.999999999999915
  0
LINE
  8
_0-b_細線3
  6
CONTINUOUS
 62
    7
 10
430.473257784417
 20
256.69746235864716
 11
429.69334246553763
 21
256.69746235864716
  0
ARC
  8
_0-b_細線3
  6
CONTINUOUS
 62
    7
 10
413.97325778809596
 20
252.69746235864716
 40
0.8333333333333334
 50
179.99999999999983
 51
269.99999999999977
  0
LINE
  8
_0-b_細線3
  6
CONTINUOUS
 62
    7
 10
413.13992445476242
 20
255.03079569198022
 11
413.13992445476242
 21
252.69746235864716
  0
ARC
  8
_0-b_細線3
  6
CONTINUOUS
 62
    7
 10
431.30659111775003
 20
252.69746235864716
 40
0.8333333333333334
 50
269.99999999999977
 51
359.99999999999966
  0
LINE
  8
_0-b_細線3
  6
CONTINUOUS
 62
    7
 10
432.13992445108352
 20
255.03079569198022
 11
432.13992445108352
 21
252.69746235864716
  0
ARC
  8
_0-b_細線3
  6
CONTINUOUS
 62
    7
 10
418.13992445476242
 20
250.19746235864716
 40
1.666666666666667
 50
0
 51
89.999999999999915
  0
LINE
  8
_0-b_細線3
  6
CONTINUOUS
 62
    7
 10
418.13992445476242
 20
251.8641290253137
 11
413.97325778809596
 21
251.8641290253137
  0
ARC
  8
_0-b_細線3
  6
CONTINUOUS
 62
    7
 10
427.13992445476242
 20
250.19746235864716
 40
1.666666666666667
 50
89.999999999999915
 51
179.99999999999983
  0
LINE
  8
_0-b_細線3
  6
CONTINUOUS
 62
    7
 10
427.13992445108352
 20
251.8641290253137
 11
431.30659111775003
 21
251.8641290253137
  0
LINE
  8
_0-b_細線3
  6
CONTINUOUS
 62
    7
 10
426.80659111958994
 20
258.36412902531367
 11
418.473257786256
 21
258.36412902531367
  0
LINE
  8
_0-b_細線3
  6
CONTINUOUS
 62
    7
 10
419.80659111958948
 20
225.03079569198033
 11
419.80659112142894
 21
250.19746235864716
  0
LINE
  8
_0-b_細線3
  6
CONTINUOUS
 62
    7
 10
425.47325778625645
 20
225.03079569198033
 11
425.47325778809591
 21
250.19746235864716
  0
LINE
  8
_0-b_細線3
  6
CONTINUOUS
 62
    7
 10
425.47325778625645
 20
225.03079569198033
 11
419.80659111958948
 21
225.03079569198033
  0
LINE
  8
_0-d_寸法3
  6
CONTINUOUS
 62
    7
 10
517.83144489825486
 20
230.76656005549083
 11
553.18378662394036
 21
255.52053622518162
  0
LINE
  8
_0-d_寸法3
  6
CONTINUOUS
 62
    7
 10
549.08802640249542
 20
252.65265404342639
 11
546.49983595147023
 21
262.31191230631703
  0
LINE
  8
_0-d_寸法3
  6
CONTINUOUS
 62
    7
 10
549.08802640249542
 20
252.65265404342639
 11
551.6762168535206
 21
262.31191230631703
  0
LINE
  8
_0-d_寸法3
  6
CONTINUOUS
 62
    7
 10
517.83144489825486
 20
264.09989338882417
 11
553.18378662394036
 21
288.85386955851493
  0
LINE
  8
_0-d_寸法3
  6
CONTINUOUS
 62
    7
 10
549.08802640249542
 20
285.98598737675968
 11
551.6762168535206
 21
276.32672911386896
  0
LINE
  8
_0-d_寸法3
  6
CONTINUOUS
 62
    7
 10
549.08802640249542
 20
285.98598737675968
 11
546.49983595147012
 21
276.32672911386908
  0
LINE
  8
_0-d_寸法3
  6
CONTINUOUS
 62
    7
 10
549.08802640249542
 20
252.65265404342639
 11
549.08802640249542
 21
285.98598737675968
  0
TEXT
  8
_0-d_寸法3
 62
    7
 10
549.08802640249542
 20
261.81932071009402
 40
15
 41
1
 50
90
  1
20
  0
LINE
  8
_0-5_寸法線
  6
CONTINUOUS
 62
    7
 10
576.71773093070283
 20
499.29735125080384
 11
583.78879874256836
 21
506.36841906266932
  0
LINE
  8
_0-5_寸法線
  6
CONTINUOUS
 62
    7
 10
576.71773093070283
 20
499.29735125080384
 11
586.37698919359354
 21
501.88554170182897
  0
LINE
  8
_0-5_寸法線
  6
CONTINUOUS
 62
    7
 10
576.71773093070283
 20
499.29735125080384
 11
618.11773093070303
 21
523.19965239525436
  0
LINE
  8
_0-5_寸法線
  6
CONTINUOUS
 62
    7
 10
618.11773093070303
 20
523.19965239525436
 11
726.11773093070315
 21
523.19965239525436
  0
TEXT
  8
_0-5_寸法線
 62
    7
 10
618.11773093070303
 20
523.19965239525436
 40
15
 41
0.8000000000000001
 50
0
  1
ＳＵＳアングル受枠
  0
TEXT
  8
_0-5_寸法線
 62
    7
 10
618.11773093070303
 20
508.19965239525436
 40
15
 41
0.8000000000000001
 50
0
  1
ＧＳＬ－２０
  0
LINE
  8
_0-1_計細線
  6
CONTINUOUS
 62
    3
 10
575.51795824097314
 20
681.60583080108199
 11
321.51795824097269
 21
681.60583080108199
  0
LINE
  8
_0-1_計細線
  6
CONTINUOUS
 62
    3
 10
321.51795824097269
 20
427.6058308010804
 11
575.51795824097314
 21
427.6058308010804
  0
LINE
  8
_0-1_計細線
  6
CONTINUOUS
 62
    3
 10
575.51795824097314
 20
427.6058308010804
 11
575.51795824097314
 21
681.60583080108199
  0
LINE
  8
_0-1_計細線
  6
CONTINUOUS
 62
    3
 10
321.51795824097269
 20
681.60583080108199
 11
321.51795824097269
 21
427.6058308010804
  0
LINE
  8
_0-5_寸法線
  6
CONTINUOUS
 62
    7
 10
308.51795824097269
 20
679.60583080108211
 11
263.51795824097252
 21
679.60583080108211
  0
LINE
  8
_0-5_寸法線
  6
CONTINUOUS
 62
    7
 10
268.51795824097252
 20
679.60583080108211
 11
271.1061486919977
 21
669.94657253819128
  0
LINE
  8
_0-5_寸法線
  6
CONTINUOUS
 62
    7
 10
268.51795824097252
 20
679.60583080108211
 11
265.92976778994728
 21
669.94657253819128
  0
LINE
  8
_0-5_寸法線
  6
CONTINUOUS
 62
    7
 10
308.51795824097269
 20
429.60583080108097
 11
263.51795824097252
 21
429.60583080108086
  0
LINE
  8
_0-5_寸法線
  6
CONTINUOUS
 62
    7
 10
268.51795824097252
 20
429.60583080108086
 11
265.92976778994728
 21
439.26508906397152
  0
LINE
  8
_0-5_寸法線
  6
CONTINUOUS
 62
    7
 10
268.51795824097252
 20
429.60583080108086
 11
271.1061486919977
 21
439.26508906397152
  0
LINE
  8
_0-5_寸法線
  6
CONTINUOUS
 62
    7
 10
268.51795824097252
 20
679.60583080108211
 11
268.51795824097252
 21
429.60583080108086
  0
TEXT
  8
_0-5_寸法線
 62
    7
 10
268.51795824097269
 20
543.35583080108142
 40
15
 41
1
 50
90
  1
250
  0
LINE
  8
_0-5_寸法線
  6
CONTINUOUS
 62
    7
 10
308.51795824097269
 20
424.60583080108051
 11
193.5179582409728
 21
424.60583080108086
  0
LINE
  8
_0-5_寸法線
  6
CONTINUOUS
 62
    7
 10
198.5179582409728
 20
424.60583080108086
 11
195.92976778994768
 21
434.26508906397152
  0
LINE
  8
_0-5_寸法線
  6
CONTINUOUS
 62
    7
 10
198.5179582409728
 20
424.60583080108086
 11
201.10614869199807
 21
434.26508906397152
  0
LINE
  8
_0-5_寸法線
  6
CONTINUOUS
 62
    7
 10
308.51795824097314
 20
684.60583080108245
 11
193.5179582409728
 21
684.6058308010829
  0
LINE
  8
_0-5_寸法線
  6
CONTINUOUS
 62
    7
 10
198.5179582409728
 20
684.6058308010829
 11
201.10614869199807
 21
674.9465725381923
  0
LINE
  8
_0-5_寸法線
  6
CONTINUOUS
 62
    7
 10
198.5179582409728
 20
684.6058308010829
 11
195.92976778994768
 21
674.9465725381923
  0
LINE
  8
_0-5_寸法線
  6
CONTINUOUS
 62
    7
 10
198.5179582409728
 20
424.60583080108086
 11
198.5179582409728
 21
684.6058308010829
  0
TEXT
  8
_0-5_寸法線
 62
    7
 10
198.51795824097266
 20
543.35583080108199
 40
15
 41
1
 50
89.999999999999815
  1
260
  0
LINE
  8
_0-5_寸法線
  6
CONTINUOUS
 62
    7
 10
233.51795824097266
 20
424.60583080108051
 11
236.10614869199787
 21
414.94657253818986
  0
LINE
  8
_0-5_寸法線
  6
CONTINUOUS
 62
    7
 10
233.51795824097266
 20
424.60583080108051
 11
230.92976778994745
 21
414.94657253818986
  0
LINE
  8
_0-5_寸法線
  6
CONTINUOUS
 62
    7
 10
308.51795824097269
 20
427.6058308010804
 11
228.51795824097266
 21
427.60583080108057
  0
LINE
  8
_0-5_寸法線
  6
CONTINUOUS
 62
    7
 10
233.51795824097266
 20
399.60583080108051
 11
233.51795824097266
 21
427.60583080108057
  0
TEXT
  8
_0-5_寸法線
 62
    7
 10
233.51795824097266
 20
402.95918897221048
 40
15
 41
1
 50
90
  1
3
  0
LINE
  8
_0-5_寸法線
  6
CONTINUOUS
 62
    7
 10
233.51795824097266
 20
427.60583080108057
 11
230.92976778994753
 21
437.26508906397123
  0
LINE
  8
_0-5_寸法線
  6
CONTINUOUS
 62
    7
 10
233.51795824097266
 20
427.60583080108057
 11
236.10614869199793
 21
437.26508906397123
  0
LINE
  8
_0-5_寸法線
  6
CONTINUOUS
 62
    7
 10
308.51795824097314
 20
681.60583080108256
 11
228.51795824097266
 21
681.60583080108256
  0
LINE
  8
_0-5_寸法線
  6
CONTINUOUS
 62
    7
 10
233.51795824097266
 20
681.60583080108256
 11
236.10614869199787
 21
671.94657253819184
  0
LINE
  8
_0-5_寸法線
  6
CONTINUOUS
 62
    7
 10
233.51795824097266
 20
681.60583080108256
 11
230.92976778994745
 21
671.94657253819184
  0
LINE
  8
_0-5_寸法線
  6
CONTINUOUS
 62
    7
 10
233.51795824097266
 20
427.60583080108057
 11
233.51795824097266
 21
681.60583080108256
  0
TEXT
  8
_0-5_寸法線
 62
    7
 10
233.51795824097266
 20
543.35583080108154
 40
15
 41
1
 50
89.999999999999815
  1
254
  0
LINE
  8
_0-5_寸法線
  6
CONTINUOUS
 62
    7
 10
233.51795824097266
 20
684.60583080108267
 11
230.92976778994753
 21
694.26508906397328
  0
LINE
  8
_0-5_寸法線
  6
CONTINUOUS
 62
    7
 10
233.51795824097266
 20
684.60583080108267
 11
236.10614869199793
 21
694.26508906397328
  0
LINE
  8
_0-5_寸法線
  6
CONTINUOUS
 62
    7
 10
233.51795824097266
 20
681.60583080108256
 11
233.51795824097266
 21
709.60583080108267
  0
TEXT
  8
_0-5_寸法線
 62
    7
 10
233.51795824097266
 20
698.8715977313343
 40
15
 41
1
 50
90
  1
3
  0
LINE
  8
_0-1_計細線
  6
CONTINUOUS
 62
    3
 10
318.51795824097269
 20
424.60583080108046
 11
318.51795824097269
 21
684.60583080108211
  0
LINE
  8
_0-1_計細線
  6
CONTINUOUS
 62
    3
 10
318.51795824097269
 20
684.60583080108211
 11
578.51795824097314
 21
684.60583080108211
  0
LINE
  8
_0-1_計細線
  6
CONTINUOUS
 62
    3
 10
578.51795824097314
 20
684.60583080108211
 11
578.51795824097314
 21
424.60583080108046
  0
LINE
  8
_0-1_計細線
  6
CONTINUOUS
 62
    3
 10
578.51795824097314
 20
424.60583080108046
 11
318.51795824097269
 21
424.60583080108046
  0
LINE
  8
_0-0_計極細
  6
CONTINUOUS
 62
    2
 10
324.01795824097343
 20
526.3058308010834
 11
324.01795824097343
 21
531.90583080108331
  0
LINE
  8
_0-0_計極細
  6
CONTINUOUS
 62
    2
 10
337.01795824097337
 20
526.3058308010834
 11
337.01795824097337
 21
531.90583080108331
  0
LINE
  8
_0-0_計極細
  6
CONTINUOUS
 62
    2
 10
324.01795824097343
 20
548.90583080107967
 11
324.01795824097343
 21
543.30583080107931
  0
LINE
  8
_0-0_計極細
  6
CONTINUOUS
 62
    2
 10
337.01795824097337
 20
548.90583080107967
 11
337.01795824097337
 21
543.30583080107931
  0
LINE
  8
_0-0_計極細
  6
CONTINUOUS
 62
    2
 10
324.01795824097343
 20
565.90583080108058
 11
324.01795824097343
 21
560.30583080108022
  0
LINE
  8
_0-0_計極細
  6
CONTINUOUS
 62
    2
 10
337.01795824097337
 20
565.90583080108058
 11
337.01795824097337
 21
560.30583080108022
  0
LINE
  8
_0-0_計極細
  6
CONTINUOUS
 62
    2
 10
324.01795824097343
 20
582.90583080108104
 11
324.01795824097343
 21
577.30583080108113
  0
LINE
  8
_0-0_計極細
  6
CONTINUOUS
 62
    2
 10
337.01795824097337
 20
582.90583080108104
 11
337.01795824097337
 21
577.30583080108113
  0
LINE
  8
_0-0_計極細
  6
CONTINUOUS
 62
    2
 10
324.01795824097343
 20
668.20583080108145
 11
324.01795824097343
 21
662.30583080108192
  0
LINE
  8
_0-0_計極細
  6
CONTINUOUS
 62
    2
 10
337.01795824097337
 20
668.20583080108145
 11
337.01795824097337
 21
662.30583080108192
  0
LINE
  8
_0-0_計極細
  6
CONTINUOUS
 62
    2
 10
324.01795824097343
 20
441.00583080108277
 11
324.01795824097343
 21
446.90583080108291
  0
LINE
  8
_0-0_計極細
  6
CONTINUOUS
 62
    2
 10
337.01795824097337
 20
441.00583080108277
 11
337.01795824097337
 21
446.90583080108291
  0
LINE
  8
_0-0_計極細
  6
CENTER1
 62
    2
 10
330.51795824097337
 20
688.35655022554465
 11
330.51795824097337
 21
421.84800706007019
  0
LINE
  8
_0-0_計極細
  6
CONTINUOUS
 62
    2
 10
324.01795824097343
 20
599.90583080108149
 11
324.01795824097343
 21
594.30583080108158
  0
LINE
  8
_0-0_計極細
  6
CONTINUOUS
 62
    2
 10
337.01795824097337
 20
599.90583080108149
 11
337.01795824097337
 21
594.30583080108158
  0
LINE
  8
_0-0_計極細
  6
CONTINUOUS
 62
    2
 10
324.01795824097343
 20
616.9058308010824
 11
324.01795824097343
 21
611.30583080108204
  0
LINE
  8
_0-0_計極細
  6
CONTINUOUS
 62
    2
 10
337.01795824097337
 20
616.9058308010824
 11
337.01795824097337
 21
611.30583080108204
  0
LINE
  8
_0-0_計極細
  6
CONTINUOUS
 62
    2
 10
324.01795824097343
 20
633.90583080108331
 11
324.01795824097343
 21
628.30583080108295
  0
LINE
  8
_0-0_計極細
  6
CONTINUOUS
 62
    2
 10
337.01795824097337
 20
633.90583080108331
 11
337.01795824097337
 21
628.30583080108295
  0
LINE
  8
_0-0_計極細
  6
CONTINUOUS
 62
    2
 10
324.01795824097343
 20
650.90583080108377
 11
324.01795824097343
 21
645.30583080108386
  0
LINE
  8
_0-0_計極細
  6
CONTINUOUS
 62
    2
 10
337.01795824097337
 20
650.90583080108377
 11
337.01795824097337
 21
645.30583080108386
  0
LINE
  8
_0-0_計極細
  6
CONTINUOUS
 62
    2
 10
324.01795824097343
 20
509.305830801083
 11
324.01795824097343
 21
514.90583080108286
  0
LINE
  8
_0-0_計極細
  6
CONTINUOUS
 62
    2
 10
337.01795824097337
 20
509.305830801083
 11
337.01795824097337
 21
514.90583080108286
  0
LINE
  8
_0-0_計極細
  6
CONTINUOUS
 62
    2
 10
324.01795824097343
 20
492.30583080108204
 11
324.01795824097343
 21
497.9058308010824
  0
LINE
  8
_0-0_計極細
  6
CONTINUOUS
 62
    2
 10
337.01795824097337
 20
492.30583080108204
 11
337.01795824097337
 21
497.9058308010824
  0
LINE
  8
_0-0_計極細
  6
CONTINUOUS
 62
    2
 10
324.01795824097343
 20
475.30583080108113
 11
324.01795824097343
 21
480.90583080108155
  0
LINE
  8
_0-0_計極細
  6
CONTINUOUS
 62
    2
 10
337.01795824097337
 20
475.30583080108113
 11
337.01795824097337
 21
480.90583080108155
  0
LINE
  8
_0-0_計極細
  6
CONTINUOUS
 62
    2
 10
324.01795824097343
 20
458.30583080108067
 11
324.01795824097343
 21
463.90583080108058
  0
LINE
  8
_0-0_計極細
  6
CONTINUOUS
 62
    2
 10
337.01795824097337
 20
458.30583080108067
 11
337.01795824097337
 21
463.90583080108058
  0
LINE
  8
_0-0_計極細
  6
CONTINUOUS
 62
    2
 10
421.01795824097348
 20
526.3058308010834
 11
421.01795824097348
 21
531.90583080108331
  0
LINE
  8
_0-0_計極細
  6
CONTINUOUS
 62
    2
 10
434.01795824097348
 20
526.3058308010834
 11
434.01795824097348
 21
531.90583080108331
  0
LINE
  8
_0-0_計極細
  6
CONTINUOUS
 62
    2
 10
421.01795824097348
 20
548.90583080107967
 11
421.01795824097348
 21
543.30583080107931
  0
LINE
  8
_0-0_計極細
  6
CONTINUOUS
 62
    2
 10
434.01795824097348
 20
548.90583080107967
 11
434.01795824097348
 21
543.30583080107931
  0
LINE
  8
_0-0_計極細
  6
CONTINUOUS
 62
    2
 10
421.01795824097348
 20
582.90583080108104
 11
421.01795824097348
 21
577.30583080108113
  0
LINE
  8
_0-0_計極細
  6
CONTINUOUS
 62
    2
 10
434.01795824097348
 20
582.90583080108104
 11
434.01795824097348
 21
577.30583080108113
  0
LINE
  8
_0-0_計極細
  6
CONTINUOUS
 62
    2
 10
421.01795824097348
 20
668.20583080108145
 11
421.01795824097348
 21
662.30583080108192
  0
LINE
  8
_0-0_計極細
  6
CONTINUOUS
 62
    2
 10
434.01795824097348
 20
668.20583080108145
 11
434.01795824097348
 21
662.30583080108192
  0
LINE
  8
_0-0_計極細
  6
CONTINUOUS
 62
    2
 10
421.01795824097348
 20
441.00583080108277
 11
421.01795824097348
 21
446.90583080108291
  0
LINE
  8
_0-0_計極細
  6
CONTINUOUS
 62
    2
 10
434.01795824097348
 20
441.00583080108277
 11
434.01795824097348
 21
446.90583080108291
  0
LINE
  8
_0-0_計極細
  6
CENTER1
 62
    2
 10
427.51795824097348
 20
688.35655022554465
 11
427.51795824097348
 21
421.84800706007019
  0
LINE
  8
_0-0_計極細
  6
CONTINUOUS
 62
    2
 10
421.01795824097348
 20
599.90583080108149
 11
421.01795824097348
 21
594.30583080108158
  0
LINE
  8
_0-0_計極細
  6
CONTINUOUS
 62
    2
 10
434.01795824097348
 20
599.90583080108149
 11
434.01795824097348
 21
594.30583080108158
  0
LINE
  8
_0-0_計極細
  6
CONTINUOUS
 62
    2
 10
421.01795824097348
 20
616.9058308010824
 11
421.01795824097348
 21
611.30583080108204
  0
LINE
  8
_0-0_計極細
  6
CONTINUOUS
 62
    2
 10
434.01795824097348
 20
616.9058308010824
 11
434.01795824097348
 21
611.30583080108204
  0
LINE
  8
_0-0_計極細
  6
CONTINUOUS
 62
    2
 10
421.01795824097348
 20
633.90583080108331
 11
421.01795824097348
 21
628.30583080108295
  0
LINE
  8
_0-0_計極細
  6
CONTINUOUS
 62
    2
 10
434.01795824097348
 20
633.90583080108331
 11
434.01795824097348
 21
628.30583080108295
  0
LINE
  8
_0-0_計極細
  6
CONTINUOUS
 62
    2
 10
421.01795824097348
 20
650.90583080108377
 11
421.01795824097348
 21
645.30583080108386
  0
LINE
  8
_0-0_計極細
  6
CONTINUOUS
 62
    2
 10
434.01795824097348
 20
650.90583080108377
 11
434.01795824097348
 21
645.30583080108386
  0
LINE
  8
_0-0_計極細
  6
CONTINUOUS
 62
    2
 10
421.01795824097348
 20
509.305830801083
 11
421.01795824097348
 21
514.90583080108286
  0
LINE
  8
_0-0_計極細
  6
CONTINUOUS
 62
    2
 10
434.01795824097348
 20
509.305830801083
 11
434.01795824097348
 21
514.90583080108286
  0
LINE
  8
_0-0_計極細
  6
CONTINUOUS
 62
    2
 10
421.01795824097348
 20
492.30583080108204
 11
421.01795824097348
 21
497.9058308010824
  0
LINE
  8
_0-0_計極細
  6
CONTINUOUS
 62
    2
 10
434.01795824097348
 20
492.30583080108204
 11
434.01795824097348
 21
497.9058308010824
  0
LINE
  8
_0-0_計極細
  6
CONTINUOUS
 62
    2
 10
421.01795824097348
 20
475.30583080108113
 11
421.01795824097348
 21
480.90583080108155
  0
LINE
  8
_0-0_計極細
  6
CONTINUOUS
 62
    2
 10
434.01795824097348
 20
475.30583080108113
 11
434.01795824097348
 21
480.90583080108155
  0
LINE
  8
_0-0_計極細
  6
CONTINUOUS
 62
    2
 10
421.01795824097348
 20
458.30583080108067
 11
421.01795824097348
 21
463.90583080108058
  0
LINE
  8
_0-0_計極細
  6
CONTINUOUS
 62
    2
 10
434.01795824097348
 20
458.30583080108067
 11
434.01795824097348
 21
463.90583080108058
  0
LINE
  8
_0-1_計細線
  6
CONTINUOUS
 62
    3
 10
382.51795824097309
 20
560.75583080108049
 11
441.51795824097303
 21
560.75583080108049
  0
LINE
  8
_0-1_計細線
  6
CONTINUOUS
 62
    3
 10
441.51795824097303
 20
565.45583080108031
 11
382.51795824097309
 21
565.45583080108031
  0
LINE
  8
_0-1_計細線
  6
CONTINUOUS
 62
    3
 10
382.51795824097309
 20
565.45583080108031
 11
382.51795824097309
 21
560.75583080108049
  0
LINE
  8
_0-1_計細線
  6
CONTINUOUS
 62
    3
 10
431.51795824097303
 20
565.45583080108031
 11
431.51795824097303
 21
560.75583080108049
  0
LINE
  8
_0-1_計細線
  6
CONTINUOUS
 62
    3
 10
439.51795824097303
 20
565.45583080108031
 11
439.51795824097303
 21
560.75583080108049
  0
LINE
  8
_0-1_計細線
  6
CONTINUOUS
 62
    3
 10
441.51795824097303
 20
565.45583080108031
 11
441.51795824097303
 21
560.75583080108049
  0
LINE
  8
_0-1_計細線
  6
CONTINUOUS
 62
    3
 10
437.51795824097309
 20
565.45583080108031
 11
437.51795824097309
 21
560.75583080108049
  0
LINE
  8
_0-1_計細線
  6
CONTINUOUS
 62
    3
 10
435.51795824097303
 20
565.45583080108031
 11
435.51795824097303
 21
560.75583080108049
  0
LINE
  8
_0-1_計細線
  6
CONTINUOUS
 62
    3
 10
433.51795824097309
 20
565.45583080108031
 11
433.51795824097309
 21
560.75583080108049
  0
LINE
  8
_0-0_計極細
  6
CONTINUOUS
 62
    2
 10
421.01795824097348
 20
565.90583080108058
 11
421.01795824097348
 21
565.45583080108031
  0
LINE
  8
_0-0_計極細
  6
CONTINUOUS
 62
    2
 10
421.01795824097348
 20
560.75583080108049
 11
421.01795824097348
 21
560.30583080108022
  0
LINE
  8
_0-0_計極細
  6
CONTINUOUS
 62
    2
 10
434.01795824097348
 20
565.90583080108058
 11
434.01795824097348
 21
565.45583080108031
  0
LINE
  8
_0-0_計極細
  6
CONTINUOUS
 62
    2
 10
434.01795824097348
 20
560.75583080108049
 11
434.01795824097348
 21
560.30583080108022
  0
LINE
  8
_0-0_計極細
  6
CONTINUOUS
 62
    2
 10
463.01795824097354
 20
526.3058308010834
 11
463.01795824097354
 21
531.90583080108331
  0
LINE
  8
_0-0_計極細
  6
CONTINUOUS
 62
    2
 10
476.01795824097348
 20
526.3058308010834
 11
476.01795824097348
 21
531.90583080108331
  0
LINE
  8
_0-0_計極細
  6
CONTINUOUS
 62
    2
 10
463.01795824097354
 20
548.90583080107967
 11
463.01795824097354
 21
543.30583080107931
  0
LINE
  8
_0-0_計極細
  6
CONTINUOUS
 62
    2
 10
476.01795824097348
 20
548.90583080107967
 11
476.01795824097348
 21
543.30583080107931
  0
LINE
  8
_0-0_計極細
  6
CONTINUOUS
 62
    2
 10
463.01795824097354
 20
565.90583080108058
 11
463.01795824097354
 21
560.30583080108022
  0
LINE
  8
_0-0_計極細
  6
CONTINUOUS
 62
    2
 10
476.01795824097348
 20
565.90583080108058
 11
476.01795824097348
 21
560.30583080108022
  0
LINE
  8
_0-0_計極細
  6
CONTINUOUS
 62
    2
 10
463.01795824097354
 20
582.90583080108104
 11
463.01795824097354
 21
577.30583080108113
  0
LINE
  8
_0-0_計極細
  6
CONTINUOUS
 62
    2
 10
476.01795824097348
 20
582.90583080108104
 11
476.01795824097348
 21
577.30583080108113
  0
LINE
  8
_0-0_計極細
  6
CONTINUOUS
 62
    2
 10
463.01795824097354
 20
668.20583080108145
 11
463.01795824097354
 21
662.30583080108192
  0
LINE
  8
_0-0_計極細
  6
CONTINUOUS
 62
    2
 10
476.01795824097348
 20
668.20583080108145
 11
476.01795824097348
 21
662.30583080108192
  0
LINE
  8
_0-0_計極細
  6
CONTINUOUS
 62
    2
 10
463.01795824097354
 20
441.00583080108277
 11
463.01795824097354
 21
446.90583080108291
  0
LINE
  8
_0-0_計極細
  6
CONTINUOUS
 62
    2
 10
476.01795824097348
 20
441.00583080108277
 11
476.01795824097348
 21
446.90583080108291
  0
LINE
  8
_0-0_計極細
  6
CENTER1
 62
    2
 10
469.51795824097354
 20
688.35655022554465
 11
469.51795824097354
 21
421.84800706007019
  0
LINE
  8
_0-0_計極細
  6
CONTINUOUS
 62
    2
 10
463.01795824097354
 20
599.90583080108149
 11
463.01795824097354
 21
594.30583080108158
  0
LINE
  8
_0-0_計極細
  6
CONTINUOUS
 62
    2
 10
476.01795824097348
 20
599.90583080108149
 11
476.01795824097348
 21
594.30583080108158
  0
LINE
  8
_0-0_計極細
  6
CONTINUOUS
 62
    2
 10
463.01795824097354
 20
616.9058308010824
 11
463.01795824097354
 21
611.30583080108204
  0
LINE
  8
_0-0_計極細
  6
CONTINUOUS
 62
    2
 10
476.01795824097348
 20
616.9058308010824
 11
476.01795824097348
 21
611.30583080108204
  0
LINE
  8
_0-0_計極細
  6
CONTINUOUS
 62
    2
 10
463.01795824097354
 20
633.90583080108331
 11
463.01795824097354
 21
628.30583080108295
  0
LINE
  8
_0-0_計極細
  6
CONTINUOUS
 62
    2
 10
476.01795824097348
 20
633.90583080108331
 11
476.01795824097348
 21
628.30583080108295
  0
LINE
  8
_0-0_計極細
  6
CONTINUOUS
 62
    2
 10
463.01795824097354
 20
650.90583080108377
 11
463.01795824097354
 21
645.30583080108386
  0
LINE
  8
_0-0_計極細
  6
CONTINUOUS
 62
    2
 10
476.01795824097348
 20
650.90583080108377
 11
476.01795824097348
 21
645.30583080108386
  0
LINE
  8
_0-0_計極細
  6
CONTINUOUS
 62
    2
 10
463.01795824097354
 20
509.305830801083
 11
463.01795824097354
 21
514.90583080108286
  0
LINE
  8
_0-0_計極細
  6
CONTINUOUS
 62
    2
 10
476.01795824097348
 20
509.305830801083
 11
476.01795824097348
 21
514.90583080108286
  0
LINE
  8
_0-0_計極細
  6
CONTINUOUS
 62
    2
 10
463.01795824097354
 20
492.30583080108204
 11
463.01795824097354
 21
497.9058308010824
  0
LINE
  8
_0-0_計極細
  6
CONTINUOUS
 62
    2
 10
476.01795824097348
 20
492.30583080108204
 11
476.01795824097348
 21
497.9058308010824
  0
LINE
  8
_0-0_計極細
  6
CONTINUOUS
 62
    2
 10
463.01795824097354
 20
475.30583080108113
 11
463.01795824097354
 21
480.90583080108155
  0
LINE
  8
_0-0_計極細
  6
CONTINUOUS
 62
    2
 10
476.01795824097348
 20
475.30583080108113
 11
476.01795824097348
 21
480.90583080108155
  0
LINE
  8
_0-0_計極細
  6
CONTINUOUS
 62
    2
 10
463.01795824097354
 20
458.30583080108067
 11
463.01795824097354
 21
463.90583080108058
  0
LINE
  8
_0-0_計極細
  6
CONTINUOUS
 62
    2
 10
476.01795824097348
 20
458.30583080108067
 11
476.01795824097348
 21
463.90583080108058
  0
LINE
  8
_0-0_計極細
  6
CONTINUOUS
 62
    2
 10
560.01795824097348
 20
526.3058308010834
 11
560.01795824097348
 21
531.90583080108331
  0
LINE
  8
_0-0_計極細
  6
CONTINUOUS
 62
    2
 10
573.01795824097337
 20
526.3058308010834
 11
573.01795824097337
 21
531.90583080108331
  0
LINE
  8
_0-0_計極細
  6
CONTINUOUS
 62
    2
 10
560.01795824097348
 20
548.90583080107967
 11
560.01795824097348
 21
543.30583080107931
  0
LINE
  8
_0-0_計極細
  6
CONTINUOUS
 62
    2
 10
573.01795824097337
 20
548.90583080107967
 11
573.01795824097337
 21
543.30583080107931
  0
LINE
  8
_0-0_計極細
  6
CONTINUOUS
 62
    2
 10
560.01795824097348
 20
565.90583080108058
 11
560.01795824097348
 21
560.30583080108022
  0
LINE
  8
_0-0_計極細
  6
CONTINUOUS
 62
    2
 10
573.01795824097337
 20
565.90583080108058
 11
573.01795824097337
 21
560.30583080108022
  0
LINE
  8
_0-0_計極細
  6
CONTINUOUS
 62
    2
 10
560.01795824097348
 20
582.90583080108104
 11
560.01795824097348
 21
577.30583080108113
  0
LINE
  8
_0-0_計極細
  6
CONTINUOUS
 62
    2
 10
573.01795824097337
 20
582.90583080108104
 11
573.01795824097337
 21
577.30583080108113
  0
LINE
  8
_0-0_計極細
  6
CONTINUOUS
 62
    2
 10
560.01795824097348
 20
668.20583080108145
 11
560.01795824097348
 21
662.30583080108192
  0
LINE
  8
_0-0_計極細
  6
CONTINUOUS
 62
    2
 10
573.01795824097337
 20
668.20583080108145
 11
573.01795824097337
 21
662.30583080108192
  0
LINE
  8
_0-0_計極細
  6
CONTINUOUS
 62
    2
 10
560.01795824097348
 20
441.00583080108277
 11
560.01795824097348
 21
446.90583080108291
  0
LINE
  8
_0-0_計極細
  6
CONTINUOUS
 62
    2
 10
573.01795824097337
 20
441.00583080108277
 11
573.01795824097337
 21
446.90583080108291
  0
LINE
  8
_0-0_計極細
  6
CENTER1
 62
    2
 10
566.51795824097337
 20
688.35655022554465
 11
566.51795824097337
 21
421.84800706007019
  0
LINE
  8
_0-0_計極細
  6
CONTINUOUS
 62
    2
 10
560.01795824097348
 20
599.90583080108149
 11
560.01795824097348
 21
594.30583080108158
  0
LINE
  8
_0-0_計極細
  6
CONTINUOUS
 62
    2
 10
573.01795824097337
 20
599.90583080108149
 11
573.01795824097337
 21
594.30583080108158
  0
LINE
  8
_0-0_計極細
  6
CONTINUOUS
 62
    2
 10
560.01795824097348
 20
616.9058308010824
 11
560.01795824097348
 21
611.30583080108204
  0
LINE
  8
_0-0_計極細
  6
CONTINUOUS
 62
    2
 10
573.01795824097337
 20
616.9058308010824
 11
573.01795824097337
 21
611.30583080108204
  0
LINE
  8
_0-0_計極細
  6
CONTINUOUS
 62
    2
 10
560.01795824097348
 20
633.90583080108331
 11
560.01795824097348
 21
628.30583080108295
  0
LINE
  8
_0-0_計極細
  6
CONTINUOUS
 62
    2
 10
573.01795824097337
 20
633.90583080108331
 11
573.01795824097337
 21
628.30583080108295
  0
LINE
  8
_0-0_計極細
  6
CONTINUOUS
 62
    2
 10
560.01795824097348
 20
650.90583080108377
 11
560.01795824097348
 21
645.30583080108386
  0
LINE
  8
_0-0_計極細
  6
CONTINUOUS
 62
    2
 10
573.01795824097337
 20
650.90583080108377
 11
573.01795824097337
 21
645.30583080108386
  0
LINE
  8
_0-0_計極細
  6
CONTINUOUS
 62
    2
 10
560.01795824097348
 20
509.305830801083
 11
560.01795824097348
 21
514.90583080108286
  0
LINE
  8
_0-0_計極細
  6
CONTINUOUS
 62
    2
 10
573.01795824097337
 20
509.305830801083
 11
573.01795824097337
 21
514.90583080108286
  0
LINE
  8
_0-0_計極細
  6
CONTINUOUS
 62
    2
 10
560.01795824097348
 20
492.30583080108204
 11
560.01795824097348
 21
497.9058308010824
  0
LINE
  8
_0-0_計極細
  6
CONTINUOUS
 62
    2
 10
573.01795824097337
 20
492.30583080108204
 11
573.01795824097337
 21
497.9058308010824
  0
LINE
  8
_0-0_計極細
  6
CONTINUOUS
 62
    2
 10
560.01795824097348
 20
475.30583080108113
 11
560.01795824097348
 21
480.90583080108155
  0
LINE
  8
_0-0_計極細
  6
CONTINUOUS
 62
    2
 10
573.01795824097337
 20
475.30583080108113
 11
573.01795824097337
 21
480.90583080108155
  0
LINE
  8
_0-0_計極細
  6
CONTINUOUS
 62
    2
 10
560.01795824097348
 20
458.30583080108067
 11
560.01795824097348
 21
463.90583080108058
  0
LINE
  8
_0-0_計極細
  6
CONTINUOUS
 62
    2
 10
573.01795824097337
 20
458.30583080108067
 11
573.01795824097337
 21
463.90583080108058
  0
LINE
  8
_0-1_計細線
  6
CONTINUOUS
 62
    3
 10
323.51795824097337
 20
514.90583080108286
 11
573.51795824097337
 21
514.90583080108286
  0
LINE
  8
_0-1_計細線
  6
CONTINUOUS
 62
    3
 10
323.51795824097337
 20
526.3058308010834
 11
573.51795824097337
 21
526.3058308010834
  0
LINE
  8
_0-1_計細線
  6
CONTINUOUS
 62
    3
 10
323.51795824097337
 20
514.90583080108286
 11
323.51795824097337
 21
526.3058308010834
  0
LINE
  8
_0-1_計細線
  6
CONTINUOUS
 62
    3
 10
573.51795824097337
 20
514.90583080108286
 11
573.51795824097337
 21
526.3058308010834
  0
LINE
  8
_0-0_計極細
  6
CONTINUOUS
 62
    2
 10
323.51795824097337
 20
523.10583080108313
 11
573.51795824097337
 21
523.10583080108313
  0
LINE
  8
_0-0_計極細
  6
CONTINUOUS
 62
    2
 10
323.51795824097337
 20
518.10583080108313
 11
573.51795824097337
 21
518.10583080108313
  0
LINE
  8
_0-1_計細線
  6
CONTINUOUS
 62
    3
 10
323.51795824097337
 20
531.90583080108331
 11
573.51795824097337
 21
531.90583080108331
  0
LINE
  8
_0-1_計細線
  6
CONTINUOUS
 62
    3
 10
323.51795824097337
 20
543.30583080108386
 11
573.51795824097337
 21
543.30583080108386
  0
LINE
  8
_0-1_計細線
  6
CONTINUOUS
 62
    3
 10
323.51795824097337
 20
531.90583080108331
 11
323.51795824097337
 21
543.30583080108386
  0
LINE
  8
_0-1_計細線
  6
CONTINUOUS
 62
    3
 10
573.51795824097337
 20
531.90583080108331
 11
573.51795824097337
 21
543.30583080108386
  0
LINE
  8
_0-0_計極細
  6
CONTINUOUS
 62
    2
 10
323.51795824097337
 20
540.10583080108404
 11
573.51795824097337
 21
540.10583080108404
  0
LINE
  8
_0-0_計極細
  6
CONTINUOUS
 62
    2
 10
323.51795824097337
 20
535.10583080108404
 11
573.51795824097337
 21
535.10583080108404
  0
LINE
  8
_0-1_計細線
  6
CONTINUOUS
 62
    3
 10
323.51795824097337
 20
594.30583080108158
 11
573.51795824097337
 21
594.30583080108158
  0
LINE
  8
_0-1_計細線
  6
CONTINUOUS
 62
    3
 10
323.51795824097337
 20
582.90583080108104
 11
573.51795824097337
 21
582.90583080108104
  0
LINE
  8
_0-1_計細線
  6
CONTINUOUS
 62
    3
 10
323.51795824097337
 20
594.30583080108158
 11
323.51795824097337
 21
582.90583080108104
  0
LINE
  8
_0-1_計細線
  6
CONTINUOUS
 62
    3
 10
573.51795824097337
 20
594.30583080108158
 11
573.51795824097337
 21
582.90583080108104
  0
LINE
  8
_0-0_計極細
  6
CONTINUOUS
 62
    2
 10
323.51795824097337
 20
586.10583080108131
 11
573.51795824097337
 21
586.10583080108131
  0
LINE
  8
_0-0_計極細
  6
CONTINUOUS
 62
    2
 10
323.51795824097337
 20
591.10583080108131
 11
573.51795824097337
 21
591.10583080108131
  0
LINE
  8
_0-1_計細線
  6
CONTINUOUS
 62
    3
 10
323.51795824097337
 20
662.30583080108192
 11
573.51795824097337
 21
662.30583080108192
  0
LINE
  8
_0-1_計細線
  6
CONTINUOUS
 62
    3
 10
323.51795824097337
 20
650.90583080108149
 11
573.51795824097337
 21
650.90583080108149
  0
LINE
  8
_0-1_計細線
  6
CONTINUOUS
 62
    3
 10
323.51795824097337
 20
662.30583080108192
 11
323.51795824097337
 21
650.90583080108149
  0
LINE
  8
_0-1_計細線
  6
CONTINUOUS
 62
    3
 10
573.51795824097337
 20
662.30583080108192
 11
573.51795824097337
 21
650.90583080108149
  0
LINE
  8
_0-0_計極細
  6
CONTINUOUS
 62
    2
 10
323.51795824097337
 20
654.10583080108177
 11
573.51795824097337
 21
654.10583080108177
  0
LINE
  8
_0-0_計極細
  6
CONTINUOUS
 62
    2
 10
323.51795824097337
 20
659.10583080108199
 11
573.51795824097337
 21
659.10583080108199
  0
LINE
  8
_0-1_計細線
  6
CONTINUOUS
 62
    3
 10
323.51795824097337
 20
679.60583080108211
 11
573.51795824097337
 21
679.60583080108211
  0
LINE
  8
_0-1_計細線
  6
CONTINUOUS
 62
    3
 10
323.51795824097337
 20
668.20583080108145
 11
573.51795824097337
 21
668.20583080108145
  0
LINE
  8
_0-1_計細線
  6
CONTINUOUS
 62
    3
 10
323.51795824097337
 20
679.60583080108211
 11
323.51795824097337
 21
668.20583080108145
  0
LINE
  8
_0-1_計細線
  6
CONTINUOUS
 62
    3
 10
573.51795824097337
 20
679.60583080108211
 11
573.51795824097337
 21
668.20583080108145
  0
LINE
  8
_0-0_計極細
  6
CONTINUOUS
 62
    2
 10
323.51795824097337
 20
671.40583080108217
 11
573.51795824097337
 21
671.40583080108217
  0
LINE
  8
_0-0_計極細
  6
CONTINUOUS
 62
    2
 10
323.51795824097337
 20
676.40583080108217
 11
573.51795824097337
 21
676.40583080108217
  0
LINE
  8
_0-1_計細線
  6
CONTINUOUS
 62
    3
 10
323.51795824097337
 20
446.9058308010824
 11
573.51795824097337
 21
446.9058308010824
  0
LINE
  8
_0-1_計細線
  6
CONTINUOUS
 62
    3
 10
323.51795824097337
 20
458.30583080108295
 11
573.51795824097337
 21
458.30583080108295
  0
LINE
  8
_0-1_計細線
  6
CONTINUOUS
 62
    3
 10
323.51795824097337
 20
446.9058308010824
 11
323.51795824097337
 21
458.30583080108295
  0
LINE
  8
_0-1_計細線
  6
CONTINUOUS
 62
    3
 10
573.51795824097337
 20
446.9058308010824
 11
573.51795824097337
 21
458.30583080108295
  0
LINE
  8
_0-0_計極細
  6
CONTINUOUS
 62
    2
 10
323.51795824097337
 20
455.10583080108267
 11
573.51795824097337
 21
455.10583080108267
  0
LINE
  8
_0-0_計極細
  6
CONTINUOUS
 62
    2
 10
323.51795824097337
 20
450.10583080108267
 11
573.51795824097337
 21
450.10583080108267
  0
LINE
  8
_0-1_計細線
  6
CONTINUOUS
 62
    3
 10
323.51795824097337
 20
429.60583080108222
 11
573.51795824097337
 21
429.60583080108222
  0
LINE
  8
_0-1_計細線
  6
CONTINUOUS
 62
    3
 10
323.51795824097337
 20
441.00583080108277
 11
573.51795824097337
 21
441.00583080108277
  0
LINE
  8
_0-1_計細線
  6
CONTINUOUS
 62
    3
 10
323.51795824097337
 20
429.60583080108222
 11
323.51795824097337
 21
441.00583080108277
  0
LINE
  8
_0-1_計細線
  6
CONTINUOUS
 62
    3
 10
573.51795824097337
 20
429.60583080108222
 11
573.51795824097337
 21
441.00583080108277
  0
LINE
  8
_0-0_計極細
  6
CONTINUOUS
 62
    2
 10
323.51795824097337
 20
437.80583080108249
 11
573.51795824097337
 21
437.80583080108249
  0
LINE
  8
_0-0_計極細
  6
CONTINUOUS
 62
    2
 10
323.51795824097337
 20
432.80583080108249
 11
573.51795824097337
 21
432.80583080108249
  0
LINE
  8
_0-1_計細線
  6
CONTINUOUS
 62
    3
 10
323.51795824097337
 20
611.30583080108204
 11
573.51795824097337
 21
611.30583080108204
  0
LINE
  8
_0-1_計細線
  6
CONTINUOUS
 62
    3
 10
323.51795824097337
 20
599.90583080108149
 11
573.51795824097337
 21
599.90583080108149
  0
LINE
  8
_0-1_計細線
  6
CONTINUOUS
 62
    3
 10
323.51795824097337
 20
611.30583080108204
 11
323.51795824097337
 21
599.90583080108149
  0
LINE
  8
_0-1_計細線
  6
CONTINUOUS
 62
    3
 10
573.51795824097337
 20
611.30583080108204
 11
573.51795824097337
 21
599.90583080108149
  0
LINE
  8
_0-0_計極細
  6
CONTINUOUS
 62
    2
 10
323.51795824097337
 20
603.10583080108222
 11
573.51795824097337
 21
603.10583080108222
  0
LINE
  8
_0-0_計極細
  6
CONTINUOUS
 62
    2
 10
323.51795824097337
 20
608.10583080108222
 11
573.51795824097337
 21
608.10583080108222
  0
LINE
  8
_0-1_計細線
  6
CONTINUOUS
 62
    3
 10
323.51795824097337
 20
628.30583080108295
 11
573.51795824097337
 21
628.30583080108295
  0
LINE
  8
_0-1_計細線
  6
CONTINUOUS
 62
    3
 10
323.51795824097337
 20
616.9058308010824
 11
573.51795824097337
 21
616.9058308010824
  0
LINE
  8
_0-1_計細線
  6
CONTINUOUS
 62
    3
 10
323.51795824097337
 20
628.30583080108295
 11
323.51795824097337
 21
616.9058308010824
  0
LINE
  8
_0-1_計細線
  6
CONTINUOUS
 62
    3
 10
573.51795824097337
 20
628.30583080108295
 11
573.51795824097337
 21
616.9058308010824
  0
LINE
  8
_0-0_計極細
  6
CONTINUOUS
 62
    2
 10
323.51795824097337
 20
620.10583080108267
 11
573.51795824097337
 21
620.10583080108267
  0
LINE
  8
_0-0_計極細
  6
CONTINUOUS
 62
    2
 10
323.51795824097337
 20
625.10583080108267
 11
573.51795824097337
 21
625.10583080108267
  0
LINE
  8
_0-1_計細線
  6
CONTINUOUS
 62
    3
 10
323.51795824097337
 20
645.30583080108386
 11
573.51795824097337
 21
645.30583080108386
  0
LINE
  8
_0-1_計細線
  6
CONTINUOUS
 62
    3
 10
323.51795824097337
 20
633.90583080108331
 11
573.51795824097337
 21
633.90583080108331
  0
LINE
  8
_0-1_計細線
  6
CONTINUOUS
 62
    3
 10
323.51795824097337
 20
645.30583080108386
 11
323.51795824097337
 21
633.90583080108331
  0
LINE
  8
_0-1_計細線
  6
CONTINUOUS
 62
    3
 10
573.51795824097337
 20
645.30583080108386
 11
573.51795824097337
 21
633.90583080108331
  0
LINE
  8
_0-0_計極細
  6
CONTINUOUS
 62
    2
 10
323.51795824097337
 20
637.10583080108313
 11
573.51795824097337
 21
637.10583080108313
  0
LINE
  8
_0-0_計極細
  6
CONTINUOUS
 62
    2
 10
323.51795824097337
 20
642.10583080108324
 11
573.51795824097337
 21
642.10583080108324
  0
LINE
  8
_0-1_計細線
  6
CONTINUOUS
 62
    3
 10
323.51795824097337
 20
497.9058308010824
 11
573.51795824097337
 21
497.9058308010824
  0
LINE
  8
_0-1_計細線
  6
CONTINUOUS
 62
    3
 10
323.51795824097337
 20
509.305830801083
 11
573.51795824097337
 21
509.305830801083
  0
LINE
  8
_0-1_計細線
  6
CONTINUOUS
 62
    3
 10
323.51795824097337
 20
497.9058308010824
 11
323.51795824097337
 21
509.305830801083
  0
LINE
  8
_0-1_計細線
  6
CONTINUOUS
 62
    3
 10
573.51795824097337
 20
497.9058308010824
 11
573.51795824097337
 21
509.305830801083
  0
LINE
  8
_0-0_計極細
  6
CONTINUOUS
 62
    2
 10
323.51795824097337
 20
506.10583080108228
 11
573.51795824097337
 21
506.10583080108228
  0
LINE
  8
_0-0_計極細
  6
CONTINUOUS
 62
    2
 10
323.51795824097337
 20
501.10583080108228
 11
573.51795824097337
 21
501.10583080108228
  0
LINE
  8
_0-1_計細線
  6
CONTINUOUS
 62
    3
 10
323.51795824097337
 20
480.90583080108155
 11
573.51795824097337
 21
480.90583080108155
  0
LINE
  8
_0-1_計細線
  6
CONTINUOUS
 62
    3
 10
323.51795824097337
 20
492.30583080108204
 11
573.51795824097337
 21
492.30583080108204
  0
LINE
  8
_0-1_計細線
  6
CONTINUOUS
 62
    3
 10
323.51795824097337
 20
480.90583080108155
 11
323.51795824097337
 21
492.30583080108204
  0
LINE
  8
_0-1_計細線
  6
CONTINUOUS
 62
    3
 10
573.51795824097337
 20
480.90583080108155
 11
573.51795824097337
 21
492.30583080108204
  0
LINE
  8
_0-0_計極細
  6
CONTINUOUS
 62
    2
 10
323.51795824097337
 20
489.10583080108182
 11
573.51795824097337
 21
489.10583080108182
  0
LINE
  8
_0-0_計極細
  6
CONTINUOUS
 62
    2
 10
323.51795824097337
 20
484.10583080108182
 11
573.51795824097337
 21
484.10583080108182
  0
LINE
  8
_0-1_計細線
  6
CONTINUOUS
 62
    3
 10
323.51795824097337
 20
463.90583080108058
 11
573.51795824097337
 21
463.90583080108058
  0
LINE
  8
_0-1_計細線
  6
CONTINUOUS
 62
    3
 10
323.51795824097337
 20
475.30583080108113
 11
573.51795824097337
 21
475.30583080108113
  0
LINE
  8
_0-1_計細線
  6
CONTINUOUS
 62
    3
 10
323.51795824097337
 20
463.90583080108058
 11
323.51795824097337
 21
475.30583080108113
  0
LINE
  8
_0-1_計細線
  6
CONTINUOUS
 62
    3
 10
573.51795824097337
 20
463.90583080108058
 11
573.51795824097337
 21
475.30583080108113
  0
LINE
  8
_0-0_計極細
  6
CONTINUOUS
 62
    2
 10
323.51795824097337
 20
472.10583080108137
 11
573.51795824097337
 21
472.10583080108137
  0
LINE
  8
_0-0_計極細
  6
CONTINUOUS
 62
    2
 10
323.51795824097337
 20
467.10583080108137
 11
573.51795824097337
 21
467.10583080108137
  0
LINE
  8
_0-1_計細線
  6
CONTINUOUS
 62
    3
 10
323.51795824097337
 20
577.30583080108113
 11
573.51795824097337
 21
577.30583080108113
  0
LINE
  8
_0-1_計細線
  6
CONTINUOUS
 62
    3
 10
573.51795824097337
 20
577.30583080108113
 11
573.51795824097337
 21
565.90583080108058
  0
LINE
  8
_0-0_計極細
  6
CONTINUOUS
 62
    2
 10
323.51795824097337
 20
569.1058308010804
 11
573.51795824097337
 21
569.1058308010804
  0
LINE
  8
_0-0_計極細
  6
CONTINUOUS
 62
    2
 10
323.51795824097337
 20
574.1058308010804
 11
573.51795824097337
 21
574.1058308010804
  0
LINE
  8
_0-1_計細線
  6
CONTINUOUS
 62
    3
 10
323.51795824097337
 20
565.90583080108058
 11
573.51795824097337
 21
565.90583080108058
  0
LINE
  8
_0-1_計細線
  6
CONTINUOUS
 62
    3
 10
323.51795824097337
 20
577.30583080108113
 11
323.51795824097337
 21
565.90583080108058
  0
LINE
  8
_0-1_計細線
  6
CONTINUOUS
 62
    3
 10
323.51795824097337
 20
548.90583080107967
 11
573.51795824097337
 21
548.90583080107967
  0
LINE
  8
_0-1_計細線
  6
CONTINUOUS
 62
    3
 10
573.51795824097337
 20
560.30583080108022
 11
573.51795824097337
 21
548.90583080107967
  0
LINE
  8
_0-0_計極細
  6
CONTINUOUS
 62
    2
 10
323.51795824097337
 20
552.10583080107995
 11
573.51795824097337
 21
552.10583080107995
  0
LINE
  8
_0-0_計極細
  6
CONTINUOUS
 62
    2
 10
323.51795824097337
 20
557.10583080107995
 11
573.51795824097337
 21
557.10583080107995
  0
LINE
  8
_0-1_計細線
  6
CONTINUOUS
 62
    3
 10
323.51795824097337
 20
560.30583080108022
 11
323.51795824097337
 21
548.90583080107967
  0
LINE
  8
_0-1_計細線
  6
CONTINUOUS
 62
    3
 10
323.51795824097337
 20
560.30583080108022
 11
573.51795824097337
 21
560.30583080108022
  0
LINE
  8
_0-0_計極細
  6
CENTER2
 62
    2
 10
307.62935870395467
 20
554.60583080108199
 11
591.21663524827466
 21
554.60583080108199
  0
LINE
  8
_0-5_寸法線
  6
CONTINUOUS
 62
    7
 10
323.51795824097275
 20
694.60583080108211
 11
323.51795824097275
 21
739.60583080108211
  0
LINE
  8
_0-5_寸法線
  6
CONTINUOUS
 62
    7
 10
323.51795824097275
 20
734.60583080108211
 11
333.17721650386341
 21
737.19402125210718
  0
LINE
  8
_0-5_寸法線
  6
CONTINUOUS
 62
    7
 10
323.51795824097275
 20
734.60583080108211
 11
333.17721650386341
 21
732.01764035005681
  0
LINE
  8
_0-5_寸法線
  6
CONTINUOUS
 62
    7
 10
330.51795824097269
 20
694.60583080108211
 11
330.51795824097269
 21
739.60583080108211
  0
LINE
  8
_0-5_寸法線
  6
CONTINUOUS
 62
    7
 10
330.51795824097269
 20
734.60583080108211
 11
320.85869997808197
 21
732.01764035005681
  0
LINE
  8
_0-5_寸法線
  6
CONTINUOUS
 62
    7
 10
330.51795824097269
 20
734.60583080108211
 11
320.85869997808203
 21
737.19402125210718
  0
LINE
  8
_0-5_寸法線
  6
CONTINUOUS
 62
    7
 10
323.51795824097275
 20
734.60583080108211
 11
330.51795824097269
 21
734.60583080108211
  0
TEXT
  8
_0-5_寸法線
 62
    7
 10
323.26795824097269
 20
734.60583080108199
 40
15
 41
1
 50
0
  1
7
  0
LINE
  8
_0-5_寸法線
  6
CONTINUOUS
 62
    7
 10
330.51795824097269
 20
734.60583080108211
 11
340.17721650386341
 21
737.19402125210718
  0
LINE
  8
_0-5_寸法線
  6
CONTINUOUS
 62
    7
 10
330.51795824097269
 20
734.60583080108211
 11
340.17721650386335
 21
732.01764035005669
  0
LINE
  8
_0-5_寸法線
  6
CONTINUOUS
 62
    7
 10
427.51795824097348
 20
694.60583080108211
 11
427.51795824097348
 21
739.60583080108211
  0
LINE
  8
_0-5_寸法線
  6
CONTINUOUS
 62
    7
 10
427.51795824097348
 20
734.60583080108211
 11
417.85869997808277
 21
732.01764035005681
  0
LINE
  8
_0-5_寸法線
  6
CONTINUOUS
 62
    7
 10
427.51795824097348
 20
734.60583080108211
 11
417.85869997808283
 21
737.19402125210718
  0
LINE
  8
_0-5_寸法線
  6
CONTINUOUS
 62
    7
 10
330.51795824097269
 20
734.60583080108211
 11
427.51795824097348
 21
734.60583080108211
  0
TEXT
  8
_0-5_寸法線
 62
    7
 10
371.51795824097303
 20
734.60583080108199
 40
15
 41
1
 50
0
  1
97
  0
LINE
  8
_0-5_寸法線
  6
CONTINUOUS
 62
    7
 10
427.51795824097348
 20
734.60583080108211
 11
437.1772165038642
 21
737.19402125210718
  0
LINE
  8
_0-5_寸法線
  6
CONTINUOUS
 62
    7
 10
427.51795824097348
 20
734.60583080108211
 11
437.17721650386414
 21
732.01764035005669
  0
LINE
  8
_0-5_寸法線
  6
CONTINUOUS
 62
    7
 10
469.51795824097354
 20
694.60583080108211
 11
469.51795824097354
 21
739.60583080108211
  0
LINE
  8
_0-5_寸法線
  6
CONTINUOUS
 62
    7
 10
469.51795824097354
 20
734.60583080108211
 11
459.85869997808277
 21
732.01764035005681
  0
LINE
  8
_0-5_寸法線
  6
CONTINUOUS
 62
    7
 10
469.51795824097354
 20
734.60583080108211
 11
459.85869997808288
 21
737.19402125210718
  0
LINE
  8
_0-5_寸法線
  6
CONTINUOUS
 62
    7
 10
427.51795824097348
 20
734.60583080108211
 11
469.51795824097354
 21
734.60583080108211
  0
TEXT
  8
_0-5_寸法線
 62
    7
 10
441.01795824097348
 20
734.60583080108199
 40
15
 41
1
 50
0
  1
42
  0
LINE
  8
_0-5_寸法線
  6
CONTINUOUS
 62
    7
 10
469.51795824097354
 20
734.60583080108211
 11
479.17721650386426
 21
737.19402125210718
  0
LINE
  8
_0-5_寸法線
  6
CONTINUOUS
 62
    7
 10
469.51795824097354
 20
734.60583080108211
 11
479.1772165038642
 21
732.01764035005669
  0
LINE
  8
_0-5_寸法線
  6
CONTINUOUS
 62
    7
 10
566.51795824097269
 20
694.60583080108211
 11
566.51795824097269
 21
739.60583080108211
  0
LINE
  8
_0-5_寸法線
  6
CONTINUOUS
 62
    7
 10
566.51795824097269
 20
734.60583080108211
 11
556.85869997808197
 21
732.01764035005681
  0
LINE
  8
_0-5_寸法線
  6
CONTINUOUS
 62
    7
 10
566.51795824097269
 20
734.60583080108211
 11
556.85869997808197
 21
737.19402125210718
  0
LINE
  8
_0-5_寸法線
  6
CONTINUOUS
 62
    7
 10
469.51795824097354
 20
734.60583080108211
 11
566.51795824097269
 21
734.60583080108211
  0
TEXT
  8
_0-5_寸法線
 62
    7
 10
510.51795824097303
 20
734.60583080108199
 40
15
 41
1
 50
0
  1
97
  0
LINE
  8
_0-5_寸法線
  6
CONTINUOUS
 62
    7
 10
566.51795824097269
 20
734.60583080108211
 11
576.17721650386341
 21
737.19402125210718
  0
LINE
  8
_0-5_寸法線
  6
CONTINUOUS
 62
    7
 10
566.51795824097269
 20
734.60583080108211
 11
576.17721650386341
 21
732.01764035005669
  0
LINE
  8
_0-5_寸法線
  6
CONTINUOUS
 62
    7
 10
573.51795824097269
 20
694.60583080108211
 11
573.51795824097292
 21
739.60583080108211
  0
LINE
  8
_0-5_寸法線
  6
CONTINUOUS
 62
    7
 10
573.51795824097292
 20
734.60583080108211
 11
563.8586999780822
 21
732.01764035005681
  0
LINE
  8
_0-5_寸法線
  6
CONTINUOUS
 62
    7
 10
573.51795824097292
 20
734.60583080108211
 11
563.8586999780822
 21
737.19402125210718
  0
LINE
  8
_0-5_寸法線
  6
CONTINUOUS
 62
    7
 10
566.51795824097269
 20
734.60583080108211
 11
573.51795824097292
 21
734.60583080108211
  0
TEXT
  8
_0-5_寸法線
 62
    7
 10
566.26795824097269
 20
734.60583080108199
 40
15
 41
1
 50
0
  1
7
  0
LINE
  8
_0-5_寸法線
  6
CONTINUOUS
 62
    7
 10
406.92164252521081
 20
563.06834520130815
 11
398.94229898072035
 21
569.09578882186554
  0
LINE
  8
_0-5_寸法線
  6
CONTINUOUS
 62
    7
 10
406.92164252521081
 20
563.06834520130815
 11
403.02505012043741
 21
572.27793626883454
  0
LINE
  8
_0-5_寸法線
  6
CONTINUOUS
 62
    7
 10
406.92164252521081
 20
563.06834520130815
 11
263.66284941912159
 21
746.87189628612032
  0
LINE
  8
_0-5_寸法線
  6
CONTINUOUS
 62
    7
 10
263.66284941912159
 20
746.87189628612032
 11
203.66284941912156
 21
746.87189628612032
  0
TEXT
  8
_0-5_寸法線
 62
    7
 10
203.66284941912156
 20
746.87189628612032
 40
15
 41
0.8000000000000001
 50
0
  1
取　外　具
  0
TEXT
  8
_0-5_寸法線
 62
    7
 10
199.55539651822306
 20
729.44299622973529
 40
15
 41
0.8000000000000001
 50
0
  1
(標準付属)
  0
TEXT
  8
_0-7_枠細線
 62
    5
 10
202.74854395369388
 20
763.38164999164655
 40
12.5
 41
0.8
 50
0
  1
２
  0
LINE
  8
_0-7_枠細線
  6
CONTINUOUS
 62
    5
 10
215.3833926855458
 20
763.6886522370271
 11
207.8833926855458
 21
778.6886522370271
  0
LINE
  8
_0-7_枠細線
  6
CONTINUOUS
 62
    5
 10
200.3833926855458
 20
763.6886522370271
 11
215.3833926855458
 21
763.6886522370271
  0
LINE
  8
_0-7_枠細線
  6
CONTINUOUS
 62
    5
 10
207.8833926855458
 20
778.6886522370271
 11
200.3833926855458
 21
763.6886522370271
  0
TEXT
  8
_0-7_枠細線
 62
    5
 10
221.64043778157009
 20
763.08850726958053
 40
12.5
 41
0.8
 50
0
  1
３
  0
LINE
  8
_0-7_枠細線
  6
CONTINUOUS
 62
    5
 10
226.775286513422
 20
778.63619115976189
 11
219.275286513422
 21
763.63619115976189
  0
LINE
  8
_0-7_枠細線
  6
CONTINUOUS
 62
    5
 10
219.275286513422
 20
763.63619115976189
 11
234.275286513422
 21
763.63619115976189
  0
LINE
  8
_0-7_枠細線
  6
CONTINUOUS
 62
    5
 10
234.275286513422
 20
763.63619115976189
 11
226.775286513422
 21
778.63619115976189
  0
LINE
  8
_0-7_枠細線
  6
CONTINUOUS
 62
    5
 10
589.62302206321681
 20
753.92835803928324
 11
582.12302206321681
 21
738.92835803928324
  0
LINE
  8
_0-7_枠細線
  6
CONTINUOUS
 62
    5
 10
582.12302206321681
 20
738.92835803928324
 11
597.12302206321681
 21
738.92835803928324
  0
LINE
  8
_0-7_枠細線
  6
CONTINUOUS
 62
    5
 10
597.12302206321681
 20
738.92835803928324
 11
589.62302206321681
 21
753.92835803928324
  0
TEXT
  8
_0-7_枠細線
 62
    5
 10
586.98817333136492
 20
738.38067414910188
 40
12.5
 41
0.8
 50
0
  1
1
  0
LINE
  8
_0-5_寸法線
  6
CONTINUOUS
 62
    7
 10
318.51795824097269
 20
694.60583080108211
 11
318.51795824097286
 21
844.60583080108211
  0
LINE
  8
_0-5_寸法線
  6
CONTINUOUS
 62
    7
 10
318.51795824097286
 20
839.60583080108211
 11
328.17721650386352
 21
842.19402125210718
  0
LINE
  8
_0-5_寸法線
  6
CONTINUOUS
 62
    7
 10
318.51795824097286
 20
839.60583080108211
 11
328.17721650386352
 21
837.01764035005681
  0
LINE
  8
_0-5_寸法線
  6
CONTINUOUS
 62
    7
 10
578.51795824097314
 20
694.60583080108211
 11
578.51795824097371
 21
844.60583080108211
  0
LINE
  8
_0-5_寸法線
  6
CONTINUOUS
 62
    7
 10
578.51795824097371
 20
839.60583080108211
 11
568.85869997808288
 21
837.01764035005681
  0
LINE
  8
_0-5_寸法線
  6
CONTINUOUS
 62
    7
 10
578.51795824097371
 20
839.60583080108211
 11
568.85869997808288
 21
842.19402125210718
  0
LINE
  8
_0-5_寸法線
  6
CONTINUOUS
 62
    7
 10
318.51795824097286
 20
839.60583080108211
 11
578.51795824097371
 21
839.60583080108211
  0
TEXT
  8
_0-5_寸法線
 62
    7
 10
437.26795824097303
 20
839.60583080108199
 40
15
 41
1
 50
0
  1
260
  0
LINE
  8
_0-5_寸法線
  6
CONTINUOUS
 62
    7
 10
318.51795824097269
 20
804.60583080108211
 11
308.85869997808197
 21
802.01764035005681
  0
LINE
  8
_0-5_寸法線
  6
CONTINUOUS
 62
    7
 10
318.51795824097269
 20
804.60583080108211
 11
308.85869997808197
 21
807.19402125210718
  0
LINE
  8
_0-5_寸法線
  6
CONTINUOUS
 62
    7
 10
321.51795824097269
 20
694.60583080108211
 11
321.51795824097269
 21
809.60583080108211
  0
LINE
  8
_0-5_寸法線
  6
CONTINUOUS
 62
    7
 10
293.51795824097269
 20
804.60583080108211
 11
321.51795824097269
 21
804.60583080108211
  0
TEXT
  8
_0-5_寸法線
 62
    7
 10
297.41188198170573
 20
804.60583080108199
 40
15
 41
1
 50
0
  1
3
  0
LINE
  8
_0-5_寸法線
  6
CONTINUOUS
 62
    7
 10
321.51795824097269
 20
804.60583080108211
 11
331.17721650386341
 21
807.19402125210718
  0
LINE
  8
_0-5_寸法線
  6
CONTINUOUS
 62
    7
 10
321.51795824097269
 20
804.60583080108211
 11
331.17721650386335
 21
802.01764035005681
  0
LINE
  8
_0-5_寸法線
  6
CONTINUOUS
 62
    7
 10
575.51795824097314
 20
694.60583080108211
 11
575.51795824097326
 21
809.60583080108211
  0
LINE
  8
_0-5_寸法線
  6
CONTINUOUS
 62
    7
 10
575.51795824097326
 20
804.60583080108211
 11
565.85869997808254
 21
802.01764035005681
  0
LINE
  8
_0-5_寸法線
  6
CONTINUOUS
 62
    7
 10
575.51795824097326
 20
804.60583080108211
 11
565.85869997808254
 21
807.19402125210718
  0
LINE
  8
_0-5_寸法線
  6
CONTINUOUS
 62
    7
 10
321.51795824097269
 20
804.60583080108211
 11
575.51795824097326
 21
804.60583080108211
  0
TEXT
  8
_0-5_寸法線
 62
    7
 10
437.26795824097286
 20
804.60583080108199
 40
15
 41
1
 50
0
  1
254
  0
LINE
  8
_0-5_寸法線
  6
CONTINUOUS
 62
    7
 10
578.51795824097326
 20
804.60583080108211
 11
588.17721650386397
 21
807.19402125210718
  0
LINE
  8
_0-5_寸法線
  6
CONTINUOUS
 62
    7
 10
578.51795824097326
 20
804.60583080108211
 11
588.17721650386397
 21
802.01764035005681
  0
LINE
  8
_0-5_寸法線
  6
CONTINUOUS
 62
    7
 10
575.51795824097326
 20
804.60583080108211
 11
603.51795824097326
 21
804.60583080108211
  0
TEXT
  8
_0-5_寸法線
 62
    7
 10
592.68560460944286
 20
804.60583080108211
 40
15
 41
1
 50
0
  1
3
  0
LINE
  8
_0-5_寸法線
  6
CONTINUOUS
 62
    7
 10
323.51795824097337
 20
694.60583080108211
 11
323.51795824097348
 21
774.60583080108211
  0
LINE
  8
_0-5_寸法線
  6
CONTINUOUS
 62
    7
 10
323.51795824097348
 20
769.60583080108211
 11
333.1772165038642
 21
772.19402125210718
  0
LINE
  8
_0-5_寸法線
  6
CONTINUOUS
 62
    7
 10
323.51795824097348
 20
769.60583080108211
 11
333.1772165038642
 21
767.01764035005681
  0
LINE
  8
_0-5_寸法線
  6
CONTINUOUS
 62
    7
 10
573.51795824097337
 20
694.60583080108211
 11
573.51795824097348
 21
774.60583080108211
  0
LINE
  8
_0-5_寸法線
  6
CONTINUOUS
 62
    7
 10
573.51795824097348
 20
769.60583080108211
 11
563.85869997808277
 21
767.01764035005681
  0
LINE
  8
_0-5_寸法線
  6
CONTINUOUS
 62
    7
 10
573.51795824097348
 20
769.60583080108211
 11
563.85869997808277
 21
772.19402125210718
  0
LINE
  8
_0-5_寸法線
  6
CONTINUOUS
 62
    7
 10
323.51795824097348
 20
769.60583080108211
 11
573.51795824097348
 21
769.60583080108211
  0
TEXT
  8
_0-5_寸法線
 62
    7
 10
437.26795824097348
 20
769.60583080108211
 40
15
 41
1
 50
0
  1
250
  0
LINE
  8
_0-5_寸法線
  6
CONTINUOUS
 62
    7
 10
959.99999999965803
 20
686.16000000000088
 11
959.99999999965826
 21
731.16000000000088
  0
LINE
  8
_0-5_寸法線
  6
CONTINUOUS
 62
    7
 10
959.99999999965826
 20
726.16000000000088
 11
969.65925826254886
 21
728.74819045102618
  0
LINE
  8
_0-5_寸法線
  6
CONTINUOUS
 62
    7
 10
959.99999999965826
 20
726.16000000000088
 11
969.65925826254886
 21
723.57180954897569
  0
LINE
  8
_0-5_寸法線
  6
CONTINUOUS
 62
    7
 10
1210.0000000003456
 20
686.16000000000088
 11
1210.0000000003456
 21
731.16000000000088
  0
LINE
  8
_0-5_寸法線
  6
CONTINUOUS
 62
    7
 10
1210.0000000003456
 20
726.16000000000088
 11
1200.3407417374549
 21
723.57180954897569
  0
LINE
  8
_0-5_寸法線
  6
CONTINUOUS
 62
    7
 10
1210.0000000003456
 20
726.16000000000088
 11
1200.3407417374549
 21
728.74819045102618
  0
LINE
  8
_0-5_寸法線
  6
CONTINUOUS
 62
    7
 10
959.99999999965826
 20
726.16000000000088
 11
1210.0000000003456
 21
726.16000000000088
  0
TEXT
  8
_0-5_寸法線
 62
    7
 10
1073.7500000000018
 20
726.16000000000088
 40
15
 41
1
 50
0
  1
250
  0
LINE
  8
_0-5_寸法線
  6
CONTINUOUS
 62
    7
 10
955.00000000000364
 20
761.16000000000088
 11
945.34074173711304
 21
758.57180954897569
  0
LINE
  8
_0-5_寸法線
  6
CONTINUOUS
 62
    7
 10
955.00000000000364
 20
761.16000000000088
 11
945.34074173711304
 21
763.74819045102618
  0
LINE
  8
_0-5_寸法線
  6
CONTINUOUS
 62
    7
 10
958.00000000000364
 20
680.66000000000008
 11
958.00000000000364
 21
766.16000000000088
  0
LINE
  8
_0-5_寸法線
  6
CONTINUOUS
 62
    7
 10
930.00000000000364
 20
761.16000000000088
 11
958.00000000000364
 21
761.16000000000088
  0
TEXT
  8
_0-5_寸法線
 62
    7
 10
935.09699652089671
 20
761.16000000000088
 40
15
 41
1
 50
0
  1
3
  0
LINE
  8
_0-5_寸法線
  6
CONTINUOUS
 62
    7
 10
958.00000000000364
 20
761.16000000000088
 11
967.65925826289447
 21
763.74819045102618
  0
LINE
  8
_0-5_寸法線
  6
CONTINUOUS
 62
    7
 10
958.00000000000364
 20
761.16000000000088
 11
967.65925826289447
 21
758.57180954897569
  0
LINE
  8
_0-5_寸法線
  6
CONTINUOUS
 62
    7
 10
1212.0000000000036
 20
680.66000000000008
 11
1212.0000000000036
 21
766.16000000000088
  0
LINE
  8
_0-5_寸法線
  6
CONTINUOUS
 62
    7
 10
1212.0000000000036
 20
761.16000000000088
 11
1202.3407417371129
 21
758.57180954897569
  0
LINE
  8
_0-5_寸法線
  6
CONTINUOUS
 62
    7
 10
1212.0000000000036
 20
761.16000000000088
 11
1202.3407417371129
 21
763.74819045102618
  0
LINE
  8
_0-5_寸法線
  6
CONTINUOUS
 62
    7
 10
958.00000000000364
 20
761.16000000000088
 11
1212.0000000000036
 21
761.16000000000088
  0
TEXT
  8
_0-5_寸法線
 62
    7
 10
1073.7500000000036
 20
761.16000000000088
 40
15
 41
1
 50
0
  1
254
  0
LINE
  8
_0-5_寸法線
  6
CONTINUOUS
 62
    7
 10
1215.0000000000036
 20
761.16000000000088
 11
1224.6592582628944
 21
763.74819045102618
  0
LINE
  8
_0-5_寸法線
  6
CONTINUOUS
 62
    7
 10
1215.0000000000036
 20
761.16000000000088
 11
1224.6592582628944
 21
758.57180954897558
  0
LINE
  8
_0-5_寸法線
  6
CONTINUOUS
 62
    7
 10
1212.0000000000036
 20
761.16000000000088
 11
1240.0000000000036
 21
761.16000000000088
  0
TEXT
  8
_0-5_寸法線
 62
    7
 10
1228.8337419200143
 20
761.16000000000088
 40
15
 41
1
 50
0
  1
3
  0
LINE
  8
_0-5_寸法線
  6
CONTINUOUS
 62
    7
 10
557.14829077295076
 20
570.2676120432759
 11
564.70824614201501
 21
576.81337974597943
  0
LINE
  8
_0-5_寸法線
  6
CONTINUOUS
 62
    7
 10
557.14829077295076
 20
570.2676120432759
 11
566.9682880253888
 21
572.15643547655679
  0
LINE
  8
_0-5_寸法線
  6
CONTINUOUS
 62
    7
 10
557.14829077295076
 20
570.2676120432759
 11
618.83439759736973
 21
600.20423506898715
  0
LINE
  8
_0-5_寸法線
  6
CONTINUOUS
 62
    7
 10
618.83439759736973
 20
600.20423506898715
 11
750.83439759736984
 21
600.20423506898715
  0
TEXT
  8
_0-5_寸法線
 62
    7
 10
618.83439759736984
 20
600.20423506898715
 40
15
 41
0.8000000000000001
 50
0
  1
セーフティグレーチング
  0
ENDSEC
  0
EOF
