  0
SECTION
  2
HEADER
  9
$ACADVER
  1
AC1009
  9
$INSBASE
 10
0
 20
0
 30
0
  9
$EXTMIN
 10
0
 20
0
  9
$EXTMAX
 10
2376
 20
1680
  9
$LIMMIN
 10
0
 20
0
  9
$LIMMAX
 10
2376
 20
1680
  9
$LTSCALE
 40
8
  0
ENDSEC
  0
SECTION
  2
TABLES
  0
TABLE
  2
LTYPE
 70
     9
  0
LTYPE
  2
CONTINUOUS
 70
    64
  3
実線
 72
    65
 73
     0
 40
0.0
  0
LTYPE
  2
DASHED1
 70
    64
  3
--  --  --  --  --  --  --  --  
 72
    65
 73
     2
 40
2.5
 49
1.25
 49
-1.25
  0
LTYPE
  2
DASHED2
 70
    64
  3
----    ----    ----    ----    
 72
    65
 73
     2
 40
5.0
 49
2.5
 49
-2.5
  0
LTYPE
  2
DASHED3
 70
    64
  3
------  ------  ------  ------  
 72
    65
 73
     2
 40
5.0
 49
3.75
 49
-1.25
  0
LTYPE
  2
CENTER1
 70
    64
  3
----- - ----- - ----- - ----- - 
 72
    65
 73
     4
 40
10.0
 49
6.25
 49
-1.25
 49
1.25
 49
-1.25
  0
LTYPE
  2
CENTER2
 70
    64
  3
----------  --  ----------  --  
 72
    65
 73
     4
 40
20.0
 49
12.5
 49
-2.5
 49
2.5
 49
-2.5
  0
LTYPE
  2
PHANTOM1
 70
    64
  3
--- - - --- - - --- - - --- - - 
 72
    65
 73
     6
 40
10.0
 49
3.25
 49
-1.25
 49
1.25
 49
-1.25
 49
1.25
 49
-1.25
  0
LTYPE
  2
PHANTOM2
 70
    64
  3
--------  -  -  --------  -  -  
 72
    65
 73
     6
 40
20.0
 49
10.0
 49
-2.5
 49
1.25
 49
-2.5
 49
1.25
 49
-2.5
  0
LTYPE
  2
DOT
 70
    64
  3
-   -   -   -   -   -   -   -   
 72
    65
 73
     2
 40
2.5
 49
0.625
 49
-1.875
  0
LTYPE
  2
DUMMY
 70
    64
  3
ダミー
 72
    65
 73
     0
 40
0.0
  0
LTYPE
  2
RAND1
 70
    64
  3
ランダム線1
 72
    65
 73
     4
 40
10.0
 49
1.0
 49
-2.0
 49
3.0
 49
-4.0
  0
LTYPE
  2
RAND2
 70
    64
  3
ランダム線2
 72
    65
 73
     4
 40
14.0
 49
2.0
 49
-3.0
 49
4.0
 49
-5.0
  0
LTYPE
  2
RAND3
 70
    64
  3
ランダム線3
 72
    65
 73
     4
 40
18.0
 49
3.0
 49
-4.0
 49
5.0
 49
-6.0
  0
LTYPE
  2
RAND4
 70
    64
  3
ランダム線4
 72
    65
 73
     4
 40
22.0
 49
4.0
 49
-5.0
 49
6.0
 49
-7.0
  0
LTYPE
  2
RAND5
 70
    64
  3
ランダム線5
 72
    65
 73
     4
 40
26.0
 49
5.0
 49
-6.0
 49
7.0
 49
-8.0
  0
LTYPE
  2
LONG1
 70
    64
  3
----------  --  ----------  --  
 72
    65
 73
     4
 40
40.0
 49
32.5
 49
-2.5
 49
2.5
 49
-2.5
  0
LTYPE
  2
LONG2
 70
    64
  3
--------  -  -  --------  -  -  
 72
    65
 73
     6
 40
40.0
 49
30.0
 49
-2.5
 49
1.25
 49
-2.5
 49
1.25
 49
-2.5
  0
LTYPE
  2
LONG3
 70
    64
  3
+++++++++++++++..+++++++++++++++
 72
    65
 73
     2
 40
40.0
 49
37.5
 49
-2.5
  0
LTYPE
  2
LONG4
 70
    64
  3
+++++++++++++++..+++++++++++++++
 72
    65
 73
     2
 40
80.0
 49
75.0
 49
-5.0
  0
LTYPE
  2
LONG5
 70
    64
  3
----------  --  ----------  --  
 72
    65
 73
     4
 40
60.0
 49
37.5
 49
-7.5
 49
7.5
 49
-7.5
  0
LTYPE
  2
dashed
 70
   64
  3
-------   -------------   ------
 72
   65
 73
    2
 40
7.5
 49
6
 49
-1.5
  0
LTYPE
  2
dashed_spaced
 70
   64
  3
----        --------        ----
 72
   65
 73
    2
 40
12
 49
6
 49
-6
  0
LTYPE
  2
long_dashed_dotted
 70
   64
  3
------------- --- --------------
 72
   65
 73
    4
 40
15.25
 49
12
 49
-1.5
 49
0.25
 49
-1.5
  0
LTYPE
  2
long_dashed_double-dotted
 70
   64
  3
----------- --- --- ------------
 72
   65
 73
    6
 40
17
 49
12
 49
-1.5
 49
0.25
 49
-1.5
 49
0.25
 49
-1.5
  0
LTYPE
  2
long_dashed_triplicate-dotted
 70
   64
  3
--------- --- --- --- ----------
 72
   65
 73
    8
 40
18.75
 49
12
 49
-1.5
 49
0.25
 49
-1.5
 49
0.25
 49
-1.5
 49
0.25
 49
-1.5
  0
LTYPE
  2
dotted
 70
   64
  3
   -       -       -       -    
 72
   65
 73
    2
 40
1.75
 49
0.25
 49
-1.5
  0
LTYPE
  2
chain
 70
   64
  3
-------------- -- --------------
 72
   65
 73
    4
 40
18.5
 49
12
 49
-1.5
 49
3.5
 49
-1.5
  0
LTYPE
  2
chain_double_dash
 70
   64
  3
------------ -- -- -------------
 72
   65
 73
    6
 40
23.5
 49
12
 49
-1.5
 49
3.5
 49
-1.5
 49
3.5
 49
-1.5
  0
LTYPE
  2
dashed_dotted
 70
   64
  3
-----------     -     ----------
 72
   65
 73
    4
 40
9.25
 49
6
 49
-1.5
 49
0.25
 49
-1.5
  0
LTYPE
  2
double-dashed_dotted
 70
   64
  3
------   -----------   -   -----
 72
   65
 73
    6
 40
16.75
 49
6
 49
-1.5
 49
6
 49
-1.5
 49
0.25
 49
-1.5
  0
LTYPE
  2
dashed_double-dotted
 70
   64
  3
---------    -    -    ---------
 72
   65
 73
    6
 40
11
 49
6
 49
-1.5
 49
0.25
 49
-1.5
 49
0.25
 49
-1.5
  0
LTYPE
  2
double-dashed_double-dotted
 70
   64
  3
-----   ---------   -   -   ----
 72
   65
 73
    8
 40
18.5
 49
6
 49
-1.5
 49
6
 49
-1.5
 49
0.25
 49
-1.5
 49
0.25
 49
-1.5
  0
LTYPE
  2
dashed_triplicate-dotted
 70
   64
  3
-------    -    -    -    ------
 72
   65
 73
    8
 40
12.75
 49
6
 49
-1.5
 49
0.25
 49
-1.5
 49
0.25
 49
-1.5
 49
0.25
 49
-1.5
  0
LTYPE
  2
double-dashed_triplicate-dotted
 70
   64
  3
-----  ---------  -  -  -  -----
 72
   65
 73
   10
 40
20.25
 49
6
 49
-1.5
 49
6
 49
-1.5
 49
0.25
 49
-1.5
 49
0.25
 49
-1.5
 49
0.25
 49
-1.5
  0
LTYPE
  2
undefined
 70
   64
  3
--------------------------------
 72
   65
 73
    0
 40
0
  0
ENDTAB
  0
TABLE
  2
STYLE
  5
3
100
AcDbSymbolTable
 70
     1
  0
STYLE
  5
10
100
AcDbSymbolTableRecord
100
AcDbTextStyleTableRecord
  2
STANDARD
 70
     0
 40
0.0
 41
1.0
 50
0.0
 71
     0
 42
0.2
  3
txt
  4
bigfont.shx
  0
STYLE
  5
26
100
AcDbSymbolTableRecord
100
AcDbTextStyleTableRecord
  2
TATEGAKI
 70
    68
 40
0.0
 41
1.0
 50
0.0
 71
     0
 42
1.0
  3
txt
  4
bigfont.shx
  0
ENDTAB
  0
TABLE
  2
LAYER
 70
   13
  0
LAYER
  2
_0-0_計極細
 70
   64
 62
    7
  6
CONTINUOUS
  0
LAYER
  2
_0-1_計細線
 70
   64
 62
    7
  6
CONTINUOUS
  0
LAYER
  2
_0-5_寸法線
 70
   64
 62
    7
  6
CONTINUOUS
  0
LAYER
  2
_0-7_枠細線
 70
   64
 62
    7
  6
CONTINUOUS
  0
LAYER
  2
_0-8_枠中線
 70
   64
 62
    7
  6
CONTINUOUS
  0
LAYER
  2
_0-a_極細1
 70
   64
 62
    7
  6
CONTINUOUS
  0
LAYER
  2
_0-d_寸法1
 70
   64
 62
    7
  6
CONTINUOUS
  0
LAYER
  2
_0-e_極細4
 70
   64
 62
    7
  6
CONTINUOUS
  0
LAYER
  2
_1-1_寸法4
 70
   64
 62
    7
  6
CONTINUOUS
  0
LAYER
  2
_1-2_極細2
 70
   64
 62
    7
  6
CONTINUOUS
  0
LAYER
  2
_1-3_細線2
 70
   64
 62
    7
  6
CONTINUOUS
  0
LAYER
  2
_1-5_寸法2
 70
   64
 62
    7
  6
CONTINUOUS
  0
LAYER
  2
ADD_LINE
 70
   64
 62
    7
  6
CONTINUOUS
  0
ENDTAB
  0
ENDSEC
  0
SECTION
  2
BLOCKS
  0
ENDSEC
  0
SECTION
  2
ENTITIES
  0
LINE
  8
_0-8_枠中線
  6
CONTINUOUS
 62
    5
 10
96
 20
96
 11
96
 21
1536
  0
LINE
  8
_0-8_枠中線
  6
CONTINUOUS
 62
    5
 10
96
 20
1536
 11
2280
 21
1536
  0
LINE
  8
_0-8_枠中線
  6
CONTINUOUS
 62
    5
 10
2280
 20
1536
 11
2280
 21
96
  0
LINE
  8
_0-8_枠中線
  6
CONTINUOUS
 62
    5
 10
2280
 20
96
 11
96
 21
96
  0
LINE
  8
_0-7_枠細線
  6
CONTINUOUS
 62
    5
 10
1896
 20
288
 11
1896
 21
160
  0
TEXT
  8
_0-7_枠細線
 62
    5
 10
1500
 20
156
 40
28
 41
1
 50
0
  1
備考
  7
TATEGAKI
  0
TEXT
  8
_0-7_枠細線
 62
    5
 10
1500
 20
220
 40
28
 41
1
 50
0
  1
品番
  7
TATEGAKI
  0
TEXT
  8
_0-7_枠細線
 62
    5
 10
1500
 20
284
 40
28
 41
1
 50
0
  1
品名
  7
TATEGAKI
  0
LINE
  8
_0-7_枠細線
  6
CONTINUOUS
 62
    5
 10
1896
 20
224
 11
1480
 21
224
  0
LINE
  8
_0-7_枠細線
  6
CONTINUOUS
 62
    5
 10
1520
 20
288
 11
1520
 21
96
  0
LINE
  8
_0-8_枠中線
  6
CONTINUOUS
 62
    5
 10
2280
 20
288
 11
1480
 21
288
  0
LINE
  8
_0-8_枠中線
  6
CONTINUOUS
 62
    5
 10
1480
 20
288
 11
1480
 21
96
  0
LINE
  8
_0-7_枠細線
  6
CONTINUOUS
 62
    5
 10
1992
 20
288
 11
1992
 21
96
  0
TEXT
  8
_0-7_枠細線
 62
    5
 10
1908
 20
256
 40
24
 41
1
 50
0
  1
縮　尺
  0
LINE
  8
_0-7_枠細線
  6
CONTINUOUS
 62
    5
 10
1896
 20
248
 11
1992
 21
248
  0
LINE
  8
_0-7_枠細線
  6
CONTINUOUS
 62
    5
 10
1992
 20
160
 11
1480
 21
160
  0
LINE
  8
_0-7_枠細線
  6
CONTINUOUS
 62
    5
 10
2280
 20
144
 11
1992
 21
144
  0
LINE
  8
_0-7_枠細線
  6
CONTINUOUS
 62
    5
 10
1992
 20
192
 11
2280
 21
192
  0
LINE
  8
_0-7_枠細線
  6
CONTINUOUS
 62
    5
 10
2280
 20
224
 11
1992
 21
224
  0
TEXT
  8
_0-7_枠細線
 62
    5
 10
2004
 20
96
 40
24
 41
1
 50
0
  1
年月日
  0
TEXT
  8
_0-7_枠細線
 62
    5
 10
2004
 20
120
 40
24
 41
1
 50
0
  1
作　成
  0
TEXT
  8
_0-7_枠細線
 62
    5
 10
2010
 20
196
 40
24
 41
1
 50
0
  1
承 認
  0
LINE
  8
_0-7_枠細線
  6
CONTINUOUS
 62
    5
 10
2088
 20
224
 11
2088
 21
96
  0
TEXT
  8
_0-7_枠細線
 62
    5
 10
2106
 20
196
 40
24
 41
1
 50
0
  1
検 図
  0
LINE
  8
_0-7_枠細線
  6
CONTINUOUS
 62
    5
 10
2184
 20
224
 11
2184
 21
144
  0
TEXT
  8
_0-7_枠細線
 62
    5
 10
2202
 20
196
 40
24
 41
1
 50
0
  1
設 計
  0
LINE
  8
_0-7_枠細線
  6
CONTINUOUS
 62
    5
 10
2280
 20
1508
 11
1424
 21
1508
  0
TEXT
  8
_0-7_枠細線
 62
    5
 10
1432
 20
1511.9999999999993
 40
20
 41
1
 50
0
  1
記号
  0
TEXT
  8
_0-7_枠細線
 62
    5
 10
1595
 20
1512
 40
20
 41
1
 50
0
  1
訂　 正　 記　 事
  0
TEXT
  8
_0-7_枠細線
 62
    5
 10
1890
 20
1512
 40
20
 41
1
 50
0
  1
訂 正 年 月 日
  0
TEXT
  8
_0-7_枠細線
 62
    5
 10
2090
 20
1512
 40
20
 41
1
 50
0
  1
備　　　　　考
  0
LINE
  8
_0-7_枠細線
  6
CONTINUOUS
 62
    5
 10
2280
 20
1480
 11
1424
 21
1480
  0
TEXT
  8
_0-7_枠細線
 62
    5
 10
1910.4000000000001
 20
188
 40
32
 41
0.6999999999999998
 50
0
  1
１：８
  0
LINE
  8
_0-7_枠細線
  6
CONTINUOUS
 62
    5
 10
2040
 20
1480
 11
2040
 21
1535.9999999999991
  0
LINE
  8
_0-7_枠細線
  6
CONTINUOUS
 62
    5
 10
1880
 20
1480
 11
1880
 21
1536
  0
LINE
  8
_0-7_枠細線
  6
CONTINUOUS
 62
    5
 10
1480
 20
1480
 11
1480
 21
1535.9999999999991
  0
LINE
  8
_0-7_枠細線
  6
CONTINUOUS
 62
    5
 10
1424
 20
1480
 11
1424
 21
1535.9999999999991
  0
TEXT
  8
_0-7_枠細線
 62
    5
 10
2200
 20
152
 40
32
 41
1
 50
0
  1
藤戸
  0
TEXT
  8
_0-7_枠細線
 62
    5
 10
2008
 20
152
 40
32
 41
1
 50
0
  1
大野
  0
TEXT
  8
_0-7_枠細線
 62
    5
 10
2104
 20
152
 40
32
 41
1
 50
0
  1
深川
  0
TEXT
  8
_0-7_枠細線
 62
    5
 10
2096
 20
108
 40
24
 41
0.6666666666666666
 50
0
  1
２０１５年０４月０１日
  0
TEXT
  8
_0-7_枠細線
 62
    5
 10
2007.9999999999991
 20
236
 40
40
 41
0.8
 50
0
  1
株式会社シマブン
  0
TEXT
  8
_0-7_枠細線
 62
    5
 10
1544.7999999999995
 20
112
 40
32.000000000000007
 41
0.5999999999999997
 50
0
  1
表面形状については記号表参照のこと
  0
LINE
  8
_0-0_計極細
  6
CONTINUOUS
 62
    2
 10
519.55375798797172
 20
1235.7842583144816
 11
519.55376026894623
 21
1230.284258314482
  0
LINE
  8
_0-0_計極細
  6
CONTINUOUS
 62
    2
 10
526.45375795776795
 20
1235.7842583144816
 11
526.45376026894678
 21
1230.284258314482
  0
LINE
  8
_0-0_計極細
  6
CONTINUOUS
 62
    2
 10
519.55376027819852
 20
1220.284258314482
 11
519.55376027819852
 21
1214.784258314482
  0
LINE
  8
_0-0_計極細
  6
CONTINUOUS
 62
    2
 10
526.45376027832094
 20
1220.284258314482
 11
526.45376027832094
 21
1214.784258314482
  0
LINE
  8
_0-0_計極細
  6
CONTINUOUS
 62
    2
 10
519.55376027819852
 20
1199.2842583144825
 11
519.55376027819852
 21
1204.784258314482
  0
LINE
  8
_0-0_計極細
  6
CONTINUOUS
 62
    2
 10
526.45376027832094
 20
1199.2842583144825
 11
526.45376027832094
 21
1204.784258314482
  0
LINE
  8
_0-0_計極細
  6
CONTINUOUS
 62
    2
 10
519.55376027819852
 20
1183.7842583144829
 11
519.55376027819852
 21
1189.2842583144825
  0
LINE
  8
_0-0_計極細
  6
CONTINUOUS
 62
    2
 10
526.45376027832094
 20
1183.7842583144829
 11
526.45376027832094
 21
1189.2842583144825
  0
LINE
  8
_0-0_計極細
  6
CONTINUOUS
 62
    2
 10
519.55375798797172
 20
1137.2842583144816
 11
519.55376026894623
 21
1142.7842583144811
  0
LINE
  8
_0-0_計極細
  6
CONTINUOUS
 62
    2
 10
526.45375795776795
 20
1137.2842583144816
 11
526.45376026894678
 21
1142.7842583144811
  0
LINE
  8
_0-0_計極細
  6
CONTINUOUS
 62
    2
 10
519.55376027819852
 20
1152.7842583144811
 11
519.55376027819852
 21
1158.2842583144811
  0
LINE
  8
_0-0_計極細
  6
CONTINUOUS
 62
    2
 10
526.45376027832094
 20
1152.7842583144811
 11
526.45376027832094
 21
1158.2842583144811
  0
LINE
  8
_0-0_計極細
  6
CONTINUOUS
 62
    2
 10
519.55376027819852
 20
1173.7842583144807
 11
519.55376027819852
 21
1168.2842583144811
  0
LINE
  8
_0-0_計極細
  6
CONTINUOUS
 62
    2
 10
526.45376027832094
 20
1173.7842583144807
 11
526.45376027832094
 21
1168.2842583144811
  0
LINE
  8
_0-0_計極細
  6
CONTINUOUS
 62
    2
 10
806.05375569189596
 20
1235.7842583144816
 11
806.05375797287047
 21
1230.284258314482
  0
LINE
  8
_0-0_計極細
  6
CONTINUOUS
 62
    2
 10
812.95375566169218
 20
1235.7842583144816
 11
812.95375797287011
 21
1230.284258314482
  0
LINE
  8
_0-0_計極細
  6
CONTINUOUS
 62
    2
 10
806.05375798212185
 20
1220.284258314482
 11
806.05375798212185
 21
1214.784258314482
  0
LINE
  8
_0-0_計極細
  6
CONTINUOUS
 62
    2
 10
812.95375798224427
 20
1220.284258314482
 11
812.95375798224427
 21
1214.784258314482
  0
LINE
  8
_0-0_計極細
  6
CONTINUOUS
 62
    2
 10
806.05375798212185
 20
1199.2842583144825
 11
806.05375798212185
 21
1204.784258314482
  0
LINE
  8
_0-0_計極細
  6
CONTINUOUS
 62
    2
 10
812.95375798224427
 20
1199.2842583144825
 11
812.95375798224427
 21
1204.784258314482
  0
LINE
  8
_0-0_計極細
  6
CONTINUOUS
 62
    2
 10
806.05375798212185
 20
1183.7842583144829
 11
806.05375798212185
 21
1189.2842583144825
  0
LINE
  8
_0-0_計極細
  6
CONTINUOUS
 62
    2
 10
812.95375798224427
 20
1183.7842583144829
 11
812.95375798224427
 21
1189.2842583144825
  0
LINE
  8
_0-0_計極細
  6
CONTINUOUS
 62
    2
 10
806.05375569189596
 20
1137.2842583144816
 11
806.05375797287047
 21
1142.7842583144811
  0
LINE
  8
_0-0_計極細
  6
CONTINUOUS
 62
    2
 10
812.95375566169218
 20
1137.2842583144816
 11
812.95375797287011
 21
1142.7842583144811
  0
LINE
  8
_0-0_計極細
  6
CONTINUOUS
 62
    2
 10
806.05375798212185
 20
1152.7842583144811
 11
806.05375798212185
 21
1158.2842583144811
  0
LINE
  8
_0-0_計極細
  6
CONTINUOUS
 62
    2
 10
812.95375798224427
 20
1152.7842583144811
 11
812.95375798224427
 21
1158.2842583144811
  0
LINE
  8
_0-0_計極細
  6
CONTINUOUS
 62
    2
 10
806.05375798212185
 20
1173.7842583144807
 11
806.05375798212185
 21
1168.2842583144811
  0
LINE
  8
_0-0_計極細
  6
CONTINUOUS
 62
    2
 10
812.95375798224427
 20
1173.7842583144807
 11
812.95375798224427
 21
1168.2842583144811
  0
LINE
  8
_0-0_計極細
  6
CONTINUOUS
 62
    2
 10
1092.553755691896
 20
1235.7842583144816
 11
1092.5537579728705
 21
1230.284258314482
  0
LINE
  8
_0-0_計極細
  6
CONTINUOUS
 62
    2
 10
1099.4537556616922
 20
1235.7842583144816
 11
1099.4537579728701
 21
1230.284258314482
  0
LINE
  8
_0-0_計極細
  6
CONTINUOUS
 62
    2
 10
1092.5537579821219
 20
1220.284258314482
 11
1092.5537579821219
 21
1214.784258314482
  0
LINE
  8
_0-0_計極細
  6
CONTINUOUS
 62
    2
 10
1099.4537579822443
 20
1220.284258314482
 11
1099.4537579822443
 21
1214.784258314482
  0
LINE
  8
_0-0_計極細
  6
CONTINUOUS
 62
    2
 10
1092.5537579821219
 20
1199.2842583144825
 11
1092.5537579821219
 21
1204.784258314482
  0
LINE
  8
_0-0_計極細
  6
CONTINUOUS
 62
    2
 10
1099.4537579822443
 20
1199.2842583144825
 11
1099.4537579822443
 21
1204.784258314482
  0
LINE
  8
_0-0_計極細
  6
CONTINUOUS
 62
    2
 10
1092.5537579821219
 20
1183.7842583144829
 11
1092.5537579821219
 21
1189.2842583144825
  0
LINE
  8
_0-0_計極細
  6
CONTINUOUS
 62
    2
 10
1099.4537579822443
 20
1183.7842583144829
 11
1099.4537579822443
 21
1189.2842583144825
  0
LINE
  8
_0-0_計極細
  6
CONTINUOUS
 62
    2
 10
1092.553755691896
 20
1137.2842583144816
 11
1092.5537579728705
 21
1142.7842583144811
  0
LINE
  8
_0-0_計極細
  6
CONTINUOUS
 62
    2
 10
1099.4537556616922
 20
1137.2842583144816
 11
1099.4537579728701
 21
1142.7842583144811
  0
LINE
  8
_0-0_計極細
  6
CONTINUOUS
 62
    2
 10
1092.5537579821219
 20
1152.7842583144811
 11
1092.5537579821219
 21
1158.2842583144811
  0
LINE
  8
_0-0_計極細
  6
CONTINUOUS
 62
    2
 10
1099.4537579822443
 20
1152.7842583144811
 11
1099.4537579822443
 21
1158.2842583144811
  0
LINE
  8
_0-0_計極細
  6
CONTINUOUS
 62
    2
 10
1092.5537579821219
 20
1173.7842583144807
 11
1092.5537579821219
 21
1168.2842583144811
  0
LINE
  8
_0-0_計極細
  6
CONTINUOUS
 62
    2
 10
1099.4537579822443
 20
1173.7842583144807
 11
1099.4537579822443
 21
1168.2842583144811
  0
ARC
  8
_0-1_計細線
  6
CONTINUOUS
 62
    3
 10
1652.6195190041451
 20
1200.7340632024866
 40
0.501740082747087
 50
330.00000000003996
 51
20.189990999990084
  0
ARC
  8
_0-1_計細線
  6
CONTINUOUS
 62
    3
 10
1652.6195190041451
 20
1172.3344534264775
 40
0.501740082747087
 50
339.81000900000919
 51
29.999999999959307
  0
LINE
  8
_0-1_計細線
  6
CONTINUOUS
 62
    3
 10
1615.3083254779438
 20
1188.7920977182011
 11
1614.0047573825284
 21
1191.0499371219203
  0
LINE
  8
_0-1_計細線
  6
CONTINUOUS
 62
    3
 10
1615.3083254779438
 20
1188.7920977182011
 11
1595.1684341221969
 21
1223.6754094395078
  0
LINE
  8
_0-1_計細線
  6
CONTINUOUS
 62
    3
 10
1615.3083254779438
 20
1188.7920977182011
 11
1617.9154556478704
 21
1188.7920977182011
  0
LINE
  8
_0-1_計細線
  6
CONTINUOUS
 62
    3
 10
1611.3976332335076
 20
1186.5342583144811
 11
1591.2577418777571
 21
1221.41757003579
  0
ARC
  8
_0-1_計細線
  6
CONTINUOUS
 62
    3
 10
1582.3999850189527
 20
1160.1927986044211
 40
0.501740082747087
 50
219.81000899998574
 51
269.99999999999977
  0
LINE
  8
_0-1_計細線
  6
CONTINUOUS
 62
    3
 10
1615.3083254779438
 20
1184.276418910762
 11
1595.1684341221969
 21
1149.3931071894549
  0
LINE
  8
_0-1_計細線
  6
CONTINUOUS
 62
    3
 10
1611.3976332335076
 20
1186.5342583144811
 11
1591.2577418777571
 21
1151.650946593174
  0
ARC
  8
_0-1_計細線
  6
CONTINUOUS
 62
    3
 10
1614.0047573825284
 20
1186.5342583144811
 40
46.4111412917104
 50
89.999999999999915
 51
269.99999999999977
  0
ARC
  8
_0-1_計細線
  6
CONTINUOUS
 62
    3
 10
1614.0047573825284
 20
1186.5342583144811
 40
57.198598227560829
 50
89.999999999999915
 51
269.99999999999977
  0
CIRCLE
  8
_0-1_計細線
  6
CONTINUOUS
 62
    3
 10
1614.0047573825284
 20
1186.5342583144811
 40
58.202084413960065
  0
LINE
  8
_0-1_計細線
  6
CONTINUOUS
 62
    3
 10
1615.3083254779438
 20
1188.7920977182011
 11
1655.5881021685343
 21
1188.7920977182011
  0
LINE
  8
_0-1_計細線
  6
CONTINUOUS
 62
    3
 10
1615.3083254779438
 20
1184.276418910762
 11
1655.5881021685343
 21
1184.276418910762
  0
ARC
  8
_0-1_計細線
  6
CONTINUOUS
 62
    3
 10
1614.0047573825284
 20
1186.5342583144811
 40
46.4111412917104
 50
269.99999999999977
 51
89.999999999999545
  0
ARC
  8
_0-1_計細線
  6
CONTINUOUS
 62
    3
 10
1614.0047573825284
 20
1186.5342583144811
 40
57.198598227560829
 50
269.99999999999977
 51
89.999999999999545
  0
ARC
  8
_0-1_計細線
  6
CONTINUOUS
 62
    3
 10
1614.0047573825284
 20
1186.5342583144811
 40
41.644595453350369
 50
89.999999999999915
 51
116.89207624474167
  0
ARC
  8
_0-1_計細線
  6
CONTINUOUS
 62
    3
 10
1614.0047573825284
 20
1186.5342583144811
 40
41.644595453350369
 50
123.10791868694014
 51
236.89208131305782
  0
ARC
  8
_0-1_計細線
  6
CONTINUOUS
 62
    3
 10
1614.0047573825284
 20
1186.5342583144811
 40
41.644595453350369
 50
243.10792375525659
 51
269.99999999999977
  0
ARC
  8
_0-1_計細線
  6
CONTINUOUS
 62
    3
 10
1614.0047573825284
 20
1186.5342583144811
 40
41.644595453350369
 50
269.99999999999977
 51
356.8920785890931
  0
ARC
  8
_0-1_計細線
  6
CONTINUOUS
 62
    3
 10
1614.0047573825284
 20
1186.5342583144811
 40
41.644595453350369
 50
3.1079214109077964
 51
89.999999999999915
  0
ARC
  8
_0-0_計極細
  6
CONTINUOUS
 62
    2
 10
1614.0047573825284
 20
1186.5342583144811
 40
50.153133796808191
 50
269.99999999999977
 51
89.999999999999545
  0
ARC
  8
_0-0_計極細
  6
CONTINUOUS
 62
    2
 10
1614.0047573825284
 20
1186.5342583144811
 40
50.153133796808191
 50
89.999999999999915
 51
269.99999999999977
  0
ARC
  8
_0-0_計極細
  6
CONTINUOUS
 62
    2
 10
1600.3897563380212
 20
1157.4332160848899
 40
0.501740082747087
 50
149.99997568607938
 51
210.00002243784951
  0
ARC
  8
_0-0_計極細
  6
CONTINUOUS
 62
    2
 10
1614.2944411884771
 20
1180.513353237895
 40
1.0034861863992508
 50
29.999999999951111
 51
149.99999999997101
  0
ARC
  8
_0-0_計極細
  6
CONTINUOUS
 62
    2
 10
1614.2944411884771
 20
1180.513353237895
 40
1.0034861863992508
 50
29.999999999951111
 51
106.77865499997519
  0
ARC
  8
_0-0_計極細
  6
CONTINUOUS
 62
    2
 10
1608.6456641710563
 20
1183.7746788280147
 40
1.0034861863992508
 50
329.99999999995163
 51
89.999999999999545
  0
ARC
  8
_0-0_計極細
  6
CONTINUOUS
 62
    2
 10
1573.5095410824904
 20
1193.8130191135742
 40
0.501740082747087
 50
89.993779916795503
 51
169.8086801233749
  0
ARC
  8
_0-0_計極細
  6
CONTINUOUS
 62
    2
 10
1573.5079753770576
 20
1179.2624957808198
 40
0.501740082747087
 50
190.17882981053808
 51
269.99383436904543
  0
ARC
  8
_0-0_計極細
  6
CONTINUOUS
 62
    2
 10
1573.4562430864514
 20
1189.2973447111153
 40
1.0034861863992508
 50
176.10042624738318
 51
269.99385985774035
  0
ARC
  8
_0-0_計極細
  6
CONTINUOUS
 62
    2
 10
1614.0047573825284
 20
1186.5342583144811
 40
37.630656728658437
 50
317.45760300000074
 51
327.38710799999916
  0
ARC
  8
_0-0_計極細
  6
CONTINUOUS
 62
    2
 10
1614.0047573825284
 20
1186.5342583144811
 40
37.630656728658437
 50
32.612892000001082
 51
42.54239699999939
  0
LINE
  8
_0-0_計極細
  6
CONTINUOUS
 62
    2
 10
1649.1789751535159
 20
1167.2553202592558
 11
1640.2208859325153
 21
1182.7711926416173
  0
LINE
  8
_0-0_計極細
  6
CONTINUOUS
 62
    2
 10
1647.7721485360369
 20
1162.6676254061949
 11
1635.4411482911316
 21
1184.0255458589354
  0
LINE
  8
_0-0_計極細
  6
CONTINUOUS
 62
    2
 10
1643.1502127958054
 20
1158.6312407473774
 11
1629.2130096827166
 21
1182.7711926416173
  0
LINE
  8
_0-0_計極細
  6
CONTINUOUS
 62
    2
 10
1649.1789751535159
 20
1205.8131963697078
 11
1640.2208859325153
 21
1190.2973239873472
  0
LINE
  8
_0-0_計極細
  6
CONTINUOUS
 62
    2
 10
1647.7721485360369
 20
1210.4008912227682
 11
1635.4411482911316
 21
1189.0429707700273
  0
LINE
  8
_0-0_計極細
  6
CONTINUOUS
 62
    2
 10
1643.1502127958054
 20
1214.4372698606817
 11
1629.2130096827166
 21
1190.2973239873472
  0
LINE
  8
_0-0_計極細
  6
CONTINUOUS
 62
    2
 10
1611.997791030635
 20
1159.5146219193098
 11
1611.997791030635
 21
1167.4320338232537
  0
LINE
  8
_0-0_計極細
  6
CONTINUOUS
 62
    2
 10
1612.4995311133823
 20
1159.4820307601299
 11
1612.4995311133823
 21
1166.5629944472148
  0
ARC
  8
_0-0_計極細
  6
CONTINUOUS
 62
    2
 10
1614.0047573825284
 20
1186.5342583144811
 40
37.630656728658437
 50
213.59599499999973
 51
225.50677599999941
  0
LINE
  8
_0-0_計極細
  6
CONTINUOUS
 62
    2
 10
1640.987094270751
 20
1155.3534901282114
 11
1624.4332720413329
 21
1184.0255458589354
  0
LINE
  8
_0-0_計極細
  6
CONTINUOUS
 62
    2
 10
1635.7992416205623
 20
1152.2973027949556
 11
1618.2051334329169
 21
1182.7711926416173
  0
LINE
  8
_0-0_計極細
  6
CONTINUOUS
 62
    2
 10
1617.7901726550388
 20
1145.3575233110118
 11
1605.4591724101335
 21
1166.7154437637528
  0
LINE
  8
_0-0_計極細
  6
CONTINUOUS
 62
    2
 10
1623.5967515736118
 20
1147.3420437287796
 11
1609.659548460522
 21
1171.4819956230185
  0
LINE
  8
_0-0_計極細
  6
CONTINUOUS
 62
    2
 10
1627.5169327644523
 20
1147.5764857306535
 11
1610.9631105350343
 21
1176.2485474822838
  0
LINE
  8
_0-0_計極細
  6
CONTINUOUS
 62
    2
 10
1632.7575887521632
 20
1150.5412094948888
 11
1615.1634865854228
 21
1181.0150933206437
  0
LINE
  8
_0-0_計極細
  6
CONTINUOUS
 62
    2
 10
1582.3999850189527
 20
1159.6910585216742
 11
1595.6100193423242
 21
1159.6910585216742
  0
ARC
  8
_0-0_計極細
  6
CONTINUOUS
 62
    2
 10
1592.1338497963568
 20
1155.1753797142346
 40
1.0034861863992508
 50
329.99999999997061
 51
89.999999999999545
  0
ARC
  8
_0-0_計極細
  6
CONTINUOUS
 62
    2
 10
1614.0047573825284
 20
1186.5342583144811
 40
37.630656728658437
 50
233.77152299999938
 51
236.31964599999873
  0
ARC
  8
_0-0_計極細
  6
CONTINUOUS
 62
    2
 10
1588.1528695060549
 20
1155.1753797142346
 40
1.0034861863992508
 50
89.999999999999915
 51
230.49822999997428
  0
LINE
  8
_0-0_計極細
  6
CONTINUOUS
 62
    2
 10
1588.1528695060549
 20
1156.1788598797289
 11
1592.1338497963568
 21
1156.1788598797289
  0
ARC
  8
_0-0_計極細
  6
CONTINUOUS
 62
    2
 10
1614.0047573825284
 20
1186.5342583144811
 40
37.630656728658437
 50
272.61289199999942
 51
282.54239699999982
  0
ARC
  8
_0-0_計極細
  6
CONTINUOUS
 62
    2
 10
1618.2246953535102
 20
1145.6083963628375
 40
0.501740082747087
 50
210.00000000000426
 51
275.88706199997517
  0
LINE
  8
_0-0_計極細
  6
CONTINUOUS
 62
    2
 10
1613.1136995566237
 20
1146.4330195221282
 11
1604.1556103356231
 21
1161.9488979253938
  0
LINE
  8
_0-0_計極細
  6
CONTINUOUS
 62
    2
 10
1606.560251446919
 20
1145.7421206645913
 11
1599.9552342852346
 21
1157.182346066129
  0
ARC
  8
_0-0_計極細
  6
CONTINUOUS
 62
    2
 10
1614.0047573825284
 20
1186.5342583144811
 40
37.630656728658437
 50
254.49322399999932
 51
266.40400499999907
  0
ARC
  8
_0-0_計極細
  6
CONTINUOUS
 62
    2
 10
1595.6100193423242
 20
1160.1927986044211
 40
0.501740082747087
 50
269.99999999999977
 51
329.99999999989114
  0
ARC
  8
_0-0_計極細
  6
CONTINUOUS
 62
    2
 10
1599.7731199693824
 20
1148.4664236682129
 40
1.0034861863992508
 50
249.50177000005806
 51
29.999999999976708
  0
LINE
  8
_0-0_計極細
  6
CONTINUOUS
 62
    2
 10
1600.6421593454231
 20
1148.9681637509602
 11
1598.6516722107242
 21
1152.4157942068618
  0
ARC
  8
_0-0_計極細
  6
CONTINUOUS
 62
    2
 10
1603.2865649386783
 20
1161.4471518217424
 40
1.0034861863992508
 50
29.999999999977071
 51
149.99999999999699
  0
ARC
  8
_0-0_計極細
  6
CONTINUOUS
 62
    2
 10
1614.0047573825284
 20
1186.5342583144811
 40
27.094072844634088
 50
244.78019200000111
 51
249.77896100000117
  0
ARC
  8
_0-0_計極細
  6
CONTINUOUS
 62
    2
 10
1614.0047573825284
 20
1186.5342583144811
 40
37.630656728658437
 50
243.68035399999945
 51
246.22847699999838
  0
ARC
  8
_0-0_計極細
  6
CONTINUOUS
 62
    2
 10
1597.7826268137794
 20
1151.9140541241168
 40
1.0034861863992508
 50
29.999999999977071
 51
150.00000000002294
  0
ARC
  8
_0-0_計極細
  6
CONTINUOUS
 62
    2
 10
1612.2446601805857
 20
1145.9312794393827
 40
1.0034861863992508
 50
267.5178359999677
 51
30.000000000002665
  0
ARC
  8
_0-0_計極細
  6
CONTINUOUS
 62
    2
 10
1606.9947741453905
 20
1145.992993716417
 40
0.501740082747087
 50
210.00000000010814
 51
260.18999100005101
  0
ARC
  8
_0-0_計極細
  6
CONTINUOUS
 62
    2
 10
1614.0047573825284
 20
1186.5342583144811
 40
27.094072844634088
 50
260.29098299999907
 51
275.37568199999987
  0
ARC
  8
_0-0_計極細
  6
CONTINUOUS
 62
    2
 10
1614.0047573825284
 20
1186.5342583144811
 40
37.630656728658437
 50
288.07291800000053
 51
297.3252259999997
  0
ARC
  8
_0-0_計極細
  6
CONTINUOUS
 62
    2
 10
1614.0047573825284
 20
1186.5342583144811
 40
27.094072844634088
 50
283.31934900000118
 51
296.2837799999993
  0
ARC
  8
_0-0_計極細
  6
CONTINUOUS
 62
    2
 10
1627.951449442018
 20
1147.8273587824797
 40
0.501740082747087
 50
210.00000000010814
 51
289.81487200010849
  0
ARC
  8
_0-0_計極細
  6
CONTINUOUS
 62
    2
 10
1622.7277061766679
 20
1146.8403036460331
 40
1.0034861863992508
 50
282.39403400005705
 51
30.000000000002665
  0
ARC
  8
_0-0_計極細
  6
CONTINUOUS
 62
    2
 10
1614.0047573825284
 20
1186.5342583144811
 40
37.630656728658437
 50
302.67477399999865
 51
311.92708199999919
  0
ARC
  8
_0-0_計極細
  6
CONTINUOUS
 62
    2
 10
1636.6682809966003
 20
1152.7990488986084
 40
1.0034861863992508
 50
210.00000000002515
 51
303.89345000001418
  0
ARC
  8
_0-0_計極細
  6
CONTINUOUS
 62
    2
 10
1640.5525715722786
 20
1155.1026170763857
 40
0.501740082747087
 50
310.18512800003361
 51
29.999999999907399
  0
ARC
  8
_0-0_計極細
  6
CONTINUOUS
 62
    2
 10
1631.8885493761243
 20
1150.039463391236
 40
1.0034861863992508
 50
296.10655000002453
 51
29.999999999999204
  0
LINE
  8
_0-0_計極細
  6
CONTINUOUS
 62
    2
 10
1579.7215974374456
 20
1165.7119635982599
 11
1597.6377879212557
 21
1165.7119635982599
  0
ARC
  8
_0-0_計極細
  6
CONTINUOUS
 62
    2
 10
1592.1338497963568
 20
1217.8931369147294
 40
1.0034861863992508
 50
269.99999999999977
 51
30.000000000051159
  0
LINE
  8
_0-0_計極細
  6
CONTINUOUS
 62
    2
 10
1582.3999850189527
 20
1213.3774581072898
 11
1595.6100193423242
 21
1213.3774581072898
  0
LINE
  8
_0-0_計極細
  6
CONTINUOUS
 62
    2
 10
1579.7215974374456
 20
1207.3565530307033
 11
1597.6377879212557
 21
1207.3565530307033
  0
LINE
  8
_0-0_計極細
  6
CONTINUOUS
 62
    2
 10
1576.4519569774163
 20
1203.8443604096647
 11
1601.1139574672231
 21
1203.8443604096647
  0
LINE
  8
_0-0_計極細
  6
CONTINUOUS
 62
    2
 10
1575.2673137990721
 20
1197.8234553330794
 11
1603.1417260461565
 21
1197.8234553330794
  0
LINE
  8
_0-0_計極細
  6
CONTINUOUS
 62
    2
 10
1573.5102571541918
 20
1194.311262712039
 11
1606.6178955921221
 21
1194.311262712039
  0
LINE
  8
_0-0_計極細
  6
CONTINUOUS
 62
    2
 10
1573.4574477957647
 20
1188.2903576354538
 11
1608.6456641710563
 21
1188.2903576354538
  0
LINE
  8
_0-0_計極細
  6
CONTINUOUS
 62
    2
 10
1576.4519569774163
 20
1169.2241562192994
 11
1601.1139574672231
 21
1169.2241562192994
  0
LINE
  8
_0-0_計極細
  6
CONTINUOUS
 62
    2
 10
1575.2673137990721
 20
1175.2450612958851
 11
1603.1417260461565
 21
1175.2450612958851
  0
LINE
  8
_0-0_計極細
  6
CONTINUOUS
 62
    2
 10
1573.5102571541918
 20
1178.757253916925
 11
1606.6178955921221
 21
1178.757253916925
  0
LINE
  8
_0-0_計極細
  6
CONTINUOUS
 62
    2
 10
1573.4574477957647
 20
1184.7781589935089
 11
1608.6456641710563
 21
1184.7781589935089
  0
ARC
  8
_0-0_計極細
  6
CONTINUOUS
 62
    2
 10
1614.0047573825284
 20
1186.5342583144811
 40
27.094072844634088
 50
140.2909829999995
 51
155.37568200000004
  0
ARC
  8
_0-0_計極細
  6
CONTINUOUS
 62
    2
 10
1614.0047573825284
 20
1186.5342583144811
 40
37.630656728658437
 50
152.61289200000007
 51
162.54239699999968
  0
ARC
  8
_0-0_計極細
  6
CONTINUOUS
 62
    2
 10
1575.2673137990721
 20
1198.82694151948
 40
1.0034861863992508
 50
162.39403400002107
 51
269.99999999999977
  0
ARC
  8
_0-0_計極細
  6
CONTINUOUS
 62
    2
 10
1579.7215974374456
 20
1164.7084774118593
 40
1.0034861863992508
 50
89.999999999999915
 51
212.4821639999854
  0
ARC
  8
_0-0_計極細
  6
CONTINUOUS
 62
    2
 10
1614.0047573825284
 20
1186.5342583144811
 40
37.630656728658437
 50
168.07291799999925
 51
177.32522600000016
  0
ARC
  8
_0-0_計極細
  6
CONTINUOUS
 62
    2
 10
1614.0047573825284
 20
1186.5342583144811
 40
37.630656728658437
 50
182.67477399999882
 51
191.9270819999997
  0
ARC
  8
_0-0_計極細
  6
CONTINUOUS
 62
    2
 10
1614.0047573825284
 20
1186.5342583144811
 40
37.630656728658437
 50
197.4576029999993
 51
207.38710799999896
  0
ARC
  8
_0-0_計極細
  6
CONTINUOUS
 62
    2
 10
1573.4574477957647
 20
1183.7746788280156
 40
1.0034861863992508
 50
89.999999999999915
 51
183.89344999999844
  0
ARC
  8
_0-0_計極細
  6
CONTINUOUS
 62
    2
 10
1575.2673137990721
 20
1174.2415751094859
 40
1.0034861863992508
 50
89.999999999999915
 51
197.60596600000332
  0
ARC
  8
_0-0_計極細
  6
CONTINUOUS
 62
    2
 10
1576.4519569774163
 20
1169.7258963020454
 40
0.501740082747087
 50
204.11293800002809
 51
269.99999999999977
  0
ARC
  8
_0-0_計極細
  6
CONTINUOUS
 62
    2
 10
1614.0047573825284
 20
1186.5342583144811
 40
27.094072844634088
 50
163.31934899999951
 51
176.28377999999955
  0
ARC
  8
_0-0_計極細
  6
CONTINUOUS
 62
    2
 10
1614.0047573825284
 20
1186.5342583144811
 40
27.094072844634088
 50
183.71621999999911
 51
196.68065099999922
  0
ARC
  8
_0-0_計極細
  6
CONTINUOUS
 62
    2
 10
1614.0047573825284
 20
1186.5342583144811
 40
27.094072844634088
 50
204.62431799999874
 51
219.70901699999865
  0
ARC
  8
_0-0_計極細
  6
CONTINUOUS
 62
    2
 10
1576.4519569774163
 20
1203.3426203269187
 40
0.501740082747087
 50
89.999999999999915
 51
155.88706199997156
  0
ARC
  8
_0-0_計極細
  6
CONTINUOUS
 62
    2
 10
1579.7215974374456
 20
1208.3600392171043
 40
1.0034861863992508
 50
147.5178360000142
 51
269.99999999999977
  0
ARC
  8
_0-0_計極細
  6
CONTINUOUS
 62
    2
 10
1614.0047573825284
 20
1186.5342583144811
 40
37.630656728658437
 50
123.68035400000058
 51
126.22847700000025
  0
ARC
  8
_0-0_計極細
  6
CONTINUOUS
 62
    2
 10
1614.0047573825284
 20
1186.5342583144811
 40
37.630656728658437
 50
134.49322399999971
 51
146.40400499999933
  0
ARC
  8
_0-0_計極細
  6
CONTINUOUS
 62
    2
 10
1582.3999850189527
 20
1212.8757180245434
 40
0.501740082747087
 50
89.999999999999915
 51
140.18999100005377
  0
ARC
  8
_0-0_計極細
  6
CONTINUOUS
 62
    2
 10
1588.1528695060549
 20
1217.8931369147294
 40
1.0034861863992508
 50
129.50177000002535
 51
269.99999999999977
  0
LINE
  8
_0-0_計極細
  6
CONTINUOUS
 62
    2
 10
1588.1528695060549
 20
1216.8896567492352
 11
1592.1338497963568
 21
1216.8896567492352
  0
ARC
  8
_0-0_計極細
  6
CONTINUOUS
 62
    2
 10
1614.0047573825284
 20
1186.5342583144811
 40
37.630656728658437
 50
77.457603000000148
 51
87.387108000000282
  0
ARC
  8
_0-0_計極細
  6
CONTINUOUS
 62
    2
 10
1614.0047573825284
 20
1186.5342583144811
 40
37.630656728658437
 50
77.457603000000148
 51
87.387108000000282
  0
ARC
  8
_0-0_計極細
  6
CONTINUOUS
 62
    2
 10
1619.0741788298617
 20
1183.2729327243637
 40
1.0034861863992508
 50
89.999999999999915
 51
209.9999999999992
  0
ARC
  8
_0-0_計極細
  6
CONTINUOUS
 62
    2
 10
1619.0741788298617
 20
1189.7955839046017
 40
1.0034861863992508
 50
150.00000000000043
 51
269.99999999999977
  0
ARC
  8
_0-0_計極細
  6
CONTINUOUS
 62
    2
 10
1618.2246953535102
 20
1227.4601202661238
 40
0.501740082747087
 50
84.112938000024442
 51
150.00000000004033
  0
LINE
  8
_0-0_計極細
  6
CONTINUOUS
 62
    2
 10
1623.5967515736118
 20
1225.7264668792773
 11
1609.659548460522
 21
1201.5865210059455
  0
LINE
  8
_0-0_計極細
  6
CONTINUOUS
 62
    2
 10
1627.5169327644523
 20
1225.492024877406
 11
1610.9631105350343
 21
1196.8199691466803
  0
LINE
  8
_0-0_計極細
  6
CONTINUOUS
 62
    2
 10
1632.7575887521632
 20
1222.5273071340753
 11
1615.1634865854228
 21
1192.0534233083204
  0
LINE
  8
_0-0_計極細
  6
CONTINUOUS
 62
    2
 10
1611.997791030635
 20
1194.5261066678868
 11
1611.997791030635
 21
1198.6120915427255
  0
LINE
  8
_0-0_計極細
  6
CONTINUOUS
 62
    2
 10
1612.4995311133823
 20
1193.6570672918479
 11
1612.4995311133823
 21
1199.4811369396684
  0
ARC
  8
_0-0_計極細
  6
CONTINUOUS
 62
    2
 10
1603.1417260461565
 20
1198.82694151948
 40
1.0034861863992508
 50
269.99999999999977
 51
29.999999999999204
  0
LINE
  8
_0-0_計極細
  6
CONTINUOUS
 62
    2
 10
1615.5099836516754
 20
1192.65358110545
 11
1615.5099836516754
 21
1204.6953912586196
  0
LINE
  8
_0-0_計極細
  6
CONTINUOUS
 62
    2
 10
1616.0117297553268
 20
1193.5226265023925
 11
1616.0117297553268
 21
1205.5644366555648
  0
ARC
  8
_0-0_計極細
  6
CONTINUOUS
 62
    2
 10
1603.1417260461565
 20
1174.2415751094859
 40
1.0034861863992508
 50
329.9999999999776
 51
89.999999999999545
  0
ARC
  8
_0-0_計極細
  6
CONTINUOUS
 62
    2
 10
1601.1139574672231
 20
1169.7258963020454
 40
0.501740082747087
 50
269.99999999999977
 51
329.999999999995
  0
ARC
  8
_0-0_計極細
  6
CONTINUOUS
 62
    2
 10
1614.0047573825284
 20
1186.5342583144811
 40
27.094072844634088
 50
230.22103899999877
 51
235.21980799999864
  0
ARC
  8
_0-0_計極細
  6
CONTINUOUS
 62
    2
 10
1597.6377879212557
 20
1164.7084774118593
 40
1.0034861863992508
 50
330.00000000000011
 51
89.999999999999545
  0
ARC
  8
_0-0_計極細
  6
CONTINUOUS
 62
    2
 10
1605.8936951086059
 20
1166.9663168155798
 40
0.501740082747087
 50
149.9999999999884
 51
210.00000000005619
  0
LINE
  8
_0-0_計極細
  6
CONTINUOUS
 62
    2
 10
1611.997791030635
 20
1174.4564250862386
 11
1611.997791030635
 21
1178.5424099610773
  0
LINE
  8
_0-0_計極細
  6
CONTINUOUS
 62
    2
 10
1612.4995311133823
 20
1173.5873796892938
 11
1612.4995311133823
 21
1179.4114493371158
  0
ARC
  8
_0-0_計極細
  6
CONTINUOUS
 62
    2
 10
1606.6178955921221
 20
1179.2590000205764
 40
0.501740082747087
 50
269.99999999999977
 51
330.00000000003996
  0
ARC
  8
_0-0_計極細
  6
CONTINUOUS
 62
    2
 10
1611.3976332335076
 20
1176.4994145132041
 40
0.501740082747087
 50
150.00000000009922
 51
209.99999999985545
  0
ARC
  8
_0-0_計極細
  6
CONTINUOUS
 62
    2
 10
1608.7905030635773
 20
1170.9802555402712
 40
1.0034861863992508
 50
29.999999999999559
 51
150.00000000000043
  0
ARC
  8
_0-0_計極細
  6
CONTINUOUS
 62
    2
 10
1611.3976332335076
 20
1196.5691021157591
 40
0.501740082747087
 50
150.00000000009922
 51
209.99999999985545
  0
ARC
  8
_0-0_計極細
  6
CONTINUOUS
 62
    2
 10
1614.2944411884771
 20
1192.5551633910677
 40
1.0034861863992508
 50
210.00000000005113
 51
330.00000000002603
  0
ARC
  8
_0-0_計極細
  6
CONTINUOUS
 62
    2
 10
1606.6178955921221
 20
1193.8095166083863
 40
0.501740082747087
 50
29.99999999995967
 51
89.999999999999901
  0
ARC
  8
_0-0_計極細
  6
CONTINUOUS
 62
    2
 10
1608.6456641710563
 20
1189.2938378009485
 40
1.0034861863992508
 50
269.99999999999977
 51
30.000000000002665
  0
LINE
  8
_0-0_計極細
  6
CONTINUOUS
 62
    2
 10
1615.5099836516754
 20
1168.3731253703436
 11
1615.5099836516754
 21
1180.4149355235154
  0
LINE
  8
_0-0_計極細
  6
CONTINUOUS
 62
    2
 10
1616.0117297553268
 20
1167.5040799734006
 11
1616.0117297553268
 21
1179.5458901265706
  0
ARC
  8
_0-0_計極細
  6
CONTINUOUS
 62
    2
 10
1614.2944411884771
 20
1192.5551633910677
 40
1.0034861863992508
 50
253.22134500003193
 51
330.00000000002603
  0
LINE
  8
_0-0_計極細
  6
CONTINUOUS
 62
    2
 10
1613.1136995566237
 20
1226.6354910859309
 11
1604.1556103356231
 21
1211.1196187035698
  0
ARC
  8
_0-0_計極細
  6
CONTINUOUS
 62
    2
 10
1614.0047573825284
 20
1186.5342583144811
 40
37.630656728658437
 50
93.595995000000485
 51
105.50677600000017
  0
LINE
  8
_0-0_計極細
  6
CONTINUOUS
 62
    2
 10
1606.560251446919
 20
1227.326395964375
 11
1599.9552342852346
 21
1215.8861705628346
  0
LINE
  8
_0-0_計極細
  6
CONTINUOUS
 62
    2
 10
1617.7901726550388
 20
1227.7109933179509
 11
1605.4591724101335
 21
1206.3530728652095
  0
ARC
  8
_0-0_計極細
  6
CONTINUOUS
 62
    2
 10
1605.8936951086059
 20
1206.1021998133842
 40
0.501740082747087
 50
149.9999999999884
 51
210.00000000001123
  0
ARC
  8
_0-0_計極細
  6
CONTINUOUS
 62
    2
 10
1614.0047573825284
 20
1186.5342583144811
 40
27.094072844634088
 50
110.2210389999981
 51
115.21980799999808
  0
ARC
  8
_0-0_計極細
  6
CONTINUOUS
 62
    2
 10
1603.2865649386783
 20
1211.621364807223
 40
1.0034861863992508
 50
210.00000000000267
 51
330.00000000002257
  0
ARC
  8
_0-0_計極細
  6
CONTINUOUS
 62
    2
 10
1600.3897569837061
 20
1215.6352975110085
 40
0.501740082747087
 50
149.99999999999537
 51
209.9999999999593
  0
ARC
  8
_0-0_計極細
  6
CONTINUOUS
 62
    2
 10
1614.0047573825284
 20
1186.5342583144811
 40
37.630656728658437
 50
113.77152300000098
 51
116.31964599999986
  0
ARC
  8
_0-0_計極細
  6
CONTINUOUS
 62
    2
 10
1599.7731199693824
 20
1224.6020929607512
 40
1.0034861863992508
 50
330.00000000002257
 51
110.49822999994124
  0
ARC
  8
_0-0_計極細
  6
CONTINUOUS
 62
    2
 10
1597.7826268137794
 20
1221.1544625048464
 40
1.0034861863992508
 50
209.9999999999992
 51
330.00000000000011
  0
LINE
  8
_0-0_計極細
  6
CONTINUOUS
 62
    2
 10
1600.6421593454231
 20
1224.1003528780038
 11
1598.6516722107242
 21
1220.6527224221018
  0
ARC
  8
_0-0_計極細
  6
CONTINUOUS
 62
    2
 10
1614.0047573825284
 20
1186.5342583144811
 40
27.094072844634088
 50
124.78019199999984
 51
129.77896100000024
  0
ARC
  8
_0-0_計極細
  6
CONTINUOUS
 62
    2
 10
1595.6100193423242
 20
1212.8757180245434
 40
0.501740082747087
 50
30.000000000063526
 51
89.999999999999915
  0
ARC
  8
_0-0_計極細
  6
CONTINUOUS
 62
    2
 10
1597.6377879212557
 20
1208.3600392171043
 40
1.0034861863992508
 50
269.99999999999977
 51
29.999999999999204
  0
ARC
  8
_0-0_計極細
  6
CONTINUOUS
 62
    2
 10
1601.1139574672231
 20
1203.3426203269187
 40
0.501740082747087
 50
29.99999999995967
 51
89.999999999999901
  0
LINE
  8
_0-0_計極細
  6
CONTINUOUS
 62
    2
 10
1612.4995311133823
 20
1206.5055221817493
 11
1612.4995311133823
 21
1213.5864858688342
  0
LINE
  8
_0-0_計極細
  6
CONTINUOUS
 62
    2
 10
1611.997791030635
 20
1205.6364828057108
 11
1611.997791030635
 21
1213.5538947096543
  0
ARC
  8
_0-0_計極細
  6
CONTINUOUS
 62
    2
 10
1612.2446601805857
 20
1227.1372371895845
 40
1.0034861863992508
 50
329.99999999997414
 51
92.482164000031602
  0
ARC
  8
_0-0_計極細
  6
CONTINUOUS
 62
    2
 10
1614.0047573825284
 20
1186.5342583144811
 40
27.094072844634088
 50
84.624317999999832
 51
99.709017000000401
  0
ARC
  8
_0-0_計極細
  6
CONTINUOUS
 62
    2
 10
1606.9947741453905
 20
1227.0755229125498
 40
0.501740082747087
 50
99.810008999948636
 51
149.99999999993648
  0
ARC
  8
_0-0_計極細
  6
CONTINUOUS
 62
    2
 10
1608.7905030635773
 20
1202.0882610886915
 40
1.0034861863992508
 50
209.9999999999992
 51
330.00000000000011
  0
ARC
  8
_0-0_計極細
  6
CONTINUOUS
 62
    2
 10
1614.0047573825284
 20
1186.5342583144811
 40
27.094072844634088
 50
84.624317999999832
 51
89.999999999999915
  0
ARC
  8
_0-0_計極細
  6
CONTINUOUS
 62
    2
 10
1614.0047573825284
 20
1186.5342583144811
 40
27.094072844634088
 50
20.290983000001571
 51
35.37568200000068
  0
LINE
  8
_0-0_計極細
  6
CONTINUOUS
 62
    2
 10
1640.987094270751
 20
1217.715026500754
 11
1624.4332720413329
 21
1189.0429707700273
  0
LINE
  8
_0-0_計極細
  6
CONTINUOUS
 62
    2
 10
1635.7992416205623
 20
1220.771213834008
 11
1618.2051334329169
 21
1190.2973239873472
  0
ARC
  8
_0-0_計極細
  6
CONTINUOUS
 62
    2
 10
1614.0047573825284
 20
1186.5342583144811
 40
27.094072844634088
 50
303.71622000000156
 51
316.68065099999922
  0
ARC
  8
_0-0_計極細
  6
CONTINUOUS
 62
    2
 10
1630.0820490587537
 20
1183.2729327243637
 40
1.0034861863992508
 50
89.999999999999915
 51
210.00000000002515
  0
ARC
  8
_0-0_計極細
  6
CONTINUOUS
 62
    2
 10
1623.9987493428614
 20
1183.7746788280156
 40
0.501740082747087
 50
30.0000000001085
 51
89.999999999999915
  0
ARC
  8
_0-0_計極細
  6
CONTINUOUS
 62
    2
 10
1630.0820490587537
 20
1189.7955839046017
 40
1.0034861863992508
 50
149.99999999997448
 51
269.99999999999977
  0
ARC
  8
_0-0_計極細
  6
CONTINUOUS
 62
    2
 10
1623.9987493428614
 20
1189.2938378009485
 40
0.501740082747087
 50
269.99999999999977
 51
329.99999999989114
  0
ARC
  8
_0-0_計極細
  6
CONTINUOUS
 62
    2
 10
1614.0047573825284
 20
1186.5342583144811
 40
27.094072844634088
 50
324.62431799999973
 51
339.7090169999999
  0
ARC
  8
_0-0_計極細
  6
CONTINUOUS
 62
    2
 10
1614.0047573825284
 20
1186.5342583144811
 40
27.094072844634088
 50
350.22103899999934
 51
355.21980800000068
  0
ARC
  8
_0-0_計極細
  6
CONTINUOUS
 62
    2
 10
1614.0047573825284
 20
1186.5342583144811
 40
27.094072844634088
 50
4.7801919999998796
 51
9.778961000001221
  0
ARC
  8
_0-0_計極細
  6
CONTINUOUS
 62
    2
 10
1641.0899253085533
 20
1183.2729327243637
 40
1.0034861863992508
 50
89.999999999999915
 51
210.00000000002515
  0
ARC
  8
_0-0_計極細
  6
CONTINUOUS
 62
    2
 10
1635.0066255926602
 20
1183.7746788280156
 40
0.501740082747087
 50
30.000000000056566
 51
89.999999999999915
  0
ARC
  8
_0-0_計極細
  6
CONTINUOUS
 62
    2
 10
1641.0899253085533
 20
1189.7955839046017
 40
1.0034861863992508
 50
149.99999999997448
 51
269.99999999999977
  0
ARC
  8
_0-0_計極細
  6
CONTINUOUS
 62
    2
 10
1635.0066255926602
 20
1189.2938378009485
 40
0.501740082747087
 50
269.99999999999977
 51
329.9999999999431
  0
ARC
  8
_0-0_計極細
  6
CONTINUOUS
 62
    2
 10
1614.0047573825284
 20
1186.5342583144811
 40
27.094072844634088
 50
43.319349000001104
 51
56.28377999999919
  0
ARC
  8
_0-0_計極細
  6
CONTINUOUS
 62
    2
 10
1614.0047573825284
 20
1186.5342583144811
 40
37.630656728658437
 50
62.674774000000312
 51
71.927081999999317
  0
ARC
  8
_0-0_計極細
  6
CONTINUOUS
 62
    2
 10
1614.0047573825284
 20
1186.5342583144811
 40
27.094072844634088
 50
63.716220000000746
 51
76.680650999998889
  0
ARC
  8
_0-0_計極細
  6
CONTINUOUS
 62
    2
 10
1627.951449442018
 20
1225.2411578464839
 40
0.501740082747087
 50
70.185127999891137
 51
149.99999999993648
  0
ARC
  8
_0-0_計極細
  6
CONTINUOUS
 62
    2
 10
1622.7277061766679
 20
1226.2282129829309
 40
1.0034861863992508
 50
329.99999999999665
 51
77.605965999942228
  0
ARC
  8
_0-0_計極細
  6
CONTINUOUS
 62
    2
 10
1614.0047573825284
 20
1186.5342583144811
 40
37.630656728658437
 50
48.072918000001373
 51
57.325226000001372
  0
ARC
  8
_0-0_計極細
  6
CONTINUOUS
 62
    2
 10
1636.6682809966003
 20
1220.2694677303562
 40
1.0034861863992508
 50
56.106549999971008
 51
149.99999999999699
  0
ARC
  8
_0-0_計極細
  6
CONTINUOUS
 62
    2
 10
1640.5525715722786
 20
1217.9658935316743
 40
0.501740082747087
 50
330.00000000009186
 51
49.814871999965682
  0
ARC
  8
_0-0_計極細
  6
CONTINUOUS
 62
    2
 10
1631.8885493761243
 20
1223.0290532377267
 40
1.0034861863992508
 50
330.00000000000011
 51
63.893449999974756
  0
ARC
  8
_0-0_計極細
  6
CONTINUOUS
 62
    2
 10
1644.0192581927483
 20
1159.1329868510302
 40
1.0034861863992508
 50
210.00000000002515
 51
317.6059660000256
  0
ARC
  8
_0-0_計極細
  6
CONTINUOUS
 62
    2
 10
1647.3376318584685
 20
1162.4167523543692
 40
0.501740082747087
 50
324.11293799996702
 51
29.999999999959307
  0
ARC
  8
_0-0_計極細
  6
CONTINUOUS
 62
    2
 10
1614.0047573825284
 20
1186.5342583144811
 40
37.630656728658437
 50
14.493223999999607
 51
26.404005000000534
  0
LINE
  8
_0-0_計極細
  6
CONTINUOUS
 62
    2
 10
1653.0540417026166
 20
1200.4831961715663
 11
1646.4490245409313
 21
1189.0429707700273
  0
ARC
  8
_0-0_計極細
  6
CONTINUOUS
 62
    2
 10
1654.0882947139578
 20
1179.8253022684594
 40
1.0034861863992508
 50
209.99999999997672
 51
350.4982300000064
  0
ARC
  8
_0-0_計極細
  6
CONTINUOUS
 62
    2
 10
1654.0882947139578
 20
1193.2432143605047
 40
1.0034861863992508
 50
9.5017699999932326
 51
150.00000000000043
  0
ARC
  8
_0-0_計極細
  6
CONTINUOUS
 62
    2
 10
1614.0047573825284
 20
1186.5342583144811
 40
37.630656728658437
 50
3.6803540000001762
 51
6.228477000000372
  0
ARC
  8
_0-0_計極細
  6
CONTINUOUS
 62
    2
 10
1614.0047573825284
 20
1186.5342583144811
 40
37.630656728658437
 50
353.77152300000063
 51
356.31964600000015
  0
ARC
  8
_0-0_計極細
  6
CONTINUOUS
 62
    2
 10
1614.0047573825284
 20
1186.5342583144811
 40
37.630656728658437
 50
333.59599499999973
 51
345.50677600000074
  0
ARC
  8
_0-0_計極細
  6
CONTINUOUS
 62
    2
 10
1650.0480205504607
 20
1167.7570603420027
 40
1.0034861863992508
 50
209.99999999997672
 51
332.48216400001218
  0
ARC
  8
_0-0_計極細
  6
CONTINUOUS
 62
    2
 10
1652.0978015583521
 20
1183.2729327243637
 40
1.0034861863992508
 50
89.999999999999915
 51
210.00000000002515
  0
ARC
  8
_0-0_計極細
  6
CONTINUOUS
 62
    2
 10
1646.0145018424589
 20
1183.7746788280156
 40
0.501740082747087
 50
30.000000000004636
 51
89.999999999999915
  0
LINE
  8
_0-0_計極細
  6
CONTINUOUS
 62
    2
 10
1653.219249317013
 20
1179.3235621857129
 11
1651.2287621823141
 21
1182.7711926416173
  0
LINE
  8
_0-0_計極細
  6
CONTINUOUS
 62
    2
 10
1653.0540417026166
 20
1172.5853204573987
 11
1646.4490245409313
 21
1184.0255458589354
  0
ARC
  8
_0-0_計極細
  6
CONTINUOUS
 62
    2
 10
1652.0978015583521
 20
1189.7955839046017
 40
1.0034861863992508
 50
149.99999999997448
 51
269.99999999999977
  0
ARC
  8
_0-0_計極細
  6
CONTINUOUS
 62
    2
 10
1646.0145018424589
 20
1189.2938378009485
 40
0.501740082747087
 50
269.99999999999977
 51
329.999999999995
  0
LINE
  8
_0-0_計極細
  6
CONTINUOUS
 62
    2
 10
1653.219249317013
 20
1193.7449544432511
 11
1651.2287621823141
 21
1190.2973239873472
  0
ARC
  8
_0-0_計極細
  6
CONTINUOUS
 62
    2
 10
1644.0192581927483
 20
1213.9355297779339
 40
1.0034861863992508
 50
42.394033999974049
 51
149.99999999997448
  0
ARC
  8
_0-0_計極細
  6
CONTINUOUS
 62
    2
 10
1647.3376318584685
 20
1210.6517642745944
 40
0.501740082747087
 50
330.00000000003996
 51
35.887062000032259
  0
ARC
  8
_0-0_計極細
  6
CONTINUOUS
 62
    2
 10
1650.0480205504607
 20
1205.3114562869614
 40
1.0034861863992508
 50
27.517836000010465
 51
150.00000000000043
  0
LINE
  8
_0-0_計極細
  6
CONTINUOUS
 62
    2
 10
1615.5099836516754
 20
1159.4820296227635
 11
1615.5099836516754
 21
1161.3487412728568
  0
LINE
  8
_0-0_計極細
  6
CONTINUOUS
 62
    2
 10
1616.0117297553268
 20
1159.514620174692
 11
1616.0117297553268
 21
1160.4796912412985
  0
LINE
  8
_0-0_計極細
  6
CONTINUOUS
 62
    2
 10
1615.5099836516754
 20
1211.7197728287047
 11
1615.5099836516754
 21
1213.5864870061991
  0
LINE
  8
_0-0_計極細
  6
CONTINUOUS
 62
    2
 10
1616.0117297553268
 20
1212.5888226435072
 11
1616.0117297553268
 21
1213.5538964542707
  0
LINE
  8
_0-0_計極細
  6
CENTER2
 62
    2
 10
488.83230101112053
 20
1186.5342583144811
 11
1703.8610216377526
 21
1186.5342583144811
  0
LINE
  8
_0-1_計細線
  6
CONTINUOUS
 62
    3
 10
498.00376026894605
 20
1258.5342583144816
 11
498.00376026894605
 21
1114.5342583144811
  0
LINE
  8
_0-1_計細線
  6
CONTINUOUS
 62
    3
 10
498.00376026894605
 20
1114.5342583144811
 11
1694.0037602689461
 21
1114.5342583144811
  0
LINE
  8
_0-1_計細線
  6
CONTINUOUS
 62
    3
 10
1694.0037602689461
 20
1114.5342583144811
 11
1694.0037602689461
 21
1258.5342583144816
  0
LINE
  8
_0-1_計細線
  6
CONTINUOUS
 62
    3
 10
1694.0037602689461
 20
1258.5342583144816
 11
498.00376026894605
 21
1258.5342583144816
  0
LINE
  8
_0-1_計細線
  6
CONTINUOUS
 62
    3
 10
509.00376026894605
 20
1247.5342583144816
 11
509.00376026894605
 21
1125.5342583144811
  0
LINE
  8
_0-1_計細線
  6
CONTINUOUS
 62
    3
 10
509.00376026894605
 20
1125.5342583144811
 11
1683.0037602689461
 21
1125.5342583144811
  0
LINE
  8
_0-1_計細線
  6
CONTINUOUS
 62
    3
 10
1683.0037602689461
 20
1125.5342583144811
 11
1683.0037602689461
 21
1247.5342583144816
  0
LINE
  8
_0-1_計細線
  6
CONTINUOUS
 62
    3
 10
1683.0037602689461
 20
1247.5342583144816
 11
509.00376026894605
 21
1247.5342583144816
  0
LINE
  8
_0-0_計極細
  6
CONTINUOUS
 62
    2
 10
1379.053755691896
 20
1235.7842583144816
 11
1379.0537579728705
 21
1230.284258314482
  0
LINE
  8
_0-0_計極細
  6
CONTINUOUS
 62
    2
 10
1385.9537556616922
 20
1235.7842583144816
 11
1385.9537579728701
 21
1230.284258314482
  0
LINE
  8
_0-0_計極細
  6
CONTINUOUS
 62
    2
 10
1379.0537579821219
 20
1220.284258314482
 11
1379.0537579821219
 21
1214.784258314482
  0
LINE
  8
_0-0_計極細
  6
CONTINUOUS
 62
    2
 10
1385.9537579822443
 20
1220.284258314482
 11
1385.9537579822443
 21
1214.784258314482
  0
LINE
  8
_0-0_計極細
  6
CONTINUOUS
 62
    2
 10
1379.0537579821219
 20
1199.2842583144825
 11
1379.0537579821219
 21
1204.784258314482
  0
LINE
  8
_0-0_計極細
  6
CONTINUOUS
 62
    2
 10
1385.9537579822443
 20
1199.2842583144825
 11
1385.9537579822443
 21
1204.784258314482
  0
LINE
  8
_0-0_計極細
  6
CONTINUOUS
 62
    2
 10
1379.0537579821219
 20
1183.7842583144829
 11
1379.0537579821219
 21
1189.2842583144825
  0
LINE
  8
_0-0_計極細
  6
CONTINUOUS
 62
    2
 10
1385.9537579822443
 20
1183.7842583144829
 11
1385.9537579822443
 21
1189.2842583144825
  0
LINE
  8
_0-0_計極細
  6
CONTINUOUS
 62
    2
 10
1379.053755691896
 20
1137.2842583144816
 11
1379.0537579728705
 21
1142.7842583144811
  0
LINE
  8
_0-0_計極細
  6
CONTINUOUS
 62
    2
 10
1385.9537556616922
 20
1137.2842583144816
 11
1385.9537579728701
 21
1142.7842583144811
  0
LINE
  8
_0-0_計極細
  6
CONTINUOUS
 62
    2
 10
1379.0537579821219
 20
1152.7842583144811
 11
1379.0537579821219
 21
1158.2842583144811
  0
LINE
  8
_0-0_計極細
  6
CONTINUOUS
 62
    2
 10
1385.9537579822443
 20
1152.7842583144811
 11
1385.9537579822443
 21
1158.2842583144811
  0
LINE
  8
_0-0_計極細
  6
CONTINUOUS
 62
    2
 10
1379.0537579821219
 20
1173.7842583144807
 11
1379.0537579821219
 21
1168.2842583144811
  0
LINE
  8
_0-0_計極細
  6
CONTINUOUS
 62
    2
 10
1385.9537579822443
 20
1173.7842583144807
 11
1385.9537579822443
 21
1168.2842583144811
  0
ARC
  8
_0-0_計極細
  6
CONTINUOUS
 62
    2
 10
1487.5817283864242
 20
1215.5342583143965
 40
54.312365187078854
 50
327.72737804884258
 51
33.846056193751515
  0
ARC
  8
_0-0_計極細
  6
CONTINUOUS
 62
    2
 10
1579.4257921514761
 20
1157.5342583145725
 40
54.312365187078854
 50
147.72737804884292
 51
213.84605619376094
  0
LINE
  8
_0-1_計細線
  6
CONTINUOUS
 62
    3
 10
510.50376026894605
 20
1245.784258314482
 11
510.50376026894605
 21
1235.7842583144816
  0
LINE
  8
_0-1_計細線
  6
CONTINUOUS
 62
    3
 10
1532.6901589976685
 20
1245.784258314482
 11
510.50376026894605
 21
1245.784258314482
  0
LINE
  8
_0-1_計細線
  6
CONTINUOUS
 62
    3
 10
510.50376026894605
 20
1235.7842583144816
 11
1537.9778642721374
 21
1235.7842583144816
  0
LINE
  8
_0-1_計細線
  6
CONTINUOUS
 62
    3
 10
510.50376026894605
 20
1230.2842583144816
 11
510.50376026894605
 21
1220.2842583144816
  0
LINE
  8
_0-1_計細線
  6
CONTINUOUS
 62
    3
 10
1539.8528534193927
 20
1230.2842583144816
 11
510.50376026894605
 21
1230.2842583144816
  0
LINE
  8
_0-1_計細線
  6
CONTINUOUS
 62
    3
 10
510.50376026894605
 20
1220.2842583144816
 11
1541.6859843392956
 21
1220.2842583144816
  0
LINE
  8
_0-1_計細線
  6
CONTINUOUS
 62
    3
 10
510.50376026894605
 20
1214.7842583144816
 11
510.50376026894605
 21
1204.7842583144816
  0
LINE
  8
_0-1_計細線
  6
CONTINUOUS
 62
    3
 10
1541.8889149478243
 20
1214.7842583144816
 11
510.50376026894605
 21
1214.7842583144816
  0
LINE
  8
_0-1_計細線
  6
CONTINUOUS
 62
    3
 10
510.50376026894605
 20
1204.7842583144816
 11
1540.8195956635461
 21
1204.7842583144816
  0
LINE
  8
_0-1_計細線
  6
CONTINUOUS
 62
    3
 10
510.50376026894605
 20
1199.2842583144816
 11
510.50376026894605
 21
1189.2842583144811
  0
LINE
  8
_0-1_計細線
  6
CONTINUOUS
 62
    3
 10
1539.4061484238671
 20
1199.2842583144816
 11
510.50376026894605
 21
1199.2842583144816
  0
LINE
  8
_0-1_計細線
  6
CONTINUOUS
 62
    3
 10
510.50376026894605
 20
1189.2842583144811
 11
1535.1292889150034
 21
1189.2842583144811
  0
LINE
  8
_0-1_計細線
  6
CONTINUOUS
 62
    3
 10
510.50376026894605
 20
1183.7842583144811
 11
510.50376026894605
 21
1173.7842583144811
  0
LINE
  8
_0-1_計細線
  6
CONTINUOUS
 62
    3
 10
1531.8782316228887
 20
1183.7842583144811
 11
510.50376026894605
 21
1183.7842583144811
  0
LINE
  8
_0-1_計細線
  6
CONTINUOUS
 62
    3
 10
510.50376026894605
 20
1173.7842583144811
 11
1527.6013721140305
 21
1173.7842583144811
  0
LINE
  8
_0-1_計細線
  6
CONTINUOUS
 62
    3
 10
510.50376026894605
 20
1168.2842583144811
 11
510.50376026894605
 21
1158.2842583144807
  0
LINE
  8
_0-1_計細線
  6
CONTINUOUS
 62
    3
 10
1526.1879248743523
 20
1168.2842583144811
 11
510.50376026894605
 21
1168.2842583144811
  0
LINE
  8
_0-1_計細線
  6
CONTINUOUS
 62
    3
 10
510.50376026894605
 20
1158.2842583144807
 11
1525.118605590076
 21
1158.2842583144807
  0
LINE
  8
_0-1_計細線
  6
CONTINUOUS
 62
    3
 10
510.50376026894605
 20
1152.7842583144807
 11
510.50376026894605
 21
1142.7842583144807
  0
LINE
  8
_0-1_計細線
  6
CONTINUOUS
 62
    3
 10
1525.3215361986065
 20
1152.7842583144807
 11
510.50376026894605
 21
1152.7842583144807
  0
LINE
  8
_0-1_計細線
  6
CONTINUOUS
 62
    3
 10
510.50376026894605
 20
1142.7842583144807
 11
1527.1546671185104
 21
1142.7842583144807
  0
LINE
  8
_0-1_計細線
  6
CONTINUOUS
 62
    3
 10
510.50376026894605
 20
1137.2842583144807
 11
510.50376026894605
 21
1127.2842583144802
  0
LINE
  8
_0-1_計細線
  6
CONTINUOUS
 62
    3
 10
1529.0296562657675
 20
1137.2842583144807
 11
510.50376026894605
 21
1137.2842583144807
  0
LINE
  8
_0-1_計細線
  6
CONTINUOUS
 62
    3
 10
510.50376026894605
 20
1127.2842583144802
 11
1534.3173615402363
 21
1127.2842583144802
  0
LINE
  8
_0-5_寸法線
  6
CONTINUOUS
 62
    7
 10
498.00376026894605
 20
1098.5342583144811
 11
498.00376026894605
 21
1026.5342583144811
  0
LINE
  8
_0-5_寸法線
  6
CONTINUOUS
 62
    7
 10
498.00376026894605
 20
1034.5342583144811
 11
513.45857348957111
 21
1038.6753630361216
  0
LINE
  8
_0-5_寸法線
  6
CONTINUOUS
 62
    7
 10
498.00376026894605
 20
1034.5342583144811
 11
513.45857348957111
 21
1030.3931535928407
  0
LINE
  8
_0-5_寸法線
  6
CONTINUOUS
 62
    7
 10
1614.0037602689461
 20
1098.5342583144811
 11
1614.0037602689461
 21
1026.5342583144811
  0
LINE
  8
_0-5_寸法線
  6
CONTINUOUS
 62
    7
 10
1614.0037602689461
 20
1034.5342583144811
 11
1598.548947048321
 21
1030.3931535928409
  0
LINE
  8
_0-5_寸法線
  6
CONTINUOUS
 62
    7
 10
1614.0037602689461
 20
1034.5342583144811
 11
1598.548947048321
 21
1038.6753630361216
  0
LINE
  8
_0-5_寸法線
  6
CONTINUOUS
 62
    7
 10
498.00376026894605
 20
1034.5342583144811
 11
1614.0037602689461
 21
1034.5342583144811
  0
TEXT
  8
_0-5_寸法線
 62
    7
 10
1032.0037602689461
 20
1034.5342583144811
 40
24
 41
1
 50
0
  1
1116
  0
LINE
  8
_0-5_寸法線
  6
CONTINUOUS
 62
    7
 10
1614.0037602689461
 20
1034.5342583144811
 11
1629.4585734895711
 21
1038.6753630361213
  0
LINE
  8
_0-5_寸法線
  6
CONTINUOUS
 62
    7
 10
1614.0037602689461
 20
1034.5342583144811
 11
1629.4585734895711
 21
1030.3931535928407
  0
LINE
  8
_0-5_寸法線
  6
CONTINUOUS
 62
    7
 10
1694.0037602689461
 20
1098.5342583144811
 11
1694.0037602689461
 21
1026.5342583144811
  0
LINE
  8
_0-5_寸法線
  6
CONTINUOUS
 62
    7
 10
1694.0037602689461
 20
1034.5342583144811
 11
1678.548947048321
 21
1030.3931535928409
  0
LINE
  8
_0-5_寸法線
  6
CONTINUOUS
 62
    7
 10
1694.0037602689461
 20
1034.5342583144811
 11
1678.548947048321
 21
1038.6753630361216
  0
LINE
  8
_0-5_寸法線
  6
CONTINUOUS
 62
    7
 10
1614.0037602689461
 20
1034.5342583144811
 11
1694.0037602689461
 21
1034.5342583144811
  0
TEXT
  8
_0-5_寸法線
 62
    7
 10
1642.0037602689451
 20
1034.5342583144811
 40
24
 41
1
 50
0
  1
80
  0
LINE
  8
_0-5_寸法線
  6
CONTINUOUS
 62
    7
 10
482.00376026894605
 20
1114.5342583144811
 11
410.00376026894605
 21
1114.5342583144811
  0
LINE
  8
_0-5_寸法線
  6
CONTINUOUS
 62
    7
 10
418.00376026894605
 20
1114.5342583144811
 11
422.14486499058626
 21
1099.0794450938561
  0
LINE
  8
_0-5_寸法線
  6
CONTINUOUS
 62
    7
 10
418.00376026894605
 20
1114.5342583144811
 11
413.86265554730562
 21
1099.0794450938561
  0
LINE
  8
_0-5_寸法線
  6
CONTINUOUS
 62
    7
 10
482.00376026894605
 20
1125.5342583144811
 11
410.00376026894605
 21
1125.5342583144811
  0
LINE
  8
_0-5_寸法線
  6
CONTINUOUS
 62
    7
 10
418.00376026894605
 20
1065.9534918260433
 11
418.00376026894605
 21
1125.5342583144811
  0
TEXT
  8
_0-5_寸法線
 62
    7
 10
418.00376026894605
 20
1065.9534918260433
 40
24
 41
1
 50
90
  1
11
  0
LINE
  8
_0-5_寸法線
  6
CONTINUOUS
 62
    7
 10
418.00376026894605
 20
1125.5342583144811
 11
413.86265554730574
 21
1140.9890715351062
  0
LINE
  8
_0-5_寸法線
  6
CONTINUOUS
 62
    7
 10
418.00376026894605
 20
1125.5342583144811
 11
422.14486499058648
 21
1140.9890715351062
  0
LINE
  8
_0-5_寸法線
  6
CONTINUOUS
 62
    7
 10
482.00376026894605
 20
1247.5342583144816
 11
410.00376026894605
 21
1247.534258314482
  0
LINE
  8
_0-5_寸法線
  6
CONTINUOUS
 62
    7
 10
418.00376026894605
 20
1247.534258314482
 11
422.14486499058626
 21
1232.079445093857
  0
LINE
  8
_0-5_寸法線
  6
CONTINUOUS
 62
    7
 10
418.00376026894605
 20
1247.534258314482
 11
413.86265554730562
 21
1232.079445093857
  0
LINE
  8
_0-5_寸法線
  6
CONTINUOUS
 62
    7
 10
418.00376026894605
 20
1125.5342583144811
 11
418.00376026894605
 21
1247.534258314482
  0
TEXT
  8
_0-5_寸法線
 62
    7
 10
418.00376026894605
 20
1168.5342583144816
 40
24
 41
1
 50
90
  1
122
  0
LINE
  8
_0-5_寸法線
  6
CONTINUOUS
 62
    7
 10
482.00376026894605
 20
1258.5342583144816
 11
410.00376026894605
 21
1258.534258314482
  0
LINE
  8
_0-5_寸法線
  6
CONTINUOUS
 62
    7
 10
418.00376026894605
 20
1258.534258314482
 11
413.86265554730574
 21
1273.9890715351071
  0
LINE
  8
_0-5_寸法線
  6
CONTINUOUS
 62
    7
 10
418.00376026894605
 20
1258.534258314482
 11
422.14486499058648
 21
1273.9890715351071
  0
LINE
  8
_0-5_寸法線
  6
CONTINUOUS
 62
    7
 10
418.00376026894605
 20
1247.534258314482
 11
418.00376026894605
 21
1301.6519148867872
  0
TEXT
  8
_0-5_寸法線
 62
    7
 10
418.00376026894605
 20
1277.6519148867872
 40
24
 41
1
 50
90
  1
11
  0
LINE
  8
_0-5_寸法線
  6
CONTINUOUS
 62
    7
 10
482.00376026894605
 20
1258.5342583144816
 11
354.00376026894605
 21
1258.5342583144816
  0
LINE
  8
_0-5_寸法線
  6
CONTINUOUS
 62
    7
 10
362.00376026894605
 20
1258.5342583144816
 11
366.14486499058626
 21
1243.0794450938565
  0
LINE
  8
_0-5_寸法線
  6
CONTINUOUS
 62
    7
 10
362.00376026894605
 20
1258.5342583144816
 11
357.86265554730562
 21
1243.0794450938565
  0
LINE
  8
_0-5_寸法線
  6
CONTINUOUS
 62
    7
 10
482.00376026894605
 20
1114.5342583144811
 11
354.00376026894605
 21
1114.5342583144811
  0
LINE
  8
_0-5_寸法線
  6
CONTINUOUS
 62
    7
 10
362.00376026894605
 20
1114.5342583144811
 11
357.86265554730562
 21
1129.9890715351062
  0
LINE
  8
_0-5_寸法線
  6
CONTINUOUS
 62
    7
 10
362.00376026894605
 20
1114.5342583144811
 11
366.14486499058637
 21
1129.9890715351062
  0
LINE
  8
_0-5_寸法線
  6
CONTINUOUS
 62
    7
 10
362.00376026894605
 20
1258.5342583144816
 11
362.00376026894605
 21
1114.5342583144811
  0
TEXT
  8
_0-5_寸法線
 62
    7
 10
362.00376026894605
 20
1168.5342583144811
 40
24
 41
1
 50
90
  1
144
  0
LINE
  8
_0-5_寸法線
  6
CONTINUOUS
 62
    7
 10
1681.5037602689461
 20
1274.5342583144816
 11
1681.5037602689461
 21
1346.5342583144816
  0
LINE
  8
_0-5_寸法線
  6
CONTINUOUS
 62
    7
 10
1681.5037602689461
 20
1338.5342583144816
 11
1666.048947048321
 21
1334.3931535928414
  0
LINE
  8
_0-5_寸法線
  6
CONTINUOUS
 62
    7
 10
1681.5037602689461
 20
1338.5342583144816
 11
1666.048947048321
 21
1342.675363036122
  0
LINE
  8
_0-5_寸法線
  6
CONTINUOUS
 62
    7
 10
510.50376026894617
 20
1274.5342583144813
 11
510.50376026894651
 21
1346.5342583144816
  0
LINE
  8
_0-5_寸法線
  6
CONTINUOUS
 62
    7
 10
510.50376026894651
 20
1338.5342583144816
 11
525.95857348957156
 21
1342.675363036122
  0
LINE
  8
_0-5_寸法線
  6
CONTINUOUS
 62
    7
 10
510.50376026894651
 20
1338.5342583144816
 11
525.95857348957156
 21
1334.3931535928411
  0
LINE
  8
_0-5_寸法線
  6
CONTINUOUS
 62
    7
 10
1681.5037602689461
 20
1338.5342583144816
 11
510.50376026894651
 21
1338.5342583144816
  0
TEXT
  8
_0-5_寸法線
 62
    7
 10
1072.0037602689461
 20
1338.5342583144816
 40
24
 41
1
 50
0
  1
1171
  0
LINE
  8
_0-5_寸法線
  6
CONTINUOUS
 62
    7
 10
498.00376026894605
 20
1274.5342583144816
 11
498.00376026894651
 21
1402.5342583144816
  0
LINE
  8
_0-5_寸法線
  6
CONTINUOUS
 62
    7
 10
498.00376026894651
 20
1394.5342583144816
 11
482.54894704832145
 21
1390.3931535928414
  0
LINE
  8
_0-5_寸法線
  6
CONTINUOUS
 62
    7
 10
498.00376026894651
 20
1394.5342583144816
 11
482.54894704832145
 21
1398.675363036122
  0
LINE
  8
_0-5_寸法線
  6
CONTINUOUS
 62
    7
 10
509.00376026894605
 20
1274.5342583144813
 11
509.00376026894651
 21
1402.5342583144816
  0
LINE
  8
_0-5_寸法線
  6
CONTINUOUS
 62
    7
 10
451.45197405717431
 20
1394.5342583144816
 11
509.00376026894651
 21
1394.5342583144816
  0
TEXT
  8
_0-5_寸法線
 62
    7
 10
451.45197405717431
 20
1394.5342583144816
 40
24
 41
1
 50
0
  1
11
  0
LINE
  8
_0-5_寸法線
  6
CONTINUOUS
 62
    7
 10
509.00376026894651
 20
1394.5342583144816
 11
524.45857348957168
 21
1398.6753630361218
  0
LINE
  8
_0-5_寸法線
  6
CONTINUOUS
 62
    7
 10
509.00376026894651
 20
1394.5342583144816
 11
524.45857348957156
 21
1390.3931535928411
  0
LINE
  8
_0-5_寸法線
  6
CONTINUOUS
 62
    7
 10
1683.0037602689461
 20
1274.5342583144816
 11
1683.0037602689461
 21
1402.5342583144816
  0
LINE
  8
_0-5_寸法線
  6
CONTINUOUS
 62
    7
 10
1683.0037602689461
 20
1394.5342583144816
 11
1667.548947048321
 21
1390.3931535928414
  0
LINE
  8
_0-5_寸法線
  6
CONTINUOUS
 62
    7
 10
1683.0037602689461
 20
1394.5342583144816
 11
1667.548947048321
 21
1398.675363036122
  0
LINE
  8
_0-5_寸法線
  6
CONTINUOUS
 62
    7
 10
509.00376026894651
 20
1394.5342583144816
 11
1683.0037602689461
 21
1394.5342583144816
  0
TEXT
  8
_0-5_寸法線
 62
    7
 10
1072.0037602689461
 20
1394.5342583144816
 40
24
 41
1
 50
0
  1
1174
  0
LINE
  8
_0-5_寸法線
  6
CONTINUOUS
 62
    7
 10
1694.0037602689461
 20
1274.5342583144816
 11
1694.0037602689461
 21
1402.5342583144816
  0
LINE
  8
_0-5_寸法線
  6
CONTINUOUS
 62
    7
 10
1694.0037602689461
 20
1394.5342583144816
 11
1709.4585734895711
 21
1398.6753630361218
  0
LINE
  8
_0-5_寸法線
  6
CONTINUOUS
 62
    7
 10
1694.0037602689461
 20
1394.5342583144816
 11
1709.4585734895711
 21
1390.3931535928411
  0
LINE
  8
_0-5_寸法線
  6
CONTINUOUS
 62
    7
 10
1683.0037602689461
 20
1394.5342583144816
 11
1737.2807477584151
 21
1394.5342583144816
  0
TEXT
  8
_0-5_寸法線
 62
    7
 10
1713.2807477584154
 20
1394.5342583144816
 40
24
 41
1
 50
0
  1
11
  0
LINE
  8
_0-5_寸法線
  6
CONTINUOUS
 62
    7
 10
498.00376026894605
 20
1274.5342583144816
 11
498.00376026894605
 21
1458.5342583144816
  0
LINE
  8
_0-5_寸法線
  6
CONTINUOUS
 62
    7
 10
498.00376026894605
 20
1450.5342583144816
 11
513.45857348957111
 21
1454.675363036122
  0
LINE
  8
_0-5_寸法線
  6
CONTINUOUS
 62
    7
 10
498.00376026894605
 20
1450.5342583144816
 11
513.45857348957111
 21
1446.3931535928411
  0
LINE
  8
_0-5_寸法線
  6
CONTINUOUS
 62
    7
 10
1694.0037602689461
 20
1274.5342583144816
 11
1694.0037602689461
 21
1458.5342583144816
  0
LINE
  8
_0-5_寸法線
  6
CONTINUOUS
 62
    7
 10
1694.0037602689461
 20
1450.5342583144816
 11
1678.548947048321
 21
1446.3931535928414
  0
LINE
  8
_0-5_寸法線
  6
CONTINUOUS
 62
    7
 10
1694.0037602689461
 20
1450.5342583144816
 11
1678.548947048321
 21
1454.675363036122
  0
LINE
  8
_0-5_寸法線
  6
CONTINUOUS
 62
    7
 10
498.00376026894605
 20
1450.5342583144816
 11
1694.0037602689461
 21
1450.5342583144816
  0
TEXT
  8
_0-5_寸法線
 62
    7
 10
1072.0037602689461
 20
1450.5342583144816
 40
24
 41
1
 50
0
  1
1196
  0
LINE
  8
_0-1_計細線
  6
CONTINUOUS
 62
    3
 10
1838.0037602689461
 20
1124.5342583144811
 11
1873.0037602689461
 21
1124.5342583144811
  0
LINE
  8
_0-1_計細線
  6
CONTINUOUS
 62
    3
 10
1873.0037602689461
 20
1124.5342583144811
 11
1873.0037602689461
 21
1123.3342583144822
  0
LINE
  8
_0-1_計細線
  6
CONTINUOUS
 62
    3
 10
1873.0037602689461
 20
1123.3342583144822
 11
1838.0037602689461
 21
1123.3342583144822
  0
LINE
  8
_0-1_計細線
  6
CONTINUOUS
 62
    3
 10
1838.0037602689461
 20
1123.3342583144822
 11
1838.0037602689461
 21
1124.5342583144811
  0
LINE
  8
_0-1_計細線
  6
CONTINUOUS
 62
    3
 10
1840.0037602689461
 20
1123.3342583144822
 11
1840.0037602689461
 21
1124.5342583144811
  0
LINE
  8
_0-1_計細線
  6
CONTINUOUS
 62
    3
 10
1850.0037602689461
 20
1123.3342583144822
 11
1850.0037602689461
 21
1124.5342583144811
  0
LINE
  8
_0-1_計細線
  6
CONTINUOUS
 62
    3
 10
1852.0037602689461
 20
1123.3342583144822
 11
1852.0037602689461
 21
1124.5342583144811
  0
LINE
  8
_0-1_計細線
  6
CONTINUOUS
 62
    3
 10
1854.0037602689461
 20
1123.3342583144822
 11
1854.0037602689461
 21
1124.5342583144811
  0
LINE
  8
_0-1_計細線
  6
CONTINUOUS
 62
    3
 10
1856.0037602689461
 20
1123.3342583144822
 11
1856.0037602689461
 21
1124.5342583144811
  0
LINE
  8
_0-1_計細線
  6
CONTINUOUS
 62
    3
 10
1870.0037602689461
 20
1123.3342583144822
 11
1870.0037602689461
 21
1124.5342583144811
  0
ARC
  8
_0-1_計細線
  6
CONTINUOUS
 62
    3
 10
1849.0037602689461
 20
1247.5342583144811
 40
1
 50
0
 51
89.999999999999915
  0
LINE
  8
_0-1_計細線
  6
CONTINUOUS
 62
    3
 10
1838.0037602689461
 20
1249.7342583144809
 11
1873.0037602689461
 21
1249.7342583144809
  0
LINE
  8
_0-1_計細線
  6
CONTINUOUS
 62
    3
 10
1873.0037602689461
 20
1249.7342583144809
 11
1873.0037602689461
 21
1248.5342583144811
  0
LINE
  8
_0-1_計細線
  6
CONTINUOUS
 62
    3
 10
1873.0037602689461
 20
1248.5342583144811
 11
1838.0037602689461
 21
1248.5342583144811
  0
LINE
  8
_0-1_計細線
  6
CONTINUOUS
 62
    3
 10
1838.0037602689461
 20
1248.5342583144811
 11
1838.0037602689461
 21
1249.7342583144809
  0
LINE
  8
_0-1_計細線
  6
CONTINUOUS
 62
    3
 10
1840.0037602689461
 20
1248.5342583144811
 11
1840.0037602689461
 21
1249.7342583144809
  0
LINE
  8
_0-1_計細線
  6
CONTINUOUS
 62
    3
 10
1850.0037602689461
 20
1248.5342583144811
 11
1850.0037602689461
 21
1249.7342583144809
  0
LINE
  8
_0-1_計細線
  6
CONTINUOUS
 62
    3
 10
1852.0037602689461
 20
1248.5342583144811
 11
1852.0037602689461
 21
1249.7342583144809
  0
LINE
  8
_0-1_計細線
  6
CONTINUOUS
 62
    3
 10
1854.0037602689461
 20
1248.5342583144811
 11
1854.0037602689461
 21
1249.7342583144809
  0
LINE
  8
_0-1_計細線
  6
CONTINUOUS
 62
    3
 10
1856.0037602689461
 20
1248.5342583144811
 11
1856.0037602689461
 21
1249.7342583144809
  0
LINE
  8
_0-1_計細線
  6
CONTINUOUS
 62
    3
 10
1870.0037602689461
 20
1248.5342583144811
 11
1870.0037602689461
 21
1249.7342583144809
  0
LINE
  8
_0-1_計細線
  6
CONTINUOUS
 62
    3
 10
1838.0037602689461
 20
1258.5342583144811
 11
1831.0037602689461
 21
1258.5342583144811
  0
ARC
  8
_0-1_計細線
  6
CONTINUOUS
 62
    3
 10
1831.0037602689461
 20
1257.5342583144811
 40
1
 50
89.999999999999915
 51
179.99999999999983
  0
LINE
  8
_0-1_計細線
  6
CONTINUOUS
 62
    3
 10
1830.0037602689461
 20
1257.5342583144811
 11
1830.0037602689461
 21
1115.5342583144811
  0
ARC
  8
_0-1_計細線
  6
CONTINUOUS
 62
    3
 10
1831.0037602689461
 20
1115.5342583144811
 40
1
 50
179.99999999999983
 51
269.99999999994753
  0
LINE
  8
_0-1_計細線
  6
CONTINUOUS
 62
    3
 10
1838.0037602689461
 20
1114.5342583144811
 11
1838.0037602689461
 21
1258.5342583144811
  0
LINE
  8
_0-1_計細線
  6
CONTINUOUS
 62
    3
 10
1838.0037602689461
 20
1114.5342583144811
 11
1831.0037602689451
 21
1114.5342583144811
  0
LINE
  8
_0-0_計極細
  6
CENTER2
 62
    2
 10
1790.7614538832083
 20
1186.5342583144811
 11
1905.9844754659405
 21
1186.5342583144811
  0
LINE
  8
_0-1_計細線
  6
CONTINUOUS
 62
    3
 10
1850.0037602689461
 20
1247.5342583144811
 11
1850.0037602689461
 21
1125.5342583144811
  0
ARC
  8
_0-1_計細線
  6
CONTINUOUS
 62
    3
 10
1849.0037602689461
 20
1125.5342583144811
 40
1
 50
269.99999999999977
 51
359.99999999999966
  0
ARC
  8
_0-1_計細線
  6
CONTINUOUS
 62
    3
 10
1852.503760268947
 20
1243.5342583144811
 40
1.5
 50
0
 51
89.999999999999915
  0
LINE
  8
_0-1_計細線
  6
CONTINUOUS
 62
    3
 10
1850.503760268947
 20
1245.0342583144811
 11
1852.503760268947
 21
1245.0342583144811
  0
ARC
  8
_0-1_計細線
  6
CONTINUOUS
 62
    3
 10
1850.503760268947
 20
1245.5342583144811
 40
0.5
 50
179.99999999999983
 51
269.99999999999977
  0
LINE
  8
_0-1_計細線
  6
CONTINUOUS
 62
    3
 10
1850.503760268947
 20
1128.0342583144811
 11
1852.503760268947
 21
1128.0342583144811
  0
ARC
  8
_0-1_計細線
  6
CONTINUOUS
 62
    3
 10
1850.503760268947
 20
1127.5342583144811
 40
0.5
 50
89.999999999999915
 51
179.99999999999983
  0
LINE
  8
_0-1_計細線
  6
CONTINUOUS
 62
    3
 10
1854.003760268947
 20
1243.5342583144811
 11
1854.003760268947
 21
1129.5342583144811
  0
ARC
  8
_0-1_計細線
  6
CONTINUOUS
 62
    3
 10
1852.503760268947
 20
1129.5342583144811
 40
1.5
 50
269.99999999999977
 51
359.99999999999966
  0
LINE
  8
_0-5_寸法線
  6
CONTINUOUS
 62
    7
 10
1830.0037602689461
 20
1274.5342583144811
 11
1830.0037602689461
 21
1346.5342583144816
  0
LINE
  8
_0-5_寸法線
  6
CONTINUOUS
 62
    7
 10
1830.0037602689461
 20
1338.5342583144816
 11
1814.548947048321
 21
1334.3931535928414
  0
LINE
  8
_0-5_寸法線
  6
CONTINUOUS
 62
    7
 10
1830.0037602689461
 20
1338.5342583144816
 11
1814.548947048321
 21
1342.675363036122
  0
LINE
  8
_0-5_寸法線
  6
CONTINUOUS
 62
    7
 10
1850.0037602689461
 20
1265.7342583144809
 11
1850.0037602689461
 21
1346.5342583144816
  0
CIRCLE
  8
_0-5_寸法線
  6
CONTINUOUS
 62
    1
 10
1850.0037602689461
 20
1338.5342583144816
 40
2.4000000000000004
  0
LINE
  8
_0-5_寸法線
  6
CONTINUOUS
 62
    7
 10
1787.0421667177484
 20
1338.5342583144816
 11
1850.0037602689461
 21
1338.5342583144816
  0
TEXT
  8
_0-5_寸法線
 62
    7
 10
1787.0421667177486
 20
1338.5342583144816
 40
24
 41
1
 50
0
  1
20
  0
LINE
  8
_0-5_寸法線
  6
CONTINUOUS
 62
    7
 10
1873.0037602689461
 20
1265.7342583144809
 11
1873.0037602689461
 21
1346.5342583144816
  0
LINE
  8
_0-5_寸法線
  6
CONTINUOUS
 62
    7
 10
1873.0037602689461
 20
1338.5342583144816
 11
1888.4585734895711
 21
1342.6753630361218
  0
LINE
  8
_0-5_寸法線
  6
CONTINUOUS
 62
    7
 10
1873.0037602689461
 20
1338.5342583144816
 11
1888.4585734895711
 21
1334.3931535928411
  0
LINE
  8
_0-5_寸法線
  6
CONTINUOUS
 62
    7
 10
1850.0037602689461
 20
1338.5342583144816
 11
1919.344950711034
 21
1338.5342583144816
  0
TEXT
  8
_0-5_寸法線
 62
    7
 10
1895.3449507110342
 20
1338.5342583144816
 40
24
 41
1
 50
0
  1
23
  0
LINE
  8
_0-5_寸法線
  6
CONTINUOUS
 62
    7
 10
1830.0037602689463
 20
1274.534258314482
 11
1830.0037602689479
 21
1402.5342583144816
  0
LINE
  8
_0-5_寸法線
  6
CONTINUOUS
 62
    7
 10
1830.0037602689479
 20
1394.5342583144816
 11
1845.4585734895729
 21
1398.675363036122
  0
LINE
  8
_0-5_寸法線
  6
CONTINUOUS
 62
    7
 10
1830.0037602689479
 20
1394.5342583144816
 11
1845.4585734895729
 21
1390.3931535928411
  0
LINE
  8
_0-5_寸法線
  6
CONTINUOUS
 62
    7
 10
1873.0037602689461
 20
1265.7342583144809
 11
1873.0037602689461
 21
1402.5342583144816
  0
LINE
  8
_0-5_寸法線
  6
CONTINUOUS
 62
    7
 10
1873.0037602689461
 20
1394.5342583144816
 11
1857.548947048321
 21
1390.3931535928414
  0
LINE
  8
_0-5_寸法線
  6
CONTINUOUS
 62
    7
 10
1873.0037602689461
 20
1394.5342583144816
 11
1857.548947048321
 21
1398.675363036122
  0
LINE
  8
_0-5_寸法線
  6
CONTINUOUS
 62
    7
 10
1830.0037602689479
 20
1394.5342583144816
 11
1873.0037602689461
 21
1394.5342583144816
  0
TEXT
  8
_0-5_寸法線
 62
    7
 10
1839.5037602689461
 20
1394.5342583144816
 40
24
 41
1
 50
0
  1
43
  0
ARC
  8
_0-1_計細線
  6
CONTINUOUS
 62
    3
 10
1693.0037602689461
 20
873.53425831448112
 40
1
 50
0
 51
89.999999999999915
  0
LINE
  8
_0-1_計細線
  6
CONTINUOUS
 62
    3
 10
1694.0037602689461
 20
866.53425831448112
 11
1694.0037602689461
 21
873.53425831448112
  0
LINE
  8
_0-1_計細線
  6
CONTINUOUS
 62
    3
 10
1693.003760268947
 20
866.53425831448112
 11
1694.0037602689461
 21
866.53425831448112
  0
ARC
  8
_0-1_計細線
  6
CONTINUOUS
 62
    3
 10
1673.0037602689461
 20
854.03425831448021
 40
1.5
 50
89.999999999999915
 51
179.99999999999983
  0
LINE
  8
_0-1_計細線
  6
CONTINUOUS
 62
    3
 10
1671.5037602689461
 20
854.03425831448021
 11
1671.5037602689461
 21
852.03425831448021
  0
ARC
  8
_0-1_計細線
  6
CONTINUOUS
 62
    3
 10
1671.0037602689461
 20
852.03425831448021
 40
1.5
 50
269.99999999999977
 51
359.99999999999966
  0
LINE
  8
_0-1_計細線
  6
CONTINUOUS
 62
    3
 10
1672.5037602689461
 20
854.03425831448021
 11
1672.5037602689461
 21
852.03425831448021
  0
LINE
  8
_0-1_計細線
  6
CONTINUOUS
 62
    3
 10
1671.0037602689461
 20
850.53425831448021
 11
1665.0037602689461
 21
850.53425831448021
  0
ARC
  8
_0-1_計細線
  6
CONTINUOUS
 62
    3
 10
1673.0037602689461
 20
854.03425831448021
 40
0.5
 50
89.999999999999915
 51
179.99999999999983
  0
ARC
  8
_0-1_計細線
  6
CONTINUOUS
 62
    3
 10
1671.0037602689461
 20
852.03425831448021
 40
0.5
 50
269.99999999999977
 51
359.99999999999966
  0
LINE
  8
_0-1_計細線
  6
CONTINUOUS
 62
    3
 10
1671.0037602689461
 20
851.53425831448021
 11
1665.0037602689461
 21
851.53425831448021
  0
LINE
  8
_0-1_計細線
  6
CONTINUOUS
 62
    3
 10
1665.0037602689461
 20
851.53425831448021
 11
1665.0037602689461
 21
850.53425831448021
  0
LINE
  8
_0-1_計細線
  6
CONTINUOUS
 62
    3
 10
1683.0037602689461
 20
855.53425831448021
 11
1673.0037602689461
 21
855.53425831448021
  0
LINE
  8
_0-1_計細線
  6
CONTINUOUS
 62
    3
 10
1683.0037602689461
 20
873.53425831448112
 11
1683.0037602689461
 21
855.53425831448021
  0
ARC
  8
_0-1_計細線
  6
CONTINUOUS
 62
    3
 10
499.00376026894605
 20
873.53425831448112
 40
1
 50
89.999999999999915
 51
179.99999999999983
  0
LINE
  8
_0-1_計細線
  6
CONTINUOUS
 62
    3
 10
498.00376026894605
 20
866.53425831448112
 11
498.00376026894605
 21
873.53425831448112
  0
LINE
  8
_0-1_計細線
  6
CONTINUOUS
 62
    3
 10
498.00376026894605
 20
866.53425831448294
 11
1614.0037602689461
 21
866.53425831448294
  0
LINE
  8
_0-1_計細線
  6
CONTINUOUS
 62
    3
 10
509.00376026894605
 20
855.53425831448112
 11
509.00376026894605
 21
866.53425831448294
  0
ARC
  8
_0-1_計細線
  6
CONTINUOUS
 62
    3
 10
510.00376026894605
 20
855.53425831448112
 40
1
 50
179.99999999999983
 51
269.99999999999977
  0
LINE
  8
_0-1_計細線
  6
CONTINUOUS
 62
    3
 10
1673.0037602689461
 20
854.53425831448112
 11
1683.0037602689461
 21
854.53425831448112
  0
LINE
  8
_0-1_計細線
  6
CONTINUOUS
 62
    3
 10
1684.0037602689461
 20
866.53425831448112
 11
1693.003760268947
 21
866.53425831448112
  0
LINE
  8
_0-1_計細線
  6
CONTINUOUS
 62
    3
 10
1693.003760268947
 20
866.53425831448112
 11
1693.003760268947
 21
873.53425831448135
  0
LINE
  8
_0-1_計細線
  6
CONTINUOUS
 62
    3
 10
1693.003760268947
 20
873.53425831448135
 11
1684.0037602689461
 21
873.53425831448135
  0
LINE
  8
_0-1_計細線
  6
CONTINUOUS
 62
    3
 10
1684.0037602689461
 20
873.53425831448135
 11
1684.0037602689461
 21
855.53425831448112
  0
ARC
  8
_0-1_計細線
  6
CONTINUOUS
 62
    3
 10
1683.0037602689461
 20
855.53425831448112
 40
1
 50
269.99999999999977
 51
359.99999999999966
  0
LINE
  8
_0-1_計細線
  6
CONTINUOUS
 62
    3
 10
1693.0037602689461
 20
874.53425831448112
 11
1684.0037602689461
 21
874.53425831448112
  0
LINE
  8
_0-1_計細線
  6
CONTINUOUS
 62
    3
 10
1684.0037602689461
 20
874.53425831448112
 11
499.00376026894787
 21
874.53425831448112
  0
ARC
  8
_0-1_計細線
  6
CONTINUOUS
 62
    3
 10
1684.0037602689461
 20
873.53425831448112
 40
1
 50
89.999999999999915
 51
179.99999999999983
  0
LINE
  8
_0-1_計細線
  6
CONTINUOUS
 62
    3
 10
1614.0037602689461
 20
867.53425831448021
 11
1681.5037602689461
 21
867.53425831448021
  0
LINE
  8
_0-1_計細線
  6
CONTINUOUS
 62
    3
 10
1614.0037602689461
 20
873.53425831448112
 11
1681.5037602689461
 21
873.53425831448112
  0
LINE
  8
_0-1_計細線
  6
CONTINUOUS
 62
    3
 10
1614.0037602689461
 20
855.53425831448112
 11
1681.5037602689461
 21
855.53425831448112
  0
LINE
  8
_0-1_計細線
  6
CONTINUOUS
 62
    3
 10
1681.5037602689461
 20
873.53425831448112
 11
1681.5037602689461
 21
855.53425831448112
  0
LINE
  8
_0-0_計極細
  6
CENTER1
 62
    2
 10
533.0037602689456
 20
826.73877774131233
 11
533.0037602689456
 21
871.79247781884987
  0
LINE
  8
_0-1_計細線
  6
CONTINUOUS
 62
    3
 10
527.00376042202629
 20
866.52165946705099
 11
525.00376042202629
 21
864.52165946705099
  0
LINE
  8
_0-1_計細線
  6
CONTINUOUS
 62
    3
 10
525.00376042202629
 20
854.52165946705099
 11
525.00376042202629
 21
864.52165946705099
  0
LINE
  8
_0-1_計細線
  6
CONTINUOUS
 62
    3
 10
541.00376011586491
 20
854.52165946705099
 11
541.00376011586491
 21
864.52165946705099
  0
LINE
  8
_0-1_計細線
  6
CONTINUOUS
 62
    3
 10
527.00376042202629
 20
850.52165946705099
 11
525.00376042202629
 21
848.52165946705099
  0
LINE
  8
_0-1_計細線
  6
CONTINUOUS
 62
    3
 10
527.00376042202629
 20
852.52165946705099
 11
527.00376042202629
 21
850.52165946705099
  0
LINE
  8
_0-1_計細線
  6
CONTINUOUS
 62
    3
 10
525.00376042202629
 20
854.52165946705099
 11
527.00376042202629
 21
852.52165946705099
  0
LINE
  8
_0-1_計細線
  6
CONTINUOUS
 62
    3
 10
539.00376011586491
 20
850.52165946705099
 11
541.00376011586491
 21
848.52165946705099
  0
LINE
  8
_0-1_計細線
  6
CONTINUOUS
 62
    3
 10
539.00376011586491
 20
852.52165946705099
 11
539.00376011586491
 21
850.52165946705099
  0
LINE
  8
_0-1_計細線
  6
CONTINUOUS
 62
    3
 10
541.00376011586491
 20
854.52165946705099
 11
539.00376011586491
 21
852.52165946705099
  0
LINE
  8
_0-1_計細線
  6
CONTINUOUS
 62
    3
 10
525.00376042202629
 20
848.52165946705099
 11
525.00376042202629
 21
834.52165946705099
  0
ARC
  8
_0-1_計細線
  6
CONTINUOUS
 62
    3
 10
528.00376042202629
 20
834.52165946705099
 40
3
 50
179.99999999999983
 51
269.99999999999977
  0
LINE
  8
_0-1_計細線
  6
CONTINUOUS
 62
    3
 10
528.00376042202629
 20
831.52165946705099
 11
538.00376011586491
 21
831.52165946705099
  0
LINE
  8
_0-1_計細線
  6
CONTINUOUS
 62
    3
 10
541.00376011586491
 20
848.52165946705099
 11
541.00376011586491
 21
834.52165946705099
  0
ARC
  8
_0-1_計細線
  6
CONTINUOUS
 62
    3
 10
538.00376011586491
 20
834.52165946705099
 40
3
 50
269.99999999999977
 51
359.99999999999966
  0
LINE
  8
_0-1_計細線
  6
CONTINUOUS
 62
    3
 10
527.00376042202629
 20
866.52165946705099
 11
539.00376011586491
 21
866.52165946705099
  0
LINE
  8
_0-1_計細線
  6
CONTINUOUS
 62
    3
 10
541.00376011586491
 20
864.52165946705099
 11
539.00376011586491
 21
866.52165946705099
  0
LINE
  8
_0-1_計細線
  6
CONTINUOUS
 62
    3
 10
510.00376026894605
 20
854.53425831448112
 11
525.00376042202629
 21
854.53425831448112
  0
LINE
  8
_0-0_計極細
  6
CENTER1
 62
    2
 10
1096.0037602689461
 20
826.73877774131233
 11
1096.0037602689461
 21
871.79247781884987
  0
LINE
  8
_0-1_計細線
  6
CONTINUOUS
 62
    3
 10
1090.0037604220267
 20
866.52165946705099
 11
1088.0037604220267
 21
864.52165946705099
  0
LINE
  8
_0-1_計細線
  6
CONTINUOUS
 62
    3
 10
1088.0037604220267
 20
854.52165946705099
 11
1088.0037604220267
 21
864.52165946705099
  0
LINE
  8
_0-1_計細線
  6
CONTINUOUS
 62
    3
 10
1104.0037601158654
 20
854.52165946705099
 11
1104.0037601158654
 21
864.52165946705099
  0
LINE
  8
_0-1_計細線
  6
CONTINUOUS
 62
    3
 10
1090.0037604220267
 20
850.52165946705099
 11
1088.0037604220267
 21
848.52165946705099
  0
LINE
  8
_0-1_計細線
  6
CONTINUOUS
 62
    3
 10
1090.0037604220267
 20
852.52165946705099
 11
1090.0037604220267
 21
850.52165946705099
  0
LINE
  8
_0-1_計細線
  6
CONTINUOUS
 62
    3
 10
1088.0037604220267
 20
854.52165946705099
 11
1090.0037604220267
 21
852.52165946705099
  0
LINE
  8
_0-1_計細線
  6
CONTINUOUS
 62
    3
 10
1102.0037601158654
 20
850.52165946705099
 11
1104.0037601158654
 21
848.52165946705099
  0
LINE
  8
_0-1_計細線
  6
CONTINUOUS
 62
    3
 10
1102.0037601158654
 20
852.52165946705099
 11
1102.0037601158654
 21
850.52165946705099
  0
LINE
  8
_0-1_計細線
  6
CONTINUOUS
 62
    3
 10
1104.0037601158654
 20
854.52165946705099
 11
1102.0037601158654
 21
852.52165946705099
  0
LINE
  8
_0-1_計細線
  6
CONTINUOUS
 62
    3
 10
1088.0037604220267
 20
848.52165946705099
 11
1088.0037604220267
 21
834.52165946705099
  0
ARC
  8
_0-1_計細線
  6
CONTINUOUS
 62
    3
 10
1091.0037604220267
 20
834.52165946705099
 40
3
 50
179.99999999999983
 51
269.99999999999977
  0
LINE
  8
_0-1_計細線
  6
CONTINUOUS
 62
    3
 10
1091.0037604220267
 20
831.52165946705099
 11
1101.0037601158654
 21
831.52165946705099
  0
LINE
  8
_0-1_計細線
  6
CONTINUOUS
 62
    3
 10
1104.0037601158654
 20
848.52165946705099
 11
1104.0037601158654
 21
834.52165946705099
  0
ARC
  8
_0-1_計細線
  6
CONTINUOUS
 62
    3
 10
1101.0037601158654
 20
834.52165946705099
 40
3
 50
269.99999999999977
 51
359.99999999999966
  0
LINE
  8
_0-1_計細線
  6
CONTINUOUS
 62
    3
 10
1090.0037604220267
 20
866.52165946705099
 11
1102.0037601158654
 21
866.52165946705099
  0
LINE
  8
_0-1_計細線
  6
CONTINUOUS
 62
    3
 10
1104.0037601158654
 20
864.52165946705099
 11
1102.0037601158654
 21
866.52165946705099
  0
LINE
  8
_0-1_計細線
  6
CONTINUOUS
 62
    3
 10
1104.0037601158654
 20
854.53425831448112
 11
1614.0037602689461
 21
854.53425831448112
  0
LINE
  8
_0-1_計細線
  6
CONTINUOUS
 62
    3
 10
541.00376011586491
 20
854.53425831448112
 11
1088.0037604220267
 21
854.53425831448112
  0
LINE
  8
_0-0_計極細
  6
DASHED2
 62
    2
 10
1659.0037602689461
 20
826.73877774131233
 11
1659.0037602689461
 21
871.79247781884987
  0
LINE
  8
_0-1_計細線
  6
DASHED2
 62
    3
 10
1667.0037601158654
 20
864.52165946705099
 11
1665.0037601158654
 21
866.52165946705099
  0
LINE
  8
_0-1_計細線
  6
DASHED2
 62
    3
 10
1653.0037604220267
 20
866.52165946705099
 11
1665.0037601158654
 21
866.52165946705099
  0
ARC
  8
_0-1_計細線
  6
DASHED2
 62
    3
 10
1664.0037601158654
 20
834.52165946705099
 40
3
 50
269.99999999999977
 51
359.99999999999966
  0
LINE
  8
_0-1_計細線
  6
DASHED2
 62
    3
 10
1667.0037601158654
 20
848.52165946705099
 11
1667.0037601158654
 21
834.52165946705099
  0
LINE
  8
_0-1_計細線
  6
DASHED2
 62
    3
 10
1654.0037604220267
 20
831.52165946705099
 11
1664.0037601158654
 21
831.52165946705099
  0
ARC
  8
_0-1_計細線
  6
DASHED2
 62
    3
 10
1654.0037604220267
 20
834.52165946705099
 40
3
 50
179.99999999999983
 51
269.99999999999977
  0
LINE
  8
_0-1_計細線
  6
DASHED2
 62
    3
 10
1651.0037604220267
 20
848.52165946705099
 11
1651.0037604220267
 21
834.52165946705099
  0
LINE
  8
_0-1_計細線
  6
DASHED2
 62
    3
 10
1667.0037601158654
 20
854.52165946705099
 11
1665.0037601158654
 21
852.52165946705099
  0
LINE
  8
_0-1_計細線
  6
DASHED2
 62
    3
 10
1665.0037601158654
 20
852.52165946705099
 11
1665.0037601158654
 21
850.52165946705099
  0
LINE
  8
_0-1_計細線
  6
DASHED2
 62
    3
 10
1665.0037601158654
 20
850.52165946705099
 11
1667.0037601158654
 21
848.52165946705099
  0
LINE
  8
_0-1_計細線
  6
DASHED2
 62
    3
 10
1651.0037604220267
 20
854.52165946705099
 11
1653.0037604220267
 21
852.52165946705099
  0
LINE
  8
_0-1_計細線
  6
DASHED2
 62
    3
 10
1653.0037604220267
 20
852.52165946705099
 11
1653.0037604220267
 21
850.52165946705099
  0
LINE
  8
_0-1_計細線
  6
DASHED2
 62
    3
 10
1653.0037604220267
 20
850.52165946705099
 11
1651.0037604220267
 21
848.52165946705099
  0
LINE
  8
_0-1_計細線
  6
DASHED2
 62
    3
 10
1667.0037601158654
 20
854.52165946705099
 11
1667.0037601158654
 21
864.52165946705099
  0
LINE
  8
_0-1_計細線
  6
DASHED2
 62
    3
 10
1651.0037604220267
 20
854.52165946705099
 11
1651.0037604220267
 21
864.52165946705099
  0
LINE
  8
_0-1_計細線
  6
DASHED2
 62
    3
 10
1653.0037604220267
 20
866.52165946705099
 11
1651.0037604220267
 21
864.52165946705099
  0
LINE
  8
_0-5_寸法線
  6
CONTINUOUS
 62
    7
 10
498.00376026894639
 20
890.53425831448112
 11
498.0037602689481
 21
962.53425831448112
  0
LINE
  8
_0-5_寸法線
  6
CONTINUOUS
 62
    7
 10
498.00376026894787
 20
954.53425831448112
 11
513.45857348957293
 21
958.67536303612144
  0
LINE
  8
_0-5_寸法線
  6
CONTINUOUS
 62
    7
 10
498.00376026894787
 20
954.53425831448112
 11
513.45857348957293
 21
950.3931535928408
  0
LINE
  8
_0-5_寸法線
  6
CONTINUOUS
 62
    7
 10
533.00376026894594
 20
890.53425831448112
 11
533.00376026894764
 21
962.53425831448112
  0
LINE
  8
_0-5_寸法線
  6
CONTINUOUS
 62
    7
 10
533.00376026894742
 20
954.53425831448112
 11
517.54894704832236
 21
950.3931535928408
  0
LINE
  8
_0-5_寸法線
  6
CONTINUOUS
 62
    7
 10
533.00376026894742
 20
954.53425831448112
 11
517.54894704832236
 21
958.67536303612155
  0
LINE
  8
_0-5_寸法線
  6
CONTINUOUS
 62
    7
 10
498.00376026894787
 20
954.53425831448112
 11
533.00376026894742
 21
954.53425831448112
  0
TEXT
  8
_0-5_寸法線
 62
    7
 10
503.50376026894878
 20
954.53425831448112
 40
24
 41
1
 50
0
  1
35
  0
LINE
  8
_0-5_寸法線
  6
CONTINUOUS
 62
    7
 10
533.00376026894742
 20
954.53425831448112
 11
548.45857348957259
 21
958.67536303612133
  0
LINE
  8
_0-5_寸法線
  6
CONTINUOUS
 62
    7
 10
533.00376026894742
 20
954.53425831448112
 11
548.45857348957247
 21
950.39315359284069
  0
LINE
  8
_0-5_寸法線
  6
CONTINUOUS
 62
    7
 10
1659.0037602689465
 20
890.53425831448112
 11
1659.0037602689481
 21
962.53425831448112
  0
LINE
  8
_0-5_寸法線
  6
CONTINUOUS
 62
    7
 10
1659.0037602689479
 20
954.53425831448112
 11
1643.5489470483228
 21
950.3931535928408
  0
LINE
  8
_0-5_寸法線
  6
CONTINUOUS
 62
    7
 10
1659.0037602689479
 20
954.53425831448112
 11
1643.5489470483228
 21
958.67536303612155
  0
LINE
  8
_0-5_寸法線
  6
CONTINUOUS
 62
    7
 10
533.00376026894742
 20
954.53425831448112
 11
1659.0037602689479
 21
954.53425831448112
  0
TEXT
  8
_0-5_寸法線
 62
    7
 10
1036.0037602689497
 20
954.53425831448112
 40
24
 41
1
 50
0
  1
2@563=1126
  0
LINE
  8
_0-5_寸法線
  6
CONTINUOUS
 62
    7
 10
1659.0037602689479
 20
954.53425831448112
 11
1674.4585734895729
 21
958.67536303612133
  0
LINE
  8
_0-5_寸法線
  6
CONTINUOUS
 62
    7
 10
1659.0037602689479
 20
954.53425831448112
 11
1674.4585734895729
 21
950.39315359284069
  0
LINE
  8
_0-5_寸法線
  6
CONTINUOUS
 62
    7
 10
1694.0037602689465
 20
890.53425831448112
 11
1694.0037602689481
 21
962.53425831448112
  0
LINE
  8
_0-5_寸法線
  6
CONTINUOUS
 62
    7
 10
1694.0037602689479
 20
954.53425831448112
 11
1678.5489470483228
 21
950.3931535928408
  0
LINE
  8
_0-5_寸法線
  6
CONTINUOUS
 62
    7
 10
1694.0037602689479
 20
954.53425831448112
 11
1678.5489470483228
 21
958.67536303612155
  0
LINE
  8
_0-5_寸法線
  6
CONTINUOUS
 62
    7
 10
1659.0037602689479
 20
954.53425831448112
 11
1694.0037602689479
 21
954.53425831448112
  0
TEXT
  8
_0-5_寸法線
 62
    7
 10
1664.5037602689488
 20
954.53425831448089
 40
24
 41
1
 50
0
  1
35
  0
LINE
  8
_0-5_寸法線
  6
CONTINUOUS
 62
    7
 10
533.0037602689456
 20
831.52165946705099
 11
541.00376021787383
 21
817.66525297701367
  0
LINE
  8
_0-5_寸法線
  6
CONTINUOUS
 62
    7
 10
533.0037602689456
 20
831.52165946705099
 11
533.00376020997294
 21
815.52165946705099
  0
LINE
  8
_0-5_寸法線
  6
CONTINUOUS
 62
    7
 10
533.0037602689456
 20
831.52165946705099
 11
544.6521178483963
 21
788.04939651489258
  0
LINE
  8
_0-5_寸法線
  6
CONTINUOUS
 62
    7
 10
544.6521178483963
 20
788.04939651489258
 11
621.45211784839626
 21
788.04939651489258
  0
TEXT
  8
_0-5_寸法線
 62
    7
 10
544.6521178483963
 20
788.04939651489258
 40
24
 41
0.8000000000000001
 50
0
  1
アンカー
  0
LINE
  8
_0-5_寸法線
  6
CONTINUOUS
 62
    7
 10
557.21258684975237
 20
1163.6751909255981
 11
565.21258687104182
 21
1149.8187844773386
  0
LINE
  8
_0-5_寸法線
  6
CONTINUOUS
 62
    7
 10
557.21258684975237
 20
1163.6751909255981
 11
557.21258687433533
 21
1147.6751909255981
  0
LINE
  8
_0-5_寸法線
  6
CONTINUOUS
 62
    7
 10
557.21258684975237
 20
1163.6751909255981
 11
581.76508332327398
 21
1072.0440271969019
  0
LINE
  8
_0-5_寸法線
  6
CONTINUOUS
 62
    7
 10
581.76508332327398
 20
1072.0440271969019
 11
639.36508332327412
 21
1072.0440271969019
  0
TEXT
  8
_0-5_寸法線
 62
    7
 10
581.76508332327398
 20
1072.0440271969019
 40
24
 41
0.7999999999999998
 50
0
  1
上フタ
  0
LINE
  8
_0-5_寸法線
  6
CONTINUOUS
 62
    7
 10
685.92867736077653
 20
1120.8095397949219
 11
693.92867735955372
 21
1106.9531333336649
  0
LINE
  8
_0-5_寸法線
  6
CONTINUOUS
 62
    7
 10
685.92867736077653
 20
1120.8095397949219
 11
685.92867735936454
 21
1104.8095397949219
  0
LINE
  8
_0-5_寸法線
  6
CONTINUOUS
 62
    7
 10
685.92867736077653
 20
1120.8095397949219
 11
698.99535707529333
 21
1072.0440271969019
  0
LINE
  8
_0-5_寸法線
  6
CONTINUOUS
 62
    7
 10
698.99535707529333
 20
1072.0440271969019
 11
814.19535707529326
 21
1072.0440271969019
  0
TEXT
  8
_0-5_寸法線
 62
    7
 10
698.99535707529333
 20
1072.0440271969019
 40
24
 41
0.7999999999999998
 50
0
  1
排水ユニット
  0
LINE
  8
_0-5_寸法線
  6
CONTINUOUS
 62
    7
 10
1700.0037602689461
 20
854.53425831448101
 11
1782.0037602689461
 21
854.53425831448078
  0
LINE
  8
_0-5_寸法線
  6
CONTINUOUS
 62
    7
 10
1774.0037602689461
 20
854.53425831448078
 11
1778.1448649905863
 21
839.07944509385561
  0
LINE
  8
_0-5_寸法線
  6
CONTINUOUS
 62
    7
 10
1774.0037602689461
 20
854.53425831448078
 11
1769.8626555473056
 21
839.07944509385572
  0
LINE
  8
_0-5_寸法線
  6
CONTINUOUS
 62
    7
 10
1710.0037602689461
 20
874.53425831448203
 11
1782.0037602689461
 21
874.53425831448203
  0
LINE
  8
_0-5_寸法線
  6
CONTINUOUS
 62
    7
 10
1774.0037602689461
 20
874.53425831448203
 11
1769.8626555473058
 21
889.98907153510709
  0
LINE
  8
_0-5_寸法線
  6
CONTINUOUS
 62
    7
 10
1774.0037602689461
 20
874.53425831448203
 11
1778.1448649905865
 21
889.98907153510709
  0
LINE
  8
_0-5_寸法線
  6
CONTINUOUS
 62
    7
 10
1774.0037602689461
 20
830.53425831448078
 11
1774.0037602689461
 21
917.43713346731352
  0
TEXT
  8
_0-5_寸法線
 62
    7
 10
1774.0037602689461
 20
893.43713346731329
 40
24
 41
1
 50
90
  1
20
  0
LINE
  8
_0-5_寸法線
  6
CONTINUOUS
 62
    7
 10
1657.5037602689461
 20
713.53425831448101
 11
1782.0037602689461
 21
713.53425831448021
  0
LINE
  8
_0-5_寸法線
  6
CONTINUOUS
 62
    7
 10
1774.0037602689461
 20
713.53425831448021
 11
1769.8626555473058
 21
728.98907153510527
  0
LINE
  8
_0-5_寸法線
  6
CONTINUOUS
 62
    7
 10
1774.0037602689461
 20
713.53425831448021
 11
1778.1448649905865
 21
728.98907153510527
  0
LINE
  8
_0-5_寸法線
  6
CONTINUOUS
 62
    7
 10
1700.0037604416875
 20
854.53425831448101
 11
1782.0037602689461
 21
854.53425831448078
  0
LINE
  8
_0-5_寸法線
  6
CONTINUOUS
 62
    7
 10
1774.0037602689461
 20
854.53425831448078
 11
1778.1448649905865
 21
839.07944509385572
  0
LINE
  8
_0-5_寸法線
  6
CONTINUOUS
 62
    7
 10
1774.0037602689461
 20
854.53425831448078
 11
1769.8626555473058
 21
839.07944509385572
  0
LINE
  8
_0-5_寸法線
  6
CONTINUOUS
 62
    7
 10
1774.0037602689461
 20
713.53425831448021
 11
1774.0037602689461
 21
854.53425831448078
  0
TEXT
  8
_0-5_寸法線
 62
    7
 10
1774.0037602689461
 20
766.03425831448112
 40
24
 41
1
 50
90
  1
141
  0
LINE
  8
_0-5_寸法線
  6
CONTINUOUS
 62
    7
 10
1657.5037602689461
 20
713.53425831448112
 11
1838.0037602689461
 21
713.53425831448112
  0
LINE
  8
_0-5_寸法線
  6
CONTINUOUS
 62
    7
 10
1830.0037602689461
 20
713.53425831448112
 11
1825.8626555473058
 21
728.98907153510618
  0
LINE
  8
_0-5_寸法線
  6
CONTINUOUS
 62
    7
 10
1830.0037602689461
 20
713.53425831448112
 11
1834.1448649905865
 21
728.98907153510618
  0
LINE
  8
_0-5_寸法線
  6
CONTINUOUS
 62
    7
 10
1710.0037602689461
 20
874.53425831448112
 11
1838.0037602689461
 21
874.53425831448067
  0
LINE
  8
_0-5_寸法線
  6
CONTINUOUS
 62
    7
 10
1830.0037602689461
 20
874.53425831448067
 11
1834.1448649905865
 21
859.07944509385561
  0
LINE
  8
_0-5_寸法線
  6
CONTINUOUS
 62
    7
 10
1830.0037602689461
 20
874.53425831448067
 11
1825.8626555473058
 21
859.07944509385561
  0
LINE
  8
_0-5_寸法線
  6
CONTINUOUS
 62
    7
 10
1830.0037602689461
 20
713.53425831448112
 11
1830.0037602689461
 21
874.53425831448067
  0
TEXT
  8
_0-5_寸法線
 62
    7
 10
1830.0037602689461
 20
776.03425831448021
 40
24
 41
1
 50
90
  1
161
  0
LINE
  8
_0-5_寸法線
  6
CONTINUOUS
 62
    7
 10
1583.7007932662964
 20
789.63756656646729
 11
1578.3486592482241
 21
774.55928213313086
  0
LINE
  8
_0-5_寸法線
  6
CONTINUOUS
 62
    7
 10
1583.7007932662964
 20
789.63756656646729
 11
1571.5265670255187
 21
779.25545621074662
  0
LINE
  8
_0-5_寸法線
  6
CONTINUOUS
 62
    7
 10
1583.7007932662964
 20
789.63756656646729
 11
1530.1590168734126
 21
711.85788244854575
  0
LINE
  8
_0-5_寸法線
  6
CONTINUOUS
 62
    7
 10
1530.1590168734126
 20
711.85788244854575
 11
1318.9590168734128
 21
711.85788244854666
  0
TEXT
  8
_0-5_寸法線
 62
    7
 10
1318.9590168734128
 20
711.85788244854575
 40
24
 41
0.7999999999999998
 50
0
  1
縦引き排水トラップ一式
  0
ARC
  8
_0-1_計細線
  6
CONTINUOUS
 62
    3
 10
1557.0037602689461
 20
852.03425831448021
 40
1.5
 50
179.99999999999983
 51
269.99999999999977
  0
LINE
  8
_0-1_計細線
  6
CONTINUOUS
 62
    3
 10
1555.5037602689461
 20
854.03425831448021
 11
1555.5037602689461
 21
852.03425831448021
  0
ARC
  8
_0-1_計細線
  6
CONTINUOUS
 62
    3
 10
1555.0037602689461
 20
854.03425831448021
 40
0.5
 50
0
 51
89.999999999999915
  0
LINE
  8
_0-0_計極細
  6
CONTINUOUS
 62
    2
 10
1641.0037602689461
 20
832.03427503448529
 11
1663.9827602689454
 21
832.03427503448529
  0
LINE
  8
_0-0_計極細
  6
CONTINUOUS
 62
    2
 10
1652.2537602689461
 20
826.83427503448456
 11
1641.0037602689461
 21
826.83427503448456
  0
LINE
  8
_0-0_計極細
  6
CONTINUOUS
 62
    2
 10
1663.9827602689454
 20
853.24133903448455
 11
1670.9037602689475
 21
854.22709604915508
  0
LINE
  8
_0-0_計極細
  6
CONTINUOUS
 62
    2
 10
1641.0037602689461
 20
831.73861103448507
 11
1641.0037602689461
 21
833.2163640344852
  0
LINE
  8
_0-0_計極細
  6
CONTINUOUS
 62
    2
 10
1641.0037602689461
 20
832.83427503448456
 11
1662.5037602689461
 21
832.83427503448456
  0
LINE
  8
_0-0_計極細
  6
CONTINUOUS
 62
    2
 10
1657.5037602689461
 20
846.34211803448488
 11
1657.5037602689461
 21
847.24133903448455
  0
LINE
  8
_0-0_計極細
  6
CONTINUOUS
 62
    2
 10
1657.5037602689461
 20
846.34211803448488
 11
1614.0037602689461
 21
846.34211803448488
  0
LINE
  8
_0-0_計極細
  6
CONTINUOUS
 62
    2
 10
1657.5037602689461
 20
841.74211803448452
 11
1614.0037602689461
 21
841.74211803448543
  0
LINE
  8
_0-0_計極細
  6
CONTINUOUS
 62
    2
 10
1657.5037602689461
 20
840.24211803448452
 11
1657.5037602689461
 21
841.74211803448452
  0
LINE
  8
_0-0_計極細
  6
CONTINUOUS
 62
    2
 10
1653.7537602689461
 20
844.64744903448536
 11
1653.7537602689461
 21
843.34744903448518
  0
LINE
  8
_0-0_計極細
  6
CONTINUOUS
 62
    2
 10
1653.7537602689461
 20
842.34744903448518
 11
1653.7537602689461
 21
841.84744903448518
  0
LINE
  8
_0-0_計極細
  6
CONTINUOUS
 62
    2
 10
1657.3537602689482
 20
844.64744903448536
 11
1657.3537602689482
 21
841.84744903448518
  0
LINE
  8
_0-0_計極細
  6
CONTINUOUS
 62
    2
 10
1614.0037602689461
 20
841.84744903448518
 11
1657.3537602689482
 21
841.84744903448518
  0
LINE
  8
_0-0_計極細
  6
CONTINUOUS
 62
    2
 10
1614.0037602689461
 20
842.84744903448518
 11
1653.2537602689461
 21
842.84744903448518
  0
LINE
  8
_0-0_計極細
  6
CONTINUOUS
 62
    2
 10
1614.0037602689461
 20
845.14744903448536
 11
1653.2537602689461
 21
845.14744903448536
  0
LINE
  8
_0-0_計極細
  6
CONTINUOUS
 62
    2
 10
1653.2537602689461
 20
845.14744903448536
 11
1653.7537602689461
 21
845.64744903448536
  0
LINE
  8
_0-0_計極細
  6
CONTINUOUS
 62
    2
 10
1653.7537602689461
 20
844.64744903448536
 11
1653.2537602689461
 21
845.14744903448536
  0
LINE
  8
_0-0_計極細
  6
CONTINUOUS
 62
    2
 10
1653.7537602689461
 20
842.34744903448518
 11
1653.2537602689461
 21
842.84744903448518
  0
LINE
  8
_0-0_計極細
  6
CONTINUOUS
 62
    2
 10
1653.2537602689461
 20
842.84744903448518
 11
1653.7537602689461
 21
843.34744903448518
  0
LINE
  8
_0-0_計極細
  6
CONTINUOUS
 62
    2
 10
1657.3537602689482
 20
844.64744903448536
 11
1658.1537602689475
 21
846.14744903448536
  0
LINE
  8
_0-0_計極細
  6
CONTINUOUS
 62
    2
 10
1653.7537602689461
 20
846.14744903448536
 11
1653.7537602689461
 21
845.64744903448536
  0
LINE
  8
_0-0_計極細
  6
CONTINUOUS
 62
    2
 10
1614.0037602689461
 20
846.14744903448536
 11
1658.1537602689475
 21
846.14744903448536
  0
LINE
  8
_0-0_計極細
  6
CONTINUOUS
 62
    2
 10
1614.2037602689468
 20
847.24133903448546
 11
1657.803760268949
 21
847.24133903448455
  0
LINE
  8
_0-0_計極細
  6
CONTINUOUS
 62
    2
 10
1614.2037602689468
 20
848.24133903448546
 11
1657.2037602689468
 21
848.24133903448455
  0
ARC
  8
_0-0_計極細
  6
CONTINUOUS
 62
    2
 10
1659.9537602689468
 20
852.24133903448455
 40
0.5
 50
24.054549000007984
 51
89.999999999999915
  0
ARC
  8
_0-0_計極細
  6
CONTINUOUS
 62
    2
 10
1660.2537602689461
 20
850.94133903448528
 40
0.1999999999999886
 50
269.99999999999977
 51
359.99999999999966
  0
ARC
  8
_0-0_計極細
  6
CONTINUOUS
 62
    2
 10
1659.9537602689468
 20
852.24133903448455
 40
0.5
 50
0
 51
24.054549000007984
  0
ARC
  8
_0-0_計極細
  6
CONTINUOUS
 62
    2
 10
1657.803760268949
 20
847.74133903448455
 40
0.5
 50
269.99999999999977
 51
359.99999999999966
  0
LINE
  8
_0-0_計極細
  6
CONTINUOUS
 62
    2
 10
1657.2037602689468
 20
847.24133903448455
 11
1657.2037602689468
 21
848.24133903448455
  0
LINE
  8
_0-0_計極細
  6
CONTINUOUS
 62
    2
 10
1658.303760268949
 20
847.74133903448455
 11
1658.303760268949
 21
850.74133903448455
  0
LINE
  8
_0-0_計極細
  6
CONTINUOUS
 62
    2
 10
1658.303760268949
 20
850.74133903448455
 11
1660.2537602689461
 21
850.74133903448455
  0
LINE
  8
_0-0_計極細
  6
CONTINUOUS
 62
    2
 10
1614.0037602689461
 20
852.74133903448546
 11
1659.9537602689468
 21
852.74133903448455
  0
LINE
  8
_0-0_計極細
  6
CONTINUOUS
 62
    2
 10
1660.4537602689468
 20
850.94133903448528
 11
1660.4537602689468
 21
852.24133903448455
  0
LINE
  8
_0-0_計極細
  6
CONTINUOUS
 62
    2
 10
1645.2900732689466
 20
834.04133903448474
 11
1645.2900732689466
 21
835.74133903448455
  0
LINE
  8
_0-0_計極細
  6
CONTINUOUS
 62
    2
 10
1648.7900732689466
 20
834.04133903448474
 11
1648.7900732689466
 21
835.74133903448455
  0
LINE
  8
_0-0_計極細
  6
CONTINUOUS
 62
    2
 10
1643.7900732689466
 20
834.04133903448474
 11
1643.7900732689466
 21
835.74133903448455
  0
LINE
  8
_0-0_計極細
  6
CONTINUOUS
 62
    2
 10
1643.7900732689466
 20
834.04133903448474
 11
1648.7900732689466
 21
834.04133903448474
  0
LINE
  8
_0-0_計極細
  6
CONTINUOUS
 62
    2
 10
1657.0037602689461
 20
835.74133903448455
 11
1662.5037602689461
 21
835.74133903448455
  0
LINE
  8
_0-0_計極細
  6
CONTINUOUS
 62
    2
 10
1656.1735762689475
 20
833.74133903448455
 11
1657.0037602689461
 21
833.74133903448455
  0
LINE
  8
_0-0_計極細
  6
CONTINUOUS
 62
    2
 10
1657.0037602689461
 20
838.44133903448528
 11
1658.303760268949
 21
838.44133903448528
  0
LINE
  8
_0-0_計極細
  6
CONTINUOUS
 62
    2
 10
1657.0037602689461
 20
837.74133903448455
 11
1659.0037602689461
 21
837.74133903448455
  0
LINE
  8
_0-0_計極細
  6
CONTINUOUS
 62
    2
 10
1654.7537602689461
 20
835.84211803448488
 11
1654.7537602689461
 21
839.74133903448455
  0
LINE
  8
_0-0_計極細
  6
CONTINUOUS
 62
    2
 10
1657.0037602689461
 20
833.74133903448455
 11
1657.0037602689461
 21
839.74133903448455
  0
LINE
  8
_0-0_計極細
  6
CONTINUOUS
 62
    2
 10
1663.9827602689454
 20
837.22033903448482
 11
1662.5037602689461
 21
835.74133903448455
  0
LINE
  8
_0-0_計極細
  6
CONTINUOUS
 62
    2
 10
1659.0037602689461
 20
837.74133903448455
 11
1659.0037602689461
 21
848.99133903448455
  0
ARC
  8
_0-0_計極細
  6
CONTINUOUS
 62
    2
 10
1660.053760268949
 20
848.99133903448455
 40
1.0500000000000114
 50
89.999999999999915
 51
179.99999999999983
  0
LINE
  8
_0-0_計極細
  6
CONTINUOUS
 62
    2
 10
1661.2449842689473
 20
850.04133903448474
 11
1660.053760268949
 21
850.04133903448474
  0
ARC
  8
_0-0_計極細
  6
CONTINUOUS
 62
    2
 10
1661.2449842689473
 20
851.74133903448455
 40
1.6999999999999886
 50
269.99999999999977
 51
356.64911199999773
  0
ARC
  8
_0-0_計極細
  6
CONTINUOUS
 62
    2
 10
1661.2449842689473
 20
851.74133903448455
 40
1
 50
269.99999999999977
 51
356.64911200003189
  0
ARC
  8
_0-0_計極細
  6
CONTINUOUS
 62
    2
 10
1663.9827602689454
 20
851.49133903448455
 40
1.75
 50
89.999999999999915
 51
175.84900999996924
  0
ARC
  8
_0-0_計極細
  6
CONTINUOUS
 62
    2
 10
1660.053760268949
 20
848.99133903448455
 40
1.75
 50
89.999999999999915
 51
179.99999999999983
  0
LINE
  8
_0-0_計極細
  6
CONTINUOUS
 62
    2
 10
1660.5037602689461
 20
850.74133903448455
 11
1660.5037602689461
 21
853.24133903448455
  0
LINE
  8
_0-0_計極細
  6
CONTINUOUS
 62
    2
 10
1658.303760268949
 20
838.44133903448528
 11
1658.303760268949
 21
848.99133903448455
  0
LINE
  8
_0-0_計極細
  6
CONTINUOUS
 62
    2
 10
1661.2449842689473
 20
850.74133903448455
 11
1660.053760268949
 21
850.74133903448455
  0
LINE
  8
_0-0_計極細
  6
CONTINUOUS
 62
    2
 10
1654.2537602689461
 20
839.74133903448455
 11
1658.303760268949
 21
839.74133903448455
  0
LINE
  8
_0-0_計極細
  6
CONTINUOUS
 62
    2
 10
1614.0037602689461
 20
853.24133903448546
 11
1663.9827602689454
 21
853.24133903448455
  0
LINE
  8
_0-0_計極細
  6
CONTINUOUS
 62
    2
 10
1641.5609212689467
 20
835.74133903448455
 11
1651.5020672689477
 21
835.74133903448455
  0
ARC
  8
_0-0_計極細
  6
CONTINUOUS
 62
    2
 10
1652.2537602689461
 20
825.83427503448456
 40
1
 50
89.999999999999915
 51
179.99999999999983
  0
ARC
  8
_0-0_計極細
  6
CONTINUOUS
 62
    2
 10
1652.2537602689461
 20
825.83427503448456
 40
1
 50
0
 51
89.999999999999915
  0
LINE
  8
_0-0_計極細
  6
CONTINUOUS
 62
    2
 10
1670.9037602689475
 20
851.83427503448456
 11
1663.9827602689454
 21
851.03427503448529
  0
LINE
  8
_0-0_計極細
  6
CONTINUOUS
 62
    2
 10
1663.9827602689454
 20
832.03427503448529
 11
1662.5037602689461
 21
832.83427503448456
  0
LINE
  8
_0-0_計極細
  6
CONTINUOUS
 62
    2
 10
1662.5037602689461
 20
832.83427503448456
 11
1662.5037602689461
 21
835.74133903448455
  0
LINE
  8
_0-1_計細線
  6
CONTINUOUS
 62
    3
 10
1614.0037602689461
 20
825.5041480344853
 11
1563.5037602689461
 21
825.5041480344853
  0
LINE
  8
_0-1_計細線
  6
CONTINUOUS
 62
    3
 10
1588.5037602689461
 20
837.83427503448547
 11
1584.5037602689461
 21
837.83427503448547
  0
LINE
  8
_0-1_計細線
  6
CONTINUOUS
 62
    3
 10
1561.0037602689461
 20
837.83427503448547
 11
1557.1037602689482
 21
837.83427503448547
  0
LINE
  8
_0-1_計細線
  6
CONTINUOUS
 62
    3
 10
1588.5037602689461
 20
837.83427503448547
 11
1588.5037602689461
 21
847.83427503448547
  0
LINE
  8
_0-1_計細線
  6
CONTINUOUS
 62
    3
 10
1584.5037602689461
 20
837.83427503448547
 11
1584.5037602689461
 21
847.83427503448547
  0
LINE
  8
_0-1_計細線
  6
CONTINUOUS
 62
    3
 10
1612.0037602689461
 20
837.83427503448547
 11
1612.0037602689461
 21
847.83427503448547
  0
LINE
  8
_0-1_計細線
  6
CONTINUOUS
 62
    3
 10
1614.0037602689461
 20
837.83427503448547
 11
1612.0037602689461
 21
837.83427503448547
  0
LINE
  8
_0-1_計細線
  6
CONTINUOUS
 62
    3
 10
1614.0037602689461
 20
829.83427503448547
 11
1561.0037602689461
 21
829.83427503448547
  0
LINE
  8
_0-1_計細線
  6
CONTINUOUS
 62
    3
 10
1670.9037602689475
 20
838.3895160344855
 11
1670.9037602689475
 21
854.21285303448531
  0
LINE
  8
_0-1_計細線
  6
CONTINUOUS
 62
    3
 10
1667.0037602689461
 20
837.83427503448456
 11
1670.9037602689475
 21
837.83427503448456
  0
LINE
  8
_0-1_計細線
  6
CONTINUOUS
 62
    3
 10
1670.9037602689475
 20
837.83427503448456
 11
1670.9037602689475
 21
838.3895160344855
  0
ARC
  8
_0-1_計細線
  6
CONTINUOUS
 62
    3
 10
1669.5037602689461
 20
825.5041480344853
 40
5
 50
119.99999999999989
 51
179.99999999999983
  0
LINE
  8
_0-1_計細線
  6
CONTINUOUS
 62
    3
 10
1667.0037602689461
 20
829.83427503448456
 11
1667.0037602689461
 21
837.83427503448456
  0
ARC
  8
_0-1_計細線
  6
CONTINUOUS
 62
    3
 10
1558.5037602689461
 20
825.5041480344853
 40
5
 50
0
 51
60.000000000000107
  0
LINE
  8
_0-1_計細線
  6
CONTINUOUS
 62
    3
 10
1561.0037602689461
 20
829.83427503448547
 11
1561.0037602689461
 21
847.83427503448547
  0
LINE
  8
_0-1_計細線
  6
CONTINUOUS
 62
    3
 10
1614.0037602689461
 20
847.83427503448547
 11
1557.1037602689482
 21
847.83427503448547
  0
LINE
  8
_0-0_計極細
  6
CONTINUOUS
 62
    2
 10
1663.9827602689454
 20
852.53427448823368
 11
1670.9037602689475
 21
853.52003203448476
  0
LINE
  8
_0-0_計極細
  6
CONTINUOUS
 62
    2
 10
1663.9827602689454
 20
837.22033903448482
 11
1663.9827602689454
 21
852.54133903448474
  0
ARC
  8
_0-0_計極細
  6
CONTINUOUS
 62
    2
 10
1663.9827602689454
 20
851.49133903448455
 40
1.0500000000000114
 50
89.999999999999915
 51
175.84900999996637
  0
LINE
  8
_0-0_計極細
  6
CONTINUOUS
 62
    2
 10
1614.0037602689461
 20
832.03427503448529
 11
1639.0037442689479
 21
832.03427503448529
  0
ARC
  8
_0-0_計極細
  6
CONTINUOUS
 62
    2
 10
1647.0037602689461
 20
833.2163640344852
 40
6
 50
55.166292356132701
 51
179.9999999999998
  0
ARC
  8
_0-0_計極細
  6
CONTINUOUS
 62
    2
 10
1648.5037602689461
 20
835.84211803448488
 40
3
 50
0
 51
50.029499419924285
  0
LINE
  8
_0-0_計極細
  6
CONTINUOUS
 62
    2
 10
1651.5037602689461
 20
832.84211803448488
 11
1651.5037602689461
 21
835.84211803448488
  0
LINE
  8
_0-0_計極細
  6
CONTINUOUS
 62
    2
 10
1654.5037602689461
 20
832.84211803448488
 11
1651.5037602689461
 21
832.84211803448488
  0
ARC
  8
_0-0_計極細
  6
CONTINUOUS
 62
    2
 10
1654.5037602689461
 20
834.84211803448488
 40
2
 50
269.99999999999977
 51
359.99999999999966
  0
LINE
  8
_0-0_計極細
  6
CONTINUOUS
 62
    2
 10
1656.5037602689461
 20
834.84211803448488
 11
1656.5037602689461
 21
835.84211803448488
  0
LINE
  8
_0-0_計極細
  6
CONTINUOUS
 62
    2
 10
1656.5037602689461
 20
835.84211803448488
 11
1654.2537602689461
 21
835.84211803448488
  0
LINE
  8
_0-0_計極細
  6
CONTINUOUS
 62
    2
 10
1657.5037602689461
 20
840.24211803448452
 11
1654.2537602689461
 21
840.24211803448452
  0
LINE
  8
_0-0_計極細
  6
CONTINUOUS
 62
    2
 10
1654.2537602689461
 20
835.84211803448488
 11
1654.2537602689461
 21
840.24211803448543
  0
LINE
  8
_0-0_計極細
  6
CONTINUOUS
 62
    2
 10
1654.2537602689461
 20
840.24211803448543
 11
1614.0037602689461
 21
840.24211803448543
  0
ARC
  8
_0-0_計極細
  6
CONTINUOUS
 62
    2
 10
1641.2537602689461
 20
768.03425831448112
 40
10
 50
269.99999999999977
 51
359.99999999999966
  0
LINE
  8
_0-0_計極細
  6
CONTINUOUS
 62
    2
 10
1614.0037602689461
 20
758.03425831448112
 11
1641.2537602689461
 21
758.03425831448112
  0
LINE
  8
_0-0_計極細
  6
CONTINUOUS
 62
    2
 10
1651.2537602689461
 20
768.03425831448112
 11
1651.2537602689461
 21
825.83427503448456
  0
LINE
  8
_0-0_計極細
  6
CONTINUOUS
 62
    2
 10
1653.2537602689461
 20
768.03425831448112
 11
1653.2537602689461
 21
825.83427503448456
  0
LINE
  8
_0-0_計極細
  6
CONTINUOUS
 62
    2
 10
1614.9347942689471
 20
756.03425831448112
 11
1641.2537602689461
 21
756.03425831448112
  0
LINE
  8
_0-0_計極細
  6
CONTINUOUS
 62
    2
 10
1614.0037602689461
 20
756.03425831448112
 11
1614.9347942689471
 21
756.03425831448112
  0
ARC
  8
_0-0_計極細
  6
CONTINUOUS
 62
    2
 10
1615.500324268947
 20
746.53425831448112
 40
0.5
 50
180.39513700000705
 51
269.99999999999977
  0
LINE
  8
_0-0_計極細
  6
CONTINUOUS
 62
    2
 10
1615.0003352689471
 20
746.53081031448164
 11
1614.9348652689457
 21
756.0239753144815
  0
LINE
  8
_0-0_計極細
  6
CONTINUOUS
 62
    2
 10
1652.2537602689461
 20
718.53425831448112
 11
1652.0037602689461
 21
743.53425831448112
  0
LINE
  8
_0-0_計極細
  6
CONTINUOUS
 62
    2
 10
1662.0037602689461
 20
804.95582531448144
 11
1662.0037602689461
 21
832.03427503448529
  0
ARC
  8
_0-0_計極細
  6
CONTINUOUS
 62
    2
 10
1661.0037602689461
 20
804.95582531448144
 40
1
 50
277.18075600015402
 51
359.99999999999966
  0
ARC
  8
_0-0_計極細
  6
CONTINUOUS
 62
    2
 10
1641.2537602689461
 20
768.03425831448112
 40
12
 50
269.99999999999977
 51
359.99999999999966
  0
LINE
  8
_0-0_計極細
  6
CONTINUOUS
 62
    2
 10
1639.0037602689461
 20
746.03425831448112
 11
1639.0037602689461
 21
756.03425831448112
  0
LINE
  8
_0-0_計極細
  6
CONTINUOUS
 62
    2
 10
1641.2537602689461
 20
756.03425831448112
 11
1639.0037602689461
 21
756.03425831448112
  0
LINE
  8
_0-0_計極細
  6
CONTINUOUS
 62
    2
 10
1653.2537602689461
 20
768.03425831448112
 11
1653.2537602689461
 21
795.03425831448112
  0
LINE
  8
_0-0_計極細
  6
CONTINUOUS
 62
    2
 10
1639.0053392689458
 20
745.93158531448171
 11
1639.0037602689461
 21
746.03425831448112
  0
LINE
  8
_0-0_計極細
  6
CONTINUOUS
 62
    2
 10
1639.0037602689461
 20
746.03425831448112
 11
1614.0037602689461
 21
746.03425831448112
  0
ARC
  8
_0-0_計極細
  6
CONTINUOUS
 62
    2
 10
1654.0037602689461
 20
754.03425831448112
 40
8
 50
269.99999999999977
 51
359.99999999999966
  0
LINE
  8
_0-0_計極細
  6
CONTINUOUS
 62
    2
 10
1642.0037602689461
 20
743.53425831448112
 11
1652.0037602689461
 21
743.53425831448112
  0
LINE
  8
_0-0_計極細
  6
CONTINUOUS
 62
    2
 10
1639.5037602689461
 20
713.53425831448112
 11
1639.0037602689461
 21
746.03425831448112
  0
LINE
  8
_0-0_計極細
  6
CONTINUOUS
 62
    2
 10
1662.0037602689461
 20
754.03425831448112
 11
1662.0037602689461
 21
804.95582531448144
  0
LINE
  8
_0-0_計極細
  6
CONTINUOUS
 62
    2
 10
1654.0037602689461
 20
746.03425831448112
 11
1639.0037602689461
 21
746.03425831448112
  0
LINE
  8
_0-0_計極細
  6
CONTINUOUS
 62
    2
 10
1641.5870936022818
 20
718.53425831448112
 11
1642.0037602689461
 21
743.53425831448112
  0
LINE
  8
_0-1_計細線
  6
CONTINUOUS
 62
    3
 10
1641.5037602689461
 20
713.53425831448112
 11
1641.5870936022818
 21
718.53425831448112
  0
LINE
  8
_0-1_計細線
  6
CONTINUOUS
 62
    3
 10
1614.0037602689461
 20
713.53425831448112
 11
1638.5601612689477
 21
713.53425831448112
  0
ARC
  8
_0-1_計細線
  6
CONTINUOUS
 62
    3
 10
1656.5037602689461
 20
751.53425831448112
 40
8
 50
269.99999999999977
 51
359.99999999999966
  0
LINE
  8
_0-1_計細線
  6
CONTINUOUS
 62
    3
 10
1664.5037602689461
 20
751.53425831448112
 11
1664.5037602689461
 21
825.5041480344853
  0
LINE
  8
_0-1_計細線
  6
CONTINUOUS
 62
    3
 10
1655.1037602689482
 20
718.53425831448112
 11
1655.5037602689461
 21
743.53425831448112
  0
LINE
  8
_0-1_計細線
  6
CONTINUOUS
 62
    3
 10
1641.5870932689484
 20
718.53425831448112
 11
1655.1037602689482
 21
718.53425831448112
  0
LINE
  8
_0-1_計細線
  6
CONTINUOUS
 62
    3
 10
1638.5601612689477
 20
713.53425831448112
 11
1641.5037602689461
 21
713.53425831448112
  0
ARC
  8
_0-1_計細線
  6
CONTINUOUS
 62
    3
 10
1571.5037602689461
 20
751.53425831448112
 40
8
 50
179.99999999999983
 51
269.99999999999977
  0
LINE
  8
_0-1_計細線
  6
CONTINUOUS
 62
    3
 10
1614.0037602689461
 20
743.53425831448112
 11
1571.5037602689461
 21
743.53425831448112
  0
LINE
  8
_0-1_計細線
  6
CONTINUOUS
 62
    3
 10
1563.5037602689461
 20
751.53425831448112
 11
1563.5037602689461
 21
825.5041480344853
  0
LINE
  8
_0-1_計細線
  6
CONTINUOUS
 62
    3
 10
1572.9037602689475
 20
718.53425831448112
 11
1572.5037602689461
 21
743.53425831448112
  0
LINE
  8
_0-1_計細線
  6
CONTINUOUS
 62
    3
 10
1614.0037602689461
 20
718.53425831448112
 11
1572.9037602689475
 21
718.53425831448112
  0
LINE
  8
_0-1_計細線
  6
CONTINUOUS
 62
    3
 10
1586.5037602689461
 20
713.53425831448112
 11
1586.4204272689474
 21
718.53425831448112
  0
LINE
  8
_0-1_計細線
  6
CONTINUOUS
 62
    3
 10
1589.447359268948
 20
713.53425831448112
 11
1586.5037602689461
 21
713.53425831448112
  0
LINE
  8
_0-1_計細線
  6
CONTINUOUS
 62
    3
 10
1614.0037602689461
 20
713.53425831448112
 11
1589.447359268948
 21
713.53425831448112
  0
LINE
  8
_0-0_計極細
  6
CONTINUOUS
 62
    2
 10
1640.0037602689461
 20
773.24210131448126
 11
1614.0037602689461
 21
773.24210131448126
  0
ARC
  8
_0-0_計極細
  6
CONTINUOUS
 62
    2
 10
1640.0037442689479
 20
774.24210131448126
 40
1
 50
179.99999999999983
 51
270.0004583661825
  0
ARC
  8
_0-0_計極細
  6
CONTINUOUS
 62
    2
 10
1640.0037602689461
 20
774.24210131448126
 40
1
 50
269.99954163381682
 51
359.99999999999966
  0
LINE
  8
_0-0_計極細
  6
CONTINUOUS
 62
    2
 10
1639.0037442689479
 20
774.24210131448126
 11
1639.0037442689479
 21
832.03427503448529
  0
LINE
  8
_0-0_計極細
  6
CONTINUOUS
 62
    2
 10
1641.0037602689461
 20
774.24210131448126
 11
1641.0037602689461
 21
833.2163640344852
  0
LINE
  8
_0-0_計極細
  6
CONTINUOUS
 62
    2
 10
1661.1287602727332
 20
803.9636685733085
 11
1653.2537602689461
 21
803.9636685733085
  0
LINE
  8
_0-1_計細線
  6
CONTINUOUS
 62
    3
 10
1655.5037602689461
 20
743.53425831448112
 11
1656.5037602689461
 21
743.53425831448112
  0
LINE
  8
_0-0_計極細
  6
CONTINUOUS
 62
    2
 10
1575.7537602689461
 20
718.53425831448112
 11
1576.0037602689461
 21
743.53425831448112
  0
LINE
  8
_0-0_計極細
  6
CONTINUOUS
 62
    2
 10
1655.016529342183
 20
718.53425831448112
 11
1655.1051786580008
 21
718.62290763029796
  0
LINE
  8
_0-0_計極細
  6
CONTINUOUS
 62
    2
 10
1653.7437371360481
 20
718.53425831448112
 11
1655.1258744662316
 21
719.91639564466368
  0
LINE
  8
_0-0_計極細
  6
CONTINUOUS
 62
    2
 10
1652.4709449299132
 20
718.53425831448112
 11
1655.1465702744588
 21
721.2098836590294
  0
LINE
  8
_0-0_計極細
  6
CONTINUOUS
 62
    2
 10
1652.2433087090956
 20
719.57941429979928
 11
1655.1672660826896
 21
722.50337167339512
  0
LINE
  8
_0-0_計極細
  6
CONTINUOUS
 62
    2
 10
1652.2307068060634
 20
720.83960460290382
 11
1655.1879618909204
 21
723.79685968776084
  0
LINE
  8
_0-0_計極細
  6
CONTINUOUS
 62
    2
 10
1652.2181049030312
 20
722.09979490600836
 11
1655.2086576991512
 21
725.09034770212656
  0
LINE
  8
_0-0_計極細
  6
CONTINUOUS
 62
    2
 10
1652.2055030000026
 20
723.3599852091138
 11
1655.2293535073784
 21
726.38383571649229
  0
LINE
  8
_0-0_計極細
  6
CONTINUOUS
 62
    2
 10
1641.1069838992314
 20
713.53425831448112
 11
1641.5104852921629
 21
713.93775970741081
  0
LINE
  8
_0-0_計極細
  6
CONTINUOUS
 62
    2
 10
1652.1929010969704
 20
724.62017551221834
 11
1655.2500493156092
 21
727.67732373085801
  0
LINE
  8
_0-0_計極細
  6
CONTINUOUS
 62
    2
 10
1639.8341916930965
 20
713.53425831448112
 11
1641.5320580414207
 21
715.23212466280347
  0
LINE
  8
_0-0_計極細
  6
CONTINUOUS
 62
    2
 10
1652.1802991939383
 20
725.88036581532288
 11
1655.27074512384
 21
728.97081174522282
  0
LINE
  8
_0-0_計極細
  6
CONTINUOUS
 62
    2
 10
1639.4894820752795
 20
714.46234090280086
 11
1641.5536307906748
 21
716.52648961819614
  0
LINE
  8
_0-0_計極細
  6
CONTINUOUS
 62
    2
 10
1652.1676972909061
 20
727.14055611842741
 11
1655.2914409320672
 21
730.26429975958854
  0
LINE
  8
_0-0_計極細
  6
CONTINUOUS
 62
    2
 10
1639.4701973448844
 20
715.71584837854061
 11
1641.5752035399325
 21
717.82085457358789
  0
LINE
  8
_0-0_計極細
  6
CONTINUOUS
 62
    2
 10
1652.1550953878775
 20
728.40074642153286
 11
1655.312136740298
 21
731.55778777395426
  0
LINE
  8
_0-0_計極細
  6
CONTINUOUS
 62
    2
 10
1639.4509126144892
 20
716.96935585428037
 11
1641.5967762891903
 21
719.11521952898056
  0
LINE
  8
_0-0_計極細
  6
CONTINUOUS
 62
    2
 10
1652.1424934848453
 20
729.66093672463739
 11
1655.3328325485288
 21
732.85127578831998
  0
LINE
  8
_0-0_計極細
  6
CONTINUOUS
 62
    2
 10
1639.431627884094
 20
718.22286333002012
 11
1641.6183490384444
 21
720.40958448437232
  0
LINE
  8
_0-0_計極細
  6
CONTINUOUS
 62
    2
 10
1652.1298915818131
 20
730.92112702774193
 11
1655.3535283567596
 21
734.1447638026857
  0
LINE
  8
_0-0_計極細
  6
CONTINUOUS
 62
    2
 10
1639.4123431536952
 20
719.47637080575987
 11
1641.6399217877022
 21
721.70394943976498
  0
LINE
  8
_0-0_計極細
  6
CONTINUOUS
 62
    2
 10
1652.1172896787846
 20
732.18131733084647
 11
1655.3742241649868
 21
735.43825181705142
  0
LINE
  8
_0-0_計極細
  6
CONTINUOUS
 62
    2
 10
1639.3930584233001
 20
720.72987828149962
 11
1641.6614945369599
 21
722.99831439515765
  0
LINE
  8
_0-0_計極細
  6
CONTINUOUS
 62
    2
 10
1652.1046877757524
 20
733.44150763395101
 11
1655.3949199732176
 21
736.73173983141714
  0
LINE
  8
_0-0_計極細
  6
CONTINUOUS
 62
    2
 10
1639.3737736929049
 20
721.98338575723938
 11
1641.6830672862141
 21
724.29267935054941
  0
LINE
  8
_0-0_計極細
  6
CONTINUOUS
 62
    2
 10
1652.0920858727202
 20
734.70169793705645
 11
1655.4156157814484
 21
738.02522784578287
  0
LINE
  8
_0-0_計極細
  6
CONTINUOUS
 62
    2
 10
1639.3544889625098
 20
723.23689323297913
 11
1641.7046400354718
 21
725.58704430594207
  0
LINE
  8
_0-0_計極細
  6
CONTINUOUS
 62
    2
 10
1652.0794839696916
 20
735.96188824016099
 11
1655.4363115896792
 21
739.31871586014859
  0
LINE
  8
_0-0_計極細
  6
CONTINUOUS
 62
    2
 10
1661.1134414086425
 20
744.99584567911461
 11
1663.0421729043135
 21
746.92457717478464
  0
LINE
  8
_0-0_計極細
  6
CONTINUOUS
 62
    2
 10
1639.335204232111
 20
724.49040070871888
 11
1641.7262127847296
 21
726.88140926133474
  0
LINE
  8
_0-0_計極細
  6
CONTINUOUS
 62
    2
 10
1652.0668820666594
 20
737.22207854326552
 11
1655.4570073979064
 21
740.61220387451431
  0
LINE
  8
_0-0_計極細
  6
CONTINUOUS
 62
    2
 10
1658.6810479014546
 20
743.83624437805975
 11
1664.2017742053665
 21
749.35697068197442
  0
LINE
  8
_0-0_計極細
  6
CONTINUOUS
 62
    2
 10
1639.3159195017158
 20
725.74390818445863
 11
1641.7477855339837
 21
728.1757742167265
  0
LINE
  8
_0-0_計極細
  6
CONTINUOUS
 62
    2
 10
1652.0542801636273
 20
738.48226884637006
 11
1655.4777032061372
 21
741.90569188888003
  0
LINE
  8
_0-0_計極細
  6
CONTINUOUS
 62
    2
 10
1657.1308880927406
 20
743.55887677548071
 11
1664.4791418079492
 21
750.90713049068927
  0
LINE
  8
_0-0_計極細
  6
CONTINUOUS
 62
    2
 10
1639.2966347713207
 20
726.99741566019839
 11
1641.7693582832414
 21
729.47013917211916
  0
LINE
  8
_0-0_計極細
  6
CONTINUOUS
 62
    2
 10
1652.0416782605987
 20
739.74245914947551
 11
1655.498399014368
 21
743.19917990324575
  0
LINE
  8
_0-0_計極細
  6
CONTINUOUS
 62
    2
 10
1655.8334774256016
 20
743.53425831448112
 11
1664.5037602689461
 21
752.20454115782468
  0
LINE
  8
_0-0_計極細
  6
CONTINUOUS
 62
    2
 10
1639.2773500409255
 20
728.25092313593814
 11
1641.7909310324992
 21
730.76450412751183
  0
LINE
  8
_0-0_計極細
  6
CONTINUOUS
 62
    2
 10
1652.0290763575665
 20
741.00264945258004
 11
1658.333847736272
 21
747.30742083128735
  0
LINE
  8
_0-0_計極細
  6
CONTINUOUS
 62
    2
 10
1660.7305977521407
 20
749.70417084715518
 11
1664.5037602689461
 21
753.4773333639605
  0
LINE
  8
_0-0_計極細
  6
CONTINUOUS
 62
    2
 10
1639.2580653105304
 20
729.50443061167789
 11
1641.8125037817533
 21
732.05886908290358
  0
LINE
  8
_0-0_計極細
  6
CONTINUOUS
 62
    2
 10
1652.0164744545343
 20
742.26283975568458
 11
1656.0554593039685
 21
746.30182460511878
  0
LINE
  8
_0-0_計極細
  6
CONTINUOUS
 62
    2
 10
1661.7361939783093
 20
751.98255927945957
 11
1664.5037602689461
 21
754.75012557009632
  0
LINE
  8
_0-0_計極細
  6
CONTINUOUS
 62
    2
 10
1639.2387805801316
 20
730.75793808741764
 11
1641.8340765310111
 21
733.35323403829625
  0
LINE
  8
_0-0_計極細
  6
CONTINUOUS
 62
    2
 10
1652.0038725515058
 20
743.52303005878912
 11
1654.5325993693057
 21
746.05175687658993
  0
LINE
  8
_0-0_計極細
  6
CONTINUOUS
 62
    2
 10
1661.9862617068372
 20
753.50541921412332
 11
1664.5037602689461
 21
756.02291777623213
  0
LINE
  8
_0-0_計極細
  6
CONTINUOUS
 62
    2
 10
1639.2194958497364
 20
732.0114455631583
 11
1641.8556492802688
 21
734.64759899368801
  0
LINE
  8
_0-0_計極細
  6
CONTINUOUS
 62
    2
 10
1650.7423086010619
 20
743.53425831448112
 11
1653.2423086010619
 21
746.03425831448112
  0
LINE
  8
_0-0_計極細
  6
CONTINUOUS
 62
    2
 10
1662.0037602689461
 20
754.79570998236795
 11
1664.5037602689461
 21
757.29570998236795
  0
LINE
  8
_0-0_計極細
  6
CONTINUOUS
 62
    2
 10
1639.2002111193412
 20
733.26495303889806
 11
1641.877222029523
 21
735.94196394908067
  0
LINE
  8
_0-0_計極細
  6
CONTINUOUS
 62
    2
 10
1649.4695163949234
 20
743.53425831448112
 11
1651.9695163949234
 21
746.03425831448112
  0
LINE
  8
_0-0_計極細
  6
CONTINUOUS
 62
    2
 10
1662.0037602689461
 20
756.06850218850377
 11
1664.5037602689461
 21
758.56850218850377
  0
LINE
  8
_0-0_計極細
  6
CONTINUOUS
 62
    2
 10
1639.1809263889461
 20
734.51846051463781
 11
1641.8987947787807
 21
737.23632890447334
  0
LINE
  8
_0-0_計極細
  6
CONTINUOUS
 62
    2
 10
1648.1967241887885
 20
743.53425831448112
 11
1650.6967241887885
 21
746.03425831448112
  0
LINE
  8
_0-0_計極細
  6
CONTINUOUS
 62
    2
 10
1662.0037602689461
 20
757.34129439463959
 11
1664.5037602689461
 21
759.84129439463959
  0
LINE
  8
_0-0_計極細
  6
CONTINUOUS
 62
    2
 10
1639.1616416585473
 20
735.77196799037756
 11
1641.9203675280385
 21
738.5306938598651
  0
LINE
  8
_0-0_計極細
  6
CONTINUOUS
 62
    2
 10
1646.9239319826536
 20
743.53425831448112
 11
1649.4239319826536
 21
746.03425831448112
  0
LINE
  8
_0-0_計極細
  6
CONTINUOUS
 62
    2
 10
1662.0037602689461
 20
758.61408660077541
 11
1664.5037602689461
 21
761.11408660077541
  0
LINE
  8
_0-0_計極細
  6
CONTINUOUS
 62
    2
 10
1639.1423569281521
 20
737.02547546611731
 11
1641.9419402772926
 21
739.82505881525776
  0
LINE
  8
_0-0_計極細
  6
CONTINUOUS
 62
    2
 10
1645.6511397765187
 20
743.53425831448112
 11
1648.1511397765187
 21
746.03425831448112
  0
LINE
  8
_0-0_計極細
  6
CONTINUOUS
 62
    2
 10
1662.0037602689461
 20
759.88687880691123
 11
1664.5037602689461
 21
762.38687880691123
  0
LINE
  8
_0-0_計極細
  6
CONTINUOUS
 62
    2
 10
1639.123072197757
 20
738.27898294185707
 11
1641.9635130265503
 21
741.11942377065043
  0
LINE
  8
_0-0_計極細
  6
CONTINUOUS
 62
    2
 10
1644.3783475703801
 20
743.53425831448112
 11
1646.8783475703801
 21
746.03425831448112
  0
LINE
  8
_0-0_計極細
  6
CONTINUOUS
 62
    2
 10
1662.0037602689461
 20
761.15967101304705
 11
1664.5037602689461
 21
763.65967101304705
  0
LINE
  8
_0-0_計極細
  6
CONTINUOUS
 62
    2
 10
1639.1037874673618
 20
739.53249041759682
 11
1641.9850857758081
 21
742.41378872604218
  0
LINE
  8
_0-0_計極細
  6
CONTINUOUS
 62
    2
 10
1643.1055553642452
 20
743.53425831448112
 11
1645.6055553642452
 21
746.03425831448112
  0
LINE
  8
_0-0_計極細
  6
CONTINUOUS
 62
    2
 10
1662.0037602689461
 20
762.43246321918286
 11
1664.5037602689461
 21
764.93246321918286
  0
LINE
  8
_0-0_計極細
  6
CONTINUOUS
 62
    2
 10
1639.084502736963
 20
740.78599789333657
 11
1644.3327631581103
 21
746.03425831448112
  0
LINE
  8
_0-0_計極細
  6
CONTINUOUS
 62
    2
 10
1662.0037602689461
 20
763.70525542531868
 11
1664.5037602689461
 21
766.20525542531868
  0
LINE
  8
_0-0_計極細
  6
CONTINUOUS
 62
    2
 10
1639.0652180065679
 20
742.03950536907632
 11
1643.0599709519754
 21
746.03425831448112
  0
LINE
  8
_0-0_計極細
  6
CONTINUOUS
 62
    2
 10
1662.0037602689461
 20
764.9780476314545
 11
1664.5037602689461
 21
767.4780476314545
  0
LINE
  8
_0-0_計極細
  6
CONTINUOUS
 62
    2
 10
1639.0459332761727
 20
743.29301284481608
 11
1641.7871787458369
 21
746.03425831448112
  0
LINE
  8
_0-0_計極細
  6
CONTINUOUS
 62
    2
 10
1662.0037602689461
 20
766.25083983759032
 11
1664.5037602689461
 21
768.75083983759032
  0
LINE
  8
_0-0_計極細
  6
CONTINUOUS
 62
    2
 10
1639.0266485457776
 20
744.54652032055583
 11
1640.5143865397019
 21
746.03425831448112
  0
LINE
  8
_0-0_計極細
  6
CONTINUOUS
 62
    2
 10
1662.0037602689461
 20
767.52363204372614
 11
1664.5037602689461
 21
770.02363204372614
  0
LINE
  8
_0-0_計極細
  6
CONTINUOUS
 62
    2
 10
1639.0073638153824
 20
745.80002779629558
 11
1639.241594333567
 21
746.03425831448112
  0
LINE
  8
_0-0_計極細
  6
CONTINUOUS
 62
    2
 10
1662.0037602689461
 20
768.79642424986196
 11
1664.5037602689461
 21
771.29642424986196
  0
LINE
  8
_0-0_計極細
  6
CONTINUOUS
 62
    2
 10
1662.0037602689461
 20
770.06921645599778
 11
1664.5037602689461
 21
772.56921645599778
  0
LINE
  8
_0-0_計極細
  6
CONTINUOUS
 62
    2
 10
1662.0037602689461
 20
771.34200866213359
 11
1664.5037602689461
 21
773.84200866213359
  0
LINE
  8
_0-0_計極細
  6
CONTINUOUS
 62
    2
 10
1662.0037602689461
 20
772.61480086826941
 11
1664.5037602689461
 21
775.11480086826941
  0
LINE
  8
_0-0_計極細
  6
CONTINUOUS
 62
    2
 10
1662.0037602689461
 20
773.88759307440523
 11
1664.5037602689461
 21
776.38759307440523
  0
LINE
  8
_0-0_計極細
  6
CONTINUOUS
 62
    2
 10
1662.0037602689461
 20
775.16038528054105
 11
1664.5037602689461
 21
777.66038528054105
  0
LINE
  8
_0-0_計極細
  6
CONTINUOUS
 62
    2
 10
1662.0037602689461
 20
776.43317748667687
 11
1664.5037602689461
 21
778.93317748667687
  0
LINE
  8
_0-0_計極細
  6
CONTINUOUS
 62
    2
 10
1662.0037602689461
 20
777.70596969281269
 11
1664.5037602689461
 21
780.20596969281269
  0
LINE
  8
_0-0_計極細
  6
CONTINUOUS
 62
    2
 10
1662.0037602689461
 20
778.97876189894851
 11
1664.5037602689461
 21
781.47876189894851
  0
LINE
  8
_0-0_計極細
  6
CONTINUOUS
 62
    2
 10
1662.0037602689461
 20
780.25155410508432
 11
1664.5037602689461
 21
782.75155410508432
  0
LINE
  8
_0-0_計極細
  6
CONTINUOUS
 62
    2
 10
1662.0037602689461
 20
781.52434631122014
 11
1664.5037602689461
 21
784.02434631122014
  0
LINE
  8
_0-0_計極細
  6
CONTINUOUS
 62
    2
 10
1662.0037602689461
 20
782.79713851735596
 11
1664.5037602689461
 21
785.29713851735596
  0
LINE
  8
_0-0_計極細
  6
CONTINUOUS
 62
    2
 10
1662.0037602689461
 20
784.06993072349178
 11
1664.5037602689461
 21
786.56993072349178
  0
LINE
  8
_0-0_計極細
  6
CONTINUOUS
 62
    2
 10
1662.0037602689461
 20
785.3427229296276
 11
1664.5037602689461
 21
787.8427229296276
  0
LINE
  8
_0-0_計極細
  6
CONTINUOUS
 62
    2
 10
1662.0037602689461
 20
786.61551513576342
 11
1664.5037602689461
 21
789.11551513576342
  0
LINE
  8
_0-0_計極細
  6
CONTINUOUS
 62
    2
 10
1662.0037602689461
 20
787.88830734189924
 11
1664.5037602689461
 21
790.38830734189924
  0
LINE
  8
_0-0_計極細
  6
CONTINUOUS
 62
    2
 10
1662.0037602689461
 20
789.16109954803414
 11
1664.5037602689461
 21
791.66109954803414
  0
LINE
  8
_0-0_計極細
  6
CONTINUOUS
 62
    2
 10
1662.0037602689461
 20
790.43389175416996
 11
1664.5037602689461
 21
792.93389175416996
  0
LINE
  8
_0-0_計極細
  6
CONTINUOUS
 62
    2
 10
1662.0037602689461
 20
791.70668396030578
 11
1664.5037602689461
 21
794.20668396030578
  0
LINE
  8
_0-0_計極細
  6
CONTINUOUS
 62
    2
 10
1662.0037602689461
 20
792.9794761664416
 11
1664.5037602689461
 21
795.4794761664416
  0
LINE
  8
_0-0_計極細
  6
CONTINUOUS
 62
    2
 10
1662.0037602689461
 20
794.25226837257742
 11
1664.5037602689461
 21
796.75226837257742
  0
LINE
  8
_0-0_計極細
  6
CONTINUOUS
 62
    2
 10
1662.0037602689461
 20
795.52506057871324
 11
1664.5037602689461
 21
798.02506057871324
  0
LINE
  8
_0-0_計極細
  6
CONTINUOUS
 62
    2
 10
1662.0037602689461
 20
796.79785278484906
 11
1664.5037602689461
 21
799.29785278484906
  0
LINE
  8
_0-0_計極細
  6
CONTINUOUS
 62
    2
 10
1662.0037602689461
 20
798.07064499098487
 11
1664.5037602689461
 21
800.57064499098487
  0
LINE
  8
_0-0_計極細
  6
CONTINUOUS
 62
    2
 10
1662.0037602689461
 20
799.34343719712069
 11
1664.5037602689461
 21
801.84343719712069
  0
LINE
  8
_0-0_計極細
  6
CONTINUOUS
 62
    2
 10
1662.0037602689461
 20
800.61622940325651
 11
1664.5037602689461
 21
803.11622940325651
  0
LINE
  8
_0-0_計極細
  6
CONTINUOUS
 62
    2
 10
1662.0037602689461
 20
801.88902160939233
 11
1664.5037602689461
 21
804.38902160939233
  0
LINE
  8
_0-0_計極細
  6
CONTINUOUS
 62
    2
 10
1662.0037602689461
 20
803.16181381552815
 11
1664.5037602689461
 21
805.66181381552815
  0
LINE
  8
_0-0_計極細
  6
CONTINUOUS
 62
    2
 10
1662.0037602689461
 20
804.43460602166397
 11
1664.5037602689461
 21
806.93460602166397
  0
LINE
  8
_0-0_計極細
  6
CONTINUOUS
 62
    2
 10
1662.0037602689461
 20
805.70739822779979
 11
1664.5037602689461
 21
808.20739822779979
  0
LINE
  8
_0-0_計極細
  6
CONTINUOUS
 62
    2
 10
1662.0037602689461
 20
806.9801904339356
 11
1664.5037602689461
 21
809.4801904339356
  0
LINE
  8
_0-0_計極細
  6
CONTINUOUS
 62
    2
 10
1662.0037602689461
 20
808.25298264007142
 11
1664.5037602689461
 21
810.75298264007142
  0
LINE
  8
_0-0_計極細
  6
CONTINUOUS
 62
    2
 10
1662.0037602689461
 20
809.52577484620724
 11
1664.5037602689461
 21
812.02577484620724
  0
LINE
  8
_0-0_計極細
  6
CONTINUOUS
 62
    2
 10
1662.0037602689461
 20
810.79856705234306
 11
1664.5037602689461
 21
813.29856705234306
  0
LINE
  8
_0-0_計極細
  6
CONTINUOUS
 62
    2
 10
1662.0037602689461
 20
812.07135925847888
 11
1664.5037602689461
 21
814.57135925847888
  0
LINE
  8
_0-0_計極細
  6
CONTINUOUS
 62
    2
 10
1662.0037602689461
 20
813.3441514646147
 11
1664.5037602689461
 21
815.8441514646147
  0
LINE
  8
_0-0_計極細
  6
CONTINUOUS
 62
    2
 10
1662.0037602689461
 20
814.61694367075052
 11
1664.5037602689461
 21
817.11694367075052
  0
LINE
  8
_0-0_計極細
  6
CONTINUOUS
 62
    2
 10
1662.0037602689461
 20
815.88973587688633
 11
1664.5037602689461
 21
818.38973587688633
  0
LINE
  8
_0-0_計極細
  6
CONTINUOUS
 62
    2
 10
1662.0037602689461
 20
817.16252808302215
 11
1664.5037602689461
 21
819.66252808302215
  0
LINE
  8
_0-0_計極細
  6
CONTINUOUS
 62
    2
 10
1662.0037602689461
 20
818.43532028915797
 11
1664.5037602689461
 21
820.93532028915797
  0
LINE
  8
_0-0_計極細
  6
CONTINUOUS
 62
    2
 10
1662.0037602689461
 20
819.70811249529379
 11
1664.5037602689461
 21
822.20811249529379
  0
LINE
  8
_0-0_計極細
  6
CONTINUOUS
 62
    2
 10
1662.0037602689461
 20
820.98090470142961
 11
1664.5037602689461
 21
823.48090470142961
  0
LINE
  8
_0-0_計極細
  6
CONTINUOUS
 62
    2
 10
1662.0037602689461
 20
822.25369690756452
 11
1664.5037602689461
 21
824.75369690756543
  0
LINE
  8
_0-0_計極細
  6
CONTINUOUS
 62
    2
 10
1662.0037602689461
 20
823.52648911370034
 11
1664.5344372773559
 21
826.05716612210927
  0
LINE
  8
_0-0_計極細
  6
CONTINUOUS
 62
    2
 10
1662.0037602689461
 20
824.79928131983615
 11
1665.1281645323413
 21
827.92368558322869
  0
LINE
  8
_0-0_計極細
  6
CONTINUOUS
 62
    2
 10
1662.0037602689461
 20
826.07207352597197
 11
1667.0037602689461
 21
831.07207352597197
  0
LINE
  8
_0-0_計極細
  6
CONTINUOUS
 62
    2
 10
1662.0037602689461
 20
827.34486573210779
 11
1667.0037602689461
 21
832.34486573210779
  0
LINE
  8
_0-0_計極細
  6
CONTINUOUS
 62
    2
 10
1662.0037602689461
 20
828.61765793824361
 11
1667.0037602689461
 21
833.61765793824361
  0
LINE
  8
_0-0_計極細
  6
CONTINUOUS
 62
    2
 10
1662.0037602689461
 20
829.89045014437943
 11
1667.0037602689461
 21
834.89045014437943
  0
LINE
  8
_0-0_計極細
  6
CONTINUOUS
 62
    2
 10
1669.9475851590521
 20
837.83427503448456
 11
1670.9037602689475
 21
838.79045014437997
  0
LINE
  8
_0-0_計極細
  6
CONTINUOUS
 62
    2
 10
1662.0037602689461
 20
831.16324235051525
 11
1662.8747929529179
 21
832.03427503448529
  0
LINE
  8
_0-0_計極細
  6
CONTINUOUS
 62
    2
 10
1663.263723998474
 20
832.42320608004229
 11
1667.0037602689461
 21
836.16324235051525
  0
LINE
  8
_0-0_計極細
  6
CONTINUOUS
 62
    2
 10
1668.6747929529172
 20
837.83427503448547
 11
1670.9037602689475
 21
840.06324235051579
  0
LINE
  8
_0-0_計極細
  6
CONTINUOUS
 62
    2
 10
1662.5037602689461
 20
832.93603455665107
 11
1667.0037602689461
 21
837.43603455665107
  0
LINE
  8
_0-0_計極細
  6
CONTINUOUS
 62
    2
 10
1667.4020007467823
 20
837.83427503448456
 11
1670.9037602689475
 21
841.33603455665161
  0
LINE
  8
_0-0_計極細
  6
CONTINUOUS
 62
    2
 10
1662.5037602689461
 20
834.20882676278688
 11
1670.9037602689475
 21
842.60882676278743
  0
LINE
  8
_0-0_計極細
  6
CONTINUOUS
 62
    2
 10
1662.5037602689461
 20
835.4816189689227
 11
1670.9037602689475
 21
843.88161896892325
  0
LINE
  8
_0-0_計極細
  6
CONTINUOUS
 62
    2
 10
1663.9827602689491
 20
838.23341117505879
 11
1670.9037602689475
 21
845.15441117505816
  0
LINE
  8
_0-0_計極細
  6
CONTINUOUS
 62
    2
 10
1663.9827602689491
 20
839.50620338119461
 11
1670.9037602689475
 21
846.42720338119398
  0
LINE
  8
_0-0_計極細
  6
CONTINUOUS
 62
    2
 10
1663.9827602689491
 20
840.77899558733043
 11
1670.9037602689475
 21
847.69999558732979
  0
LINE
  8
_0-0_計極細
  6
CONTINUOUS
 62
    2
 10
1663.9827602689491
 20
842.05178779346625
 11
1670.9037602689475
 21
848.97278779346561
  0
LINE
  8
_0-0_計極細
  6
CONTINUOUS
 62
    2
 10
1663.9827602689491
 20
843.32457999960207
 11
1670.9037602689475
 21
850.24557999960143
  0
LINE
  8
_0-0_計極細
  6
CONTINUOUS
 62
    2
 10
1663.9827602689491
 20
844.59737220573788
 11
1670.9037602689475
 21
851.51837220573725
  0
LINE
  8
_0-0_計極細
  6
CONTINUOUS
 62
    2
 10
1663.9827602689491
 20
845.8701644118737
 11
1669.8218077479703
 21
851.70921189089586
  0
LINE
  8
_0-0_計極細
  6
CONTINUOUS
 62
    2
 10
1663.9827602689491
 20
847.14295661800861
 11
1668.3826646571886
 21
851.54286100625086
  0
LINE
  8
_0-0_計極細
  6
CONTINUOUS
 62
    2
 10
1663.9827602689491
 20
848.41574882414443
 11
1666.9435215664105
 21
851.37651012160677
  0
LINE
  8
_0-0_計極細
  6
CONTINUOUS
 62
    2
 10
1663.9827602689491
 20
849.68854103028025
 11
1665.5043784756288
 21
851.21015923696268
  0
LINE
  8
_0-0_計極細
  6
CONTINUOUS
 62
    2
 10
1663.9827602689491
 20
850.96133323641607
 11
1664.065235384847
 21
851.04380835231768
  0
LINE
  8
_0-0_計極細
  6
CONTINUOUS
 62
    2
 10
1669.8218077479703
 20
851.70921189089586
 11
1670.9037602689475
 21
852.79116441187307
  0
LINE
  8
_0-0_計極細
  6
CONTINUOUS
 62
    2
 10
1668.3826646571886
 20
851.54286100625086
 11
1670.2694977140652
 21
853.42969406312568
  0
LINE
  8
_0-0_計極細
  6
CONTINUOUS
 62
    2
 10
1666.9435215664105
 20
851.37651012160677
 11
1668.7853132132093
 21
853.21830176840649
  0
LINE
  8
_0-0_計極細
  6
CONTINUOUS
 62
    2
 10
1665.5043784756288
 20
851.21015923696268
 11
1667.301128712357
 21
853.00690947368821
  0
LINE
  8
_0-0_計極細
  6
CONTINUOUS
 62
    2
 10
1664.0652353848507
 20
851.04380835231768
 11
1665.8169442115011
 21
852.79551717896993
  0
LINE
  8
_0-0_計極細
  6
CONTINUOUS
 62
    2
 10
1663.9827602689491
 20
852.23412544255189
 11
1664.3327597106488
 21
852.58412488425165
  0
LINE
  8
_0-0_計極細
  6
CONTINUOUS
 62
    2
 10
1658.3338477362756
 20
747.30742083128735
 11
1660.7305977521407
 21
749.70417084715427
  0
LINE
  8
_0-0_計極細
  6
CONTINUOUS
 62
    2
 10
1656.0554593039685
 20
746.30182460511878
 11
1661.7361939783093
 21
751.98255927945957
  0
LINE
  8
_0-0_計極細
  6
CONTINUOUS
 62
    2
 10
1654.5325993693057
 20
746.05175687658993
 11
1661.9862617068372
 21
753.50541921412332
  0
LINE
  8
_0-0_計極細
  6
CONTINUOUS
 62
    2
 10
1653.2423086010619
 20
746.03425831448112
 11
1662.0037602689461
 21
754.79570998236795
  0
LINE
  8
_0-0_計極細
  6
CONTINUOUS
 62
    2
 10
1651.9695163949234
 20
746.03425831448112
 11
1662.0037602689461
 21
756.06850218850377
  0
LINE
  8
_0-0_計極細
  6
CONTINUOUS
 62
    2
 10
1650.6967241887885
 20
746.03425831448112
 11
1662.0037602689461
 21
757.34129439463959
  0
LINE
  8
_0-0_計極細
  6
CONTINUOUS
 62
    2
 10
1649.4239319826536
 20
746.03425831448112
 11
1662.0037602689461
 21
758.61408660077541
  0
LINE
  8
_0-0_計極細
  6
CONTINUOUS
 62
    2
 10
1648.1511397765187
 20
746.03425831448112
 11
1662.0037602689461
 21
759.88687880691123
  0
LINE
  8
_0-0_計極細
  6
CONTINUOUS
 62
    2
 10
1646.8783475703801
 20
746.03425831448112
 11
1662.0037602689461
 21
761.15967101304705
  0
LINE
  8
_0-0_計極細
  6
CONTINUOUS
 62
    2
 10
1645.6055553642452
 20
746.03425831448112
 11
1662.0037602689461
 21
762.43246321918286
  0
LINE
  8
_0-0_計極細
  6
CONTINUOUS
 62
    2
 10
1644.3327631581103
 20
746.03425831448112
 11
1662.0037602689461
 21
763.70525542531868
  0
LINE
  8
_0-0_計極細
  6
CONTINUOUS
 62
    2
 10
1643.0599709519754
 20
746.03425831448112
 11
1662.0037602689461
 21
764.9780476314545
  0
LINE
  8
_0-0_計極細
  6
CONTINUOUS
 62
    2
 10
1641.7871787458369
 20
746.03425831448112
 11
1662.0037602689461
 21
766.25083983759032
  0
LINE
  8
_0-0_計極細
  6
CONTINUOUS
 62
    2
 10
1640.5143865397019
 20
746.03425831448112
 11
1662.0037602689461
 21
767.52363204372614
  0
LINE
  8
_0-0_計極細
  6
CONTINUOUS
 62
    2
 10
1639.241594333567
 20
746.03425831448112
 11
1662.0037602689461
 21
768.79642424986196
  0
LINE
  8
_0-0_計極細
  6
CONTINUOUS
 62
    2
 10
1639.0037602689461
 20
747.06921645599778
 11
1662.0037602689461
 21
770.06921645599778
  0
LINE
  8
_0-0_計極細
  6
CONTINUOUS
 62
    2
 10
1639.0037602689461
 20
748.34200866213359
 11
1662.0037602689461
 21
771.34200866213359
  0
LINE
  8
_0-0_計極細
  6
CONTINUOUS
 62
    2
 10
1639.0037602689461
 20
749.61480086826941
 11
1646.7622200864878
 21
757.37326068580933
  0
LINE
  8
_0-0_計極細
  6
CONTINUOUS
 62
    2
 10
1651.9147578976206
 20
762.52579849694121
 11
1662.0037602689461
 21
772.61480086826941
  0
LINE
  8
_0-0_計極細
  6
CONTINUOUS
 62
    2
 10
1639.0037602689461
 20
750.88759307440523
 11
1644.6373246076089
 21
756.52115741306807
  0
LINE
  8
_0-0_計極細
  6
CONTINUOUS
 62
    2
 10
1652.7668611703609
 20
764.65069397581829
 11
1662.0037602689461
 21
773.88759307440523
  0
LINE
  8
_0-0_計極細
  6
CONTINUOUS
 62
    2
 10
1639.0037602689461
 20
752.16038528054105
 11
1643.0062975242706
 21
756.16292253586289
  0
LINE
  8
_0-0_計極細
  6
CONTINUOUS
 62
    2
 10
1653.1250960475643
 20
766.28172105915928
 11
1662.0037602689461
 21
775.16038528054105
  0
LINE
  8
_0-0_計極細
  6
CONTINUOUS
 62
    2
 10
1639.0037602689461
 20
753.43317748667687
 11
1641.6101340246184
 21
756.03955124234835
  0
LINE
  8
_0-0_計極細
  6
CONTINUOUS
 62
    2
 10
1653.2484673410816
 20
767.67788455880964
 11
1662.0037602689461
 21
776.43317748667687
  0
LINE
  8
_0-0_計極細
  6
CONTINUOUS
 62
    2
 10
1639.0037602689461
 20
754.70596969281269
 11
1640.3320488906154
 21
756.03425831448112
  0
LINE
  8
_0-0_計極細
  6
CONTINUOUS
 62
    2
 10
1653.2537602689461
 20
768.95596969281269
 11
1662.0037602689461
 21
777.70596969281269
  0
LINE
  8
_0-0_計極細
  6
CONTINUOUS
 62
    2
 10
1639.0037602689461
 20
755.97876189894851
 11
1639.0592566844805
 21
756.03425831448112
  0
LINE
  8
_0-0_計極細
  6
CONTINUOUS
 62
    2
 10
1653.2537602689461
 20
770.22876189894851
 11
1662.0037602689461
 21
778.97876189894851
  0
LINE
  8
_0-0_計極細
  6
CONTINUOUS
 62
    2
 10
1653.2537602689461
 20
771.50155410508432
 11
1662.0037602689461
 21
780.25155410508432
  0
LINE
  8
_0-0_計極細
  6
CONTINUOUS
 62
    2
 10
1653.2537602689461
 20
772.77434631121923
 11
1662.0037602689461
 21
781.52434631122014
  0
LINE
  8
_0-0_計極細
  6
CONTINUOUS
 62
    2
 10
1653.2537602689461
 20
774.04713851735596
 11
1662.0037602689461
 21
782.79713851735505
  0
LINE
  8
_0-0_計極細
  6
CONTINUOUS
 62
    2
 10
1653.2537602689461
 20
775.31993072349087
 11
1662.0037602689461
 21
784.06993072349087
  0
LINE
  8
_0-0_計極細
  6
CONTINUOUS
 62
    2
 10
1653.2537602689461
 20
776.59272292962669
 11
1662.0037602689461
 21
785.34272292962669
  0
LINE
  8
_0-0_計極細
  6
CONTINUOUS
 62
    2
 10
1653.2537602689461
 20
777.86551513576251
 11
1662.0037602689461
 21
786.61551513576251
  0
LINE
  8
_0-0_計極細
  6
CONTINUOUS
 62
    2
 10
1653.2537602689461
 20
779.13830734189833
 11
1662.0037602689461
 21
787.88830734189833
  0
LINE
  8
_0-0_計極細
  6
CONTINUOUS
 62
    2
 10
1653.2537602689461
 20
780.41109954803414
 11
1662.0037602689461
 21
789.16109954803414
  0
LINE
  8
_0-0_計極細
  6
CONTINUOUS
 62
    2
 10
1653.2537602689461
 20
781.68389175416996
 11
1662.0037602689461
 21
790.43389175416996
  0
LINE
  8
_0-0_計極細
  6
CONTINUOUS
 62
    2
 10
1653.2537602689461
 20
782.95668396030578
 11
1662.0037602689461
 21
791.70668396030578
  0
LINE
  8
_0-0_計極細
  6
CONTINUOUS
 62
    2
 10
1653.2537602689461
 20
784.2294761664416
 11
1662.0037602689461
 21
792.9794761664416
  0
LINE
  8
_0-0_計極細
  6
CONTINUOUS
 62
    2
 10
1653.2537602689461
 20
785.50226837257742
 11
1662.0037602689461
 21
794.25226837257742
  0
LINE
  8
_0-0_計極細
  6
CONTINUOUS
 62
    2
 10
1653.2537602689461
 20
786.77506057871324
 11
1662.0037602689461
 21
795.52506057871324
  0
LINE
  8
_0-0_計極細
  6
CONTINUOUS
 62
    2
 10
1653.2537602689461
 20
788.04785278484906
 11
1662.0037602689461
 21
796.79785278484906
  0
LINE
  8
_0-0_計極細
  6
CONTINUOUS
 62
    2
 10
1653.2537602689461
 20
789.32064499098487
 11
1662.0037602689461
 21
798.07064499098487
  0
LINE
  8
_0-0_計極細
  6
CONTINUOUS
 62
    2
 10
1653.2537602689461
 20
790.59343719712069
 11
1662.0037602689461
 21
799.34343719712069
  0
LINE
  8
_0-0_計極細
  6
CONTINUOUS
 62
    2
 10
1653.2537602689461
 20
791.86622940325651
 11
1662.0037602689461
 21
800.61622940325651
  0
LINE
  8
_0-0_計極細
  6
CONTINUOUS
 62
    2
 10
1653.2537602689461
 20
793.13902160939233
 11
1662.0037602689461
 21
801.88902160939233
  0
LINE
  8
_0-0_計極細
  6
CONTINUOUS
 62
    2
 10
1653.2537602689461
 20
794.41181381552815
 11
1662.0037602689461
 21
803.16181381552815
  0
LINE
  8
_0-0_計極細
  6
CONTINUOUS
 62
    2
 10
1653.2537602689461
 20
795.68460602166397
 11
1662.0037602689461
 21
804.43460602166397
  0
LINE
  8
_0-0_計極細
  6
CONTINUOUS
 62
    2
 10
1653.2537602689461
 20
796.95739822779979
 11
1660.2600306144575
 21
803.9636685733085
  0
LINE
  8
_0-0_計極細
  6
CONTINUOUS
 62
    2
 10
1653.2537602689461
 20
798.2301904339356
 11
1658.9872384083189
 21
803.9636685733085
  0
LINE
  8
_0-0_計極細
  6
CONTINUOUS
 62
    2
 10
1653.2537602689461
 20
799.50298264007142
 11
1657.714446202184
 21
803.9636685733085
  0
LINE
  8
_0-0_計極細
  6
CONTINUOUS
 62
    2
 10
1653.2537602689461
 20
800.77577484620724
 11
1656.4416539960491
 21
803.9636685733085
  0
LINE
  8
_0-0_計極細
  6
CONTINUOUS
 62
    2
 10
1653.2537602689461
 20
802.04856705234306
 11
1655.1688617899142
 21
803.9636685733085
  0
LINE
  8
_0-0_計極細
  6
CONTINUOUS
 62
    2
 10
1653.2537602689461
 20
803.32135925847888
 11
1653.8960695837793
 21
803.9636685733085
  0
LINE
  8
_0-0_計極細
  6
CONTINUOUS
 62
    2
 10
1639.7527995780163
 20
773.27409988778163
 11
1641.0037602689461
 21
774.52506057871324
  0
LINE
  8
_0-0_計極細
  6
CONTINUOUS
 62
    2
 10
1639.0037442689479
 20
774.64636492227328
 11
1641.0037602689461
 21
776.64638092227324
  0
LINE
  8
_0-0_計極細
  6
CONTINUOUS
 62
    2
 10
1639.0037442689479
 20
776.76768526583237
 11
1641.0037602689461
 21
778.76770126583233
  0
LINE
  8
_0-0_計極細
  6
CONTINUOUS
 62
    2
 10
1639.0037442689479
 20
778.88900560939237
 11
1641.0037602689461
 21
780.88902160939233
  0
LINE
  8
_0-0_計極細
  6
CONTINUOUS
 62
    2
 10
1639.0037442689479
 20
781.01032595295237
 11
1641.0037602689461
 21
783.01034195295142
  0
LINE
  8
_0-0_計極細
  6
CONTINUOUS
 62
    2
 10
1639.0037442689479
 20
783.13164629651146
 11
1641.0037602689461
 21
785.13166229651142
  0
LINE
  8
_0-0_計極細
  6
CONTINUOUS
 62
    2
 10
1639.0037442689479
 20
785.25296664007146
 11
1641.0037602689461
 21
787.25298264007142
  0
LINE
  8
_0-0_計極細
  6
CONTINUOUS
 62
    2
 10
1639.0037442689479
 20
787.37428698363055
 11
1641.0037602689461
 21
789.37430298363051
  0
LINE
  8
_0-0_計極細
  6
CONTINUOUS
 62
    2
 10
1639.0037442689479
 20
789.49560732719056
 11
1641.0037602689461
 21
791.49562332719051
  0
LINE
  8
_0-0_計極細
  6
CONTINUOUS
 62
    2
 10
1639.0037442689479
 20
791.61692767075056
 11
1641.0037602689461
 21
793.61694367074961
  0
LINE
  8
_0-0_計極細
  6
CONTINUOUS
 62
    2
 10
1639.0037442689479
 20
793.73824801430965
 11
1641.0037602689461
 21
795.73826401430961
  0
LINE
  8
_0-0_計極細
  6
CONTINUOUS
 62
    2
 10
1639.0037442689479
 20
795.85956835786965
 11
1641.0037602689461
 21
797.85958435786961
  0
LINE
  8
_0-0_計極細
  6
CONTINUOUS
 62
    2
 10
1639.0037442689479
 20
797.98088870142874
 11
1641.0037602689461
 21
799.9809047014287
  0
LINE
  8
_0-0_計極細
  6
CONTINUOUS
 62
    2
 10
1639.0037442689479
 20
800.10220904498874
 11
1641.0037602689461
 21
802.1022250449887
  0
LINE
  8
_0-0_計極細
  6
CONTINUOUS
 62
    2
 10
1639.0037442689479
 20
802.22352938854874
 11
1641.0037602689461
 21
804.22354538854779
  0
LINE
  8
_0-0_計極細
  6
CONTINUOUS
 62
    2
 10
1639.0037442689479
 20
804.34484973210783
 11
1641.0037602689461
 21
806.34486573210779
  0
LINE
  8
_0-0_計極細
  6
CONTINUOUS
 62
    2
 10
1639.0037442689479
 20
806.46617007566783
 11
1641.0037602689461
 21
808.46618607566779
  0
LINE
  8
_0-0_計極細
  6
CONTINUOUS
 62
    2
 10
1639.0037442689479
 20
808.58749041922783
 11
1641.0037602689461
 21
810.58750641922688
  0
LINE
  8
_0-0_計極細
  6
CONTINUOUS
 62
    2
 10
1639.0037442689479
 20
810.70881076278692
 11
1641.0037602689461
 21
812.70882676278688
  0
LINE
  8
_0-0_計極細
  6
CONTINUOUS
 62
    2
 10
1639.0037442689479
 20
812.83013110634693
 11
1641.0037602689461
 21
814.83014710634598
  0
LINE
  8
_0-0_計極細
  6
CONTINUOUS
 62
    2
 10
1639.0037442689479
 20
814.95145144990602
 11
1641.0037602689461
 21
816.95146744990598
  0
LINE
  8
_0-0_計極細
  6
CONTINUOUS
 62
    2
 10
1639.0037442689479
 20
817.07277179346602
 11
1641.0037602689461
 21
819.07278779346598
  0
LINE
  8
_0-0_計極細
  6
CONTINUOUS
 62
    2
 10
1654.7943074686061
 20
832.86333499312605
 11
1656.4825433103049
 21
834.55157083482482
  0
LINE
  8
_0-0_計極細
  6
CONTINUOUS
 62
    2
 10
1639.0037442689479
 20
819.19409213702511
 11
1641.0037602689461
 21
821.19410813702507
  0
LINE
  8
_0-0_計極細
  6
CONTINUOUS
 62
    2
 10
1652.6517701664068
 20
832.84211803448488
 11
1655.6517701664068
 21
835.84211803448488
  0
LINE
  8
_0-0_計極細
  6
CONTINUOUS
 62
    2
 10
1639.0037442689479
 20
821.31541248058511
 11
1641.0037602689461
 21
823.31542848058507
  0
LINE
  8
_0-0_計極細
  6
CONTINUOUS
 62
    2
 10
1651.5037602689461
 20
833.81542848058507
 11
1654.2537602689461
 21
836.56542848058507
  0
LINE
  8
_0-0_計極細
  6
CONTINUOUS
 62
    2
 10
1639.0037442689479
 20
823.43673282414511
 11
1641.0037602689461
 21
825.43674882414507
  0
LINE
  8
_0-0_計極細
  6
CONTINUOUS
 62
    2
 10
1651.5023127332513
 20
835.9353012884485
 11
1654.2537602689461
 21
838.68674882414507
  0
LINE
  8
_0-0_計極細
  6
CONTINUOUS
 62
    2
 10
1639.0037442689479
 20
825.5580531677042
 11
1641.0037602689461
 21
827.55806916770416
  0
LINE
  8
_0-0_計極細
  6
CONTINUOUS
 62
    2
 10
1650.9805669076575
 20
837.53487580641649
 11
1653.6878091357264
 21
840.24211803448543
  0
LINE
  8
_0-0_計極細
  6
CONTINUOUS
 62
    2
 10
1639.0037442689479
 20
827.6793735112642
 11
1641.0037602689461
 21
829.67938951126416
  0
LINE
  8
_0-0_計極細
  6
CONTINUOUS
 62
    2
 10
1649.832219990463
 20
838.50784923277934
 11
1651.5664887921682
 21
840.24211803448543
  0
LINE
  8
_0-0_計極細
  6
CONTINUOUS
 62
    2
 10
1639.0037442689479
 20
829.8006938548242
 11
1641.0037602689461
 21
831.80070985482325
  0
LINE
  8
_0-0_計極細
  6
CONTINUOUS
 62
    2
 10
1648.2817334832232
 20
839.07868306909859
 11
1649.44516844861
 21
840.24211803448543
  0
LINE
  8
_0-0_計極細
  6
CONTINUOUS
 62
    2
 10
1639.0037442689479
 20
831.92201419838329
 11
1641.0512136788218
 21
833.969483608259
  0
LINE
  8
_0-0_計極細
  6
CONTINUOUS
 62
    2
 10
1646.2506406951741
 20
839.16891062460945
 11
1647.3238481050482
 21
840.24211803448543
  0
LINE
  8
_0-0_計極細
  6
CONTINUOUS
 62
    2
 10
1636.9946847614899
 20
832.03427503448529
 11
1645.20252776149
 21
840.24211803448543
  0
LINE
  8
_0-0_計極細
  6
CONTINUOUS
 62
    2
 10
1634.8733644179281
 20
832.03427503448529
 11
1643.0812074179282
 21
840.24211803448543
  0
LINE
  8
_0-0_計極細
  6
CONTINUOUS
 62
    2
 10
1632.7520440743699
 20
832.03427503448529
 11
1640.95988707437
 21
840.24211803448543
  0
LINE
  8
_0-0_計極細
  6
CONTINUOUS
 62
    2
 10
1630.6307237308117
 20
832.03427503448529
 11
1638.8385667308119
 21
840.24211803448543
  0
LINE
  8
_0-0_計極細
  6
CONTINUOUS
 62
    2
 10
1628.5094033872499
 20
832.03427503448529
 11
1636.71724638725
 21
840.24211803448543
  0
LINE
  8
_0-0_計極細
  6
CONTINUOUS
 62
    2
 10
1626.3880830436917
 20
832.03427503448529
 11
1634.5959260436919
 21
840.24211803448543
  0
LINE
  8
_0-0_計極細
  6
CONTINUOUS
 62
    2
 10
1624.2667627001299
 20
832.03427503448529
 11
1632.47460570013
 21
840.24211803448543
  0
LINE
  8
_0-0_計極細
  6
CONTINUOUS
 62
    2
 10
1622.1454423565717
 20
832.03427503448529
 11
1630.3532853565719
 21
840.24211803448543
  0
LINE
  8
_0-0_計極細
  6
CONTINUOUS
 62
    2
 10
1620.0241220130135
 20
832.03427503448529
 11
1628.2319650130137
 21
840.24211803448543
  0
LINE
  8
_0-0_計極細
  6
CONTINUOUS
 62
    2
 10
1617.9028016694517
 20
832.03427503448529
 11
1626.1106446694519
 21
840.24211803448543
  0
LINE
  8
_0-0_計極細
  6
CONTINUOUS
 62
    2
 10
1615.7814813258935
 20
832.03427503448529
 11
1623.9893243258937
 21
840.24211803448543
  0
LINE
  8
_0-0_計極細
  6
CONTINUOUS
 62
    2
 10
1614.0037602689461
 20
832.37787432109872
 11
1621.8680039823319
 21
840.24211803448543
  0
LINE
  8
_0-0_計極細
  6
CONTINUOUS
 62
    2
 10
1614.0037602689461
 20
834.49919466465872
 11
1619.7466836387737
 21
840.24211803448543
  0
LINE
  8
_0-0_計極細
  6
CONTINUOUS
 62
    2
 10
1614.0037602689461
 20
836.62051500821872
 11
1617.6253632952155
 21
840.24211803448543
  0
LINE
  8
_0-0_計極細
  6
CONTINUOUS
 62
    2
 10
1614.0037602689461
 20
838.74183535177781
 11
1615.5040429516537
 21
840.24211803448543
  0
LINE
  8
_0-0_計極細
  6
CONTINUOUS
 62
    2
 10
1614.0037602689461
 20
854.22709604915599
 11
1670.9037602689475
 21
854.22709604915508
  0
LINE
  8
_0-1_計細線
  6
CONTINUOUS
 62
    3
 10
1557.0037602689461
 20
850.53425831448021
 11
1614.0037602689463
 21
850.53425831448021
  0
LINE
  8
_0-1_計細線
  6
CONTINUOUS
 62
    3
 10
1557.1037602689482
 20
837.83427503448547
 11
1557.1037602689482
 21
850.53425831448044
  0
LINE
  8
_0-7_枠細線
  6
CONTINUOUS
 62
    5
 10
2123.9543257597729
 20
528.51085913780207
 11
2123.9543257597729
 21
360.51085913780253
  0
TEXT
  8
_0-7_枠細線
 62
    5
 10
1978.3543257597744
 20
496.51085913780207
 40
24.000000000000004
 41
0.8
 50
0
  1
ノンスリップ
  0
LINE
  8
_0-7_枠細線
  6
CONTINUOUS
 62
    5
 10
1963.8386591003168
 20
412.11529377818852
 11
2115.6474377518034
 21
412.11529377818852
  0
LINE
  8
_0-7_枠細線
  6
CONTINUOUS
 62
    5
 10
1957.8623497675799
 20
438.78196044218885
 11
2109.6711284190669
 21
438.78196044218885
  0
ARC
  8
_0-7_枠細線
  6
CONTINUOUS
 62
    5
 10
1981.2876590985716
 20
420.11529377738862
 40
5.3333333327999997
 50
51.31781299999917
 51
203.57817800000373
  0
ARC
  8
_0-7_枠細線
  6
CONTINUOUS
 62
    5
 10
1987.9543257645719
 20
428.44195777655614
 40
5.3333333327999997
 50
231.31781300000563
 51
308.68218699999358
  0
LINE
  8
_0-7_枠細線
  6
CONTINUOUS
 62
    5
 10
1976.3995790990616
 20
417.98196044426868
 11
1999.5090724300826
 21
417.98196044426868
  0
ARC
  8
_0-7_枠細線
  6
CONTINUOUS
 62
    5
 10
1994.6209924305722
 20
420.11529377738862
 40
5.3333333327999997
 50
336.42182199999354
 51
128.68218700000429
  0
ARC
  8
_0-7_枠細線
  6
CONTINUOUS
 62
    5
 10
2029.2876590937726
 20
430.78196044298875
 40
5.3333333327999997
 50
156.42182200000036
 51
308.68218699998977
  0
ARC
  8
_0-7_枠細線
  6
CONTINUOUS
 62
    5
 10
2035.9543257597716
 20
422.45529644382123
 40
5.3333333327999997
 50
51.31781299999917
 51
128.68218699999704
  0
ARC
  8
_0-7_枠細線
  6
CONTINUOUS
 62
    5
 10
2042.6209924257728
 20
430.78196044298875
 40
5.3333333327999997
 50
231.31781299999807
 51
23.578178000003184
  0
LINE
  8
_0-7_枠細線
  6
CONTINUOUS
 62
    5
 10
2024.3995790942618
 20
432.91529377610868
 11
2047.5090724252827
 21
432.91529377610868
  0
LINE
  8
_0-7_枠細線
  6
CONTINUOUS
 62
    5
 10
2072.3995790894614
 20
417.98196044426868
 11
2095.5090724204829
 21
417.98196044426868
  0
ARC
  8
_0-7_枠細線
  6
CONTINUOUS
 62
    5
 10
2077.2876590889718
 20
420.11529377738862
 40
5.3333333327999997
 50
51.317813000002985
 51
203.57817800000373
  0
ARC
  8
_0-7_枠細線
  6
CONTINUOUS
 62
    5
 10
2083.9543257549722
 20
428.44195777655614
 40
5.3333333327999997
 50
231.31781300000188
 51
308.68218699999358
  0
ARC
  8
_0-7_枠細線
  6
CONTINUOUS
 62
    5
 10
2090.6209924209716
 20
420.11529377738862
 40
5.3333333327999997
 50
336.42182199999553
 51
128.68218699999667
  0
ARC
  8
_0-7_枠細線
  6
CONTINUOUS
 62
    5
 10
2029.2876590937726
 20
430.78196044298875
 40
9.9466666656720477
 50
151.14636799999636
 51
308.6821870000029
  0
LINE
  8
_0-7_枠細線
  6
CONTINUOUS
 62
    5
 10
1957.2763177676397
 20
435.58196044250872
 11
2020.5758190946422
 21
435.58196044250872
  0
LINE
  8
_0-7_枠細線
  6
CONTINUOUS
 62
    5
 10
2003.3328350963666
 20
415.31529377786865
 11
2068.5758190898441
 21
415.31529377786865
  0
ARC
  8
_0-7_枠細線
  6
CONTINUOUS
 62
    5
 10
1950.7069631016302
 20
416.17383511111575
 40
13.744570665292123
 50
317.56162900000112
 51
42.438371000002093
  0
ARC
  8
_0-7_枠細線
  6
CONTINUOUS
 62
    5
 10
1981.2876590985716
 20
420.11529377738862
 40
9.9466666656720477
 50
51.317812999990608
 51
208.8536319999987
  0
ARC
  8
_0-7_枠細線
  6
CONTINUOUS
 62
    5
 10
1970.9940484329336
 20
434.72341910926116
 40
13.744570665292123
 50
137.56162899999757
 51
222.43837100000209
  0
LINE
  8
_0-7_枠細線
  6
CONTINUOUS
 62
    5
 10
1964.424693766925
 20
415.31529377786865
 11
1972.575819099442
 21
415.31529377786865
  0
ARC
  8
_0-7_枠細線
  6
CONTINUOUS
 62
    5
 10
1987.9543257645719
 20
428.44195777655614
 40
0.7199999999279512
 50
231.31781300003806
 51
308.68218699996123
  0
ARC
  8
_0-7_枠細線
  6
CONTINUOUS
 62
    5
 10
1994.6209924305722
 20
420.11529377738862
 40
9.9466666656720477
 50
331.14636800000056
 51
128.68218700000494
  0
ARC
  8
_0-7_枠細線
  6
CONTINUOUS
 62
    5
 10
2102.5157417531177
 20
416.17383511111575
 40
13.744570665292123
 50
317.56162899999731
 51
42.438371000003364
  0
ARC
  8
_0-7_枠細線
  6
CONTINUOUS
 62
    5
 10
2122.802827084422
 20
434.72341910926116
 40
13.744570665292123
 50
137.56162900000393
 51
222.43837099999826
  0
LINE
  8
_0-7_枠細線
  6
CONTINUOUS
 62
    5
 10
2099.3328350867669
 20
415.31529377786865
 11
2116.233472418412
 21
415.31529377786865
  0
LINE
  8
_0-7_枠細線
  6
CONTINUOUS
 62
    5
 10
2051.3328350915676
 20
435.58196044250872
 11
2109.0850964191268
 21
435.58196044250872
  0
ARC
  8
_0-7_枠細線
  6
CONTINUOUS
 62
    5
 10
2077.2876590889718
 20
420.11529377738862
 40
9.9466666656720477
 50
51.317812999990608
 51
208.85363200000583
  0
ARC
  8
_0-7_枠細線
  6
CONTINUOUS
 62
    5
 10
2035.9543257597716
 20
422.45529644382123
 40
0.7199999999279512
 50
51.317812999959308
 51
128.6821869999842
  0
ARC
  8
_0-7_枠細線
  6
CONTINUOUS
 62
    5
 10
2042.6209924257728
 20
430.78196044298875
 40
9.9466666656720477
 50
231.31781299998616
 51
28.853631999996409
  0
ARC
  8
_0-7_枠細線
  6
CONTINUOUS
 62
    5
 10
2083.9543257549722
 20
428.44195777655614
 40
0.7199999999279512
 50
231.31781299998158
 51
308.68218699996123
  0
ARC
  8
_0-7_枠細線
  6
CONTINUOUS
 62
    5
 10
2090.6209924209716
 20
420.11529377738862
 40
9.9466666656720477
 50
331.14636800000056
 51
128.6821870000029
  0
LINE
  8
_0-7_枠細線
  6
CENTER1
 62
    5
 10
1987.9543257645719
 20
441.02162177529772
 11
1987.9543257645719
 21
410.06458444506052
  0
LINE
  8
_0-7_枠細線
  6
CENTER1
 62
    5
 10
2083.9543257549722
 20
441.02162177529772
 11
2083.9543257549722
 21
410.06458444506052
  0
LINE
  8
_0-7_枠細線
  6
CENTER1
 62
    5
 10
2035.9543257597716
 20
441.02162177529772
 11
2035.9543257597716
 21
410.06458444506052
  0
LINE
  8
_0-7_枠細線
  6
CONTINUOUS
 62
    5
 10
1987.9543257645719
 20
404.11529377818852
 11
1987.9543257645719
 21
364.11529377818852
  0
LINE
  8
_0-7_枠細線
  6
CONTINUOUS
 62
    5
 10
1987.9543257645719
 20
372.11529377818852
 11
2003.4091389851969
 21
376.25639849982883
  0
LINE
  8
_0-7_枠細線
  6
CONTINUOUS
 62
    5
 10
1987.9543257645719
 20
372.11529377818852
 11
2003.4091389851969
 21
367.9741890565482
  0
LINE
  8
_0-7_枠細線
  6
CONTINUOUS
 62
    5
 10
2035.9543257597716
 20
404.11529377818852
 11
2035.9543257597716
 21
364.11529377818852
  0
LINE
  8
_0-7_枠細線
  6
CONTINUOUS
 62
    5
 10
2035.9543257597716
 20
372.11529377818852
 11
2020.4995125391465
 21
367.97418905654825
  0
LINE
  8
_0-7_枠細線
  6
CONTINUOUS
 62
    5
 10
2035.9543257597716
 20
372.11529377818852
 11
2020.4995125391465
 21
376.25639849982889
  0
LINE
  8
_0-7_枠細線
  6
CONTINUOUS
 62
    5
 10
1987.9543257645719
 20
372.11529377818852
 11
2035.9543257597716
 21
372.11529377818852
  0
TEXT
  8
_0-7_枠細線
 62
    5
 10
1999.9543257621722
 20
372.11529377818852
 40
24
 41
1
 50
0
  1
18
  0
LINE
  8
_0-7_枠細線
  6
CONTINUOUS
 62
    5
 10
2035.9543257597716
 20
372.11529377818852
 11
2051.4091389803966
 21
376.25639849982872
  0
LINE
  8
_0-7_枠細線
  6
CONTINUOUS
 62
    5
 10
2035.9543257597716
 20
372.11529377818852
 11
2051.4091389803966
 21
367.97418905654808
  0
LINE
  8
_0-7_枠細線
  6
CONTINUOUS
 62
    5
 10
2083.9543257549722
 20
404.11529377818852
 11
2083.9543257549722
 21
364.11529377818852
  0
LINE
  8
_0-7_枠細線
  6
CONTINUOUS
 62
    5
 10
2083.9543257549722
 20
372.11529377818852
 11
2068.4995125343471
 21
367.97418905654825
  0
LINE
  8
_0-7_枠細線
  6
CONTINUOUS
 62
    5
 10
2083.9543257549722
 20
372.11529377818852
 11
2068.4995125343471
 21
376.25639849982889
  0
LINE
  8
_0-7_枠細線
  6
CONTINUOUS
 62
    5
 10
2035.9543257597716
 20
372.11529377818852
 11
2083.9543257549722
 21
372.11529377818852
  0
TEXT
  8
_0-7_枠細線
 62
    5
 10
2047.9543257573723
 20
372.11529377818852
 40
24
 41
1
 50
0
  1
18
  0
TEXT
  8
_0-7_枠細線
 62
    5
 10
1997.5543257597733
 20
456.51085913780253
 40
24.000000000000004
 41
0.7999999999999997
 50
0
  1
品番－Ｄ
  0
LINE
  8
_0-7_枠細線
  6
CONTINUOUS
 62
    5
 10
1947.9543257597725
 20
528.51085913780207
 11
1947.9543257597725
 21
360.51085913780253
  0
TEXT
  8
_0-7_枠細線
 62
    5
 10
1821.5543257597719
 20
496.51085913780253
 40
24.000000000000004
 41
0.8
 50
0
  1
プレーン
  0
LINE
  8
_0-7_枠細線
  6
CONTINUOUS
 62
    5
 10
1787.038089767063
 20
412.11529377818852
 11
1938.84686841855
 21
412.11529377818852
  0
LINE
  8
_0-7_枠細線
  6
CONTINUOUS
 62
    5
 10
1781.0617804343267
 20
438.78196044218885
 11
1932.8705590858144
 21
438.78196044218885
  0
ARC
  8
_0-7_枠細線
  6
CONTINUOUS
 62
    5
 10
1925.715172419862
 20
416.17383511111575
 40
13.744570665292123
 50
317.56162900000527
 51
42.43837099999547
  0
ARC
  8
_0-7_枠細線
  6
CONTINUOUS
 62
    5
 10
1773.9063937683773
 20
416.17383511111575
 40
13.744570665292276
 50
317.56162899999987
 51
42.438371000002242
  0
LINE
  8
_0-7_枠細線
  6
CONTINUOUS
 62
    5
 10
1780.4757484343863
 20
435.58196044250872
 11
1932.2845270858734
 21
435.58196044250872
  0
LINE
  8
_0-7_枠細線
  6
CONTINUOUS
 62
    5
 10
1787.6241244336716
 20
415.31529377786865
 11
1939.4329030851577
 21
415.31529377786865
  0
ARC
  8
_0-7_枠細線
  6
CONTINUOUS
 62
    5
 10
1794.1934790996829
 20
434.72341910926116
 40
13.744570665292276
 50
137.56162899999882
 51
222.43837100000209
  0
ARC
  8
_0-7_枠細線
  6
CONTINUOUS
 62
    5
 10
1946.0022577511681
 20
434.72341910926116
 40
13.744570665292123
 50
137.5616290000001
 51
222.43837099999953
  0
TEXT
  8
_0-7_枠細線
 62
    5
 10
1821.5543257597737
 20
456.51085913780253
 40
24.000000000000004
 41
0.7999999999999997
 50
0
  1
品番－Ｆ
  0
TEXT
  8
_0-7_枠細線
 62
    5
 10
1693.5543257597726
 20
496.51085913780207
 40
24.000000000000004
 41
0.8
 50
0
  1
タ イ プ
  0
LINE
  8
_0-7_枠細線
  6
CONTINUOUS
 62
    5
 10
1691.9543257597718
 20
448.51085913780253
 11
2123.9543257597729
 21
448.51085913780253
  0
LINE
  8
_0-7_枠細線
  6
CONTINUOUS
 62
    5
 10
1691.9543257597718
 20
488.51085913780207
 11
2123.9543257597729
 21
488.51085913780207
  0
LINE
  8
_0-7_枠細線
  6
CONTINUOUS
 62
    5
 10
1691.9543257597718
 20
528.51085913780207
 11
2123.9543257597729
 21
528.51085913780207
  0
LINE
  8
_0-7_枠細線
  6
CONTINUOUS
 62
    5
 10
1691.9543257597718
 20
360.51085913780253
 11
2123.9543257597729
 21
360.51085913780253
  0
LINE
  8
_0-7_枠細線
  6
CONTINUOUS
 62
    5
 10
1771.9543257597729
 20
528.51085913780207
 11
1771.9543257597729
 21
360.51085913780253
  0
LINE
  8
_0-7_枠細線
  6
CONTINUOUS
 62
    5
 10
1691.9543257597718
 20
528.51085913780207
 11
1691.9543257597718
 21
360.51085913780253
  0
TEXT
  8
_0-7_枠細線
 62
    5
 10
1693.5543257597726
 20
392.51085913780253
 40
24.000000000000004
 41
0.8
 50
0
  1
表面形状
  0
TEXT
  8
_0-7_枠細線
 62
    5
 10
1693.5543257597726
 20
456.51085913780253
 40
24.000000000000004
 41
0.8
 50
0
  1
記　　号
  0
TEXT
  8
_0-7_枠細線
 62
    5
 10
1694.4492070046908
 20
532.51085913780253
 40
28.000000000000007
 41
0.7999999999999996
 50
0
  1
記号表
  0
LINE
  8
_0-e_極細4
  6
CONTINUOUS
 62
    6
 10
349.91561901808564
 20
652.19853677656045
 11
357.11561901808614
 21
652.19853677656045
  0
LINE
  8
_0-e_極細4
  6
CONTINUOUS
 62
    6
 10
349.91561901808564
 20
653.39853677656049
 11
358.06090490227871
 21
653.39853677656049
  0
LINE
  8
_0-e_極細4
  6
CONTINUOUS
 62
    6
 10
349.91561901808564
 20
654.59853677656031
 11
357.11561901808614
 21
654.59853677656031
  0
LINE
  8
_0-e_極細4
  6
CONTINUOUS
 62
    6
 10
349.91561901808564
 20
655.79853677656058
 11
357.11561901808614
 21
655.79853677656058
  0
LINE
  8
_0-e_極細4
  6
CONTINUOUS
 62
    6
 10
349.88643815632167
 20
656.99853677656085
 11
357.17033313389311
 21
656.99853677656085
  0
LINE
  8
_0-e_極細4
  6
CONTINUOUS
 62
    6
 10
349.24643815632203
 20
658.19853677656045
 11
357.86090490227866
 21
658.19853677656045
  0
LINE
  8
_0-e_極細4
  6
CONTINUOUS
 62
    6
 10
348.60643815632193
 20
659.39853677656049
 11
357.11561901808614
 21
659.39853677656049
  0
LINE
  8
_0-e_極細4
  6
CONTINUOUS
 62
    6
 10
516.11561901808591
 20
652.19853677656045
 11
523.31561901808573
 21
652.19853677656045
  0
LINE
  8
_0-e_極細4
  6
CONTINUOUS
 62
    6
 10
515.17033313389265
 20
653.39853677656049
 11
523.31561901808573
 21
653.39853677656049
  0
LINE
  8
_0-e_極細4
  6
CONTINUOUS
 62
    6
 10
516.11561901808591
 20
654.59853677656031
 11
523.31561901808573
 21
654.59853677656031
  0
LINE
  8
_0-e_極細4
  6
CONTINUOUS
 62
    6
 10
516.11561901808591
 20
655.79853677656058
 11
523.31561901808573
 21
655.79853677656058
  0
LINE
  8
_0-e_極細4
  6
CONTINUOUS
 62
    6
 10
516.06090490227734
 20
656.99853677656085
 11
523.34479987984969
 21
656.99853677656085
  0
LINE
  8
_0-e_極細4
  6
CONTINUOUS
 62
    6
 10
515.37033313389338
 20
658.19853677656045
 11
523.98479987985002
 21
658.19853677656045
  0
LINE
  8
_0-e_極細4
  6
CONTINUOUS
 62
    6
 10
516.11561901808591
 20
659.39853677656049
 11
524.62479987985034
 21
659.39853677656049
  0
LINE
  8
_0-e_極細4
  6
CONTINUOUS
 62
    6
 10
349.63726855875552
 20
639.13160266075317
 11
349.63726855875552
 21
643.13160266075317
  0
LINE
  8
_0-e_極細4
  6
CONTINUOUS
 62
    6
 10
348.4372685587557
 20
639.13160266075317
 11
348.4372685587557
 21
643.13160266075317
  0
LINE
  8
_0-e_極細4
  6
CONTINUOUS
 62
    6
 10
347.2372685587552
 20
639.13160266075317
 11
347.2372685587552
 21
643.13160266075317
  0
LINE
  8
_0-e_極細4
  6
CONTINUOUS
 62
    6
 10
346.03726855875539
 20
639.13160266075317
 11
346.03726855875539
 21
667.0788699737883
  0
LINE
  8
_0-e_極細4
  6
CONTINUOUS
 62
    6
 10
344.83726855875557
 20
639.13160266075317
 11
344.83726855875557
 21
667.70682350996083
  0
LINE
  8
_0-e_極細4
  6
CONTINUOUS
 62
    6
 10
343.63726855875552
 20
639.13160266075317
 11
343.63726855875552
 21
667.73160266075331
  0
LINE
  8
_0-e_極細4
  6
CONTINUOUS
 62
    6
 10
342.43726855875502
 20
639.13160266075317
 11
342.43726855875502
 21
667.73160266075331
  0
LINE
  8
_0-e_極細4
  6
CONTINUOUS
 62
    6
 10
341.2372685587552
 20
639.13160266075317
 11
341.2372685587552
 21
667.85176138664167
  0
LINE
  8
_0-e_極細4
  6
CONTINUOUS
 62
    6
 10
340.03726855875516
 20
639.13160266075317
 11
340.03726855875516
 21
668.45444131317402
  0
LINE
  8
_0-e_極細4
  6
CONTINUOUS
 62
    6
 10
338.83726855875534
 20
639.90995312008397
 11
338.83726855875534
 21
670.29672124487513
  0
LINE
  8
_0-e_極細4
  6
CONTINUOUS
 62
    6
 10
337.63726855875484
 20
641.10995312008401
 11
337.63726855875484
 21
672.48909741914861
  0
LINE
  8
_0-e_極細4
  6
CONTINUOUS
 62
    6
 10
535.6372685587553
 20
641.15325220142324
 11
535.6372685587553
 21
672.51129620420977
  0
LINE
  8
_0-e_極細4
  6
CONTINUOUS
 62
    6
 10
534.43726855875548
 20
639.95325220142342
 11
534.43726855875548
 21
670.49149870764211
  0
LINE
  8
_0-e_極細4
  6
CONTINUOUS
 62
    6
 10
533.23726855875475
 20
639.13160266075317
 11
533.23726855875475
 21
668.4889114626759
  0
LINE
  8
_0-e_極細4
  6
CONTINUOUS
 62
    6
 10
532.03726855875584
 20
639.13160266075317
 11
532.03726855875584
 21
667.86389697235279
  0
LINE
  8
_0-e_極細4
  6
CONTINUOUS
 62
    6
 10
530.83726855875602
 20
639.13160266075317
 11
530.83726855875602
 21
667.73160266075331
  0
LINE
  8
_0-e_極細4
  6
CONTINUOUS
 62
    6
 10
529.6372685587553
 20
639.13160266075317
 11
529.6372685587553
 21
667.73160266075331
  0
LINE
  8
_0-e_極細4
  6
CONTINUOUS
 62
    6
 10
528.43726855875548
 20
639.13160266075317
 11
528.43726855875548
 21
667.713073540153
  0
LINE
  8
_0-e_極細4
  6
CONTINUOUS
 62
    6
 10
527.23726855875475
 20
639.13160266075317
 11
527.23726855875475
 21
667.1230717081686
  0
LINE
  8
_0-e_極細4
  6
CONTINUOUS
 62
    6
 10
526.03726855875584
 20
639.13160266075317
 11
526.03726855875584
 21
643.13160266075317
  0
LINE
  8
_0-e_極細4
  6
CONTINUOUS
 62
    6
 10
524.83726855875511
 20
639.13160266075317
 11
524.83726855875511
 21
643.13160266075317
  0
LINE
  8
_0-e_極細4
  6
CONTINUOUS
 62
    6
 10
523.6372685587553
 20
639.13160266075317
 11
523.6372685587553
 21
643.13160266075317
  0
LINE
  8
_0-e_極細4
  6
CONTINUOUS
 62
    6
 10
522.43726855875548
 20
635.13160266075317
 11
522.43726855875548
 21
647.13160266075317
  0
LINE
  8
_0-e_極細4
  6
CONTINUOUS
 62
    6
 10
521.23726855875475
 20
635.13160266075317
 11
521.23726855875475
 21
635.63502797908075
  0
LINE
  8
_0-e_極細4
  6
CONTINUOUS
 62
    6
 10
521.23726855875475
 20
639.33316066075315
 11
521.23726855875475
 21
647.13160266075317
  0
LINE
  8
_0-e_極細4
  6
CONTINUOUS
 62
    6
 10
520.03726855875584
 20
639.33316066075315
 11
520.03726855875584
 21
647.13160266075317
  0
LINE
  8
_0-e_極細4
  6
CONTINUOUS
 62
    6
 10
518.83726855875602
 20
639.33316066075315
 11
518.83726855875602
 21
647.13160266075317
  0
LINE
  8
_0-e_極細4
  6
CONTINUOUS
 62
    6
 10
517.6372685587553
 20
639.33316066075315
 11
517.6372685587553
 21
647.13160266075317
  0
LINE
  8
_0-e_極細4
  6
CONTINUOUS
 62
    6
 10
355.63726855875552
 20
639.33316066075315
 11
355.63726855875552
 21
647.13160266075317
  0
LINE
  8
_0-e_極細4
  6
CONTINUOUS
 62
    6
 10
354.4372685587557
 20
639.33316066075315
 11
354.4372685587557
 21
647.13160266075317
  0
LINE
  8
_0-e_極細4
  6
CONTINUOUS
 62
    6
 10
353.2372685587552
 20
639.33316066075315
 11
353.2372685587552
 21
647.13160266075317
  0
LINE
  8
_0-e_極細4
  6
CONTINUOUS
 62
    6
 10
352.03726855875539
 20
635.13160266075317
 11
352.03726855875539
 21
635.54559024529829
  0
LINE
  8
_0-e_極細4
  6
CONTINUOUS
 62
    6
 10
352.03726855875539
 20
639.33316066075315
 11
352.03726855875539
 21
647.13160266075317
  0
LINE
  8
_0-e_極細4
  6
CONTINUOUS
 62
    6
 10
350.83726855875557
 20
635.13160266075317
 11
350.83726855875557
 21
647.13160266075317
  0
LINE
  8
_0-e_極細4
  6
CONTINUOUS
 62
    6
 10
376.03726855875539
 20
635.73160266075354
 11
376.03726855875539
 21
639.13160266075317
  0
LINE
  8
_0-e_極細4
  6
CONTINUOUS
 62
    6
 10
374.83726855875557
 20
635.73160266075354
 11
374.83726855875557
 21
639.13160266075317
  0
LINE
  8
_0-e_極細4
  6
CONTINUOUS
 62
    6
 10
373.63726855875552
 20
635.73160266075354
 11
373.63726855875552
 21
639.13160266075317
  0
LINE
  8
_0-e_極細4
  6
CONTINUOUS
 62
    6
 10
372.4372685587557
 20
635.73160266075354
 11
372.4372685587557
 21
639.13160266075317
  0
LINE
  8
_0-e_極細4
  6
CONTINUOUS
 62
    6
 10
371.2372685587552
 20
635.73160266075354
 11
371.2372685587552
 21
639.13160266075317
  0
LINE
  8
_0-e_極細4
  6
CONTINUOUS
 62
    6
 10
370.03726855875539
 20
635.73160266075354
 11
370.03726855875539
 21
639.13160266075317
  0
LINE
  8
_0-e_極細4
  6
CONTINUOUS
 62
    6
 10
368.83726855875534
 20
635.73160266075354
 11
368.83726855875534
 21
639.13160266075317
  0
LINE
  8
_0-e_極細4
  6
CONTINUOUS
 62
    6
 10
367.6372685587553
 20
635.73160266075354
 11
367.6372685587553
 21
639.13160266075317
  0
LINE
  8
_0-e_極細4
  6
CONTINUOUS
 62
    6
 10
505.6372685587553
 20
635.73160266075354
 11
505.6372685587553
 21
639.13160266075317
  0
LINE
  8
_0-e_極細4
  6
CONTINUOUS
 62
    6
 10
504.43726855875548
 20
635.73160266075354
 11
504.43726855875548
 21
639.13160266075317
  0
LINE
  8
_0-e_極細4
  6
CONTINUOUS
 62
    6
 10
503.23726855875475
 20
635.73160266075354
 11
503.23726855875475
 21
639.13160266075317
  0
LINE
  8
_0-e_極細4
  6
CONTINUOUS
 62
    6
 10
502.03726855875584
 20
635.73160266075354
 11
502.03726855875584
 21
639.13160266075317
  0
LINE
  8
_0-e_極細4
  6
CONTINUOUS
 62
    6
 10
500.83726855875557
 20
635.73160266075354
 11
500.83726855875557
 21
639.13160266075317
  0
LINE
  8
_0-e_極細4
  6
CONTINUOUS
 62
    6
 10
499.6372685587553
 20
635.73160266075354
 11
499.6372685587553
 21
639.13160266075317
  0
LINE
  8
_0-e_極細4
  6
CONTINUOUS
 62
    6
 10
498.43726855875457
 20
635.73160266075354
 11
498.43726855875457
 21
639.13160266075317
  0
LINE
  8
_0-e_極細4
  6
CONTINUOUS
 62
    6
 10
497.23726855875475
 20
635.73160266075354
 11
497.23726855875475
 21
639.13160266075317
  0
LINE
  8
_0-e_極細4
  6
CONTINUOUS
 62
    6
 10
380.83726855875557
 20
639.13160266075317
 11
380.83726855875557
 21
640.36797755433997
  0
LINE
  8
_0-e_極細4
  6
CONTINUOUS
 62
    6
 10
379.63726855875552
 20
639.13160266075317
 11
379.63726855875552
 21
641.99429062576485
  0
LINE
  8
_0-e_極細4
  6
CONTINUOUS
 62
    6
 10
378.4372685587557
 20
639.13160266075317
 11
378.4372685587557
 21
643.18230090485906
  0
LINE
  8
_0-e_極細4
  6
CONTINUOUS
 62
    6
 10
377.2372685587552
 20
639.13160266075317
 11
377.2372685587552
 21
644.08933757588477
  0
LINE
  8
_0-e_極細4
  6
CONTINUOUS
 62
    6
 10
376.03726855875539
 20
639.13160266075317
 11
376.03726855875539
 21
644.78705859692229
  0
LINE
  8
_0-e_極細4
  6
CONTINUOUS
 62
    6
 10
374.83726855875534
 20
639.13160266075317
 11
374.83726855875534
 21
645.31453631348325
  0
LINE
  8
_0-e_極細4
  6
CONTINUOUS
 62
    6
 10
373.63726855875552
 20
639.13160266075317
 11
373.63726855875552
 21
645.69499128723703
  0
LINE
  8
_0-e_極細4
  6
CONTINUOUS
 62
    6
 10
372.43726855875502
 20
639.13160266075317
 11
372.43726855875502
 21
645.94257981468979
  0
LINE
  8
_0-e_極細4
  6
CONTINUOUS
 62
    6
 10
371.2372685587552
 20
639.13160266075317
 11
371.2372685587552
 21
646.06553983681545
  0
LINE
  8
_0-e_極細4
  6
CONTINUOUS
 62
    6
 10
370.03726855875516
 20
639.13160266075317
 11
370.03726855875516
 21
646.06770750570502
  0
LINE
  8
_0-e_極細4
  6
CONTINUOUS
 62
    6
 10
368.83726855875534
 20
639.13160266075317
 11
368.83726855875534
 21
645.94914901187133
  0
LINE
  8
_0-e_極細4
  6
CONTINUOUS
 62
    6
 10
367.63726855875484
 20
639.13160266075317
 11
367.63726855875484
 21
645.70617108266663
  0
LINE
  8
_0-e_極細4
  6
CONTINUOUS
 62
    6
 10
366.43726855875502
 20
639.13160266075317
 11
366.43726855875502
 21
645.33071428557389
  0
LINE
  8
_0-e_極細4
  6
CONTINUOUS
 62
    6
 10
365.23726855875498
 20
639.13160266075317
 11
365.23726855875498
 21
644.80887720098815
  0
LINE
  8
_0-e_極細4
  6
CONTINUOUS
 62
    6
 10
364.03726855875516
 20
639.13160266075317
 11
364.03726855875516
 21
644.11785240140318
  0
LINE
  8
_0-e_極細4
  6
CONTINUOUS
 62
    6
 10
362.83726855875466
 20
639.13160266075317
 11
362.83726855875466
 21
642.96184732231688
  0
LINE
  8
_0-e_極細4
  6
CONTINUOUS
 62
    6
 10
361.63726855875484
 20
639.13160266075317
 11
361.63726855875484
 21
639.84240106116829
  0
ARC
  8
_0-e_極細4
  6
CONTINUOUS
 62
    6
 10
370.61561901808614
 20
634.08165266075355
 40
12
 50
0
 51
24.886947317068213
  0
LINE
  8
_0-e_極細4
  6
CONTINUOUS
 62
    6
 10
381.50129791273957
 20
639.13160266075317
 11
361.61561901808614
 21
639.13160266075317
  0
ARC
  8
_0-e_極細4
  6
CONTINUOUS
 62
    6
 10
370.61561901808614
 20
634.08165266075355
 40
12
 50
24.886947317068213
 51
124.8337076438462
  0
LINE
  8
_0-e_極細4
  6
CONTINUOUS
 62
    6
 10
361.61561901808614
 20
633.33316066075383
 11
361.61561901808614
 21
639.13160266075317
  0
ARC
  8
_0-e_極細4
  6
CONTINUOUS
 62
    6
 10
367.61561901808614
 20
639.33316066075315
 40
6
 50
129.97050058003745
 51
181.92509931279378
  0
LINE
  8
_0-e_極細4
  6
CONTINUOUS
 62
    6
 10
510.43726855875548
 20
639.13160266075317
 11
510.43726855875548
 21
642.9041123135986
  0
LINE
  8
_0-e_極細4
  6
CONTINUOUS
 62
    6
 10
509.23726855875475
 20
639.13160266075317
 11
509.23726855875475
 21
644.08933757588477
  0
LINE
  8
_0-e_極細4
  6
CONTINUOUS
 62
    6
 10
508.03726855875584
 20
639.13160266075317
 11
508.03726855875584
 21
644.78705859692184
  0
LINE
  8
_0-e_極細4
  6
CONTINUOUS
 62
    6
 10
506.83726855875557
 20
639.13160266075317
 11
506.83726855875557
 21
645.31453631348302
  0
LINE
  8
_0-e_極細4
  6
CONTINUOUS
 62
    6
 10
505.6372685587553
 20
639.13160266075317
 11
505.6372685587553
 21
645.69499128723635
  0
LINE
  8
_0-e_極細4
  6
CONTINUOUS
 62
    6
 10
504.43726855875457
 20
639.13160266075317
 11
504.43726855875457
 21
645.94257981468957
  0
LINE
  8
_0-e_極細4
  6
CONTINUOUS
 62
    6
 10
503.23726855875475
 20
639.13160266075317
 11
503.23726855875475
 21
646.06553983681545
  0
LINE
  8
_0-e_極細4
  6
CONTINUOUS
 62
    6
 10
502.03726855875493
 20
639.13160266075317
 11
502.03726855875493
 21
646.06770750570524
  0
LINE
  8
_0-e_極細4
  6
CONTINUOUS
 62
    6
 10
500.83726855875511
 20
639.13160266075317
 11
500.83726855875511
 21
645.94914901187133
  0
LINE
  8
_0-e_極細4
  6
CONTINUOUS
 62
    6
 10
499.63726855875439
 20
639.13160266075317
 11
499.63726855875439
 21
645.70617108266686
  0
LINE
  8
_0-e_極細4
  6
CONTINUOUS
 62
    6
 10
498.43726855875457
 20
639.13160266075317
 11
498.43726855875457
 21
645.33071428557412
  0
LINE
  8
_0-e_極細4
  6
CONTINUOUS
 62
    6
 10
497.23726855875475
 20
639.13160266075317
 11
497.23726855875475
 21
644.80887720098815
  0
LINE
  8
_0-e_極細4
  6
CONTINUOUS
 62
    6
 10
496.03726855875493
 20
639.13160266075317
 11
496.03726855875493
 21
644.11785240140364
  0
LINE
  8
_0-e_極細4
  6
CONTINUOUS
 62
    6
 10
494.83726855875511
 20
639.13160266075317
 11
494.83726855875511
 21
643.21933640073019
  0
LINE
  8
_0-e_極細4
  6
CONTINUOUS
 62
    6
 10
493.63726855875439
 20
639.13160266075317
 11
493.63726855875439
 21
642.04338758659935
  0
LINE
  8
_0-e_極細4
  6
CONTINUOUS
 62
    6
 10
492.43726855875457
 20
639.13160266075317
 11
492.43726855875457
 21
640.43784506871577
  0
LINE
  8
_0-e_極細4
  6
CONTINUOUS
 62
    6
 10
511.61561901808545
 20
633.33316066075383
 11
511.61561901808545
 21
639.13160266075317
  0
LINE
  8
_0-e_極細4
  6
CONTINUOUS
 62
    6
 10
491.72994012343179
 20
639.13160266075317
 11
511.61561901808545
 21
639.13160266075317
  0
ARC
  8
_0-e_極細4
  6
CONTINUOUS
 62
    6
 10
505.61561901808545
 20
639.33316066075315
 40
6
 50
358.0749006872054
 51
50.029499419963869
  0
ARC
  8
_0-e_極細4
  6
CONTINUOUS
 62
    6
 10
502.61561901808545
 20
634.08165266075355
 40
12
 50
55.166292356154699
 51
155.11305268293225
  0
ARC
  8
_0-e_極細4
  6
CONTINUOUS
 62
    6
 10
502.61561901808545
 20
634.08165266075355
 40
12
 50
155.11305268293225
 51
179.99999999999983
  0
LINE
  8
_0-e_極細4
  6
CONTINUOUS
 62
    6
 10
332.49583038870765
 20
670.19853677656045
 11
336.65761901808582
 21
670.19853677656045
  0
LINE
  8
_0-e_極細4
  6
CONTINUOUS
 62
    6
 10
322.81561901808595
 20
671.39853677656049
 11
336.65761901808582
 21
671.39853677656049
  0
LINE
  8
_0-e_極細4
  6
CONTINUOUS
 62
    6
 10
322.81561901808595
 20
672.59853677656031
 11
336.65761901808582
 21
672.59853677656031
  0
LINE
  8
_0-e_極細4
  6
CONTINUOUS
 62
    6
 10
322.81561901808595
 20
673.79853677656081
 11
329.06747832561632
 21
673.79853677656081
  0
LINE
  8
_0-e_極細4
  6
CONTINUOUS
 62
    6
 10
536.57361901808554
 20
670.19853677656045
 11
540.73540764746349
 21
670.19853677656045
  0
LINE
  8
_0-e_極細4
  6
CONTINUOUS
 62
    6
 10
536.57361901808554
 20
671.39853677656049
 11
550.41561901808609
 21
671.39853677656049
  0
LINE
  8
_0-e_極細4
  6
CONTINUOUS
 62
    6
 10
536.57361901808554
 20
672.59853677656031
 11
550.41561901808609
 21
672.59853677656031
  0
LINE
  8
_0-e_極細4
  6
CONTINUOUS
 62
    6
 10
544.16375971055504
 20
673.79853677656081
 11
550.41561901808609
 21
673.79853677656081
  0
LINE
  8
_0-e_極細4
  6
CONTINUOUS
 62
    6
 10
383.71980843898109
 20
394.71744122074563
 11
385.64524105838427
 21
396.64287384014949
  0
LINE
  8
_0-e_極細4
  6
CONTINUOUS
 62
    6
 10
381.58056243995156
 20
396.82083590883542
 11
385.71153231912081
 21
400.95180578800534
  0
LINE
  8
_0-e_極細4
  6
CONTINUOUS
 62
    6
 10
381.51101095327704
 20
400.99392510928067
 11
385.77782357985689
 21
405.26073773586052
  0
LINE
  8
_0-e_極細4
  6
CONTINUOUS
 62
    6
 10
381.44145946660319
 20
405.16701430972591
 11
385.84411484059342
 21
409.56966968371614
  0
LINE
  8
_0-e_極細4
  6
CONTINUOUS
 62
    6
 10
381.37190797992912
 20
409.34010351017116
 11
385.9104061013295
 21
413.878601631572
  0
LINE
  8
_0-e_極細4
  6
CONTINUOUS
 62
    6
 10
381.30235649325527
 20
413.51319271061641
 11
385.97669736206581
 21
418.18753357942717
  0
LINE
  8
_0-e_極細4
  6
CONTINUOUS
 62
    6
 10
381.23280500658075
 20
417.68628191106166
 11
386.04298862280211
 21
422.49646552728279
  0
LINE
  8
_0-e_極細4
  6
CONTINUOUS
 62
    6
 10
381.1632535199069
 20
421.85937111150668
 11
386.10927988353797
 21
426.80539747513797
  0
LINE
  8
_0-e_極細4
  6
CONTINUOUS
 62
    6
 10
359.77868294202653
 20
404.71744122074563
 11
360.11902241279404
 21
405.05778069151313
  0
LINE
  8
_0-e_極細4
  6
CONTINUOUS
 62
    6
 10
381.09370203323283
 20
426.03246031195192
 11
386.1755711442745
 21
431.11432942299359
  0
LINE
  8
_0-e_極細4
  6
CONTINUOUS
 62
    6
 10
355.53604225490699
 20
404.71744122074563
 11
360.16187736922961
 21
409.34327633506803
  0
LINE
  8
_0-e_極細4
  6
CONTINUOUS
 62
    6
 10
381.02415054655876
 20
430.2055495123974
 11
386.24186240501058
 21
435.42326137084945
  0
LINE
  8
_0-e_極細4
  6
CONTINUOUS
 62
    6
 10
354.36645023934125
 20
407.79048989229921
 11
360.20473232566542
 21
413.62877197862292
  0
LINE
  8
_0-e_極細4
  6
CONTINUOUS
 62
    6
 10
380.95459905988446
 20
434.37863871284242
 11
386.30815366574711
 21
439.73219331870462
  0
LINE
  8
_0-e_極細4
  6
CONTINUOUS
 62
    6
 10
354.29963700017379
 20
411.96631734025107
 11
360.24758728210054
 21
417.91426762217759
  0
LINE
  8
_0-e_極細4
  6
CONTINUOUS
 62
    6
 10
380.88504757321016
 20
438.55172791328766
 11
386.37444492648319
 21
444.04112526656024
  0
LINE
  8
_0-e_極細4
  6
CONTINUOUS
 62
    6
 10
354.23282376100701
 20
416.14214478820338
 11
360.29044223853612
 21
422.19976326573249
  0
LINE
  8
_0-e_極細4
  6
CONTINUOUS
 62
    6
 10
380.81549608653654
 20
442.72481711373291
 11
386.4407361872195
 21
448.3500572144161
  0
LINE
  8
_0-e_極細4
  6
CONTINUOUS
 62
    6
 10
354.16601052183933
 20
420.31797223615524
 11
360.33329719497192
 21
426.48525890928738
  0
LINE
  8
_0-e_極細4
  6
CONTINUOUS
 62
    6
 10
380.74594459986201
 20
446.89790631417816
 11
386.50702744795581
 21
452.65898916227127
  0
LINE
  8
_0-e_極細4
  6
CONTINUOUS
 62
    6
 10
354.09919728267232
 20
424.49379968410756
 11
360.37615215140704
 21
430.77075455284228
  0
LINE
  8
_0-e_極細4
  6
CONTINUOUS
 62
    6
 10
380.67639311318817
 20
451.07099551462341
 11
386.57331870869166
 21
456.96792111012689
  0
LINE
  8
_0-e_極細4
  6
CONTINUOUS
 62
    6
 10
354.03238404350554
 20
428.66962713205942
 11
360.41900710784262
 21
435.05625019639717
  0
LINE
  8
_0-e_極細4
  6
CONTINUOUS
 62
    6
 10
380.08019813219175
 20
454.71744122074563
 11
385.08019813219175
 21
459.71744122074631
  0
LINE
  8
_0-e_極細4
  6
CONTINUOUS
 62
    6
 10
353.96557080433809
 20
432.84545458001173
 11
360.46186206427842
 21
439.34174583995207
  0
LINE
  8
_0-e_極細4
  6
CONTINUOUS
 62
    6
 10
375.83755744507266
 20
454.71744122074563
 11
380.83755744507266
 21
459.71744122074631
  0
LINE
  8
_0-e_極細4
  6
CONTINUOUS
 62
    6
 10
353.89875756517131
 20
437.02128202796359
 11
360.50471702071354
 21
443.62724148350696
  0
LINE
  8
_0-e_極細4
  6
CONTINUOUS
 62
    6
 10
371.59491675795289
 20
454.71744122074563
 11
376.59491675795289
 21
459.71744122074631
  0
LINE
  8
_0-e_極細4
  6
CONTINUOUS
 62
    6
 10
353.83194432600339
 20
441.19710947591591
 11
360.54757197714912
 21
447.91273712706118
  0
LINE
  8
_0-e_極細4
  6
CONTINUOUS
 62
    6
 10
367.35227607083357
 20
454.71744122074563
 11
372.3522760708338
 21
459.71744122074631
  0
LINE
  8
_0-e_極細4
  6
CONTINUOUS
 62
    6
 10
353.76513108683662
 20
445.37293692386777
 11
360.59042693358492
 21
452.19823277061607
  0
LINE
  8
_0-e_極細4
  6
CONTINUOUS
 62
    6
 10
363.10963538371448
 20
454.71744122074563
 11
368.10963538371448
 21
459.71744122074631
  0
LINE
  8
_0-e_極細4
  6
CONTINUOUS
 62
    6
 10
353.69831784766939
 20
449.54876437182008
 11
363.86699469659538
 21
459.71744122074631
  0
LINE
  8
_0-e_極細4
  6
CONTINUOUS
 62
    6
 10
353.63150460850193
 20
453.72459181977194
 11
359.62435400947629
 21
459.71744122074631
  0
LINE
  8
_0-e_極細4
  6
CONTINUOUS
 62
    6
 10
350.42599944688823
 20
454.76172734527734
 11
355.42599944688823
 21
459.76172734527734
  0
LINE
  8
_0-e_極細4
  6
CONTINUOUS
 62
    6
 10
346.86164660035115
 20
455.44001518585958
 11
351.86164660035115
 21
460.44001518585958
  0
LINE
  8
_0-e_極細4
  6
CONTINUOUS
 62
    6
 10
343.88690191059231
 20
456.70791118322029
 11
348.88690191059231
 21
461.70791118322029
  0
LINE
  8
_0-e_極細4
  6
CONTINUOUS
 62
    6
 10
341.36698738140421
 20
458.43063734115151
 11
346.36698738140421
 21
463.43063734115151
  0
LINE
  8
_0-e_極細4
  6
CONTINUOUS
 62
    6
 10
339.25349670952164
 20
460.55978735638803
 11
344.25349670952164
 21
465.55978735638803
  0
LINE
  8
_0-e_極細4
  6
CONTINUOUS
 62
    6
 10
337.54731014620666
 20
463.09624148019213
 11
342.54731014620666
 21
468.09624148019282
  0
LINE
  8
_0-e_極細4
  6
CONTINUOUS
 62
    6
 10
336.29916889705419
 20
466.09074091815944
 11
341.29916889705419
 21
471.09074091815967
  0
LINE
  8
_0-e_極細4
  6
CONTINUOUS
 62
    6
 10
335.64907504026087
 20
469.68328774848544
 11
340.64907504026155
 21
474.68328774848544
  0
LINE
  8
_0-e_極細4
  6
CONTINUOUS
 62
    6
 10
335.61561901808614
 20
473.8924724134298
 11
340.61561901808614
 21
478.8924724134298
  0
LINE
  8
_0-e_極細4
  6
CONTINUOUS
 62
    6
 10
335.61561901808614
 20
478.13511310054889
 11
340.61561901808614
 21
483.13511310054889
  0
LINE
  8
_0-e_極細4
  6
CONTINUOUS
 62
    6
 10
335.61561901808614
 20
482.37775378766821
 11
340.61561901808614
 21
487.37775378766821
  0
LINE
  8
_0-e_極細4
  6
CONTINUOUS
 62
    6
 10
335.61561901808614
 20
486.6203944747873
 11
340.61561901808614
 21
491.6203944747873
  0
LINE
  8
_0-e_極細4
  6
CONTINUOUS
 62
    6
 10
335.61561901808614
 20
490.86303516190708
 11
340.61561901808614
 21
495.8630351619064
  0
LINE
  8
_0-e_極細4
  6
CONTINUOUS
 62
    6
 10
335.61561901808614
 20
495.10567584902617
 11
340.61561901808614
 21
500.10567584902617
  0
LINE
  8
_0-e_極細4
  6
CONTINUOUS
 62
    6
 10
335.61561901808614
 20
499.34831653614549
 11
340.61561901808614
 21
504.34831653614526
  0
LINE
  8
_0-e_極細4
  6
CONTINUOUS
 62
    6
 10
335.61561901808614
 20
503.59095722326458
 11
340.61561901808614
 21
508.59095722326458
  0
LINE
  8
_0-e_極細4
  6
CONTINUOUS
 62
    6
 10
335.61561901808614
 20
507.83359791038436
 11
340.61561901808614
 21
512.83359791038367
  0
LINE
  8
_0-e_極細4
  6
CONTINUOUS
 62
    6
 10
335.61561901808614
 20
512.07623859750345
 11
340.61561901808614
 21
517.07623859750277
  0
LINE
  8
_0-e_極細4
  6
CONTINUOUS
 62
    6
 10
335.61561901808614
 20
516.31887928462254
 11
340.61561901808614
 21
521.31887928462231
  0
LINE
  8
_0-e_極細4
  6
CONTINUOUS
 62
    6
 10
335.61561901808614
 20
520.5615199717414
 11
340.61561901808614
 21
525.56151997174163
  0
LINE
  8
_0-e_極細4
  6
CONTINUOUS
 62
    6
 10
335.61561901808614
 20
524.80416065886095
 11
340.61561901808614
 21
529.80416065886072
  0
LINE
  8
_0-e_極細4
  6
CONTINUOUS
 62
    6
 10
335.61561901808614
 20
529.04680134598004
 11
340.61561901808614
 21
534.04680134598004
  0
LINE
  8
_0-e_極細4
  6
CONTINUOUS
 62
    6
 10
335.61561901808614
 20
533.28944203309914
 11
340.61561901808614
 21
538.28944203309959
  0
LINE
  8
_0-e_極細4
  6
CONTINUOUS
 62
    6
 10
335.61561901808614
 20
537.53208272021868
 11
340.61561901808614
 21
542.53208272021891
  0
LINE
  8
_0-e_極細4
  6
CONTINUOUS
 62
    6
 10
335.61561901808614
 20
541.774723407338
 11
340.61561901808614
 21
546.77472340733823
  0
LINE
  8
_0-e_極細4
  6
CONTINUOUS
 62
    6
 10
335.61561901808614
 20
546.01736409445709
 11
340.61561901808614
 21
551.01736409445732
  0
LINE
  8
_0-e_極細4
  6
CONTINUOUS
 62
    6
 10
335.61561901808614
 20
550.26000478157641
 11
340.61561901808614
 21
555.26000478157641
  0
LINE
  8
_0-e_極細4
  6
CONTINUOUS
 62
    6
 10
335.61561901808614
 20
554.50264546869596
 11
340.61561901808614
 21
559.50264546869596
  0
LINE
  8
_0-e_極細4
  6
CONTINUOUS
 62
    6
 10
335.61561901808614
 20
558.74528615581528
 11
340.61561901808614
 21
563.74528615581528
  0
LINE
  8
_0-e_極細4
  6
CONTINUOUS
 62
    6
 10
335.61561901808614
 20
562.9879268429346
 11
340.61561901808614
 21
567.9879268429346
  0
LINE
  8
_0-e_極細4
  6
CONTINUOUS
 62
    6
 10
335.61561901808614
 20
567.23056753005369
 11
340.61561901808614
 21
572.23056753005369
  0
LINE
  8
_0-e_極細4
  6
CONTINUOUS
 62
    6
 10
335.61561901808614
 20
571.47320821717324
 11
340.61561901808614
 21
576.47320821717278
  0
LINE
  8
_0-e_極細4
  6
CONTINUOUS
 62
    6
 10
335.61561901808614
 20
575.71584890429256
 11
340.61561901808614
 21
580.71584890429233
  0
LINE
  8
_0-e_極細4
  6
CONTINUOUS
 62
    6
 10
335.61561901808614
 20
579.95848959141165
 11
340.61561901808614
 21
584.95848959141165
  0
LINE
  8
_0-e_極細4
  6
CONTINUOUS
 62
    6
 10
335.61561901808614
 20
584.20113027853097
 11
340.61561901808614
 21
589.20113027853097
  0
LINE
  8
_0-e_極細4
  6
CONTINUOUS
 62
    6
 10
335.61561901808614
 20
588.44377096565051
 11
340.61561901808614
 21
593.44377096565006
  0
LINE
  8
_0-e_極細4
  6
CONTINUOUS
 62
    6
 10
335.61561901808614
 20
592.68641165276983
 11
340.61561901808614
 21
597.68641165276961
  0
LINE
  8
_0-e_極細4
  6
CONTINUOUS
 62
    6
 10
335.61561901808614
 20
596.92905233988915
 11
340.61561901808614
 21
601.92905233988893
  0
LINE
  8
_0-e_極細4
  6
CONTINUOUS
 62
    6
 10
335.61561901808614
 20
601.17169302700802
 11
340.61561901808614
 21
606.17169302700802
  0
LINE
  8
_0-e_極細4
  6
CONTINUOUS
 62
    6
 10
335.61561901808614
 20
605.41433371412734
 11
340.61561901808614
 21
610.41433371412734
  0
LINE
  8
_0-e_極細4
  6
CONTINUOUS
 62
    6
 10
335.61561901808614
 20
609.65697440124643
 11
340.61561901808614
 21
614.65697440124643
  0
LINE
  8
_0-e_極細4
  6
CONTINUOUS
 62
    6
 10
335.61561901808614
 20
613.8996150883662
 11
340.61561901808614
 21
618.8996150883662
  0
LINE
  8
_0-e_極細4
  6
CONTINUOUS
 62
    6
 10
335.61561901808636
 20
618.1422557754853
 11
340.61561901808614
 21
623.1422557754853
  0
LINE
  8
_0-e_極細4
  6
CONTINUOUS
 62
    6
 10
335.08932695828298
 20
621.85860440280123
 11
340.61561901808614
 21
627.38489646260462
  0
LINE
  8
_0-e_極細4
  6
CONTINUOUS
 62
    6
 10
333.62832446270386
 20
624.6402425943412
 11
340.61561901808614
 21
631.62753714972371
  0
LINE
  8
_0-e_極細4
  6
CONTINUOUS
 62
    6
 10
331.4931009922293
 20
626.74765981098642
 11
339.61561901808614
 21
634.8701778368428
  0
LINE
  8
_0-e_極細4
  6
CONTINUOUS
 62
    6
 10
330.61561901808614
 20
630.11281852396189
 11
339.61561901808614
 21
639.11281852396189
  0
LINE
  8
_0-e_極細4
  6
CONTINUOUS
 62
    6
 10
330.61561901808614
 20
634.35545921108167
 11
337.50369074292189
 21
641.24353093591765
  0
LINE
  8
_0-e_極細4
  6
CONTINUOUS
 62
    6
 10
330.61561901808614
 20
638.59809989820076
 11
336.65761901808582
 21
644.6400998982009
  0
LINE
  8
_0-e_極細4
  6
CONTINUOUS
 62
    6
 10
330.61561901808614
 20
642.84074058532008
 11
336.65761901808582
 21
648.88274058532022
  0
LINE
  8
_0-e_極細4
  6
CONTINUOUS
 62
    6
 10
326.8497124063997
 20
643.31747466075319
 11
336.65761901808582
 21
653.12538127243954
  0
LINE
  8
_0-e_極細4
  6
CONTINUOUS
 62
    6
 10
322.81561901808618
 20
643.52602195955876
 11
336.65761901808582
 21
657.36802195955863
  0
LINE
  8
_0-e_極細4
  6
CONTINUOUS
 62
    6
 10
322.81561901808618
 20
647.76866264667785
 11
336.65761901808582
 21
661.61066264667772
  0
LINE
  8
_0-e_極細4
  6
CONTINUOUS
 62
    6
 10
322.81561901808618
 20
652.01130333379717
 11
336.65761901808582
 21
665.8533033337975
  0
LINE
  8
_0-e_極細4
  6
CONTINUOUS
 62
    6
 10
322.81561901808595
 20
656.25394402091672
 11
336.31836420113359
 21
669.75668920396413
  0
LINE
  8
_0-e_極細4
  6
CONTINUOUS
 62
    6
 10
322.81561901808595
 20
660.49658470803604
 11
332.51531845633963
 21
670.19628414628949
  0
LINE
  8
_0-e_極細4
  6
CONTINUOUS
 62
    6
 10
322.81561901808595
 20
664.7392253951549
 11
328.71227271154635
 21
670.63587908861484
  0
LINE
  8
_0-e_極細4
  6
CONTINUOUS
 62
    6
 10
322.81561901808618
 20
668.98186608227422
 11
324.90922696675239
 21
671.07547403094088
  0
LINE
  8
_0-e_極細4
  6
CONTINUOUS
 62
    6
 10
385.08019813219175
 20
459.71744122074631
 11
386.61561901808614
 21
461.25286210664069
  0
LINE
  8
_0-e_極細4
  6
CONTINUOUS
 62
    6
 10
380.83755744507198
 20
459.71744122074631
 11
386.61561901808614
 21
465.49550279375978
  0
LINE
  8
_0-e_極細4
  6
CONTINUOUS
 62
    6
 10
376.59491675795289
 20
459.71744122074631
 11
386.61561901808614
 21
469.7381434808791
  0
LINE
  8
_0-e_極細4
  6
CONTINUOUS
 62
    6
 10
372.3522760708338
 20
459.71744122074563
 11
386.61561901808614
 21
473.98078416799797
  0
LINE
  8
_0-e_極細4
  6
CONTINUOUS
 62
    6
 10
368.10963538371448
 20
459.71744122074563
 11
386.61561901808614
 21
478.22342485511729
  0
LINE
  8
_0-e_極細4
  6
CONTINUOUS
 62
    6
 10
363.86699469659538
 20
459.71744122074563
 11
383.86699469659516
 21
479.71744122074563
  0
LINE
  8
_0-e_極細4
  6
CONTINUOUS
 62
    6
 10
359.62435400947561
 20
459.71744122074631
 11
379.74201714424271
 21
479.8351043555125
  0
LINE
  8
_0-e_極細4
  6
CONTINUOUS
 62
    6
 10
355.42599944688823
 20
459.76172734527734
 11
376.13803658525808
 21
480.47376448364741
  0
LINE
  8
_0-e_極細4
  6
CONTINUOUS
 62
    6
 10
351.86164660035115
 20
460.44001518585958
 11
372.95579791426735
 21
481.53416649977555
  0
LINE
  8
_0-e_極細4
  6
CONTINUOUS
 62
    6
 10
348.88690191059231
 20
461.70791118322029
 11
370.11321208600839
 21
482.93422135863568
  0
LINE
  8
_0-e_極細4
  6
CONTINUOUS
 62
    6
 10
346.36698738140421
 20
463.43063734115151
 11
367.56652306853903
 21
484.63017302828632
  0
LINE
  8
_0-e_極細4
  6
CONTINUOUS
 62
    6
 10
344.25349670952164
 20
465.55978735638803
 11
365.29346537145739
 21
486.59975601832377
  0
LINE
  8
_0-e_極細4
  6
CONTINUOUS
 62
    6
 10
342.54731014620666
 20
468.09624148019282
 11
363.28664744849357
 21
488.8355787824795
  0
LINE
  8
_0-e_極細4
  6
CONTINUOUS
 62
    6
 10
341.29916889705419
 20
471.09074091815967
 11
361.55162150084902
 21
491.34319352195359
  0
LINE
  8
_0-e_極細4
  6
CONTINUOUS
 62
    6
 10
340.64907504026155
 20
474.68328774848544
 11
360.10832131552888
 21
494.14253402375323
  0
LINE
  8
_0-e_極細4
  6
CONTINUOUS
 62
    6
 10
340.61561901808614
 20
478.8924724134298
 11
358.9968371133134
 21
497.27369050865639
  0
LINE
  8
_0-e_極細4
  6
CONTINUOUS
 62
    6
 10
340.61561901808614
 20
483.13511310054889
 11
358.29217493644637
 21
500.81166901890867
  0
LINE
  8
_0-e_極細4
  6
CONTINUOUS
 62
    6
 10
340.61561901808614
 20
487.37775378766821
 11
358.11561901808614
 21
504.87775378766821
  0
LINE
  8
_0-e_極細4
  6
CONTINUOUS
 62
    6
 10
340.61561901808614
 20
491.6203944747873
 11
358.11561901808614
 21
509.1203944747873
  0
LINE
  8
_0-e_極細4
  6
CONTINUOUS
 62
    6
 10
340.61561901808614
 20
495.8630351619064
 11
358.11561901808614
 21
513.36303516190685
  0
LINE
  8
_0-e_極細4
  6
CONTINUOUS
 62
    6
 10
340.61561901808614
 20
500.10567584902617
 11
358.11561901808614
 21
517.60567584902617
  0
LINE
  8
_0-e_極細4
  6
CONTINUOUS
 62
    6
 10
340.61561901808614
 20
504.34831653614526
 11
358.11561901808614
 21
521.84831653614549
  0
LINE
  8
_0-e_極細4
  6
CONTINUOUS
 62
    6
 10
340.61561901808614
 20
508.59095722326458
 11
358.11561901808614
 21
526.09095722326435
  0
LINE
  8
_0-e_極細4
  6
CONTINUOUS
 62
    6
 10
340.61561901808614
 20
512.83359791038367
 11
358.11561901808614
 21
530.33359791038367
  0
LINE
  8
_0-e_極細4
  6
CONTINUOUS
 62
    6
 10
340.61561901808614
 20
517.07623859750277
 11
358.11561901808614
 21
534.57623859750322
  0
LINE
  8
_0-e_極細4
  6
CONTINUOUS
 62
    6
 10
340.61561901808614
 20
521.31887928462231
 11
358.11561901808614
 21
538.81887928462254
  0
LINE
  8
_0-e_極細4
  6
CONTINUOUS
 62
    6
 10
340.61561901808614
 20
525.56151997174163
 11
358.11561901808614
 21
543.0615199717414
  0
LINE
  8
_0-e_極細4
  6
CONTINUOUS
 62
    6
 10
340.61561901808614
 20
529.80416065886072
 11
358.11561901808614
 21
547.30416065886072
  0
LINE
  8
_0-e_極細4
  6
CONTINUOUS
 62
    6
 10
340.61561901808614
 20
534.04680134598004
 11
358.11561901808614
 21
551.54680134598004
  0
LINE
  8
_0-e_極細4
  6
CONTINUOUS
 62
    6
 10
340.61561901808614
 20
538.28944203309959
 11
358.11561901808614
 21
555.78944203309914
  0
LINE
  8
_0-e_極細4
  6
CONTINUOUS
 62
    6
 10
340.61561901808614
 20
542.53208272021891
 11
358.11561901808614
 21
560.03208272021868
  0
LINE
  8
_0-e_極細4
  6
CONTINUOUS
 62
    6
 10
340.61561901808614
 20
546.77472340733823
 11
358.11561901808614
 21
564.274723407338
  0
LINE
  8
_0-e_極細4
  6
CONTINUOUS
 62
    6
 10
340.61561901808614
 20
551.01736409445732
 11
358.11561901808614
 21
568.51736409445709
  0
LINE
  8
_0-e_極細4
  6
CONTINUOUS
 62
    6
 10
340.61561901808614
 20
555.26000478157641
 11
358.11561901808614
 21
572.76000478157641
  0
LINE
  8
_0-e_極細4
  6
CONTINUOUS
 62
    6
 10
340.61561901808614
 20
559.50264546869596
 11
356.68923528779101
 21
575.57626173840106
  0
LINE
  8
_0-e_極細4
  6
CONTINUOUS
 62
    6
 10
340.61561901808614
 20
563.74528615581528
 11
352.44659460067192
 21
575.57626173840106
  0
LINE
  8
_0-e_極細4
  6
CONTINUOUS
 62
    6
 10
340.61561901808614
 20
567.9879268429346
 11
348.20395391355214
 21
575.57626173840106
  0
LINE
  8
_0-e_極細4
  6
CONTINUOUS
 62
    6
 10
340.61561901808614
 20
572.23056753005369
 11
343.96131322643305
 21
575.57626173840106
  0
LINE
  8
_0-e_極細4
  6
CONTINUOUS
 62
    6
 10
340.61561901808614
 20
576.47320821717278
 11
340.82073042489264
 21
576.67831962397975
  0
LINE
  8
_0-e_極細4
  6
CONTINUOUS
 62
    6
 10
521.66103050746779
 20
460.53377160820435
 11
531.79928863062696
 21
470.67202973136375
  0
LINE
  8
_0-e_極細4
  6
CONTINUOUS
 62
    6
 10
516.60205943288975
 20
459.71744122074631
 11
532.61561901808591
 21
475.73100080594179
  0
LINE
  8
_0-e_極細4
  6
CONTINUOUS
 62
    6
 10
512.35941874576974
 20
459.71744122074631
 11
532.61561901808591
 21
479.97364149306088
  0
LINE
  8
_0-e_極細4
  6
CONTINUOUS
 62
    6
 10
508.11677805865065
 20
459.71744122074631
 11
532.61561901808591
 21
484.21628218018066
  0
LINE
  8
_0-e_極細4
  6
CONTINUOUS
 62
    6
 10
503.87413737153156
 20
459.71744122074631
 11
532.61561901808591
 21
488.45892286729975
  0
LINE
  8
_0-e_極細4
  6
CONTINUOUS
 62
    6
 10
499.63149668441247
 20
459.71744122074631
 11
532.61561901808591
 21
492.70156355441907
  0
LINE
  8
_0-e_極細4
  6
CONTINUOUS
 62
    6
 10
495.38885599729338
 20
459.71744122074631
 11
532.61561901808591
 21
496.94420424153816
  0
LINE
  8
_0-e_極細4
  6
CONTINUOUS
 62
    6
 10
491.14621531017383
 20
459.71744122074631
 11
532.61561901808591
 21
501.18684492865793
  0
LINE
  8
_0-e_極細4
  6
CONTINUOUS
 62
    6
 10
486.90357462305428
 20
459.71744122074631
 11
532.61561901808591
 21
505.42948561577703
  0
LINE
  8
_0-e_極細4
  6
CONTINUOUS
 62
    6
 10
486.615619018085
 20
463.67212630289612
 11
532.61561901808591
 21
509.67212630289634
  0
LINE
  8
_0-e_極細4
  6
CONTINUOUS
 62
    6
 10
486.615619018085
 20
467.91476699001521
 11
500.20680015198241
 21
481.50594812391284
  0
LINE
  8
_0-e_極細4
  6
CONTINUOUS
 62
    6
 10
513.32711211491869
 20
494.6262600868489
 11
532.61561901808591
 21
513.91476699001544
  0
LINE
  8
_0-e_極細4
  6
CONTINUOUS
 62
    6
 10
486.615619018085
 20
472.15740767713453
 11
494.40167922249702
 21
479.9434678815461
  0
LINE
  8
_0-e_極細4
  6
CONTINUOUS
 62
    6
 10
514.88959235728589
 20
500.43138101633451
 11
532.61561901808591
 21
518.15740767713498
  0
LINE
  8
_0-e_極細4
  6
CONTINUOUS
 62
    6
 10
486.615619018085
 20
476.4000483642543
 11
489.93301187457746
 21
479.71744122074563
  0
LINE
  8
_0-e_極細4
  6
CONTINUOUS
 62
    6
 10
515.115619018085
 20
504.9000483642543
 11
532.61561901808591
 21
522.40004836425408
  0
LINE
  8
_0-e_極細4
  6
CONTINUOUS
 62
    6
 10
515.115619018085
 20
509.1426890513734
 11
532.61561901808591
 21
526.6426890513734
  0
LINE
  8
_0-e_極細4
  6
CONTINUOUS
 62
    6
 10
515.115619018085
 20
513.38532973849249
 11
532.61561901808591
 21
530.88532973849226
  0
LINE
  8
_0-e_極細4
  6
CONTINUOUS
 62
    6
 10
515.115619018085
 20
517.62797042561158
 11
532.61561901808591
 21
535.12797042561158
  0
LINE
  8
_0-e_極細4
  6
CONTINUOUS
 62
    6
 10
515.115619018085
 20
521.8706111127309
 11
532.61561901808591
 21
539.3706111127309
  0
LINE
  8
_0-e_極細4
  6
CONTINUOUS
 62
    6
 10
515.115619018085
 20
526.11325179985045
 11
532.61561901808591
 21
543.61325179984999
  0
LINE
  8
_0-e_極細4
  6
CONTINUOUS
 62
    6
 10
515.115619018085
 20
530.35589248696976
 11
532.61561901808591
 21
547.85589248696954
  0
LINE
  8
_0-e_極細4
  6
CONTINUOUS
 62
    6
 10
515.115619018085
 20
534.59853317408908
 11
532.61561901808591
 21
552.09853317408886
  0
LINE
  8
_0-e_極細4
  6
CONTINUOUS
 62
    6
 10
515.115619018085
 20
538.84117386120818
 11
532.61561901808591
 21
556.34117386120795
  0
LINE
  8
_0-e_極細4
  6
CONTINUOUS
 62
    6
 10
515.115619018085
 20
543.08381454832772
 11
532.61561901808591
 21
560.58381454832727
  0
LINE
  8
_0-e_極細4
  6
CONTINUOUS
 62
    6
 10
515.115619018085
 20
547.32645523544704
 11
532.61561901808591
 21
564.82645523544682
  0
LINE
  8
_0-e_極細4
  6
CONTINUOUS
 62
    6
 10
515.115619018085
 20
551.56909592256613
 11
532.61561901808591
 21
569.06909592256613
  0
LINE
  8
_0-e_極細4
  6
CONTINUOUS
 62
    6
 10
515.115619018085
 20
555.81173660968545
 11
532.61561901808591
 21
573.31173660968545
  0
LINE
  8
_0-e_極細4
  6
CONTINUOUS
 62
    6
 10
515.115619018085
 20
560.054377296805
 11
530.63750345968265
 21
575.57626173840083
  0
LINE
  8
_0-e_極細4
  6
CONTINUOUS
 62
    6
 10
532.61560938462071
 20
577.55436766333935
 11
532.61561901808591
 21
577.55437729680455
  0
LINE
  8
_0-e_極細4
  6
CONTINUOUS
 62
    6
 10
515.115619018085
 20
564.29701798392409
 11
526.39486277256265
 21
575.57626173840106
  0
LINE
  8
_0-e_極細4
  6
CONTINUOUS
 62
    6
 10
515.115619018085
 20
568.53965867104341
 11
522.15222208544355
 21
575.57626173840083
  0
LINE
  8
_0-e_極細4
  6
CONTINUOUS
 62
    6
 10
515.115619018085
 20
572.7822993581625
 11
517.90958139832446
 21
575.57626173840083
  0
LINE
  8
_0-e_極細4
  6
CONTINUOUS
 62
    6
 10
516.75638836544067
 20
404.71744122074563
 11
518.84910244333196
 21
406.81015529863691
  0
LINE
  8
_0-e_極細4
  6
CONTINUOUS
 62
    6
 10
513.10965989590886
 20
405.3133534383345
 11
518.91808847076436
 21
411.12178201318932
  0
LINE
  8
_0-e_極細4
  6
CONTINUOUS
 62
    6
 10
513.06765355247217
 20
409.5139877820169
 11
518.98707449819767
 21
415.43340872774172
  0
LINE
  8
_0-e_極細4
  6
CONTINUOUS
 62
    6
 10
513.02564720903547
 20
413.71462212569929
 11
519.05606052563007
 21
419.7450354422939
  0
LINE
  8
_0-e_極細4
  6
CONTINUOUS
 62
    6
 10
489.78582561696248
 20
394.71744122074563
 11
491.64663246556165
 21
396.57824806934457
  0
LINE
  8
_0-e_極細4
  6
CONTINUOUS
 62
    6
 10
512.98364086559877
 20
417.91525646938169
 11
519.12504655306338
 21
424.05666215684562
  0
LINE
  8
_0-e_極細4
  6
CONTINUOUS
 62
    6
 10
487.58421850159675
 20
396.75847479249899
 11
491.71854162975023
 21
400.89279792065247
  0
LINE
  8
_0-e_極細4
  6
CONTINUOUS
 62
    6
 10
512.94163452216208
 20
422.11589081306408
 11
519.19403258049579
 21
428.36828887139779
  0
LINE
  8
_0-e_極細4
  6
CONTINUOUS
 62
    6
 10
487.5199360669435
 20
400.93683304496551
 11
491.79045079393882
 21
405.20734777196083
  0
LINE
  8
_0-e_極細4
  6
CONTINUOUS
 62
    6
 10
512.89962817872538
 20
426.31652515674671
 11
519.2630186079291
 21
432.6799155859502
  0
LINE
  8
_0-e_極細4
  6
CONTINUOUS
 62
    6
 10
487.45565363229025
 20
405.11519129743067
 11
491.8623599581274
 21
409.52189762326782
  0
LINE
  8
_0-e_極細4
  6
CONTINUOUS
 62
    6
 10
512.85762183528868
 20
430.5171595004291
 11
519.3320046353615
 21
436.99154230050192
  0
LINE
  8
_0-e_極細4
  6
CONTINUOUS
 62
    6
 10
487.391371197637
 20
409.29354954989719
 11
491.93426912231598
 21
413.83644747457618
  0
LINE
  8
_0-e_極細4
  6
CONTINUOUS
 62
    6
 10
512.81561549185153
 20
434.7177938441115
 11
519.40099066279481
 21
441.30316901505432
  0
LINE
  8
_0-e_極細4
  6
CONTINUOUS
 62
    6
 10
487.32708876298375
 20
413.47190780236303
 11
492.00617828650456
 21
418.15099732588385
  0
LINE
  8
_0-e_極細4
  6
CONTINUOUS
 62
    6
 10
512.77360914841438
 20
438.91842818779389
 11
519.46997669022721
 21
445.61479572960673
  0
LINE
  8
_0-e_極細4
  6
CONTINUOUS
 62
    6
 10
487.2628063283305
 20
417.6502660548291
 11
492.07808745069224
 21
422.46554717719152
  0
LINE
  8
_0-e_極細4
  6
CONTINUOUS
 62
    6
 10
512.73160280497814
 20
443.11906253147629
 11
519.53896271765962
 21
449.9264224441589
  0
LINE
  8
_0-e_極細4
  6
CONTINUOUS
 62
    6
 10
524.61330662241699
 20
455.00076634891468
 11
537.33229388991685
 21
467.71975361641455
  0
LINE
  8
_0-e_極細4
  6
CONTINUOUS
 62
    6
 10
487.19852389367634
 20
421.82862430729494
 11
492.14999661488082
 21
426.7800970284992
  0
LINE
  8
_0-e_極細4
  6
CONTINUOUS
 62
    6
 10
512.68959646154099
 20
447.31969687515937
 11
519.60794874509293
 21
454.23804915871062
  0
LINE
  8
_0-e_極細4
  6
CONTINUOUS
 62
    6
 10
520.08734080712884
 20
454.71744122074563
 11
537.615619018085
 21
472.24571943170338
  0
LINE
  8
_0-e_極細4
  6
CONTINUOUS
 62
    6
 10
487.134241459024
 20
426.00698255976079
 11
492.22190577907031
 21
431.09464687980687
  0
LINE
  8
_0-e_極細4
  6
CONTINUOUS
 62
    6
 10
512.64759011810474
 20
451.52033121884176
 11
521.66103050746779
 21
460.53377160820435
  0
LINE
  8
_0-e_極細4
  6
CONTINUOUS
 62
    6
 10
531.79928863062696
 20
470.67202973136375
 11
537.615619018085
 21
476.48836011882247
  0
LINE
  8
_0-e_極細4
  6
CONTINUOUS
 62
    6
 10
487.06995902437029
 20
430.18534081222663
 11
492.29381494325844
 21
435.40919673111478
  0
LINE
  8
_0-e_極細4
  6
CONTINUOUS
 62
    6
 10
511.60205943288975
 20
454.71744122074563
 11
516.60205943288975
 21
459.71744122074563
  0
LINE
  8
_0-e_極細4
  6
CONTINUOUS
 62
    6
 10
532.61561901808591
 20
475.73100080594179
 11
537.615619018085
 21
480.73100080594156
  0
LINE
  8
_0-e_極細4
  6
CONTINUOUS
 62
    6
 10
487.0056765897175
 20
434.36369906469315
 11
492.36572410744657
 21
439.72374658242245
  0
LINE
  8
_0-e_極細4
  6
CONTINUOUS
 62
    6
 10
507.3594187457702
 20
454.71744122074563
 11
512.35941874576974
 21
459.71744122074563
  0
LINE
  8
_0-e_極細4
  6
CONTINUOUS
 62
    6
 10
532.61561901808591
 20
479.97364149306088
 11
537.615619018085
 21
484.97364149306088
  0
LINE
  8
_0-e_極細4
  6
CONTINUOUS
 62
    6
 10
486.94139415506334
 20
438.54205731715899
 11
492.43763327163515
 21
444.03829643373012
  0
LINE
  8
_0-e_極細4
  6
CONTINUOUS
 62
    6
 10
503.11677805865065
 20
454.71744122074563
 11
508.11677805865065
 21
459.71744122074563
  0
LINE
  8
_0-e_極細4
  6
CONTINUOUS
 62
    6
 10
532.61561901808591
 20
484.21628218018066
 11
537.615619018085
 21
489.21628218017997
  0
LINE
  8
_0-e_極細4
  6
CONTINUOUS
 62
    6
 10
486.87711172041008
 20
442.72041556962483
 11
492.50954243582373
 21
448.3528462850378
  0
LINE
  8
_0-e_極細4
  6
CONTINUOUS
 62
    6
 10
498.87413737153156
 20
454.71744122074563
 11
503.87413737153156
 21
459.71744122074631
  0
LINE
  8
_0-e_極細4
  6
CONTINUOUS
 62
    6
 10
532.61561901808591
 20
488.45892286729975
 11
537.615619018085
 21
493.45892286729975
  0
LINE
  8
_0-e_極細4
  6
CONTINUOUS
 62
    6
 10
486.81282928575683
 20
446.89877382209067
 11
492.58145160001231
 21
452.66739613634616
  0
LINE
  8
_0-e_極細4
  6
CONTINUOUS
 62
    6
 10
494.63149668441247
 20
454.71744122074563
 11
499.63149668441156
 21
459.71744122074631
  0
LINE
  8
_0-e_極細4
  6
CONTINUOUS
 62
    6
 10
532.61561901808591
 20
492.70156355441907
 11
537.615619018085
 21
497.70156355441884
  0
LINE
  8
_0-e_極細4
  6
CONTINUOUS
 62
    6
 10
486.74854685110358
 20
451.07713207455674
 11
495.38885599729338
 21
459.71744122074563
  0
LINE
  8
_0-e_極細4
  6
CONTINUOUS
 62
    6
 10
532.61561901808591
 20
496.94420424153816
 11
537.615619018085
 21
501.94420424153816
  0
LINE
  8
_0-e_極細4
  6
CONTINUOUS
 62
    6
 10
486.68426441645079
 20
455.25549032702259
 11
491.14621531017383
 21
459.71744122074631
  0
LINE
  8
_0-e_極細4
  6
CONTINUOUS
 62
    6
 10
532.61561901808591
 20
501.18684492865793
 11
537.615619018085
 21
506.18684492865725
  0
LINE
  8
_0-e_極細4
  6
CONTINUOUS
 62
    6
 10
486.61998198179708
 20
459.43384857948843
 11
486.90357462305428
 21
459.71744122074631
  0
LINE
  8
_0-e_極細4
  6
CONTINUOUS
 62
    6
 10
532.61561901808591
 20
505.42948561577703
 11
537.615619018085
 21
510.42948561577703
  0
LINE
  8
_0-e_極細4
  6
CONTINUOUS
 62
    6
 10
532.61561901808591
 20
509.67212630289634
 11
537.615619018085
 21
514.67212630289589
  0
LINE
  8
_0-e_極細4
  6
CONTINUOUS
 62
    6
 10
532.61561901808591
 20
513.91476699001544
 11
537.615619018085
 21
518.91476699001521
  0
LINE
  8
_0-e_極細4
  6
CONTINUOUS
 62
    6
 10
532.61561901808591
 20
518.15740767713498
 11
537.615619018085
 21
523.15740767713453
  0
LINE
  8
_0-e_極細4
  6
CONTINUOUS
 62
    6
 10
532.61561901808591
 20
522.40004836425408
 11
537.615619018085
 21
527.40004836425362
  0
LINE
  8
_0-e_極細4
  6
CONTINUOUS
 62
    6
 10
532.61561901808591
 20
526.6426890513734
 11
537.615619018085
 21
531.64268905137317
  0
LINE
  8
_0-e_極細4
  6
CONTINUOUS
 62
    6
 10
532.61561901808591
 20
530.88532973849226
 11
537.615619018085
 21
535.88532973849249
  0
LINE
  8
_0-e_極細4
  6
CONTINUOUS
 62
    6
 10
532.61561901808591
 20
535.12797042561181
 11
537.615619018085
 21
540.12797042561158
  0
LINE
  8
_0-e_極細4
  6
CONTINUOUS
 62
    6
 10
532.61561901808591
 20
539.3706111127309
 11
537.615619018085
 21
544.3706111127309
  0
LINE
  8
_0-e_極細4
  6
CONTINUOUS
 62
    6
 10
532.61561901808591
 20
543.61325179984999
 11
537.615619018085
 21
548.61325179985045
  0
LINE
  8
_0-e_極細4
  6
CONTINUOUS
 62
    6
 10
532.61561901808591
 20
547.85589248696954
 11
537.615619018085
 21
552.85589248696976
  0
LINE
  8
_0-e_極細4
  6
CONTINUOUS
 62
    6
 10
532.61561901808591
 20
552.09853317408886
 11
537.615619018085
 21
557.09853317408908
  0
LINE
  8
_0-e_極細4
  6
CONTINUOUS
 62
    6
 10
532.61561901808591
 20
556.34117386120795
 11
537.615619018085
 21
561.34117386120818
  0
LINE
  8
_0-e_極細4
  6
CONTINUOUS
 62
    6
 10
532.61561901808591
 20
560.58381454832727
 11
537.615619018085
 21
565.58381454832727
  0
LINE
  8
_0-e_極細4
  6
CONTINUOUS
 62
    6
 10
532.61561901808591
 20
564.82645523544682
 11
537.615619018085
 21
569.82645523544704
  0
LINE
  8
_0-e_極細4
  6
CONTINUOUS
 62
    6
 10
532.61561901808591
 20
569.06909592256613
 11
537.615619018085
 21
574.06909592256613
  0
LINE
  8
_0-e_極細4
  6
CONTINUOUS
 62
    6
 10
532.61561901808591
 20
573.31173660968545
 11
537.615619018085
 21
578.31173660968523
  0
LINE
  8
_0-e_極細4
  6
CONTINUOUS
 62
    6
 10
532.61561901808591
 20
577.55437729680455
 11
537.615619018085
 21
582.55437729680432
  0
LINE
  8
_0-e_極細4
  6
CONTINUOUS
 62
    6
 10
532.61561901808591
 20
581.79701798392409
 11
537.615619018085
 21
586.79701798392364
  0
LINE
  8
_0-e_極細4
  6
CONTINUOUS
 62
    6
 10
532.61561901808591
 20
586.03965867104341
 11
537.615619018085
 21
591.03965867104318
  0
LINE
  8
_0-e_極細4
  6
CONTINUOUS
 62
    6
 10
532.61561901808591
 20
590.2822993581625
 11
537.615619018085
 21
595.2822993581625
  0
LINE
  8
_0-e_極細4
  6
CONTINUOUS
 62
    6
 10
532.61561901808591
 20
594.52494004528182
 11
537.615619018085
 21
599.52494004528182
  0
LINE
  8
_0-e_極細4
  6
CONTINUOUS
 62
    6
 10
532.61561901808591
 20
598.76758073240092
 11
537.615619018085
 21
603.76758073240092
  0
LINE
  8
_0-e_極細4
  6
CONTINUOUS
 62
    6
 10
532.61561901808591
 20
603.01022141952069
 11
537.615619018085
 21
608.01022141952001
  0
LINE
  8
_0-e_極細4
  6
CONTINUOUS
 62
    6
 10
532.61561901808591
 20
607.25286210663955
 11
537.615619018085
 21
612.25286210663978
  0
LINE
  8
_0-e_極細4
  6
CONTINUOUS
 62
    6
 10
532.61561901808591
 20
611.49550279375887
 11
537.615619018085
 21
616.49550279375887
  0
LINE
  8
_0-e_極細4
  6
CONTINUOUS
 62
    6
 10
532.61561901808591
 20
615.73814348087819
 11
537.8991780170104
 21
621.02170247980246
  0
LINE
  8
_0-e_極細4
  6
CONTINUOUS
 62
    6
 10
532.61561901808591
 20
619.98078416799729
 11
542.61561901808591
 21
629.98078416799729
  0
LINE
  8
_0-e_極細4
  6
CONTINUOUS
 62
    6
 10
532.61561901808591
 20
624.22342485511638
 11
542.61561901808591
 21
634.22342485511706
  0
LINE
  8
_0-e_極細4
  6
CONTINUOUS
 62
    6
 10
532.61561901808591
 20
628.46606554223615
 11
535.86702813660258
 21
631.71747466075306
  0
LINE
  8
_0-e_極細4
  6
CONTINUOUS
 62
    6
 10
536.11506354914627
 20
631.96551007329651
 11
542.61561901808591
 21
638.46606554223615
  0
LINE
  8
_0-e_極細4
  6
CONTINUOUS
 62
    6
 10
547.46702813660295
 20
643.31747466075319
 11
550.41561901808609
 21
646.26606554223611
  0
LINE
  8
_0-e_極細4
  6
CONTINUOUS
 62
    6
 10
533.61561901808591
 20
633.70870622935524
 11
542.61561901808591
 21
642.70870622935524
  0
LINE
  8
_0-e_極細4
  6
CONTINUOUS
 62
    6
 10
543.22438744948386
 20
643.31747466075319
 11
550.41561901808609
 21
650.50870622935543
  0
LINE
  8
_0-e_極細4
  6
CONTINUOUS
 62
    6
 10
533.61561901808591
 20
637.95134691647456
 11
550.41561901808609
 21
654.75134691647452
  0
LINE
  8
_0-e_極細4
  6
CONTINUOUS
 62
    6
 10
536.57361901808554
 20
645.15198760359397
 11
550.41561901808609
 21
658.99398760359384
  0
LINE
  8
_0-e_極細4
  6
CONTINUOUS
 62
    6
 10
536.57361901808554
 20
649.39462829071329
 11
550.41561901808609
 21
663.23662829071338
  0
LINE
  8
_0-e_極細4
  6
CONTINUOUS
 62
    6
 10
536.57361901808554
 20
653.63726897783238
 11
550.41561901808609
 21
667.4792689778327
  0
LINE
  8
_0-e_極細4
  6
CONTINUOUS
 62
    6
 10
536.57361901808554
 20
657.87990966495192
 11
549.95832533011753
 21
671.26461597698301
  0
LINE
  8
_0-e_極細4
  6
CONTINUOUS
 62
    6
 10
536.57361901808554
 20
662.12255035207124
 11
545.1611816941836
 21
670.71011302816817
  0
LINE
  8
_0-e_極細4
  6
CONTINUOUS
 62
    6
 10
536.57361901808554
 20
666.36519103919034
 11
540.36403805824875
 21
670.15561007935332
  0
LINE
  8
_0-e_極細4
  6
CENTER2
 62
    6
 10
436.61561901808545
 20
698.22990263198733
 11
436.61561901808545
 21
372.5743839520859
  0
LINE
  8
_0-e_極細4
  6
CONTINUOUS
 62
    6
 10
322.81561901808595
 20
676.10311669009354
 11
550.41561901808609
 21
676.10311669009354
  0
LINE
  8
_0-e_極細4
  6
CONTINUOUS
 62
    6
 10
550.41561901808609
 20
674.71747466075306
 11
550.41561901808609
 21
676.10311669009354
  0
LINE
  8
_0-e_極細4
  6
CONTINUOUS
 62
    6
 10
490.61561901808545
 20
631.71747466075306
 11
536.57361901808554
 21
631.71747466075306
  0
LINE
  8
_0-e_極細4
  6
CONTINUOUS
 62
    6
 10
513.11561901808545
 20
621.31747466075319
 11
490.61561901808545
 21
621.31747466075319
  0
LINE
  8
_0-e_極細4
  6
CONTINUOUS
 62
    6
 10
536.57361901808554
 20
674.13160266075317
 11
550.41561901808609
 21
676.10311669009354
  0
LINE
  8
_0-e_極細4
  6
CONTINUOUS
 62
    6
 10
490.61561901808545
 20
631.12614666075331
 11
490.61561901808545
 21
634.08165266075355
  0
LINE
  8
_0-e_極細4
  6
CONTINUOUS
 62
    6
 10
490.61561901808545
 20
633.31747466075319
 11
533.61561901808591
 21
633.31747466075319
  0
LINE
  8
_0-e_極細4
  6
CONTINUOUS
 62
    6
 10
523.61561901808591
 20
660.33316066075315
 11
523.61561901808591
 21
662.13160266075317
  0
LINE
  8
_0-e_極細4
  6
CONTINUOUS
 62
    6
 10
523.61561901808591
 20
660.33316066075315
 11
436.61561901808545
 21
660.33316066075315
  0
LINE
  8
_0-e_極細4
  6
CONTINUOUS
 62
    6
 10
523.61561901808591
 20
651.13316066075311
 11
436.61561901808545
 21
651.13316066075333
  0
LINE
  8
_0-e_極細4
  6
CONTINUOUS
 62
    6
 10
523.61561901808591
 20
648.13316066075311
 11
523.61561901808591
 21
651.13316066075311
  0
LINE
  8
_0-e_極細4
  6
CONTINUOUS
 62
    6
 10
516.11561901808591
 20
656.9438226607532
 11
516.11561901808591
 21
654.34382266075329
  0
LINE
  8
_0-e_極細4
  6
CONTINUOUS
 62
    6
 10
516.11561901808591
 20
652.34382266075283
 11
516.11561901808591
 21
651.34382266075329
  0
LINE
  8
_0-e_極細4
  6
CONTINUOUS
 62
    6
 10
523.31561901808573
 20
656.9438226607532
 11
523.31561901808573
 21
651.34382266075329
  0
LINE
  8
_0-e_極細4
  6
CONTINUOUS
 62
    6
 10
436.61561901808545
 20
651.34382266075329
 11
523.31561901808573
 21
651.34382266075329
  0
LINE
  8
_0-e_極細4
  6
CONTINUOUS
 62
    6
 10
436.61561901808545
 20
653.34382266075329
 11
515.115619018085
 21
653.34382266075329
  0
LINE
  8
_0-e_極細4
  6
CONTINUOUS
 62
    6
 10
436.61561901808545
 20
657.9438226607532
 11
515.115619018085
 21
657.9438226607532
  0
LINE
  8
_0-e_極細4
  6
CONTINUOUS
 62
    6
 10
515.115619018085
 20
657.9438226607532
 11
516.11561901808591
 21
658.9438226607532
  0
LINE
  8
_0-e_極細4
  6
CONTINUOUS
 62
    6
 10
516.11561901808591
 20
656.9438226607532
 11
515.115619018085
 21
657.9438226607532
  0
LINE
  8
_0-e_極細4
  6
CONTINUOUS
 62
    6
 10
516.11561901808591
 20
652.34382266075283
 11
515.115619018085
 21
653.34382266075329
  0
LINE
  8
_0-e_極細4
  6
CONTINUOUS
 62
    6
 10
515.115619018085
 20
653.34382266075329
 11
516.11561901808591
 21
654.34382266075329
  0
LINE
  8
_0-e_極細4
  6
CONTINUOUS
 62
    6
 10
523.31561901808573
 20
656.9438226607532
 11
524.91561901808609
 21
659.94382266075297
  0
LINE
  8
_0-e_極細4
  6
CONTINUOUS
 62
    6
 10
516.11561901808591
 20
659.94382266075297
 11
516.11561901808591
 21
658.9438226607532
  0
LINE
  8
_0-e_極細4
  6
CONTINUOUS
 62
    6
 10
436.61561901808545
 20
659.9438226607532
 11
524.91561901808609
 21
659.94382266075297
  0
LINE
  8
_0-e_極細4
  6
CONTINUOUS
 62
    6
 10
437.01561901808577
 20
662.1316026607534
 11
524.21561901808536
 21
662.13160266075317
  0
LINE
  8
_0-e_極細4
  6
CONTINUOUS
 62
    6
 10
437.01561901808577
 20
664.1316026607534
 11
523.01561901808554
 21
664.13160266075317
  0
ARC
  8
_0-e_極細4
  6
CONTINUOUS
 62
    6
 10
528.51561901808554
 20
672.1316026607534
 40
1
 50
24.05454900000543
 51
89.999999999999901
  0
ARC
  8
_0-e_極細4
  6
CONTINUOUS
 62
    6
 10
529.11561901808591
 20
669.53160266075304
 40
0.3999999999999772
 50
269.99999999999977
 51
359.99999999999966
  0
ARC
  8
_0-e_極細4
  6
CONTINUOUS
 62
    6
 10
528.51561901808554
 20
672.1316026607534
 40
1
 50
0
 51
24.05454900000543
  0
LINE
  8
_0-e_極細4
  6
CONTINUOUS
 62
    6
 10
525.21561901808536
 20
663.1316026607534
 11
525.21561901808536
 21
669.1316026607534
  0
LINE
  8
_0-e_極細4
  6
CONTINUOUS
 62
    6
 10
525.21561901808536
 20
669.1316026607534
 11
529.11561901808591
 21
669.1316026607534
  0
LINE
  8
_0-e_極細4
  6
CONTINUOUS
 62
    6
 10
436.61561901808545
 20
673.1316026607534
 11
528.51561901808554
 21
673.13160266075317
  0
LINE
  8
_0-e_極細4
  6
CONTINUOUS
 62
    6
 10
529.51561901808554
 20
669.53160266075304
 11
529.51561901808554
 21
672.1316026607534
  0
LINE
  8
_0-e_極細4
  6
CONTINUOUS
 62
    6
 10
506.18824501808604
 20
635.73160266075354
 11
506.18824501808604
 21
639.13160266075317
  0
LINE
  8
_0-e_極細4
  6
CONTINUOUS
 62
    6
 10
496.18824501808604
 20
635.73160266075354
 11
496.18824501808604
 21
639.13160266075317
  0
LINE
  8
_0-e_極細4
  6
CONTINUOUS
 62
    6
 10
496.18824501808604
 20
635.73160266075354
 11
506.18824501808604
 21
635.73160266075354
  0
LINE
  8
_0-e_極細4
  6
CONTINUOUS
 62
    6
 10
522.615619018085
 20
639.13160266075317
 11
533.61561901808591
 21
639.13160266075317
  0
LINE
  8
_0-e_極細4
  6
CONTINUOUS
 62
    6
 10
520.95525101808607
 20
635.13160266075317
 11
522.615619018085
 21
635.13160266075317
  0
LINE
  8
_0-e_極細4
  6
CONTINUOUS
 62
    6
 10
522.615619018085
 20
644.53160266075304
 11
525.21561901808536
 21
644.53160266075304
  0
LINE
  8
_0-e_極細4
  6
CONTINUOUS
 62
    6
 10
522.615619018085
 20
643.13160266075317
 11
526.61561901808591
 21
643.13160266075317
  0
LINE
  8
_0-e_極細4
  6
CONTINUOUS
 62
    6
 10
522.615619018085
 20
635.13160266075317
 11
522.615619018085
 21
647.13160266075317
  0
LINE
  8
_0-e_極細4
  6
CONTINUOUS
 62
    6
 10
536.57361901808554
 20
642.08960266075303
 11
533.61561901808591
 21
639.13160266075317
  0
LINE
  8
_0-e_極細4
  6
CONTINUOUS
 62
    6
 10
526.61561901808591
 20
643.13160266075317
 11
526.61561901808591
 21
665.63160266075317
  0
ARC
  8
_0-e_極細4
  6
CONTINUOUS
 62
    6
 10
528.71561901808536
 20
665.63160266075317
 40
2.1000000000000227
 50
89.999999999999915
 51
179.99999999999983
  0
LINE
  8
_0-e_極細4
  6
CONTINUOUS
 62
    6
 10
531.09806701808566
 20
667.73160266075331
 11
528.71561901808536
 21
667.73160266075331
  0
ARC
  8
_0-e_極細4
  6
CONTINUOUS
 62
    6
 10
531.09806701808566
 20
671.13160266075317
 40
3.3999999999999773
 50
269.99999999999977
 51
356.64911199999864
  0
ARC
  8
_0-e_極細4
  6
CONTINUOUS
 62
    6
 10
531.09806701808566
 20
671.13160266075317
 40
2
 50
269.99999999999977
 51
356.64911200000284
  0
ARC
  8
_0-e_極細4
  6
CONTINUOUS
 62
    6
 10
536.57361901808554
 20
670.6316026607534
 40
3.4999999999999991
 50
89.999999999999915
 51
175.84901000000218
  0
ARC
  8
_0-e_極細4
  6
CONTINUOUS
 62
    6
 10
528.71561901808536
 20
665.63160266075317
 40
3.4999999999999991
 50
89.999999999999915
 51
179.99999999999983
  0
LINE
  8
_0-e_極細4
  6
CONTINUOUS
 62
    6
 10
529.61561901808591
 20
669.1316026607534
 11
529.61561901808591
 21
674.13160266075317
  0
LINE
  8
_0-e_極細4
  6
CONTINUOUS
 62
    6
 10
525.21561901808536
 20
644.53160266075304
 11
525.21561901808536
 21
665.63160266075317
  0
LINE
  8
_0-e_極細4
  6
CONTINUOUS
 62
    6
 10
531.09806701808566
 20
669.1316026607534
 11
528.71561901808536
 21
669.1316026607534
  0
LINE
  8
_0-e_極細4
  6
CONTINUOUS
 62
    6
 10
517.115619018085
 20
647.13160266075317
 11
525.21561901808536
 21
647.13160266075317
  0
LINE
  8
_0-e_極細4
  6
CONTINUOUS
 62
    6
 10
436.61561901808545
 20
674.1316026607534
 11
536.57361901808554
 21
674.13160266075317
  0
ARC
  8
_0-e_極細4
  6
CONTINUOUS
 62
    6
 10
513.11561901808545
 20
619.31747466075342
 40
2
 50
89.999999999999915
 51
179.99999999999983
  0
ARC
  8
_0-e_極細4
  6
CONTINUOUS
 62
    6
 10
513.11561901808545
 20
619.31747466075342
 40
2
 50
0
 51
89.999999999999915
  0
LINE
  8
_0-e_極細4
  6
CONTINUOUS
 62
    6
 10
550.41561901808609
 20
671.31747466075319
 11
536.57361901808554
 21
669.71747466075306
  0
LINE
  8
_0-e_極細4
  6
CONTINUOUS
 62
    6
 10
536.57361901808554
 20
631.71747466075306
 11
533.61561901808591
 21
633.31747466075319
  0
LINE
  8
_0-e_極細4
  6
CONTINUOUS
 62
    6
 10
533.61561901808591
 20
633.31747466075319
 11
533.61561901808591
 21
639.13160266075317
  0
LINE
  8
_0-e_極細4
  6
CONTINUOUS
 62
    6
 10
550.41561901808609
 20
644.42795666075347
 11
550.41561901808609
 21
676.07463066075309
  0
LINE
  8
_0-e_極細4
  6
CONTINUOUS
 62
    6
 10
542.61561901808591
 20
643.31747466075319
 11
550.41561901808609
 21
643.31747466075319
  0
LINE
  8
_0-e_極細4
  6
CONTINUOUS
 62
    6
 10
550.41561901808609
 20
643.31747466075319
 11
550.41561901808609
 21
644.42795666075347
  0
ARC
  8
_0-e_極細4
  6
CONTINUOUS
 62
    6
 10
547.61561901808591
 20
618.65722066075307
 40
10
 50
119.99999999999989
 51
179.99999999999983
  0
LINE
  8
_0-e_極細4
  6
CONTINUOUS
 62
    6
 10
542.61561901808591
 20
627.31747466075319
 11
542.61561901808591
 21
643.31747466075319
  0
LINE
  8
_0-e_極細4
  6
CONTINUOUS
 62
    6
 10
536.57361901808554
 20
672.71747356825165
 11
550.41561901808609
 21
674.6889886607529
  0
LINE
  8
_0-e_極細4
  6
CONTINUOUS
 62
    6
 10
536.57361901808554
 20
642.08960266075303
 11
536.57361901808554
 21
672.73160266075354
  0
ARC
  8
_0-e_極細4
  6
CONTINUOUS
 62
    6
 10
536.57361901808554
 20
670.6316026607534
 40
2.1000000000000227
 50
89.999999999999915
 51
175.84901000000448
  0
LINE
  8
_0-e_極細4
  6
CONTINUOUS
 62
    6
 10
517.61561901808591
 20
633.33316066075383
 11
511.61561901808545
 21
633.33316066075383
  0
ARC
  8
_0-e_極細4
  6
CONTINUOUS
 62
    6
 10
517.61561901808591
 20
637.33316066075315
 40
4
 50
269.99999999999977
 51
359.99999999999966
  0
LINE
  8
_0-e_極細4
  6
CONTINUOUS
 62
    6
 10
521.61561901808591
 20
637.33316066075315
 11
521.61561901808591
 21
639.33316066075315
  0
LINE
  8
_0-e_極細4
  6
CONTINUOUS
 62
    6
 10
521.61561901808591
 20
639.33316066075315
 11
517.115619018085
 21
639.33316066075315
  0
LINE
  8
_0-e_極細4
  6
CONTINUOUS
 62
    6
 10
523.61561901808591
 20
648.13316066075311
 11
517.115619018085
 21
648.13316066075311
  0
LINE
  8
_0-e_極細4
  6
CONTINUOUS
 62
    6
 10
517.115619018085
 20
639.33316066075315
 11
517.115619018085
 21
648.13316066075333
  0
LINE
  8
_0-e_極細4
  6
CONTINUOUS
 62
    6
 10
517.115619018085
 20
648.13316066075333
 11
436.61561901808545
 21
648.13316066075333
  0
ARC
  8
_0-e_極細4
  6
CONTINUOUS
 62
    6
 10
491.115619018085
 20
503.71744122074563
 40
20
 50
269.99999999999977
 51
359.99999999999966
  0
LINE
  8
_0-e_極細4
  6
CONTINUOUS
 62
    6
 10
436.61561901808545
 20
483.71744122074563
 11
491.115619018085
 21
483.71744122074563
  0
LINE
  8
_0-e_極細4
  6
CONTINUOUS
 62
    6
 10
511.115619018085
 20
503.71744122074563
 11
511.115619018085
 21
619.31747466075342
  0
LINE
  8
_0-e_極細4
  6
CONTINUOUS
 62
    6
 10
515.115619018085
 20
503.71744122074563
 11
515.115619018085
 21
619.31747466075342
  0
LINE
  8
_0-e_極細4
  6
CONTINUOUS
 62
    6
 10
438.47768701808559
 20
479.71744122074563
 11
491.115619018085
 21
479.71744122074563
  0
LINE
  8
_0-e_極細4
  6
CONTINUOUS
 62
    6
 10
436.61561901808545
 20
479.71744122074563
 11
438.47768701808559
 21
479.71744122074563
  0
LINE
  8
_0-e_極細4
  6
CONTINUOUS
 62
    6
 10
513.115619018085
 20
404.71744122074563
 11
512.615619018085
 21
454.71744122074563
  0
LINE
  8
_0-e_極細4
  6
CONTINUOUS
 62
    6
 10
532.61561901808591
 20
577.56057522074536
 11
532.61561901808591
 21
631.71747466075306
  0
ARC
  8
_0-e_極細4
  6
CONTINUOUS
 62
    6
 10
530.61561901808591
 20
577.56057522074536
 40
2
 50
277.18075599997792
 51
359.99999999999966
  0
ARC
  8
_0-e_極細4
  6
CONTINUOUS
 62
    6
 10
491.115619018085
 20
503.71744122074563
 40
24
 50
269.99999999999977
 51
359.99999999999966
  0
LINE
  8
_0-e_極細4
  6
CONTINUOUS
 62
    6
 10
486.615619018085
 20
459.71744122074563
 11
486.615619018085
 21
479.71744122074563
  0
LINE
  8
_0-e_極細4
  6
CONTINUOUS
 62
    6
 10
491.115619018085
 20
479.71744122074563
 11
486.615619018085
 21
479.71744122074563
  0
LINE
  8
_0-e_極細4
  6
CONTINUOUS
 62
    6
 10
515.115619018085
 20
503.71744122074563
 11
515.115619018085
 21
557.7174412207454
  0
LINE
  8
_0-e_極細4
  6
CONTINUOUS
 62
    6
 10
486.61877701808544
 20
459.51209522074589
 11
486.615619018085
 21
459.71744122074563
  0
LINE
  8
_0-e_極細4
  6
CONTINUOUS
 62
    6
 10
486.615619018085
 20
459.71744122074563
 11
436.61561901808545
 21
459.71744122074631
  0
ARC
  8
_0-e_極細4
  6
CONTINUOUS
 62
    6
 10
516.615619018085
 20
475.71744122074563
 40
16
 50
269.99999999999977
 51
359.99999999999966
  0
LINE
  8
_0-e_極細4
  6
CONTINUOUS
 62
    6
 10
492.615619018085
 20
454.71744122074563
 11
512.615619018085
 21
454.71744122074563
  0
LINE
  8
_0-e_極細4
  6
CONTINUOUS
 62
    6
 10
487.61561901808545
 20
394.71744122074563
 11
486.615619018085
 21
459.71744122074563
  0
LINE
  8
_0-e_極細4
  6
CONTINUOUS
 62
    6
 10
532.61561901808591
 20
475.71744122074563
 11
532.61561901808591
 21
577.56057522074536
  0
LINE
  8
_0-e_極細4
  6
CONTINUOUS
 62
    6
 10
516.615619018085
 20
459.71744122074563
 11
486.615619018085
 21
459.71744122074563
  0
LINE
  8
_0-e_極細4
  6
CONTINUOUS
 62
    6
 10
491.78228568475197
 20
404.71744122074563
 11
492.615619018085
 21
454.71744122074563
  0
ARC
  8
_0-e_極細4
  6
CONTINUOUS
 62
    6
 10
521.61561901808591
 20
470.71744122074563
 40
16
 50
269.99999999999636
 51
359.99999999999966
  0
LINE
  8
_0-e_極細4
  6
CONTINUOUS
 62
    6
 10
537.615619018085
 20
470.71744122074563
 11
537.615619018085
 21
618.65722066075307
  0
LINE
  8
_0-e_極細4
  6
CONTINUOUS
 62
    6
 10
518.81561901808573
 20
404.71744122074563
 11
519.615619018085
 21
454.71744122074563
  0
LINE
  8
_0-e_極細4
  6
CONTINUOUS
 62
    6
 10
491.78228501808508
 20
404.71744122074563
 11
518.81561901808573
 21
404.71744122074563
  0
LINE
  8
_0-e_極細4
  6
CONTINUOUS
 62
    6
 10
488.615619018085
 20
514.13312722074568
 11
436.61561901808545
 21
514.13312722074568
  0
ARC
  8
_0-e_極細4
  6
CONTINUOUS
 62
    6
 10
488.615619018085
 20
516.13312722074568
 40
2
 50
269.99954163376469
 51
359.99999999999966
  0
LINE
  8
_0-e_極細4
  6
CONTINUOUS
 62
    6
 10
490.61561901808545
 20
516.13312722074568
 11
490.61561901808545
 21
634.08165266075355
  0
LINE
  8
_0-e_極細4
  6
CONTINUOUS
 62
    6
 10
530.86561902565381
 20
575.57626173840083
 11
515.115619018085
 21
575.57626173840083
  0
LINE
  8
_0-e_極細4
  6
CONTINUOUS
 62
    6
 10
519.615619018085
 20
454.71744122074563
 11
521.615619018085
 21
454.71744122074563
  0
LINE
  8
_0-e_極細4
  6
CONTINUOUS
 62
    6
 10
436.61561901808523
 20
394.71744122074563
 11
491.615619018085
 21
394.71744122074563
  0
LINE
  8
_0-e_極細4
  6
CONTINUOUS
 62
    6
 10
491.615619018085
 20
394.71744122074563
 11
491.78228568475197
 21
404.71744122074563
  0
LINE
  8
_0-e_極細4
  6
CONTINUOUS
 62
    6
 10
322.81561901808595
 20
674.71747466075306
 11
322.81561901808595
 21
676.10311669009354
  0
LINE
  8
_0-e_極細4
  6
CONTINUOUS
 62
    6
 10
382.61561901808614
 20
631.71747466075306
 11
336.65761901808582
 21
631.71747466075306
  0
LINE
  8
_0-e_極細4
  6
CONTINUOUS
 62
    6
 10
360.11561901808614
 20
621.31747466075319
 11
382.61561901808614
 21
621.31747466075319
  0
LINE
  8
_0-e_極細4
  6
CONTINUOUS
 62
    6
 10
336.65761901808582
 20
674.13160266075317
 11
322.81561901808595
 21
676.10311669009354
  0
LINE
  8
_0-e_極細4
  6
CONTINUOUS
 62
    6
 10
382.61561901808614
 20
631.12614666075331
 11
382.61561901808614
 21
634.08165266075355
  0
LINE
  8
_0-e_極細4
  6
CONTINUOUS
 62
    6
 10
382.61561901808614
 20
633.31747466075319
 11
339.61561901808614
 21
633.31747466075319
  0
LINE
  8
_0-e_極細4
  6
CONTINUOUS
 62
    6
 10
349.61561901808614
 20
660.33316066075315
 11
349.61561901808614
 21
662.13160266075317
  0
LINE
  8
_0-e_極細4
  6
CONTINUOUS
 62
    6
 10
349.61561901808614
 20
660.33316066075315
 11
436.61561901808614
 21
660.33316066075315
  0
LINE
  8
_0-e_極細4
  6
CONTINUOUS
 62
    6
 10
349.61561901808614
 20
651.13316066075311
 11
436.61561901808614
 21
651.13316066075333
  0
LINE
  8
_0-e_極細4
  6
CONTINUOUS
 62
    6
 10
349.61561901808614
 20
648.13316066075311
 11
349.61561901808614
 21
651.13316066075311
  0
LINE
  8
_0-e_極細4
  6
CONTINUOUS
 62
    6
 10
357.11561901808614
 20
656.9438226607532
 11
357.11561901808614
 21
654.34382266075329
  0
LINE
  8
_0-e_極細4
  6
CONTINUOUS
 62
    6
 10
357.11561901808614
 20
652.34382266075283
 11
357.11561901808614
 21
651.34382266075329
  0
LINE
  8
_0-e_極細4
  6
CONTINUOUS
 62
    6
 10
349.91561901808564
 20
656.9438226607532
 11
349.91561901808564
 21
651.34382266075329
  0
LINE
  8
_0-e_極細4
  6
CONTINUOUS
 62
    6
 10
436.61561901808614
 20
651.34382266075329
 11
349.91561901808564
 21
651.34382266075329
  0
LINE
  8
_0-e_極細4
  6
CONTINUOUS
 62
    6
 10
436.61561901808614
 20
653.34382266075329
 11
358.11561901808614
 21
653.34382266075329
  0
LINE
  8
_0-e_極細4
  6
CONTINUOUS
 62
    6
 10
436.61561901808614
 20
657.9438226607532
 11
358.11561901808614
 21
657.9438226607532
  0
LINE
  8
_0-e_極細4
  6
CONTINUOUS
 62
    6
 10
358.11561901808614
 20
657.9438226607532
 11
357.11561901808614
 21
658.9438226607532
  0
LINE
  8
_0-e_極細4
  6
CONTINUOUS
 62
    6
 10
357.11561901808614
 20
656.9438226607532
 11
358.11561901808614
 21
657.9438226607532
  0
LINE
  8
_0-e_極細4
  6
CONTINUOUS
 62
    6
 10
357.11561901808614
 20
652.34382266075283
 11
358.11561901808614
 21
653.34382266075329
  0
LINE
  8
_0-e_極細4
  6
CONTINUOUS
 62
    6
 10
358.11561901808614
 20
653.34382266075329
 11
357.11561901808614
 21
654.34382266075329
  0
LINE
  8
_0-e_極細4
  6
CONTINUOUS
 62
    6
 10
349.91561901808564
 20
656.9438226607532
 11
348.31561901808595
 21
659.94382266075297
  0
LINE
  8
_0-e_極細4
  6
CONTINUOUS
 62
    6
 10
357.11561901808614
 20
659.94382266075297
 11
357.11561901808614
 21
658.9438226607532
  0
LINE
  8
_0-e_極細4
  6
CONTINUOUS
 62
    6
 10
436.61561901808614
 20
659.9438226607532
 11
348.31561901808595
 21
659.94382266075297
  0
LINE
  8
_0-e_極細4
  6
CONTINUOUS
 62
    6
 10
436.21561901808582
 20
662.1316026607534
 11
349.015619018086
 21
662.13160266075317
  0
LINE
  8
_0-e_極細4
  6
CONTINUOUS
 62
    6
 10
436.21561901808582
 20
664.1316026607534
 11
350.21561901808582
 21
664.13160266075317
  0
ARC
  8
_0-e_極細4
  6
CONTINUOUS
 62
    6
 10
344.71561901808582
 20
672.1316026607534
 40
1
 50
89.999999999999915
 51
155.94545099999456
  0
ARC
  8
_0-e_極細4
  6
CONTINUOUS
 62
    6
 10
344.11561901808545
 20
669.53160266075304
 40
0.3999999999999772
 50
179.99999999999983
 51
269.99999999999977
  0
ARC
  8
_0-e_極細4
  6
CONTINUOUS
 62
    6
 10
344.71561901808582
 20
672.1316026607534
 40
1
 50
155.94545099999456
 51
179.99999999999983
  0
LINE
  8
_0-e_極細4
  6
CONTINUOUS
 62
    6
 10
348.015619018086
 20
663.1316026607534
 11
348.01561901808577
 21
669.1316026607534
  0
LINE
  8
_0-e_極細4
  6
CONTINUOUS
 62
    6
 10
348.01561901808577
 20
669.1316026607534
 11
344.11561901808545
 21
669.1316026607534
  0
LINE
  8
_0-e_極細4
  6
CONTINUOUS
 62
    6
 10
436.61561901808545
 20
673.1316026607534
 11
344.71561901808582
 21
673.13160266075317
  0
LINE
  8
_0-e_極細4
  6
CONTINUOUS
 62
    6
 10
343.71561901808582
 20
669.53160266075304
 11
343.71561901808582
 21
672.1316026607534
  0
LINE
  8
_0-e_極細4
  6
CONTINUOUS
 62
    6
 10
367.04299301808601
 20
635.73160266075354
 11
367.04299301808601
 21
639.13160266075317
  0
LINE
  8
_0-e_極細4
  6
CONTINUOUS
 62
    6
 10
377.04299301808601
 20
635.73160266075354
 11
377.04299301808601
 21
639.13160266075317
  0
LINE
  8
_0-e_極細4
  6
CONTINUOUS
 62
    6
 10
377.04299301808601
 20
635.73160266075354
 11
367.04299301808601
 21
635.73160266075354
  0
LINE
  8
_0-e_極細4
  6
CONTINUOUS
 62
    6
 10
350.61561901808614
 20
639.13160266075317
 11
339.61561901808614
 21
639.13160266075317
  0
LINE
  8
_0-e_極細4
  6
CONTINUOUS
 62
    6
 10
352.27598701808597
 20
635.13160266075317
 11
350.61561901808614
 21
635.13160266075317
  0
LINE
  8
_0-e_極細4
  6
CONTINUOUS
 62
    6
 10
350.61561901808614
 20
644.53160266075304
 11
348.015619018086
 21
644.53160266075304
  0
LINE
  8
_0-e_極細4
  6
CONTINUOUS
 62
    6
 10
350.61561901808614
 20
643.13160266075317
 11
346.61561901808614
 21
643.13160266075317
  0
LINE
  8
_0-e_極細4
  6
CONTINUOUS
 62
    6
 10
350.61561901808614
 20
635.13160266075317
 11
350.61561901808614
 21
647.13160266075317
  0
LINE
  8
_0-e_極細4
  6
CONTINUOUS
 62
    6
 10
336.65761901808582
 20
642.08960266075303
 11
339.61561901808614
 21
639.13160266075317
  0
LINE
  8
_0-e_極細4
  6
CONTINUOUS
 62
    6
 10
346.61561901808614
 20
643.13160266075317
 11
346.61561901808545
 21
665.63160266075317
  0
ARC
  8
_0-e_極細4
  6
CONTINUOUS
 62
    6
 10
344.51561901808577
 20
665.63160266075317
 40
2.1000000000000227
 50
0
 51
89.999999999999915
  0
LINE
  8
_0-e_極細4
  6
CONTINUOUS
 62
    6
 10
342.1331710180857
 20
667.73160266075331
 11
344.51561901808577
 21
667.73160266075331
  0
ARC
  8
_0-e_極細4
  6
CONTINUOUS
 62
    6
 10
342.1331710180857
 20
671.13160266075317
 40
3.3999999999999773
 50
183.35088800000065
 51
269.99999999999977
  0
ARC
  8
_0-e_極細4
  6
CONTINUOUS
 62
    6
 10
342.1331710180857
 20
671.13160266075317
 40
2
 50
183.35088799999644
 51
269.99999999999977
  0
ARC
  8
_0-e_極細4
  6
CONTINUOUS
 62
    6
 10
336.65761901808582
 20
670.6316026607534
 40
3.4999999999999991
 50
4.1509899999970168
 51
89.999999999999915
  0
ARC
  8
_0-e_極細4
  6
CONTINUOUS
 62
    6
 10
344.51561901808577
 20
665.63160266075317
 40
3.4999999999999991
 50
0
 51
89.999999999999915
  0
LINE
  8
_0-e_極細4
  6
CONTINUOUS
 62
    6
 10
343.61561901808545
 20
669.1316026607534
 11
343.61561901808545
 21
674.13160266075317
  0
LINE
  8
_0-e_極細4
  6
CONTINUOUS
 62
    6
 10
348.015619018086
 20
644.53160266075304
 11
348.015619018086
 21
665.63160266075317
  0
LINE
  8
_0-e_極細4
  6
CONTINUOUS
 62
    6
 10
342.1331710180857
 20
669.1316026607534
 11
344.51561901808577
 21
669.1316026607534
  0
LINE
  8
_0-e_極細4
  6
CONTINUOUS
 62
    6
 10
356.11561901808545
 20
647.13160266075317
 11
348.015619018086
 21
647.13160266075317
  0
LINE
  8
_0-e_極細4
  6
CONTINUOUS
 62
    6
 10
436.61561901808545
 20
674.1316026607534
 11
336.65761901808582
 21
674.13160266075317
  0
ARC
  8
_0-e_極細4
  6
CONTINUOUS
 62
    6
 10
360.11561901808614
 20
619.31747466075342
 40
2
 50
0
 51
89.999999999999915
  0
ARC
  8
_0-e_極細4
  6
CONTINUOUS
 62
    6
 10
360.11561901808614
 20
619.31747466075342
 40
2
 50
89.999999999999915
 51
179.99999999999983
  0
LINE
  8
_0-e_極細4
  6
CONTINUOUS
 62
    6
 10
322.81561901808595
 20
671.31747466075319
 11
336.65761901808582
 21
669.71747466075306
  0
LINE
  8
_0-e_極細4
  6
CONTINUOUS
 62
    6
 10
336.65761901808582
 20
631.71747466075306
 11
339.61561901808614
 21
633.31747466075319
  0
LINE
  8
_0-e_極細4
  6
CONTINUOUS
 62
    6
 10
339.61561901808614
 20
633.31747466075319
 11
339.61561901808614
 21
639.13160266075317
  0
LINE
  8
_0-e_極細4
  6
CONTINUOUS
 62
    6
 10
322.81561901808595
 20
644.42795666075347
 11
322.81561901808595
 21
676.07463066075309
  0
LINE
  8
_0-e_極細4
  6
CONTINUOUS
 62
    6
 10
330.61561901808614
 20
643.31747466075319
 11
322.81561901808595
 21
643.31747466075319
  0
LINE
  8
_0-e_極細4
  6
CONTINUOUS
 62
    6
 10
322.81561901808595
 20
643.31747466075319
 11
322.81561901808595
 21
644.42795666075347
  0
ARC
  8
_0-e_極細4
  6
CONTINUOUS
 62
    6
 10
325.61561901808614
 20
618.65722066075307
 40
10
 50
0
 51
60.000000000000107
  0
LINE
  8
_0-e_極細4
  6
CONTINUOUS
 62
    6
 10
330.61561901808614
 20
627.31747466075319
 11
330.61561901808614
 21
643.31747466075319
  0
LINE
  8
_0-e_極細4
  6
CONTINUOUS
 62
    6
 10
336.65761901808582
 20
672.71747356825165
 11
322.81561901808595
 21
674.6889886607529
  0
LINE
  8
_0-e_極細4
  6
CONTINUOUS
 62
    6
 10
336.65761901808582
 20
642.08960266075303
 11
336.65761901808582
 21
672.73160266075354
  0
ARC
  8
_0-e_極細4
  6
CONTINUOUS
 62
    6
 10
336.65761901808582
 20
670.6316026607534
 40
2.1000000000000227
 50
4.150989999995959
 51
89.999999999999915
  0
LINE
  8
_0-e_極細4
  6
CONTINUOUS
 62
    6
 10
355.61561901808614
 20
633.33316066075383
 11
361.61561901808614
 21
633.33316066075383
  0
ARC
  8
_0-e_極細4
  6
CONTINUOUS
 62
    6
 10
355.61561901808614
 20
637.33316066075315
 40
4
 50
179.99999999999983
 51
269.99999999999977
  0
LINE
  8
_0-e_極細4
  6
CONTINUOUS
 62
    6
 10
351.61561901808614
 20
637.33316066075315
 11
351.61561901808614
 21
639.33316066075315
  0
LINE
  8
_0-e_極細4
  6
CONTINUOUS
 62
    6
 10
351.61561901808614
 20
639.33316066075315
 11
356.11561901808545
 21
639.33316066075315
  0
LINE
  8
_0-e_極細4
  6
CONTINUOUS
 62
    6
 10
349.61561901808614
 20
648.13316066075311
 11
356.11561901808545
 21
648.13316066075311
  0
LINE
  8
_0-e_極細4
  6
CONTINUOUS
 62
    6
 10
356.11561901808545
 20
639.33316066075315
 11
356.11561901808545
 21
648.13316066075333
  0
LINE
  8
_0-e_極細4
  6
CONTINUOUS
 62
    6
 10
356.11561901808545
 20
648.13316066075333
 11
436.61561901808614
 21
648.13316066075333
  0
ARC
  8
_0-e_極細4
  6
CONTINUOUS
 62
    6
 10
382.11561901808591
 20
503.71744122074563
 40
20
 50
179.99999999999983
 51
269.99999999999977
  0
LINE
  8
_0-e_極細4
  6
CONTINUOUS
 62
    6
 10
436.61561901808614
 20
483.71744122074563
 11
382.11561901808591
 21
483.71744122074563
  0
LINE
  8
_0-e_極細4
  6
CONTINUOUS
 62
    6
 10
362.11561901808614
 20
503.71744122074563
 11
362.11561901808614
 21
619.31747466075342
  0
LINE
  8
_0-e_極細4
  6
CONTINUOUS
 62
    6
 10
358.11561901808614
 20
503.71744122074563
 11
358.11561901808614
 21
619.31747466075342
  0
LINE
  8
_0-e_極細4
  6
CONTINUOUS
 62
    6
 10
434.753551018086
 20
479.71744122074563
 11
382.11561901808591
 21
479.71744122074563
  0
LINE
  8
_0-e_極細4
  6
CONTINUOUS
 62
    6
 10
436.61561901808614
 20
479.71744122074563
 11
434.753551018086
 21
479.71744122074563
  0
LINE
  8
_0-e_極細4
  6
CONTINUOUS
 62
    6
 10
360.11561901808636
 20
404.71744122074563
 11
360.61561901808614
 21
454.71744122074563
  0
LINE
  8
_0-e_極細4
  6
CONTINUOUS
 62
    6
 10
340.61561901808614
 20
577.56057522074536
 11
340.61561901808614
 21
631.71747466075306
  0
ARC
  8
_0-e_極細4
  6
CONTINUOUS
 62
    6
 10
342.61561901808614
 20
577.56057522074536
 40
2
 50
179.99999999999983
 51
262.81924399999554
  0
ARC
  8
_0-e_極細4
  6
CONTINUOUS
 62
    6
 10
382.11561901808591
 20
503.71744122074563
 40
24
 50
179.99999999999983
 51
269.99999999999977
  0
LINE
  8
_0-e_極細4
  6
CONTINUOUS
 62
    6
 10
386.61561901808614
 20
459.71744122074563
 11
386.61561901808614
 21
479.71744122074563
  0
LINE
  8
_0-e_極細4
  6
CONTINUOUS
 62
    6
 10
382.11561901808591
 20
479.71744122074563
 11
386.61561901808614
 21
479.71744122074563
  0
LINE
  8
_0-e_極細4
  6
CONTINUOUS
 62
    6
 10
358.11561901808614
 20
503.71744122074563
 11
358.11561901808614
 21
557.7174412207454
  0
LINE
  8
_0-e_極細4
  6
CONTINUOUS
 62
    6
 10
386.61246101808592
 20
459.51209522074589
 11
386.61561901808614
 21
459.71744122074563
  0
LINE
  8
_0-e_極細4
  6
CONTINUOUS
 62
    6
 10
386.61561901808614
 20
459.71744122074563
 11
436.61561901808614
 21
459.71744122074631
  0
ARC
  8
_0-e_極細4
  6
CONTINUOUS
 62
    6
 10
356.61561901808614
 20
475.71744122074563
 40
16
 50
179.99999999999983
 51
269.99999999999977
  0
LINE
  8
_0-e_極細4
  6
CONTINUOUS
 62
    6
 10
380.61561901808614
 20
454.71744122074563
 11
360.61561901808614
 21
454.71744122074563
  0
LINE
  8
_0-e_極細4
  6
CONTINUOUS
 62
    6
 10
385.61561901808614
 20
394.71744122074563
 11
386.61561901808614
 21
459.71744122074563
  0
LINE
  8
_0-e_極細4
  6
CONTINUOUS
 62
    6
 10
340.61561901808614
 20
475.71744122074563
 11
340.61561901808614
 21
577.56057522074536
  0
LINE
  8
_0-e_極細4
  6
CONTINUOUS
 62
    6
 10
356.61561901808614
 20
459.71744122074563
 11
386.61561901808614
 21
459.71744122074563
  0
LINE
  8
_0-e_極細4
  6
CONTINUOUS
 62
    6
 10
381.44895235141939
 20
404.71744122074563
 11
380.61561901808614
 21
454.71744122074563
  0
ARC
  8
_0-e_極細4
  6
CONTINUOUS
 62
    6
 10
351.61561901808614
 20
470.71744122074563
 40
16
 50
179.99999999999983
 51
269.99999999999977
  0
LINE
  8
_0-e_極細4
  6
CONTINUOUS
 62
    6
 10
335.61561901808614
 20
470.71744122074563
 11
335.61561901808614
 21
618.65722066075307
  0
LINE
  8
_0-e_極細4
  6
CONTINUOUS
 62
    6
 10
354.41561901808632
 20
404.71744122074563
 11
353.61561901808636
 21
454.71744122074563
  0
LINE
  8
_0-e_極細4
  6
CONTINUOUS
 62
    6
 10
381.44895301808629
 20
404.71744122074563
 11
354.41561901808632
 21
404.71744122074563
  0
LINE
  8
_0-e_極細4
  6
CONTINUOUS
 62
    6
 10
384.61561901808545
 20
514.13312722074568
 11
436.61561901808614
 21
514.13312722074568
  0
ARC
  8
_0-e_極細4
  6
CONTINUOUS
 62
    6
 10
384.61561901808545
 20
516.13312722074568
 40
2
 50
179.99999999999983
 51
270.00045836623457
  0
LINE
  8
_0-e_極細4
  6
CONTINUOUS
 62
    6
 10
382.61561901808614
 20
516.13312722074568
 11
382.61561901808614
 21
634.08165266075355
  0
LINE
  8
_0-e_極細4
  6
CONTINUOUS
 62
    6
 10
342.36561901051732
 20
575.57626173840083
 11
358.11561901808614
 21
575.57626173840083
  0
LINE
  8
_0-e_極細4
  6
CONTINUOUS
 62
    6
 10
353.61561901808636
 20
454.71744122074563
 11
351.61561901808614
 21
454.71744122074563
  0
LINE
  8
_0-e_極細4
  6
CONTINUOUS
 62
    6
 10
436.61561901808614
 20
394.71744122074563
 11
381.61561901808614
 21
394.71744122074563
  0
LINE
  8
_0-e_極細4
  6
CONTINUOUS
 62
    6
 10
381.61561901808614
 20
394.71744122074563
 11
381.44895235141939
 21
404.71744122074563
  0
LINE
  8
_0-e_極細4
  6
CONTINUOUS
 62
    6
 10
523.01561901808554
 20
662.13160266075317
 11
523.01561901808554
 21
664.13160266075317
  0
ARC
  8
_0-e_極細4
  6
CONTINUOUS
 62
    6
 10
524.21561901808536
 20
663.1316026607534
 40
1
 50
269.99999999999977
 51
359.99999999999966
  0
LINE
  8
_0-e_極細4
  6
CONTINUOUS
 62
    6
 10
350.21561901808582
 20
662.13160266075317
 11
350.21561901808582
 21
664.13160266075317
  0
ARC
  8
_0-e_極細4
  6
CONTINUOUS
 62
    6
 10
349.015619018086
 20
663.1316026607534
 40
1
 50
179.99999999999983
 51
269.99999999999977
  0
CIRCLE
  8
_1-1_寸法4
  6
CONTINUOUS
 62
    7
 10
525.21561901808536
 20
655.81491523420152
 40
36.118355382873787
  0
TEXT
  8
_1-1_寸法4
 62
    7
 10
543.78456747884456
 20
686.79442053408059
 40
24
 41
0.8000000000000001
 50
0
  1
Ｃ部
  0
LINE
  8
_1-1_寸法4
  6
CONTINUOUS
 62
    7
 10
405.94271700149307
 20
563.42931967814241
 11
396.31909436900764
 21
550.64707075913304
  0
LINE
  8
_1-1_寸法4
  6
CONTINUOUS
 62
    7
 10
405.94271700149307
 20
563.42931967814241
 11
391.21729086582127
 21
557.1713787130268
  0
LINE
  8
_1-1_寸法4
  6
CONTINUOUS
 62
    7
 10
405.94271700149307
 20
563.42931967814241
 11
315.56804692334345
 21
492.7591717233912
  0
LINE
  8
_1-1_寸法4
  6
CONTINUOUS
 62
    7
 10
315.56804692334345
 20
492.7591717233912
 11
161.96804692334354
 21
492.7591717233912
  0
TEXT
  8
_1-1_寸法4
 62
    7
 10
161.96804692334354
 20
492.75917172339166
 40
24
 41
0.7999999999999998
 50
-0.0000000000001696
  1
防臭インナー１号
  0
LINE
  8
_1-1_寸法4
  6
CONTINUOUS
 62
    7
 10
346.36047157067674
 20
475.16829820810437
 11
336.65241014159938
 21
462.45006156581547
  0
LINE
  8
_1-1_寸法4
  6
CONTINUOUS
 62
    7
 10
346.36047157067674
 20
475.16829820810437
 11
331.59392543045146
 21
469.00801289907878
  0
LINE
  8
_1-1_寸法4
  6
CONTINUOUS
 62
    7
 10
346.36047157067674
 20
475.16829820810437
 11
315.56804692334345
 21
451.41651943114869
  0
LINE
  8
_1-1_寸法4
  6
CONTINUOUS
 62
    7
 10
315.56804692334345
 20
451.41651943114869
 11
200.36804692334351
 21
451.41651943114869
  0
TEXT
  8
_1-1_寸法4
 62
    7
 10
200.36804692334351
 20
451.4165194311488
 40
24
 41
0.7999999999999998
 50
-0.0000000000001696
  1
トラップ本体
  0
LINE
  8
_1-1_寸法4
  6
CONTINUOUS
 62
    7
 10
369.38919219731156
 20
595.18693186515918
 11
359.77211549593073
 21
582.39975720772372
  0
LINE
  8
_1-1_寸法4
  6
CONTINUOUS
 62
    7
 10
369.38919219731156
 20
595.18693186515918
 11
354.66697213505461
 21
588.92145211988191
  0
LINE
  8
_1-1_寸法4
  6
CONTINUOUS
 62
    7
 10
369.38919219731156
 20
595.18693186515918
 11
315.56804692334345
 21
553.05606463340393
  0
LINE
  8
_1-1_寸法4
  6
CONTINUOUS
 62
    7
 10
315.56804692334345
 20
553.05606463340393
 11
161.96804692334354
 21
553.05606463340393
  0
TEXT
  8
_1-1_寸法4
 62
    7
 10
161.96804692334354
 20
553.05606463340416
 40
24
 41
0.7999999999999998
 50
-0.0000000000001696
  1
防臭インナー２号
  0
LINE
  8
_1-1_寸法4
  6
CONTINUOUS
 62
    7
 10
354.41561901808609
 20
388.71744122074563
 11
354.41561901808427
 21
194.71744122074563
  0
LINE
  8
_1-1_寸法4
  6
CONTINUOUS
 62
    7
 10
354.41561901808439
 20
202.71744122074563
 11
369.87043223870955
 21
206.85854594238594
  0
LINE
  8
_1-1_寸法4
  6
CONTINUOUS
 62
    7
 10
354.41561901808439
 20
202.71744122074563
 11
369.87043223870955
 21
198.57633649910531
  0
LINE
  8
_1-1_寸法4
  6
CONTINUOUS
 62
    7
 10
518.81561901808561
 20
388.71744122074563
 11
518.81561901808345
 21
194.71744122074563
  0
LINE
  8
_1-1_寸法4
  6
CONTINUOUS
 62
    7
 10
518.81561901808357
 20
202.71744122074563
 11
503.3608057974584
 21
198.57633649910531
  0
LINE
  8
_1-1_寸法4
  6
CONTINUOUS
 62
    7
 10
518.81561901808357
 20
202.71744122074563
 11
503.36080579745851
 21
206.85854594238594
  0
LINE
  8
_1-1_寸法4
  6
CONTINUOUS
 62
    7
 10
354.41561901808439
 20
202.71744122074563
 11
518.81561901808357
 21
202.71744122074563
  0
TEXT
  8
_1-1_寸法4
 62
    7
 10
388.61561901808398
 20
202.71744122074563
 40
24
 41
1
 50
0
  1
VU75外接
  0
LINE
  8
_1-1_寸法4
  6
CONTINUOUS
 62
    7
 10
360.11561901808625
 20
388.71744122074563
 11
360.11561901808523
 21
250.71744122074563
  0
LINE
  8
_1-1_寸法4
  6
CONTINUOUS
 62
    7
 10
360.11561901808523
 20
258.71744122074563
 11
375.57043223871028
 21
262.85854594238594
  0
LINE
  8
_1-1_寸法4
  6
CONTINUOUS
 62
    7
 10
360.11561901808523
 20
258.71744122074563
 11
375.57043223871028
 21
254.57633649910531
  0
LINE
  8
_1-1_寸法4
  6
CONTINUOUS
 62
    7
 10
513.11561901808489
 20
388.71744122074563
 11
513.11561901808375
 21
250.71744122074563
  0
LINE
  8
_1-1_寸法4
  6
CONTINUOUS
 62
    7
 10
513.11561901808386
 20
258.71744122074563
 11
497.66080579745881
 21
254.57633649910531
  0
LINE
  8
_1-1_寸法4
  6
CONTINUOUS
 62
    7
 10
513.11561901808386
 20
258.71744122074563
 11
497.66080579745881
 21
262.85854594238594
  0
LINE
  8
_1-1_寸法4
  6
CONTINUOUS
 62
    7
 10
360.11561901808523
 20
258.71744122074563
 11
513.11561901808386
 21
258.71744122074563
  0
TEXT
  8
_1-1_寸法4
 62
    7
 10
388.61561901808432
 20
258.71744122074563
 40
24
 41
1
 50
0
  1
VU65内接
  0
LINE
  8
_1-1_寸法4
  6
CONTINUOUS
 62
    7
 10
381.61561901808614
 20
378.71744122074563
 11
381.61561901808591
 21
306.71744122074563
  0
LINE
  8
_1-1_寸法4
  6
CONTINUOUS
 62
    7
 10
381.61561901808591
 20
314.71744122074563
 11
397.07043223871096
 21
318.85854594238594
  0
LINE
  8
_1-1_寸法4
  6
CONTINUOUS
 62
    7
 10
381.61561901808591
 20
314.71744122074563
 11
397.07043223871096
 21
310.57633649910531
  0
LINE
  8
_1-1_寸法4
  6
CONTINUOUS
 62
    7
 10
491.615619018085
 20
378.71744122074563
 11
491.615619018085
 21
306.71744122074563
  0
LINE
  8
_1-1_寸法4
  6
CONTINUOUS
 62
    7
 10
491.615619018085
 20
314.71744122074563
 11
476.16080579745994
 21
310.57633649910531
  0
LINE
  8
_1-1_寸法4
  6
CONTINUOUS
 62
    7
 10
491.615619018085
 20
314.71744122074563
 11
476.16080579745994
 21
318.85854594238594
  0
LINE
  8
_1-1_寸法4
  6
CONTINUOUS
 62
    7
 10
381.61561901808591
 20
314.71744122074563
 11
491.615619018085
 21
314.71744122074563
  0
TEXT
  8
_1-1_寸法4
 62
    7
 10
388.61561901808545
 20
314.71744122074563
 40
24
 41
1
 50
0
  1
VU50外接
  0
TEXT
  8
_0-7_枠細線
 62
    5
 10
340.93711904832844
 20
137.35931087475331
 40
40
 41
0.8
 50
0
  1
排水部詳細図
  0
TEXT
  8
_0-7_枠細線
 62
    5
 10
557.86696543723792
 20
139.31772187791455
 40
32
 41
0.6000000000000002
 50
0
  1
Ｓ＝１：４
  0
LINE
  8
_1-1_寸法4
  6
CONTINUOUS
 62
    7
 10
390.6033018495441
 20
667.7963483644611
 11
377.81114441828504
 21
677.40679623403946
  0
LINE
  8
_1-1_寸法4
  6
CONTINUOUS
 62
    7
 10
390.6033018495441
 20
667.7963483644611
 11
384.33019247965308
 21
682.5153190768915
  0
LINE
  8
_1-1_寸法4
  6
CONTINUOUS
 62
    7
 10
390.6033018495441
 20
667.7963483644611
 11
364.51066441878334
 21
701.09347997991154
  0
LINE
  8
_1-1_寸法4
  6
CONTINUOUS
 62
    7
 10
364.51066441878334
 20
701.09347997991154
 11
249.31066441878329
 21
701.09347997991154
  0
TEXT
  8
_1-1_寸法4
 62
    7
 10
249.31066441878329
 20
701.09347997991188
 40
24
 41
0.7999999999999998
 50
-0.0000000000001696
  1
ストレーナー
  0
LINE
  8
_1-2_極細2
  6
CONTINUOUS
 62
    2
 10
1425.9799423924426
 20
368.1340858031142
 11
1401.9799423924428
 21
368.1340858031142
  0
LINE
  8
_1-2_極細2
  6
CONTINUOUS
 62
    2
 10
1047.3132757257761
 20
368.1340858031142
 11
1071.3132757257758
 21
368.1340858031142
  0
LINE
  8
_1-2_極細2
  6
CONTINUOUS
 62
    2
 10
1428.6466090591086
 20
349.46741913644723
 11
1428.6466090591093
 21
370.80075246978072
  0
LINE
  8
_1-2_極細2
  6
CONTINUOUS
 62
    2
 10
1044.6466090591093
 20
349.46741913644769
 11
1044.6466090591093
 21
370.80075246978072
  0
LINE
  8
_1-2_極細2
  6
CONTINUOUS
 62
    2
 10
1044.6466090591093
 20
370.80075246978072
 11
1073.9799423924426
 21
370.80075246978072
  0
LINE
  8
_1-2_極細2
  6
CONTINUOUS
 62
    2
 10
1399.3132757257763
 20
370.80075246978072
 11
1428.6466090591093
 21
370.80075246978072
  0
LINE
  8
_1-2_極細2
  6
CONTINUOUS
 62
    2
 10
1073.9799423924426
 20
320.13408580311375
 11
1073.9799423924426
 21
370.80075246978072
  0
LINE
  8
_1-2_極細2
  6
CONTINUOUS
 62
    2
 10
1047.3132757257761
 20
349.46741913644769
 11
1047.3132757257761
 21
368.1340858031142
  0
LINE
  8
_1-2_極細2
  6
CONTINUOUS
 62
    2
 10
1044.6466090591093
 20
349.46741913644769
 11
1047.3132757257761
 21
349.46741913644769
  0
LINE
  8
_1-2_極細2
  6
CONTINUOUS
 62
    2
 10
1425.9799423924421
 20
349.46741913644723
 11
1425.9799423924426
 21
368.1340858031142
  0
LINE
  8
_1-2_極細2
  6
CONTINUOUS
 62
    2
 10
1425.9799423924421
 20
349.46741913644723
 11
1428.6466090591086
 21
349.46741913644723
  0
LINE
  8
_1-2_極細2
  6
CONTINUOUS
 62
    2
 10
1399.3132757257763
 20
320.13408580311375
 11
1073.9799423924426
 21
320.13408580311375
  0
LINE
  8
_1-2_極細2
  6
CONTINUOUS
 62
    2
 10
1399.3132757257763
 20
320.13408580311375
 11
1399.3132757257763
 21
370.80075246978072
  0
LINE
  8
_1-2_極細2
  6
CONTINUOUS
 62
    2
 10
1401.9799423924428
 20
368.1340858031142
 11
1401.9799423924428
 21
317.46741913644723
  0
LINE
  8
_1-2_極細2
  6
CONTINUOUS
 62
    2
 10
1401.9799423924428
 20
317.46741913644723
 11
1071.3132757257758
 21
317.46741913644723
  0
LINE
  8
_1-2_極細2
  6
CONTINUOUS
 62
    2
 10
1071.3132757257758
 20
368.1340858031142
 11
1071.3132757257758
 21
317.46741913644723
  0
LINE
  8
_1-3_細線2
  6
CONTINUOUS
 62
    4
 10
1371.1799423924426
 20
345.69408617858903
 11
1371.1799423924426
 21
335.10741951192199
  0
LINE
  8
_1-3_細線2
  6
CONTINUOUS
 62
    4
 10
1267.4466090591095
 20
364.93408617858881
 11
1247.1799423924442
 21
364.93408617858881
  0
LINE
  8
_1-3_細線2
  6
CONTINUOUS
 62
    4
 10
1247.1799423924442
 20
364.93408617858881
 11
1247.1799423924442
 21
325.46741951192212
  0
LINE
  8
_1-3_細線2
  6
CONTINUOUS
 62
    4
 10
1371.1799423924426
 20
364.93408617858881
 11
1371.1799423924426
 21
325.46741951192212
  0
LINE
  8
_1-3_細線2
  6
CONTINUOUS
 62
    4
 10
1308.7799423924416
 20
364.93408617858881
 11
1288.5132757257763
 21
364.93408617858881
  0
LINE
  8
_1-3_細線2
  6
CONTINUOUS
 62
    4
 10
1350.1132757257749
 20
364.93408617858881
 11
1329.8466090591085
 21
364.93408617858881
  0
LINE
  8
_1-3_細線2
  6
CONTINUOUS
 62
    4
 10
1391.4466090591086
 20
364.93408617858881
 11
1371.1799423924426
 21
364.93408617858881
  0
LINE
  8
_1-3_細線2
  6
CONTINUOUS
 62
    4
 10
1329.8466090591085
 20
364.93408617858881
 11
1329.8466090591085
 21
325.46741951192212
  0
LINE
  8
_1-3_細線2
  6
CONTINUOUS
 62
    4
 10
1288.5132757257763
 20
364.93408617858881
 11
1288.5132757257763
 21
325.46741951192212
  0
LINE
  8
_1-3_細線2
  6
CONTINUOUS
 62
    4
 10
1205.8466090591098
 20
364.93408617858881
 11
1226.1132757257765
 21
364.93408617858881
  0
LINE
  8
_1-3_細線2
  6
CONTINUOUS
 62
    4
 10
1226.1132757257765
 20
364.93408617858881
 11
1226.1132757257765
 21
325.46741951192212
  0
LINE
  8
_1-3_細線2
  6
CONTINUOUS
 62
    4
 10
1164.513275725777
 20
364.93408617858881
 11
1184.7799423924441
 21
364.93408617858881
  0
LINE
  8
_1-3_細線2
  6
CONTINUOUS
 62
    4
 10
1184.7799423924441
 20
364.93408617858881
 11
1184.7799423924441
 21
325.46741951192212
  0
LINE
  8
_1-3_細線2
  6
CONTINUOUS
 62
    4
 10
1102.1132757257785
 20
364.93408617858881
 11
1102.1132757257785
 21
325.46741951192212
  0
LINE
  8
_1-3_細線2
  6
CONTINUOUS
 62
    4
 10
1123.1799423924442
 20
364.93408617858881
 11
1143.4466090591113
 21
364.93408617858881
  0
LINE
  8
_1-3_細線2
  6
CONTINUOUS
 62
    4
 10
1081.8466090591121
 20
364.93408617858881
 11
1102.1132757257785
 21
364.93408617858881
  0
LINE
  8
_1-3_細線2
  6
CONTINUOUS
 62
    4
 10
1143.4466090591113
 20
364.93408617858881
 11
1143.4466090591113
 21
325.46741951192212
  0
ARC
  8
_1-3_細線2
  6
CONTINUOUS
 62
    4
 10
1391.4466090591095
 20
364.93408617858881
 40
3.1999999999999997
 50
0
 51
89.999999999999915
  0
LINE
  8
_1-3_細線2
  6
CONTINUOUS
 62
    4
 10
1367.9799423924419
 20
364.93408617858881
 11
1367.9799423924419
 21
325.46741951192212
  0
LINE
  8
_1-3_細線2
  6
CONTINUOUS
 62
    4
 10
1391.4466090591095
 20
368.13408617858909
 11
1371.1799423924419
 21
368.13408617858909
  0
ARC
  8
_1-3_細線2
  6
CONTINUOUS
 62
    4
 10
1371.1799423924419
 20
364.93408617858881
 40
3.1999999999999997
 50
89.999999999999915
 51
179.99999999999983
  0
ARC
  8
_1-3_細線2
  6
CONTINUOUS
 62
    4
 10
1350.1132757257756
 20
364.93408617858881
 40
3.1999999999999997
 50
0
 51
89.999999999999915
  0
LINE
  8
_1-3_細線2
  6
CONTINUOUS
 62
    4
 10
1326.6466090591093
 20
364.93408617858881
 11
1326.6466090591093
 21
325.46741951192212
  0
LINE
  8
_1-3_細線2
  6
CONTINUOUS
 62
    4
 10
1350.1132757257756
 20
368.13408617858909
 11
1329.8466090591098
 21
368.13408617858909
  0
ARC
  8
_1-3_細線2
  6
CONTINUOUS
 62
    4
 10
1329.8466090591098
 20
364.93408617858881
 40
3.1999999999999997
 50
89.999999999999915
 51
179.99999999999983
  0
ARC
  8
_1-3_細線2
  6
CONTINUOUS
 62
    4
 10
1308.7799423924423
 20
364.93408617858881
 40
3.1999999999999997
 50
0
 51
89.999999999999915
  0
LINE
  8
_1-3_細線2
  6
CONTINUOUS
 62
    4
 10
1285.3132757257756
 20
364.93408617858881
 11
1285.3132757257756
 21
325.46741951192212
  0
LINE
  8
_1-3_細線2
  6
CONTINUOUS
 62
    4
 10
1308.7799423924423
 20
368.13408617858909
 11
1288.5132757257757
 21
368.13408617858909
  0
ARC
  8
_1-3_細線2
  6
CONTINUOUS
 62
    4
 10
1288.5132757257757
 20
364.93408617858881
 40
3.1999999999999997
 50
89.999999999999915
 51
179.99999999999983
  0
ARC
  8
_1-3_細線2
  6
CONTINUOUS
 62
    4
 10
1267.4466090591102
 20
364.93408617858881
 40
3.1999999999999997
 50
0
 51
89.999999999999915
  0
LINE
  8
_1-3_細線2
  6
CONTINUOUS
 62
    4
 10
1243.9799423924435
 20
364.93408617858881
 11
1243.9799423924435
 21
325.46741951192212
  0
LINE
  8
_1-3_細線2
  6
CONTINUOUS
 62
    4
 10
1267.4466090591102
 20
368.13408617858909
 11
1247.1799423924435
 21
368.13408617858909
  0
ARC
  8
_1-3_細線2
  6
CONTINUOUS
 62
    4
 10
1247.1799423924435
 20
364.93408617858881
 40
3.1999999999999997
 50
89.999999999999915
 51
179.99999999999983
  0
LINE
  8
_1-3_細線2
  6
CONTINUOUS
 62
    4
 10
1229.313275725777
 20
364.93408617858881
 11
1229.313275725777
 21
325.46741951192212
  0
ARC
  8
_1-3_細線2
  6
CONTINUOUS
 62
    4
 10
1226.1132757257765
 20
364.93408617858881
 40
3.1999999999999997
 50
0
 51
89.999999999999915
  0
LINE
  8
_1-3_細線2
  6
CONTINUOUS
 62
    4
 10
1205.8466090591094
 20
368.13408617858909
 11
1226.1132757257765
 21
368.13408617858909
  0
ARC
  8
_1-3_細線2
  6
CONTINUOUS
 62
    4
 10
1205.8466090591094
 20
364.93408617858881
 40
3.1999999999999997
 50
89.999999999999915
 51
179.99999999999983
  0
LINE
  8
_1-3_細線2
  6
CONTINUOUS
 62
    4
 10
1187.9799423924442
 20
364.93408617858881
 11
1187.9799423924442
 21
325.46741951192212
  0
ARC
  8
_1-3_細線2
  6
CONTINUOUS
 62
    4
 10
1184.7799423924441
 20
364.93408617858881
 40
3.1999999999999997
 50
0
 51
89.999999999999915
  0
LINE
  8
_1-3_細線2
  6
CONTINUOUS
 62
    4
 10
1164.5132757257766
 20
368.13408617858909
 11
1184.7799423924441
 21
368.13408617858909
  0
ARC
  8
_1-3_細線2
  6
CONTINUOUS
 62
    4
 10
1164.5132757257768
 20
364.93408617858881
 40
3.1999999999999997
 50
90.000000000004064
 51
179.99999999999983
  0
LINE
  8
_1-3_細線2
  6
CONTINUOUS
 62
    4
 10
1146.6466090591114
 20
364.93408617858881
 11
1146.6466090591114
 21
325.46741951192212
  0
ARC
  8
_1-3_細線2
  6
CONTINUOUS
 62
    4
 10
1143.4466090591113
 20
364.93408617858881
 40
3.1999999999999997
 50
0
 51
89.999999999999915
  0
LINE
  8
_1-3_細線2
  6
CONTINUOUS
 62
    4
 10
1123.179942392444
 20
368.13408617858909
 11
1143.4466090591113
 21
368.13408617858909
  0
ARC
  8
_1-3_細線2
  6
CONTINUOUS
 62
    4
 10
1123.179942392444
 20
364.93408617858881
 40
3.1999999999999997
 50
89.999999999999915
 51
179.99999999999983
  0
LINE
  8
_1-3_細線2
  6
CONTINUOUS
 62
    4
 10
1105.3132757257772
 20
364.93408617858881
 11
1105.3132757257772
 21
325.46741951192212
  0
ARC
  8
_1-3_細線2
  6
CONTINUOUS
 62
    4
 10
1102.1132757257774
 20
364.93408617858881
 40
3.1999999999999997
 50
0
 51
89.999999999999915
  0
LINE
  8
_1-3_細線2
  6
CONTINUOUS
 62
    4
 10
1081.8466090591112
 20
368.13408617858909
 11
1102.1132757257774
 21
368.13408617858909
  0
ARC
  8
_1-3_細線2
  6
CONTINUOUS
 62
    4
 10
1081.8466090591112
 20
364.93408617858881
 40
3.1999999999999997
 50
89.999999999999915
 51
179.99999999999983
  0
LINE
  8
_1-3_細線2
  6
CONTINUOUS
 62
    4
 10
1102.1132757257785
 20
325.46741951192212
 11
1105.3132757257772
 21
325.46741951192212
  0
LINE
  8
_1-3_細線2
  6
CONTINUOUS
 62
    4
 10
1143.4466090591113
 20
325.46741951192212
 11
1146.6466090591114
 21
325.46741951192212
  0
LINE
  8
_1-3_細線2
  6
CONTINUOUS
 62
    4
 10
1184.7799423924441
 20
325.46741951192212
 11
1187.9799423924442
 21
325.46741951192212
  0
LINE
  8
_1-3_細線2
  6
CONTINUOUS
 62
    4
 10
1226.1132757257765
 20
325.46741951192212
 11
1229.313275725777
 21
325.46741951192212
  0
LINE
  8
_1-3_細線2
  6
CONTINUOUS
 62
    4
 10
1243.9799423924435
 20
325.46741951192212
 11
1247.1799423924442
 21
325.46741951192212
  0
LINE
  8
_1-3_細線2
  6
CONTINUOUS
 62
    4
 10
1285.3132757257756
 20
325.46741951192212
 11
1288.5132757257763
 21
325.46741951192212
  0
LINE
  8
_1-3_細線2
  6
CONTINUOUS
 62
    4
 10
1326.6466090591093
 20
325.46741951192212
 11
1329.8466090591085
 21
325.46741951192212
  0
LINE
  8
_1-3_細線2
  6
CONTINUOUS
 62
    4
 10
1367.9799423924419
 20
325.46741951192212
 11
1371.1799423924426
 21
325.46741951192212
  0
LINE
  8
_1-3_細線2
  6
CONTINUOUS
 62
    4
 10
1270.6466090591102
 20
352.13408580311375
 11
1267.4466090591095
 21
352.13408580311375
  0
LINE
  8
_1-3_細線2
  6
CONTINUOUS
 62
    4
 10
1394.6466090591093
 20
352.13408580311375
 11
1391.4466090591086
 21
352.13408580311375
  0
LINE
  8
_1-3_細線2
  6
CONTINUOUS
 62
    4
 10
1353.3132757257756
 20
352.13408580311375
 11
1350.1132757257749
 21
352.13408580311375
  0
LINE
  8
_1-3_細線2
  6
CONTINUOUS
 62
    4
 10
1311.9799423924424
 20
352.13408580311375
 11
1308.7799423924416
 21
352.13408580311375
  0
LINE
  8
_1-3_細線2
  6
CONTINUOUS
 62
    4
 10
1202.6466090591093
 20
352.13408580311375
 11
1205.8466090591101
 21
352.13408580311375
  0
LINE
  8
_1-3_細線2
  6
CONTINUOUS
 62
    4
 10
1161.313275725777
 20
352.13408580311375
 11
1164.5132757257777
 21
352.13408580311375
  0
LINE
  8
_1-3_細線2
  6
CONTINUOUS
 62
    4
 10
1078.6466090591114
 20
352.13408580311375
 11
1081.8466090591121
 21
352.13408580311375
  0
LINE
  8
_1-3_細線2
  6
CONTINUOUS
 62
    4
 10
1119.9799423924442
 20
352.13408580311375
 11
1123.1799423924449
 21
352.13408580311375
  0
LINE
  8
_1-3_細線2
  6
CONTINUOUS
 62
    4
 10
1267.4466090591095
 20
364.93408617858881
 11
1267.4466090591095
 21
352.13408580311375
  0
LINE
  8
_1-3_細線2
  6
CONTINUOUS
 62
    4
 10
1350.1132757257749
 20
364.93408617858881
 11
1350.1132757257749
 21
352.13408580311375
  0
LINE
  8
_1-3_細線2
  6
CONTINUOUS
 62
    4
 10
1391.4466090591086
 20
364.93408617858881
 11
1391.4466090591086
 21
352.13408580311375
  0
LINE
  8
_1-3_細線2
  6
CONTINUOUS
 62
    4
 10
1308.7799423924416
 20
364.93408617858881
 11
1308.7799423924416
 21
352.13408580311375
  0
LINE
  8
_1-3_細線2
  6
CONTINUOUS
 62
    4
 10
1205.8466090591098
 20
364.93408617858881
 11
1205.8466090591101
 21
352.13408580311375
  0
LINE
  8
_1-3_細線2
  6
CONTINUOUS
 62
    4
 10
1164.513275725777
 20
364.93408617858881
 11
1164.5132757257777
 21
352.13408580311375
  0
LINE
  8
_1-3_細線2
  6
CONTINUOUS
 62
    4
 10
1081.8466090591121
 20
364.93408617858881
 11
1081.8466090591121
 21
352.13408580311375
  0
LINE
  8
_1-3_細線2
  6
CONTINUOUS
 62
    4
 10
1123.1799423924442
 20
364.93408617858881
 11
1123.1799423924449
 21
352.13408580311375
  0
LINE
  8
_1-3_細線2
  6
CONTINUOUS
 62
    4
 10
1394.6466090591093
 20
364.93408617858881
 11
1394.6466090591093
 21
352.13408580311375
  0
LINE
  8
_1-3_細線2
  6
CONTINUOUS
 62
    4
 10
1353.3132757257756
 20
364.93408617858881
 11
1353.3132757257756
 21
352.13408580311375
  0
LINE
  8
_1-3_細線2
  6
CONTINUOUS
 62
    4
 10
1311.9799423924424
 20
364.93408617858881
 11
1311.9799423924424
 21
352.13408580311375
  0
LINE
  8
_1-3_細線2
  6
CONTINUOUS
 62
    4
 10
1270.6466090591102
 20
364.93408617858881
 11
1270.6466090591102
 21
352.13408580311375
  0
LINE
  8
_1-3_細線2
  6
CONTINUOUS
 62
    4
 10
1202.6466090591093
 20
364.93408617858881
 11
1202.6466090591093
 21
352.13408580311375
  0
LINE
  8
_1-3_細線2
  6
CONTINUOUS
 62
    4
 10
1161.313275725777
 20
364.93408617858881
 11
1161.313275725777
 21
352.13408580311375
  0
LINE
  8
_1-3_細線2
  6
CONTINUOUS
 62
    4
 10
1119.9799423924442
 20
364.93408617858881
 11
1119.9799423924442
 21
352.13408580311375
  0
LINE
  8
_1-3_細線2
  6
CONTINUOUS
 62
    4
 10
1078.6466090591114
 20
364.93408617858881
 11
1078.6466090591114
 21
352.13408580311375
  0
ARC
  8
_1-3_細線2
  6
CONTINUOUS
 62
    4
 10
1089.321947725778
 20
326.00075246978145
 40
0.5333333333333335
 50
179.99999999999983
 51
269.99999999999977
  0
LINE
  8
_1-3_細線2
  6
CONTINUOUS
 62
    4
 10
1091.446609059112
 20
325.46741913644769
 11
1089.321947725778
 21
325.46741913644769
  0
ARC
  8
_1-3_細線2
  6
CONTINUOUS
 62
    4
 10
1089.321947725778
 20
351.6007524697809
 40
0.5333333333333335
 50
89.999999999999915
 51
179.99999999999983
  0
LINE
  8
_1-3_細線2
  6
CONTINUOUS
 62
    4
 10
1091.446609059112
 20
352.13408580311466
 11
1089.321947725778
 21
352.13408580311466
  0
LINE
  8
_1-3_細線2
  6
CONTINUOUS
 62
    4
 10
1088.7886143924436
 20
337.46741913644769
 11
1088.7886143924436
 21
326.00075246978145
  0
LINE
  8
_1-3_細線2
  6
CONTINUOUS
 62
    4
 10
1088.7886143924436
 20
351.6007524697809
 11
1088.7886143924436
 21
337.46741913644769
  0
ARC
  8
_1-3_細線2
  6
CONTINUOUS
 62
    4
 10
1092.7799423924453
 20
362.80075246978072
 40
1.333333333333333
 50
89.999999999999915
 51
179.99999999999983
  0
LINE
  8
_1-3_細線2
  6
CONTINUOUS
 62
    4
 10
1100.7799423924453
 20
364.13408580311375
 11
1092.7799423924453
 21
364.13408580311375
  0
ARC
  8
_1-3_細線2
  6
CONTINUOUS
 62
    4
 10
1100.7799423924453
 20
362.80075246978072
 40
1.333333333333333
 50
0
 51
89.999999999999915
  0
LINE
  8
_1-3_細線2
  6
CONTINUOUS
 62
    4
 10
1091.446609059112
 20
362.80075246978072
 11
1091.446609059112
 21
321.46741913644723
  0
ARC
  8
_1-3_細線2
  6
CONTINUOUS
 62
    4
 10
1092.7799423924453
 20
321.46741913644723
 40
1.333333333333333
 50
179.99999999999983
 51
269.99999999999977
  0
LINE
  8
_1-3_細線2
  6
CONTINUOUS
 62
    4
 10
1092.7799423924453
 20
320.13408580311375
 11
1100.7799423924453
 21
320.13408580311375
  0
LINE
  8
_1-3_細線2
  6
CONTINUOUS
 62
    4
 10
1102.1132757257785
 20
321.46741913644723
 11
1102.1132757257785
 21
362.80075246978072
  0
ARC
  8
_1-3_細線2
  6
CONTINUOUS
 62
    4
 10
1100.7799423924453
 20
321.46741913644723
 40
1.333333333333333
 50
269.99999999999977
 51
359.99999999999966
  0
LINE
  8
_1-3_細線2
  6
CONTINUOUS
 62
    4
 10
1105.3132757257783
 20
329.60075246978045
 11
1143.4466090591113
 21
329.60075246978045
  0
LINE
  8
_1-3_細線2
  6
CONTINUOUS
 62
    4
 10
1105.3132757257783
 20
348.00075246978054
 11
1143.4466090591113
 21
348.00075246978054
  0
LINE
  8
_1-3_細線2
  6
CONTINUOUS
 62
    4
 10
1146.6466090591123
 20
329.60075246978045
 11
1184.7799423924453
 21
329.60075246978045
  0
LINE
  8
_1-3_細線2
  6
CONTINUOUS
 62
    4
 10
1146.6466090591123
 20
348.00075246978054
 11
1184.7799423924453
 21
348.00075246978054
  0
LINE
  8
_1-3_細線2
  6
CONTINUOUS
 62
    4
 10
1187.9799423924451
 20
329.60075246978045
 11
1226.1132757257778
 21
329.60075246978045
  0
LINE
  8
_1-3_細線2
  6
CONTINUOUS
 62
    4
 10
1187.9799423924451
 20
348.00075246978054
 11
1226.1132757257778
 21
348.00075246978054
  0
LINE
  8
_1-3_細線2
  6
CONTINUOUS
 62
    4
 10
1229.3132757257777
 20
348.00075246978054
 11
1243.9799423924435
 21
348.00075246978054
  0
LINE
  8
_1-3_細線2
  6
CONTINUOUS
 62
    4
 10
1229.3132757257777
 20
329.60075246978045
 11
1243.9799423924435
 21
329.60075246978045
  0
ARC
  8
_1-3_細線2
  6
CONTINUOUS
 62
    4
 10
1383.9712706645755
 20
326.00075246978145
 40
0.5333333333333335
 50
269.99999999999977
 51
359.99999999999966
  0
LINE
  8
_1-3_細線2
  6
CONTINUOUS
 62
    4
 10
1381.8466093312418
 20
325.46741913644769
 11
1383.9712706645755
 21
325.46741913644769
  0
ARC
  8
_1-3_細線2
  6
CONTINUOUS
 62
    4
 10
1383.9712706645755
 20
351.6007524697809
 40
0.5333333333333335
 50
0
 51
89.999999999999915
  0
LINE
  8
_1-3_細線2
  6
CONTINUOUS
 62
    4
 10
1381.8466093312418
 20
352.13408580311466
 11
1383.9712706645755
 21
352.13408580311466
  0
LINE
  8
_1-3_細線2
  6
CONTINUOUS
 62
    4
 10
1384.5046039979097
 20
337.46741913644769
 11
1384.5046039979097
 21
326.00075246978145
  0
LINE
  8
_1-3_細線2
  6
CONTINUOUS
 62
    4
 10
1384.5046039979097
 20
351.6007524697809
 11
1384.5046039979097
 21
337.46741913644769
  0
ARC
  8
_1-3_細線2
  6
CONTINUOUS
 62
    4
 10
1380.5132759979083
 20
362.80075246978072
 40
1.333333333333333
 50
0
 51
89.999999999999915
  0
LINE
  8
_1-3_細線2
  6
CONTINUOUS
 62
    4
 10
1372.5132759979083
 20
364.13408580311375
 11
1380.5132759979083
 21
364.13408580311375
  0
ARC
  8
_1-3_細線2
  6
CONTINUOUS
 62
    4
 10
1372.5132759979083
 20
362.80075246978072
 40
1.333333333333333
 50
89.999999999999915
 51
179.99999999999983
  0
LINE
  8
_1-3_細線2
  6
CONTINUOUS
 62
    4
 10
1381.8466093312418
 20
362.80075246978072
 11
1381.8466093312418
 21
321.46741913644723
  0
ARC
  8
_1-3_細線2
  6
CONTINUOUS
 62
    4
 10
1380.5132759979083
 20
321.46741913644723
 40
1.333333333333333
 50
269.99999999999977
 51
359.99999999999966
  0
LINE
  8
_1-3_細線2
  6
CONTINUOUS
 62
    4
 10
1380.5132759979083
 20
320.13408580311375
 11
1372.5132759979083
 21
320.13408580311375
  0
LINE
  8
_1-3_細線2
  6
CONTINUOUS
 62
    4
 10
1371.179942664575
 20
321.46741913644723
 11
1371.179942664575
 21
362.80075246978072
  0
ARC
  8
_1-3_細線2
  6
CONTINUOUS
 62
    4
 10
1372.5132759979083
 20
321.46741913644723
 40
1.333333333333333
 50
179.99999999999983
 51
269.99999999999977
  0
LINE
  8
_1-3_細線2
  6
CONTINUOUS
 62
    4
 10
1367.979942664575
 20
329.60075246978045
 11
1329.8466093312422
 21
329.60075246978045
  0
LINE
  8
_1-3_細線2
  6
CONTINUOUS
 62
    4
 10
1367.979942664575
 20
348.00075246978054
 11
1329.8466093312422
 21
348.00075246978054
  0
LINE
  8
_1-3_細線2
  6
CONTINUOUS
 62
    4
 10
1326.6466093312411
 20
329.60075246978045
 11
1288.5132759979083
 21
329.60075246978045
  0
LINE
  8
_1-3_細線2
  6
CONTINUOUS
 62
    4
 10
1326.6466093312411
 20
348.00075246978054
 11
1288.5132759979083
 21
348.00075246978054
  0
LINE
  8
_1-3_細線2
  6
CONTINUOUS
 62
    4
 10
1285.3132759979082
 20
329.60075246978045
 11
1247.1799426645757
 21
329.60075246978045
  0
LINE
  8
_1-3_細線2
  6
CONTINUOUS
 62
    4
 10
1285.3132759979082
 20
348.00075246978054
 11
1247.1799426645757
 21
348.00075246978054
  0
LINE
  8
_1-2_極細2
  6
CENTER1
 62
    2
 10
1077.4468560396967
 20
338.80075246978072
 11
1396.8959486174879
 21
338.80075246978072
  0
LINE
  8
_1-2_極細2
  6
CONTINUOUS
 62
    2
 10
1088.7886143924436
 20
338.80075246978072
 11
1080.7765717257766
 21
338.80075246978072
  0
LINE
  8
_1-3_細線2
  6
CONTINUOUS
 62
    4
 10
1088.7886143924436
 20
329.4674191364486
 11
1080.7765397257783
 21
329.4674191364486
  0
ARC
  8
_1-3_細線2
  6
CONTINUOUS
 62
    4
 10
1080.7765397257783
 20
330.00075246978145
 40
0.5333333333333335
 50
179.99999999999983
 51
269.99999999999977
  0
ARC
  8
_1-2_極細2
  6
CONTINUOUS
 62
    2
 10
1100.9311530591106
 20
334.13369646978231
 40
20.687882666666667
 50
166.96197800000505
 51
193.03566999999961
  0
ARC
  8
_1-3_細線2
  6
CONTINUOUS
 62
    4
 10
1080.7765397257783
 20
347.60075246978181
 40
0.5333333333333335
 50
89.999999999999915
 51
179.99999999999983
  0
ARC
  8
_1-2_極細2
  6
CONTINUOUS
 62
    2
 10
1100.9311530591106
 20
343.46780313644763
 40
20.687882666666667
 50
166.96433000000002
 51
193.0380219999995
  0
LINE
  8
_1-3_細線2
  6
CONTINUOUS
 62
    4
 10
1088.7886143924436
 20
348.13408580311466
 11
1080.7765397257783
 21
348.13408580311466
  0
LINE
  8
_1-3_細線2
  6
CONTINUOUS
 62
    4
 10
1080.2432063924439
 20
330.00075246978145
 11
1080.2432063924439
 21
347.60075246978181
  0
LINE
  8
_1-2_極細2
  6
CONTINUOUS
 62
    2
 10
1384.5046039979097
 20
338.80075246978072
 11
1392.5166466645769
 21
338.80075246978072
  0
LINE
  8
_1-3_細線2
  6
CONTINUOUS
 62
    4
 10
1384.5046039979097
 20
329.4674191364486
 11
1392.516678664575
 21
329.4674191364486
  0
ARC
  8
_1-3_細線2
  6
CONTINUOUS
 62
    4
 10
1392.516678664575
 20
330.00075246978145
 40
0.5333333333333335
 50
269.99999999999977
 51
359.99999999999966
  0
ARC
  8
_1-2_極細2
  6
CONTINUOUS
 62
    2
 10
1372.3620653312428
 20
334.13369646978231
 40
20.687882666666667
 50
346.96432999999968
 51
13.038021999994573
  0
ARC
  8
_1-3_細線2
  6
CONTINUOUS
 62
    4
 10
1392.516678664575
 20
347.60075246978181
 40
0.5333333333333335
 50
0
 51
89.999999999999915
  0
ARC
  8
_1-2_極細2
  6
CONTINUOUS
 62
    2
 10
1372.3620653312428
 20
343.46780313644763
 40
20.687882666666667
 50
346.96197799999976
 51
13.035669999999625
  0
LINE
  8
_1-3_細線2
  6
CONTINUOUS
 62
    4
 10
1384.5046039979097
 20
348.13408580311466
 11
1392.516678664575
 21
348.13408580311466
  0
LINE
  8
_1-3_細線2
  6
CONTINUOUS
 62
    4
 10
1393.0500119979095
 20
330.00075246978145
 11
1393.0500119979095
 21
347.60075246978181
  0
LINE
  8
_1-2_極細2
  6
CENTER1
 62
    2
 10
1236.6466090591093
 20
394.92891004983653
 11
1236.6466090591093
 21
300.53576102718557
  0
LINE
  8
_1-5_寸法2
  6
CONTINUOUS
 62
    7
 10
1044.6466090591093
 20
386.80075246978072
 11
1044.6466090591093
 21
570.80075246978072
  0
LINE
  8
_1-5_寸法2
  6
CONTINUOUS
 62
    7
 10
1044.6466090591093
 20
562.80075246978072
 11
1060.1014222797344
 21
566.94185719142104
  0
LINE
  8
_1-5_寸法2
  6
CONTINUOUS
 62
    7
 10
1044.6466090591093
 20
562.80075246978072
 11
1060.1014222797344
 21
558.6596477481404
  0
LINE
  8
_1-5_寸法2
  6
CONTINUOUS
 62
    7
 10
1428.6466090591093
 20
386.80075246978072
 11
1428.6466090591093
 21
570.80075246978072
  0
LINE
  8
_1-5_寸法2
  6
CONTINUOUS
 62
    7
 10
1428.6466090591093
 20
562.80075246978072
 11
1413.1917958384843
 21
558.6596477481404
  0
LINE
  8
_1-5_寸法2
  6
CONTINUOUS
 62
    7
 10
1428.6466090591093
 20
562.80075246978072
 11
1413.1917958384843
 21
566.94185719142115
  0
LINE
  8
_1-5_寸法2
  6
CONTINUOUS
 62
    7
 10
1044.6466090591093
 20
562.80075246978072
 11
1428.6466090591093
 21
562.80075246978072
  0
TEXT
  8
_1-5_寸法2
 62
    7
 10
1218.6466090591093
 20
562.80075246978072
 40
24
 41
1
 50
0
  1
144
  0
LINE
  8
_1-5_寸法2
  6
CONTINUOUS
 62
    7
 10
1399.3132757257763
 20
386.80075246978072
 11
1399.3132757257767
 21
514.80075246978072
  0
LINE
  8
_1-5_寸法2
  6
CONTINUOUS
 62
    7
 10
1399.3132757257767
 20
506.80075246978072
 11
1414.7680889464018
 21
510.94185719142104
  0
LINE
  8
_1-5_寸法2
  6
CONTINUOUS
 62
    7
 10
1399.3132757257767
 20
506.80075246978072
 11
1414.7680889464018
 21
502.6596477481404
  0
LINE
  8
_1-5_寸法2
  6
CONTINUOUS
 62
    7
 10
1428.6466090591093
 20
386.80075246978072
 11
1428.64660905911
 21
514.80075246978072
  0
LINE
  8
_1-5_寸法2
  6
CONTINUOUS
 62
    7
 10
1428.64660905911
 20
506.80075246978072
 11
1413.1917958384849
 21
502.65964774814046
  0
LINE
  8
_1-5_寸法2
  6
CONTINUOUS
 62
    7
 10
1428.64660905911
 20
506.80075246978072
 11
1413.1917958384849
 21
510.94185719142109
  0
LINE
  8
_1-5_寸法2
  6
CONTINUOUS
 62
    7
 10
1399.3132757257767
 20
506.80075246978072
 11
1428.64660905911
 21
506.80075246978072
  0
TEXT
  8
_1-5_寸法2
 62
    7
 10
1401.9799423924435
 20
506.80075246978072
 40
24
 41
1
 50
0
  1
11
  0
LINE
  8
_1-5_寸法2
  6
CONTINUOUS
 62
    7
 10
1078.6466090591114
 20
386.80075246978072
 11
1078.6466090591116
 21
514.80075246978072
  0
LINE
  8
_1-5_寸法2
  6
CONTINUOUS
 62
    7
 10
1078.6466090591116
 20
506.80075246978072
 11
1094.1014222797367
 21
510.94185719142104
  0
LINE
  8
_1-5_寸法2
  6
CONTINUOUS
 62
    7
 10
1078.6466090591116
 20
506.80075246978072
 11
1094.1014222797367
 21
502.6596477481404
  0
LINE
  8
_1-5_寸法2
  6
CONTINUOUS
 62
    7
 10
1394.6466090591093
 20
386.80075246978072
 11
1394.6466090591102
 21
514.80075246978072
  0
LINE
  8
_1-5_寸法2
  6
CONTINUOUS
 62
    7
 10
1394.6466090591102
 20
506.80075246978072
 11
1379.1917958384852
 21
502.65964774814046
  0
LINE
  8
_1-5_寸法2
  6
CONTINUOUS
 62
    7
 10
1394.6466090591102
 20
506.80075246978072
 11
1379.1917958384852
 21
510.94185719142109
  0
LINE
  8
_1-5_寸法2
  6
CONTINUOUS
 62
    7
 10
1078.6466090591116
 20
506.80075246978072
 11
1394.6466090591102
 21
506.80075246978072
  0
TEXT
  8
_1-5_寸法2
 62
    7
 10
1206.6466090591107
 20
506.80075246978072
 40
24
 41
1
 50
0
  1
118.5
  0
LINE
  8
_1-5_寸法2
  6
CONTINUOUS
 62
    7
 10
1044.6466090591093
 20
386.80075246978072
 11
1044.64660905911
 21
514.80075246978072
  0
LINE
  8
_1-5_寸法2
  6
CONTINUOUS
 62
    7
 10
1044.64660905911
 20
506.80075246978072
 11
1060.1014222797351
 21
510.94185719142104
  0
LINE
  8
_1-5_寸法2
  6
CONTINUOUS
 62
    7
 10
1044.64660905911
 20
506.80075246978072
 11
1060.1014222797351
 21
502.6596477481404
  0
LINE
  8
_1-5_寸法2
  6
CONTINUOUS
 62
    7
 10
1073.9799423924426
 20
386.80075246978072
 11
1073.9799423924428
 21
514.80075246978072
  0
LINE
  8
_1-5_寸法2
  6
CONTINUOUS
 62
    7
 10
1073.9799423924428
 20
506.80075246978072
 11
1058.5251291718178
 21
502.65964774814046
  0
LINE
  8
_1-5_寸法2
  6
CONTINUOUS
 62
    7
 10
1073.9799423924428
 20
506.80075246978072
 11
1058.5251291718178
 21
510.94185719142109
  0
LINE
  8
_1-5_寸法2
  6
CONTINUOUS
 62
    7
 10
1044.64660905911
 20
506.80075246978072
 11
1073.9799423924428
 21
506.80075246978072
  0
TEXT
  8
_1-5_寸法2
 62
    7
 10
1047.3132757257767
 20
506.80075246978072
 40
24
 41
1
 50
0
  1
11
  0
LINE
  8
_1-5_寸法2
  6
CONTINUOUS
 62
    7
 10
1187.9799423924442
 20
386.80075246978072
 11
1187.9799423924444
 21
458.80075246978072
  0
LINE
  8
_1-5_寸法2
  6
CONTINUOUS
 62
    7
 10
1187.9799423924444
 20
450.80075246978072
 11
1172.5251291718193
 21
446.65964774814046
  0
LINE
  8
_1-5_寸法2
  6
CONTINUOUS
 62
    7
 10
1187.9799423924444
 20
450.80075246978072
 11
1172.5251291718193
 21
454.94185719142109
  0
LINE
  8
_1-5_寸法2
  6
CONTINUOUS
 62
    7
 10
1202.6466090591096
 20
386.80075246978072
 11
1202.64660905911
 21
458.80075246978072
  0
LINE
  8
_1-5_寸法2
  6
CONTINUOUS
 62
    7
 10
1134.0625320021099
 20
450.80075246978072
 11
1202.64660905911
 21
450.80075246978072
  0
TEXT
  8
_1-5_寸法2
 62
    7
 10
1134.0625320021099
 20
450.80075246978072
 40
24
 41
1
 50
0
  1
5.5
  0
LINE
  8
_1-5_寸法2
  6
CONTINUOUS
 62
    7
 10
1202.64660905911
 20
450.80075246978072
 11
1218.1014222797351
 21
454.94185719142092
  0
LINE
  8
_1-5_寸法2
  6
CONTINUOUS
 62
    7
 10
1202.64660905911
 20
450.80075246978072
 11
1218.1014222797351
 21
446.65964774814029
  0
LINE
  8
_1-5_寸法2
  6
CONTINUOUS
 62
    7
 10
1229.313275725777
 20
386.80075246978072
 11
1229.313275725777
 21
458.80075246978072
  0
LINE
  8
_1-5_寸法2
  6
CONTINUOUS
 62
    7
 10
1229.313275725777
 20
450.80075246978072
 11
1213.8584625051519
 21
446.65964774814046
  0
LINE
  8
_1-5_寸法2
  6
CONTINUOUS
 62
    7
 10
1229.313275725777
 20
450.80075246978072
 11
1213.8584625051519
 21
454.94185719142109
  0
LINE
  8
_1-5_寸法2
  6
CONTINUOUS
 62
    7
 10
1202.64660905911
 20
450.80075246978072
 11
1229.313275725777
 21
450.80075246978072
  0
TEXT
  8
_1-5_寸法2
 62
    7
 10
1203.9799423924439
 20
450.80075246978072
 40
24
 41
1
 50
0
  1
10
  0
LINE
  8
_1-5_寸法2
  6
CONTINUOUS
 62
    7
 10
1028.6466090591093
 20
370.80075246978083
 11
956.64660905910932
 21
370.80075246978123
  0
LINE
  8
_1-5_寸法2
  6
CONTINUOUS
 62
    7
 10
964.64660905910932
 20
370.80075246978117
 11
968.78771378074964
 21
355.34593924915606
  0
LINE
  8
_1-5_寸法2
  6
CONTINUOUS
 62
    7
 10
964.64660905910932
 20
370.80075246978117
 11
960.50550433746901
 21
355.34593924915606
  0
LINE
  8
_1-5_寸法2
  6
CONTINUOUS
 62
    7
 10
1055.3132757257758
 20
317.46741913644723
 11
956.64660905910932
 21
317.46741913644769
  0
LINE
  8
_1-5_寸法2
  6
CONTINUOUS
 62
    7
 10
964.64660905910932
 20
317.46741913644769
 11
960.50550433746901
 21
332.9222323570728
  0
LINE
  8
_1-5_寸法2
  6
CONTINUOUS
 62
    7
 10
964.64660905910932
 20
317.46741913644769
 11
968.78771378074964
 21
332.9222323570728
  0
LINE
  8
_1-5_寸法2
  6
CONTINUOUS
 62
    7
 10
964.64660905910932
 20
370.80075246978117
 11
964.64660905910932
 21
317.46741913644769
  0
TEXT
  8
_1-5_寸法2
 62
    7
 10
964.64660905910932
 20
332.1340858031142
 40
24
 41
1
 50
90
  1
20
  0
LINE
  8
_1-5_寸法2
  6
CONTINUOUS
 62
    7
 10
1444.6466090591086
 20
349.46741913644706
 11
1516.6466090591091
 21
349.46741913644621
  0
LINE
  8
_1-5_寸法2
  6
CONTINUOUS
 62
    7
 10
1508.6466090591091
 20
349.46741913644632
 11
1504.5055043374689
 21
364.92223235707144
  0
LINE
  8
_1-5_寸法2
  6
CONTINUOUS
 62
    7
 10
1508.6466090591091
 20
349.46741913644632
 11
1512.7877137807495
 21
364.92223235707144
  0
LINE
  8
_1-5_寸法2
  6
CONTINUOUS
 62
    7
 10
1444.6466090591086
 20
370.80075246978055
 11
1516.6466090591091
 21
370.8007524697797
  0
LINE
  8
_1-5_寸法2
  6
CONTINUOUS
 62
    7
 10
1508.6466090591091
 20
370.80075246977981
 11
1512.7877137807495
 21
355.3459392491547
  0
LINE
  8
_1-5_寸法2
  6
CONTINUOUS
 62
    7
 10
1508.6466090591091
 20
370.80075246977981
 11
1504.5055043374689
 21
355.3459392491547
  0
LINE
  8
_1-5_寸法2
  6
CONTINUOUS
 62
    7
 10
1508.6466090591091
 20
349.46741913644632
 11
1508.6466090591091
 21
370.80075246977981
  0
TEXT
  8
_1-5_寸法2
 62
    7
 10
1508.6466090591091
 20
354.13408580311329
 40
24
 41
1
 50
90
  1
8
  0
TEXT
  8
_0-7_枠細線
 62
    5
 10
1156.6466090591096
 20
241.7197855124806
 40
40
 41
0.8
 50
0
  1
断面詳細図
  0
TEXT
  8
_0-7_枠細線
 62
    5
 10
1340.5649606577792
 20
244.87652132082178
 40
32
 41
0.6
 50
0
  1
Ｓ＝１：３
  0
LINE
  8
_0-a_極細1
  6
CONTINUOUS
 62
    7
 10
714.85332083452499
 20
623.22851346008292
 11
734.05331891452602
 21
623.22851346008292
  0
LINE
  8
_0-a_極細1
  6
CONTINUOUS
 62
    7
 10
714.85332083452499
 20
624.29518002008308
 11
734.05331891452602
 21
624.29518002008308
  0
LINE
  8
_0-a_極細1
  6
CONTINUOUS
 62
    7
 10
714.68144494179774
 20
625.36184658008278
 11
734.05331891452602
 21
625.36184658008278
  0
LINE
  8
_0-a_極細1
  6
CONTINUOUS
 62
    7
 10
713.61477838179758
 20
626.42851314008294
 11
734.05331891452602
 21
626.42851314008294
  0
LINE
  8
_0-a_極細1
  6
CONTINUOUS
 62
    7
 10
712.54811182179742
 20
627.49517970008287
 11
734.05331891452602
 21
627.49517970008287
  0
LINE
  8
_0-a_極細1
  6
CONTINUOUS
 62
    7
 10
712.89186360725193
 20
628.56184626008303
 11
734.05331891452602
 21
628.56184626008303
  0
LINE
  8
_0-a_極細1
  6
CONTINUOUS
 62
    7
 10
713.95853016725209
 20
629.62851282008319
 11
734.05331891452602
 21
629.62851282008319
  0
LINE
  8
_0-a_極細1
  6
CONTINUOUS
 62
    7
 10
714.85332083452499
 20
630.69517938008312
 11
734.05331891452602
 21
630.69517938008312
  0
LINE
  8
_0-a_極細1
  6
CONTINUOUS
 62
    7
 10
714.85332083452499
 20
631.76184594008328
 11
734.05331891452602
 21
631.76184594008328
  0
LINE
  8
_0-a_極細1
  6
CONTINUOUS
 62
    7
 10
714.85332083452499
 20
632.82851250008343
 11
734.05331891452602
 21
632.82851250008343
  0
LINE
  8
_0-a_極細1
  6
CONTINUOUS
 62
    7
 10
714.85332083452499
 20
633.89517906008314
 11
734.05331891452602
 21
633.89517906008314
  0
LINE
  8
_0-a_極細1
  6
CONTINUOUS
 62
    7
 10
714.85332083452499
 20
634.9618456200833
 11
734.05331891452602
 21
634.9618456200833
  0
LINE
  8
_0-a_極細1
  6
CONTINUOUS
 62
    7
 10
714.85332083452499
 20
636.02851218008345
 11
734.05331891452602
 21
636.02851218008345
  0
LINE
  8
_0-a_極細1
  6
CONTINUOUS
 62
    7
 10
714.85332083452499
 20
637.09517874008316
 11
734.05331891452602
 21
637.09517874008316
  0
LINE
  8
_0-a_極細1
  6
CONTINUOUS
 62
    7
 10
714.14811166179675
 20
638.16184530008331
 11
734.42943047331414
 21
638.16184530008331
  0
LINE
  8
_0-a_極細1
  6
CONTINUOUS
 62
    7
 10
713.08144510179659
 20
639.22851186008347
 11
734.99831930531377
 21
639.22851186008347
  0
LINE
  8
_0-a_極細1
  6
CONTINUOUS
 62
    7
 10
712.35853032725277
 20
640.29517842008363
 11
735.56720813731386
 21
640.29517842008363
  0
LINE
  8
_0-a_極細1
  6
CONTINUOUS
 62
    7
 10
713.42519688725292
 20
641.36184498008333
 11
736.13609696931394
 21
641.36184498008333
  0
LINE
  8
_0-a_極細1
  6
CONTINUOUS
 62
    7
 10
714.49186344725263
 20
642.42851154008395
 11
736.70498580131402
 21
642.42851154008395
  0
LINE
  8
_0-a_極細1
  6
CONTINUOUS
 62
    7
 10
714.85332083452499
 20
643.49517810008342
 11
737.27387463331411
 21
643.49517810008342
  0
LINE
  8
_0-a_極細1
  6
CONTINUOUS
 62
    7
 10
714.85332083452499
 20
644.56184466008358
 11
737.84276346531328
 21
644.56184466008358
  0
LINE
  8
_0-a_極細1
  6
CONTINUOUS
 62
    7
 10
768.76300711913404
 20
597.20041182855653
 11
768.76300711913404
 21
679.52011238149089
  0
LINE
  8
_0-a_極細1
  6
CONTINUOUS
 62
    7
 10
767.69634055913434
 20
596.13374526855659
 11
767.69634055913434
 21
679.2893841279456
  0
LINE
  8
_0-a_極細1
  6
CONTINUOUS
 62
    7
 10
766.62967399913464
 20
595.06707870855689
 11
766.62967399913464
 21
678.81958009889036
  0
LINE
  8
_0-a_極細1
  6
CONTINUOUS
 62
    7
 10
765.56300743913448
 20
594.00041214855673
 11
765.56300743913448
 21
678.02876269289891
  0
LINE
  8
_0-a_極細1
  6
CONTINUOUS
 62
    7
 10
764.49634087913432
 20
592.93374558855703
 11
764.49634087913432
 21
676.64731869320303
  0
LINE
  8
_0-a_極細1
  6
CONTINUOUS
 62
    7
 10
763.42967431913416
 20
591.86707902855687
 11
763.42967431913416
 21
672.48973196209135
  0
LINE
  8
_0-a_極細1
  6
CONTINUOUS
 62
    7
 10
762.36300775913401
 20
590.80041246855671
 11
762.36300775913401
 21
670.2803438566998
  0
LINE
  8
_0-a_極細1
  6
CONTINUOUS
 62
    7
 10
761.29634119913385
 20
589.95738754394779
 11
761.29634119913385
 21
668.95931924637239
  0
LINE
  8
_0-a_極細1
  6
CONTINUOUS
 62
    7
 10
760.22967463913369
 20
589.95738754394779
 11
760.22967463913369
 21
668.02478297231255
  0
LINE
  8
_0-a_極細1
  6
CONTINUOUS
 62
    7
 10
759.16300807913353
 20
589.95738754394779
 11
759.16300807913353
 21
667.33927438526871
  0
LINE
  8
_0-a_極細1
  6
CONTINUOUS
 62
    7
 10
758.09634151913338
 20
589.95738754394779
 11
758.09634151913338
 21
666.84195820576815
  0
LINE
  8
_0-a_極細1
  6
CONTINUOUS
 62
    7
 10
757.02967495913413
 20
589.95738754394779
 11
757.02967495913413
 21
666.50083337642809
  0
LINE
  8
_0-a_極細1
  6
CONTINUOUS
 62
    7
 10
755.96300839913397
 20
589.95738754394779
 11
755.96300839913397
 21
666.29810744106044
  0
LINE
  8
_0-a_極細1
  6
CONTINUOUS
 62
    7
 10
754.89634183913381
 20
589.95738754394779
 11
754.89634183913381
 21
666.2244916034856
  0
LINE
  8
_0-a_極細1
  6
CONTINUOUS
 62
    7
 10
753.82967527913365
 20
589.95738754394779
 11
753.82967527913365
 21
666.22404658394817
  0
LINE
  8
_0-a_極細1
  6
CONTINUOUS
 62
    7
 10
752.7630087191335
 20
589.95738754394779
 11
752.7630087191335
 21
666.22404658394817
  0
LINE
  8
_0-a_極細1
  6
CONTINUOUS
 62
    7
 10
751.69634215913379
 20
589.95738754394779
 11
751.69634215913379
 21
666.22404658394817
  0
LINE
  8
_0-a_極細1
  6
CONTINUOUS
 62
    7
 10
750.62967559913363
 20
589.95738754394779
 11
750.62967559913363
 21
666.22404658394817
  0
LINE
  8
_0-a_極細1
  6
CONTINUOUS
 62
    7
 10
749.56300903913348
 20
589.95738754394779
 11
749.56300903913348
 21
666.22404658394817
  0
LINE
  8
_0-a_極細1
  6
CONTINUOUS
 62
    7
 10
748.49634247913377
 20
589.95738754394779
 11
748.49634247913377
 21
666.22404658394817
  0
LINE
  8
_0-a_極細1
  6
CONTINUOUS
 62
    7
 10
747.42967591913362
 20
589.95738754394779
 11
747.42967591913362
 21
666.12969439872859
  0
LINE
  8
_0-a_極細1
  6
CONTINUOUS
 62
    7
 10
746.36300935913346
 20
589.95738754394779
 11
746.36300935913346
 21
665.8192955221034
  0
LINE
  8
_0-a_極細1
  6
CONTINUOUS
 62
    7
 10
745.2963427991333
 20
589.95738754394779
 11
745.2963427991333
 21
665.24935844449146
  0
LINE
  8
_0-a_極細1
  6
CONTINUOUS
 62
    7
 10
744.22967623913405
 20
589.95738754394779
 11
744.22967623913405
 21
664.30111777730508
  0
LINE
  8
_0-a_極細1
  6
CONTINUOUS
 62
    7
 10
743.16300967913298
 20
589.95738754394779
 11
743.16300967913298
 21
662.46052125430742
  0
LINE
  8
_0-a_極細1
  6
CONTINUOUS
 62
    7
 10
742.09634311913373
 20
589.95738754394779
 11
742.09634311913373
 21
600.62405314394755
  0
LINE
  8
_0-a_極細1
  6
CONTINUOUS
 62
    7
 10
741.02967655913358
 20
589.95738754394779
 11
741.02967655913358
 21
600.62405314394755
  0
LINE
  8
_0-a_極細1
  6
CONTINUOUS
 62
    7
 10
739.96300999913342
 20
589.95738754394779
 11
739.96300999913342
 21
600.62405314394755
  0
LINE
  8
_0-a_極細1
  6
CONTINUOUS
 62
    7
 10
738.89634343913326
 20
589.95738754394779
 11
738.89634343913326
 21
600.62405314394755
  0
LINE
  8
_0-a_極細1
  6
CONTINUOUS
 62
    7
 10
737.82967687913356
 20
589.95738754394779
 11
737.82967687913356
 21
600.62405314394755
  0
LINE
  8
_0-a_極細1
  6
CONTINUOUS
 62
    7
 10
736.76301031913295
 20
589.95738754394779
 11
736.76301031913295
 21
600.62405314394755
  0
LINE
  8
_0-a_極細1
  6
CONTINUOUS
 62
    7
 10
735.69634375913324
 20
589.95738754394779
 11
735.69634375913324
 21
600.62405314394755
  0
LINE
  8
_0-a_極細1
  6
CONTINUOUS
 62
    7
 10
734.62967719913354
 20
589.95738754394779
 11
734.62967719913354
 21
600.62405314394755
  0
LINE
  8
_0-a_極細1
  6
CONTINUOUS
 62
    7
 10
733.56301063913293
 20
589.95738754394779
 11
733.56301063913293
 21
600.62405314394755
  0
LINE
  8
_0-a_極細1
  6
CONTINUOUS
 62
    7
 10
732.49634407913322
 20
589.95738754394779
 11
732.49634407913322
 21
600.62405314394755
  0
LINE
  8
_0-a_極細1
  6
CONTINUOUS
 62
    7
 10
731.42967751913443
 20
579.29072194394712
 11
731.42967751913443
 21
611.29071874394776
  0
LINE
  8
_0-a_極細1
  6
CONTINUOUS
 62
    7
 10
730.36301095913427
 20
579.29072194394712
 11
730.36301095913427
 21
611.29071874394776
  0
LINE
  8
_0-a_極細1
  6
CONTINUOUS
 62
    7
 10
729.29634439913457
 20
579.29072194394712
 11
729.29634439913457
 21
582.98875519557123
  0
LINE
  8
_0-a_極細1
  6
CONTINUOUS
 62
    7
 10
729.29634439913457
 20
590.49487549019887
 11
729.29634439913457
 21
611.29071874394776
  0
LINE
  8
_0-a_極細1
  6
CONTINUOUS
 62
    7
 10
728.22967783913441
 20
579.29072194394712
 11
728.22967783913441
 21
580.07610496634061
  0
LINE
  8
_0-a_極細1
  6
CONTINUOUS
 62
    7
 10
728.22967783913441
 20
590.49487549019887
 11
728.22967783913441
 21
611.29071874394776
  0
LINE
  8
_0-a_極細1
  6
CONTINUOUS
 62
    7
 10
727.16301127913425
 20
590.49487549019887
 11
727.16301127913425
 21
611.29071874394776
  0
LINE
  8
_0-a_極細1
  6
CONTINUOUS
 62
    7
 10
726.09634471913409
 20
590.49487549019887
 11
726.09634471913409
 21
611.29071874394776
  0
LINE
  8
_0-a_極細1
  6
CONTINUOUS
 62
    7
 10
725.02967815913394
 20
590.49487549019887
 11
725.02967815913394
 21
611.29071874394776
  0
LINE
  8
_0-a_極細1
  6
CONTINUOUS
 62
    7
 10
723.96301159913378
 20
590.49487549019887
 11
723.96301159913378
 21
611.29071874394776
  0
LINE
  8
_0-a_極細1
  6
CONTINUOUS
 62
    7
 10
722.89634503913453
 20
590.49487549019887
 11
722.89634503913453
 21
611.29071874394776
  0
LINE
  8
_0-a_極細1
  6
CONTINUOUS
 62
    7
 10
721.82967847913437
 20
590.49487549019887
 11
721.82967847913437
 21
611.29071874394776
  0
LINE
  8
_0-a_極細1
  6
CONTINUOUS
 62
    7
 10
720.76301191913421
 20
590.49487549019887
 11
720.76301191913421
 21
611.29071874394776
  0
LINE
  8
_0-a_極細1
  6
CONTINUOUS
 62
    7
 10
719.69634535913406
 20
590.49487549019887
 11
719.69634535913406
 21
611.29071874394776
  0
LINE
  8
_0-a_極細1
  6
CONTINUOUS
 62
    7
 10
718.6296787991339
 20
590.49487549019887
 11
718.6296787991339
 21
611.29071874394776
  0
LINE
  8
_0-a_極細1
  6
CONTINUOUS
 62
    7
 10
717.56301223913374
 20
590.49487549019887
 11
717.56301223913374
 21
611.29071874394776
  0
LINE
  8
_0-a_極細1
  6
CONTINUOUS
 62
    7
 10
702.85332203452504
 20
574.49487709019922
 11
702.85332203452504
 21
589.95738754394779
  0
ARC
  8
_0-a_極細1
  6
CONTINUOUS
 62
    7
 10
686.8533236345254
 20
590.49487549019887
 40
15.999998399999999
 50
358.07490068720563
 51
50.029499419965092
  0
LINE
  8
_0-a_極細1
  6
CONTINUOUS
 62
    7
 10
769.40798204572525
 20
672.29517522008291
 11
776.11677120049558
 21
672.29517522008291
  0
LINE
  8
_0-a_極細1
  6
CONTINUOUS
 62
    7
 10
769.40798204572525
 20
673.36184178008307
 11
785.34477027769549
 21
673.36184178008307
  0
LINE
  8
_0-a_極細1
  6
CONTINUOUS
 62
    7
 10
769.40798204572525
 20
674.42850834008277
 11
794.57276935489494
 21
674.42850834008277
  0
LINE
  8
_0-a_極細1
  6
CONTINUOUS
 62
    7
 10
769.40798204572525
 20
675.49517490008293
 11
803.80076843209531
 21
675.49517490008293
  0
LINE
  8
_0-a_極細1
  6
CONTINUOUS
 62
    7
 10
769.40798204572525
 20
676.56184146008286
 11
806.31997835452489
 21
676.56184146008286
  0
LINE
  8
_0-a_極細1
  6
CONTINUOUS
 62
    7
 10
769.40798204572525
 20
677.62850802008302
 11
806.31997835452489
 21
677.62850802008302
  0
LINE
  8
_0-a_極細1
  6
CONTINUOUS
 62
    7
 10
769.40798204572525
 20
678.69517458008318
 11
806.31997835452489
 21
678.69517458008318
  0
LINE
  8
_0-a_極細1
  6
CONTINUOUS
 62
    7
 10
771.10804699833056
 20
679.76184114008311
 11
806.31997835452489
 21
679.76184114008311
  0
LINE
  8
_0-a_極細1
  6
CONTINUOUS
 62
    7
 10
778.59710887753113
 20
680.82850770008326
 11
806.31997835452489
 21
680.82850770008326
  0
LINE
  8
_0-a_極細1
  6
CONTINUOUS
 62
    7
 10
786.08617075673078
 20
681.89517426008342
 11
806.31997835452489
 21
681.89517426008342
  0
LINE
  8
_0-a_極細1
  6
CONTINUOUS
 62
    7
 10
793.57523263593089
 20
682.96184082008358
 11
806.31997835452489
 21
682.96184082008358
  0
LINE
  8
_0-a_極細1
  6
CONTINUOUS
 62
    7
 10
801.06429451513054
 20
684.02850738008328
 11
806.31997835452489
 21
684.02850738008328
  0
LINE
  8
_0-a_極細1
  6
CONTINUOUS
 62
    7
 10
806.31997835452489
 20
684.85303672104874
 11
806.31997835452489
 21
688.54808176311872
  0
LINE
  8
_0-a_極細1
  6
CONTINUOUS
 62
    7
 10
769.40798204572525
 20
683.29071154394796
 11
806.31997835452489
 21
688.54808176311872
  0
LINE
  8
_0-a_極細1
  6
CONTINUOUS
 62
    7
 10
734.85331883452477
 20
646.49486989019942
 11
734.85331883452477
 21
651.29071474394777
  0
LINE
  8
_0-a_極細1
  6
CONTINUOUS
 62
    7
 10
734.85331883452477
 20
613.9615398101987
 11
734.85331883452477
 21
621.96153901019852
  0
LINE
  8
_0-a_極細1
  6
CONTINUOUS
 62
    7
 10
714.85332083452499
 20
637.45663612735552
 11
714.85332083452499
 21
630.52330348735586
  0
LINE
  8
_0-a_極細1
  6
CONTINUOUS
 62
    7
 10
714.85332083452499
 20
625.1899706873553
 11
714.85332083452499
 21
622.52330428735604
  0
LINE
  8
_0-a_極細1
  6
CONTINUOUS
 62
    7
 10
734.05331891452602
 20
637.45663612735552
 11
734.05331891452602
 21
622.52330428735604
  0
LINE
  8
_0-a_極細1
  6
CONTINUOUS
 62
    7
 10
712.18665443452505
 20
640.12330252735569
 11
714.85332083452499
 21
642.78996892735586
  0
LINE
  8
_0-a_極細1
  6
CONTINUOUS
 62
    7
 10
714.85332083452499
 20
637.45663612735552
 11
712.18665443452505
 21
640.12330252735569
  0
LINE
  8
_0-a_極細1
  6
CONTINUOUS
 62
    7
 10
714.85332083452499
 20
625.1899706873553
 11
712.18665443452505
 21
627.85663708735569
  0
LINE
  8
_0-a_極細1
  6
CONTINUOUS
 62
    7
 10
712.18665443452505
 20
627.85663708735569
 11
714.85332083452499
 21
630.52330348735586
  0
LINE
  8
_0-a_極細1
  6
CONTINUOUS
 62
    7
 10
734.05331891452602
 20
637.45663612735552
 11
738.31998515452528
 21
645.45663532735534
  0
LINE
  8
_0-a_極細1
  6
CONTINUOUS
 62
    7
 10
714.85332083452499
 20
645.45663532735534
 11
714.85332083452499
 21
642.78996892735586
  0
ARC
  8
_0-a_極細1
  6
CONTINUOUS
 62
    7
 10
747.91998419452534
 20
677.95737874394808
 40
2.6666664000000004
 50
24.054548999993202
 51
89.999999999999929
  0
ARC
  8
_0-a_極細1
  6
CONTINUOUS
 62
    7
 10
749.51998403452558
 20
671.02404610394797
 40
1.0666665599999394
 50
269.99999999999977
 51
359.99999999999966
  0
ARC
  8
_0-a_極細1
  6
CONTINUOUS
 62
    7
 10
747.91998419452534
 20
677.95737874394808
 40
2.6666664000000004
 50
0
 51
24.054548999993202
  0
LINE
  8
_0-a_極細1
  6
CONTINUOUS
 62
    7
 10
739.11998507452495
 20
653.95738114394749
 11
739.11998507452677
 21
669.95737954394781
  0
LINE
  8
_0-a_極細1
  6
CONTINUOUS
 62
    7
 10
739.11998507452677
 20
669.95737954394781
 11
749.51998403452558
 21
669.95737954394781
  0
LINE
  8
_0-a_極細1
  6
CONTINUOUS
 62
    7
 10
750.58665059452528
 20
671.02404610394797
 11
750.58665059452528
 21
677.95737874394808
  0
LINE
  8
_0-a_極細1
  6
CONTINUOUS
 62
    7
 10
732.18665243452483
 20
589.95738754394779
 11
761.51998283452463
 21
589.95738754394779
  0
LINE
  8
_0-a_極細1
  6
CONTINUOUS
 62
    7
 10
727.75900487728973
 20
579.29072194394712
 11
732.18665243452483
 21
579.29072194394712
  0
LINE
  8
_0-a_極細1
  6
CONTINUOUS
 62
    7
 10
732.18665243452483
 20
604.3573861039481
 11
739.11998507452495
 21
604.3573861039481
  0
LINE
  8
_0-a_極細1
  6
CONTINUOUS
 62
    7
 10
732.18665243452483
 20
600.62405314394755
 11
742.85331803452459
 21
600.62405314394755
  0
LINE
  8
_0-a_極細1
  6
CONTINUOUS
 62
    7
 10
732.18665243452483
 20
579.29072194394712
 11
732.18665243452483
 21
611.29071874394776
  0
LINE
  8
_0-a_極細1
  6
CONTINUOUS
 62
    7
 10
769.40798204572525
 20
597.8453867551475
 11
761.51998283452463
 21
589.95738754394779
  0
LINE
  8
_0-a_極細1
  6
CONTINUOUS
 62
    7
 10
742.85331803452459
 20
600.62405314394755
 11
742.8533180345255
 21
660.62404714394734
  0
ARC
  8
_0-a_極細1
  6
CONTINUOUS
 62
    7
 10
748.45331747452497
 20
660.62404714394734
 40
5.5999994400000617
 50
89.999999999999915
 51
179.99999999999983
  0
LINE
  8
_0-a_極細1
  6
CONTINUOUS
 62
    7
 10
754.80651150587323
 20
666.22404658394817
 11
748.45331747452497
 21
666.22404658394817
  0
ARC
  8
_0-a_極細1
  6
CONTINUOUS
 62
    7
 10
754.80651150587323
 20
675.29071234394769
 40
9.066665759999939
 50
269.99999999999977
 51
356.64911199999887
  0
ARC
  8
_0-a_極細1
  6
CONTINUOUS
 62
    7
 10
754.80651150587323
 20
675.29071234394769
 40
5.3333328000000009
 50
269.99999999999977
 51
356.64911199999932
  0
ARC
  8
_0-a_極細1
  6
CONTINUOUS
 62
    7
 10
769.40798204572525
 20
673.95737914394749
 40
9.3333323999999998
 50
89.999999999999915
 51
175.84900999999778
  0
ARC
  8
_0-a_極細1
  6
CONTINUOUS
 62
    7
 10
748.45331747452497
 20
660.62404714394734
 40
9.3333323999999998
 50
89.999999999999915
 51
179.99999999999983
  0
LINE
  8
_0-a_極細1
  6
CONTINUOUS
 62
    7
 10
750.85331723452532
 20
669.95737954394781
 11
750.85331723452532
 21
683.29071154394796
  0
LINE
  8
_0-a_極細1
  6
CONTINUOUS
 62
    7
 10
739.11998507452495
 20
604.3573861039481
 11
739.11998507452495
 21
660.62404714394734
  0
LINE
  8
_0-a_極細1
  6
CONTINUOUS
 62
    7
 10
754.80651150587323
 20
669.95737954394781
 11
748.45331747452497
 21
669.95737954394781
  0
LINE
  8
_0-a_極細1
  6
CONTINUOUS
 62
    7
 10
717.51998723452539
 20
611.29071874394776
 11
739.11998507452495
 21
611.29071874394776
  0
LINE
  8
_0-a_極細1
  6
CONTINUOUS
 62
    7
 10
806.31997835452489
 20
675.78637096104876
 11
769.40798204572525
 21
671.51970472104858
  0
LINE
  8
_0-a_極細1
  6
CONTINUOUS
 62
    7
 10
769.40798204572343
 20
570.18638152104859
 11
761.51998283452463
 21
574.45304776104831
  0
LINE
  8
_0-a_極細1
  6
CONTINUOUS
 62
    7
 10
761.51998283452463
 20
574.45304776104831
 11
761.51998283452463
 21
589.95738754394779
  0
LINE
  8
_0-a_極細1
  6
CONTINUOUS
 62
    7
 10
806.31997835452489
 20
604.08099679825409
 11
806.31997835452489
 21
688.47211902580739
  0
LINE
  8
_0-a_極細1
  6
CONTINUOUS
 62
    7
 10
785.51998043452454
 20
601.11971176104862
 11
806.31997835452489
 21
601.11971176104862
  0
LINE
  8
_0-a_極細1
  6
CONTINUOUS
 62
    7
 10
806.31997835452489
 20
601.11971176104862
 11
806.31997835452489
 21
604.08099679825409
  0
LINE
  8
_0-a_極細1
  6
CONTINUOUS
 62
    7
 10
785.51998043452454
 20
558.45304936104822
 11
785.51998043452454
 21
601.11971176104862
  0
LINE
  8
_0-a_極細1
  6
CONTINUOUS
 62
    7
 10
769.40798204572525
 20
679.51970100771086
 11
806.31997835452489
 21
684.77707406197783
  0
LINE
  8
_0-a_極細1
  6
CONTINUOUS
 62
    7
 10
769.40798204572525
 20
597.8453867551475
 11
769.40798204572525
 21
679.55737858394832
  0
ARC
  8
_0-a_極細1
  6
CONTINUOUS
 62
    7
 10
769.40798204572525
 20
673.95737914394749
 40
5.5999994400000617
 50
89.999999999999915
 51
175.84900999999743
  0
LINE
  8
_0-a_極細1
  6
CONTINUOUS
 62
    7
 10
718.85332043452468
 20
574.49487709019922
 11
702.85332203452504
 21
574.49487709019922
  0
ARC
  8
_0-a_極細1
  6
CONTINUOUS
 62
    7
 10
718.85332043452468
 20
585.16154269019944
 40
10.666665600000002
 50
269.99999999999977
 51
359.99999999999966
  0
LINE
  8
_0-a_極細1
  6
CONTINUOUS
 62
    7
 10
729.51998603452535
 20
585.16154269019944
 11
729.51998603452535
 21
590.49487549019887
  0
LINE
  8
_0-a_極細1
  6
CONTINUOUS
 62
    7
 10
729.51998603452535
 20
590.49487549019887
 11
717.51998723452539
 21
590.49487549019887
  0
LINE
  8
_0-a_極細1
  6
CONTINUOUS
 62
    7
 10
734.85331883452477
 20
613.9615398101987
 11
717.51998723452539
 21
613.9615398101987
  0
LINE
  8
_0-a_極細1
  6
CONTINUOUS
 62
    7
 10
717.51998723452539
 20
590.49487549019887
 11
717.51998723452539
 21
613.96153981019916
  0
LINE
  8
_0-a_極細1
  6
CONTINUOUS
 62
    7
 10
733.2533189945259
 20
651.29071474394777
 11
733.2533189945259
 21
656.62404754394765
  0
ARC
  8
_0-a_極細1
  6
CONTINUOUS
 62
    7
 10
736.45331867452501
 20
653.95738114394749
 40
2.6666664000000004
 50
269.99999999999977
 51
359.99999999999966
  0
CIRCLE
  8
_0-a_極細1
  6
CONTINUOUS
 62
    7
 10
740.32094418704287
 20
637.51012893163397
 40
99.281077021678641
  0
ARC
  8
_0-a_極細1
  6
CONTINUOUS
 62
    7
 10
798.8533124345247
 20
535.35904100378298
 40
26.666664000000004
 50
120.00000000000082
 51
161.13978923390184
  0
LINE
  8
_0-a_極細1
  6
CONTINUOUS
 62
    7
 10
758.85331643452469
 20
539.97406671121598
 11
758.85331643452469
 21
570.18638152104859
  0
LINE
  8
_0-a_極細1
  6
CONTINUOUS
 62
    7
 10
783.40921633323228
 20
557.09819610472778
 11
785.51998043452545
 21
559.20896020602004
  0
LINE
  8
_0-a_極細1
  6
CONTINUOUS
 62
    7
 10
758.85331643452514
 20
540.08476778442946
 11
785.51998043452545
 21
566.75143178442931
  0
LINE
  8
_0-a_極細1
  6
CONTINUOUS
 62
    7
 10
758.85331643452469
 20
543.8560035736341
 11
785.51998043452545
 21
570.52266757363441
  0
LINE
  8
_0-a_極細1
  6
CONTINUOUS
 62
    7
 10
758.85331643452469
 20
547.62723936283874
 11
785.51998043452545
 21
574.29390336283882
  0
LINE
  8
_0-a_極細1
  6
CONTINUOUS
 62
    7
 10
758.85331643452469
 20
551.39847515204337
 11
785.51998043452545
 21
578.06513915204368
  0
LINE
  8
_0-a_極細1
  6
CONTINUOUS
 62
    7
 10
758.85331643452469
 20
555.16971094124801
 11
785.51998043452545
 21
581.83637494124832
  0
LINE
  8
_0-a_極細1
  6
CONTINUOUS
 62
    7
 10
804.80331725432529
 20
601.11971176104862
 11
806.31997835452489
 21
602.63637286124822
  0
LINE
  8
_0-a_極細1
  6
CONTINUOUS
 62
    7
 10
758.85331643452469
 20
558.94094673045265
 11
785.51998043452545
 21
585.60761073045296
  0
LINE
  8
_0-a_極細1
  6
CONTINUOUS
 62
    7
 10
801.03208146512111
 20
601.11971176104862
 11
806.31997835452489
 21
606.40760865045286
  0
LINE
  8
_0-a_極細1
  6
CONTINUOUS
 62
    7
 10
758.85331643452469
 20
562.71218251965706
 11
766.32751543591598
 21
570.18638152104859
  0
LINE
  8
_0-a_極細1
  6
CONTINUOUS
 62
    7
 10
767.40885518486152
 20
571.26772126999413
 11
785.51998043452545
 21
589.37884651965737
  0
LINE
  8
_0-a_極細1
  6
CONTINUOUS
 62
    7
 10
797.26084567591602
 20
601.11971176104862
 11
806.31997835452489
 21
610.17884443965795
  0
LINE
  8
_0-a_極細1
  6
CONTINUOUS
 62
    7
 10
758.85331643452469
 20
566.48341830886193
 11
762.5562796467118
 21
570.18638152104882
  0
LINE
  8
_0-a_極細1
  6
CONTINUOUS
 62
    7
 10
764.96144064680334
 20
572.59154252114104
 11
785.51998043452545
 21
593.15008230886224
  0
LINE
  8
_0-a_極細1
  6
CONTINUOUS
 62
    7
 10
793.48960988671092
 20
601.11971176104817
 11
806.31997835452489
 21
613.95008022886259
  0
LINE
  8
_0-a_極細1
  6
CONTINUOUS
 62
    7
 10
762.51402610874607
 20
573.91536377228795
 11
785.51998043452545
 21
596.92131809806688
  0
LINE
  8
_0-a_極細1
  6
CONTINUOUS
 62
    7
 10
789.71837409750583
 20
601.11971176104817
 11
806.31997835452489
 21
617.72131601806677
  0
LINE
  8
_0-a_極細1
  6
CONTINUOUS
 62
    7
 10
761.51998283452508
 20
576.69255628727115
 11
785.51998043452545
 21
600.69255388727152
  0
LINE
  8
_0-a_極細1
  6
CONTINUOUS
 62
    7
 10
785.9471383083021
 20
601.11971176104817
 11
806.31997835452489
 21
621.49255180727141
  0
LINE
  8
_0-a_極細1
  6
CONTINUOUS
 62
    7
 10
761.51998283452508
 20
580.46379207647578
 11
806.31997835452489
 21
625.26378759647605
  0
LINE
  8
_0-a_極細1
  6
CONTINUOUS
 62
    7
 10
761.51998283452508
 20
584.23502786568042
 11
806.31997835452489
 21
629.03502338568114
  0
LINE
  8
_0-a_極細1
  6
CONTINUOUS
 62
    7
 10
761.51998283452508
 20
588.00626365488506
 11
806.31997835452489
 21
632.80625917488555
  0
LINE
  8
_0-a_極細1
  6
CONTINUOUS
 62
    7
 10
769.40798204572525
 20
599.66549865529078
 11
806.31997835452489
 21
636.57749496409042
  0
LINE
  8
_0-a_極細1
  6
CONTINUOUS
 62
    7
 10
769.40798204572525
 20
603.43673444449496
 11
806.31997835452489
 21
640.3487307532946
  0
LINE
  8
_0-a_極細1
  6
CONTINUOUS
 62
    7
 10
769.40798204572525
 20
607.2079702336996
 11
806.31997835452489
 21
644.11996654249924
  0
LINE
  8
_0-a_極細1
  6
CONTINUOUS
 62
    7
 10
769.40798204572525
 20
610.97920602290424
 11
806.31997835452489
 21
647.89120233170388
  0
LINE
  8
_0-a_極細1
  6
CONTINUOUS
 62
    7
 10
769.40798204572525
 20
614.75044181210933
 11
806.31997835452489
 21
651.66243812090852
  0
LINE
  8
_0-a_極細1
  6
CONTINUOUS
 62
    7
 10
769.40798204572525
 20
618.52167760131397
 11
806.31997835452489
 21
655.43367391011316
  0
LINE
  8
_0-a_極細1
  6
CONTINUOUS
 62
    7
 10
769.40798204572525
 20
622.29291339051815
 11
806.31997835452489
 21
659.20490969931825
  0
LINE
  8
_0-a_極細1
  6
CONTINUOUS
 62
    7
 10
769.40798204572525
 20
626.06414917972302
 11
806.31997835452489
 21
662.97614548852266
  0
LINE
  8
_0-a_極細1
  6
CONTINUOUS
 62
    7
 10
769.40798204572525
 20
629.83538496892788
 11
806.31997835452489
 21
666.74738127772707
  0
LINE
  8
_0-a_極細1
  6
CONTINUOUS
 62
    7
 10
769.40798204572525
 20
633.60662075813252
 11
806.31997835452489
 21
670.51861706693171
  0
LINE
  8
_0-a_極細1
  6
CONTINUOUS
 62
    7
 10
769.40798204572525
 20
637.37785654733648
 11
806.31997835452489
 21
674.28985285613635
  0
LINE
  8
_0-a_極細1
  6
CONTINUOUS
 62
    7
 10
769.40798204572525
 20
641.14909233654134
 11
803.74796053178557
 21
675.48907082260166
  0
LINE
  8
_0-a_極細1
  6
CONTINUOUS
 62
    7
 10
769.40798204572525
 20
644.92032812574598
 11
799.4838332818133
 21
674.99617936183313
  0
LINE
  8
_0-a_極細1
  6
CONTINUOUS
 62
    7
 10
769.40798204572525
 20
648.69156391495062
 11
795.21970603183968
 21
674.5032879010646
  0
LINE
  8
_0-a_極細1
  6
CONTINUOUS
 62
    7
 10
769.40798204572525
 20
652.46279970415526
 11
790.95557878186696
 21
674.01039644029652
  0
LINE
  8
_0-a_極細1
  6
CONTINUOUS
 62
    7
 10
769.40798204572525
 20
656.2340354933599
 11
786.69145153189334
 21
673.51750497952798
  0
LINE
  8
_0-a_極細1
  6
CONTINUOUS
 62
    7
 10
769.40798204572525
 20
660.00527128256454
 11
782.42732428192016
 21
673.02461351875945
  0
LINE
  8
_0-a_極細1
  6
CONTINUOUS
 62
    7
 10
769.40798204572525
 20
663.77650707176917
 11
778.16319703194745
 21
672.53172205799069
  0
LINE
  8
_0-a_極細1
  6
CONTINUOUS
 62
    7
 10
769.40798204572525
 20
667.54774286097359
 11
773.89906978197428
 21
672.03883059722239
  0
LINE
  8
_0-a_極細1
  6
CONTINUOUS
 62
    7
 10
769.40798204572525
 20
671.31897865017845
 11
769.63494253200111
 21
671.54593913645385
  0
LINE
  8
_0-a_極細1
  6
CONTINUOUS
 62
    7
 10
763.51650989892164
 20
540.97672545962178
 11
785.51998043452545
 21
562.98019599522468
  0
LINE
  8
_0-a_極細1
  6
CONTINUOUS
 62
    7
 10
768.67507430875253
 20
542.36405408024757
 11
777.11415733357967
 21
550.80313710507517
  0
LINE
  8
_0-a_極細1
  6
CONTINUOUS
 62
    7
 10
667.35351796698046
 20
570.18638152104859
 11
769.40798204572343
 21
570.18638152104859
  0
LINE
  8
_0-a_極細1
  6
CONTINUOUS
 62
    7
 10
663.6362862114695
 20
574.45304776104831
 11
761.51998283452463
 21
574.45304776104831
  0
LINE
  8
_0-a_極細1
  6
CONTINUOUS
 62
    7
 10
653.16895602211139
 20
589.95738754394779
 11
702.85332203452504
 21
589.95738754394779
  0
LINE
  8
_0-a_極細1
  6
CONTINUOUS
 62
    7
 10
655.16309296147642
 20
688.54808176311872
 11
806.31997835452489
 21
688.54808176311872
  0
LINE
  8
_0-a_極細1
  6
CONTINUOUS
 62
    7
 10
652.22514116407433
 20
683.29071154394819
 11
769.40798204572525
 21
683.29071154394796
  0
LINE
  8
_0-a_極細1
  6
CONTINUOUS
 62
    7
 10
650.88983951186742
 20
680.6240451439478
 11
747.91998419452534
 21
680.62404514394757
  0
LINE
  8
_0-a_極細1
  6
CONTINUOUS
 62
    7
 10
642.89717722093542
 20
656.62404754394788
 11
733.2533189945259
 21
656.62404754394765
  0
LINE
  8
_0-a_極細1
  6
CONTINUOUS
 62
    7
 10
642.00091718717863
 20
651.29071474394777
 11
736.45331867452501
 21
651.29071474394777
  0
LINE
  8
_0-a_極細1
  6
CONTINUOUS
 62
    7
 10
734.85331883452477
 20
646.49486989019942
 11
641.4472536293822
 21
646.49486989019942
  0
LINE
  8
_0-a_極細1
  6
CONTINUOUS
 62
    7
 10
641.35839929915414
 20
645.4566353273558
 11
738.31998515452528
 21
645.45663532735534
  0
LINE
  8
_0-a_極細1
  6
CONTINUOUS
 62
    7
 10
641.07426374712509
 20
640.12330252735569
 11
712.18665443452505
 21
640.12330252735569
  0
LINE
  8
_0-a_極細1
  6
CONTINUOUS
 62
    7
 10
641.51030533779226
 20
627.85663708735569
 11
712.18665443452505
 21
627.85663708735569
  0
LINE
  8
_0-a_極細1
  6
CONTINUOUS
 62
    7
 10
642.17754226074862
 20
622.52330428735604
 11
734.05331891452602
 21
622.52330428735604
  0
LINE
  8
_0-a_極細1
  6
CONTINUOUS
 62
    7
 10
734.85331883452477
 20
621.96153901019852
 11
642.26497238501747
 21
621.96153901019852
  0
LINE
  8
_0-a_極細1
  6
CONTINUOUS
 62
    7
 10
717.51998723452539
 20
613.96153981019916
 11
643.87305045693415
 21
613.96153981019916
  0
LINE
  8
_0-d_寸法1
  6
CONTINUOUS
 62
    7
 10
795.68849238475536
 20
678.45848360882837
 11
802.21955728383193
 21
693.06482439918545
  0
LINE
  8
_0-d_寸法1
  6
CONTINUOUS
 62
    7
 10
795.68849238475536
 20
678.45848360882837
 11
808.64773089629909
 21
687.84241334007231
  0
LINE
  8
_0-d_寸法1
  6
CONTINUOUS
 62
    7
 10
795.68849238475536
 20
678.45848360882837
 11
828.4211928044449
 21
718.74858691953341
  0
LINE
  8
_0-d_寸法1
  6
CONTINUOUS
 62
    7
 10
828.4211928044449
 20
718.74858691953341
 11
898.82119280444476
 21
718.74858691953341
  0
TEXT
  8
_0-d_寸法1
 62
    7
 10
828.4211928044449
 20
718.74858691953341
 40
24
 41
0.7333333333333333
 50
0
  1
パッキン
  0
LINE
  8
_0-a_極細1
  6
CONTINUOUS
 62
    7
 10
687.69634855913478
 20
580.89072178394781
 11
687.69634855913478
 21
589.95738754394779
  0
LINE
  8
_0-a_極細1
  6
CONTINUOUS
 62
    7
 10
686.62968199913462
 20
580.89072178394781
 11
686.62968199913462
 21
589.95738754394779
  0
LINE
  8
_0-a_極細1
  6
CONTINUOUS
 62
    7
 10
685.56301543913446
 20
580.89072178394781
 11
685.56301543913446
 21
589.95738754394779
  0
LINE
  8
_0-a_極細1
  6
CONTINUOUS
 62
    7
 10
684.4963488791343
 20
580.89072178394781
 11
684.4963488791343
 21
589.95738754394779
  0
LINE
  8
_0-a_極細1
  6
CONTINUOUS
 62
    7
 10
683.42968231913414
 20
580.89072178394781
 11
683.42968231913414
 21
589.95738754394779
  0
LINE
  8
_0-a_極細1
  6
CONTINUOUS
 62
    7
 10
682.36301575913399
 20
580.89072178394781
 11
682.36301575913399
 21
589.95738754394779
  0
LINE
  8
_0-a_極細1
  6
CONTINUOUS
 62
    7
 10
681.29634919913428
 20
580.89072178394781
 11
681.29634919913428
 21
589.95738754394779
  0
LINE
  8
_0-a_極細1
  6
CONTINUOUS
 62
    7
 10
680.22968263913458
 20
580.89072178394781
 11
680.22968263913458
 21
589.95738754394779
  0
LINE
  8
_0-a_極細1
  6
CONTINUOUS
 62
    7
 10
679.16301607913442
 20
580.89072178394781
 11
679.16301607913442
 21
589.95738754394779
  0
LINE
  8
_0-a_極細1
  6
CONTINUOUS
 62
    7
 10
678.09634951913426
 20
580.89072178394781
 11
678.09634951913426
 21
589.95738754394779
  0
LINE
  8
_0-a_極細1
  6
CONTINUOUS
 62
    7
 10
677.02968295913411
 20
580.89072178394781
 11
677.02968295913411
 21
589.95738754394779
  0
LINE
  8
_0-a_極細1
  6
CONTINUOUS
 62
    7
 10
675.96301639913395
 20
580.89072178394781
 11
675.96301639913395
 21
589.95738754394779
  0
LINE
  8
_0-a_極細1
  6
CONTINUOUS
 62
    7
 10
674.89634983913379
 20
580.89072178394781
 11
674.89634983913379
 21
589.95738754394779
  0
LINE
  8
_0-a_極細1
  6
CONTINUOUS
 62
    7
 10
673.82968327913363
 20
580.89072178394781
 11
673.82968327913363
 21
589.95738754394779
  0
LINE
  8
_0-a_極細1
  6
CONTINUOUS
 62
    7
 10
672.76301671913347
 20
580.89072178394781
 11
672.76301671913347
 21
589.95738754394779
  0
LINE
  8
_0-a_極細1
  6
CONTINUOUS
 62
    7
 10
671.69635015913423
 20
580.89072178394781
 11
671.69635015913423
 21
589.95738754394779
  0
LINE
  8
_0-a_極細1
  6
CONTINUOUS
 62
    7
 10
670.62968359913407
 20
580.89072178394781
 11
670.62968359913407
 21
589.95738754394779
  0
LINE
  8
_0-a_極細1
  6
CONTINUOUS
 62
    7
 10
669.56301703913391
 20
580.89072178394781
 11
669.56301703913391
 21
589.95738754394779
  0
LINE
  8
_0-a_極細1
  6
CONTINUOUS
 62
    7
 10
668.49635047913375
 20
580.89072178394781
 11
668.49635047913375
 21
589.95738754394779
  0
LINE
  8
_0-a_極細1
  6
CONTINUOUS
 62
    7
 10
667.42968391913359
 20
580.89072178394781
 11
667.42968391913359
 21
589.95738754394779
  0
LINE
  8
_0-a_極細1
  6
CONTINUOUS
 62
    7
 10
666.36301735913344
 20
580.89072178394781
 11
666.36301735913344
 21
589.95738754394779
  0
LINE
  8
_0-a_極細1
  6
CONTINUOUS
 62
    7
 10
665.29635079913373
 20
580.89072178394781
 11
665.29635079913373
 21
589.95738754394779
  0
LINE
  8
_0-a_極細1
  6
CONTINUOUS
 62
    7
 10
664.22968423913403
 20
580.89072178394781
 11
664.22968423913403
 21
589.95738754394779
  0
LINE
  8
_0-a_極細1
  6
CONTINUOUS
 62
    7
 10
663.16301767913342
 20
580.89072178394781
 11
663.16301767913342
 21
589.95738754394779
  0
LINE
  8
_0-a_極細1
  6
CONTINUOUS
 62
    7
 10
662.09635111913371
 20
580.89072178394781
 11
662.09635111913371
 21
589.95738754394779
  0
LINE
  8
_0-a_極細1
  6
CONTINUOUS
 62
    7
 10
688.38032614849158
 20
580.89072178394781
 11
688.38032614849158
 21
589.95738754394779
  0
LINE
  8
_0-a_極細1
  6
CONTINUOUS
 62
    7
 10
661.71366214849127
 20
580.89072178394781
 11
661.71366214849127
 21
589.95738754394779
  0
LINE
  8
_0-a_極細1
  6
CONTINUOUS
 62
    7
 10
661.71366214849127
 20
580.89072178394781
 11
688.38032614849158
 21
580.89072178394781
  0
ARC
  8
_0-a_極細1
  6
CONTINUOUS
 62
    7
 10
678.85332443452512
 20
576.49085555726788
 40
31.999996799999998
 50
55.166292356155729
 51
148.68484545273029
  0
LINE
  8
_0-a_極細1
  6
CONTINUOUS
 62
    7
 10
702.78418237533947
 20
589.95738754394779
 11
702.78418237533947
 21
591.9807047469526
  0
LINE
  8
_0-a_極細1
  6
CONTINUOUS
 62
    7
 10
701.18418237534001
 20
589.95738754394779
 11
701.18418237534001
 21
597.61010117536398
  0
LINE
  8
_0-a_極細1
  6
CONTINUOUS
 62
    7
 10
699.58418237533965
 20
589.95738754394779
 11
699.58418237533965
 21
600.18637612330213
  0
LINE
  8
_0-a_極細1
  6
CONTINUOUS
 62
    7
 10
697.9841823753402
 20
589.95738754394779
 11
697.9841823753402
 21
601.98852297444182
  0
LINE
  8
_0-a_極細1
  6
CONTINUOUS
 62
    7
 10
696.38418237533983
 20
589.95738754394779
 11
696.38418237533983
 21
603.26152635683843
  0
LINE
  8
_0-a_極細1
  6
CONTINUOUS
 62
    7
 10
694.78418237533947
 20
589.95738754394779
 11
694.78418237533947
 21
604.24346913634554
  0
LINE
  8
_0-a_極細1
  6
CONTINUOUS
 62
    7
 10
693.18418237534001
 20
589.95738754394779
 11
693.18418237534001
 21
605.10250189019007
  0
LINE
  8
_0-a_極細1
  6
CONTINUOUS
 62
    7
 10
691.58418237533965
 20
589.95738754394779
 11
691.58418237533965
 21
605.84941565974577
  0
LINE
  8
_0-a_極細1
  6
CONTINUOUS
 62
    7
 10
689.98418237533974
 20
589.95738754394779
 11
689.98418237533974
 21
606.49258545241582
  0
LINE
  8
_0-a_極細1
  6
CONTINUOUS
 62
    7
 10
688.38418237533983
 20
589.95738754394779
 11
688.38418237533983
 21
607.03856483492109
  0
LINE
  8
_0-a_極細1
  6
CONTINUOUS
 62
    7
 10
686.78418237533947
 20
589.95738754394779
 11
686.78418237533947
 21
607.49248918394369
  0
LINE
  8
_0-a_極細1
  6
CONTINUOUS
 62
    7
 10
685.18418237534001
 20
589.95738754394779
 11
685.18418237534001
 21
607.85835518559725
  0
LINE
  8
_0-a_極細1
  6
CONTINUOUS
 62
    7
 10
683.58418237533965
 20
589.95738754394779
 11
683.58418237533965
 21
608.13921694208284
  0
LINE
  8
_0-a_極細1
  6
CONTINUOUS
 62
    7
 10
681.98418237533974
 20
589.95738754394779
 11
681.98418237533974
 21
608.33732355223492
  0
LINE
  8
_0-a_極細1
  6
CONTINUOUS
 62
    7
 10
680.38418237533983
 20
589.95738754394779
 11
680.38418237533983
 21
608.45421378454239
  0
LINE
  8
_0-a_極細1
  6
CONTINUOUS
 62
    7
 10
678.78418237533947
 20
589.95738754394779
 11
678.78418237533947
 21
608.49077765991797
  0
LINE
  8
_0-a_極細1
  6
CONTINUOUS
 62
    7
 10
677.18418237533911
 20
589.95738754394779
 11
677.18418237533911
 21
608.4472909026922
  0
LINE
  8
_0-a_極細1
  6
CONTINUOUS
 62
    7
 10
675.58418237533965
 20
589.95738754394779
 11
675.58418237533965
 21
608.32342544090875
  0
LINE
  8
_0-a_極細1
  6
CONTINUOUS
 62
    7
 10
673.98418237533929
 20
589.95738754394779
 11
673.98418237533929
 21
608.1182369033022
  0
LINE
  8
_0-a_極細1
  6
CONTINUOUS
 62
    7
 10
672.38418237533983
 20
589.95738754394779
 11
672.38418237533983
 21
607.83012798369941
  0
LINE
  8
_0-a_極細1
  6
CONTINUOUS
 62
    7
 10
670.78418237533947
 20
589.95738754394779
 11
670.78418237533947
 21
607.45678427947314
  0
LINE
  8
_0-a_極細1
  6
CONTINUOUS
 62
    7
 10
669.18418237533911
 20
589.95738754394779
 11
669.18418237533911
 21
606.99507636422049
  0
LINE
  8
_0-a_極細1
  6
CONTINUOUS
 62
    7
 10
667.58418237533965
 20
589.95738754394779
 11
667.58418237533965
 21
606.4409178685537
  0
LINE
  8
_0-a_極細1
  6
CONTINUOUS
 62
    7
 10
665.98418237533929
 20
589.95738754394779
 11
665.98418237533929
 21
605.78906331577264
  0
LINE
  8
_0-a_極細1
  6
CONTINUOUS
 62
    7
 10
664.38418237533938
 20
589.95738754394779
 11
664.38418237533938
 21
605.03281980766815
  0
LINE
  8
_0-a_極細1
  6
CONTINUOUS
 62
    7
 10
662.78418237533947
 20
589.95738754394779
 11
662.78418237533947
 21
604.16363042141438
  0
LINE
  8
_0-a_極細1
  6
CONTINUOUS
 62
    7
 10
661.18418237533911
 20
589.95738754394779
 11
661.18418237533911
 21
603.17045851706371
  0
LINE
  8
_0-a_極細1
  6
CONTINUOUS
 62
    7
 10
659.58418237533965
 20
589.95738754394779
 11
659.58418237533965
 21
602.03884881511385
  0
LINE
  8
_0-a_極細1
  6
CONTINUOUS
 62
    7
 10
657.98418237533929
 20
589.95738754394779
 11
657.98418237533929
 21
600.74943558400355
  0
LINE
  8
_0-a_極細1
  6
CONTINUOUS
 62
    7
 10
656.38418237533938
 20
589.95738754394779
 11
656.38418237533938
 21
599.27544355714508
  0
LINE
  8
_0-a_極細1
  6
CONTINUOUS
 62
    7
 10
654.78418237533947
 20
589.95738754394779
 11
654.78418237533947
 21
597.57820237318447
  0
LINE
  8
_0-a_極細1
  6
CONTINUOUS
 62
    7
 10
653.18418237533911
 20
589.95738754394779
 11
653.18418237533911
 21
595.59831329359054
  0
LINE
  8
_0-a_極細1
  6
CONTINUOUS
 62
    7
 10
651.58418237533874
 20
592.98463783094576
 11
651.58418237533874
 21
593.23581559173681
  0
LINE
  8
_0-d_寸法1
  6
CONTINUOUS
 62
    7
 10
726.82948069304325
 20
629.74452357246855
 11
738.14313252318755
 21
618.43075840492725
  0
LINE
  8
_0-d_寸法1
  6
CONTINUOUS
 62
    7
 10
726.82948069304325
 20
629.74452357246855
 11
730.97050800374984
 21
614.28968960985412
  0
LINE
  8
_0-d_寸法1
  6
CONTINUOUS
 62
    7
 10
726.82948069304325
 20
629.74452357246855
 11
791.4543557629363
 21
517.80966172148862
  0
LINE
  8
_0-d_寸法1
  6
CONTINUOUS
 62
    7
 10
791.4543557629363
 20
517.80966172148862
 11
967.45435576293642
 21
517.80966172148862
  0
TEXT
  8
_0-d_寸法1
 62
    7
 10
791.4543557629363
 20
517.80966172148862
 40
24
 41
0.7333333333333333
 50
0
  1
防臭インナーパッキン
  0
LINE
  8
_0-d_寸法1
  6
CONTINUOUS
 62
    7
 10
794.58929661491561
 20
608.72098400144
 11
805.90353003604514
 21
597.40780044895587
  0
LINE
  8
_0-d_寸法1
  6
CONTINUOUS
 62
    7
 10
794.58929661491561
 20
608.72098400144
 11
798.73111840571858
 21
593.26636293674778
  0
LINE
  8
_0-d_寸法1
  6
CONTINUOUS
 62
    7
 10
794.58929661491561
 20
608.72098400144
 11
825.99449210021658
 21
554.3314178936688
  0
LINE
  8
_0-d_寸法1
  6
CONTINUOUS
 62
    7
 10
825.99449210021658
 20
554.3314178936688
 11
949.19449210021651
 21
554.3314178936688
  0
TEXT
  8
_0-d_寸法1
 62
    7
 10
825.99449210021658
 20
554.3314178936688
 40
24
 41
0.7333333333333333
 50
0
  1
ロックフランジ
  0
TEXT
  8
_0-7_枠細線
 62
    5
 10
662.38724866893131
 20
460.93701799466982
 40
40
 41
0.8
 50
0
  1
Ｃ部拡大図
  0
TEXT
  8
_0-7_枠細線
 62
    5
 10
1536.8
 20
239.24855752183862
 40
32
 41
0.6
 50
0
  1
排水ユニット ＳＵＳグレーチング 浅型
  0
TEXT
  8
_0-7_枠細線
 62
    5
 10
1544.7999999999997
 20
176
 40
32
 41
0.6
 50
0
  1
ＨＳＡＴ－１５Ｌ１２００
  0
LINE
  8
_0-0_計極細
  6
CENTER2
 62
    2
 10
1614.0037602689461
 20
1271.7591343356246
 11
1614.0037602689461
 21
696.00860119378581
  0
ENDSEC
  0
EOF
