  0
SECTION
  2
HEADER
  9
$ACADVER
  1
AC1009
  9
$INSBASE
 10
0
 20
0
 30
0
  9
$EXTMIN
 10
0
 20
0
  9
$EXTMAX
 10
2970
 20
2100
  9
$LIMMIN
 10
0
 20
0
  9
$LIMMAX
 10
2970
 20
2100
  9
$LTSCALE
 40
10
  0
ENDSEC
  0
SECTION
  2
TABLES
  0
TABLE
  2
LTYPE
 70
     9
  0
LTYPE
  2
CONTINUOUS
 70
    64
  3
実線
 72
    65
 73
     0
 40
0.0
  0
LTYPE
  2
DASHED1
 70
    64
  3
--  --  --  --  --  --  --  --  
 72
    65
 73
     2
 40
2.5
 49
1.25
 49
-1.25
  0
LTYPE
  2
DASHED2
 70
    64
  3
----    ----    ----    ----    
 72
    65
 73
     2
 40
5.0
 49
2.5
 49
-2.5
  0
LTYPE
  2
DASHED3
 70
    64
  3
------  ------  ------  ------  
 72
    65
 73
     2
 40
5.0
 49
3.75
 49
-1.25
  0
LTYPE
  2
CENTER1
 70
    64
  3
----- - ----- - ----- - ----- - 
 72
    65
 73
     4
 40
10.0
 49
6.25
 49
-1.25
 49
1.25
 49
-1.25
  0
LTYPE
  2
CENTER2
 70
    64
  3
----------  --  ----------  --  
 72
    65
 73
     4
 40
20.0
 49
12.5
 49
-2.5
 49
2.5
 49
-2.5
  0
LTYPE
  2
PHANTOM1
 70
    64
  3
--- - - --- - - --- - - --- - - 
 72
    65
 73
     6
 40
10.0
 49
3.25
 49
-1.25
 49
1.25
 49
-1.25
 49
1.25
 49
-1.25
  0
LTYPE
  2
PHANTOM2
 70
    64
  3
--------  -  -  --------  -  -  
 72
    65
 73
     6
 40
20.0
 49
10.0
 49
-2.5
 49
1.25
 49
-2.5
 49
1.25
 49
-2.5
  0
LTYPE
  2
DOT
 70
    64
  3
-   -   -   -   -   -   -   -   
 72
    65
 73
     2
 40
2.5
 49
0.625
 49
-1.875
  0
LTYPE
  2
DUMMY
 70
    64
  3
ダミー
 72
    65
 73
     0
 40
0.0
  0
LTYPE
  2
RAND1
 70
    64
  3
ランダム線1
 72
    65
 73
     4
 40
10.0
 49
1.0
 49
-2.0
 49
3.0
 49
-4.0
  0
LTYPE
  2
RAND2
 70
    64
  3
ランダム線2
 72
    65
 73
     4
 40
14.0
 49
2.0
 49
-3.0
 49
4.0
 49
-5.0
  0
LTYPE
  2
RAND3
 70
    64
  3
ランダム線3
 72
    65
 73
     4
 40
18.0
 49
3.0
 49
-4.0
 49
5.0
 49
-6.0
  0
LTYPE
  2
RAND4
 70
    64
  3
ランダム線4
 72
    65
 73
     4
 40
22.0
 49
4.0
 49
-5.0
 49
6.0
 49
-7.0
  0
LTYPE
  2
RAND5
 70
    64
  3
ランダム線5
 72
    65
 73
     4
 40
26.0
 49
5.0
 49
-6.0
 49
7.0
 49
-8.0
  0
LTYPE
  2
LONG1
 70
    64
  3
----------  --  ----------  --  
 72
    65
 73
     4
 40
40.0
 49
32.5
 49
-2.5
 49
2.5
 49
-2.5
  0
LTYPE
  2
LONG2
 70
    64
  3
--------  -  -  --------  -  -  
 72
    65
 73
     6
 40
40.0
 49
30.0
 49
-2.5
 49
1.25
 49
-2.5
 49
1.25
 49
-2.5
  0
LTYPE
  2
LONG3
 70
    64
  3
+++++++++++++++..+++++++++++++++
 72
    65
 73
     2
 40
40.0
 49
37.5
 49
-2.5
  0
LTYPE
  2
LONG4
 70
    64
  3
+++++++++++++++..+++++++++++++++
 72
    65
 73
     2
 40
80.0
 49
75.0
 49
-5.0
  0
LTYPE
  2
LONG5
 70
    64
  3
----------  --  ----------  --  
 72
    65
 73
     4
 40
60.0
 49
37.5
 49
-7.5
 49
7.5
 49
-7.5
  0
LTYPE
  2
dashed
 70
   64
  3
-------   -------------   ------
 72
   65
 73
    2
 40
7.5
 49
6
 49
-1.5
  0
LTYPE
  2
dashed_spaced
 70
   64
  3
----        --------        ----
 72
   65
 73
    2
 40
12
 49
6
 49
-6
  0
LTYPE
  2
long_dashed_dotted
 70
   64
  3
------------- --- --------------
 72
   65
 73
    4
 40
15.25
 49
12
 49
-1.5
 49
0.25
 49
-1.5
  0
LTYPE
  2
long_dashed_double-dotted
 70
   64
  3
----------- --- --- ------------
 72
   65
 73
    6
 40
17
 49
12
 49
-1.5
 49
0.25
 49
-1.5
 49
0.25
 49
-1.5
  0
LTYPE
  2
long_dashed_triplicate-dotted
 70
   64
  3
--------- --- --- --- ----------
 72
   65
 73
    8
 40
18.75
 49
12
 49
-1.5
 49
0.25
 49
-1.5
 49
0.25
 49
-1.5
 49
0.25
 49
-1.5
  0
LTYPE
  2
dotted
 70
   64
  3
   -       -       -       -    
 72
   65
 73
    2
 40
1.75
 49
0.25
 49
-1.5
  0
LTYPE
  2
chain
 70
   64
  3
-------------- -- --------------
 72
   65
 73
    4
 40
18.5
 49
12
 49
-1.5
 49
3.5
 49
-1.5
  0
LTYPE
  2
chain_double_dash
 70
   64
  3
------------ -- -- -------------
 72
   65
 73
    6
 40
23.5
 49
12
 49
-1.5
 49
3.5
 49
-1.5
 49
3.5
 49
-1.5
  0
LTYPE
  2
dashed_dotted
 70
   64
  3
-----------     -     ----------
 72
   65
 73
    4
 40
9.25
 49
6
 49
-1.5
 49
0.25
 49
-1.5
  0
LTYPE
  2
double-dashed_dotted
 70
   64
  3
------   -----------   -   -----
 72
   65
 73
    6
 40
16.75
 49
6
 49
-1.5
 49
6
 49
-1.5
 49
0.25
 49
-1.5
  0
LTYPE
  2
dashed_double-dotted
 70
   64
  3
---------    -    -    ---------
 72
   65
 73
    6
 40
11
 49
6
 49
-1.5
 49
0.25
 49
-1.5
 49
0.25
 49
-1.5
  0
LTYPE
  2
double-dashed_double-dotted
 70
   64
  3
-----   ---------   -   -   ----
 72
   65
 73
    8
 40
18.5
 49
6
 49
-1.5
 49
6
 49
-1.5
 49
0.25
 49
-1.5
 49
0.25
 49
-1.5
  0
LTYPE
  2
dashed_triplicate-dotted
 70
   64
  3
-------    -    -    -    ------
 72
   65
 73
    8
 40
12.75
 49
6
 49
-1.5
 49
0.25
 49
-1.5
 49
0.25
 49
-1.5
 49
0.25
 49
-1.5
  0
LTYPE
  2
double-dashed_triplicate-dotted
 70
   64
  3
-----  ---------  -  -  -  -----
 72
   65
 73
   10
 40
20.25
 49
6
 49
-1.5
 49
6
 49
-1.5
 49
0.25
 49
-1.5
 49
0.25
 49
-1.5
 49
0.25
 49
-1.5
  0
LTYPE
  2
undefined
 70
   64
  3
--------------------------------
 72
   65
 73
    0
 40
0
  0
ENDTAB
  0
TABLE
  2
STYLE
  5
3
100
AcDbSymbolTable
 70
     1
  0
STYLE
  5
10
100
AcDbSymbolTableRecord
100
AcDbTextStyleTableRecord
  2
STANDARD
 70
     0
 40
0.0
 41
1.0
 50
0.0
 71
     0
 42
0.2
  3
txt
  4
bigfont.shx
  0
STYLE
  5
26
100
AcDbSymbolTableRecord
100
AcDbTextStyleTableRecord
  2
TATEGAKI
 70
    68
 40
0.0
 41
1.0
 50
0.0
 71
     0
 42
1.0
  3
txt
  4
bigfont.shx
  0
ENDTAB
  0
TABLE
  2
LAYER
 70
   13
  0
LAYER
  2
_0-0_計極細
 70
   64
 62
    7
  6
CONTINUOUS
  0
LAYER
  2
_0-1_計細線
 70
   64
 62
    7
  6
CONTINUOUS
  0
LAYER
  2
_0-5_寸法線
 70
   64
 62
    7
  6
CONTINUOUS
  0
LAYER
  2
_0-7_枠細線
 70
   64
 62
    7
  6
CONTINUOUS
  0
LAYER
  2
_0-8_枠中線
 70
   64
 62
    7
  6
CONTINUOUS
  0
LAYER
  2
_0-a_極細1
 70
   64
 62
    7
  6
CONTINUOUS
  0
LAYER
  2
_0-d_寸法1
 70
   64
 62
    7
  6
CONTINUOUS
  0
LAYER
  2
_0-e_極細4
 70
   64
 62
    7
  6
CONTINUOUS
  0
LAYER
  2
_1-1_寸法4
 70
   64
 62
    7
  6
CONTINUOUS
  0
LAYER
  2
_1-2_極細2
 70
   64
 62
    7
  6
CONTINUOUS
  0
LAYER
  2
_1-3_細線2
 70
   64
 62
    7
  6
CONTINUOUS
  0
LAYER
  2
_1-5_寸法2
 70
   64
 62
    7
  6
CONTINUOUS
  0
LAYER
  2
ADD_LINE
 70
   64
 62
    7
  6
CONTINUOUS
  0
ENDTAB
  0
ENDSEC
  0
SECTION
  2
BLOCKS
  0
ENDSEC
  0
SECTION
  2
ENTITIES
  0
LINE
  8
_0-8_枠中線
  6
CONTINUOUS
 62
    5
 10
120
 20
120
 11
120
 21
1920
  0
LINE
  8
_0-8_枠中線
  6
CONTINUOUS
 62
    5
 10
120
 20
1920
 11
2850
 21
1920
  0
LINE
  8
_0-8_枠中線
  6
CONTINUOUS
 62
    5
 10
2850
 20
1920
 11
2850
 21
120
  0
LINE
  8
_0-8_枠中線
  6
CONTINUOUS
 62
    5
 10
2850
 20
120
 11
120
 21
120
  0
LINE
  8
_0-7_枠細線
  6
CONTINUOUS
 62
    5
 10
2370
 20
360
 11
2370
 21
200
  0
TEXT
  8
_0-7_枠細線
 62
    5
 10
1875
 20
195
 40
35
 41
1
 50
0
  1
備考
  7
TATEGAKI
  0
TEXT
  8
_0-7_枠細線
 62
    5
 10
1875
 20
275
 40
35
 41
1
 50
0
  1
品番
  7
TATEGAKI
  0
TEXT
  8
_0-7_枠細線
 62
    5
 10
1875
 20
355
 40
35
 41
1
 50
0
  1
品名
  7
TATEGAKI
  0
LINE
  8
_0-7_枠細線
  6
CONTINUOUS
 62
    5
 10
2370
 20
280
 11
1850
 21
280
  0
LINE
  8
_0-7_枠細線
  6
CONTINUOUS
 62
    5
 10
1900
 20
360
 11
1900
 21
120
  0
LINE
  8
_0-8_枠中線
  6
CONTINUOUS
 62
    5
 10
2850
 20
360
 11
1850
 21
360
  0
LINE
  8
_0-8_枠中線
  6
CONTINUOUS
 62
    5
 10
1850
 20
360
 11
1850
 21
120
  0
LINE
  8
_0-7_枠細線
  6
CONTINUOUS
 62
    5
 10
2490
 20
360
 11
2490
 21
120
  0
TEXT
  8
_0-7_枠細線
 62
    5
 10
2385
 20
320
 40
30
 41
1
 50
0
  1
縮　尺
  0
LINE
  8
_0-7_枠細線
  6
CONTINUOUS
 62
    5
 10
2370
 20
310
 11
2490
 21
310
  0
LINE
  8
_0-7_枠細線
  6
CONTINUOUS
 62
    5
 10
2490
 20
200
 11
1850
 21
200
  0
LINE
  8
_0-7_枠細線
  6
CONTINUOUS
 62
    5
 10
2850
 20
180
 11
2490
 21
180
  0
LINE
  8
_0-7_枠細線
  6
CONTINUOUS
 62
    5
 10
2490
 20
240
 11
2850
 21
240
  0
LINE
  8
_0-7_枠細線
  6
CONTINUOUS
 62
    5
 10
2850
 20
280
 11
2490
 21
280
  0
TEXT
  8
_0-7_枠細線
 62
    5
 10
2505
 20
120
 40
30
 41
1
 50
0
  1
年月日
  0
TEXT
  8
_0-7_枠細線
 62
    5
 10
2505
 20
150
 40
30
 41
1
 50
0
  1
作　成
  0
TEXT
  8
_0-7_枠細線
 62
    5
 10
2512.5
 20
245
 40
30
 41
1
 50
0
  1
承 認
  0
LINE
  8
_0-7_枠細線
  6
CONTINUOUS
 62
    5
 10
2610
 20
280
 11
2610
 21
120
  0
TEXT
  8
_0-7_枠細線
 62
    5
 10
2632.5
 20
245
 40
30
 41
1
 50
0
  1
検 図
  0
LINE
  8
_0-7_枠細線
  6
CONTINUOUS
 62
    5
 10
2730
 20
280
 11
2730
 21
180
  0
TEXT
  8
_0-7_枠細線
 62
    5
 10
2752.5
 20
245
 40
30
 41
1
 50
0
  1
設 計
  0
LINE
  8
_0-7_枠細線
  6
CONTINUOUS
 62
    5
 10
2850
 20
1885
 11
1780
 21
1885
  0
TEXT
  8
_0-7_枠細線
 62
    5
 10
1790
 20
1889.9999999999991
 40
25
 41
1
 50
0
  1
記号
  0
TEXT
  8
_0-7_枠細線
 62
    5
 10
1993.75
 20
1890
 40
25
 41
1
 50
0
  1
訂　 正　 記　 事
  0
TEXT
  8
_0-7_枠細線
 62
    5
 10
2362.5
 20
1890
 40
25
 41
1
 50
0
  1
訂 正 年 月 日
  0
TEXT
  8
_0-7_枠細線
 62
    5
 10
2612.5
 20
1890
 40
25
 41
1
 50
0
  1
備　　　　　考
  0
LINE
  8
_0-7_枠細線
  6
CONTINUOUS
 62
    5
 10
2850
 20
1850
 11
1780
 21
1850
  0
LINE
  8
_0-7_枠細線
  6
CONTINUOUS
 62
    5
 10
2550
 20
1850
 11
2550
 21
1919.9999999999989
  0
LINE
  8
_0-7_枠細線
  6
CONTINUOUS
 62
    5
 10
2350
 20
1850
 11
2350
 21
1920
  0
LINE
  8
_0-7_枠細線
  6
CONTINUOUS
 62
    5
 10
1850
 20
1850
 11
1850
 21
1919.9999999999989
  0
LINE
  8
_0-7_枠細線
  6
CONTINUOUS
 62
    5
 10
1780
 20
1850
 11
1780
 21
1919.9999999999989
  0
TEXT
  8
_0-7_枠細線
 62
    5
 10
2750
 20
190
 40
40
 41
1
 50
0
  1
藤戸
  0
TEXT
  8
_0-7_枠細線
 62
    5
 10
2510
 20
190
 40
40
 41
1
 50
0
  1
大野
  0
TEXT
  8
_0-7_枠細線
 62
    5
 10
2630
 20
190
 40
40
 41
1
 50
0
  1
深川
  0
TEXT
  8
_0-7_枠細線
 62
    5
 10
2620
 20
135
 40
30
 41
0.6666666666666666
 50
0
  1
２０１５年０４月０１日
  0
TEXT
  8
_0-7_枠細線
 62
    5
 10
2509.9999999999991
 20
295
 40
50
 41
0.8
 50
0
  1
株式会社シマブン
  0
TEXT
  8
_0-7_枠細線
 62
    5
 10
1930.9999999999993
 20
140
 40
40.000000000000007
 41
0.5999999999999997
 50
0
  1
表面形状については記号表参照のこと
  0
LINE
  8
_0-0_計極細
  6
CONTINUOUS
 62
    2
 10
572.02174142651279
 20
1528.83196239718
 11
572.0217437074873
 21
1523.3319623971804
  0
LINE
  8
_0-0_計極細
  6
CONTINUOUS
 62
    2
 10
578.92174139630902
 20
1528.83196239718
 11
578.92174370748785
 21
1523.3319623971804
  0
LINE
  8
_0-0_計極細
  6
CONTINUOUS
 62
    2
 10
572.02174371673959
 20
1513.3319623971804
 11
572.02174371673959
 21
1507.8319623971802
  0
LINE
  8
_0-0_計極細
  6
CONTINUOUS
 62
    2
 10
578.92174371686201
 20
1513.3319623971804
 11
578.92174371686201
 21
1507.8319623971802
  0
LINE
  8
_0-0_計極細
  6
CONTINUOUS
 62
    2
 10
572.02174371673959
 20
1492.3319623971806
 11
572.02174371673959
 21
1497.8319623971802
  0
LINE
  8
_0-0_計極細
  6
CONTINUOUS
 62
    2
 10
578.92174371686201
 20
1492.3319623971806
 11
578.92174371686201
 21
1497.8319623971802
  0
LINE
  8
_0-0_計極細
  6
CONTINUOUS
 62
    2
 10
572.02174371673959
 20
1476.8319623971811
 11
572.02174371673959
 21
1482.3319623971806
  0
LINE
  8
_0-0_計極細
  6
CONTINUOUS
 62
    2
 10
578.92174371686201
 20
1476.8319623971811
 11
578.92174371686201
 21
1482.3319623971806
  0
LINE
  8
_0-0_計極細
  6
CONTINUOUS
 62
    2
 10
572.02174142651279
 20
1430.3319623971797
 11
572.0217437074873
 21
1435.8319623971793
  0
LINE
  8
_0-0_計極細
  6
CONTINUOUS
 62
    2
 10
578.92174139630902
 20
1430.3319623971797
 11
578.92174370748785
 21
1435.8319623971793
  0
LINE
  8
_0-0_計極細
  6
CONTINUOUS
 62
    2
 10
572.02174371673959
 20
1445.8319623971793
 11
572.02174371673959
 21
1451.3319623971793
  0
LINE
  8
_0-0_計極細
  6
CONTINUOUS
 62
    2
 10
578.92174371686201
 20
1445.8319623971793
 11
578.92174371686201
 21
1451.3319623971793
  0
LINE
  8
_0-0_計極細
  6
CONTINUOUS
 62
    2
 10
572.02174371673959
 20
1466.8319623971788
 11
572.02174371673959
 21
1461.3319623971793
  0
LINE
  8
_0-0_計極細
  6
CONTINUOUS
 62
    2
 10
578.92174371686201
 20
1466.8319623971788
 11
578.92174371686201
 21
1461.3319623971793
  0
ARC
  8
_0-1_計細線
  6
CONTINUOUS
 62
    3
 10
2305.0875024426859
 20
1493.7817672851847
 40
0.501740082747087
 50
330.00000000003996
 51
20.189990999990084
  0
ARC
  8
_0-1_計細線
  6
CONTINUOUS
 62
    3
 10
2305.0875024426859
 20
1465.3821575091756
 40
0.501740082747087
 50
339.81000900000919
 51
29.999999999959307
  0
LINE
  8
_0-1_計細線
  6
CONTINUOUS
 62
    3
 10
2267.7763089164846
 20
1481.8398018008995
 11
2266.4727408210692
 21
1484.0976412046186
  0
LINE
  8
_0-1_計細線
  6
CONTINUOUS
 62
    3
 10
2267.7763089164846
 20
1481.8398018008995
 11
2247.6364175607378
 21
1516.7231135222059
  0
LINE
  8
_0-1_計細線
  6
CONTINUOUS
 62
    3
 10
2267.7763089164846
 20
1481.8398018008995
 11
2270.3834390864113
 21
1481.8398018008995
  0
LINE
  8
_0-1_計細線
  6
CONTINUOUS
 62
    3
 10
2263.8656166720484
 20
1479.5819623971793
 11
2243.7257253162979
 21
1514.4652741184882
  0
ARC
  8
_0-1_計細線
  6
CONTINUOUS
 62
    3
 10
2234.8679684574936
 20
1453.2405026871195
 40
0.501740082747087
 50
219.81000899998574
 51
269.99999999999977
  0
LINE
  8
_0-1_計細線
  6
CONTINUOUS
 62
    3
 10
2267.7763089164846
 20
1477.3241229934602
 11
2247.6364175607378
 21
1442.440811272153
  0
LINE
  8
_0-1_計細線
  6
CONTINUOUS
 62
    3
 10
2263.8656166720484
 20
1479.5819623971793
 11
2243.7257253162979
 21
1444.6986506758722
  0
ARC
  8
_0-1_計細線
  6
CONTINUOUS
 62
    3
 10
2266.4727408210692
 20
1479.5819623971793
 40
46.4111412917104
 50
89.999999999999915
 51
269.99999999999977
  0
ARC
  8
_0-1_計細線
  6
CONTINUOUS
 62
    3
 10
2266.4727408210692
 20
1479.5819623971793
 40
57.198598227560836
 50
89.999999999999915
 51
269.99999999999977
  0
CIRCLE
  8
_0-1_計細線
  6
CONTINUOUS
 62
    3
 10
2266.4727408210692
 20
1479.5819623971793
 40
58.202084413960065
  0
LINE
  8
_0-1_計細線
  6
CONTINUOUS
 62
    3
 10
2267.7763089164846
 20
1481.8398018008995
 11
2308.0560856070751
 21
1481.8398018008995
  0
LINE
  8
_0-1_計細線
  6
CONTINUOUS
 62
    3
 10
2267.7763089164846
 20
1477.3241229934602
 11
2308.0560856070751
 21
1477.3241229934602
  0
ARC
  8
_0-1_計細線
  6
CONTINUOUS
 62
    3
 10
2266.4727408210692
 20
1479.5819623971793
 40
46.4111412917104
 50
269.99999999999977
 51
89.999999999999545
  0
ARC
  8
_0-1_計細線
  6
CONTINUOUS
 62
    3
 10
2266.4727408210692
 20
1479.5819623971793
 40
57.198598227560836
 50
269.99999999999977
 51
89.999999999999545
  0
ARC
  8
_0-1_計細線
  6
CONTINUOUS
 62
    3
 10
2266.4727408210692
 20
1479.5819623971793
 40
41.644595453350377
 50
89.999999999999915
 51
116.89207624474167
  0
ARC
  8
_0-1_計細線
  6
CONTINUOUS
 62
    3
 10
2266.4727408210692
 20
1479.5819623971793
 40
41.644595453350377
 50
123.10791868694014
 51
236.89208131305782
  0
ARC
  8
_0-1_計細線
  6
CONTINUOUS
 62
    3
 10
2266.4727408210692
 20
1479.5819623971793
 40
41.644595453350377
 50
243.10792375525659
 51
269.99999999999977
  0
ARC
  8
_0-1_計細線
  6
CONTINUOUS
 62
    3
 10
2266.4727408210692
 20
1479.5819623971793
 40
41.644595453350377
 50
269.99999999999977
 51
356.8920785890931
  0
ARC
  8
_0-1_計細線
  6
CONTINUOUS
 62
    3
 10
2266.4727408210692
 20
1479.5819623971793
 40
41.644595453350377
 50
3.1079214109077964
 51
89.999999999999915
  0
ARC
  8
_0-0_計極細
  6
CONTINUOUS
 62
    2
 10
2266.4727408210692
 20
1479.5819623971793
 40
50.153133796808191
 50
269.99999999999977
 51
89.999999999999545
  0
ARC
  8
_0-0_計極細
  6
CONTINUOUS
 62
    2
 10
2266.4727408210692
 20
1479.5819623971793
 40
50.153133796808191
 50
89.999999999999915
 51
269.99999999999977
  0
ARC
  8
_0-0_計極細
  6
CONTINUOUS
 62
    2
 10
2252.8577397765621
 20
1450.480920167588
 40
0.501740082747087
 50
149.99997568607938
 51
210.00002243784951
  0
ARC
  8
_0-0_計極細
  6
CONTINUOUS
 62
    2
 10
2266.7624246270179
 20
1473.5610573205931
 40
1.0034861863992508
 50
29.999999999951111
 51
149.99999999997101
  0
ARC
  8
_0-0_計極細
  6
CONTINUOUS
 62
    2
 10
2266.7624246270179
 20
1473.5610573205931
 40
1.0034861863992508
 50
29.999999999951111
 51
106.77865499997519
  0
ARC
  8
_0-0_計極細
  6
CONTINUOUS
 62
    2
 10
2261.1136476095971
 20
1476.8223829107128
 40
1.0034861863992508
 50
329.99999999995163
 51
89.999999999999545
  0
ARC
  8
_0-0_計極細
  6
CONTINUOUS
 62
    2
 10
2225.9775245210312
 20
1486.8607231962724
 40
0.501740082747087
 50
89.993779916795503
 51
169.8086801233749
  0
ARC
  8
_0-0_計極細
  6
CONTINUOUS
 62
    2
 10
2225.9759588155985
 20
1472.3101998635182
 40
0.501740082747087
 50
190.17882981053808
 51
269.99383436904543
  0
ARC
  8
_0-0_計極細
  6
CONTINUOUS
 62
    2
 10
2225.9242265249923
 20
1482.3450487938135
 40
1.0034861863992508
 50
176.10042624738318
 51
269.99385985774035
  0
ARC
  8
_0-0_計極細
  6
CONTINUOUS
 62
    2
 10
2266.4727408210692
 20
1479.5819623971793
 40
37.630656728658437
 50
317.45760300000074
 51
327.38710799999916
  0
ARC
  8
_0-0_計極細
  6
CONTINUOUS
 62
    2
 10
2266.4727408210692
 20
1479.5819623971793
 40
37.630656728658437
 50
32.612892000001082
 51
42.54239699999939
  0
LINE
  8
_0-0_計極細
  6
CONTINUOUS
 62
    2
 10
2301.6469585920568
 20
1460.3030243419539
 11
2292.6888693710562
 21
1475.8188967243154
  0
LINE
  8
_0-0_計極細
  6
CONTINUOUS
 62
    2
 10
2300.2401319745777
 20
1455.7153294888931
 11
2287.9091317296725
 21
1477.0732499416338
  0
LINE
  8
_0-0_計極細
  6
CONTINUOUS
 62
    2
 10
2295.6181962343462
 20
1451.6789448300756
 11
2281.6809931212574
 21
1475.8188967243154
  0
LINE
  8
_0-0_計極細
  6
CONTINUOUS
 62
    2
 10
2301.6469585920568
 20
1498.860900452406
 11
2292.6888693710562
 21
1483.3450280700456
  0
LINE
  8
_0-0_計極細
  6
CONTINUOUS
 62
    2
 10
2300.2401319745777
 20
1503.4485953054664
 11
2287.9091317296725
 21
1482.0906748527254
  0
LINE
  8
_0-0_計極細
  6
CONTINUOUS
 62
    2
 10
2295.6181962343462
 20
1507.4849739433798
 11
2281.6809931212574
 21
1483.3450280700456
  0
LINE
  8
_0-0_計極細
  6
CONTINUOUS
 62
    2
 10
2264.4657744691758
 20
1452.5623260020079
 11
2264.4657744691758
 21
1460.4797379059519
  0
LINE
  8
_0-0_計極細
  6
CONTINUOUS
 62
    2
 10
2264.9675145519232
 20
1452.5297348428282
 11
2264.9675145519232
 21
1459.610698529913
  0
ARC
  8
_0-0_計極細
  6
CONTINUOUS
 62
    2
 10
2266.4727408210692
 20
1479.5819623971793
 40
37.630656728658437
 50
213.59599499999973
 51
225.50677599999941
  0
LINE
  8
_0-0_計極細
  6
CONTINUOUS
 62
    2
 10
2293.4550777092918
 20
1448.4011942109098
 11
2276.9012554798737
 21
1477.0732499416338
  0
LINE
  8
_0-0_計極細
  6
CONTINUOUS
 62
    2
 10
2288.2672250591031
 20
1445.3450068776538
 11
2270.6731168714578
 21
1475.8188967243154
  0
LINE
  8
_0-0_計極細
  6
CONTINUOUS
 62
    2
 10
2270.2581560935796
 20
1438.40522739371
 11
2257.9271558486744
 21
1459.7631478464509
  0
LINE
  8
_0-0_計極細
  6
CONTINUOUS
 62
    2
 10
2276.0647350121526
 20
1440.3897478114777
 11
2262.1275318990629
 21
1464.5296997057167
  0
LINE
  8
_0-0_計極細
  6
CONTINUOUS
 62
    2
 10
2279.9849162029932
 20
1440.6241898133519
 11
2263.4310939735751
 21
1469.296251564982
  0
LINE
  8
_0-0_計極細
  6
CONTINUOUS
 62
    2
 10
2285.225572190704
 20
1443.5889135775869
 11
2267.6314700239636
 21
1474.0627974033418
  0
LINE
  8
_0-0_計極細
  6
CONTINUOUS
 62
    2
 10
2234.8679684574936
 20
1452.7387626043724
 11
2248.0780027808651
 21
1452.7387626043724
  0
ARC
  8
_0-0_計極細
  6
CONTINUOUS
 62
    2
 10
2244.6018332348976
 20
1448.2230837969328
 40
1.0034861863992508
 50
329.99999999997061
 51
89.999999999999545
  0
ARC
  8
_0-0_計極細
  6
CONTINUOUS
 62
    2
 10
2266.4727408210692
 20
1479.5819623971793
 40
37.630656728658437
 50
233.77152299999938
 51
236.31964599999873
  0
ARC
  8
_0-0_計極細
  6
CONTINUOUS
 62
    2
 10
2240.6208529445958
 20
1448.2230837969328
 40
1.0034861863992508
 50
89.999999999999915
 51
230.49822999997428
  0
LINE
  8
_0-0_計極細
  6
CONTINUOUS
 62
    2
 10
2240.6208529445958
 20
1449.226563962427
 11
2244.6018332348976
 21
1449.226563962427
  0
ARC
  8
_0-0_計極細
  6
CONTINUOUS
 62
    2
 10
2266.4727408210692
 20
1479.5819623971793
 40
37.630656728658437
 50
272.61289199999942
 51
282.54239699999982
  0
ARC
  8
_0-0_計極細
  6
CONTINUOUS
 62
    2
 10
2270.6926787920511
 20
1438.6561004455357
 40
0.501740082747087
 50
210.00000000000426
 51
275.88706199997517
  0
LINE
  8
_0-0_計極細
  6
CONTINUOUS
 62
    2
 10
2265.5816829951646
 20
1439.4807236048266
 11
2256.623593774164
 21
1454.9966020080919
  0
LINE
  8
_0-0_計極細
  6
CONTINUOUS
 62
    2
 10
2259.0282348854598
 20
1438.7898247472895
 11
2252.4232177237755
 21
1450.2300501488273
  0
ARC
  8
_0-0_計極細
  6
CONTINUOUS
 62
    2
 10
2266.4727408210692
 20
1479.5819623971793
 40
37.630656728658437
 50
254.49322399999932
 51
266.40400499999907
  0
ARC
  8
_0-0_計極細
  6
CONTINUOUS
 62
    2
 10
2248.0780027808651
 20
1453.2405026871195
 40
0.501740082747087
 50
269.99999999999977
 51
329.99999999989114
  0
ARC
  8
_0-0_計極細
  6
CONTINUOUS
 62
    2
 10
2252.2411034079232
 20
1441.514127750911
 40
1.0034861863992508
 50
249.50177000005806
 51
29.999999999976708
  0
LINE
  8
_0-0_計極細
  6
CONTINUOUS
 62
    2
 10
2253.110142783964
 20
1442.0158678336586
 11
2251.119655649265
 21
1445.46349828956
  0
ARC
  8
_0-0_計極細
  6
CONTINUOUS
 62
    2
 10
2255.7545483772192
 20
1454.4948559044406
 40
1.0034861863992508
 50
29.999999999977071
 51
149.99999999999699
  0
ARC
  8
_0-0_計極細
  6
CONTINUOUS
 62
    2
 10
2266.4727408210692
 20
1479.5819623971793
 40
27.094072844634091
 50
244.78019200000111
 51
249.77896100000117
  0
ARC
  8
_0-0_計極細
  6
CONTINUOUS
 62
    2
 10
2266.4727408210692
 20
1479.5819623971793
 40
37.630656728658437
 50
243.68035399999945
 51
246.22847699999838
  0
ARC
  8
_0-0_計極細
  6
CONTINUOUS
 62
    2
 10
2250.2506102523203
 20
1444.9617582068149
 40
1.0034861863992508
 50
29.999999999977071
 51
150.00000000002294
  0
ARC
  8
_0-0_計極細
  6
CONTINUOUS
 62
    2
 10
2264.7126436191265
 20
1438.9789835220811
 40
1.0034861863992508
 50
267.5178359999677
 51
30.000000000002665
  0
ARC
  8
_0-0_計極細
  6
CONTINUOUS
 62
    2
 10
2259.4627575839313
 20
1439.0406977991152
 40
0.501740082747087
 50
210.00000000010814
 51
260.18999100005101
  0
ARC
  8
_0-0_計極細
  6
CONTINUOUS
 62
    2
 10
2266.4727408210692
 20
1479.5819623971793
 40
27.094072844634091
 50
260.29098299999907
 51
275.37568199999987
  0
ARC
  8
_0-0_計極細
  6
CONTINUOUS
 62
    2
 10
2266.4727408210692
 20
1479.5819623971793
 40
37.630656728658437
 50
288.07291800000053
 51
297.3252259999997
  0
ARC
  8
_0-0_計極細
  6
CONTINUOUS
 62
    2
 10
2266.4727408210692
 20
1479.5819623971793
 40
27.094072844634091
 50
283.31934900000118
 51
296.2837799999993
  0
ARC
  8
_0-0_計極細
  6
CONTINUOUS
 62
    2
 10
2280.4194328805588
 20
1440.8750628651778
 40
0.501740082747087
 50
210.00000000010814
 51
289.81487200010849
  0
ARC
  8
_0-0_計極細
  6
CONTINUOUS
 62
    2
 10
2275.1956896152087
 20
1439.8880077287313
 40
1.0034861863992508
 50
282.39403400005705
 51
30.000000000002665
  0
ARC
  8
_0-0_計極細
  6
CONTINUOUS
 62
    2
 10
2266.4727408210692
 20
1479.5819623971793
 40
37.630656728658437
 50
302.67477399999865
 51
311.92708199999919
  0
ARC
  8
_0-0_計極細
  6
CONTINUOUS
 62
    2
 10
2289.1362644351411
 20
1445.8467529813065
 40
1.0034861863992508
 50
210.00000000002515
 51
303.89345000001418
  0
ARC
  8
_0-0_計極細
  6
CONTINUOUS
 62
    2
 10
2293.0205550108194
 20
1448.1503211590839
 40
0.501740082747087
 50
310.18512800003361
 51
29.999999999907399
  0
ARC
  8
_0-0_計極細
  6
CONTINUOUS
 62
    2
 10
2284.3565328146651
 20
1443.0871674739342
 40
1.0034861863992508
 50
296.10655000002453
 51
29.999999999999204
  0
LINE
  8
_0-0_計極細
  6
CONTINUOUS
 62
    2
 10
2232.1895808759864
 20
1458.7596676809583
 11
2250.1057713597966
 21
1458.7596676809583
  0
ARC
  8
_0-0_計極細
  6
CONTINUOUS
 62
    2
 10
2244.6018332348976
 20
1510.9408409974276
 40
1.0034861863992508
 50
269.99999999999977
 51
30.000000000051159
  0
LINE
  8
_0-0_計極細
  6
CONTINUOUS
 62
    2
 10
2234.8679684574936
 20
1506.425162189988
 11
2248.0780027808651
 21
1506.425162189988
  0
LINE
  8
_0-0_計極細
  6
CONTINUOUS
 62
    2
 10
2232.1895808759864
 20
1500.4042571134014
 11
2250.1057713597966
 21
1500.4042571134014
  0
LINE
  8
_0-0_計極細
  6
CONTINUOUS
 62
    2
 10
2228.9199404159572
 20
1496.8920644923628
 11
2253.581940905764
 21
1496.8920644923628
  0
LINE
  8
_0-0_計極細
  6
CONTINUOUS
 62
    2
 10
2227.7352972376129
 20
1490.8711594157776
 11
2255.6097094846973
 21
1490.8711594157776
  0
LINE
  8
_0-0_計極細
  6
CONTINUOUS
 62
    2
 10
2225.9782405927326
 20
1487.3589667947372
 11
2259.0858790306629
 21
1487.3589667947372
  0
LINE
  8
_0-0_計極細
  6
CONTINUOUS
 62
    2
 10
2225.9254312343055
 20
1481.3380617181519
 11
2261.1136476095971
 21
1481.3380617181519
  0
LINE
  8
_0-0_計極細
  6
CONTINUOUS
 62
    2
 10
2228.9199404159572
 20
1462.2718603019975
 11
2253.581940905764
 21
1462.2718603019975
  0
LINE
  8
_0-0_計極細
  6
CONTINUOUS
 62
    2
 10
2227.7352972376129
 20
1468.2927653785832
 11
2255.6097094846973
 21
1468.2927653785832
  0
LINE
  8
_0-0_計極細
  6
CONTINUOUS
 62
    2
 10
2225.9782405927326
 20
1471.8049579996232
 11
2259.0858790306629
 21
1471.8049579996232
  0
LINE
  8
_0-0_計極細
  6
CONTINUOUS
 62
    2
 10
2225.9254312343055
 20
1477.825863076207
 11
2261.1136476095971
 21
1477.825863076207
  0
ARC
  8
_0-0_計極細
  6
CONTINUOUS
 62
    2
 10
2266.4727408210692
 20
1479.5819623971793
 40
27.094072844634091
 50
140.2909829999995
 51
155.37568200000004
  0
ARC
  8
_0-0_計極細
  6
CONTINUOUS
 62
    2
 10
2266.4727408210692
 20
1479.5819623971793
 40
37.630656728658437
 50
152.61289200000007
 51
162.54239699999968
  0
ARC
  8
_0-0_計極細
  6
CONTINUOUS
 62
    2
 10
2227.7352972376129
 20
1491.8746456021781
 40
1.0034861863992508
 50
162.39403400002107
 51
269.99999999999977
  0
ARC
  8
_0-0_計極細
  6
CONTINUOUS
 62
    2
 10
2232.1895808759864
 20
1457.7561814945577
 40
1.0034861863992508
 50
89.999999999999915
 51
212.4821639999854
  0
ARC
  8
_0-0_計極細
  6
CONTINUOUS
 62
    2
 10
2266.4727408210692
 20
1479.5819623971793
 40
37.630656728658437
 50
168.07291799999925
 51
177.32522600000016
  0
ARC
  8
_0-0_計極細
  6
CONTINUOUS
 62
    2
 10
2266.4727408210692
 20
1479.5819623971793
 40
37.630656728658437
 50
182.67477399999882
 51
191.9270819999997
  0
ARC
  8
_0-0_計極細
  6
CONTINUOUS
 62
    2
 10
2266.4727408210692
 20
1479.5819623971793
 40
37.630656728658437
 50
197.4576029999993
 51
207.38710799999896
  0
ARC
  8
_0-0_計極細
  6
CONTINUOUS
 62
    2
 10
2225.9254312343055
 20
1476.8223829107137
 40
1.0034861863992508
 50
89.999999999999915
 51
183.89344999999844
  0
ARC
  8
_0-0_計極細
  6
CONTINUOUS
 62
    2
 10
2227.7352972376129
 20
1467.2892791921843
 40
1.0034861863992508
 50
89.999999999999915
 51
197.60596600000332
  0
ARC
  8
_0-0_計極細
  6
CONTINUOUS
 62
    2
 10
2228.9199404159572
 20
1462.7736003847438
 40
0.501740082747087
 50
204.11293800002809
 51
269.99999999999977
  0
ARC
  8
_0-0_計極細
  6
CONTINUOUS
 62
    2
 10
2266.4727408210692
 20
1479.5819623971793
 40
27.094072844634091
 50
163.31934899999951
 51
176.28377999999955
  0
ARC
  8
_0-0_計極細
  6
CONTINUOUS
 62
    2
 10
2266.4727408210692
 20
1479.5819623971793
 40
27.094072844634091
 50
183.71621999999911
 51
196.68065099999922
  0
ARC
  8
_0-0_計極細
  6
CONTINUOUS
 62
    2
 10
2266.4727408210692
 20
1479.5819623971793
 40
27.094072844634091
 50
204.62431799999874
 51
219.70901699999865
  0
ARC
  8
_0-0_計極細
  6
CONTINUOUS
 62
    2
 10
2228.9199404159572
 20
1496.3903244096171
 40
0.501740082747087
 50
89.999999999999915
 51
155.88706199997156
  0
ARC
  8
_0-0_計極細
  6
CONTINUOUS
 62
    2
 10
2232.1895808759864
 20
1501.4077432998024
 40
1.0034861863992508
 50
147.5178360000142
 51
269.99999999999977
  0
ARC
  8
_0-0_計極細
  6
CONTINUOUS
 62
    2
 10
2266.4727408210692
 20
1479.5819623971793
 40
37.630656728658437
 50
123.68035400000058
 51
126.22847700000025
  0
ARC
  8
_0-0_計極細
  6
CONTINUOUS
 62
    2
 10
2266.4727408210692
 20
1479.5819623971793
 40
37.630656728658437
 50
134.49322399999971
 51
146.40400499999933
  0
ARC
  8
_0-0_計極細
  6
CONTINUOUS
 62
    2
 10
2234.8679684574936
 20
1505.9234221072415
 40
0.501740082747087
 50
89.999999999999915
 51
140.18999100005377
  0
ARC
  8
_0-0_計極細
  6
CONTINUOUS
 62
    2
 10
2240.6208529445958
 20
1510.9408409974276
 40
1.0034861863992508
 50
129.50177000002535
 51
269.99999999999977
  0
LINE
  8
_0-0_計極細
  6
CONTINUOUS
 62
    2
 10
2240.6208529445958
 20
1509.9373608319333
 11
2244.6018332348976
 21
1509.9373608319333
  0
ARC
  8
_0-0_計極細
  6
CONTINUOUS
 62
    2
 10
2266.4727408210692
 20
1479.5819623971793
 40
37.630656728658437
 50
77.457603000000148
 51
87.387108000000282
  0
ARC
  8
_0-0_計極細
  6
CONTINUOUS
 62
    2
 10
2266.4727408210692
 20
1479.5819623971793
 40
37.630656728658437
 50
77.457603000000148
 51
87.387108000000282
  0
ARC
  8
_0-0_計極細
  6
CONTINUOUS
 62
    2
 10
2271.5421622684025
 20
1476.3206368070619
 40
1.0034861863992508
 50
89.999999999999915
 51
209.9999999999992
  0
ARC
  8
_0-0_計極細
  6
CONTINUOUS
 62
    2
 10
2271.5421622684025
 20
1482.8432879873001
 40
1.0034861863992508
 50
150.00000000000043
 51
269.99999999999977
  0
ARC
  8
_0-0_計極細
  6
CONTINUOUS
 62
    2
 10
2270.6926787920511
 20
1520.5078243488219
 40
0.501740082747087
 50
84.112938000024442
 51
150.00000000004033
  0
LINE
  8
_0-0_計極細
  6
CONTINUOUS
 62
    2
 10
2276.0647350121526
 20
1518.7741709619754
 11
2262.1275318990629
 21
1494.6342250886437
  0
LINE
  8
_0-0_計極細
  6
CONTINUOUS
 62
    2
 10
2279.9849162029932
 20
1518.5397289601042
 11
2263.4310939735751
 21
1489.8676732293784
  0
LINE
  8
_0-0_計極細
  6
CONTINUOUS
 62
    2
 10
2285.225572190704
 20
1515.5750112167734
 11
2267.6314700239636
 21
1485.1011273910185
  0
LINE
  8
_0-0_計極細
  6
CONTINUOUS
 62
    2
 10
2264.4657744691758
 20
1487.5738107505849
 11
2264.4657744691758
 21
1491.6597956254236
  0
LINE
  8
_0-0_計極細
  6
CONTINUOUS
 62
    2
 10
2264.9675145519232
 20
1486.704771374546
 11
2264.9675145519232
 21
1492.5288410223666
  0
ARC
  8
_0-0_計極細
  6
CONTINUOUS
 62
    2
 10
2255.6097094846973
 20
1491.8746456021781
 40
1.0034861863992508
 50
269.99999999999977
 51
29.999999999999204
  0
LINE
  8
_0-0_計極細
  6
CONTINUOUS
 62
    2
 10
2267.9779670902162
 20
1485.7012851881482
 11
2267.9779670902162
 21
1497.7430953413179
  0
LINE
  8
_0-0_計極細
  6
CONTINUOUS
 62
    2
 10
2268.4797131938676
 20
1486.5703305850909
 11
2268.4797131938676
 21
1498.612140738263
  0
ARC
  8
_0-0_計極細
  6
CONTINUOUS
 62
    2
 10
2255.6097094846973
 20
1467.2892791921843
 40
1.0034861863992508
 50
329.9999999999776
 51
89.999999999999545
  0
ARC
  8
_0-0_計極細
  6
CONTINUOUS
 62
    2
 10
2253.581940905764
 20
1462.7736003847438
 40
0.501740082747087
 50
269.99999999999977
 51
329.999999999995
  0
ARC
  8
_0-0_計極細
  6
CONTINUOUS
 62
    2
 10
2266.4727408210692
 20
1479.5819623971793
 40
27.094072844634091
 50
230.22103899999877
 51
235.21980799999864
  0
ARC
  8
_0-0_計極細
  6
CONTINUOUS
 62
    2
 10
2250.1057713597966
 20
1457.7561814945577
 40
1.0034861863992508
 50
330.00000000000011
 51
89.999999999999545
  0
ARC
  8
_0-0_計極細
  6
CONTINUOUS
 62
    2
 10
2258.3616785471468
 20
1460.014020898278
 40
0.501740082747087
 50
149.9999999999884
 51
210.00000000005619
  0
LINE
  8
_0-0_計極細
  6
CONTINUOUS
 62
    2
 10
2264.4657744691758
 20
1467.5041291689367
 11
2264.4657744691758
 21
1471.5901140437754
  0
LINE
  8
_0-0_計極細
  6
CONTINUOUS
 62
    2
 10
2264.9675145519232
 20
1466.635083771992
 11
2264.9675145519232
 21
1472.4591534198139
  0
ARC
  8
_0-0_計極細
  6
CONTINUOUS
 62
    2
 10
2259.0858790306629
 20
1472.3067041032746
 40
0.501740082747087
 50
269.99999999999977
 51
330.00000000003996
  0
ARC
  8
_0-0_計極細
  6
CONTINUOUS
 62
    2
 10
2263.8656166720484
 20
1469.5471185959022
 40
0.501740082747087
 50
150.00000000009922
 51
209.99999999985545
  0
ARC
  8
_0-0_計極細
  6
CONTINUOUS
 62
    2
 10
2261.2584865021181
 20
1464.0279596229695
 40
1.0034861863992508
 50
29.999999999999559
 51
150.00000000000043
  0
ARC
  8
_0-0_計極細
  6
CONTINUOUS
 62
    2
 10
2263.8656166720484
 20
1489.6168061984574
 40
0.501740082747087
 50
150.00000000009922
 51
209.99999999985545
  0
ARC
  8
_0-0_計極細
  6
CONTINUOUS
 62
    2
 10
2266.7624246270179
 20
1485.6028674737659
 40
1.0034861863992508
 50
210.00000000005113
 51
330.00000000002603
  0
ARC
  8
_0-0_計極細
  6
CONTINUOUS
 62
    2
 10
2259.0858790306629
 20
1486.8572206910844
 40
0.501740082747087
 50
29.99999999995967
 51
89.999999999999901
  0
ARC
  8
_0-0_計極細
  6
CONTINUOUS
 62
    2
 10
2261.1136476095971
 20
1482.3415418836466
 40
1.0034861863992508
 50
269.99999999999977
 51
30.000000000002665
  0
LINE
  8
_0-0_計極細
  6
CONTINUOUS
 62
    2
 10
2267.9779670902162
 20
1461.4208294530417
 11
2267.9779670902162
 21
1473.4626396062138
  0
LINE
  8
_0-0_計極細
  6
CONTINUOUS
 62
    2
 10
2268.4797131938676
 20
1460.551784056099
 11
2268.4797131938676
 21
1472.5935942092688
  0
ARC
  8
_0-0_計極細
  6
CONTINUOUS
 62
    2
 10
2266.7624246270179
 20
1485.6028674737659
 40
1.0034861863992508
 50
253.22134500003193
 51
330.00000000002603
  0
LINE
  8
_0-0_計極細
  6
CONTINUOUS
 62
    2
 10
2265.5816829951646
 20
1519.6831951686293
 11
2256.623593774164
 21
1504.167322786268
  0
ARC
  8
_0-0_計極細
  6
CONTINUOUS
 62
    2
 10
2266.4727408210692
 20
1479.5819623971793
 40
37.630656728658437
 50
93.595995000000485
 51
105.50677600000017
  0
LINE
  8
_0-0_計極細
  6
CONTINUOUS
 62
    2
 10
2259.0282348854598
 20
1520.3741000470732
 11
2252.4232177237755
 21
1508.9338746455328
  0
LINE
  8
_0-0_計極細
  6
CONTINUOUS
 62
    2
 10
2270.2581560935796
 20
1520.7586974006492
 11
2257.9271558486744
 21
1499.4007769479076
  0
ARC
  8
_0-0_計極細
  6
CONTINUOUS
 62
    2
 10
2258.3616785471468
 20
1499.1499038960824
 40
0.501740082747087
 50
149.9999999999884
 51
210.00000000001123
  0
ARC
  8
_0-0_計極細
  6
CONTINUOUS
 62
    2
 10
2266.4727408210692
 20
1479.5819623971793
 40
27.094072844634091
 50
110.2210389999981
 51
115.21980799999808
  0
ARC
  8
_0-0_計極細
  6
CONTINUOUS
 62
    2
 10
2255.7545483772192
 20
1504.6690688899212
 40
1.0034861863992508
 50
210.00000000000267
 51
330.00000000002257
  0
ARC
  8
_0-0_計極細
  6
CONTINUOUS
 62
    2
 10
2252.8577404222469
 20
1508.6830015937066
 40
0.501740082747087
 50
149.99999999999537
 51
209.9999999999593
  0
ARC
  8
_0-0_計極細
  6
CONTINUOUS
 62
    2
 10
2266.4727408210692
 20
1479.5819623971793
 40
37.630656728658437
 50
113.77152300000098
 51
116.31964599999986
  0
ARC
  8
_0-0_計極細
  6
CONTINUOUS
 62
    2
 10
2252.2411034079232
 20
1517.6497970434493
 40
1.0034861863992508
 50
330.00000000002257
 51
110.49822999994124
  0
ARC
  8
_0-0_計極細
  6
CONTINUOUS
 62
    2
 10
2250.2506102523203
 20
1514.2021665875448
 40
1.0034861863992508
 50
209.9999999999992
 51
330.00000000000011
  0
LINE
  8
_0-0_計極細
  6
CONTINUOUS
 62
    2
 10
2253.110142783964
 20
1517.1480569607022
 11
2251.119655649265
 21
1513.7004265047999
  0
ARC
  8
_0-0_計極細
  6
CONTINUOUS
 62
    2
 10
2266.4727408210692
 20
1479.5819623971793
 40
27.094072844634091
 50
124.78019199999984
 51
129.77896100000024
  0
ARC
  8
_0-0_計極細
  6
CONTINUOUS
 62
    2
 10
2248.0780027808651
 20
1505.9234221072415
 40
0.501740082747087
 50
30.000000000063526
 51
89.999999999999915
  0
ARC
  8
_0-0_計極細
  6
CONTINUOUS
 62
    2
 10
2250.1057713597966
 20
1501.4077432998024
 40
1.0034861863992508
 50
269.99999999999977
 51
29.999999999999204
  0
ARC
  8
_0-0_計極細
  6
CONTINUOUS
 62
    2
 10
2253.581940905764
 20
1496.3903244096171
 40
0.501740082747087
 50
29.99999999995967
 51
89.999999999999901
  0
LINE
  8
_0-0_計極細
  6
CONTINUOUS
 62
    2
 10
2264.9675145519232
 20
1499.5532262644474
 11
2264.9675145519232
 21
1506.6341899515326
  0
LINE
  8
_0-0_計極細
  6
CONTINUOUS
 62
    2
 10
2264.4657744691758
 20
1498.6841868884089
 11
2264.4657744691758
 21
1506.6015987923524
  0
ARC
  8
_0-0_計極細
  6
CONTINUOUS
 62
    2
 10
2264.7126436191265
 20
1520.1849412722827
 40
1.0034861863992508
 50
329.99999999997414
 51
92.482164000031602
  0
ARC
  8
_0-0_計極細
  6
CONTINUOUS
 62
    2
 10
2266.4727408210692
 20
1479.5819623971793
 40
27.094072844634091
 50
84.624317999999832
 51
99.709017000000401
  0
ARC
  8
_0-0_計極細
  6
CONTINUOUS
 62
    2
 10
2259.4627575839313
 20
1520.1232269952479
 40
0.501740082747087
 50
99.810008999948636
 51
149.99999999993648
  0
ARC
  8
_0-0_計極細
  6
CONTINUOUS
 62
    2
 10
2261.2584865021181
 20
1495.1359651713897
 40
1.0034861863992508
 50
209.9999999999992
 51
330.00000000000011
  0
ARC
  8
_0-0_計極細
  6
CONTINUOUS
 62
    2
 10
2266.4727408210692
 20
1479.5819623971793
 40
27.094072844634091
 50
84.624317999999832
 51
89.999999999999915
  0
ARC
  8
_0-0_計極細
  6
CONTINUOUS
 62
    2
 10
2266.4727408210692
 20
1479.5819623971793
 40
27.094072844634091
 50
20.290983000001571
 51
35.37568200000068
  0
LINE
  8
_0-0_計極細
  6
CONTINUOUS
 62
    2
 10
2293.4550777092918
 20
1510.7627305834521
 11
2276.9012554798737
 21
1482.0906748527254
  0
LINE
  8
_0-0_計極細
  6
CONTINUOUS
 62
    2
 10
2288.2672250591031
 20
1513.8189179167061
 11
2270.6731168714578
 21
1483.3450280700456
  0
ARC
  8
_0-0_計極細
  6
CONTINUOUS
 62
    2
 10
2266.4727408210692
 20
1479.5819623971793
 40
27.094072844634091
 50
303.71622000000156
 51
316.68065099999922
  0
ARC
  8
_0-0_計極細
  6
CONTINUOUS
 62
    2
 10
2282.5500324972945
 20
1476.3206368070619
 40
1.0034861863992508
 50
89.999999999999915
 51
210.00000000002515
  0
ARC
  8
_0-0_計極細
  6
CONTINUOUS
 62
    2
 10
2276.4667327814022
 20
1476.8223829107137
 40
0.501740082747087
 50
30.0000000001085
 51
89.999999999999915
  0
ARC
  8
_0-0_計極細
  6
CONTINUOUS
 62
    2
 10
2282.5500324972945
 20
1482.8432879873001
 40
1.0034861863992508
 50
149.99999999997448
 51
269.99999999999977
  0
ARC
  8
_0-0_計極細
  6
CONTINUOUS
 62
    2
 10
2276.4667327814022
 20
1482.3415418836466
 40
0.501740082747087
 50
269.99999999999977
 51
329.99999999989114
  0
ARC
  8
_0-0_計極細
  6
CONTINUOUS
 62
    2
 10
2266.4727408210692
 20
1479.5819623971793
 40
27.094072844634091
 50
324.62431799999973
 51
339.7090169999999
  0
ARC
  8
_0-0_計極細
  6
CONTINUOUS
 62
    2
 10
2266.4727408210692
 20
1479.5819623971793
 40
27.094072844634091
 50
350.22103899999934
 51
355.21980800000068
  0
ARC
  8
_0-0_計極細
  6
CONTINUOUS
 62
    2
 10
2266.4727408210692
 20
1479.5819623971793
 40
27.094072844634091
 50
4.7801919999998796
 51
9.778961000001221
  0
ARC
  8
_0-0_計極細
  6
CONTINUOUS
 62
    2
 10
2293.5579087470942
 20
1476.3206368070619
 40
1.0034861863992508
 50
89.999999999999915
 51
210.00000000002515
  0
ARC
  8
_0-0_計極細
  6
CONTINUOUS
 62
    2
 10
2287.474609031201
 20
1476.8223829107137
 40
0.501740082747087
 50
30.000000000056566
 51
89.999999999999915
  0
ARC
  8
_0-0_計極細
  6
CONTINUOUS
 62
    2
 10
2293.5579087470942
 20
1482.8432879873001
 40
1.0034861863992508
 50
149.99999999997448
 51
269.99999999999977
  0
ARC
  8
_0-0_計極細
  6
CONTINUOUS
 62
    2
 10
2287.474609031201
 20
1482.3415418836466
 40
0.501740082747087
 50
269.99999999999977
 51
329.9999999999431
  0
ARC
  8
_0-0_計極細
  6
CONTINUOUS
 62
    2
 10
2266.4727408210692
 20
1479.5819623971793
 40
27.094072844634091
 50
43.319349000001104
 51
56.28377999999919
  0
ARC
  8
_0-0_計極細
  6
CONTINUOUS
 62
    2
 10
2266.4727408210692
 20
1479.5819623971793
 40
37.630656728658437
 50
62.674774000000312
 51
71.927081999999317
  0
ARC
  8
_0-0_計極細
  6
CONTINUOUS
 62
    2
 10
2266.4727408210692
 20
1479.5819623971793
 40
27.094072844634091
 50
63.716220000000746
 51
76.680650999998889
  0
ARC
  8
_0-0_計極細
  6
CONTINUOUS
 62
    2
 10
2280.4194328805588
 20
1518.2888619291821
 40
0.501740082747087
 50
70.185127999891137
 51
149.99999999993648
  0
ARC
  8
_0-0_計極細
  6
CONTINUOUS
 62
    2
 10
2275.1956896152087
 20
1519.2759170656291
 40
1.0034861863992508
 50
329.99999999999665
 51
77.605965999942228
  0
ARC
  8
_0-0_計極細
  6
CONTINUOUS
 62
    2
 10
2266.4727408210692
 20
1479.5819623971793
 40
37.630656728658437
 50
48.072918000001373
 51
57.325226000001372
  0
ARC
  8
_0-0_計極細
  6
CONTINUOUS
 62
    2
 10
2289.1362644351411
 20
1513.3171718130543
 40
1.0034861863992508
 50
56.106549999971008
 51
149.99999999999699
  0
ARC
  8
_0-0_計極細
  6
CONTINUOUS
 62
    2
 10
2293.0205550108194
 20
1511.0135976143724
 40
0.501740082747087
 50
330.00000000009186
 51
49.814871999965682
  0
ARC
  8
_0-0_計極細
  6
CONTINUOUS
 62
    2
 10
2284.3565328146651
 20
1516.0767573204248
 40
1.0034861863992508
 50
330.00000000000011
 51
63.893449999974756
  0
ARC
  8
_0-0_計極細
  6
CONTINUOUS
 62
    2
 10
2296.4872416312892
 20
1452.1806909337283
 40
1.0034861863992508
 50
210.00000000002515
 51
317.6059660000256
  0
ARC
  8
_0-0_計極細
  6
CONTINUOUS
 62
    2
 10
2299.8056152970094
 20
1455.4644564370674
 40
0.501740082747087
 50
324.11293799996702
 51
29.999999999959307
  0
ARC
  8
_0-0_計極細
  6
CONTINUOUS
 62
    2
 10
2266.4727408210692
 20
1479.5819623971793
 40
37.630656728658437
 50
14.493223999999607
 51
26.404005000000534
  0
LINE
  8
_0-0_計極細
  6
CONTINUOUS
 62
    2
 10
2305.5220251411574
 20
1493.5309002542645
 11
2298.9170079794721
 21
1482.0906748527254
  0
ARC
  8
_0-0_計極細
  6
CONTINUOUS
 62
    2
 10
2306.5562781524986
 20
1472.8730063511578
 40
1.0034861863992508
 50
209.99999999997672
 51
350.4982300000064
  0
ARC
  8
_0-0_計極細
  6
CONTINUOUS
 62
    2
 10
2306.5562781524986
 20
1486.2909184432031
 40
1.0034861863992508
 50
9.5017699999932326
 51
150.00000000000043
  0
ARC
  8
_0-0_計極細
  6
CONTINUOUS
 62
    2
 10
2266.4727408210692
 20
1479.5819623971793
 40
37.630656728658437
 50
3.6803540000001762
 51
6.228477000000372
  0
ARC
  8
_0-0_計極細
  6
CONTINUOUS
 62
    2
 10
2266.4727408210692
 20
1479.5819623971793
 40
37.630656728658437
 50
353.77152300000063
 51
356.31964600000015
  0
ARC
  8
_0-0_計極細
  6
CONTINUOUS
 62
    2
 10
2266.4727408210692
 20
1479.5819623971793
 40
37.630656728658437
 50
333.59599499999973
 51
345.50677600000074
  0
ARC
  8
_0-0_計極細
  6
CONTINUOUS
 62
    2
 10
2302.5160039890015
 20
1460.8047644247008
 40
1.0034861863992508
 50
209.99999999997672
 51
332.48216400001218
  0
ARC
  8
_0-0_計極細
  6
CONTINUOUS
 62
    2
 10
2304.5657849968929
 20
1476.3206368070619
 40
1.0034861863992508
 50
89.999999999999915
 51
210.00000000002515
  0
ARC
  8
_0-0_計極細
  6
CONTINUOUS
 62
    2
 10
2298.4824852809998
 20
1476.8223829107137
 40
0.501740082747087
 50
30.000000000004636
 51
89.999999999999915
  0
LINE
  8
_0-0_計極細
  6
CONTINUOUS
 62
    2
 10
2305.6872327555539
 20
1472.3712662684111
 11
2303.6967456208549
 21
1475.8188967243154
  0
LINE
  8
_0-0_計極細
  6
CONTINUOUS
 62
    2
 10
2305.5220251411574
 20
1465.6330245400968
 11
2298.9170079794721
 21
1477.0732499416338
  0
ARC
  8
_0-0_計極細
  6
CONTINUOUS
 62
    2
 10
2304.5657849968929
 20
1482.8432879873001
 40
1.0034861863992508
 50
149.99999999997448
 51
269.99999999999977
  0
ARC
  8
_0-0_計極細
  6
CONTINUOUS
 62
    2
 10
2298.4824852809998
 20
1482.3415418836466
 40
0.501740082747087
 50
269.99999999999977
 51
329.999999999995
  0
LINE
  8
_0-0_計極細
  6
CONTINUOUS
 62
    2
 10
2305.6872327555539
 20
1486.7926585259493
 11
2303.6967456208549
 21
1483.3450280700456
  0
ARC
  8
_0-0_計極細
  6
CONTINUOUS
 62
    2
 10
2296.4872416312892
 20
1506.983233860632
 40
1.0034861863992508
 50
42.394033999974049
 51
149.99999999997448
  0
ARC
  8
_0-0_計極細
  6
CONTINUOUS
 62
    2
 10
2299.8056152970094
 20
1503.6994683572925
 40
0.501740082747087
 50
330.00000000003996
 51
35.887062000032259
  0
ARC
  8
_0-0_計極細
  6
CONTINUOUS
 62
    2
 10
2302.5160039890015
 20
1498.3591603696595
 40
1.0034861863992508
 50
27.517836000010465
 51
150.00000000000043
  0
LINE
  8
_0-0_計極細
  6
CONTINUOUS
 62
    2
 10
2267.9779670902162
 20
1452.5297337054619
 11
2267.9779670902162
 21
1454.3964453555552
  0
LINE
  8
_0-0_計極細
  6
CONTINUOUS
 62
    2
 10
2268.4797131938676
 20
1452.5623242573902
 11
2268.4797131938676
 21
1453.5273953239969
  0
LINE
  8
_0-0_計極細
  6
CONTINUOUS
 62
    2
 10
2267.9779670902162
 20
1504.7674769114028
 11
2267.9779670902162
 21
1506.6341910888973
  0
LINE
  8
_0-0_計極細
  6
CONTINUOUS
 62
    2
 10
2268.4797131938676
 20
1505.6365267262054
 11
2268.4797131938676
 21
1506.601600536969
  0
LINE
  8
_0-0_計極細
  6
CENTER2
 62
    2
 10
541.30028444966138
 20
1479.5819623971793
 11
2356.3290050762935
 21
1479.5819623971793
  0
LINE
  8
_0-1_計細線
  6
CONTINUOUS
 62
    3
 10
550.47174370748689
 20
1551.58196239718
 11
550.47174370748689
 21
1407.5819623971793
  0
LINE
  8
_0-1_計細線
  6
CONTINUOUS
 62
    3
 10
550.47174370748689
 20
1407.5819623971793
 11
2346.4717437074869
 21
1407.5819623971793
  0
LINE
  8
_0-1_計細線
  6
CONTINUOUS
 62
    3
 10
2346.4717437074869
 20
1407.5819623971793
 11
2346.4717437074869
 21
1551.58196239718
  0
LINE
  8
_0-1_計細線
  6
CONTINUOUS
 62
    3
 10
2346.4717437074869
 20
1551.58196239718
 11
550.47174370748689
 21
1551.58196239718
  0
LINE
  8
_0-1_計細線
  6
CONTINUOUS
 62
    3
 10
561.47174370748701
 20
1540.5819623971797
 11
561.47174370748701
 21
1418.5819623971793
  0
LINE
  8
_0-1_計細線
  6
CONTINUOUS
 62
    3
 10
561.47174370748701
 20
1418.5819623971793
 11
2335.4717437074869
 21
1418.5819623971793
  0
LINE
  8
_0-1_計細線
  6
CONTINUOUS
 62
    3
 10
2335.4717437074869
 20
1418.5819623971793
 11
2335.4717437074869
 21
1540.5819623971797
  0
LINE
  8
_0-1_計細線
  6
CONTINUOUS
 62
    3
 10
2335.4717437074869
 20
1540.5819623971797
 11
561.47174370748701
 21
1540.5819623971797
  0
ARC
  8
_0-0_計極細
  6
CONTINUOUS
 62
    2
 10
2140.049711824965
 20
1508.5819623970949
 40
54.312365187078854
 50
327.72737804884258
 51
33.846056193751515
  0
ARC
  8
_0-0_計極細
  6
CONTINUOUS
 62
    2
 10
2231.893775590017
 20
1450.5819623972707
 40
54.312365187078854
 50
147.72737804884292
 51
213.84605619376094
  0
LINE
  8
_0-1_計細線
  6
CONTINUOUS
 62
    3
 10
562.97174370748689
 20
1538.8319623971802
 11
562.97174370748689
 21
1528.83196239718
  0
LINE
  8
_0-1_計細線
  6
CONTINUOUS
 62
    3
 10
2185.1581424362093
 20
1538.8319623971802
 11
562.97174370748689
 21
1538.8319623971802
  0
LINE
  8
_0-1_計細線
  6
CONTINUOUS
 62
    3
 10
562.97174370748689
 20
1528.83196239718
 11
2190.4458477106782
 21
1528.83196239718
  0
LINE
  8
_0-1_計細線
  6
CONTINUOUS
 62
    3
 10
562.97174370748689
 20
1523.3319623971797
 11
562.97174370748689
 21
1513.3319623971797
  0
LINE
  8
_0-1_計細線
  6
CONTINUOUS
 62
    3
 10
2192.3208368579335
 20
1523.3319623971797
 11
562.97174370748689
 21
1523.3319623971797
  0
LINE
  8
_0-1_計細線
  6
CONTINUOUS
 62
    3
 10
562.97174370748689
 20
1513.3319623971797
 11
2194.1539677778364
 21
1513.3319623971797
  0
LINE
  8
_0-1_計細線
  6
CONTINUOUS
 62
    3
 10
562.97174370748689
 20
1507.8319623971797
 11
562.97174370748689
 21
1497.8319623971797
  0
LINE
  8
_0-1_計細線
  6
CONTINUOUS
 62
    3
 10
2194.3568983863652
 20
1507.8319623971797
 11
562.97174370748689
 21
1507.8319623971797
  0
LINE
  8
_0-1_計細線
  6
CONTINUOUS
 62
    3
 10
562.97174370748689
 20
1497.8319623971797
 11
2193.287579102087
 21
1497.8319623971797
  0
LINE
  8
_0-1_計細線
  6
CONTINUOUS
 62
    3
 10
562.97174370748689
 20
1492.3319623971797
 11
562.97174370748689
 21
1482.3319623971793
  0
LINE
  8
_0-1_計細線
  6
CONTINUOUS
 62
    3
 10
2191.8741318624079
 20
1492.3319623971797
 11
562.97174370748689
 21
1492.3319623971797
  0
LINE
  8
_0-1_計細線
  6
CONTINUOUS
 62
    3
 10
562.97174370748689
 20
1482.3319623971793
 11
2187.5972723535442
 21
1482.3319623971793
  0
LINE
  8
_0-1_計細線
  6
CONTINUOUS
 62
    3
 10
562.97174370748689
 20
1476.8319623971795
 11
562.97174370748689
 21
1466.8319623971795
  0
LINE
  8
_0-1_計細線
  6
CONTINUOUS
 62
    3
 10
2184.3462150614296
 20
1476.8319623971795
 11
562.97174370748689
 21
1476.8319623971795
  0
LINE
  8
_0-1_計細線
  6
CONTINUOUS
 62
    3
 10
562.97174370748689
 20
1466.8319623971795
 11
2180.0693555525713
 21
1466.8319623971795
  0
LINE
  8
_0-1_計細線
  6
CONTINUOUS
 62
    3
 10
562.97174370748689
 20
1461.3319623971793
 11
562.97174370748689
 21
1451.3319623971788
  0
LINE
  8
_0-1_計細線
  6
CONTINUOUS
 62
    3
 10
2178.6559083128932
 20
1461.3319623971793
 11
562.97174370748689
 21
1461.3319623971793
  0
LINE
  8
_0-1_計細線
  6
CONTINUOUS
 62
    3
 10
562.97174370748689
 20
1451.3319623971788
 11
2177.5865890286168
 21
1451.3319623971788
  0
LINE
  8
_0-1_計細線
  6
CONTINUOUS
 62
    3
 10
562.97174370748689
 20
1445.8319623971788
 11
562.97174370748689
 21
1435.8319623971788
  0
LINE
  8
_0-1_計細線
  6
CONTINUOUS
 62
    3
 10
2177.7895196371474
 20
1445.8319623971788
 11
562.97174370748689
 21
1445.8319623971788
  0
LINE
  8
_0-1_計細線
  6
CONTINUOUS
 62
    3
 10
562.97174370748689
 20
1435.8319623971788
 11
2179.6226505570512
 21
1435.8319623971788
  0
LINE
  8
_0-1_計細線
  6
CONTINUOUS
 62
    3
 10
562.97174370748689
 20
1430.3319623971788
 11
562.97174370748689
 21
1420.3319623971786
  0
LINE
  8
_0-1_計細線
  6
CONTINUOUS
 62
    3
 10
2181.4976397043083
 20
1430.3319623971788
 11
562.97174370748689
 21
1430.3319623971788
  0
LINE
  8
_0-1_計細線
  6
CONTINUOUS
 62
    3
 10
562.97174370748689
 20
1420.3319623971786
 11
2186.7853449787772
 21
1420.3319623971786
  0
LINE
  8
_0-5_寸法線
  6
CONTINUOUS
 62
    7
 10
530.47174370748689
 20
1551.58196239718
 11
370.47174370748735
 21
1551.58196239718
  0
LINE
  8
_0-5_寸法線
  6
CONTINUOUS
 62
    7
 10
380.47174370748735
 20
1551.58196239718
 11
385.6481246095376
 21
1532.2634458713983
  0
LINE
  8
_0-5_寸法線
  6
CONTINUOUS
 62
    7
 10
380.47174370748735
 20
1551.58196239718
 11
375.29536280543681
 21
1532.2634458713983
  0
LINE
  8
_0-5_寸法線
  6
CONTINUOUS
 62
    7
 10
530.47174370748689
 20
1407.5819623971793
 11
370.47174370748735
 21
1407.5819623971793
  0
LINE
  8
_0-5_寸法線
  6
CONTINUOUS
 62
    7
 10
380.47174370748735
 20
1407.5819623971793
 11
375.29536280543698
 21
1426.9004789229607
  0
LINE
  8
_0-5_寸法線
  6
CONTINUOUS
 62
    7
 10
380.47174370748735
 20
1407.5819623971793
 11
385.64812460953772
 21
1426.9004789229607
  0
LINE
  8
_0-5_寸法線
  6
CONTINUOUS
 62
    7
 10
380.47174370748735
 20
1551.58196239718
 11
380.47174370748735
 21
1407.5819623971793
  0
TEXT
  8
_0-5_寸法線
 62
    7
 10
380.47174370748735
 20
1457.0819623971793
 40
30
 41
1
 50
90
  1
144
  0
LINE
  8
_0-5_寸法線
  6
CONTINUOUS
 62
    7
 10
530.47174370748689
 20
1407.5819623971793
 11
440.47174370748689
 21
1407.5819623971793
  0
LINE
  8
_0-5_寸法線
  6
CONTINUOUS
 62
    7
 10
450.47174370748689
 20
1407.5819623971793
 11
455.64812460953732
 21
1388.2634458713981
  0
LINE
  8
_0-5_寸法線
  6
CONTINUOUS
 62
    7
 10
450.47174370748689
 20
1407.5819623971793
 11
445.29536280543653
 21
1388.2634458713981
  0
LINE
  8
_0-5_寸法線
  6
CONTINUOUS
 62
    7
 10
530.47174370748689
 20
1418.5819623971793
 11
440.47174370748689
 21
1418.5819623971793
  0
LINE
  8
_0-5_寸法線
  6
CONTINUOUS
 62
    7
 10
450.47174370748689
 20
1346.856004286632
 11
450.47174370748689
 21
1418.5819623971793
  0
TEXT
  8
_0-5_寸法線
 62
    7
 10
450.47174370748678
 20
1346.856004286632
 40
30
 41
1
 50
89.99999999999973
  1
11
  0
LINE
  8
_0-5_寸法線
  6
CONTINUOUS
 62
    7
 10
450.47174370748689
 20
1418.5819623971793
 11
445.29536280543653
 21
1437.9004789229609
  0
LINE
  8
_0-5_寸法線
  6
CONTINUOUS
 62
    7
 10
450.47174370748689
 20
1418.5819623971793
 11
455.64812460953732
 21
1437.9004789229609
  0
LINE
  8
_0-5_寸法線
  6
CONTINUOUS
 62
    7
 10
530.47174370748689
 20
1540.58196239718
 11
440.47174370748689
 21
1540.5819623971806
  0
LINE
  8
_0-5_寸法線
  6
CONTINUOUS
 62
    7
 10
450.47174370748689
 20
1540.5819623971806
 11
455.64812460953732
 21
1521.263445871399
  0
LINE
  8
_0-5_寸法線
  6
CONTINUOUS
 62
    7
 10
450.47174370748689
 20
1540.5819623971806
 11
445.29536280543653
 21
1521.263445871399
  0
LINE
  8
_0-5_寸法線
  6
CONTINUOUS
 62
    7
 10
450.47174370748689
 20
1418.5819623971793
 11
450.47174370748689
 21
1540.5819623971806
  0
TEXT
  8
_0-5_寸法線
 62
    7
 10
450.47174370748678
 20
1457.0819623971797
 40
30
 41
1
 50
89.999999999999645
  1
122
  0
LINE
  8
_0-5_寸法線
  6
CONTINUOUS
 62
    7
 10
530.47174370748689
 20
1551.58196239718
 11
440.47174370748689
 21
1551.5819623971806
  0
LINE
  8
_0-5_寸法線
  6
CONTINUOUS
 62
    7
 10
450.47174370748689
 20
1551.5819623971806
 11
445.29536280543653
 21
1570.9004789229618
  0
LINE
  8
_0-5_寸法線
  6
CONTINUOUS
 62
    7
 10
450.47174370748689
 20
1551.5819623971806
 11
455.64812460953732
 21
1570.9004789229618
  0
LINE
  8
_0-5_寸法線
  6
CONTINUOUS
 62
    7
 10
450.47174370748689
 20
1540.5819623971806
 11
450.47174370748689
 21
1605.4790331125619
  0
TEXT
  8
_0-5_寸法線
 62
    7
 10
450.47174370748689
 20
1575.4790331125616
 40
30
 41
1
 50
89.99999999999973
  1
11
  0
LINE
  8
_0-5_寸法線
  6
CONTINUOUS
 62
    7
 10
550.47174370748689
 20
1571.58196239718
 11
550.47174370748689
 21
1801.58196239718
  0
LINE
  8
_0-5_寸法線
  6
CONTINUOUS
 62
    7
 10
550.47174370748689
 20
1791.58196239718
 11
569.79026023326821
 21
1796.7583432992301
  0
LINE
  8
_0-5_寸法線
  6
CONTINUOUS
 62
    7
 10
550.47174370748689
 20
1791.58196239718
 11
569.79026023326821
 21
1786.4055814951294
  0
LINE
  8
_0-5_寸法線
  6
CONTINUOUS
 62
    7
 10
2346.4717437074869
 20
1571.58196239718
 11
2346.4717437074869
 21
1801.58196239718
  0
LINE
  8
_0-5_寸法線
  6
CONTINUOUS
 62
    7
 10
2346.4717437074869
 20
1791.58196239718
 11
2327.1532271817059
 21
1786.4055814951294
  0
LINE
  8
_0-5_寸法線
  6
CONTINUOUS
 62
    7
 10
2346.4717437074869
 20
1791.58196239718
 11
2327.1532271817059
 21
1796.7583432992301
  0
LINE
  8
_0-5_寸法線
  6
CONTINUOUS
 62
    7
 10
550.47174370748689
 20
1791.58196239718
 11
2346.4717437074869
 21
1791.58196239718
  0
TEXT
  8
_0-5_寸法線
 62
    7
 10
1418.4717437074871
 20
1791.58196239718
 40
30
 41
1
 50
0
  1
1796
  0
LINE
  8
_0-5_寸法線
  6
CONTINUOUS
 62
    7
 10
2333.9717437074869
 20
1571.58196239718
 11
2333.9717437074869
 21
1661.58196239718
  0
LINE
  8
_0-5_寸法線
  6
CONTINUOUS
 62
    7
 10
2333.9717437074869
 20
1651.58196239718
 11
2314.6532271817059
 21
1646.4055814951294
  0
LINE
  8
_0-5_寸法線
  6
CONTINUOUS
 62
    7
 10
2333.9717437074869
 20
1651.58196239718
 11
2314.6532271817059
 21
1656.7583432992301
  0
LINE
  8
_0-5_寸法線
  6
CONTINUOUS
 62
    7
 10
562.97174370748712
 20
1571.5819623971797
 11
562.97174370748735
 21
1661.58196239718
  0
LINE
  8
_0-5_寸法線
  6
CONTINUOUS
 62
    7
 10
562.97174370748735
 20
1651.58196239718
 11
582.29026023326867
 21
1656.7583432992301
  0
LINE
  8
_0-5_寸法線
  6
CONTINUOUS
 62
    7
 10
562.97174370748735
 20
1651.58196239718
 11
582.29026023326867
 21
1646.4055814951294
  0
LINE
  8
_0-5_寸法線
  6
CONTINUOUS
 62
    7
 10
2333.9717437074869
 20
1651.58196239718
 11
562.97174370748735
 21
1651.58196239718
  0
TEXT
  8
_0-5_寸法線
 62
    7
 10
1418.4717437074871
 20
1651.58196239718
 40
30
 41
1
 50
0
  1
1771
  0
LINE
  8
_0-5_寸法線
  6
CONTINUOUS
 62
    7
 10
550.47174370748689
 20
1571.58196239718
 11
550.47174370748735
 21
1731.58196239718
  0
LINE
  8
_0-5_寸法線
  6
CONTINUOUS
 62
    7
 10
550.47174370748735
 20
1721.58196239718
 11
531.15322718170603
 21
1716.4055814951294
  0
LINE
  8
_0-5_寸法線
  6
CONTINUOUS
 62
    7
 10
550.47174370748735
 20
1721.58196239718
 11
531.15322718170603
 21
1726.7583432992301
  0
LINE
  8
_0-5_寸法線
  6
CONTINUOUS
 62
    7
 10
561.47174370748701
 20
1571.5819623971797
 11
561.47174370748735
 21
1731.58196239718
  0
LINE
  8
_0-5_寸法線
  6
CONTINUOUS
 62
    7
 10
492.2820109427721
 20
1721.58196239718
 11
561.47174370748735
 21
1721.58196239718
  0
TEXT
  8
_0-5_寸法線
 62
    7
 10
492.2820109427721
 20
1721.58196239718
 40
30
 41
1
 50
0
  1
11
  0
LINE
  8
_0-5_寸法線
  6
CONTINUOUS
 62
    7
 10
561.47174370748735
 20
1721.58196239718
 11
580.7902602332689
 21
1726.7583432992301
  0
LINE
  8
_0-5_寸法線
  6
CONTINUOUS
 62
    7
 10
561.47174370748735
 20
1721.58196239718
 11
580.79026023326855
 21
1716.4055814951291
  0
LINE
  8
_0-5_寸法線
  6
CONTINUOUS
 62
    7
 10
2335.4717437074869
 20
1571.58196239718
 11
2335.4717437074873
 21
1731.58196239718
  0
LINE
  8
_0-5_寸法線
  6
CONTINUOUS
 62
    7
 10
2335.4717437074873
 20
1721.58196239718
 11
2316.1532271817059
 21
1716.4055814951294
  0
LINE
  8
_0-5_寸法線
  6
CONTINUOUS
 62
    7
 10
2335.4717437074873
 20
1721.58196239718
 11
2316.1532271817059
 21
1726.7583432992301
  0
LINE
  8
_0-5_寸法線
  6
CONTINUOUS
 62
    7
 10
561.47174370748735
 20
1721.58196239718
 11
2335.4717437074873
 21
1721.58196239718
  0
TEXT
  8
_0-5_寸法線
 62
    7
 10
1418.4717437074869
 20
1721.58196239718
 40
30
 41
1
 50
0
  1
1774
  0
LINE
  8
_0-5_寸法線
  6
CONTINUOUS
 62
    7
 10
2346.4717437074869
 20
1571.58196239718
 11
2346.4717437074878
 21
1731.58196239718
  0
LINE
  8
_0-5_寸法線
  6
CONTINUOUS
 62
    7
 10
2346.4717437074878
 20
1721.58196239718
 11
2365.7902602332688
 21
1726.7583432992301
  0
LINE
  8
_0-5_寸法線
  6
CONTINUOUS
 62
    7
 10
2346.4717437074878
 20
1721.58196239718
 11
2365.7902602332688
 21
1716.4055814951291
  0
LINE
  8
_0-5_寸法線
  6
CONTINUOUS
 62
    7
 10
2335.4717437074873
 20
1721.58196239718
 11
2400.5679780693231
 21
1721.58196239718
  0
TEXT
  8
_0-5_寸法線
 62
    7
 10
2370.5679780693231
 20
1721.58196239718
 40
30
 41
1
 50
0
  1
11
  0
LINE
  8
_0-5_寸法線
  6
CONTINUOUS
 62
    7
 10
550.47174370748689
 20
1387.5819623971793
 11
550.47174370748689
 21
1297.5819623971793
  0
LINE
  8
_0-5_寸法線
  6
CONTINUOUS
 62
    7
 10
550.47174370748689
 20
1307.5819623971793
 11
569.79026023326821
 21
1312.7583432992296
  0
LINE
  8
_0-5_寸法線
  6
CONTINUOUS
 62
    7
 10
550.47174370748689
 20
1307.5819623971793
 11
569.79026023326821
 21
1302.4055814951291
  0
LINE
  8
_0-5_寸法線
  6
CONTINUOUS
 62
    7
 10
2266.4717437074869
 20
1387.5819623971793
 11
2266.4717437074869
 21
1297.5819623971793
  0
LINE
  8
_0-5_寸法線
  6
CONTINUOUS
 62
    7
 10
2266.4717437074869
 20
1307.5819623971793
 11
2247.1532271817059
 21
1302.4055814951291
  0
LINE
  8
_0-5_寸法線
  6
CONTINUOUS
 62
    7
 10
2266.4717437074869
 20
1307.5819623971793
 11
2247.1532271817059
 21
1312.7583432992296
  0
LINE
  8
_0-5_寸法線
  6
CONTINUOUS
 62
    7
 10
550.47174370748689
 20
1307.5819623971793
 11
2266.4717437074869
 21
1307.5819623971793
  0
TEXT
  8
_0-5_寸法線
 62
    7
 10
1378.4717437074867
 20
1307.5819623971793
 40
30
 41
1
 50
0
  1
1716
  0
LINE
  8
_0-5_寸法線
  6
CONTINUOUS
 62
    7
 10
2266.4717437074869
 20
1307.5819623971793
 11
2285.7902602332683
 21
1312.7583432992296
  0
LINE
  8
_0-5_寸法線
  6
CONTINUOUS
 62
    7
 10
2266.4717437074869
 20
1307.5819623971793
 11
2285.7902602332683
 21
1302.4055814951289
  0
LINE
  8
_0-5_寸法線
  6
CONTINUOUS
 62
    7
 10
2346.4717437074869
 20
1387.5819623971793
 11
2346.4717437074869
 21
1297.5819623971793
  0
LINE
  8
_0-5_寸法線
  6
CONTINUOUS
 62
    7
 10
2346.4717437074869
 20
1307.5819623971793
 11
2327.1532271817059
 21
1302.4055814951291
  0
LINE
  8
_0-5_寸法線
  6
CONTINUOUS
 62
    7
 10
2346.4717437074869
 20
1307.5819623971793
 11
2327.1532271817059
 21
1312.7583432992296
  0
LINE
  8
_0-5_寸法線
  6
CONTINUOUS
 62
    7
 10
2266.4717437074869
 20
1307.5819623971793
 11
2346.4717437074869
 21
1307.5819623971793
  0
TEXT
  8
_0-5_寸法線
 62
    7
 10
2291.471743707486
 20
1307.5819623971793
 40
30
 41
1
 50
0
  1
80
  0
LINE
  8
_0-1_計細線
  6
CONTINUOUS
 62
    3
 10
2524.4717437074869
 20
1417.5819623971793
 11
2559.4717437074869
 21
1417.5819623971793
  0
LINE
  8
_0-1_計細線
  6
CONTINUOUS
 62
    3
 10
2559.4717437074869
 20
1417.5819623971793
 11
2559.4717437074869
 21
1416.3819623971804
  0
LINE
  8
_0-1_計細線
  6
CONTINUOUS
 62
    3
 10
2559.4717437074869
 20
1416.3819623971804
 11
2524.4717437074869
 21
1416.3819623971804
  0
LINE
  8
_0-1_計細線
  6
CONTINUOUS
 62
    3
 10
2524.4717437074869
 20
1416.3819623971804
 11
2524.4717437074869
 21
1417.5819623971793
  0
LINE
  8
_0-1_計細線
  6
CONTINUOUS
 62
    3
 10
2526.4717437074869
 20
1416.3819623971804
 11
2526.4717437074869
 21
1417.5819623971793
  0
LINE
  8
_0-1_計細線
  6
CONTINUOUS
 62
    3
 10
2536.4717437074869
 20
1416.3819623971804
 11
2536.4717437074869
 21
1417.5819623971793
  0
LINE
  8
_0-1_計細線
  6
CONTINUOUS
 62
    3
 10
2538.4717437074869
 20
1416.3819623971804
 11
2538.4717437074869
 21
1417.5819623971793
  0
LINE
  8
_0-1_計細線
  6
CONTINUOUS
 62
    3
 10
2540.4717437074869
 20
1416.3819623971804
 11
2540.4717437074869
 21
1417.5819623971793
  0
LINE
  8
_0-1_計細線
  6
CONTINUOUS
 62
    3
 10
2542.4717437074869
 20
1416.3819623971804
 11
2542.4717437074869
 21
1417.5819623971793
  0
LINE
  8
_0-1_計細線
  6
CONTINUOUS
 62
    3
 10
2556.4717437074869
 20
1416.3819623971804
 11
2556.4717437074869
 21
1417.5819623971793
  0
ARC
  8
_0-1_計細線
  6
CONTINUOUS
 62
    3
 10
2535.4717437074869
 20
1540.5819623971795
 40
1
 50
0
 51
89.999999999999915
  0
LINE
  8
_0-1_計細線
  6
CONTINUOUS
 62
    3
 10
2524.4717437074869
 20
1542.7819623971791
 11
2559.4717437074869
 21
1542.7819623971791
  0
LINE
  8
_0-1_計細線
  6
CONTINUOUS
 62
    3
 10
2559.4717437074869
 20
1542.7819623971791
 11
2559.4717437074869
 21
1541.5819623971793
  0
LINE
  8
_0-1_計細線
  6
CONTINUOUS
 62
    3
 10
2559.4717437074869
 20
1541.5819623971793
 11
2524.4717437074869
 21
1541.5819623971793
  0
LINE
  8
_0-1_計細線
  6
CONTINUOUS
 62
    3
 10
2524.4717437074869
 20
1541.5819623971793
 11
2524.4717437074869
 21
1542.7819623971791
  0
LINE
  8
_0-1_計細線
  6
CONTINUOUS
 62
    3
 10
2526.4717437074869
 20
1541.5819623971793
 11
2526.4717437074869
 21
1542.7819623971791
  0
LINE
  8
_0-1_計細線
  6
CONTINUOUS
 62
    3
 10
2536.4717437074869
 20
1541.5819623971793
 11
2536.4717437074869
 21
1542.7819623971791
  0
LINE
  8
_0-1_計細線
  6
CONTINUOUS
 62
    3
 10
2538.4717437074869
 20
1541.5819623971793
 11
2538.4717437074869
 21
1542.7819623971791
  0
LINE
  8
_0-1_計細線
  6
CONTINUOUS
 62
    3
 10
2540.4717437074869
 20
1541.5819623971793
 11
2540.4717437074869
 21
1542.7819623971791
  0
LINE
  8
_0-1_計細線
  6
CONTINUOUS
 62
    3
 10
2542.4717437074869
 20
1541.5819623971793
 11
2542.4717437074869
 21
1542.7819623971791
  0
LINE
  8
_0-1_計細線
  6
CONTINUOUS
 62
    3
 10
2556.4717437074869
 20
1541.5819623971793
 11
2556.4717437074869
 21
1542.7819623971791
  0
LINE
  8
_0-1_計細線
  6
CONTINUOUS
 62
    3
 10
2524.4717437074869
 20
1551.5819623971793
 11
2517.4717437074869
 21
1551.5819623971793
  0
ARC
  8
_0-1_計細線
  6
CONTINUOUS
 62
    3
 10
2517.4717437074869
 20
1550.5819623971795
 40
1
 50
89.999999999999915
 51
179.99999999999983
  0
LINE
  8
_0-1_計細線
  6
CONTINUOUS
 62
    3
 10
2516.4717437074869
 20
1550.5819623971795
 11
2516.4717437074869
 21
1408.5819623971793
  0
ARC
  8
_0-1_計細線
  6
CONTINUOUS
 62
    3
 10
2517.4717437074869
 20
1408.5819623971793
 40
1
 50
179.99999999999983
 51
269.99999999994753
  0
LINE
  8
_0-1_計細線
  6
CONTINUOUS
 62
    3
 10
2524.4717437074869
 20
1407.5819623971793
 11
2524.4717437074869
 21
1551.5819623971793
  0
LINE
  8
_0-1_計細線
  6
CONTINUOUS
 62
    3
 10
2524.4717437074869
 20
1407.5819623971793
 11
2517.471743707486
 21
1407.5819623971793
  0
LINE
  8
_0-0_計極細
  6
CENTER2
 62
    2
 10
2477.2294373217492
 20
1479.5819623971793
 11
2592.4524589044813
 21
1479.5819623971793
  0
LINE
  8
_0-5_寸法線
  6
CONTINUOUS
 62
    7
 10
2516.4717437074869
 20
1571.5819623971793
 11
2516.4717437074869
 21
1661.58196239718
  0
LINE
  8
_0-5_寸法線
  6
CONTINUOUS
 62
    7
 10
2516.4717437074869
 20
1651.58196239718
 11
2497.1532271817059
 21
1646.4055814951294
  0
LINE
  8
_0-5_寸法線
  6
CONTINUOUS
 62
    7
 10
2516.4717437074869
 20
1651.58196239718
 11
2497.1532271817059
 21
1656.7583432992301
  0
LINE
  8
_0-5_寸法線
  6
CONTINUOUS
 62
    7
 10
2536.4717437074869
 20
1562.7819623971791
 11
2536.4717437074869
 21
1661.58196239718
  0
CIRCLE
  8
_0-5_寸法線
  6
CONTINUOUS
 62
    1
 10
2536.4717437074869
 20
1651.58196239718
 40
3.0000000000000004
  0
LINE
  8
_0-5_寸法線
  6
CONTINUOUS
 62
    7
 10
2462.7697517684901
 20
1651.58196239718
 11
2536.4717437074869
 21
1651.58196239718
  0
TEXT
  8
_0-5_寸法線
 62
    7
 10
2462.7697517684901
 20
1651.58196239718
 40
30
 41
1
 50
0
  1
20
  0
LINE
  8
_0-5_寸法線
  6
CONTINUOUS
 62
    7
 10
2559.4717437074869
 20
1562.7819623971791
 11
2559.4717437074869
 21
1661.58196239718
  0
LINE
  8
_0-5_寸法線
  6
CONTINUOUS
 62
    7
 10
2559.4717437074869
 20
1651.58196239718
 11
2578.7902602332683
 21
1656.7583432992301
  0
LINE
  8
_0-5_寸法線
  6
CONTINUOUS
 62
    7
 10
2559.4717437074869
 20
1651.58196239718
 11
2578.7902602332683
 21
1646.4055814951291
  0
LINE
  8
_0-5_寸法線
  6
CONTINUOUS
 62
    7
 10
2536.4717437074869
 20
1651.58196239718
 11
2617.3982317600976
 21
1651.58196239718
  0
TEXT
  8
_0-5_寸法線
 62
    7
 10
2587.398231760098
 20
1651.58196239718
 40
30
 41
1
 50
0
  1
23
  0
LINE
  8
_0-5_寸法線
  6
CONTINUOUS
 62
    7
 10
2516.4717437074869
 20
1571.5819623971802
 11
2516.4717437074883
 21
1731.58196239718
  0
LINE
  8
_0-5_寸法線
  6
CONTINUOUS
 62
    7
 10
2516.4717437074883
 20
1721.58196239718
 11
2535.7902602332697
 21
1726.7583432992301
  0
LINE
  8
_0-5_寸法線
  6
CONTINUOUS
 62
    7
 10
2516.4717437074883
 20
1721.58196239718
 11
2535.7902602332697
 21
1716.4055814951294
  0
LINE
  8
_0-5_寸法線
  6
CONTINUOUS
 62
    7
 10
2559.4717437074869
 20
1562.7819623971791
 11
2559.4717437074869
 21
1731.58196239718
  0
LINE
  8
_0-5_寸法線
  6
CONTINUOUS
 62
    7
 10
2559.4717437074869
 20
1721.58196239718
 11
2540.1532271817055
 21
1716.4055814951294
  0
LINE
  8
_0-5_寸法線
  6
CONTINUOUS
 62
    7
 10
2559.4717437074869
 20
1721.58196239718
 11
2540.1532271817055
 21
1726.7583432992301
  0
LINE
  8
_0-5_寸法線
  6
CONTINUOUS
 62
    7
 10
2516.4717437074883
 20
1721.58196239718
 11
2559.4717437074869
 21
1721.58196239718
  0
TEXT
  8
_0-5_寸法線
 62
    7
 10
2522.9717437074873
 20
1721.58196239718
 40
30
 41
1
 50
0
  1
43
  0
LINE
  8
_0-5_寸法線
  6
CONTINUOUS
 62
    7
 10
701.72301064862381
 20
1440.6488182745134
 11
711.7230107010447
 21
1423.3283102290898
  0
LINE
  8
_0-5_寸法線
  6
CONTINUOUS
 62
    7
 10
701.72301064862381
 20
1440.6488182745134
 11
701.72301070915421
 21
1420.6488182745134
  0
LINE
  8
_0-5_寸法線
  6
CONTINUOUS
 62
    7
 10
701.72301064862381
 20
1440.6488182745134
 11
723.69252622127533
 21
1358.6574709322965
  0
LINE
  8
_0-5_寸法線
  6
CONTINUOUS
 62
    7
 10
723.69252622127533
 20
1358.6574709322965
 11
795.69252622127567
 21
1358.6574709322965
  0
TEXT
  8
_0-5_寸法線
 62
    7
 10
723.69252622127533
 20
1358.6574709322965
 40
30
 41
0.7999999999999998
 50
0
  1
上フタ
  0
LINE
  8
_0-5_寸法線
  6
CONTINUOUS
 62
    7
 10
889.90117835619003
 20
1413.2687904577244
 11
899.90117840861103
 21
1395.9482824123008
  0
LINE
  8
_0-5_寸法線
  6
CONTINUOUS
 62
    7
 10
889.90117835619003
 20
1413.2687904577244
 11
889.90117841672043
 21
1393.2687904577244
  0
LINE
  8
_0-5_寸法線
  6
CONTINUOUS
 62
    7
 10
889.90117835619003
 20
1413.2687904577244
 11
904.53423749777539
 21
1358.6574709322965
  0
LINE
  8
_0-5_寸法線
  6
CONTINUOUS
 62
    7
 10
904.53423749777539
 20
1358.6574709322965
 11
1048.5342374977756
 21
1358.6574709322965
  0
TEXT
  8
_0-5_寸法線
 62
    7
 10
904.53423749777539
 20
1358.6574709322965
 40
30
 41
0.7999999999999998
 50
0
  1
排水ユニット
  0
LINE
  8
_0-7_枠細線
  6
CONTINUOUS
 62
    5
 10
1830
 20
1852.8846679434937
 11
1815
 21
1882.8846679434937
  0
LINE
  8
_0-7_枠細線
  6
CONTINUOUS
 62
    5
 10
1800
 20
1852.8846679434937
 11
1830
 21
1852.8846679434937
  0
LINE
  8
_0-7_枠細線
  6
CONTINUOUS
 62
    5
 10
1815
 20
1882.8846679434937
 11
1800
 21
1852.8846679434937
  0
TEXT
  8
_0-7_枠細線
 62
    5
 10
1804.7303025362964
 20
1852.2706634527333
 40
25
 41
0.8
 50
0
  1
１
  0
TEXT
  8
_0-7_枠細線
 62
    5
 10
1877.7007407407405
 20
1855
 40
25
 41
1
 50
0
  1
排水穴位置変更
  0
TEXT
  8
_0-7_枠細線
 62
    5
 10
2360
 20
1855
 40
25
 41
0.7199999999999999
 50
0
  1
２０２２．０２．１５
  0
LINE
  8
_0-1_計細線
  6
CONTINUOUS
 62
    3
 10
2536.4717437074869
 20
1540.5819623971795
 11
2536.4717437074869
 21
1418.5819623971793
  0
ARC
  8
_0-1_計細線
  6
CONTINUOUS
 62
    3
 10
2535.4717437074869
 20
1418.5819623971793
 40
1
 50
269.99999999999977
 51
359.99999999999966
  0
ARC
  8
_0-1_計細線
  6
CONTINUOUS
 62
    3
 10
2538.9717437074878
 20
1536.5819623971793
 40
1.5000000000000002
 50
0
 51
89.999999999999915
  0
LINE
  8
_0-1_計細線
  6
CONTINUOUS
 62
    3
 10
2536.9717437074878
 20
1538.0819623971795
 11
2538.9717437074878
 21
1538.0819623971795
  0
ARC
  8
_0-1_計細線
  6
CONTINUOUS
 62
    3
 10
2536.9717437074878
 20
1538.5819623971793
 40
0.5
 50
179.99999999999983
 51
269.99999999999977
  0
LINE
  8
_0-1_計細線
  6
CONTINUOUS
 62
    3
 10
2536.9717437074878
 20
1421.0819623971793
 11
2538.9717437074878
 21
1421.0819623971793
  0
ARC
  8
_0-1_計細線
  6
CONTINUOUS
 62
    3
 10
2536.9717437074878
 20
1420.5819623971795
 40
0.5
 50
89.999999999999915
 51
179.99999999999983
  0
LINE
  8
_0-1_計細線
  6
CONTINUOUS
 62
    3
 10
2540.4717437074878
 20
1536.5819623971793
 11
2540.4717437074878
 21
1422.5819623971793
  0
ARC
  8
_0-1_計細線
  6
CONTINUOUS
 62
    3
 10
2538.9717437074878
 20
1422.5819623971793
 40
1.5000000000000002
 50
269.99999999999977
 51
359.99999999999966
  0
TEXT
  8
_0-7_枠細線
 62
    5
 10
2374
 20
235
 40
40
 41
0.6999999999999998
 50
0
  1
１：１０
  0
ARC
  8
_0-1_計細線
  6
CONTINUOUS
 62
    3
 10
2345.4717437074869
 20
1106.5819623971793
 40
1
 50
0
 51
89.999999999999915
  0
LINE
  8
_0-1_計細線
  6
CONTINUOUS
 62
    3
 10
2346.4717437074869
 20
1099.5819623971793
 11
2346.4717437074869
 21
1106.5819623971793
  0
LINE
  8
_0-1_計細線
  6
CONTINUOUS
 62
    3
 10
2345.4717437074878
 20
1099.5819623971793
 11
2346.4717437074869
 21
1099.5819623971793
  0
ARC
  8
_0-1_計細線
  6
CONTINUOUS
 62
    3
 10
2325.4717437074869
 20
1087.0819623971784
 40
1.5000000000000002
 50
89.999999999999915
 51
179.99999999999983
  0
LINE
  8
_0-1_計細線
  6
CONTINUOUS
 62
    3
 10
2323.9717437074869
 20
1087.0819623971784
 11
2323.9717437074869
 21
1085.0819623971784
  0
ARC
  8
_0-1_計細線
  6
CONTINUOUS
 62
    3
 10
2323.4717437074869
 20
1085.0819623971784
 40
1.5000000000000002
 50
269.99999999999977
 51
359.99999999999966
  0
LINE
  8
_0-1_計細線
  6
CONTINUOUS
 62
    3
 10
2324.9717437074869
 20
1087.0819623971784
 11
2324.9717437074869
 21
1085.0819623971784
  0
LINE
  8
_0-1_計細線
  6
CONTINUOUS
 62
    3
 10
2323.4717437074869
 20
1083.5819623971784
 11
2317.4717437074869
 21
1083.5819623971784
  0
ARC
  8
_0-1_計細線
  6
CONTINUOUS
 62
    3
 10
2325.4717437074869
 20
1087.0819623971784
 40
0.5
 50
89.999999999999915
 51
179.99999999999983
  0
ARC
  8
_0-1_計細線
  6
CONTINUOUS
 62
    3
 10
2323.4717437074869
 20
1085.0819623971784
 40
0.5
 50
269.99999999999977
 51
359.99999999999966
  0
LINE
  8
_0-1_計細線
  6
CONTINUOUS
 62
    3
 10
2323.4717437074869
 20
1084.5819623971784
 11
2317.4717437074869
 21
1084.5819623971784
  0
LINE
  8
_0-1_計細線
  6
CONTINUOUS
 62
    3
 10
2317.4717437074869
 20
1084.5819623971784
 11
2317.4717437074869
 21
1083.5819623971784
  0
LINE
  8
_0-1_計細線
  6
CONTINUOUS
 62
    3
 10
2335.4717437074869
 20
1088.5819623971784
 11
2325.4717437074869
 21
1088.5819623971784
  0
LINE
  8
_0-1_計細線
  6
CONTINUOUS
 62
    3
 10
2335.4717437074869
 20
1106.5819623971793
 11
2335.4717437074869
 21
1088.5819623971784
  0
ARC
  8
_0-1_計細線
  6
CONTINUOUS
 62
    3
 10
551.47174370748701
 20
1106.5819623971793
 40
1
 50
89.999999999999915
 51
179.99999999999983
  0
LINE
  8
_0-1_計細線
  6
CONTINUOUS
 62
    3
 10
550.47174370748689
 20
1099.5819623971793
 11
550.47174370748689
 21
1106.5819623971793
  0
LINE
  8
_0-1_計細線
  6
CONTINUOUS
 62
    3
 10
550.47174370748689
 20
1099.5819623971811
 11
2266.4717437074869
 21
1099.5819623971811
  0
LINE
  8
_0-1_計細線
  6
CONTINUOUS
 62
    3
 10
561.47174370748701
 20
1088.5819623971793
 11
561.47174370748701
 21
1099.5819623971811
  0
ARC
  8
_0-1_計細線
  6
CONTINUOUS
 62
    3
 10
562.47174370748689
 20
1088.5819623971793
 40
1
 50
179.99999999999983
 51
269.99999999999977
  0
LINE
  8
_0-1_計細線
  6
CONTINUOUS
 62
    3
 10
2325.4717437074869
 20
1087.5819623971793
 11
2335.4717437074869
 21
1087.5819623971793
  0
LINE
  8
_0-1_計細線
  6
CONTINUOUS
 62
    3
 10
2336.4717437074869
 20
1099.5819623971793
 11
2345.4717437074878
 21
1099.5819623971793
  0
LINE
  8
_0-1_計細線
  6
CONTINUOUS
 62
    3
 10
2345.4717437074878
 20
1099.5819623971793
 11
2345.4717437074878
 21
1106.5819623971795
  0
LINE
  8
_0-1_計細線
  6
CONTINUOUS
 62
    3
 10
2345.4717437074878
 20
1106.5819623971795
 11
2336.4717437074869
 21
1106.5819623971795
  0
LINE
  8
_0-1_計細線
  6
CONTINUOUS
 62
    3
 10
2336.4717437074869
 20
1106.5819623971795
 11
2336.4717437074869
 21
1088.5819623971793
  0
ARC
  8
_0-1_計細線
  6
CONTINUOUS
 62
    3
 10
2335.4717437074869
 20
1088.5819623971793
 40
1
 50
269.99999999999977
 51
359.99999999999966
  0
LINE
  8
_0-1_計細線
  6
CONTINUOUS
 62
    3
 10
2345.4717437074869
 20
1107.5819623971793
 11
2336.4717437074869
 21
1107.5819623971793
  0
LINE
  8
_0-1_計細線
  6
CONTINUOUS
 62
    3
 10
2336.4717437074869
 20
1107.5819623971793
 11
551.47174370748871
 21
1107.5819623971793
  0
ARC
  8
_0-1_計細線
  6
CONTINUOUS
 62
    3
 10
2336.4717437074869
 20
1106.5819623971793
 40
1
 50
89.999999999999915
 51
179.99999999999983
  0
LINE
  8
_0-0_計極細
  6
CENTER1
 62
    2
 10
586.47174370748712
 20
1059.7864818240105
 11
586.47174370748712
 21
1104.840181901548
  0
LINE
  8
_0-1_計細線
  6
CONTINUOUS
 62
    3
 10
580.47174386056781
 20
1099.5693635497491
 11
578.47174386056793
 21
1097.5693635497491
  0
LINE
  8
_0-1_計細線
  6
CONTINUOUS
 62
    3
 10
578.47174386056793
 20
1087.5693635497491
 11
578.47174386056793
 21
1097.5693635497491
  0
LINE
  8
_0-1_計細線
  6
CONTINUOUS
 62
    3
 10
594.47174355440643
 20
1087.5693635497491
 11
594.47174355440643
 21
1097.5693635497491
  0
LINE
  8
_0-1_計細線
  6
CONTINUOUS
 62
    3
 10
580.47174386056781
 20
1083.5693635497491
 11
578.47174386056793
 21
1081.5693635497491
  0
LINE
  8
_0-1_計細線
  6
CONTINUOUS
 62
    3
 10
580.47174386056781
 20
1085.5693635497491
 11
580.47174386056781
 21
1083.5693635497491
  0
LINE
  8
_0-1_計細線
  6
CONTINUOUS
 62
    3
 10
578.47174386056793
 20
1087.5693635497491
 11
580.47174386056781
 21
1085.5693635497491
  0
LINE
  8
_0-1_計細線
  6
CONTINUOUS
 62
    3
 10
592.47174355440643
 20
1083.5693635497491
 11
594.47174355440643
 21
1081.5693635497491
  0
LINE
  8
_0-1_計細線
  6
CONTINUOUS
 62
    3
 10
592.47174355440643
 20
1085.5693635497491
 11
592.47174355440643
 21
1083.5693635497491
  0
LINE
  8
_0-1_計細線
  6
CONTINUOUS
 62
    3
 10
594.47174355440643
 20
1087.5693635497491
 11
592.47174355440643
 21
1085.5693635497491
  0
LINE
  8
_0-1_計細線
  6
CONTINUOUS
 62
    3
 10
578.47174386056793
 20
1081.5693635497491
 11
578.47174386056793
 21
1067.5693635497491
  0
ARC
  8
_0-1_計細線
  6
CONTINUOUS
 62
    3
 10
581.47174386056781
 20
1067.5693635497491
 40
3.0000000000000004
 50
179.99999999999983
 51
269.99999999999977
  0
LINE
  8
_0-1_計細線
  6
CONTINUOUS
 62
    3
 10
581.47174386056781
 20
1064.5693635497491
 11
591.47174355440654
 21
1064.5693635497491
  0
LINE
  8
_0-1_計細線
  6
CONTINUOUS
 62
    3
 10
594.47174355440643
 20
1081.5693635497491
 11
594.47174355440643
 21
1067.5693635497491
  0
ARC
  8
_0-1_計細線
  6
CONTINUOUS
 62
    3
 10
591.47174355440654
 20
1067.5693635497491
 40
3.0000000000000004
 50
269.99999999999977
 51
359.99999999999966
  0
LINE
  8
_0-1_計細線
  6
CONTINUOUS
 62
    3
 10
580.47174386056781
 20
1099.5693635497491
 11
592.47174355440643
 21
1099.5693635497491
  0
LINE
  8
_0-1_計細線
  6
CONTINUOUS
 62
    3
 10
594.47174355440643
 20
1097.5693635497491
 11
592.47174355440643
 21
1099.5693635497491
  0
LINE
  8
_0-5_寸法線
  6
CONTINUOUS
 62
    7
 10
586.47174370748712
 20
1064.5693635497491
 11
596.47174370748701
 21
1047.2488554740603
  0
LINE
  8
_0-5_寸法線
  6
CONTINUOUS
 62
    7
 10
586.47174370748712
 20
1064.5693635497491
 11
586.47174370748701
 21
1044.5693635497491
  0
LINE
  8
_0-5_寸法線
  6
CONTINUOUS
 62
    7
 10
586.47174370748712
 20
1064.5693635497491
 11
602.54869525335403
 21
1004.5693635497491
  0
LINE
  8
_0-5_寸法線
  6
CONTINUOUS
 62
    7
 10
602.54869525335403
 20
1004.5693635497491
 11
698.54869525335403
 21
1004.5693635497491
  0
TEXT
  8
_0-5_寸法線
 62
    7
 10
602.54869525335403
 20
1004.5693635497491
 40
30
 41
0.8000000000000001
 50
0
  1
アンカー
  0
LINE
  8
_0-1_計細線
  6
CONTINUOUS
 62
    3
 10
562.47174370748689
 20
1087.5819623971793
 11
578.47174386056793
 21
1087.5819623971793
  0
LINE
  8
_0-0_計極細
  6
CENTER1
 62
    2
 10
1017.4717437074872
 20
1059.7864818240105
 11
1017.4717437074872
 21
1104.840181901548
  0
LINE
  8
_0-1_計細線
  6
CONTINUOUS
 62
    3
 10
1011.4717438605679
 20
1099.5693635497491
 11
1009.4717438605678
 21
1097.5693635497491
  0
LINE
  8
_0-1_計細線
  6
CONTINUOUS
 62
    3
 10
1009.4717438605678
 20
1087.5693635497491
 11
1009.4717438605678
 21
1097.5693635497491
  0
LINE
  8
_0-1_計細線
  6
CONTINUOUS
 62
    3
 10
1025.4717435544064
 20
1087.5693635497491
 11
1025.4717435544064
 21
1097.5693635497491
  0
LINE
  8
_0-1_計細線
  6
CONTINUOUS
 62
    3
 10
1011.4717438605679
 20
1083.5693635497491
 11
1009.4717438605678
 21
1081.5693635497491
  0
LINE
  8
_0-1_計細線
  6
CONTINUOUS
 62
    3
 10
1011.4717438605679
 20
1085.5693635497491
 11
1011.4717438605679
 21
1083.5693635497491
  0
LINE
  8
_0-1_計細線
  6
CONTINUOUS
 62
    3
 10
1009.4717438605678
 20
1087.5693635497491
 11
1011.4717438605679
 21
1085.5693635497491
  0
LINE
  8
_0-1_計細線
  6
CONTINUOUS
 62
    3
 10
1023.4717435544064
 20
1083.5693635497491
 11
1025.4717435544064
 21
1081.5693635497491
  0
LINE
  8
_0-1_計細線
  6
CONTINUOUS
 62
    3
 10
1023.4717435544064
 20
1085.5693635497491
 11
1023.4717435544064
 21
1083.5693635497491
  0
LINE
  8
_0-1_計細線
  6
CONTINUOUS
 62
    3
 10
1025.4717435544064
 20
1087.5693635497491
 11
1023.4717435544064
 21
1085.5693635497491
  0
LINE
  8
_0-1_計細線
  6
CONTINUOUS
 62
    3
 10
1009.4717438605678
 20
1081.5693635497491
 11
1009.4717438605678
 21
1067.5693635497491
  0
ARC
  8
_0-1_計細線
  6
CONTINUOUS
 62
    3
 10
1012.4717438605678
 20
1067.5693635497491
 40
3.0000000000000004
 50
179.99999999999983
 51
269.99999999999977
  0
LINE
  8
_0-1_計細線
  6
CONTINUOUS
 62
    3
 10
1012.4717438605678
 20
1064.5693635497491
 11
1022.4717435544064
 21
1064.5693635497491
  0
LINE
  8
_0-1_計細線
  6
CONTINUOUS
 62
    3
 10
1025.4717435544064
 20
1081.5693635497491
 11
1025.4717435544064
 21
1067.5693635497491
  0
ARC
  8
_0-1_計細線
  6
CONTINUOUS
 62
    3
 10
1022.4717435544064
 20
1067.5693635497491
 40
3.0000000000000004
 50
269.99999999999977
 51
359.99999999999966
  0
LINE
  8
_0-1_計細線
  6
CONTINUOUS
 62
    3
 10
1011.4717438605679
 20
1099.5693635497491
 11
1023.4717435544064
 21
1099.5693635497491
  0
LINE
  8
_0-1_計細線
  6
CONTINUOUS
 62
    3
 10
1025.4717435544064
 20
1097.5693635497491
 11
1023.4717435544064
 21
1099.5693635497491
  0
LINE
  8
_0-1_計細線
  6
CONTINUOUS
 62
    3
 10
594.47174355440643
 20
1087.5819623971793
 11
1009.4717438605678
 21
1087.5819623971793
  0
LINE
  8
_0-0_計極細
  6
CENTER1
 62
    2
 10
1448.4717437074871
 20
1059.7864818240105
 11
1448.4717437074871
 21
1104.840181901548
  0
LINE
  8
_0-1_計細線
  6
CONTINUOUS
 62
    3
 10
1442.471743860568
 20
1099.5693635497491
 11
1440.4717438605678
 21
1097.5693635497491
  0
LINE
  8
_0-1_計細線
  6
CONTINUOUS
 62
    3
 10
1440.4717438605678
 20
1087.5693635497491
 11
1440.4717438605678
 21
1097.5693635497491
  0
LINE
  8
_0-1_計細線
  6
CONTINUOUS
 62
    3
 10
1456.4717435544067
 20
1087.5693635497491
 11
1456.4717435544067
 21
1097.5693635497491
  0
LINE
  8
_0-1_計細線
  6
CONTINUOUS
 62
    3
 10
1442.471743860568
 20
1083.5693635497491
 11
1440.4717438605678
 21
1081.5693635497491
  0
LINE
  8
_0-1_計細線
  6
CONTINUOUS
 62
    3
 10
1442.471743860568
 20
1085.5693635497491
 11
1442.471743860568
 21
1083.5693635497491
  0
LINE
  8
_0-1_計細線
  6
CONTINUOUS
 62
    3
 10
1440.4717438605678
 20
1087.5693635497491
 11
1442.471743860568
 21
1085.5693635497491
  0
LINE
  8
_0-1_計細線
  6
CONTINUOUS
 62
    3
 10
1454.4717435544064
 20
1083.5693635497491
 11
1456.4717435544067
 21
1081.5693635497491
  0
LINE
  8
_0-1_計細線
  6
CONTINUOUS
 62
    3
 10
1454.4717435544064
 20
1085.5693635497491
 11
1454.4717435544064
 21
1083.5693635497491
  0
LINE
  8
_0-1_計細線
  6
CONTINUOUS
 62
    3
 10
1456.4717435544067
 20
1087.5693635497491
 11
1454.4717435544064
 21
1085.5693635497491
  0
LINE
  8
_0-1_計細線
  6
CONTINUOUS
 62
    3
 10
1440.4717438605678
 20
1081.5693635497491
 11
1440.4717438605678
 21
1067.5693635497491
  0
ARC
  8
_0-1_計細線
  6
CONTINUOUS
 62
    3
 10
1443.471743860568
 20
1067.5693635497491
 40
3.0000000000000004
 50
179.99999999999983
 51
269.99999999999977
  0
LINE
  8
_0-1_計細線
  6
CONTINUOUS
 62
    3
 10
1443.471743860568
 20
1064.5693635497491
 11
1453.4717435544064
 21
1064.5693635497491
  0
LINE
  8
_0-1_計細線
  6
CONTINUOUS
 62
    3
 10
1456.4717435544067
 20
1081.5693635497491
 11
1456.4717435544067
 21
1067.5693635497491
  0
ARC
  8
_0-1_計細線
  6
CONTINUOUS
 62
    3
 10
1453.4717435544064
 20
1067.5693635497491
 40
3.0000000000000004
 50
269.99999999999977
 51
359.99999999999966
  0
LINE
  8
_0-1_計細線
  6
CONTINUOUS
 62
    3
 10
1442.471743860568
 20
1099.5693635497491
 11
1454.4717435544064
 21
1099.5693635497491
  0
LINE
  8
_0-1_計細線
  6
CONTINUOUS
 62
    3
 10
1456.4717435544067
 20
1097.5693635497491
 11
1454.4717435544064
 21
1099.5693635497491
  0
LINE
  8
_0-1_計細線
  6
CONTINUOUS
 62
    3
 10
1025.4717435544064
 20
1087.5819623971793
 11
1440.4717438605678
 21
1087.5819623971793
  0
LINE
  8
_0-0_計極細
  6
CENTER1
 62
    2
 10
1879.4717437074871
 20
1059.7864818240105
 11
1879.4717437074871
 21
1104.840181901548
  0
LINE
  8
_0-1_計細線
  6
CONTINUOUS
 62
    3
 10
1873.471743860568
 20
1099.5693635497491
 11
1871.471743860568
 21
1097.5693635497491
  0
LINE
  8
_0-1_計細線
  6
CONTINUOUS
 62
    3
 10
1871.471743860568
 20
1087.5693635497491
 11
1871.471743860568
 21
1097.5693635497491
  0
LINE
  8
_0-1_計細線
  6
CONTINUOUS
 62
    3
 10
1887.4717435544064
 20
1087.5693635497491
 11
1887.4717435544064
 21
1097.5693635497491
  0
LINE
  8
_0-1_計細線
  6
CONTINUOUS
 62
    3
 10
1873.471743860568
 20
1083.5693635497491
 11
1871.471743860568
 21
1081.5693635497491
  0
LINE
  8
_0-1_計細線
  6
CONTINUOUS
 62
    3
 10
1873.471743860568
 20
1085.5693635497491
 11
1873.471743860568
 21
1083.5693635497491
  0
LINE
  8
_0-1_計細線
  6
CONTINUOUS
 62
    3
 10
1871.471743860568
 20
1087.5693635497491
 11
1873.471743860568
 21
1085.5693635497491
  0
LINE
  8
_0-1_計細線
  6
CONTINUOUS
 62
    3
 10
1885.4717435544067
 20
1083.5693635497491
 11
1887.4717435544064
 21
1081.5693635497491
  0
LINE
  8
_0-1_計細線
  6
CONTINUOUS
 62
    3
 10
1885.4717435544067
 20
1085.5693635497491
 11
1885.4717435544067
 21
1083.5693635497491
  0
LINE
  8
_0-1_計細線
  6
CONTINUOUS
 62
    3
 10
1887.4717435544064
 20
1087.5693635497491
 11
1885.4717435544067
 21
1085.5693635497491
  0
LINE
  8
_0-1_計細線
  6
CONTINUOUS
 62
    3
 10
1871.471743860568
 20
1081.5693635497491
 11
1871.471743860568
 21
1067.5693635497491
  0
ARC
  8
_0-1_計細線
  6
CONTINUOUS
 62
    3
 10
1874.4717438605678
 20
1067.5693635497491
 40
3.0000000000000004
 50
179.99999999999983
 51
269.99999999999977
  0
LINE
  8
_0-1_計細線
  6
CONTINUOUS
 62
    3
 10
1874.4717438605678
 20
1064.5693635497491
 11
1884.4717435544067
 21
1064.5693635497491
  0
LINE
  8
_0-1_計細線
  6
CONTINUOUS
 62
    3
 10
1887.4717435544064
 20
1081.5693635497491
 11
1887.4717435544064
 21
1067.5693635497491
  0
ARC
  8
_0-1_計細線
  6
CONTINUOUS
 62
    3
 10
1884.4717435544067
 20
1067.5693635497491
 40
3.0000000000000004
 50
269.99999999999977
 51
359.99999999999966
  0
LINE
  8
_0-1_計細線
  6
CONTINUOUS
 62
    3
 10
1873.471743860568
 20
1099.5693635497491
 11
1885.4717435544067
 21
1099.5693635497491
  0
LINE
  8
_0-1_計細線
  6
CONTINUOUS
 62
    3
 10
1887.4717435544064
 20
1097.5693635497491
 11
1885.4717435544067
 21
1099.5693635497491
  0
LINE
  8
_0-1_計細線
  6
CONTINUOUS
 62
    3
 10
1887.4717435544064
 20
1087.5819623971793
 11
2266.4717437074869
 21
1087.5819623971793
  0
LINE
  8
_0-1_計細線
  6
CONTINUOUS
 62
    3
 10
1456.4717435544067
 20
1087.5819623971793
 11
1871.471743860568
 21
1087.5819623971793
  0
LINE
  8
_0-0_計極細
  6
DASHED2
 62
    2
 10
2310.4717437074869
 20
1059.7864818240105
 11
2310.4717437074869
 21
1104.840181901548
  0
LINE
  8
_0-1_計細線
  6
DASHED2
 62
    3
 10
2318.4717435544062
 20
1097.5693635497491
 11
2316.4717435544062
 21
1099.5693635497491
  0
LINE
  8
_0-1_計細線
  6
DASHED2
 62
    3
 10
2304.4717438605676
 20
1099.5693635497491
 11
2316.4717435544062
 21
1099.5693635497491
  0
ARC
  8
_0-1_計細線
  6
DASHED2
 62
    3
 10
2315.4717435544062
 20
1067.5693635497491
 40
3.0000000000000004
 50
269.99999999999977
 51
359.99999999999966
  0
LINE
  8
_0-1_計細線
  6
DASHED2
 62
    3
 10
2318.4717435544062
 20
1081.5693635497491
 11
2318.4717435544062
 21
1067.5693635497491
  0
LINE
  8
_0-1_計細線
  6
DASHED2
 62
    3
 10
2305.4717438605676
 20
1064.5693635497491
 11
2315.4717435544062
 21
1064.5693635497491
  0
ARC
  8
_0-1_計細線
  6
DASHED2
 62
    3
 10
2305.4717438605676
 20
1067.5693635497491
 40
3.0000000000000004
 50
179.99999999999983
 51
269.99999999999977
  0
LINE
  8
_0-1_計細線
  6
DASHED2
 62
    3
 10
2302.4717438605676
 20
1081.5693635497491
 11
2302.4717438605676
 21
1067.5693635497491
  0
LINE
  8
_0-1_計細線
  6
DASHED2
 62
    3
 10
2318.4717435544062
 20
1087.5693635497491
 11
2316.4717435544062
 21
1085.5693635497491
  0
LINE
  8
_0-1_計細線
  6
DASHED2
 62
    3
 10
2316.4717435544062
 20
1085.5693635497491
 11
2316.4717435544062
 21
1083.5693635497491
  0
LINE
  8
_0-1_計細線
  6
DASHED2
 62
    3
 10
2316.4717435544062
 20
1083.5693635497491
 11
2318.4717435544062
 21
1081.5693635497491
  0
LINE
  8
_0-1_計細線
  6
DASHED2
 62
    3
 10
2302.4717438605676
 20
1087.5693635497491
 11
2304.4717438605676
 21
1085.5693635497491
  0
LINE
  8
_0-1_計細線
  6
DASHED2
 62
    3
 10
2304.4717438605676
 20
1085.5693635497491
 11
2304.4717438605676
 21
1083.5693635497491
  0
LINE
  8
_0-1_計細線
  6
DASHED2
 62
    3
 10
2304.4717438605676
 20
1083.5693635497491
 11
2302.4717438605676
 21
1081.5693635497491
  0
LINE
  8
_0-1_計細線
  6
DASHED2
 62
    3
 10
2318.4717435544062
 20
1087.5693635497491
 11
2318.4717435544062
 21
1097.5693635497491
  0
LINE
  8
_0-1_計細線
  6
DASHED2
 62
    3
 10
2302.4717438605676
 20
1087.5693635497491
 11
2302.4717438605676
 21
1097.5693635497491
  0
LINE
  8
_0-1_計細線
  6
DASHED2
 62
    3
 10
2304.4717438605676
 20
1099.5693635497491
 11
2302.4717438605676
 21
1097.5693635497491
  0
LINE
  8
_0-1_計細線
  6
CONTINUOUS
 62
    3
 10
2266.4717437074869
 20
1100.5819623971784
 11
2333.9717437074869
 21
1100.5819623971784
  0
LINE
  8
_0-1_計細線
  6
CONTINUOUS
 62
    3
 10
2266.4717437074869
 20
1106.5819623971793
 11
2333.9717437074869
 21
1106.5819623971793
  0
LINE
  8
_0-1_計細線
  6
CONTINUOUS
 62
    3
 10
2266.4717437074869
 20
1088.5819623971793
 11
2333.9717437074869
 21
1088.5819623971793
  0
LINE
  8
_0-1_計細線
  6
CONTINUOUS
 62
    3
 10
2333.9717437074869
 20
1106.5819623971793
 11
2333.9717437074869
 21
1088.5819623971793
  0
LINE
  8
_0-5_寸法線
  6
CONTINUOUS
 62
    7
 10
550.47174370748735
 20
1127.5819623971793
 11
550.4717437074894
 21
1217.5819623971793
  0
LINE
  8
_0-5_寸法線
  6
CONTINUOUS
 62
    7
 10
550.47174370748917
 20
1207.5819623971793
 11
569.79026023327049
 21
1212.7583432992296
  0
LINE
  8
_0-5_寸法線
  6
CONTINUOUS
 62
    7
 10
550.47174370748917
 20
1207.5819623971793
 11
569.79026023327049
 21
1202.4055814951289
  0
LINE
  8
_0-5_寸法線
  6
CONTINUOUS
 62
    7
 10
586.47174370748758
 20
1127.5819623971793
 11
586.47174370748962
 21
1217.5819623971793
  0
LINE
  8
_0-5_寸法線
  6
CONTINUOUS
 62
    7
 10
586.4717437074894
 20
1207.5819623971793
 11
567.15322718170796
 21
1202.4055814951289
  0
LINE
  8
_0-5_寸法線
  6
CONTINUOUS
 62
    7
 10
586.4717437074894
 20
1207.5819623971793
 11
567.15322718170808
 21
1212.7583432992296
  0
LINE
  8
_0-5_寸法線
  6
CONTINUOUS
 62
    7
 10
550.47174370748917
 20
1207.5819623971793
 11
586.4717437074894
 21
1207.5819623971793
  0
TEXT
  8
_0-5_寸法線
 62
    7
 10
553.47174370749053
 20
1207.5819623971793
 40
30
 41
1
 50
0
  1
36
  0
LINE
  8
_0-5_寸法線
  6
CONTINUOUS
 62
    7
 10
586.4717437074894
 20
1207.5819623971793
 11
605.79026023327083
 21
1212.7583432992296
  0
LINE
  8
_0-5_寸法線
  6
CONTINUOUS
 62
    7
 10
586.4717437074894
 20
1207.5819623971793
 11
605.79026023327071
 21
1202.4055814951289
  0
LINE
  8
_0-5_寸法線
  6
CONTINUOUS
 62
    7
 10
2310.4717437074873
 20
1127.5819623971793
 11
2310.4717437074892
 21
1217.5819623971793
  0
LINE
  8
_0-5_寸法線
  6
CONTINUOUS
 62
    7
 10
2310.4717437074892
 20
1207.5819623971793
 11
2291.1532271817077
 21
1202.4055814951289
  0
LINE
  8
_0-5_寸法線
  6
CONTINUOUS
 62
    7
 10
2310.4717437074892
 20
1207.5819623971793
 11
2291.1532271817077
 21
1212.7583432992296
  0
LINE
  8
_0-5_寸法線
  6
CONTINUOUS
 62
    7
 10
586.4717437074894
 20
1207.5819623971793
 11
2310.4717437074892
 21
1207.5819623971793
  0
TEXT
  8
_0-5_寸法線
 62
    7
 10
1373.4717437074912
 20
1207.5819623971793
 40
30
 41
1
 50
0
  1
4@431=1724
  0
LINE
  8
_0-5_寸法線
  6
CONTINUOUS
 62
    7
 10
2310.4717437074892
 20
1207.5819623971793
 11
2329.7902602332706
 21
1212.7583432992296
  0
LINE
  8
_0-5_寸法線
  6
CONTINUOUS
 62
    7
 10
2310.4717437074892
 20
1207.5819623971793
 11
2329.7902602332706
 21
1202.4055814951289
  0
LINE
  8
_0-5_寸法線
  6
CONTINUOUS
 62
    7
 10
2346.4717437074878
 20
1127.5819623971793
 11
2346.4717437074892
 21
1217.5819623971793
  0
LINE
  8
_0-5_寸法線
  6
CONTINUOUS
 62
    7
 10
2346.4717437074892
 20
1207.5819623971793
 11
2327.1532271817077
 21
1202.4055814951289
  0
LINE
  8
_0-5_寸法線
  6
CONTINUOUS
 62
    7
 10
2346.4717437074892
 20
1207.5819623971793
 11
2327.1532271817077
 21
1212.7583432992296
  0
LINE
  8
_0-5_寸法線
  6
CONTINUOUS
 62
    7
 10
2310.4717437074892
 20
1207.5819623971793
 11
2346.4717437074892
 21
1207.5819623971793
  0
TEXT
  8
_0-5_寸法線
 62
    7
 10
2313.4717437074905
 20
1207.581962397179
 40
30
 41
1
 50
0
  1
36
  0
LINE
  8
_0-5_寸法線
  6
CONTINUOUS
 62
    7
 10
2356.4717437074869
 20
1087.5819623971793
 11
2436.4717437074869
 21
1087.5819623971788
  0
LINE
  8
_0-5_寸法線
  6
CONTINUOUS
 62
    7
 10
2426.4717437074869
 20
1087.5819623971788
 11
2431.6481246095373
 21
1068.2634458713974
  0
LINE
  8
_0-5_寸法線
  6
CONTINUOUS
 62
    7
 10
2426.4717437074869
 20
1087.5819623971788
 11
2421.2953628054365
 21
1068.2634458713974
  0
LINE
  8
_0-5_寸法線
  6
CONTINUOUS
 62
    7
 10
2366.4717437074869
 20
1107.5819623971802
 11
2436.4717437074869
 21
1107.5819623971802
  0
LINE
  8
_0-5_寸法線
  6
CONTINUOUS
 62
    7
 10
2426.4717437074869
 20
1107.5819623971802
 11
2421.2953628054365
 21
1126.9004789229616
  0
LINE
  8
_0-5_寸法線
  6
CONTINUOUS
 62
    7
 10
2426.4717437074869
 20
1107.5819623971802
 11
2431.6481246095373
 21
1126.9004789229616
  0
LINE
  8
_0-5_寸法線
  6
CONTINUOUS
 62
    7
 10
2426.4717437074869
 20
1057.5819623971788
 11
2426.4717437074869
 21
1161.2105563382192
  0
TEXT
  8
_0-5_寸法線
 62
    7
 10
2426.4717437074869
 20
1131.2105563382192
 40
30
 41
1
 50
90
  1
20
  0
LINE
  8
_0-5_寸法線
  6
CONTINUOUS
 62
    7
 10
2313.9717437074869
 20
946.58196239717927
 11
2436.4717437074869
 21
946.58196239717824
  0
LINE
  8
_0-5_寸法線
  6
CONTINUOUS
 62
    7
 10
2426.4717437074869
 20
946.58196239717836
 11
2421.2953628054365
 21
965.90047892295968
  0
LINE
  8
_0-5_寸法線
  6
CONTINUOUS
 62
    7
 10
2426.4717437074869
 20
946.58196239717836
 11
2431.6481246095373
 21
965.90047892295968
  0
LINE
  8
_0-5_寸法線
  6
CONTINUOUS
 62
    7
 10
2356.4717438802281
 20
1087.5819623971793
 11
2436.4717437074869
 21
1087.5819623971788
  0
LINE
  8
_0-5_寸法線
  6
CONTINUOUS
 62
    7
 10
2426.4717437074869
 20
1087.5819623971788
 11
2431.6481246095373
 21
1068.2634458713974
  0
LINE
  8
_0-5_寸法線
  6
CONTINUOUS
 62
    7
 10
2426.4717437074869
 20
1087.5819623971788
 11
2421.2953628054365
 21
1068.2634458713974
  0
LINE
  8
_0-5_寸法線
  6
CONTINUOUS
 62
    7
 10
2426.4717437074869
 20
946.58196239717836
 11
2426.4717437074869
 21
1087.5819623971788
  0
TEXT
  8
_0-5_寸法線
 62
    7
 10
2426.4717437074869
 20
994.5819623971795
 40
30
 41
1
 50
90
  1
141
  0
LINE
  8
_0-5_寸法線
  6
CONTINUOUS
 62
    7
 10
2313.9717437074869
 20
946.58196239717938
 11
2492.4717437074869
 21
946.58196239717938
  0
LINE
  8
_0-5_寸法線
  6
CONTINUOUS
 62
    7
 10
2482.4717437074869
 20
946.58196239717938
 11
2477.2953628054365
 21
965.9004789229607
  0
LINE
  8
_0-5_寸法線
  6
CONTINUOUS
 62
    7
 10
2482.4717437074869
 20
946.58196239717938
 11
2487.6481246095373
 21
965.9004789229607
  0
LINE
  8
_0-5_寸法線
  6
CONTINUOUS
 62
    7
 10
2366.4717437074869
 20
1107.5819623971793
 11
2492.4717437074869
 21
1107.5819623971788
  0
LINE
  8
_0-5_寸法線
  6
CONTINUOUS
 62
    7
 10
2482.4717437074869
 20
1107.5819623971788
 11
2487.6481246095373
 21
1088.2634458713974
  0
LINE
  8
_0-5_寸法線
  6
CONTINUOUS
 62
    7
 10
2482.4717437074869
 20
1107.5819623971788
 11
2477.2953628054365
 21
1088.2634458713974
  0
LINE
  8
_0-5_寸法線
  6
CONTINUOUS
 62
    7
 10
2482.4717437074869
 20
946.58196239717938
 11
2482.4717437074869
 21
1107.5819623971788
  0
TEXT
  8
_0-5_寸法線
 62
    7
 10
2482.4717437074869
 20
1004.5819623971779
 40
30
 41
1
 50
90
  1
161
  0
LINE
  8
_0-5_寸法線
  6
CONTINUOUS
 62
    7
 10
2236.168776704837
 20
1022.6852706491655
 11
2229.4786091822466
 21
1003.837415107495
  0
LINE
  8
_0-5_寸法線
  6
CONTINUOUS
 62
    7
 10
2236.168776704837
 20
1022.6852706491655
 11
2220.9509939038653
 21
1009.7076327045147
  0
LINE
  8
_0-5_寸法線
  6
CONTINUOUS
 62
    7
 10
2236.168776704837
 20
1022.6852706491655
 11
2182.6270003119535
 21
944.9055865312439
  0
LINE
  8
_0-5_寸法線
  6
CONTINUOUS
 62
    7
 10
2182.6270003119535
 20
944.9055865312439
 11
1918.6270003119535
 21
944.90558653124504
  0
TEXT
  8
_0-5_寸法線
 62
    7
 10
1918.6270003119535
 20
944.9055865312439
 40
30
 41
0.7999999999999998
 50
0
  1
縦引き排水トラップ一式
  0
ARC
  8
_0-1_計細線
  6
CONTINUOUS
 62
    3
 10
2209.4717437074869
 20
1085.0819623971784
 40
1.5000000000000002
 50
179.99999999999983
 51
269.99999999999977
  0
LINE
  8
_0-1_計細線
  6
CONTINUOUS
 62
    3
 10
2207.9717437074869
 20
1087.0819623971784
 11
2207.9717437074869
 21
1085.0819623971784
  0
ARC
  8
_0-1_計細線
  6
CONTINUOUS
 62
    3
 10
2207.4717437074869
 20
1087.0819623971784
 40
0.5
 50
0
 51
89.999999999999915
  0
LINE
  8
_0-0_計極細
  6
CONTINUOUS
 62
    2
 10
2293.4717437074869
 20
1065.0819791171834
 11
2316.4507437074863
 21
1065.0819791171834
  0
LINE
  8
_0-0_計極細
  6
CONTINUOUS
 62
    2
 10
2304.7217437074869
 20
1059.8819791171827
 11
2293.4717437074869
 21
1059.8819791171827
  0
LINE
  8
_0-0_計極細
  6
CONTINUOUS
 62
    2
 10
2316.4507437074863
 20
1086.2890431171827
 11
2323.3717437074883
 21
1087.2748001318532
  0
LINE
  8
_0-0_計極細
  6
CONTINUOUS
 62
    2
 10
2293.4717437074869
 20
1064.7863151171832
 11
2293.4717437074869
 21
1066.2640681171833
  0
LINE
  8
_0-0_計極細
  6
CONTINUOUS
 62
    2
 10
2293.4717437074869
 20
1065.8819791171827
 11
2314.9717437074869
 21
1065.8819791171827
  0
LINE
  8
_0-0_計極細
  6
CONTINUOUS
 62
    2
 10
2309.9717437074869
 20
1079.389822117183
 11
2309.9717437074869
 21
1080.2890431171827
  0
LINE
  8
_0-0_計極細
  6
CONTINUOUS
 62
    2
 10
2309.9717437074869
 20
1079.389822117183
 11
2266.4717437074869
 21
1079.389822117183
  0
LINE
  8
_0-0_計極細
  6
CONTINUOUS
 62
    2
 10
2309.9717437074869
 20
1074.7898221171827
 11
2266.4717437074869
 21
1074.7898221171836
  0
LINE
  8
_0-0_計極細
  6
CONTINUOUS
 62
    2
 10
2309.9717437074869
 20
1073.2898221171827
 11
2309.9717437074869
 21
1074.7898221171827
  0
LINE
  8
_0-0_計極細
  6
CONTINUOUS
 62
    2
 10
2306.2217437074869
 20
1077.6951531171835
 11
2306.2217437074869
 21
1076.3951531171833
  0
LINE
  8
_0-0_計極細
  6
CONTINUOUS
 62
    2
 10
2306.2217437074869
 20
1075.3951531171833
 11
2306.2217437074869
 21
1074.8951531171833
  0
LINE
  8
_0-0_計極細
  6
CONTINUOUS
 62
    2
 10
2309.8217437074891
 20
1077.6951531171835
 11
2309.8217437074891
 21
1074.8951531171833
  0
LINE
  8
_0-0_計極細
  6
CONTINUOUS
 62
    2
 10
2266.4717437074869
 20
1074.8951531171833
 11
2309.8217437074891
 21
1074.8951531171833
  0
LINE
  8
_0-0_計極細
  6
CONTINUOUS
 62
    2
 10
2266.4717437074869
 20
1075.8951531171833
 11
2305.7217437074869
 21
1075.8951531171833
  0
LINE
  8
_0-0_計極細
  6
CONTINUOUS
 62
    2
 10
2266.4717437074869
 20
1078.1951531171835
 11
2305.7217437074869
 21
1078.1951531171835
  0
LINE
  8
_0-0_計極細
  6
CONTINUOUS
 62
    2
 10
2305.7217437074869
 20
1078.1951531171835
 11
2306.2217437074869
 21
1078.6951531171835
  0
LINE
  8
_0-0_計極細
  6
CONTINUOUS
 62
    2
 10
2306.2217437074869
 20
1077.6951531171835
 11
2305.7217437074869
 21
1078.1951531171835
  0
LINE
  8
_0-0_計極細
  6
CONTINUOUS
 62
    2
 10
2306.2217437074869
 20
1075.3951531171833
 11
2305.7217437074869
 21
1075.8951531171833
  0
LINE
  8
_0-0_計極細
  6
CONTINUOUS
 62
    2
 10
2305.7217437074869
 20
1075.8951531171833
 11
2306.2217437074869
 21
1076.3951531171833
  0
LINE
  8
_0-0_計極細
  6
CONTINUOUS
 62
    2
 10
2309.8217437074891
 20
1077.6951531171835
 11
2310.6217437074883
 21
1079.1951531171835
  0
LINE
  8
_0-0_計極細
  6
CONTINUOUS
 62
    2
 10
2306.2217437074869
 20
1079.1951531171835
 11
2306.2217437074869
 21
1078.6951531171835
  0
LINE
  8
_0-0_計極細
  6
CONTINUOUS
 62
    2
 10
2266.4717437074869
 20
1079.1951531171835
 11
2310.6217437074883
 21
1079.1951531171835
  0
LINE
  8
_0-0_計極細
  6
CONTINUOUS
 62
    2
 10
2266.6717437074876
 20
1080.2890431171836
 11
2310.2717437074898
 21
1080.2890431171827
  0
LINE
  8
_0-0_計極細
  6
CONTINUOUS
 62
    2
 10
2266.6717437074876
 20
1081.2890431171836
 11
2309.6717437074876
 21
1081.2890431171827
  0
ARC
  8
_0-0_計極細
  6
CONTINUOUS
 62
    2
 10
2312.4217437074876
 20
1085.2890431171827
 40
0.5
 50
24.054549000007984
 51
89.999999999999915
  0
ARC
  8
_0-0_計極細
  6
CONTINUOUS
 62
    2
 10
2312.7217437074869
 20
1083.9890431171834
 40
0.1999999999999886
 50
269.99999999999977
 51
359.99999999999966
  0
ARC
  8
_0-0_計極細
  6
CONTINUOUS
 62
    2
 10
2312.4217437074876
 20
1085.2890431171827
 40
0.5
 50
0
 51
24.054549000007984
  0
ARC
  8
_0-0_計極細
  6
CONTINUOUS
 62
    2
 10
2310.2717437074898
 20
1080.7890431171827
 40
0.5
 50
269.99999999999977
 51
359.99999999999966
  0
LINE
  8
_0-0_計極細
  6
CONTINUOUS
 62
    2
 10
2309.6717437074876
 20
1080.2890431171827
 11
2309.6717437074876
 21
1081.2890431171827
  0
LINE
  8
_0-0_計極細
  6
CONTINUOUS
 62
    2
 10
2310.7717437074898
 20
1080.7890431171827
 11
2310.7717437074898
 21
1083.7890431171827
  0
LINE
  8
_0-0_計極細
  6
CONTINUOUS
 62
    2
 10
2310.7717437074898
 20
1083.7890431171827
 11
2312.7217437074869
 21
1083.7890431171827
  0
LINE
  8
_0-0_計極細
  6
CONTINUOUS
 62
    2
 10
2266.4717437074869
 20
1085.7890431171836
 11
2312.4217437074876
 21
1085.7890431171827
  0
LINE
  8
_0-0_計極細
  6
CONTINUOUS
 62
    2
 10
2312.9217437074876
 20
1083.9890431171834
 11
2312.9217437074876
 21
1085.2890431171827
  0
LINE
  8
_0-0_計極細
  6
CONTINUOUS
 62
    2
 10
2297.7580567074874
 20
1067.0890431171829
 11
2297.7580567074874
 21
1068.7890431171827
  0
LINE
  8
_0-0_計極細
  6
CONTINUOUS
 62
    2
 10
2301.2580567074874
 20
1067.0890431171829
 11
2301.2580567074874
 21
1068.7890431171827
  0
LINE
  8
_0-0_計極細
  6
CONTINUOUS
 62
    2
 10
2296.2580567074874
 20
1067.0890431171829
 11
2296.2580567074874
 21
1068.7890431171827
  0
LINE
  8
_0-0_計極細
  6
CONTINUOUS
 62
    2
 10
2296.2580567074874
 20
1067.0890431171829
 11
2301.2580567074874
 21
1067.0890431171829
  0
LINE
  8
_0-0_計極細
  6
CONTINUOUS
 62
    2
 10
2309.4717437074869
 20
1068.7890431171827
 11
2314.9717437074869
 21
1068.7890431171827
  0
LINE
  8
_0-0_計極細
  6
CONTINUOUS
 62
    2
 10
2308.6415597074883
 20
1066.7890431171827
 11
2309.4717437074869
 21
1066.7890431171827
  0
LINE
  8
_0-0_計極細
  6
CONTINUOUS
 62
    2
 10
2309.4717437074869
 20
1071.4890431171834
 11
2310.7717437074898
 21
1071.4890431171834
  0
LINE
  8
_0-0_計極細
  6
CONTINUOUS
 62
    2
 10
2309.4717437074869
 20
1070.7890431171827
 11
2311.4717437074869
 21
1070.7890431171827
  0
LINE
  8
_0-0_計極細
  6
CONTINUOUS
 62
    2
 10
2307.2217437074869
 20
1068.889822117183
 11
2307.2217437074869
 21
1072.7890431171827
  0
LINE
  8
_0-0_計極細
  6
CONTINUOUS
 62
    2
 10
2309.4717437074869
 20
1066.7890431171827
 11
2309.4717437074869
 21
1072.7890431171827
  0
LINE
  8
_0-0_計極細
  6
CONTINUOUS
 62
    2
 10
2316.4507437074863
 20
1070.268043117183
 11
2314.9717437074869
 21
1068.7890431171827
  0
LINE
  8
_0-0_計極細
  6
CONTINUOUS
 62
    2
 10
2311.4717437074869
 20
1070.7890431171827
 11
2311.4717437074869
 21
1082.0390431171827
  0
ARC
  8
_0-0_計極細
  6
CONTINUOUS
 62
    2
 10
2312.5217437074898
 20
1082.0390431171827
 40
1.0500000000000114
 50
89.999999999999915
 51
179.99999999999983
  0
LINE
  8
_0-0_計極細
  6
CONTINUOUS
 62
    2
 10
2313.7129677074881
 20
1083.0890431171829
 11
2312.5217437074898
 21
1083.0890431171829
  0
ARC
  8
_0-0_計極細
  6
CONTINUOUS
 62
    2
 10
2313.7129677074881
 20
1084.7890431171827
 40
1.6999999999999886
 50
269.99999999999977
 51
356.64911199999773
  0
ARC
  8
_0-0_計極細
  6
CONTINUOUS
 62
    2
 10
2313.7129677074881
 20
1084.7890431171827
 40
1
 50
269.99999999999977
 51
356.64911200003189
  0
ARC
  8
_0-0_計極細
  6
CONTINUOUS
 62
    2
 10
2316.4507437074863
 20
1084.5390431171827
 40
1.7500000000000002
 50
89.999999999999915
 51
175.84900999996924
  0
ARC
  8
_0-0_計極細
  6
CONTINUOUS
 62
    2
 10
2312.5217437074898
 20
1082.0390431171827
 40
1.7500000000000002
 50
89.999999999999915
 51
179.99999999999983
  0
LINE
  8
_0-0_計極細
  6
CONTINUOUS
 62
    2
 10
2312.9717437074869
 20
1083.7890431171827
 11
2312.9717437074869
 21
1086.2890431171827
  0
LINE
  8
_0-0_計極細
  6
CONTINUOUS
 62
    2
 10
2310.7717437074898
 20
1071.4890431171834
 11
2310.7717437074898
 21
1082.0390431171827
  0
LINE
  8
_0-0_計極細
  6
CONTINUOUS
 62
    2
 10
2313.7129677074881
 20
1083.7890431171827
 11
2312.5217437074898
 21
1083.7890431171827
  0
LINE
  8
_0-0_計極細
  6
CONTINUOUS
 62
    2
 10
2306.7217437074869
 20
1072.7890431171827
 11
2310.7717437074898
 21
1072.7890431171827
  0
LINE
  8
_0-0_計極細
  6
CONTINUOUS
 62
    2
 10
2266.4717437074869
 20
1086.2890431171836
 11
2316.4507437074863
 21
1086.2890431171827
  0
LINE
  8
_0-0_計極細
  6
CONTINUOUS
 62
    2
 10
2294.0289047074875
 20
1068.7890431171827
 11
2303.9700507074886
 21
1068.7890431171827
  0
ARC
  8
_0-0_計極細
  6
CONTINUOUS
 62
    2
 10
2304.7217437074869
 20
1058.8819791171827
 40
1
 50
89.999999999999915
 51
179.99999999999983
  0
ARC
  8
_0-0_計極細
  6
CONTINUOUS
 62
    2
 10
2304.7217437074869
 20
1058.8819791171827
 40
1
 50
0
 51
89.999999999999915
  0
LINE
  8
_0-0_計極細
  6
CONTINUOUS
 62
    2
 10
2323.3717437074883
 20
1084.8819791171827
 11
2316.4507437074863
 21
1084.0819791171834
  0
LINE
  8
_0-0_計極細
  6
CONTINUOUS
 62
    2
 10
2316.4507437074863
 20
1065.0819791171834
 11
2314.9717437074869
 21
1065.8819791171827
  0
LINE
  8
_0-0_計極細
  6
CONTINUOUS
 62
    2
 10
2314.9717437074869
 20
1065.8819791171827
 11
2314.9717437074869
 21
1068.7890431171827
  0
LINE
  8
_0-1_計細線
  6
CONTINUOUS
 62
    3
 10
2266.4717437074869
 20
1058.5518521171834
 11
2215.9717437074869
 21
1058.5518521171834
  0
LINE
  8
_0-1_計細線
  6
CONTINUOUS
 62
    3
 10
2240.9717437074869
 20
1070.8819791171836
 11
2236.9717437074869
 21
1070.8819791171836
  0
LINE
  8
_0-1_計細線
  6
CONTINUOUS
 62
    3
 10
2213.4717437074869
 20
1070.8819791171836
 11
2209.5717437074891
 21
1070.8819791171836
  0
LINE
  8
_0-1_計細線
  6
CONTINUOUS
 62
    3
 10
2240.9717437074869
 20
1070.8819791171836
 11
2240.9717437074869
 21
1080.8819791171836
  0
LINE
  8
_0-1_計細線
  6
CONTINUOUS
 62
    3
 10
2236.9717437074869
 20
1070.8819791171836
 11
2236.9717437074869
 21
1080.8819791171836
  0
LINE
  8
_0-1_計細線
  6
CONTINUOUS
 62
    3
 10
2264.4717437074869
 20
1070.8819791171836
 11
2264.4717437074869
 21
1080.8819791171836
  0
LINE
  8
_0-1_計細線
  6
CONTINUOUS
 62
    3
 10
2266.4717437074869
 20
1070.8819791171836
 11
2264.4717437074869
 21
1070.8819791171836
  0
LINE
  8
_0-1_計細線
  6
CONTINUOUS
 62
    3
 10
2266.4717437074869
 20
1062.8819791171836
 11
2213.4717437074869
 21
1062.8819791171836
  0
LINE
  8
_0-1_計細線
  6
CONTINUOUS
 62
    3
 10
2323.3717437074883
 20
1071.4372201171836
 11
2323.3717437074883
 21
1087.2605571171835
  0
LINE
  8
_0-1_計細線
  6
CONTINUOUS
 62
    3
 10
2319.4717437074869
 20
1070.8819791171827
 11
2323.3717437074883
 21
1070.8819791171827
  0
LINE
  8
_0-1_計細線
  6
CONTINUOUS
 62
    3
 10
2323.3717437074883
 20
1070.8819791171827
 11
2323.3717437074883
 21
1071.4372201171836
  0
ARC
  8
_0-1_計細線
  6
CONTINUOUS
 62
    3
 10
2321.9717437074869
 20
1058.5518521171834
 40
5
 50
119.99999999999989
 51
179.99999999999983
  0
LINE
  8
_0-1_計細線
  6
CONTINUOUS
 62
    3
 10
2319.4717437074869
 20
1062.8819791171827
 11
2319.4717437074869
 21
1070.8819791171827
  0
ARC
  8
_0-1_計細線
  6
CONTINUOUS
 62
    3
 10
2210.9717437074869
 20
1058.5518521171834
 40
5
 50
0
 51
60.000000000000107
  0
LINE
  8
_0-1_計細線
  6
CONTINUOUS
 62
    3
 10
2213.4717437074869
 20
1062.8819791171836
 11
2213.4717437074869
 21
1080.8819791171836
  0
LINE
  8
_0-1_計細線
  6
CONTINUOUS
 62
    3
 10
2266.4717437074869
 20
1080.8819791171836
 11
2209.5717437074891
 21
1080.8819791171836
  0
LINE
  8
_0-0_計極細
  6
CONTINUOUS
 62
    2
 10
2316.4507437074863
 20
1085.5819785709318
 11
2323.3717437074883
 21
1086.5677361171829
  0
LINE
  8
_0-0_計極細
  6
CONTINUOUS
 62
    2
 10
2316.4507437074863
 20
1070.268043117183
 11
2316.4507437074863
 21
1085.5890431171829
  0
ARC
  8
_0-0_計極細
  6
CONTINUOUS
 62
    2
 10
2316.4507437074863
 20
1084.5390431171827
 40
1.0500000000000114
 50
89.999999999999915
 51
175.84900999996637
  0
LINE
  8
_0-0_計極細
  6
CONTINUOUS
 62
    2
 10
2266.4717437074869
 20
1065.0819791171834
 11
2291.4717277074888
 21
1065.0819791171834
  0
ARC
  8
_0-0_計極細
  6
CONTINUOUS
 62
    2
 10
2299.4717437074869
 20
1066.2640681171833
 40
6.0000000000000009
 50
55.166292356132701
 51
179.9999999999998
  0
ARC
  8
_0-0_計極細
  6
CONTINUOUS
 62
    2
 10
2300.9717437074869
 20
1068.889822117183
 40
3.0000000000000004
 50
0
 51
50.029499419924285
  0
LINE
  8
_0-0_計極細
  6
CONTINUOUS
 62
    2
 10
2303.9717437074869
 20
1065.889822117183
 11
2303.9717437074869
 21
1068.889822117183
  0
LINE
  8
_0-0_計極細
  6
CONTINUOUS
 62
    2
 10
2306.9717437074869
 20
1065.889822117183
 11
2303.9717437074869
 21
1065.889822117183
  0
ARC
  8
_0-0_計極細
  6
CONTINUOUS
 62
    2
 10
2306.9717437074869
 20
1067.889822117183
 40
2
 50
269.99999999999977
 51
359.99999999999966
  0
LINE
  8
_0-0_計極細
  6
CONTINUOUS
 62
    2
 10
2308.9717437074869
 20
1067.889822117183
 11
2308.9717437074869
 21
1068.889822117183
  0
LINE
  8
_0-0_計極細
  6
CONTINUOUS
 62
    2
 10
2308.9717437074869
 20
1068.889822117183
 11
2306.7217437074869
 21
1068.889822117183
  0
LINE
  8
_0-0_計極細
  6
CONTINUOUS
 62
    2
 10
2309.9717437074869
 20
1073.2898221171827
 11
2306.7217437074869
 21
1073.2898221171827
  0
LINE
  8
_0-0_計極細
  6
CONTINUOUS
 62
    2
 10
2306.7217437074869
 20
1068.889822117183
 11
2306.7217437074869
 21
1073.2898221171836
  0
LINE
  8
_0-0_計極細
  6
CONTINUOUS
 62
    2
 10
2306.7217437074869
 20
1073.2898221171836
 11
2266.4717437074869
 21
1073.2898221171836
  0
ARC
  8
_0-0_計極細
  6
CONTINUOUS
 62
    2
 10
2293.7217437074869
 20
1001.0819623971793
 40
10
 50
269.99999999999977
 51
359.99999999999966
  0
LINE
  8
_0-0_計極細
  6
CONTINUOUS
 62
    2
 10
2266.4717437074869
 20
991.08196239717927
 11
2293.7217437074869
 21
991.08196239717927
  0
LINE
  8
_0-0_計極細
  6
CONTINUOUS
 62
    2
 10
2303.7217437074869
 20
1001.0819623971793
 11
2303.7217437074869
 21
1058.8819791171827
  0
LINE
  8
_0-0_計極細
  6
CONTINUOUS
 62
    2
 10
2305.7217437074869
 20
1001.0819623971793
 11
2305.7217437074869
 21
1058.8819791171827
  0
LINE
  8
_0-0_計極細
  6
CONTINUOUS
 62
    2
 10
2267.402777707488
 20
989.08196239717938
 11
2293.7217437074869
 21
989.08196239717938
  0
LINE
  8
_0-0_計極細
  6
CONTINUOUS
 62
    2
 10
2266.4717437074869
 20
989.08196239717938
 11
2267.402777707488
 21
989.08196239717938
  0
ARC
  8
_0-0_計極細
  6
CONTINUOUS
 62
    2
 10
2267.9683077074878
 20
979.58196239717938
 40
0.5
 50
180.39513700000705
 51
269.99999999999977
  0
LINE
  8
_0-0_計極細
  6
CONTINUOUS
 62
    2
 10
2267.4683187074879
 20
979.57851439717979
 11
2267.4028487074866
 21
989.07167939717965
  0
LINE
  8
_0-0_計極細
  6
CONTINUOUS
 62
    2
 10
2304.7217437074869
 20
951.58196239717938
 11
2304.4717437074869
 21
976.58196239717938
  0
LINE
  8
_0-0_計極細
  6
CONTINUOUS
 62
    2
 10
2314.4717437074869
 20
1038.0035293971796
 11
2314.4717437074869
 21
1065.0819791171834
  0
ARC
  8
_0-0_計極細
  6
CONTINUOUS
 62
    2
 10
2313.4717437074869
 20
1038.0035293971796
 40
1
 50
277.18075600015402
 51
359.99999999999966
  0
ARC
  8
_0-0_計極細
  6
CONTINUOUS
 62
    2
 10
2293.7217437074869
 20
1001.0819623971793
 40
12.000000000000002
 50
269.99999999999977
 51
359.99999999999966
  0
LINE
  8
_0-0_計極細
  6
CONTINUOUS
 62
    2
 10
2291.4717437074869
 20
979.08196239717938
 11
2291.4717437074869
 21
989.08196239717938
  0
LINE
  8
_0-0_計極細
  6
CONTINUOUS
 62
    2
 10
2293.7217437074869
 20
989.08196239717938
 11
2291.4717437074869
 21
989.08196239717938
  0
LINE
  8
_0-0_計極細
  6
CONTINUOUS
 62
    2
 10
2305.7217437074869
 20
1001.0819623971793
 11
2305.7217437074869
 21
1028.0819623971793
  0
LINE
  8
_0-0_計極細
  6
CONTINUOUS
 62
    2
 10
2291.4733227074867
 20
978.97928939717985
 11
2291.4717437074869
 21
979.08196239717938
  0
LINE
  8
_0-0_計極細
  6
CONTINUOUS
 62
    2
 10
2291.4717437074869
 20
979.08196239717938
 11
2266.4717437074869
 21
979.08196239717938
  0
ARC
  8
_0-0_計極細
  6
CONTINUOUS
 62
    2
 10
2306.4717437074869
 20
987.08196239717938
 40
8
 50
269.99999999999977
 51
359.99999999999966
  0
LINE
  8
_0-0_計極細
  6
CONTINUOUS
 62
    2
 10
2294.4717437074869
 20
976.58196239717938
 11
2304.4717437074869
 21
976.58196239717938
  0
LINE
  8
_0-0_計極細
  6
CONTINUOUS
 62
    2
 10
2291.9717437074869
 20
946.58196239717938
 11
2291.4717437074869
 21
979.08196239717938
  0
LINE
  8
_0-0_計極細
  6
CONTINUOUS
 62
    2
 10
2314.4717437074869
 20
987.08196239717938
 11
2314.4717437074869
 21
1038.0035293971796
  0
LINE
  8
_0-0_計極細
  6
CONTINUOUS
 62
    2
 10
2306.4717437074869
 20
979.08196239717938
 11
2291.4717437074869
 21
979.08196239717938
  0
LINE
  8
_0-0_計極細
  6
CONTINUOUS
 62
    2
 10
2294.0550770408227
 20
951.58196239717938
 11
2294.4717437074869
 21
976.58196239717938
  0
LINE
  8
_0-1_計細線
  6
CONTINUOUS
 62
    3
 10
2293.9717437074869
 20
946.58196239717938
 11
2294.0550770408227
 21
951.58196239717938
  0
LINE
  8
_0-1_計細線
  6
CONTINUOUS
 62
    3
 10
2266.4717437074869
 20
946.58196239717938
 11
2291.0281447074885
 21
946.58196239717938
  0
ARC
  8
_0-1_計細線
  6
CONTINUOUS
 62
    3
 10
2308.9717437074869
 20
984.58196239717938
 40
8
 50
269.99999999999977
 51
359.99999999999966
  0
LINE
  8
_0-1_計細線
  6
CONTINUOUS
 62
    3
 10
2316.9717437074869
 20
984.58196239717938
 11
2316.9717437074869
 21
1058.5518521171834
  0
LINE
  8
_0-1_計細線
  6
CONTINUOUS
 62
    3
 10
2307.5717437074891
 20
951.58196239717938
 11
2307.9717437074869
 21
976.58196239717938
  0
LINE
  8
_0-1_計細線
  6
CONTINUOUS
 62
    3
 10
2294.0550767074892
 20
951.58196239717938
 11
2307.5717437074891
 21
951.58196239717938
  0
LINE
  8
_0-1_計細線
  6
CONTINUOUS
 62
    3
 10
2291.0281447074885
 20
946.58196239717938
 11
2293.9717437074869
 21
946.58196239717938
  0
ARC
  8
_0-1_計細線
  6
CONTINUOUS
 62
    3
 10
2223.9717437074869
 20
984.58196239717938
 40
8
 50
179.99999999999983
 51
269.99999999999977
  0
LINE
  8
_0-1_計細線
  6
CONTINUOUS
 62
    3
 10
2266.4717437074869
 20
976.58196239717938
 11
2223.9717437074869
 21
976.58196239717938
  0
LINE
  8
_0-1_計細線
  6
CONTINUOUS
 62
    3
 10
2215.9717437074869
 20
984.58196239717938
 11
2215.9717437074869
 21
1058.5518521171834
  0
LINE
  8
_0-1_計細線
  6
CONTINUOUS
 62
    3
 10
2225.3717437074883
 20
951.58196239717938
 11
2224.9717437074869
 21
976.58196239717938
  0
LINE
  8
_0-1_計細線
  6
CONTINUOUS
 62
    3
 10
2266.4717437074869
 20
951.58196239717938
 11
2225.3717437074883
 21
951.58196239717938
  0
LINE
  8
_0-1_計細線
  6
CONTINUOUS
 62
    3
 10
2238.9717437074869
 20
946.58196239717938
 11
2238.8884107074882
 21
951.58196239717938
  0
LINE
  8
_0-1_計細線
  6
CONTINUOUS
 62
    3
 10
2241.9153427074889
 20
946.58196239717938
 11
2238.9717437074869
 21
946.58196239717938
  0
LINE
  8
_0-1_計細線
  6
CONTINUOUS
 62
    3
 10
2266.4717437074869
 20
946.58196239717938
 11
2241.9153427074889
 21
946.58196239717938
  0
LINE
  8
_0-0_計極細
  6
CONTINUOUS
 62
    2
 10
2292.4717437074869
 20
1006.2898053971794
 11
2266.4717437074869
 21
1006.2898053971794
  0
ARC
  8
_0-0_計極細
  6
CONTINUOUS
 62
    2
 10
2292.4717277074888
 20
1007.2898053971795
 40
1
 50
179.99999999999983
 51
270.0004583661825
  0
ARC
  8
_0-0_計極細
  6
CONTINUOUS
 62
    2
 10
2292.4717437074869
 20
1007.2898053971795
 40
1
 50
269.99954163381682
 51
359.99999999999966
  0
LINE
  8
_0-0_計極細
  6
CONTINUOUS
 62
    2
 10
2291.4717277074888
 20
1007.2898053971795
 11
2291.4717277074888
 21
1065.0819791171834
  0
LINE
  8
_0-0_計極細
  6
CONTINUOUS
 62
    2
 10
2293.4717437074869
 20
1007.2898053971795
 11
2293.4717437074869
 21
1066.2640681171833
  0
LINE
  8
_0-0_計極細
  6
CONTINUOUS
 62
    2
 10
2313.596743711274
 20
1037.0113726560066
 11
2305.7217437074869
 21
1037.0113726560066
  0
LINE
  8
_0-1_計細線
  6
CONTINUOUS
 62
    3
 10
2307.9717437074869
 20
976.58196239717938
 11
2308.9717437074869
 21
976.58196239717938
  0
LINE
  8
_0-0_計極細
  6
CONTINUOUS
 62
    2
 10
2228.2217437074869
 20
951.58196239717938
 11
2228.4717437074869
 21
976.58196239717938
  0
LINE
  8
_0-0_計極細
  6
CONTINUOUS
 62
    2
 10
2307.4845127807239
 20
951.58196239717938
 11
2307.5731620965416
 21
951.67061171299622
  0
LINE
  8
_0-0_計極細
  6
CONTINUOUS
 62
    2
 10
2306.211720574589
 20
951.58196239717938
 11
2307.5938579047724
 21
952.96409972736183
  0
LINE
  8
_0-0_計極細
  6
CONTINUOUS
 62
    2
 10
2304.9389283684541
 20
951.58196239717938
 11
2307.6145537129996
 21
954.25758774172766
  0
LINE
  8
_0-0_計極細
  6
CONTINUOUS
 62
    2
 10
2304.7112921476364
 20
952.62711838249743
 11
2307.6352495212304
 21
955.55107575609327
  0
LINE
  8
_0-0_計極細
  6
CONTINUOUS
 62
    2
 10
2304.6986902446042
 20
953.88730868560197
 11
2307.6559453294612
 21
956.84456377045899
  0
LINE
  8
_0-0_計極細
  6
CONTINUOUS
 62
    2
 10
2304.686088341572
 20
955.14749898870662
 11
2307.6766411376921
 21
958.13805178482482
  0
LINE
  8
_0-0_計極細
  6
CONTINUOUS
 62
    2
 10
2304.6734864385435
 20
956.40768929181206
 11
2307.6973369459192
 21
959.43153979919043
  0
LINE
  8
_0-0_計極細
  6
CONTINUOUS
 62
    2
 10
2293.5749673377723
 20
946.58196239717938
 11
2293.9784687307038
 21
946.98546379010907
  0
LINE
  8
_0-0_計極細
  6
CONTINUOUS
 62
    2
 10
2304.6608845355113
 20
957.66787959491649
 11
2307.71803275415
 21
960.72502781355627
  0
LINE
  8
_0-0_計極細
  6
CONTINUOUS
 62
    2
 10
2292.3021751316373
 20
946.58196239717938
 11
2294.0000414799615
 21
948.27982874550173
  0
LINE
  8
_0-0_計極細
  6
CONTINUOUS
 62
    2
 10
2304.6482826324791
 20
958.92806989802114
 11
2307.7387285623809
 21
962.01851582792096
  0
LINE
  8
_0-0_計極細
  6
CONTINUOUS
 62
    2
 10
2291.9574655138204
 20
947.51004498549901
 11
2294.0216142292156
 21
949.5741937008944
  0
LINE
  8
_0-0_計極細
  6
CONTINUOUS
 62
    2
 10
2304.6356807294469
 20
960.18826020112556
 11
2307.759424370608
 21
963.3120038422868
  0
LINE
  8
_0-0_計極細
  6
CONTINUOUS
 62
    2
 10
2291.9381807834252
 20
948.76355246123876
 11
2294.0431869784734
 21
950.86855865628604
  0
LINE
  8
_0-0_計極細
  6
CONTINUOUS
 62
    2
 10
2304.6230788264184
 20
961.448450504231
 11
2307.7801201788388
 21
964.60549185665241
  0
LINE
  8
_0-0_計極細
  6
CONTINUOUS
 62
    2
 10
2291.91889605303
 20
950.01705993697851
 11
2294.0647597277311
 21
952.16292361167871
  0
LINE
  8
_0-0_計極細
  6
CONTINUOUS
 62
    2
 10
2304.6104769233862
 20
962.70864080733554
 11
2307.8008159870697
 21
965.89897987101824
  0
LINE
  8
_0-0_計極細
  6
CONTINUOUS
 62
    2
 10
2291.8996113226349
 20
951.27056741271826
 11
2294.0863324769853
 21
953.45728856707058
  0
LINE
  8
_0-0_計極細
  6
CONTINUOUS
 62
    2
 10
2304.597875020354
 20
963.96883111044019
 11
2307.8215117953005
 21
967.19246788538385
  0
LINE
  8
_0-0_計極細
  6
CONTINUOUS
 62
    2
 10
2291.8803265922361
 20
952.52407488845802
 11
2294.107905226243
 21
954.75165352246324
  0
LINE
  8
_0-0_計極細
  6
CONTINUOUS
 62
    2
 10
2304.5852731173254
 20
965.22902141354461
 11
2307.8422076035276
 21
968.48595589974957
  0
LINE
  8
_0-0_計極細
  6
CONTINUOUS
 62
    2
 10
2291.8610418618409
 20
953.77758236419777
 11
2294.1294779755008
 21
956.04601847785591
  0
LINE
  8
_0-0_計極細
  6
CONTINUOUS
 62
    2
 10
2304.5726712142932
 20
966.48921171664927
 11
2307.8629034117585
 21
969.7794439141154
  0
LINE
  8
_0-0_計極細
  6
CONTINUOUS
 62
    2
 10
2291.8417571314458
 20
955.03108983993752
 11
2294.1510507247549
 21
957.34038343324755
  0
LINE
  8
_0-0_計極細
  6
CONTINUOUS
 62
    2
 10
2304.560069311261
 20
967.74940201975471
 11
2307.8835992199893
 21
971.07293192848101
  0
LINE
  8
_0-0_計極細
  6
CONTINUOUS
 62
    2
 10
2291.8224724010506
 20
956.28459731567727
 11
2294.1726234740127
 21
958.63474838864022
  0
LINE
  8
_0-0_計極細
  6
CONTINUOUS
 62
    2
 10
2304.5474674082325
 20
969.00959232285913
 11
2307.9042950282201
 21
972.36641994284685
  0
LINE
  8
_0-0_計極細
  6
CONTINUOUS
 62
    2
 10
2313.5814248471834
 20
978.04354976181287
 11
2315.5101563428543
 21
979.97228125748279
  0
LINE
  8
_0-0_計極細
  6
CONTINUOUS
 62
    2
 10
2291.8031876706518
 20
957.53810479141703
 11
2294.1941962232704
 21
959.92911334403288
  0
LINE
  8
_0-0_計極細
  6
CONTINUOUS
 62
    2
 10
2304.5348655052003
 20
970.26978262596367
 11
2307.9249908364473
 21
973.65990795721245
  0
LINE
  8
_0-0_計極細
  6
CONTINUOUS
 62
    2
 10
2311.1490313399954
 20
976.88394846075789
 11
2316.6697576439074
 21
982.40467476467256
  0
LINE
  8
_0-0_計極細
  6
CONTINUOUS
 62
    2
 10
2291.7839029402567
 20
958.79161226715678
 11
2294.2157689725245
 21
961.22347829942464
  0
LINE
  8
_0-0_計極細
  6
CONTINUOUS
 62
    2
 10
2304.5222636021681
 20
971.52997292906832
 11
2307.9456866446781
 21
974.95339597157817
  0
LINE
  8
_0-0_計極細
  6
CONTINUOUS
 62
    2
 10
2309.5988715312815
 20
976.60658085817886
 11
2316.94712524649
 21
983.95483457338742
  0
LINE
  8
_0-0_計極細
  6
CONTINUOUS
 62
    2
 10
2291.7646182098615
 20
960.04511974289653
 11
2294.2373417217823
 21
962.51784325481731
  0
LINE
  8
_0-0_計極細
  6
CONTINUOUS
 62
    2
 10
2304.5096616991395
 20
972.79016323217377
 11
2307.9663824529089
 21
976.24688398594401
  0
LINE
  8
_0-0_計極細
  6
CONTINUOUS
 62
    2
 10
2308.3014608641424
 20
976.58196239717938
 11
2316.9717437074869
 21
985.25224524052294
  0
LINE
  8
_0-0_計極細
  6
CONTINUOUS
 62
    2
 10
2291.7453334794664
 20
961.29862721863628
 11
2294.25891447104
 21
963.81220821020997
  0
LINE
  8
_0-0_計極細
  6
CONTINUOUS
 62
    2
 10
2304.4970597961074
 20
974.05035353527819
 11
2310.8018311748128
 21
980.35512491398549
  0
LINE
  8
_0-0_計極細
  6
CONTINUOUS
 62
    2
 10
2313.1985811906816
 20
982.75187492985333
 11
2316.9717437074869
 21
986.52503744665864
  0
LINE
  8
_0-0_計極細
  6
CONTINUOUS
 62
    2
 10
2291.7260487490712
 20
962.55213469437604
 11
2294.2804872202942
 21
965.10657316560184
  0
LINE
  8
_0-0_計極細
  6
CONTINUOUS
 62
    2
 10
2304.4844578930752
 20
975.31054383838284
 11
2308.5234427425094
 21
979.34952868781693
  0
LINE
  8
_0-0_計極細
  6
CONTINUOUS
 62
    2
 10
2314.2041774168501
 20
985.03026336215783
 11
2316.9717437074869
 21
987.79782965279446
  0
LINE
  8
_0-0_計極細
  6
CONTINUOUS
 62
    2
 10
2291.7067640186724
 20
963.80564217011579
 11
2294.3020599695519
 21
966.40093812099451
  0
LINE
  8
_0-0_計極細
  6
CONTINUOUS
 62
    2
 10
2304.4718559900466
 20
976.57073414148726
 11
2307.0005828078465
 21
979.09946095928819
  0
LINE
  8
_0-0_計極細
  6
CONTINUOUS
 62
    2
 10
2314.4542451453781
 20
986.55312329682147
 11
2316.9717437074869
 21
989.07062185893039
  0
LINE
  8
_0-0_計極細
  6
CONTINUOUS
 62
    2
 10
2291.6874792882772
 20
965.05914964585656
 11
2294.3236327188097
 21
967.69530307638615
  0
LINE
  8
_0-0_計極細
  6
CONTINUOUS
 62
    2
 10
2303.2102920396028
 20
976.58196239717938
 11
2305.7102920396028
 21
979.08196239717938
  0
LINE
  8
_0-0_計極細
  6
CONTINUOUS
 62
    2
 10
2314.4717437074869
 20
987.8434140650661
 11
2316.9717437074869
 21
990.3434140650661
  0
LINE
  8
_0-0_計極細
  6
CONTINUOUS
 62
    2
 10
2291.6681945578821
 20
966.31265712159632
 11
2294.3452054680638
 21
968.98966803177882
  0
LINE
  8
_0-0_計極細
  6
CONTINUOUS
 62
    2
 10
2301.9374998334642
 20
976.58196239717938
 11
2304.4374998334642
 21
979.08196239717938
  0
LINE
  8
_0-0_計極細
  6
CONTINUOUS
 62
    2
 10
2314.4717437074869
 20
989.11620627120203
 11
2316.9717437074869
 21
991.61620627120203
  0
LINE
  8
_0-0_計極細
  6
CONTINUOUS
 62
    2
 10
2291.6489098274869
 20
967.56616459733607
 11
2294.3667782173216
 21
970.28403298717149
  0
LINE
  8
_0-0_計極細
  6
CONTINUOUS
 62
    2
 10
2300.6647076273293
 20
976.58196239717938
 11
2303.1647076273293
 21
979.08196239717938
  0
LINE
  8
_0-0_計極細
  6
CONTINUOUS
 62
    2
 10
2314.4717437074869
 20
990.38899847733774
 11
2316.9717437074869
 21
992.88899847733774
  0
LINE
  8
_0-0_計極細
  6
CONTINUOUS
 62
    2
 10
2291.6296250970881
 20
968.81967207307582
 11
2294.3883509665793
 21
971.57839794256336
  0
LINE
  8
_0-0_計極細
  6
CONTINUOUS
 62
    2
 10
2299.3919154211944
 20
976.58196239717938
 11
2301.8919154211944
 21
979.08196239717938
  0
LINE
  8
_0-0_計極細
  6
CONTINUOUS
 62
    2
 10
2314.4717437074869
 20
991.66179068347355
 11
2316.9717437074869
 21
994.16179068347355
  0
LINE
  8
_0-0_計極細
  6
CONTINUOUS
 62
    2
 10
2291.610340366693
 20
970.07317954881557
 11
2294.4099237158334
 21
972.87276289795602
  0
LINE
  8
_0-0_計極細
  6
CONTINUOUS
 62
    2
 10
2298.1191232150595
 20
976.58196239717938
 11
2300.6191232150595
 21
979.08196239717938
  0
LINE
  8
_0-0_計極細
  6
CONTINUOUS
 62
    2
 10
2314.4717437074869
 20
992.93458288960949
 11
2316.9717437074869
 21
995.43458288960949
  0
LINE
  8
_0-0_計極細
  6
CONTINUOUS
 62
    2
 10
2291.5910556362978
 20
971.32668702455533
 11
2294.4314964650912
 21
974.16712785334869
  0
LINE
  8
_0-0_計極細
  6
CONTINUOUS
 62
    2
 10
2296.846331008921
 20
976.58196239717938
 11
2299.346331008921
 21
979.08196239717938
  0
LINE
  8
_0-0_計極細
  6
CONTINUOUS
 62
    2
 10
2314.4717437074869
 20
994.20737509574519
 11
2316.9717437074869
 21
996.70737509574519
  0
LINE
  8
_0-0_計極細
  6
CONTINUOUS
 62
    2
 10
2291.5717709059027
 20
972.58019450029508
 11
2294.4530692143489
 21
975.46149280874033
  0
LINE
  8
_0-0_計極細
  6
CONTINUOUS
 62
    2
 10
2295.5735388027861
 20
976.58196239717938
 11
2298.0735388027861
 21
979.08196239717938
  0
LINE
  8
_0-0_計極細
  6
CONTINUOUS
 62
    2
 10
2314.4717437074869
 20
995.48016730188112
 11
2316.9717437074869
 21
997.98016730188112
  0
LINE
  8
_0-0_計極細
  6
CONTINUOUS
 62
    2
 10
2291.5524861755039
 20
973.83370197603483
 11
2296.8007465966512
 21
979.08196239717938
  0
LINE
  8
_0-0_計極細
  6
CONTINUOUS
 62
    2
 10
2314.4717437074869
 20
996.75295950801683
 11
2316.9717437074869
 21
999.25295950801683
  0
LINE
  8
_0-0_計極細
  6
CONTINUOUS
 62
    2
 10
2291.5332014451087
 20
975.08720945177458
 11
2295.5279543905162
 21
979.08196239717938
  0
LINE
  8
_0-0_計極細
  6
CONTINUOUS
 62
    2
 10
2314.4717437074869
 20
998.02575171415265
 11
2316.9717437074869
 21
1000.5257517141526
  0
LINE
  8
_0-0_計極細
  6
CONTINUOUS
 62
    2
 10
2291.5139167147136
 20
976.34071692751434
 11
2294.2551621843777
 21
979.08196239717938
  0
LINE
  8
_0-0_計極細
  6
CONTINUOUS
 62
    2
 10
2314.4717437074869
 20
999.29854392028858
 11
2316.9717437074869
 21
1001.7985439202886
  0
LINE
  8
_0-0_計極細
  6
CONTINUOUS
 62
    2
 10
2291.4946319843184
 20
977.59422440325409
 11
2292.9823699782428
 21
979.08196239717938
  0
LINE
  8
_0-0_計極細
  6
CONTINUOUS
 62
    2
 10
2314.4717437074869
 20
1000.5713361264243
 11
2316.9717437074869
 21
1003.0713361264243
  0
LINE
  8
_0-0_計極細
  6
CONTINUOUS
 62
    2
 10
2291.4753472539232
 20
978.84773187899384
 11
2291.7095777721079
 21
979.08196239717938
  0
LINE
  8
_0-0_計極細
  6
CONTINUOUS
 62
    2
 10
2314.4717437074869
 20
1001.8441283325602
 11
2316.9717437074869
 21
1004.3441283325602
  0
LINE
  8
_0-0_計極細
  6
CONTINUOUS
 62
    2
 10
2314.4717437074869
 20
1003.1169205386959
 11
2316.9717437074869
 21
1005.6169205386959
  0
LINE
  8
_0-0_計極細
  6
CONTINUOUS
 62
    2
 10
2314.4717437074869
 20
1004.3897127448317
 11
2316.9717437074869
 21
1006.8897127448317
  0
LINE
  8
_0-0_計極細
  6
CONTINUOUS
 62
    2
 10
2314.4717437074869
 20
1005.6625049509677
 11
2316.9717437074869
 21
1008.1625049509677
  0
LINE
  8
_0-0_計極細
  6
CONTINUOUS
 62
    2
 10
2314.4717437074869
 20
1006.9352971571034
 11
2316.9717437074869
 21
1009.4352971571034
  0
LINE
  8
_0-0_計極細
  6
CONTINUOUS
 62
    2
 10
2314.4717437074869
 20
1008.2080893632393
 11
2316.9717437074869
 21
1010.7080893632393
  0
LINE
  8
_0-0_計極細
  6
CONTINUOUS
 62
    2
 10
2314.4717437074869
 20
1009.480881569375
 11
2316.9717437074869
 21
1011.980881569375
  0
LINE
  8
_0-0_計極細
  6
CONTINUOUS
 62
    2
 10
2314.4717437074869
 20
1010.7536737755108
 11
2316.9717437074869
 21
1013.2536737755108
  0
LINE
  8
_0-0_計極細
  6
CONTINUOUS
 62
    2
 10
2314.4717437074869
 20
1012.0264659816468
 11
2316.9717437074869
 21
1014.5264659816468
  0
LINE
  8
_0-0_計極細
  6
CONTINUOUS
 62
    2
 10
2314.4717437074869
 20
1013.2992581877825
 11
2316.9717437074869
 21
1015.7992581877825
  0
LINE
  8
_0-0_計極細
  6
CONTINUOUS
 62
    2
 10
2314.4717437074869
 20
1014.5720503939184
 11
2316.9717437074869
 21
1017.0720503939184
  0
LINE
  8
_0-0_計極細
  6
CONTINUOUS
 62
    2
 10
2314.4717437074869
 20
1015.8448426000541
 11
2316.9717437074869
 21
1018.3448426000541
  0
LINE
  8
_0-0_計極細
  6
CONTINUOUS
 62
    2
 10
2314.4717437074869
 20
1017.1176348061899
 11
2316.9717437074869
 21
1019.6176348061899
  0
LINE
  8
_0-0_計極細
  6
CONTINUOUS
 62
    2
 10
2314.4717437074869
 20
1018.3904270123259
 11
2316.9717437074869
 21
1020.8904270123259
  0
LINE
  8
_0-0_計極細
  6
CONTINUOUS
 62
    2
 10
2314.4717437074869
 20
1019.6632192184616
 11
2316.9717437074869
 21
1022.1632192184616
  0
LINE
  8
_0-0_計極細
  6
CONTINUOUS
 62
    2
 10
2314.4717437074869
 20
1020.9360114245975
 11
2316.9717437074869
 21
1023.4360114245975
  0
LINE
  8
_0-0_計極細
  6
CONTINUOUS
 62
    2
 10
2314.4717437074869
 20
1022.2088036307323
 11
2316.9717437074869
 21
1024.7088036307323
  0
LINE
  8
_0-0_計極細
  6
CONTINUOUS
 62
    2
 10
2314.4717437074869
 20
1023.4815958368682
 11
2316.9717437074869
 21
1025.9815958368681
  0
LINE
  8
_0-0_計極細
  6
CONTINUOUS
 62
    2
 10
2314.4717437074869
 20
1024.7543880430039
 11
2316.9717437074869
 21
1027.2543880430039
  0
LINE
  8
_0-0_計極細
  6
CONTINUOUS
 62
    2
 10
2314.4717437074869
 20
1026.0271802491397
 11
2316.9717437074869
 21
1028.5271802491397
  0
LINE
  8
_0-0_計極細
  6
CONTINUOUS
 62
    2
 10
2314.4717437074869
 20
1027.2999724552756
 11
2316.9717437074869
 21
1029.7999724552756
  0
LINE
  8
_0-0_計極細
  6
CONTINUOUS
 62
    2
 10
2314.4717437074869
 20
1028.5727646614114
 11
2316.9717437074869
 21
1031.0727646614114
  0
LINE
  8
_0-0_計極細
  6
CONTINUOUS
 62
    2
 10
2314.4717437074869
 20
1029.8455568675472
 11
2316.9717437074869
 21
1032.3455568675472
  0
LINE
  8
_0-0_計極細
  6
CONTINUOUS
 62
    2
 10
2314.4717437074869
 20
1031.118349073683
 11
2316.9717437074869
 21
1033.618349073683
  0
LINE
  8
_0-0_計極細
  6
CONTINUOUS
 62
    2
 10
2314.4717437074869
 20
1032.3911412798188
 11
2316.9717437074869
 21
1034.8911412798188
  0
LINE
  8
_0-0_計極細
  6
CONTINUOUS
 62
    2
 10
2314.4717437074869
 20
1033.6639334859547
 11
2316.9717437074869
 21
1036.1639334859547
  0
LINE
  8
_0-0_計極細
  6
CONTINUOUS
 62
    2
 10
2314.4717437074869
 20
1034.9367256920905
 11
2316.9717437074869
 21
1037.4367256920905
  0
LINE
  8
_0-0_計極細
  6
CONTINUOUS
 62
    2
 10
2314.4717437074869
 20
1036.2095178982263
 11
2316.9717437074869
 21
1038.7095178982263
  0
LINE
  8
_0-0_計極細
  6
CONTINUOUS
 62
    2
 10
2314.4717437074869
 20
1037.4823101043621
 11
2316.9717437074869
 21
1039.9823101043621
  0
LINE
  8
_0-0_計極細
  6
CONTINUOUS
 62
    2
 10
2314.4717437074869
 20
1038.7551023104979
 11
2316.9717437074869
 21
1041.2551023104979
  0
LINE
  8
_0-0_計極細
  6
CONTINUOUS
 62
    2
 10
2314.4717437074869
 20
1040.0278945166338
 11
2316.9717437074869
 21
1042.5278945166338
  0
LINE
  8
_0-0_計極細
  6
CONTINUOUS
 62
    2
 10
2314.4717437074869
 20
1041.3006867227696
 11
2316.9717437074869
 21
1043.8006867227696
  0
LINE
  8
_0-0_計極細
  6
CONTINUOUS
 62
    2
 10
2314.4717437074869
 20
1042.5734789289054
 11
2316.9717437074869
 21
1045.0734789289054
  0
LINE
  8
_0-0_計極細
  6
CONTINUOUS
 62
    2
 10
2314.4717437074869
 20
1043.8462711350412
 11
2316.9717437074869
 21
1046.3462711350412
  0
LINE
  8
_0-0_計極細
  6
CONTINUOUS
 62
    2
 10
2314.4717437074869
 20
1045.119063341177
 11
2316.9717437074869
 21
1047.619063341177
  0
LINE
  8
_0-0_計極細
  6
CONTINUOUS
 62
    2
 10
2314.4717437074869
 20
1046.3918555473128
 11
2316.9717437074869
 21
1048.8918555473128
  0
LINE
  8
_0-0_計極細
  6
CONTINUOUS
 62
    2
 10
2314.4717437074869
 20
1047.6646477534487
 11
2316.9717437074869
 21
1050.1646477534487
  0
LINE
  8
_0-0_計極細
  6
CONTINUOUS
 62
    2
 10
2314.4717437074869
 20
1048.9374399595845
 11
2316.9717437074869
 21
1051.4374399595845
  0
LINE
  8
_0-0_計極細
  6
CONTINUOUS
 62
    2
 10
2314.4717437074869
 20
1050.2102321657203
 11
2316.9717437074869
 21
1052.7102321657203
  0
LINE
  8
_0-0_計極細
  6
CONTINUOUS
 62
    2
 10
2314.4717437074869
 20
1051.4830243718561
 11
2316.9717437074869
 21
1053.9830243718561
  0
LINE
  8
_0-0_計極細
  6
CONTINUOUS
 62
    2
 10
2314.4717437074869
 20
1052.7558165779919
 11
2316.9717437074869
 21
1055.2558165779919
  0
LINE
  8
_0-0_計極細
  6
CONTINUOUS
 62
    2
 10
2314.4717437074869
 20
1054.0286087841278
 11
2316.9717437074869
 21
1056.5286087841278
  0
LINE
  8
_0-0_計極細
  6
CONTINUOUS
 62
    2
 10
2314.4717437074869
 20
1055.3014009902627
 11
2316.9717437074869
 21
1057.8014009902636
  0
LINE
  8
_0-0_計極細
  6
CONTINUOUS
 62
    2
 10
2314.4717437074869
 20
1056.5741931963985
 11
2317.0024207158967
 21
1059.1048702048074
  0
LINE
  8
_0-0_計極細
  6
CONTINUOUS
 62
    2
 10
2314.4717437074869
 20
1057.8469854025343
 11
2317.5961479708822
 21
1060.9713896659268
  0
LINE
  8
_0-0_計極細
  6
CONTINUOUS
 62
    2
 10
2314.4717437074869
 20
1059.1197776086701
 11
2319.4717437074869
 21
1064.1197776086701
  0
LINE
  8
_0-0_計極細
  6
CONTINUOUS
 62
    2
 10
2314.4717437074869
 20
1060.3925698148059
 11
2319.4717437074869
 21
1065.3925698148059
  0
LINE
  8
_0-0_計極細
  6
CONTINUOUS
 62
    2
 10
2314.4717437074869
 20
1061.6653620209418
 11
2319.4717437074869
 21
1066.6653620209418
  0
LINE
  8
_0-0_計極細
  6
CONTINUOUS
 62
    2
 10
2314.4717437074869
 20
1062.9381542270776
 11
2319.4717437074869
 21
1067.9381542270776
  0
LINE
  8
_0-0_計極細
  6
CONTINUOUS
 62
    2
 10
2322.4155685975929
 20
1070.8819791171827
 11
2323.3717437074883
 21
1071.8381542270781
  0
LINE
  8
_0-0_計極細
  6
CONTINUOUS
 62
    2
 10
2314.4717437074869
 20
1064.2109464332134
 11
2315.3427763914588
 21
1065.0819791171834
  0
LINE
  8
_0-0_計極細
  6
CONTINUOUS
 62
    2
 10
2315.7317074370148
 20
1065.4709101627404
 11
2319.4717437074869
 21
1069.2109464332134
  0
LINE
  8
_0-0_計極細
  6
CONTINUOUS
 62
    2
 10
2321.142776391458
 20
1070.8819791171836
 11
2323.3717437074883
 21
1073.1109464332139
  0
LINE
  8
_0-0_計極細
  6
CONTINUOUS
 62
    2
 10
2314.9717437074869
 20
1065.9837386393492
 11
2319.4717437074869
 21
1070.4837386393492
  0
LINE
  8
_0-0_計極細
  6
CONTINUOUS
 62
    2
 10
2319.8699841853231
 20
1070.8819791171827
 11
2323.3717437074883
 21
1074.3837386393498
  0
LINE
  8
_0-0_計極細
  6
CONTINUOUS
 62
    2
 10
2314.9717437074869
 20
1067.256530845485
 11
2323.3717437074883
 21
1075.6565308454856
  0
LINE
  8
_0-0_計極細
  6
CONTINUOUS
 62
    2
 10
2314.9717437074869
 20
1068.5293230516208
 11
2323.3717437074883
 21
1076.9293230516214
  0
LINE
  8
_0-0_計極細
  6
CONTINUOUS
 62
    2
 10
2316.4507437074899
 20
1071.2811152577569
 11
2323.3717437074883
 21
1078.2021152577563
  0
LINE
  8
_0-0_計極細
  6
CONTINUOUS
 62
    2
 10
2316.4507437074899
 20
1072.5539074638928
 11
2323.3717437074883
 21
1079.4749074638921
  0
LINE
  8
_0-0_計極細
  6
CONTINUOUS
 62
    2
 10
2316.4507437074899
 20
1073.8266996700286
 11
2323.3717437074883
 21
1080.7476996700279
  0
LINE
  8
_0-0_計極細
  6
CONTINUOUS
 62
    2
 10
2316.4507437074899
 20
1075.0994918761644
 11
2323.3717437074883
 21
1082.0204918761638
  0
LINE
  8
_0-0_計極細
  6
CONTINUOUS
 62
    2
 10
2316.4507437074899
 20
1076.3722840823002
 11
2323.3717437074883
 21
1083.2932840822996
  0
LINE
  8
_0-0_計極細
  6
CONTINUOUS
 62
    2
 10
2316.4507437074899
 20
1077.645076288436
 11
2323.3717437074883
 21
1084.5660762884354
  0
LINE
  8
_0-0_計極細
  6
CONTINUOUS
 62
    2
 10
2316.4507437074899
 20
1078.9178684945718
 11
2322.2897911865111
 21
1084.756915973594
  0
LINE
  8
_0-0_計極細
  6
CONTINUOUS
 62
    2
 10
2316.4507437074899
 20
1080.1906607007068
 11
2320.8506480957294
 21
1084.590565088949
  0
LINE
  8
_0-0_計極細
  6
CONTINUOUS
 62
    2
 10
2316.4507437074899
 20
1081.4634529068426
 11
2319.4115050049513
 21
1084.4242142043049
  0
LINE
  8
_0-0_計極細
  6
CONTINUOUS
 62
    2
 10
2316.4507437074899
 20
1082.7362451129784
 11
2317.9723619141696
 21
1084.2578633196608
  0
LINE
  8
_0-0_計極細
  6
CONTINUOUS
 62
    2
 10
2316.4507437074899
 20
1084.0090373191142
 11
2316.5332188233879
 21
1084.0915124350158
  0
LINE
  8
_0-0_計極細
  6
CONTINUOUS
 62
    2
 10
2322.2897911865111
 20
1084.756915973594
 11
2323.3717437074883
 21
1085.8388684945712
  0
LINE
  8
_0-0_計極細
  6
CONTINUOUS
 62
    2
 10
2320.8506480957294
 20
1084.590565088949
 11
2322.7374811526061
 21
1086.4773981458238
  0
LINE
  8
_0-0_計極細
  6
CONTINUOUS
 62
    2
 10
2319.4115050049513
 20
1084.4242142043049
 11
2321.2532966517501
 21
1086.2660058511046
  0
LINE
  8
_0-0_計極細
  6
CONTINUOUS
 62
    2
 10
2317.9723619141696
 20
1084.2578633196608
 11
2319.7691121508979
 21
1086.0546135563864
  0
LINE
  8
_0-0_計極細
  6
CONTINUOUS
 62
    2
 10
2316.5332188233915
 20
1084.0915124350158
 11
2318.2849276500419
 21
1085.8432212616681
  0
LINE
  8
_0-0_計極細
  6
CONTINUOUS
 62
    2
 10
2316.4507437074899
 20
1085.28182952525
 11
2316.8007431491897
 21
1085.6318289669498
  0
LINE
  8
_0-0_計極細
  6
CONTINUOUS
 62
    2
 10
2310.8018311748165
 20
980.35512491398549
 11
2313.1985811906816
 21
982.75187492985253
  0
LINE
  8
_0-0_計極細
  6
CONTINUOUS
 62
    2
 10
2308.5234427425094
 20
979.34952868781693
 11
2314.2041774168501
 21
985.03026336215783
  0
LINE
  8
_0-0_計極細
  6
CONTINUOUS
 62
    2
 10
2307.0005828078465
 20
979.09946095928819
 11
2314.4542451453781
 21
986.55312329682147
  0
LINE
  8
_0-0_計極細
  6
CONTINUOUS
 62
    2
 10
2305.7102920396028
 20
979.08196239717938
 11
2314.4717437074869
 21
987.8434140650661
  0
LINE
  8
_0-0_計極細
  6
CONTINUOUS
 62
    2
 10
2304.4374998334642
 20
979.08196239717938
 11
2314.4717437074869
 21
989.11620627120203
  0
LINE
  8
_0-0_計極細
  6
CONTINUOUS
 62
    2
 10
2303.1647076273293
 20
979.08196239717938
 11
2314.4717437074869
 21
990.38899847733774
  0
LINE
  8
_0-0_計極細
  6
CONTINUOUS
 62
    2
 10
2301.8919154211944
 20
979.08196239717938
 11
2314.4717437074869
 21
991.66179068347355
  0
LINE
  8
_0-0_計極細
  6
CONTINUOUS
 62
    2
 10
2300.6191232150595
 20
979.08196239717938
 11
2314.4717437074869
 21
992.93458288960949
  0
LINE
  8
_0-0_計極細
  6
CONTINUOUS
 62
    2
 10
2299.346331008921
 20
979.08196239717938
 11
2314.4717437074869
 21
994.20737509574519
  0
LINE
  8
_0-0_計極細
  6
CONTINUOUS
 62
    2
 10
2298.0735388027861
 20
979.08196239717938
 11
2314.4717437074869
 21
995.48016730188112
  0
LINE
  8
_0-0_計極細
  6
CONTINUOUS
 62
    2
 10
2296.8007465966512
 20
979.08196239717938
 11
2314.4717437074869
 21
996.75295950801683
  0
LINE
  8
_0-0_計極細
  6
CONTINUOUS
 62
    2
 10
2295.5279543905162
 20
979.08196239717938
 11
2314.4717437074869
 21
998.02575171415265
  0
LINE
  8
_0-0_計極細
  6
CONTINUOUS
 62
    2
 10
2294.2551621843777
 20
979.08196239717938
 11
2314.4717437074869
 21
999.29854392028858
  0
LINE
  8
_0-0_計極細
  6
CONTINUOUS
 62
    2
 10
2292.9823699782428
 20
979.08196239717938
 11
2314.4717437074869
 21
1000.5713361264243
  0
LINE
  8
_0-0_計極細
  6
CONTINUOUS
 62
    2
 10
2291.7095777721079
 20
979.08196239717938
 11
2314.4717437074869
 21
1001.8441283325602
  0
LINE
  8
_0-0_計極細
  6
CONTINUOUS
 62
    2
 10
2291.4717437074869
 20
980.11692053869592
 11
2314.4717437074869
 21
1003.1169205386959
  0
LINE
  8
_0-0_計極細
  6
CONTINUOUS
 62
    2
 10
2291.4717437074869
 20
981.38971274483185
 11
2314.4717437074869
 21
1004.3897127448317
  0
LINE
  8
_0-0_計極細
  6
CONTINUOUS
 62
    2
 10
2291.4717437074869
 20
982.66250495096756
 11
2299.2302035250286
 21
990.42096476850759
  0
LINE
  8
_0-0_計極細
  6
CONTINUOUS
 62
    2
 10
2304.3827413361614
 20
995.57350257963947
 11
2314.4717437074869
 21
1005.6625049509677
  0
LINE
  8
_0-0_計極細
  6
CONTINUOUS
 62
    2
 10
2291.4717437074869
 20
983.93529715710338
 11
2297.1053080461497
 21
989.56886149576633
  0
LINE
  8
_0-0_計極細
  6
CONTINUOUS
 62
    2
 10
2305.2348446089018
 20
997.69839805851643
 11
2314.4717437074869
 21
1006.9352971571034
  0
LINE
  8
_0-0_計極細
  6
CONTINUOUS
 62
    2
 10
2291.4717437074869
 20
985.20808936323931
 11
2295.4742809628115
 21
989.21062661856115
  0
LINE
  8
_0-0_計極細
  6
CONTINUOUS
 62
    2
 10
2305.5930794861051
 20
999.32942514185754
 11
2314.4717437074869
 21
1008.2080893632393
  0
LINE
  8
_0-0_計極細
  6
CONTINUOUS
 62
    2
 10
2291.4717437074869
 20
986.48088156937501
 11
2294.0781174631593
 21
989.08725532504661
  0
LINE
  8
_0-0_計極細
  6
CONTINUOUS
 62
    2
 10
2305.7164507796224
 20
1000.7255886415078
 11
2314.4717437074869
 21
1009.480881569375
  0
LINE
  8
_0-0_計極細
  6
CONTINUOUS
 62
    2
 10
2291.4717437074869
 20
987.75367377551095
 11
2292.8000323291562
 21
989.08196239717938
  0
LINE
  8
_0-0_計極細
  6
CONTINUOUS
 62
    2
 10
2305.7217437074869
 20
1002.0036737755108
 11
2314.4717437074869
 21
1010.7536737755108
  0
LINE
  8
_0-0_計極細
  6
CONTINUOUS
 62
    2
 10
2291.4717437074869
 20
989.02646598164665
 11
2291.5272401230213
 21
989.08196239717938
  0
LINE
  8
_0-0_計極細
  6
CONTINUOUS
 62
    2
 10
2305.7217437074869
 20
1003.2764659816468
 11
2314.4717437074869
 21
1012.0264659816468
  0
LINE
  8
_0-0_計極細
  6
CONTINUOUS
 62
    2
 10
2305.7217437074869
 20
1004.5492581877825
 11
2314.4717437074869
 21
1013.2992581877825
  0
LINE
  8
_0-0_計極細
  6
CONTINUOUS
 62
    2
 10
2305.7217437074869
 20
1005.8220503939174
 11
2314.4717437074869
 21
1014.5720503939184
  0
LINE
  8
_0-0_計極細
  6
CONTINUOUS
 62
    2
 10
2305.7217437074869
 20
1007.0948426000541
 11
2314.4717437074869
 21
1015.8448426000532
  0
LINE
  8
_0-0_計極細
  6
CONTINUOUS
 62
    2
 10
2305.7217437074869
 20
1008.3676348061891
 11
2314.4717437074869
 21
1017.1176348061891
  0
LINE
  8
_0-0_計極細
  6
CONTINUOUS
 62
    2
 10
2305.7217437074869
 20
1009.6404270123248
 11
2314.4717437074869
 21
1018.3904270123248
  0
LINE
  8
_0-0_計極細
  6
CONTINUOUS
 62
    2
 10
2305.7217437074869
 20
1010.9132192184608
 11
2314.4717437074869
 21
1019.6632192184608
  0
LINE
  8
_0-0_計極細
  6
CONTINUOUS
 62
    2
 10
2305.7217437074869
 20
1012.1860114245965
 11
2314.4717437074869
 21
1020.9360114245965
  0
LINE
  8
_0-0_計極細
  6
CONTINUOUS
 62
    2
 10
2305.7217437074869
 20
1013.4588036307323
 11
2314.4717437074869
 21
1022.2088036307323
  0
LINE
  8
_0-0_計極細
  6
CONTINUOUS
 62
    2
 10
2305.7217437074869
 20
1014.7315958368682
 11
2314.4717437074869
 21
1023.4815958368682
  0
LINE
  8
_0-0_計極細
  6
CONTINUOUS
 62
    2
 10
2305.7217437074869
 20
1016.0043880430039
 11
2314.4717437074869
 21
1024.7543880430039
  0
LINE
  8
_0-0_計極細
  6
CONTINUOUS
 62
    2
 10
2305.7217437074869
 20
1017.2771802491399
 11
2314.4717437074869
 21
1026.0271802491397
  0
LINE
  8
_0-0_計極細
  6
CONTINUOUS
 62
    2
 10
2305.7217437074869
 20
1018.5499724552756
 11
2314.4717437074869
 21
1027.2999724552756
  0
LINE
  8
_0-0_計極細
  6
CONTINUOUS
 62
    2
 10
2305.7217437074869
 20
1019.8227646614114
 11
2314.4717437074869
 21
1028.5727646614114
  0
LINE
  8
_0-0_計極細
  6
CONTINUOUS
 62
    2
 10
2305.7217437074869
 20
1021.0955568675473
 11
2314.4717437074869
 21
1029.8455568675472
  0
LINE
  8
_0-0_計極細
  6
CONTINUOUS
 62
    2
 10
2305.7217437074869
 20
1022.368349073683
 11
2314.4717437074869
 21
1031.118349073683
  0
LINE
  8
_0-0_計極細
  6
CONTINUOUS
 62
    2
 10
2305.7217437074869
 20
1023.641141279819
 11
2314.4717437074869
 21
1032.3911412798188
  0
LINE
  8
_0-0_計極細
  6
CONTINUOUS
 62
    2
 10
2305.7217437074869
 20
1024.9139334859547
 11
2314.4717437074869
 21
1033.6639334859547
  0
LINE
  8
_0-0_計極細
  6
CONTINUOUS
 62
    2
 10
2305.7217437074869
 20
1026.1867256920905
 11
2314.4717437074869
 21
1034.9367256920905
  0
LINE
  8
_0-0_計極細
  6
CONTINUOUS
 62
    2
 10
2305.7217437074869
 20
1027.4595178982263
 11
2314.4717437074869
 21
1036.2095178982263
  0
LINE
  8
_0-0_計極細
  6
CONTINUOUS
 62
    2
 10
2305.7217437074869
 20
1028.7323101043621
 11
2314.4717437074869
 21
1037.4823101043621
  0
LINE
  8
_0-0_計極細
  6
CONTINUOUS
 62
    2
 10
2305.7217437074869
 20
1030.0051023104979
 11
2312.7280140529983
 21
1037.0113726560066
  0
LINE
  8
_0-0_計極細
  6
CONTINUOUS
 62
    2
 10
2305.7217437074869
 20
1031.2778945166338
 11
2311.4552218468598
 21
1037.0113726560066
  0
LINE
  8
_0-0_計極細
  6
CONTINUOUS
 62
    2
 10
2305.7217437074869
 20
1032.5506867227696
 11
2310.1824296407249
 21
1037.0113726560066
  0
LINE
  8
_0-0_計極細
  6
CONTINUOUS
 62
    2
 10
2305.7217437074869
 20
1033.8234789289054
 11
2308.90963743459
 21
1037.0113726560066
  0
LINE
  8
_0-0_計極細
  6
CONTINUOUS
 62
    2
 10
2305.7217437074869
 20
1035.0962711350412
 11
2307.6368452284551
 21
1037.0113726560066
  0
LINE
  8
_0-0_計極細
  6
CONTINUOUS
 62
    2
 10
2305.7217437074869
 20
1036.369063341177
 11
2306.3640530223201
 21
1037.0113726560066
  0
LINE
  8
_0-0_計極細
  6
CONTINUOUS
 62
    2
 10
2292.2207830165571
 20
1006.3218039704799
 11
2293.4717437074869
 21
1007.5727646614115
  0
LINE
  8
_0-0_計極細
  6
CONTINUOUS
 62
    2
 10
2291.4717277074888
 20
1007.6940690049714
 11
2293.4717437074869
 21
1009.6940850049714
  0
LINE
  8
_0-0_計極細
  6
CONTINUOUS
 62
    2
 10
2291.4717277074888
 20
1009.8153893485306
 11
2293.4717437074869
 21
1011.8154053485306
  0
LINE
  8
_0-0_計極細
  6
CONTINUOUS
 62
    2
 10
2291.4717277074888
 20
1011.9367096920905
 11
2293.4717437074869
 21
1013.9367256920906
  0
LINE
  8
_0-0_計極細
  6
CONTINUOUS
 62
    2
 10
2291.4717277074888
 20
1014.0580300356505
 11
2293.4717437074869
 21
1016.0580460356496
  0
LINE
  8
_0-0_計極細
  6
CONTINUOUS
 62
    2
 10
2291.4717277074888
 20
1016.1793503792097
 11
2293.4717437074869
 21
1018.1793663792097
  0
LINE
  8
_0-0_計極細
  6
CONTINUOUS
 62
    2
 10
2291.4717277074888
 20
1018.3006707227696
 11
2293.4717437074869
 21
1020.3006867227697
  0
LINE
  8
_0-0_計極細
  6
CONTINUOUS
 62
    2
 10
2291.4717277074888
 20
1020.4219910663288
 11
2293.4717437074869
 21
1022.4220070663287
  0
LINE
  8
_0-0_計極細
  6
CONTINUOUS
 62
    2
 10
2291.4717277074888
 20
1022.5433114098888
 11
2293.4717437074869
 21
1024.5433274098887
  0
LINE
  8
_0-0_計極細
  6
CONTINUOUS
 62
    2
 10
2291.4717277074888
 20
1024.6646317534487
 11
2293.4717437074869
 21
1026.6646477534478
  0
LINE
  8
_0-0_計極細
  6
CONTINUOUS
 62
    2
 10
2291.4717277074888
 20
1026.7859520970078
 11
2293.4717437074869
 21
1028.7859680970078
  0
LINE
  8
_0-0_計極細
  6
CONTINUOUS
 62
    2
 10
2291.4717277074888
 20
1028.9072724405678
 11
2293.4717437074869
 21
1030.9072884405678
  0
LINE
  8
_0-0_計極細
  6
CONTINUOUS
 62
    2
 10
2291.4717277074888
 20
1031.0285927841269
 11
2293.4717437074869
 21
1033.0286087841268
  0
LINE
  8
_0-0_計極細
  6
CONTINUOUS
 62
    2
 10
2291.4717277074888
 20
1033.1499131276869
 11
2293.4717437074869
 21
1035.1499291276868
  0
LINE
  8
_0-0_計極細
  6
CONTINUOUS
 62
    2
 10
2291.4717277074888
 20
1035.2712334712469
 11
2293.4717437074869
 21
1037.2712494712459
  0
LINE
  8
_0-0_計極細
  6
CONTINUOUS
 62
    2
 10
2291.4717277074888
 20
1037.392553814806
 11
2293.4717437074869
 21
1039.3925698148059
  0
LINE
  8
_0-0_計極細
  6
CONTINUOUS
 62
    2
 10
2291.4717277074888
 20
1039.513874158366
 11
2293.4717437074869
 21
1041.5138901583659
  0
LINE
  8
_0-0_計極細
  6
CONTINUOUS
 62
    2
 10
2291.4717277074888
 20
1041.635194501926
 11
2293.4717437074869
 21
1043.635210501925
  0
LINE
  8
_0-0_計極細
  6
CONTINUOUS
 62
    2
 10
2291.4717277074888
 20
1043.7565148454851
 11
2293.4717437074869
 21
1045.756530845485
  0
LINE
  8
_0-0_計極細
  6
CONTINUOUS
 62
    2
 10
2291.4717277074888
 20
1045.8778351890451
 11
2293.4717437074869
 21
1047.8778511890441
  0
LINE
  8
_0-0_計極細
  6
CONTINUOUS
 62
    2
 10
2291.4717277074888
 20
1047.9991555326042
 11
2293.4717437074869
 21
1049.9991715326041
  0
LINE
  8
_0-0_計極細
  6
CONTINUOUS
 62
    2
 10
2291.4717277074888
 20
1050.1204758761642
 11
2293.4717437074869
 21
1052.1204918761641
  0
LINE
  8
_0-0_計極細
  6
CONTINUOUS
 62
    2
 10
2307.262290907147
 20
1065.9110390758242
 11
2308.9505267488457
 21
1067.599274917523
  0
LINE
  8
_0-0_計極細
  6
CONTINUOUS
 62
    2
 10
2291.4717277074888
 20
1052.2417962197233
 11
2293.4717437074869
 21
1054.2418122197232
  0
LINE
  8
_0-0_計極細
  6
CONTINUOUS
 62
    2
 10
2305.1197536049476
 20
1065.889822117183
 11
2308.1197536049476
 21
1068.889822117183
  0
LINE
  8
_0-0_計極細
  6
CONTINUOUS
 62
    2
 10
2291.4717277074888
 20
1054.3631165632833
 11
2293.4717437074869
 21
1056.3631325632832
  0
LINE
  8
_0-0_計極細
  6
CONTINUOUS
 62
    2
 10
2303.9717437074869
 20
1066.8631325632832
 11
2306.7217437074869
 21
1069.6131325632832
  0
LINE
  8
_0-0_計極細
  6
CONTINUOUS
 62
    2
 10
2291.4717277074888
 20
1056.4844369068433
 11
2293.4717437074869
 21
1058.4844529068432
  0
LINE
  8
_0-0_計極細
  6
CONTINUOUS
 62
    2
 10
2303.9702961717921
 20
1068.9830053711466
 11
2306.7217437074869
 21
1071.7344529068432
  0
LINE
  8
_0-0_計極細
  6
CONTINUOUS
 62
    2
 10
2291.4717277074888
 20
1058.6057572504023
 11
2293.4717437074869
 21
1060.6057732504023
  0
LINE
  8
_0-0_計極細
  6
CONTINUOUS
 62
    2
 10
2303.4485503461983
 20
1070.5825798891146
 11
2306.1557925742673
 21
1073.2898221171836
  0
LINE
  8
_0-0_計極細
  6
CONTINUOUS
 62
    2
 10
2291.4717277074888
 20
1060.7270775939623
 11
2293.4717437074869
 21
1062.7270935939623
  0
LINE
  8
_0-0_計極細
  6
CONTINUOUS
 62
    2
 10
2302.3002034290039
 20
1071.5555533154775
 11
2304.0344722307091
 21
1073.2898221171836
  0
LINE
  8
_0-0_計極細
  6
CONTINUOUS
 62
    2
 10
2291.4717277074888
 20
1062.8483979375223
 11
2293.4717437074869
 21
1064.8484139375214
  0
LINE
  8
_0-0_計極細
  6
CONTINUOUS
 62
    2
 10
2300.749716921764
 20
1072.1263871517967
 11
2301.9131518871509
 21
1073.2898221171836
  0
LINE
  8
_0-0_計極細
  6
CONTINUOUS
 62
    2
 10
2291.4717277074888
 20
1064.9697182810814
 11
2293.5191971173626
 21
1067.0171876909571
  0
LINE
  8
_0-0_計極細
  6
CONTINUOUS
 62
    2
 10
2298.7186241337149
 20
1072.2166147073076
 11
2299.7918315435891
 21
1073.2898221171836
  0
LINE
  8
_0-0_計極細
  6
CONTINUOUS
 62
    2
 10
2289.4626682000307
 20
1065.0819791171834
 11
2297.6705112000309
 21
1073.2898221171836
  0
LINE
  8
_0-0_計極細
  6
CONTINUOUS
 62
    2
 10
2287.3413478564689
 20
1065.0819791171834
 11
2295.5491908564691
 21
1073.2898221171836
  0
LINE
  8
_0-0_計極細
  6
CONTINUOUS
 62
    2
 10
2285.2200275129107
 20
1065.0819791171834
 11
2293.4278705129109
 21
1073.2898221171836
  0
LINE
  8
_0-0_計極細
  6
CONTINUOUS
 62
    2
 10
2283.0987071693526
 20
1065.0819791171834
 11
2291.3065501693527
 21
1073.2898221171836
  0
LINE
  8
_0-0_計極細
  6
CONTINUOUS
 62
    2
 10
2280.9773868257907
 20
1065.0819791171834
 11
2289.1852298257909
 21
1073.2898221171836
  0
LINE
  8
_0-0_計極細
  6
CONTINUOUS
 62
    2
 10
2278.8560664822326
 20
1065.0819791171834
 11
2287.0639094822327
 21
1073.2898221171836
  0
LINE
  8
_0-0_計極細
  6
CONTINUOUS
 62
    2
 10
2276.7347461386707
 20
1065.0819791171834
 11
2284.9425891386709
 21
1073.2898221171836
  0
LINE
  8
_0-0_計極細
  6
CONTINUOUS
 62
    2
 10
2274.6134257951126
 20
1065.0819791171834
 11
2282.8212687951127
 21
1073.2898221171836
  0
LINE
  8
_0-0_計極細
  6
CONTINUOUS
 62
    2
 10
2272.4921054515544
 20
1065.0819791171834
 11
2280.6999484515545
 21
1073.2898221171836
  0
LINE
  8
_0-0_計極細
  6
CONTINUOUS
 62
    2
 10
2270.3707851079926
 20
1065.0819791171834
 11
2278.5786281079927
 21
1073.2898221171836
  0
LINE
  8
_0-0_計極細
  6
CONTINUOUS
 62
    2
 10
2268.2494647644344
 20
1065.0819791171834
 11
2276.4573077644345
 21
1073.2898221171836
  0
LINE
  8
_0-0_計極細
  6
CONTINUOUS
 62
    2
 10
2266.4717437074869
 20
1065.4255784037969
 11
2274.3359874208727
 21
1073.2898221171836
  0
LINE
  8
_0-0_計極細
  6
CONTINUOUS
 62
    2
 10
2266.4717437074869
 20
1067.5468987473569
 11
2272.2146670773145
 21
1073.2898221171836
  0
LINE
  8
_0-0_計極細
  6
CONTINUOUS
 62
    2
 10
2266.4717437074869
 20
1069.6682190909169
 11
2270.0933467337563
 21
1073.2898221171836
  0
LINE
  8
_0-0_計極細
  6
CONTINUOUS
 62
    2
 10
2266.4717437074869
 20
1071.789539434476
 11
2267.9720263901945
 21
1073.2898221171836
  0
LINE
  8
_0-0_計極細
  6
CONTINUOUS
 62
    2
 10
2266.4717437074869
 20
1087.2748001318541
 11
2323.3717437074883
 21
1087.2748001318532
  0
LINE
  8
_0-1_計細線
  6
CONTINUOUS
 62
    3
 10
2209.4717437074869
 20
1083.5819623971784
 11
2266.4717437074869
 21
1083.5819623971784
  0
LINE
  8
_0-1_計細線
  6
CONTINUOUS
 62
    3
 10
2209.5717437074891
 20
1070.8819791171836
 11
2209.5717437074891
 21
1083.5819623971788
  0
LINE
  8
_0-0_計極細
  6
CENTER2
 62
    2
 10
2266.4717437074869
 20
1571.7873267792788
 11
2266.4717437074869
 21
931.41797191716591
  0
LINE
  8
_0-7_枠細線
  6
CONTINUOUS
 62
    5
 10
2654.942907199716
 20
660.63857392225259
 11
2654.942907199716
 21
450.63857392225316
  0
TEXT
  8
_0-7_枠細線
 62
    5
 10
2472.9429071997179
 20
620.63857392225259
 40
30.000000000000004
 41
0.8
 50
0
  1
ノンスリップ
  0
LINE
  8
_0-7_枠細線
  6
CONTINUOUS
 62
    5
 10
2454.7983238753959
 20
515.14411722273564
 11
2644.559297189754
 21
515.14411722273564
  0
LINE
  8
_0-7_枠細線
  6
CONTINUOUS
 62
    5
 10
2447.3279372094748
 20
548.47745055273606
 11
2637.0889105238343
 21
548.47745055273606
  0
ARC
  8
_0-7_枠細線
  6
CONTINUOUS
 62
    5
 10
2476.6095738732147
 20
525.14411722173577
 40
6.6666666659999994
 50
51.317813000001465
 51
203.57817800000373
  0
ARC
  8
_0-7_枠細線
  6
CONTINUOUS
 62
    5
 10
2484.9429072057146
 20
535.55244722069517
 40
6.6666666659999994
 50
231.31781300000716
 51
308.68218699999511
  0
LINE
  8
_0-7_枠細線
  6
CONTINUOUS
 62
    5
 10
2470.4994738738269
 20
522.47745055533585
 11
2499.3863405376032
 21
522.47745055533585
  0
ARC
  8
_0-7_枠細線
  6
CONTINUOUS
 62
    5
 10
2493.2762405382155
 20
525.14411722173577
 40
6.6666666659999994
 50
336.4218219999924
 51
128.68218700000429
  0
ARC
  8
_0-7_枠細線
  6
CONTINUOUS
 62
    5
 10
2536.6095738672157
 20
538.47745055373593
 40
6.6666666659999994
 50
156.42182200000036
 51
308.68218699998903
  0
ARC
  8
_0-7_枠細線
  6
CONTINUOUS
 62
    5
 10
2544.9429071997147
 20
528.06912055477653
 40
6.6666666659999994
 50
51.317813000001465
 51
128.68218699999852
  0
ARC
  8
_0-7_枠細線
  6
CONTINUOUS
 62
    5
 10
2553.276240532216
 20
538.47745055373593
 40
6.6666666659999994
 50
231.31781299999807
 51
23.578178000003977
  0
LINE
  8
_0-7_枠細線
  6
CONTINUOUS
 62
    5
 10
2530.499473867827
 20
541.14411722013585
 11
2559.3863405316033
 21
541.14411722013585
  0
LINE
  8
_0-7_枠細線
  6
CONTINUOUS
 62
    5
 10
2590.4994738618275
 20
522.47745055533585
 11
2619.3863405256034
 21
522.47745055533585
  0
ARC
  8
_0-7_枠細線
  6
CONTINUOUS
 62
    5
 10
2596.6095738612148
 20
525.14411722173577
 40
6.6666666659999994
 50
51.317813000001465
 51
203.57817800000373
  0
ARC
  8
_0-7_枠細線
  6
CONTINUOUS
 62
    5
 10
2604.9429071937152
 20
535.55244722069517
 40
6.6666666659999994
 50
231.31781300000111
 51
308.68218699999204
  0
ARC
  8
_0-7_枠細線
  6
CONTINUOUS
 62
    5
 10
2613.2762405262151
 20
525.14411722173577
 40
6.6666666659999994
 50
336.42182199999553
 51
128.68218699999818
  0
ARC
  8
_0-7_枠細線
  6
CONTINUOUS
 62
    5
 10
2536.6095738672157
 20
538.47745055373593
 40
12.43333333209006
 50
151.14636799999636
 51
308.68218700000415
  0
LINE
  8
_0-7_枠細線
  6
CONTINUOUS
 62
    5
 10
2446.5953972095494
 20
544.4774505531359
 11
2525.7197738683026
 21
544.4774505531359
  0
LINE
  8
_0-7_枠細線
  6
CONTINUOUS
 62
    5
 10
2504.1660438704585
 20
519.14411722233581
 11
2585.7197738623058
 21
519.14411722233581
  0
ARC
  8
_0-7_枠細線
  6
CONTINUOUS
 62
    5
 10
2438.383703877038
 20
520.21729388889469
 40
17.180713331615152
 50
317.56162900000061
 51
42.438371000003109
  0
ARC
  8
_0-7_枠細線
  6
CONTINUOUS
 62
    5
 10
2476.6095738732147
 20
525.14411722173577
 40
12.43333333209006
 50
51.317812999992242
 51
208.85363199999873
  0
ARC
  8
_0-7_枠細線
  6
CONTINUOUS
 62
    5
 10
2463.7425605411672
 20
543.40427388657645
 40
17.180713331615152
 50
137.56162899999856
 51
222.43837100000107
  0
LINE
  8
_0-7_枠細線
  6
CONTINUOUS
 62
    5
 10
2455.5308672086562
 20
519.14411722233581
 11
2465.7197738743025
 21
519.14411722233581
  0
ARC
  8
_0-7_枠細線
  6
CONTINUOUS
 62
    5
 10
2484.9429072057146
 20
535.55244722069517
 40
0.899999999909939
 50
231.31781300006065
 51
308.68218699998386
  0
ARC
  8
_0-7_枠細線
  6
CONTINUOUS
 62
    5
 10
2493.2762405382155
 20
525.14411722173577
 40
12.43333333209006
 50
331.14636800000056
 51
128.6821870000058
  0
ARC
  8
_0-7_枠細線
  6
CONTINUOUS
 62
    5
 10
2628.144677191397
 20
520.21729388889469
 40
17.180713331615152
 50
317.56162899999754
 51
42.438371000003109
  0
ARC
  8
_0-7_枠細線
  6
CONTINUOUS
 62
    5
 10
2653.5035338555276
 20
543.40427388657645
 40
17.180713331615152
 50
137.56162900000368
 51
222.438370999998
  0
LINE
  8
_0-7_枠細線
  6
CONTINUOUS
 62
    5
 10
2624.1660438584586
 20
519.14411722233581
 11
2645.2918405230148
 21
519.14411722233581
  0
LINE
  8
_0-7_枠細線
  6
CONTINUOUS
 62
    5
 10
2564.1660438644594
 20
544.4774505531359
 11
2636.3563705239085
 21
544.4774505531359
  0
ARC
  8
_0-7_枠細線
  6
CONTINUOUS
 62
    5
 10
2596.6095738612148
 20
525.14411722173577
 40
12.43333333209006
 50
51.317812999990608
 51
208.85363200000532
  0
ARC
  8
_0-7_枠細線
  6
CONTINUOUS
 62
    5
 10
2544.9429071997147
 20
528.06912055477653
 40
0.899999999909939
 50
51.317812999970606
 51
128.68218700000679
  0
ARC
  8
_0-7_枠細線
  6
CONTINUOUS
 62
    5
 10
2553.276240532216
 20
538.47745055373593
 40
12.43333333209006
 50
231.31781299998696
 51
28.853631999996409
  0
ARC
  8
_0-7_枠細線
  6
CONTINUOUS
 62
    5
 10
2604.9429071937152
 20
535.55244722069517
 40
0.899999999909939
 50
231.31781299999287
 51
308.68218699996123
  0
ARC
  8
_0-7_枠細線
  6
CONTINUOUS
 62
    5
 10
2613.2762405262151
 20
525.14411722173577
 40
12.43333333209006
 50
331.14636800000056
 51
128.68218700000412
  0
LINE
  8
_0-7_枠細線
  6
CENTER1
 62
    5
 10
2484.9429072057146
 20
551.27702721912215
 11
2484.9429072057146
 21
512.58073055632565
  0
LINE
  8
_0-7_枠細線
  6
CENTER1
 62
    5
 10
2604.9429071937152
 20
551.27702721912215
 11
2604.9429071937152
 21
512.58073055632565
  0
LINE
  8
_0-7_枠細線
  6
CENTER1
 62
    5
 10
2544.9429071997147
 20
551.27702721912215
 11
2544.9429071997147
 21
512.58073055632565
  0
LINE
  8
_0-7_枠細線
  6
CONTINUOUS
 62
    5
 10
2484.9429072057146
 20
505.14411722273564
 11
2484.9429072057146
 21
455.14411722273564
  0
LINE
  8
_0-7_枠細線
  6
CONTINUOUS
 62
    5
 10
2484.9429072057146
 20
465.14411722273564
 11
2504.2614237314961
 21
470.32049812478613
  0
LINE
  8
_0-7_枠細線
  6
CONTINUOUS
 62
    5
 10
2484.9429072057146
 20
465.14411722273564
 11
2504.2614237314961
 21
459.96773632068528
  0
LINE
  8
_0-7_枠細線
  6
CONTINUOUS
 62
    5
 10
2544.9429071997147
 20
505.14411722273564
 11
2544.9429071997147
 21
455.14411722273564
  0
LINE
  8
_0-7_枠細線
  6
CONTINUOUS
 62
    5
 10
2544.9429071997147
 20
465.14411722273564
 11
2525.6243906739332
 21
459.96773632068533
  0
LINE
  8
_0-7_枠細線
  6
CONTINUOUS
 62
    5
 10
2544.9429071997147
 20
465.14411722273564
 11
2525.6243906739332
 21
470.32049812478618
  0
LINE
  8
_0-7_枠細線
  6
CONTINUOUS
 62
    5
 10
2484.9429072057146
 20
465.14411722273564
 11
2544.9429071997147
 21
465.14411722273564
  0
TEXT
  8
_0-7_枠細線
 62
    5
 10
2499.9429072027151
 20
465.14411722273564
 40
30
 41
1
 50
0
  1
18
  0
LINE
  8
_0-7_枠細線
  6
CONTINUOUS
 62
    5
 10
2544.9429071997147
 20
465.14411722273564
 11
2564.2614237254966
 21
470.32049812478596
  0
LINE
  8
_0-7_枠細線
  6
CONTINUOUS
 62
    5
 10
2544.9429071997147
 20
465.14411722273564
 11
2564.2614237254966
 21
459.96773632068511
  0
LINE
  8
_0-7_枠細線
  6
CONTINUOUS
 62
    5
 10
2604.9429071937152
 20
505.14411722273564
 11
2604.9429071937152
 21
455.14411722273564
  0
LINE
  8
_0-7_枠細線
  6
CONTINUOUS
 62
    5
 10
2604.9429071937152
 20
465.14411722273564
 11
2585.6243906679338
 21
459.96773632068533
  0
LINE
  8
_0-7_枠細線
  6
CONTINUOUS
 62
    5
 10
2604.9429071937152
 20
465.14411722273564
 11
2585.6243906679338
 21
470.32049812478618
  0
LINE
  8
_0-7_枠細線
  6
CONTINUOUS
 62
    5
 10
2544.9429071997147
 20
465.14411722273564
 11
2604.9429071937152
 21
465.14411722273564
  0
TEXT
  8
_0-7_枠細線
 62
    5
 10
2559.9429071967152
 20
465.14411722273564
 40
30
 41
1
 50
0
  1
18
  0
TEXT
  8
_0-7_枠細線
 62
    5
 10
2496.9429071997165
 20
570.63857392225316
 40
30.000000000000004
 41
0.7999999999999997
 50
0
  1
品番－Ｄ
  0
LINE
  8
_0-7_枠細線
  6
CONTINUOUS
 62
    5
 10
2434.9429071997156
 20
660.63857392225259
 11
2434.9429071997156
 21
450.63857392225316
  0
TEXT
  8
_0-7_枠細線
 62
    5
 10
2276.9429071997147
 20
620.63857392225316
 40
30.000000000000004
 41
0.8
 50
0
  1
プレーン
  0
LINE
  8
_0-7_枠細線
  6
CONTINUOUS
 62
    5
 10
2233.7976122088285
 20
515.14411722273564
 11
2423.5585855231875
 21
515.14411722273564
  0
LINE
  8
_0-7_枠細線
  6
CONTINUOUS
 62
    5
 10
2226.3272255429083
 20
548.47745055273606
 11
2416.0881988572683
 21
548.47745055273606
  0
ARC
  8
_0-7_枠細線
  6
CONTINUOUS
 62
    5
 10
2407.1439655248278
 20
520.21729388889469
 40
17.180713331615152
 50
317.56162900000447
 51
42.438370999996238
  0
ARC
  8
_0-7_枠細線
  6
CONTINUOUS
 62
    5
 10
2217.3829922104715
 20
520.21729388889469
 40
17.180713331615344
 50
317.56162899999958
 51
42.438371000002498
  0
LINE
  8
_0-7_枠細線
  6
CONTINUOUS
 62
    5
 10
2225.5946855429829
 20
544.4774505531359
 11
2415.355658857342
 21
544.4774505531359
  0
LINE
  8
_0-7_枠細線
  6
CONTINUOUS
 62
    5
 10
2234.5301555420892
 20
519.14411722233581
 11
2424.2911288564474
 21
519.14411722233581
  0
ARC
  8
_0-7_枠細線
  6
CONTINUOUS
 62
    5
 10
2242.7418488746034
 20
543.40427388657645
 40
17.180713331615344
 50
137.56162899999856
 51
222.43837100000312
  0
ARC
  8
_0-7_枠細線
  6
CONTINUOUS
 62
    5
 10
2432.5028221889602
 20
543.40427388657645
 40
17.180713331615152
 50
137.56162899999958
 51
222.43837100000005
  0
TEXT
  8
_0-7_枠細線
 62
    5
 10
2276.9429071997174
 20
570.63857392225316
 40
30.000000000000004
 41
0.7999999999999997
 50
0
  1
品番－Ｆ
  0
TEXT
  8
_0-7_枠細線
 62
    5
 10
2116.9429071997156
 20
620.63857392225259
 40
30.000000000000004
 41
0.8
 50
0
  1
タ イ プ
  0
LINE
  8
_0-7_枠細線
  6
CONTINUOUS
 62
    5
 10
2114.9429071997147
 20
560.63857392225316
 11
2654.942907199716
 21
560.63857392225316
  0
LINE
  8
_0-7_枠細線
  6
CONTINUOUS
 62
    5
 10
2114.9429071997147
 20
610.63857392225259
 11
2654.942907199716
 21
610.63857392225259
  0
LINE
  8
_0-7_枠細線
  6
CONTINUOUS
 62
    5
 10
2114.9429071997147
 20
660.63857392225259
 11
2654.942907199716
 21
660.63857392225259
  0
LINE
  8
_0-7_枠細線
  6
CONTINUOUS
 62
    5
 10
2114.9429071997147
 20
450.63857392225316
 11
2654.942907199716
 21
450.63857392225316
  0
LINE
  8
_0-7_枠細線
  6
CONTINUOUS
 62
    5
 10
2214.942907199716
 20
660.63857392225259
 11
2214.942907199716
 21
450.63857392225316
  0
LINE
  8
_0-7_枠細線
  6
CONTINUOUS
 62
    5
 10
2114.9429071997147
 20
660.63857392225259
 11
2114.9429071997147
 21
450.63857392225316
  0
TEXT
  8
_0-7_枠細線
 62
    5
 10
2116.9429071997156
 20
490.63857392225316
 40
30.000000000000004
 41
0.8
 50
0
  1
表面形状
  0
TEXT
  8
_0-7_枠細線
 62
    5
 10
2116.9429071997156
 20
570.63857392225316
 40
30.000000000000004
 41
0.8
 50
0
  1
記　　号
  0
TEXT
  8
_0-7_枠細線
 62
    5
 10
2118.0615087558635
 20
665.63857392225316
 40
35.000000000000007
 41
0.7999999999999996
 50
0
  1
記号表
  0
LINE
  8
_0-e_極細4
  6
CONTINUOUS
 62
    6
 10
437.39452377260704
 20
815.2481709707007
 11
446.39452377260767
 21
815.2481709707007
  0
LINE
  8
_0-e_極細4
  6
CONTINUOUS
 62
    6
 10
437.39452377260704
 20
816.74817097070058
 11
447.57613112784838
 21
816.74817097070058
  0
LINE
  8
_0-e_極細4
  6
CONTINUOUS
 62
    6
 10
437.39452377260704
 20
818.24817097070036
 11
446.39452377260767
 21
818.24817097070036
  0
LINE
  8
_0-e_極細4
  6
CONTINUOUS
 62
    6
 10
437.39452377260704
 20
819.7481709707007
 11
446.39452377260767
 21
819.7481709707007
  0
LINE
  8
_0-e_極細4
  6
CONTINUOUS
 62
    6
 10
437.35804769540209
 20
821.24817097070104
 11
446.46291641736639
 21
821.24817097070104
  0
LINE
  8
_0-e_極細4
  6
CONTINUOUS
 62
    6
 10
436.55804769540254
 20
822.7481709707007
 11
447.32613112784833
 21
822.7481709707007
  0
LINE
  8
_0-e_極細4
  6
CONTINUOUS
 62
    6
 10
435.75804769540241
 20
824.24817097070058
 11
446.39452377260767
 21
824.24817097070058
  0
LINE
  8
_0-e_極細4
  6
CONTINUOUS
 62
    6
 10
645.14452377260739
 20
815.2481709707007
 11
654.14452377260716
 21
815.2481709707007
  0
LINE
  8
_0-e_極細4
  6
CONTINUOUS
 62
    6
 10
643.96291641736582
 20
816.74817097070058
 11
654.14452377260716
 21
816.74817097070058
  0
LINE
  8
_0-e_極細4
  6
CONTINUOUS
 62
    6
 10
645.14452377260739
 20
818.24817097070036
 11
654.14452377260716
 21
818.24817097070036
  0
LINE
  8
_0-e_極細4
  6
CONTINUOUS
 62
    6
 10
645.14452377260739
 20
819.7481709707007
 11
654.14452377260716
 21
819.7481709707007
  0
LINE
  8
_0-e_極細4
  6
CONTINUOUS
 62
    6
 10
645.07613112784668
 20
821.24817097070104
 11
654.18099984981211
 21
821.24817097070104
  0
LINE
  8
_0-e_極細4
  6
CONTINUOUS
 62
    6
 10
644.21291641736673
 20
822.7481709707007
 11
654.98099984981252
 21
822.7481709707007
  0
LINE
  8
_0-e_極細4
  6
CONTINUOUS
 62
    6
 10
645.14452377260739
 20
824.24817097070058
 11
655.78099984981293
 21
824.24817097070058
  0
LINE
  8
_0-e_極細4
  6
CONTINUOUS
 62
    6
 10
437.0465856984444
 20
798.91450332594161
 11
437.0465856984444
 21
803.91450332594161
  0
LINE
  8
_0-e_極細4
  6
CONTINUOUS
 62
    6
 10
435.54658569844463
 20
798.91450332594161
 11
435.54658569844463
 21
803.91450332594161
  0
LINE
  8
_0-e_極細4
  6
CONTINUOUS
 62
    6
 10
434.04658569844401
 20
798.91450332594161
 11
434.04658569844401
 21
803.91450332594161
  0
LINE
  8
_0-e_極細4
  6
CONTINUOUS
 62
    6
 10
432.54658569844423
 20
798.91450332594161
 11
432.54658569844423
 21
833.84858746723535
  0
LINE
  8
_0-e_極細4
  6
CONTINUOUS
 62
    6
 10
431.04658569844446
 20
798.91450332594161
 11
431.04658569844446
 21
834.63352938745118
  0
LINE
  8
_0-e_極細4
  6
CONTINUOUS
 62
    6
 10
429.5465856984444
 20
798.91450332594161
 11
429.5465856984444
 21
834.66450332594161
  0
LINE
  8
_0-e_極細4
  6
CONTINUOUS
 62
    6
 10
428.04658569844378
 20
798.91450332594161
 11
428.04658569844378
 21
834.66450332594161
  0
LINE
  8
_0-e_極細4
  6
CONTINUOUS
 62
    6
 10
426.54658569844401
 20
798.91450332594161
 11
426.54658569844401
 21
834.81470173330206
  0
LINE
  8
_0-e_極細4
  6
CONTINUOUS
 62
    6
 10
425.04658569844395
 20
798.91450332594161
 11
425.04658569844395
 21
835.56805164146749
  0
LINE
  8
_0-e_極細4
  6
CONTINUOUS
 62
    6
 10
423.54658569844418
 20
799.8874414001051
 11
423.54658569844418
 21
837.87090155609405
  0
LINE
  8
_0-e_極細4
  6
CONTINUOUS
 62
    6
 10
422.04658569844355
 20
801.38744140010499
 11
422.04658569844355
 21
840.61137177393573
  0
LINE
  8
_0-e_極細4
  6
CONTINUOUS
 62
    6
 10
669.54658569844412
 20
801.44156525177902
 11
669.54658569844412
 21
840.63912025526236
  0
LINE
  8
_0-e_極細4
  6
CONTINUOUS
 62
    6
 10
668.04658569844435
 20
799.94156525177925
 11
668.04658569844435
 21
838.11437338455278
  0
LINE
  8
_0-e_極細4
  6
CONTINUOUS
 62
    6
 10
666.54658569844344
 20
798.91450332594161
 11
666.54658569844344
 21
835.61113932834485
  0
LINE
  8
_0-e_極細4
  6
CONTINUOUS
 62
    6
 10
665.0465856984448
 20
798.91450332594161
 11
665.0465856984448
 21
834.82987121544113
  0
LINE
  8
_0-e_極細4
  6
CONTINUOUS
 62
    6
 10
663.54658569844503
 20
798.91450332594161
 11
663.54658569844503
 21
834.66450332594161
  0
LINE
  8
_0-e_極細4
  6
CONTINUOUS
 62
    6
 10
662.04658569844412
 20
798.91450332594161
 11
662.04658569844412
 21
834.66450332594161
  0
LINE
  8
_0-e_極細4
  6
CONTINUOUS
 62
    6
 10
660.54658569844435
 20
798.91450332594161
 11
660.54658569844435
 21
834.64134192519123
  0
LINE
  8
_0-e_極細4
  6
CONTINUOUS
 62
    6
 10
659.04658569844344
 20
798.91450332594161
 11
659.04658569844344
 21
833.90383963521072
  0
LINE
  8
_0-e_極細4
  6
CONTINUOUS
 62
    6
 10
657.5465856984448
 20
798.91450332594161
 11
657.5465856984448
 21
803.91450332594161
  0
LINE
  8
_0-e_極細4
  6
CONTINUOUS
 62
    6
 10
656.04658569844389
 20
798.91450332594161
 11
656.04658569844389
 21
803.91450332594161
  0
LINE
  8
_0-e_極細4
  6
CONTINUOUS
 62
    6
 10
654.54658569844412
 20
798.91450332594161
 11
654.54658569844412
 21
803.91450332594161
  0
LINE
  8
_0-e_極細4
  6
CONTINUOUS
 62
    6
 10
653.04658569844435
 20
793.91450332594161
 11
653.04658569844435
 21
808.91450332594161
  0
LINE
  8
_0-e_極細4
  6
CONTINUOUS
 62
    6
 10
651.54658569844344
 20
793.91450332594161
 11
651.54658569844344
 21
794.54378497385107
  0
LINE
  8
_0-e_極細4
  6
CONTINUOUS
 62
    6
 10
651.54658569844344
 20
799.16645082594141
 11
651.54658569844344
 21
808.91450332594161
  0
LINE
  8
_0-e_極細4
  6
CONTINUOUS
 62
    6
 10
650.0465856984448
 20
799.16645082594141
 11
650.0465856984448
 21
808.91450332594161
  0
LINE
  8
_0-e_極細4
  6
CONTINUOUS
 62
    6
 10
648.54658569844503
 20
799.16645082594141
 11
648.54658569844503
 21
808.91450332594161
  0
LINE
  8
_0-e_極細4
  6
CONTINUOUS
 62
    6
 10
647.04658569844412
 20
799.16645082594141
 11
647.04658569844412
 21
808.91450332594161
  0
LINE
  8
_0-e_極細4
  6
CONTINUOUS
 62
    6
 10
444.5465856984444
 20
799.16645082594141
 11
444.5465856984444
 21
808.91450332594161
  0
LINE
  8
_0-e_極細4
  6
CONTINUOUS
 62
    6
 10
443.04658569844463
 20
799.16645082594141
 11
443.04658569844463
 21
808.91450332594161
  0
LINE
  8
_0-e_極細4
  6
CONTINUOUS
 62
    6
 10
441.54658569844401
 20
799.16645082594141
 11
441.54658569844401
 21
808.91450332594161
  0
LINE
  8
_0-e_極細4
  6
CONTINUOUS
 62
    6
 10
440.04658569844423
 20
793.91450332594161
 11
440.04658569844423
 21
794.43198780662283
  0
LINE
  8
_0-e_極細4
  6
CONTINUOUS
 62
    6
 10
440.04658569844423
 20
799.16645082594141
 11
440.04658569844423
 21
808.91450332594161
  0
LINE
  8
_0-e_極細4
  6
CONTINUOUS
 62
    6
 10
438.54658569844446
 20
793.91450332594161
 11
438.54658569844446
 21
808.91450332594161
  0
LINE
  8
_0-e_極細4
  6
CONTINUOUS
 62
    6
 10
470.04658569844423
 20
794.66450332594206
 11
470.04658569844423
 21
798.91450332594161
  0
LINE
  8
_0-e_極細4
  6
CONTINUOUS
 62
    6
 10
468.54658569844446
 20
794.66450332594206
 11
468.54658569844446
 21
798.91450332594161
  0
LINE
  8
_0-e_極細4
  6
CONTINUOUS
 62
    6
 10
467.0465856984444
 20
794.66450332594206
 11
467.0465856984444
 21
798.91450332594161
  0
LINE
  8
_0-e_極細4
  6
CONTINUOUS
 62
    6
 10
465.54658569844463
 20
794.66450332594206
 11
465.54658569844463
 21
798.91450332594161
  0
LINE
  8
_0-e_極細4
  6
CONTINUOUS
 62
    6
 10
464.04658569844401
 20
794.66450332594206
 11
464.04658569844401
 21
798.91450332594161
  0
LINE
  8
_0-e_極細4
  6
CONTINUOUS
 62
    6
 10
462.54658569844423
 20
794.66450332594206
 11
462.54658569844423
 21
798.91450332594161
  0
LINE
  8
_0-e_極細4
  6
CONTINUOUS
 62
    6
 10
461.04658569844418
 20
794.66450332594206
 11
461.04658569844418
 21
798.91450332594161
  0
LINE
  8
_0-e_極細4
  6
CONTINUOUS
 62
    6
 10
459.54658569844412
 20
794.66450332594206
 11
459.54658569844412
 21
798.91450332594161
  0
LINE
  8
_0-e_極細4
  6
CONTINUOUS
 62
    6
 10
632.04658569844412
 20
794.66450332594206
 11
632.04658569844412
 21
798.91450332594161
  0
LINE
  8
_0-e_極細4
  6
CONTINUOUS
 62
    6
 10
630.54658569844435
 20
794.66450332594206
 11
630.54658569844435
 21
798.91450332594161
  0
LINE
  8
_0-e_極細4
  6
CONTINUOUS
 62
    6
 10
629.04658569844344
 20
794.66450332594206
 11
629.04658569844344
 21
798.91450332594161
  0
LINE
  8
_0-e_極細4
  6
CONTINUOUS
 62
    6
 10
627.5465856984448
 20
794.66450332594206
 11
627.5465856984448
 21
798.91450332594161
  0
LINE
  8
_0-e_極細4
  6
CONTINUOUS
 62
    6
 10
626.04658569844446
 20
794.66450332594206
 11
626.04658569844446
 21
798.91450332594161
  0
LINE
  8
_0-e_極細4
  6
CONTINUOUS
 62
    6
 10
624.54658569844412
 20
794.66450332594206
 11
624.54658569844412
 21
798.91450332594161
  0
LINE
  8
_0-e_極細4
  6
CONTINUOUS
 62
    6
 10
623.04658569844321
 20
794.66450332594206
 11
623.04658569844321
 21
798.91450332594161
  0
LINE
  8
_0-e_極細4
  6
CONTINUOUS
 62
    6
 10
621.54658569844344
 20
794.66450332594206
 11
621.54658569844344
 21
798.91450332594161
  0
LINE
  8
_0-e_極細4
  6
CONTINUOUS
 62
    6
 10
476.04658569844446
 20
798.91450332594161
 11
476.04658569844446
 21
800.45997194292511
  0
LINE
  8
_0-e_極細4
  6
CONTINUOUS
 62
    6
 10
474.5465856984444
 20
798.91450332594161
 11
474.5465856984444
 21
802.49286328220603
  0
LINE
  8
_0-e_極細4
  6
CONTINUOUS
 62
    6
 10
473.04658569844463
 20
798.91450332594161
 11
473.04658569844463
 21
803.9778761310738
  0
LINE
  8
_0-e_極細4
  6
CONTINUOUS
 62
    6
 10
471.54658569844401
 20
798.91450332594161
 11
471.54658569844401
 21
805.11167196985593
  0
LINE
  8
_0-e_極細4
  6
CONTINUOUS
 62
    6
 10
470.04658569844423
 20
798.91450332594161
 11
470.04658569844423
 21
805.98382324615284
  0
LINE
  8
_0-e_極細4
  6
CONTINUOUS
 62
    6
 10
468.54658569844418
 20
798.91450332594161
 11
468.54658569844418
 21
806.64317039185403
  0
LINE
  8
_0-e_極細4
  6
CONTINUOUS
 62
    6
 10
467.0465856984444
 20
798.91450332594161
 11
467.0465856984444
 21
807.11873910904626
  0
LINE
  8
_0-e_極細4
  6
CONTINUOUS
 62
    6
 10
465.54658569844378
 20
798.91450332594161
 11
465.54658569844378
 21
807.42822476836238
  0
LINE
  8
_0-e_極細4
  6
CONTINUOUS
 62
    6
 10
464.04658569844401
 20
798.91450332594161
 11
464.04658569844401
 21
807.58192479601928
  0
LINE
  8
_0-e_極細4
  6
CONTINUOUS
 62
    6
 10
462.54658569844395
 20
798.91450332594161
 11
462.54658569844395
 21
807.58463438213141
  0
LINE
  8
_0-e_極細4
  6
CONTINUOUS
 62
    6
 10
461.04658569844418
 20
798.91450332594161
 11
461.04658569844418
 21
807.43643626483913
  0
LINE
  8
_0-e_極細4
  6
CONTINUOUS
 62
    6
 10
459.54658569844355
 20
798.91450332594161
 11
459.54658569844355
 21
807.13271385333326
  0
LINE
  8
_0-e_極細4
  6
CONTINUOUS
 62
    6
 10
458.04658569844378
 20
798.91450332594161
 11
458.04658569844378
 21
806.66339285696733
  0
LINE
  8
_0-e_極細4
  6
CONTINUOUS
 62
    6
 10
456.54658569844372
 20
798.91450332594161
 11
456.54658569844372
 21
806.01109650123533
  0
LINE
  8
_0-e_極細4
  6
CONTINUOUS
 62
    6
 10
455.04658569844395
 20
798.91450332594161
 11
455.04658569844395
 21
805.14731550175395
  0
LINE
  8
_0-e_極細4
  6
CONTINUOUS
 62
    6
 10
453.54658569844332
 20
798.91450332594161
 11
453.54658569844332
 21
803.70230915289608
  0
LINE
  8
_0-e_極細4
  6
CONTINUOUS
 62
    6
 10
452.04658569844355
 20
798.91450332594161
 11
452.04658569844355
 21
799.8030013264605
  0
ARC
  8
_0-e_極細4
  6
CONTINUOUS
 62
    6
 10
463.26952377260767
 20
792.60206582594208
 40
15
 50
0
 51
24.886947317068213
  0
LINE
  8
_0-e_極細4
  6
CONTINUOUS
 62
    6
 10
476.87662239092447
 20
798.91450332594161
 11
452.01952377260767
 21
798.91450332594161
  0
ARC
  8
_0-e_極細4
  6
CONTINUOUS
 62
    6
 10
463.26952377260767
 20
792.60206582594208
 40
15
 50
24.886947317068213
 51
124.83370764384632
  0
LINE
  8
_0-e_極細4
  6
CONTINUOUS
 62
    6
 10
452.01952377260767
 20
791.66645082594243
 11
452.01952377260767
 21
798.91450332594161
  0
ARC
  8
_0-e_極細4
  6
CONTINUOUS
 62
    6
 10
459.51952377260767
 20
799.16645082594141
 40
7.5
 50
129.97050058003745
 51
181.92509931279335
  0
LINE
  8
_0-e_極細4
  6
CONTINUOUS
 62
    6
 10
638.04658569844435
 20
798.91450332594161
 11
638.04658569844435
 21
803.63014039199822
  0
LINE
  8
_0-e_極細4
  6
CONTINUOUS
 62
    6
 10
636.54658569844344
 20
798.91450332594161
 11
636.54658569844344
 21
805.11167196985593
  0
LINE
  8
_0-e_極細4
  6
CONTINUOUS
 62
    6
 10
635.0465856984448
 20
798.91450332594161
 11
635.0465856984448
 21
805.98382324615227
  0
LINE
  8
_0-e_極細4
  6
CONTINUOUS
 62
    6
 10
633.54658569844446
 20
798.91450332594161
 11
633.54658569844446
 21
806.64317039185391
  0
LINE
  8
_0-e_極細4
  6
CONTINUOUS
 62
    6
 10
632.04658569844412
 20
798.91450332594161
 11
632.04658569844412
 21
807.11873910904558
  0
LINE
  8
_0-e_極細4
  6
CONTINUOUS
 62
    6
 10
630.54658569844321
 20
798.91450332594161
 11
630.54658569844321
 21
807.42822476836193
  0
LINE
  8
_0-e_極細4
  6
CONTINUOUS
 62
    6
 10
629.04658569844344
 20
798.91450332594161
 11
629.04658569844344
 21
807.58192479601928
  0
LINE
  8
_0-e_極細4
  6
CONTINUOUS
 62
    6
 10
627.54658569844366
 20
798.91450332594161
 11
627.54658569844366
 21
807.58463438213153
  0
LINE
  8
_0-e_極細4
  6
CONTINUOUS
 62
    6
 10
626.04658569844389
 20
798.91450332594161
 11
626.04658569844389
 21
807.43643626483913
  0
LINE
  8
_0-e_極細4
  6
CONTINUOUS
 62
    6
 10
624.54658569844298
 20
798.91450332594161
 11
624.54658569844298
 21
807.13271385333371
  0
LINE
  8
_0-e_極細4
  6
CONTINUOUS
 62
    6
 10
623.04658569844321
 20
798.91450332594161
 11
623.04658569844321
 21
806.66339285696779
  0
LINE
  8
_0-e_極細4
  6
CONTINUOUS
 62
    6
 10
621.54658569844344
 20
798.91450332594161
 11
621.54658569844344
 21
806.01109650123533
  0
LINE
  8
_0-e_極細4
  6
CONTINUOUS
 62
    6
 10
620.04658569844366
 20
798.91450332594161
 11
620.04658569844366
 21
805.14731550175452
  0
LINE
  8
_0-e_極細4
  6
CONTINUOUS
 62
    6
 10
618.54658569844389
 20
798.91450332594161
 11
618.54658569844389
 21
804.02417050091287
  0
LINE
  8
_0-e_極細4
  6
CONTINUOUS
 62
    6
 10
617.04658569844298
 20
798.91450332594161
 11
617.04658569844298
 21
802.55423448324916
  0
LINE
  8
_0-e_極細4
  6
CONTINUOUS
 62
    6
 10
615.54658569844321
 20
798.91450332594161
 11
615.54658569844321
 21
800.54730633589486
  0
LINE
  8
_0-e_極細4
  6
CONTINUOUS
 62
    6
 10
639.51952377260682
 20
791.66645082594243
 11
639.51952377260682
 21
798.91450332594161
  0
LINE
  8
_0-e_極細4
  6
CONTINUOUS
 62
    6
 10
614.66242515428974
 20
798.91450332594161
 11
639.51952377260682
 21
798.91450332594161
  0
ARC
  8
_0-e_極細4
  6
CONTINUOUS
 62
    6
 10
632.01952377260682
 20
799.16645082594141
 40
7.5
 50
358.07490068720585
 51
50.029499419963869
  0
ARC
  8
_0-e_極細4
  6
CONTINUOUS
 62
    6
 10
628.26952377260682
 20
792.60206582594208
 40
15
 50
55.166292356154578
 51
155.11305268293225
  0
ARC
  8
_0-e_極細4
  6
CONTINUOUS
 62
    6
 10
628.26952377260682
 20
792.60206582594208
 40
15
 50
155.11305268293225
 51
179.99999999999983
  0
LINE
  8
_0-e_極細4
  6
CONTINUOUS
 62
    6
 10
415.61978798588456
 20
837.7481709707007
 11
420.82202377260728
 21
837.7481709707007
  0
LINE
  8
_0-e_極細4
  6
CONTINUOUS
 62
    6
 10
403.51952377260744
 20
839.24817097070058
 11
420.82202377260728
 21
839.24817097070058
  0
LINE
  8
_0-e_極細4
  6
CONTINUOUS
 62
    6
 10
403.51952377260744
 20
840.74817097070036
 11
420.82202377260728
 21
840.74817097070036
  0
LINE
  8
_0-e_極細4
  6
CONTINUOUS
 62
    6
 10
403.51952377260744
 20
842.24817097070115
 11
411.3343479070204
 21
842.24817097070115
  0
LINE
  8
_0-e_極細4
  6
CONTINUOUS
 62
    6
 10
670.71702377260692
 20
837.7481709707007
 11
675.91925955932936
 21
837.7481709707007
  0
LINE
  8
_0-e_極細4
  6
CONTINUOUS
 62
    6
 10
670.71702377260692
 20
839.24817097070058
 11
688.01952377260761
 21
839.24817097070058
  0
LINE
  8
_0-e_極細4
  6
CONTINUOUS
 62
    6
 10
670.71702377260692
 20
840.74817097070036
 11
688.01952377260761
 21
840.74817097070036
  0
LINE
  8
_0-e_極細4
  6
CONTINUOUS
 62
    6
 10
680.2046996381938
 20
842.24817097070115
 11
688.01952377260761
 21
842.24817097070115
  0
LINE
  8
_0-e_極細4
  6
CONTINUOUS
 62
    6
 10
479.64976054872636
 20
493.39680152593201
 11
482.05655132298034
 21
495.80359230018695
  0
LINE
  8
_0-e_極細4
  6
CONTINUOUS
 62
    6
 10
476.97570304993945
 20
496.02604488604425
 11
482.13941539890101
 21
501.18975723500677
  0
LINE
  8
_0-e_極細4
  6
CONTINUOUS
 62
    6
 10
476.8887636915963
 20
501.24240638660081
 11
482.22227947482111
 21
506.57592216982562
  0
LINE
  8
_0-e_極細4
  6
CONTINUOUS
 62
    6
 10
476.80182433325399
 20
506.45876788715736
 11
482.30514355074178
 21
511.96208710464526
  0
LINE
  8
_0-e_極細4
  6
CONTINUOUS
 62
    6
 10
476.7148849749114
 20
511.67512938771392
 11
482.38800762666187
 21
517.34825203946502
  0
LINE
  8
_0-e_極細4
  6
CONTINUOUS
 62
    6
 10
476.62794561656909
 20
516.89149088827048
 11
482.47087170258226
 21
522.73441697428393
  0
LINE
  8
_0-e_極細4
  6
CONTINUOUS
 62
    6
 10
476.54100625822593
 20
522.10785238882704
 11
482.55373577850264
 21
528.12058190910352
  0
LINE
  8
_0-e_極細4
  6
CONTINUOUS
 62
    6
 10
476.45406689988363
 20
527.32421388938337
 11
482.63659985442246
 21
533.50674684392243
  0
LINE
  8
_0-e_極細4
  6
CONTINUOUS
 62
    6
 10
449.72335367753317
 20
505.89680152593201
 11
450.14877801599255
 21
506.32222586439138
  0
LINE
  8
_0-e_極細4
  6
CONTINUOUS
 62
    6
 10
476.36712754154104
 20
532.54057538993993
 11
482.71946393034312
 21
538.89291177874202
  0
LINE
  8
_0-e_極細4
  6
CONTINUOUS
 62
    6
 10
444.42005281863374
 20
505.89680152593201
 11
450.20234671153702
 21
511.679095418835
  0
LINE
  8
_0-e_極細4
  6
CONTINUOUS
 62
    6
 10
476.28018818319845
 20
537.75693689049672
 11
482.80232800626322
 21
544.27907671356184
  0
LINE
  8
_0-e_極細4
  6
CONTINUOUS
 62
    6
 10
442.95806279917656
 20
509.73811236537409
 11
450.25591540708177
 21
517.03596497327862
  0
LINE
  8
_0-e_極細4
  6
CONTINUOUS
 62
    6
 10
476.19324882485557
 20
542.97329839105305
 11
482.88519208218389
 21
549.66524164838074
  0
LINE
  8
_0-e_極細4
  6
CONTINUOUS
 62
    6
 10
442.87454625021724
 20
514.9578966753138
 11
450.30948410262567
 21
522.39283452772202
  0
LINE
  8
_0-e_極細4
  6
CONTINUOUS
 62
    6
 10
476.1063094665127
 20
548.18965989160961
 11
482.96805615810399
 21
555.05140658320033
  0
LINE
  8
_0-e_極細4
  6
CONTINUOUS
 62
    6
 10
442.79102970125876
 20
520.17768098525426
 11
450.36305279817014
 21
527.74970408216564
  0
LINE
  8
_0-e_極細4
  6
CONTINUOUS
 62
    6
 10
476.01937010817068
 20
553.40602139216617
 11
483.05092023402437
 21
560.43757151802015
  0
LINE
  8
_0-e_極細4
  6
CONTINUOUS
 62
    6
 10
442.70751315229916
 20
525.39746529519402
 11
450.4166214937149
 21
533.10657363660926
  0
LINE
  8
_0-e_極細4
  6
CONTINUOUS
 62
    6
 10
475.93243074982752
 20
558.62238289272273
 11
483.13378430994476
 21
565.82373645283906
  0
LINE
  8
_0-e_極細4
  6
CONTINUOUS
 62
    6
 10
442.6239966033404
 20
530.61724960513448
 11
450.4701901892588
 21
538.46344319105287
  0
LINE
  8
_0-e_極細4
  6
CONTINUOUS
 62
    6
 10
475.84549139148521
 20
563.83874439327928
 11
483.21664838586457
 21
571.20990138765865
  0
LINE
  8
_0-e_極細4
  6
CONTINUOUS
 62
    6
 10
442.54048005438193
 20
535.83703391507424
 11
450.52375888480327
 21
543.82031274549649
  0
LINE
  8
_0-e_極細4
  6
CONTINUOUS
 62
    6
 10
475.10024766523969
 20
568.39680152593201
 11
481.35024766523969
 21
574.64680152593291
  0
LINE
  8
_0-e_極細4
  6
CONTINUOUS
 62
    6
 10
442.45696350542261
 20
541.05681822501469
 11
450.57732758034803
 21
549.17718229994011
  0
LINE
  8
_0-e_極細4
  6
CONTINUOUS
 62
    6
 10
469.79694680634083
 20
568.39680152593201
 11
476.04694680634083
 21
574.64680152593291
  0
LINE
  8
_0-e_極細4
  6
CONTINUOUS
 62
    6
 10
442.37344695646414
 20
546.27660253495446
 11
450.63089627589193
 21
554.53405185438373
  0
LINE
  8
_0-e_極細4
  6
CONTINUOUS
 62
    6
 10
464.49364594744111
 20
568.39680152593201
 11
470.74364594744111
 21
574.64680152593291
  0
LINE
  8
_0-e_極細4
  6
CONTINUOUS
 62
    6
 10
442.28993040750424
 20
551.49638684489491
 11
450.6844649714364
 21
559.89092140882644
  0
LINE
  8
_0-e_極細4
  6
CONTINUOUS
 62
    6
 10
459.19034508854196
 20
568.39680152593201
 11
465.44034508854224
 21
574.64680152593291
  0
LINE
  8
_0-e_極細4
  6
CONTINUOUS
 62
    6
 10
442.20641385854577
 20
556.71617115483468
 11
450.73803366698115
 21
565.24779096327006
  0
LINE
  8
_0-e_極細4
  6
CONTINUOUS
 62
    6
 10
453.8870442296431
 20
568.39680152593201
 11
460.1370442296431
 21
574.64680152593291
  0
LINE
  8
_0-e_極細4
  6
CONTINUOUS
 62
    6
 10
442.12289730958673
 20
561.93595546477513
 11
454.83374337074423
 21
574.64680152593291
  0
LINE
  8
_0-e_極細4
  6
CONTINUOUS
 62
    6
 10
442.03938076062741
 20
567.1557397747149
 11
449.53044251184537
 21
574.64680152593291
  0
LINE
  8
_0-e_極細4
  6
CONTINUOUS
 62
    6
 10
438.03249930861028
 20
568.4521591815967
 11
444.28249930861028
 21
574.7021591815967
  0
LINE
  8
_0-e_極細4
  6
CONTINUOUS
 62
    6
 10
433.57705825043894
 20
569.30001898232445
 11
439.82705825043894
 21
575.55001898232445
  0
LINE
  8
_0-e_極細4
  6
CONTINUOUS
 62
    6
 10
429.85862738824039
 20
570.88488897902539
 11
436.10862738824039
 21
577.13488897902539
  0
LINE
  8
_0-e_極細4
  6
CONTINUOUS
 62
    6
 10
426.70873422675527
 20
573.03829667643936
 11
432.95873422675527
 21
579.28829667643936
  0
LINE
  8
_0-e_極細4
  6
CONTINUOUS
 62
    6
 10
424.06687088690205
 20
575.69973419548501
 11
430.31687088690205
 21
581.94973419548501
  0
LINE
  8
_0-e_極細4
  6
CONTINUOUS
 62
    6
 10
421.93413768275832
 20
578.87030185024014
 11
428.18413768275832
 21
585.12030185024105
  0
LINE
  8
_0-e_極細4
  6
CONTINUOUS
 62
    6
 10
420.37396112131773
 20
582.61342614769933
 11
426.62396112131773
 21
588.86342614769956
  0
LINE
  8
_0-e_極細4
  6
CONTINUOUS
 62
    6
 10
419.56134380032609
 20
587.10410968560677
 11
425.81134380032694
 21
593.35410968560677
  0
LINE
  8
_0-e_極細4
  6
CONTINUOUS
 62
    6
 10
419.51952377260767
 20
592.36559051678728
 11
425.76952377260767
 21
598.61559051678728
  0
LINE
  8
_0-e_極細4
  6
CONTINUOUS
 62
    6
 10
419.51952377260767
 20
597.66889137568614
 11
425.76952377260767
 21
603.91889137568614
  0
LINE
  8
_0-e_極細4
  6
CONTINUOUS
 62
    6
 10
419.51952377260767
 20
602.97219223458524
 11
425.76952377260767
 21
609.22219223458524
  0
LINE
  8
_0-e_極細4
  6
CONTINUOUS
 62
    6
 10
419.51952377260767
 20
608.2754930934841
 11
425.76952377260767
 21
614.5254930934841
  0
LINE
  8
_0-e_極細4
  6
CONTINUOUS
 62
    6
 10
419.51952377260767
 20
613.57879395238388
 11
425.76952377260767
 21
619.82879395238297
  0
LINE
  8
_0-e_極細4
  6
CONTINUOUS
 62
    6
 10
419.51952377260767
 20
618.88209481128274
 11
425.76952377260767
 21
625.13209481128274
  0
LINE
  8
_0-e_極細4
  6
CONTINUOUS
 62
    6
 10
419.51952377260767
 20
624.18539567018183
 11
425.76952377260767
 21
630.43539567018161
  0
LINE
  8
_0-e_極細4
  6
CONTINUOUS
 62
    6
 10
419.51952377260767
 20
629.4886965290807
 11
425.76952377260767
 21
635.7386965290807
  0
LINE
  8
_0-e_極細4
  6
CONTINUOUS
 62
    6
 10
419.51952377260767
 20
634.79199738798047
 11
425.76952377260767
 21
641.04199738797956
  0
LINE
  8
_0-e_極細4
  6
CONTINUOUS
 62
    6
 10
419.51952377260767
 20
640.09529824687934
 11
425.76952377260767
 21
646.34529824687843
  0
LINE
  8
_0-e_極細4
  6
CONTINUOUS
 62
    6
 10
419.51952377260767
 20
645.3985991057782
 11
425.76952377260767
 21
651.64859910577786
  0
LINE
  8
_0-e_極細4
  6
CONTINUOUS
 62
    6
 10
419.51952377260767
 20
650.70189996467673
 11
425.76952377260767
 21
656.95189996467707
  0
LINE
  8
_0-e_極細4
  6
CONTINUOUS
 62
    6
 10
419.51952377260767
 20
656.00520082357616
 11
425.76952377260767
 21
662.25520082357593
  0
LINE
  8
_0-e_極細4
  6
CONTINUOUS
 62
    6
 10
419.51952377260767
 20
661.30850168247503
 11
425.76952377260767
 21
667.55850168247503
  0
LINE
  8
_0-e_極細4
  6
CONTINUOUS
 62
    6
 10
419.51952377260767
 20
666.61180254137389
 11
425.76952377260767
 21
672.86180254137446
  0
LINE
  8
_0-e_極細4
  6
CONTINUOUS
 62
    6
 10
419.51952377260767
 20
671.91510340027332
 11
425.76952377260767
 21
678.16510340027367
  0
LINE
  8
_0-e_極細4
  6
CONTINUOUS
 62
    6
 10
419.51952377260767
 20
677.21840425917253
 11
425.76952377260767
 21
683.46840425917276
  0
LINE
  8
_0-e_極細4
  6
CONTINUOUS
 62
    6
 10
419.51952377260767
 20
682.5217051180714
 11
425.76952377260767
 21
688.77170511807162
  0
LINE
  8
_0-e_極細4
  6
CONTINUOUS
 62
    6
 10
419.51952377260767
 20
687.82500597697049
 11
425.76952377260767
 21
694.07500597697049
  0
LINE
  8
_0-e_極細4
  6
CONTINUOUS
 62
    6
 10
419.51952377260767
 20
693.12830683586992
 11
425.76952377260767
 21
699.37830683586992
  0
LINE
  8
_0-e_極細4
  6
CONTINUOUS
 62
    6
 10
419.51952377260767
 20
698.43160769476913
 11
425.76952377260767
 21
704.68160769476913
  0
LINE
  8
_0-e_極細4
  6
CONTINUOUS
 62
    6
 10
419.51952377260767
 20
703.73490855366822
 11
425.76952377260767
 21
709.98490855366822
  0
LINE
  8
_0-e_極細4
  6
CONTINUOUS
 62
    6
 10
419.51952377260767
 20
709.03820941256708
 11
425.76952377260767
 21
715.28820941256708
  0
LINE
  8
_0-e_極細4
  6
CONTINUOUS
 62
    6
 10
419.51952377260767
 20
714.34151027146652
 11
425.76952377260767
 21
720.59151027146595
  0
LINE
  8
_0-e_極細4
  6
CONTINUOUS
 62
    6
 10
419.51952377260767
 20
719.64481113036572
 11
425.76952377260767
 21
725.89481113036538
  0
LINE
  8
_0-e_極細4
  6
CONTINUOUS
 62
    6
 10
419.51952377260767
 20
724.94811198926459
 11
425.76952377260767
 21
731.19811198926459
  0
LINE
  8
_0-e_極細4
  6
CONTINUOUS
 62
    6
 10
419.51952377260767
 20
730.25141284816368
 11
425.76952377260767
 21
736.50141284816368
  0
LINE
  8
_0-e_極細4
  6
CONTINUOUS
 62
    6
 10
419.51952377260767
 20
735.55471370706312
 11
425.76952377260767
 21
741.80471370706255
  0
LINE
  8
_0-e_極細4
  6
CONTINUOUS
 62
    6
 10
419.51952377260767
 20
740.85801456596232
 11
425.76952377260767
 21
747.10801456596198
  0
LINE
  8
_0-e_極細4
  6
CONTINUOUS
 62
    6
 10
419.51952377260767
 20
746.16131542486141
 11
425.76952377260767
 21
752.41131542486119
  0
LINE
  8
_0-e_極細4
  6
CONTINUOUS
 62
    6
 10
419.51952377260767
 20
751.46461628376005
 11
425.76952377260767
 21
757.71461628376005
  0
LINE
  8
_0-e_極細4
  6
CONTINUOUS
 62
    6
 10
419.51952377260767
 20
756.76791714265914
 11
425.76952377260767
 21
763.01791714265914
  0
LINE
  8
_0-e_極細4
  6
CONTINUOUS
 62
    6
 10
419.51952377260767
 20
762.07121800155801
 11
425.76952377260767
 21
768.32121800155801
  0
LINE
  8
_0-e_極細4
  6
CONTINUOUS
 62
    6
 10
419.51952377260767
 20
767.37451886045778
 11
425.76952377260767
 21
773.6245188604579
  0
LINE
  8
_0-e_極細4
  6
CONTINUOUS
 62
    6
 10
419.51952377260795
 20
772.67781971935676
 11
425.76952377260767
 21
778.92781971935676
  0
LINE
  8
_0-e_極細4
  6
CONTINUOUS
 62
    6
 10
418.86165869785373
 20
777.32325550350151
 11
425.76952377260767
 21
784.23112057825574
  0
LINE
  8
_0-e_極細4
  6
CONTINUOUS
 62
    6
 10
417.03540557837982
 20
780.80030324292647
 11
425.76952377260767
 21
789.53442143715461
  0
LINE
  8
_0-e_極細4
  6
CONTINUOUS
 62
    6
 10
414.36637624028663
 20
783.43457476373317
 11
424.51952377260767
 21
793.58772229605347
  0
LINE
  8
_0-e_極細4
  6
CONTINUOUS
 62
    6
 10
413.26952377260767
 20
787.64102315495234
 11
424.51952377260767
 21
798.89102315495234
  0
LINE
  8
_0-e_極細4
  6
CONTINUOUS
 62
    6
 10
413.26952377260767
 20
792.94432401385222
 11
421.87961342865236
 21
801.55441366989703
  0
LINE
  8
_0-e_極細4
  6
CONTINUOUS
 62
    6
 10
413.26952377260767
 20
798.24762487275109
 11
420.82202377260728
 21
805.8001248727511
  0
LINE
  8
_0-e_極細4
  6
CONTINUOUS
 62
    6
 10
413.26952377260767
 20
803.55092573165007
 11
420.82202377260728
 21
811.10342573165042
  0
LINE
  8
_0-e_極細4
  6
CONTINUOUS
 62
    6
 10
408.56214050799963
 20
804.14684332594163
 11
420.82202377260728
 21
816.4067265905494
  0
LINE
  8
_0-e_極細4
  6
CONTINUOUS
 62
    6
 10
403.51952377260773
 20
804.40752744944859
 11
420.82202377260728
 21
821.71002744944826
  0
LINE
  8
_0-e_極細4
  6
CONTINUOUS
 62
    6
 10
403.51952377260773
 20
809.71082830834746
 11
420.82202377260728
 21
827.01332830834713
  0
LINE
  8
_0-e_極細4
  6
CONTINUOUS
 62
    6
 10
403.51952377260773
 20
815.01412916724644
 11
420.82202377260728
 21
832.31662916724702
  0
LINE
  8
_0-e_極細4
  6
CONTINUOUS
 62
    6
 10
403.51952377260744
 20
820.31743002614587
 11
420.39795525141699
 21
837.19586150495513
  0
LINE
  8
_0-e_極細4
  6
CONTINUOUS
 62
    6
 10
403.51952377260744
 20
825.62073088504519
 11
415.64414807042454
 21
837.745355182862
  0
LINE
  8
_0-e_極細4
  6
CONTINUOUS
 62
    6
 10
403.51952377260744
 20
830.9240317439436
 11
410.89034088943293
 21
838.29484886076852
  0
LINE
  8
_0-e_極細4
  6
CONTINUOUS
 62
    6
 10
403.51952377260773
 20
836.22733260284292
 11
406.13653370844048
 21
838.84434253867607
  0
LINE
  8
_0-e_極細4
  6
CONTINUOUS
 62
    6
 10
481.35024766523969
 20
574.64680152593291
 11
483.26952377260767
 21
576.56607763330089
  0
LINE
  8
_0-e_極細4
  6
CONTINUOUS
 62
    6
 10
476.04694680633997
 20
574.64680152593291
 11
483.26952377260767
 21
581.86937849219976
  0
LINE
  8
_0-e_極細4
  6
CONTINUOUS
 62
    6
 10
470.74364594744111
 20
574.64680152593291
 11
483.26952377260767
 21
587.17267935109885
  0
LINE
  8
_0-e_極細4
  6
CONTINUOUS
 62
    6
 10
465.44034508854224
 20
574.64680152593201
 11
483.26952377260767
 21
592.47598020999749
  0
LINE
  8
_0-e_極細4
  6
CONTINUOUS
 62
    6
 10
460.1370442296431
 20
574.64680152593201
 11
483.26952377260767
 21
597.77928106889658
  0
LINE
  8
_0-e_極細4
  6
CONTINUOUS
 62
    6
 10
454.83374337074423
 20
574.64680152593201
 11
479.83374337074395
 21
599.64680152593201
  0
LINE
  8
_0-e_極細4
  6
CONTINUOUS
 62
    6
 10
449.53044251184451
 20
574.64680152593291
 11
474.67752143030339
 21
599.79388044439065
  0
LINE
  8
_0-e_極細4
  6
CONTINUOUS
 62
    6
 10
444.28249930861028
 20
574.7021591815967
 11
470.1725457315726
 21
600.59220560455924
  0
LINE
  8
_0-e_極細4
  6
CONTINUOUS
 62
    6
 10
439.82705825043894
 20
575.55001898232445
 11
466.19474739283419
 21
601.91770812471941
  0
LINE
  8
_0-e_極細4
  6
CONTINUOUS
 62
    6
 10
436.10862738824039
 20
577.13488897902539
 11
462.64151510751049
 21
603.66777669829457
  0
LINE
  8
_0-e_極細4
  6
CONTINUOUS
 62
    6
 10
432.95873422675527
 20
579.28829667643936
 11
459.45815383567378
 21
605.78771628535787
  0
LINE
  8
_0-e_極細4
  6
CONTINUOUS
 62
    6
 10
430.31687088690205
 20
581.94973419548501
 11
456.61683171432173
 21
608.24969502290469
  0
LINE
  8
_0-e_極細4
  6
CONTINUOUS
 62
    6
 10
428.18413768275832
 20
585.12030185024105
 11
454.10830931061696
 21
611.04447347809935
  0
LINE
  8
_0-e_極細4
  6
CONTINUOUS
 62
    6
 10
426.62396112131773
 20
588.86342614769956
 11
451.93952687606128
 21
614.17899190244202
  0
LINE
  8
_0-e_極細4
  6
CONTINUOUS
 62
    6
 10
425.81134380032694
 20
593.35410968560677
 11
450.1354016444111
 21
617.67816752969156
  0
LINE
  8
_0-e_極細4
  6
CONTINUOUS
 62
    6
 10
425.76952377260767
 20
598.61559051678728
 11
448.74604639164176
 21
621.59211313582045
  0
LINE
  8
_0-e_極細4
  6
CONTINUOUS
 62
    6
 10
425.76952377260767
 20
603.91889137568614
 11
447.86521867055797
 21
626.01458627363581
  0
LINE
  8
_0-e_極細4
  6
CONTINUOUS
 62
    6
 10
425.76952377260767
 20
609.22219223458524
 11
447.64452377260767
 21
631.09719223458524
  0
LINE
  8
_0-e_極細4
  6
CONTINUOUS
 62
    6
 10
425.76952377260767
 20
614.5254930934841
 11
447.64452377260767
 21
636.4004930934841
  0
LINE
  8
_0-e_極細4
  6
CONTINUOUS
 62
    6
 10
425.76952377260767
 20
619.82879395238297
 11
447.64452377260767
 21
641.70379395238353
  0
LINE
  8
_0-e_極細4
  6
CONTINUOUS
 62
    6
 10
425.76952377260767
 20
625.13209481128274
 11
447.64452377260767
 21
647.00709481128274
  0
LINE
  8
_0-e_極細4
  6
CONTINUOUS
 62
    6
 10
425.76952377260767
 20
630.43539567018161
 11
447.64452377260767
 21
652.31039567018183
  0
LINE
  8
_0-e_極細4
  6
CONTINUOUS
 62
    6
 10
425.76952377260767
 20
635.7386965290807
 11
447.64452377260767
 21
657.61369652908047
  0
LINE
  8
_0-e_極細4
  6
CONTINUOUS
 62
    6
 10
425.76952377260767
 20
641.04199738797956
 11
447.64452377260767
 21
662.91699738797956
  0
LINE
  8
_0-e_極細4
  6
CONTINUOUS
 62
    6
 10
425.76952377260767
 20
646.34529824687843
 11
447.64452377260767
 21
668.220298246879
  0
LINE
  8
_0-e_極細4
  6
CONTINUOUS
 62
    6
 10
425.76952377260767
 20
651.64859910577786
 11
447.64452377260767
 21
673.5235991057782
  0
LINE
  8
_0-e_極細4
  6
CONTINUOUS
 62
    6
 10
425.76952377260767
 20
656.95189996467707
 11
447.64452377260767
 21
678.82689996467673
  0
LINE
  8
_0-e_極細4
  6
CONTINUOUS
 62
    6
 10
425.76952377260767
 20
662.25520082357593
 11
447.64452377260767
 21
684.13020082357593
  0
LINE
  8
_0-e_極細4
  6
CONTINUOUS
 62
    6
 10
425.76952377260767
 20
667.55850168247503
 11
447.64452377260767
 21
689.43350168247503
  0
LINE
  8
_0-e_極細4
  6
CONTINUOUS
 62
    6
 10
425.76952377260767
 20
672.86180254137446
 11
447.64452377260767
 21
694.73680254137389
  0
LINE
  8
_0-e_極細4
  6
CONTINUOUS
 62
    6
 10
425.76952377260767
 20
678.16510340027367
 11
447.64452377260767
 21
700.04010340027332
  0
LINE
  8
_0-e_極細4
  6
CONTINUOUS
 62
    6
 10
425.76952377260767
 20
683.46840425917276
 11
447.64452377260767
 21
705.34340425917253
  0
LINE
  8
_0-e_極細4
  6
CONTINUOUS
 62
    6
 10
425.76952377260767
 20
688.77170511807162
 11
447.64452377260767
 21
710.6467051180714
  0
LINE
  8
_0-e_極細4
  6
CONTINUOUS
 62
    6
 10
425.76952377260767
 20
694.07500597697049
 11
447.64452377260767
 21
715.95000597697049
  0
LINE
  8
_0-e_極細4
  6
CONTINUOUS
 62
    6
 10
425.76952377260767
 20
699.37830683586992
 11
445.86154410973876
 21
719.47032717300135
  0
LINE
  8
_0-e_極細4
  6
CONTINUOUS
 62
    6
 10
425.76952377260767
 20
704.68160769476913
 11
440.55824325083989
 21
719.47032717300135
  0
LINE
  8
_0-e_極細4
  6
CONTINUOUS
 62
    6
 10
425.76952377260767
 20
709.98490855366822
 11
435.25494239194018
 21
719.47032717300135
  0
LINE
  8
_0-e_極細4
  6
CONTINUOUS
 62
    6
 10
425.76952377260767
 20
715.28820941256708
 11
429.95164153304131
 21
719.47032717300135
  0
LINE
  8
_0-e_極細4
  6
CONTINUOUS
 62
    6
 10
425.76952377260767
 20
720.59151027146595
 11
426.02591303111581
 21
720.84789952997471
  0
LINE
  8
_0-e_極細4
  6
CONTINUOUS
 62
    6
 10
652.07628813433473
 20
575.66721451025546
 11
664.7491107882837
 21
588.34003716420466
  0
LINE
  8
_0-e_極細4
  6
CONTINUOUS
 62
    6
 10
645.75257429111218
 20
574.64680152593291
 11
665.76952377260739
 21
594.66375100742721
  0
LINE
  8
_0-e_極細4
  6
CONTINUOUS
 62
    6
 10
640.44927343221218
 20
574.64680152593291
 11
665.76952377260739
 21
599.96705186632607
  0
LINE
  8
_0-e_極細4
  6
CONTINUOUS
 62
    6
 10
635.14597257331332
 20
574.64680152593291
 11
665.76952377260739
 21
605.27035272522585
  0
LINE
  8
_0-e_極細4
  6
CONTINUOUS
 62
    6
 10
629.84267171441445
 20
574.64680152593291
 11
665.76952377260739
 21
610.57365358412471
  0
LINE
  8
_0-e_極細4
  6
CONTINUOUS
 62
    6
 10
624.53937085551559
 20
574.64680152593291
 11
665.76952377260739
 21
615.87695444302381
  0
LINE
  8
_0-e_極細4
  6
CONTINUOUS
 62
    6
 10
619.23606999661672
 20
574.64680152593291
 11
665.76952377260739
 21
621.18025530192267
  0
LINE
  8
_0-e_極細4
  6
CONTINUOUS
 62
    6
 10
613.93276913771729
 20
574.64680152593291
 11
665.76952377260739
 21
626.48355616082245
  0
LINE
  8
_0-e_極細4
  6
CONTINUOUS
 62
    6
 10
608.62946827881785
 20
574.64680152593291
 11
665.76952377260739
 21
631.78685701972131
  0
LINE
  8
_0-e_極細4
  6
CONTINUOUS
 62
    6
 10
608.26952377260625
 20
579.59015787862018
 11
665.76952377260739
 21
637.0901578786204
  0
LINE
  8
_0-e_極細4
  6
CONTINUOUS
 62
    6
 10
608.26952377260625
 20
584.89345873751904
 11
625.25850018997801
 21
601.88243515489103
  0
LINE
  8
_0-e_極細4
  6
CONTINUOUS
 62
    6
 10
641.65889014364836
 20
618.28282510856116
 11
665.76952377260739
 21
642.39345873751927
  0
LINE
  8
_0-e_極細4
  6
CONTINUOUS
 62
    6
 10
608.26952377260625
 20
590.19675959641813
 11
618.00209902812128
 21
599.92933485193259
  0
LINE
  8
_0-e_極細4
  6
CONTINUOUS
 62
    6
 10
643.61199044660736
 20
625.53922627041811
 11
665.76952377260739
 21
647.6967595964187
  0
LINE
  8
_0-e_極細4
  6
CONTINUOUS
 62
    6
 10
608.26952377260625
 20
595.50006045531791
 11
612.41626484322182
 21
599.64680152593201
  0
LINE
  8
_0-e_極細4
  6
CONTINUOUS
 62
    6
 10
643.89452377260625
 20
631.12506045531791
 11
665.76952377260739
 21
653.00006045531757
  0
LINE
  8
_0-e_極細4
  6
CONTINUOUS
 62
    6
 10
643.89452377260625
 20
636.42836131421677
 11
665.76952377260739
 21
658.30336131421677
  0
LINE
  8
_0-e_極細4
  6
CONTINUOUS
 62
    6
 10
643.89452377260625
 20
641.73166217311564
 11
665.76952377260739
 21
663.6066621731153
  0
LINE
  8
_0-e_極細4
  6
CONTINUOUS
 62
    6
 10
643.89452377260625
 20
647.0349630320145
 11
665.76952377260739
 21
668.9099630320145
  0
LINE
  8
_0-e_極細4
  6
CONTINUOUS
 62
    6
 10
643.89452377260625
 20
652.33826389091359
 11
665.76952377260739
 21
674.21326389091359
  0
LINE
  8
_0-e_極細4
  6
CONTINUOUS
 62
    6
 10
643.89452377260625
 20
657.64156474981303
 11
665.76952377260739
 21
679.51656474981246
  0
LINE
  8
_0-e_極細4
  6
CONTINUOUS
 62
    6
 10
643.89452377260625
 20
662.94486560871223
 11
665.76952377260739
 21
684.81986560871189
  0
LINE
  8
_0-e_極細4
  6
CONTINUOUS
 62
    6
 10
643.89452377260625
 20
668.24816646761133
 11
665.76952377260739
 21
690.1231664676111
  0
LINE
  8
_0-e_極細4
  6
CONTINUOUS
 62
    6
 10
643.89452377260625
 20
673.55146732651019
 11
665.76952377260739
 21
695.42646732650996
  0
LINE
  8
_0-e_極細4
  6
CONTINUOUS
 62
    6
 10
643.89452377260625
 20
678.85476818540963
 11
665.76952377260739
 21
700.72976818540906
  0
LINE
  8
_0-e_極細4
  6
CONTINUOUS
 62
    6
 10
643.89452377260625
 20
684.15806904430883
 11
665.76952377260739
 21
706.03306904430849
  0
LINE
  8
_0-e_極細4
  6
CONTINUOUS
 62
    6
 10
643.89452377260625
 20
689.4613699032077
 11
665.76952377260739
 21
711.3363699032077
  0
LINE
  8
_0-e_極細4
  6
CONTINUOUS
 62
    6
 10
643.89452377260625
 20
694.76467076210679
 11
665.76952377260739
 21
716.63967076210679
  0
LINE
  8
_0-e_極細4
  6
CONTINUOUS
 62
    6
 10
643.89452377260625
 20
700.06797162100622
 11
663.29687932460331
 21
719.47032717300101
  0
LINE
  8
_0-e_極細4
  6
CONTINUOUS
 62
    6
 10
665.76951173077589
 20
721.94295957917416
 11
665.76952377260739
 21
721.94297162100565
  0
LINE
  8
_0-e_極細4
  6
CONTINUOUS
 62
    6
 10
643.89452377260625
 20
705.37127247990509
 11
657.99357846570331
 21
719.47032717300135
  0
LINE
  8
_0-e_極細4
  6
CONTINUOUS
 62
    6
 10
643.89452377260625
 20
710.67457333880429
 11
652.69027760680444
 21
719.47032717300101
  0
LINE
  8
_0-e_極細4
  6
CONTINUOUS
 62
    6
 10
643.89452377260625
 20
715.97787419770316
 11
647.38697674790558
 21
719.47032717300101
  0
LINE
  8
_0-e_極細4
  6
CONTINUOUS
 62
    6
 10
645.94548545680084
 20
505.89680152593201
 11
648.56137805416495
 21
508.51269412329611
  0
LINE
  8
_0-e_極細4
  6
CONTINUOUS
 62
    6
 10
641.38707486988608
 20
506.64169179791821
 11
648.64761058845545
 21
513.90222751648662
  0
LINE
  8
_0-e_極細4
  6
CONTINUOUS
 62
    6
 10
641.33456694059021
 20
511.89248472752121
 11
648.73384312274709
 21
519.29176090967712
  0
LINE
  8
_0-e_極細4
  6
CONTINUOUS
 62
    6
 10
641.28205901129434
 20
517.14327765712414
 11
648.82007565703759
 21
524.6812943028674
  0
LINE
  8
_0-e_極細4
  6
CONTINUOUS
 62
    6
 10
612.2322820212031
 20
493.39680152593201
 11
614.55829058195206
 21
495.72281008668079
  0
LINE
  8
_0-e_極細4
  6
CONTINUOUS
 62
    6
 10
641.22955108199847
 20
522.39407058672714
 11
648.90630819132923
 21
530.07082769605699
  0
LINE
  8
_0-e_極細4
  6
CONTINUOUS
 62
    6
 10
609.48027312699594
 20
495.94809349062371
 11
614.64817703718779
 21
501.11599740081556
  0
LINE
  8
_0-e_極細4
  6
CONTINUOUS
 62
    6
 10
641.17704315270259
 20
527.64486351633013
 11
648.99254072561973
 21
535.46036108924727
  0
LINE
  8
_0-e_極細4
  6
CONTINUOUS
 62
    6
 10
609.39992008367938
 20
501.17104130620697
 11
614.73806349242352
 21
506.50918471495112
  0
LINE
  8
_0-e_極細4
  6
CONTINUOUS
 62
    6
 10
641.12453522340672
 20
532.89565644593335
 11
649.07877325991137
 21
540.84989448243778
  0
LINE
  8
_0-e_極細4
  6
CONTINUOUS
 62
    6
 10
609.31956704036281
 20
506.39398912178831
 11
614.82794994765925
 21
511.90237202908475
  0
LINE
  8
_0-e_極細4
  6
CONTINUOUS
 62
    6
 10
641.07202729411085
 20
538.14644937553635
 11
649.16500579420187
 21
546.23942787562737
  0
LINE
  8
_0-e_極細4
  6
CONTINUOUS
 62
    6
 10
609.23921399704625
 20
511.61693693737158
 11
614.91783640289498
 21
517.29555934322025
  0
LINE
  8
_0-e_極細4
  6
CONTINUOUS
 62
    6
 10
641.01951936481441
 20
543.39724230513934
 11
649.25123832849351
 21
551.62896126881787
  0
LINE
  8
_0-e_極細4
  6
CONTINUOUS
 62
    6
 10
609.15886095372969
 20
516.83988475295382
 11
615.00772285813071
 21
522.68874665735484
  0
LINE
  8
_0-e_極細4
  6
CONTINUOUS
 62
    6
 10
640.96701143551797
 20
548.64803523474234
 11
649.33747086278402
 21
557.01849466200838
  0
LINE
  8
_0-e_極細4
  6
CONTINUOUS
 62
    6
 10
609.07850791041312
 20
522.06283256853635
 11
615.0976093133653
 21
528.08193397148943
  0
LINE
  8
_0-e_極細4
  6
CONTINUOUS
 62
    6
 10
640.91450350622267
 20
553.89882816434533
 11
649.42370339707452
 21
562.40802805519866
  0
LINE
  8
_0-e_極細4
  6
CONTINUOUS
 62
    6
 10
655.76663327802123
 20
568.75095793614332
 11
671.66536736239607
 21
584.64969202051816
  0
LINE
  8
_0-e_極細4
  6
CONTINUOUS
 62
    6
 10
608.99815486709542
 20
527.28578038411865
 11
615.18749576860102
 21
533.47512128562403
  0
LINE
  8
_0-e_極細4
  6
CONTINUOUS
 62
    6
 10
640.86199557692623
 20
559.14962109394924
 11
649.50993593136616
 21
567.79756144838825
  0
LINE
  8
_0-e_極細4
  6
CONTINUOUS
 62
    6
 10
650.10917600891105
 20
568.39680152593201
 11
672.01952377260625
 21
590.30714928962925
  0
LINE
  8
_0-e_極細4
  6
CONTINUOUS
 62
    6
 10
608.91780182378
 20
532.50872819970095
 11
615.27738222383789
 21
538.86830859975862
  0
LINE
  8
_0-e_極細4
  6
CONTINUOUS
 62
    6
 10
640.80948764763093
 20
564.40041402355223
 11
652.07628813433473
 21
575.66721451025546
  0
LINE
  8
_0-e_極細4
  6
CONTINUOUS
 62
    6
 10
664.7491107882837
 20
588.34003716420466
 11
672.01952377260625
 21
595.61045014852812
  0
LINE
  8
_0-e_極細4
  6
CONTINUOUS
 62
    6
 10
608.83744878046286
 20
537.73167601528326
 11
615.36726867907305
 21
544.26149591389344
  0
LINE
  8
_0-e_極細4
  6
CONTINUOUS
 62
    6
 10
639.50257429111218
 20
568.39680152593201
 11
645.75257429111218
 21
574.64680152593201
  0
LINE
  8
_0-e_極細4
  6
CONTINUOUS
 62
    6
 10
665.76952377260739
 20
594.66375100742721
 11
672.01952377260625
 21
600.91375100742698
  0
LINE
  8
_0-e_極細4
  6
CONTINUOUS
 62
    6
 10
608.75709573714687
 20
542.95462383086647
 11
615.45715513430821
 21
549.65468322802803
  0
LINE
  8
_0-e_極細4
  6
CONTINUOUS
 62
    6
 10
634.19927343221275
 20
568.39680152593201
 11
640.44927343221218
 21
574.64680152593201
  0
LINE
  8
_0-e_極細4
  6
CONTINUOUS
 62
    6
 10
665.76952377260739
 20
599.96705186632607
 11
672.01952377260625
 21
606.21705186632607
  0
LINE
  8
_0-e_極細4
  6
CONTINUOUS
 62
    6
 10
608.67674269382917
 20
548.17757164644877
 11
615.54704158954394
 21
555.04787054216263
  0
LINE
  8
_0-e_極細4
  6
CONTINUOUS
 62
    6
 10
628.89597257331332
 20
568.39680152593201
 11
635.14597257331332
 21
574.64680152593201
  0
LINE
  8
_0-e_極細4
  6
CONTINUOUS
 62
    6
 10
665.76952377260739
 20
605.27035272522585
 11
672.01952377260625
 21
611.52035272522494
  0
LINE
  8
_0-e_極細4
  6
CONTINUOUS
 62
    6
 10
608.59638965051261
 20
553.40051946203107
 11
615.63692804477967
 21
560.44105785629722
  0
LINE
  8
_0-e_極細4
  6
CONTINUOUS
 62
    6
 10
623.59267171441445
 20
568.39680152593201
 11
629.84267171441445
 21
574.64680152593291
  0
LINE
  8
_0-e_極細4
  6
CONTINUOUS
 62
    6
 10
665.76952377260739
 20
610.57365358412471
 11
672.01952377260625
 21
616.82365358412471
  0
LINE
  8
_0-e_極細4
  6
CONTINUOUS
 62
    6
 10
608.51603660719604
 20
558.62346727761337
 11
615.72681450001539
 21
565.83424517043272
  0
LINE
  8
_0-e_極細4
  6
CONTINUOUS
 62
    6
 10
618.28937085551559
 20
568.39680152593201
 11
624.53937085551445
 21
574.64680152593291
  0
LINE
  8
_0-e_極細4
  6
CONTINUOUS
 62
    6
 10
665.76952377260739
 20
615.87695444302381
 11
672.01952377260625
 21
622.12695444302358
  0
LINE
  8
_0-e_極細4
  6
CONTINUOUS
 62
    6
 10
608.43568356387948
 20
563.8464150931959
 11
619.23606999661672
 21
574.64680152593201
  0
LINE
  8
_0-e_極細4
  6
CONTINUOUS
 62
    6
 10
665.76952377260739
 20
621.18025530192267
 11
672.01952377260625
 21
627.43025530192267
  0
LINE
  8
_0-e_極細4
  6
CONTINUOUS
 62
    6
 10
608.35533052056348
 20
569.0693629087782
 11
613.93276913771729
 21
574.64680152593291
  0
LINE
  8
_0-e_極細4
  6
CONTINUOUS
 62
    6
 10
665.76952377260739
 20
626.48355616082245
 11
672.01952377260625
 21
632.73355616082154
  0
LINE
  8
_0-e_極細4
  6
CONTINUOUS
 62
    6
 10
608.27497747724635
 20
574.2923107243605
 11
608.62946827881785
 21
574.64680152593291
  0
LINE
  8
_0-e_極細4
  6
CONTINUOUS
 62
    6
 10
665.76952377260739
 20
631.78685701972131
 11
672.01952377260625
 21
638.03685701972131
  0
LINE
  8
_0-e_極細4
  6
CONTINUOUS
 62
    6
 10
665.76952377260739
 20
637.0901578786204
 11
672.01952377260625
 21
643.34015787861983
  0
LINE
  8
_0-e_極細4
  6
CONTINUOUS
 62
    6
 10
665.76952377260739
 20
642.39345873751927
 11
672.01952377260625
 21
648.64345873751904
  0
LINE
  8
_0-e_極細4
  6
CONTINUOUS
 62
    6
 10
665.76952377260739
 20
647.6967595964187
 11
672.01952377260625
 21
653.94675959641813
  0
LINE
  8
_0-e_極細4
  6
CONTINUOUS
 62
    6
 10
665.76952377260739
 20
653.00006045531757
 11
672.01952377260625
 21
659.250060455317
  0
LINE
  8
_0-e_極細4
  6
CONTINUOUS
 62
    6
 10
665.76952377260739
 20
658.30336131421677
 11
672.01952377260625
 21
664.55336131421643
  0
LINE
  8
_0-e_極細4
  6
CONTINUOUS
 62
    6
 10
665.76952377260739
 20
663.6066621731153
 11
672.01952377260625
 21
669.85666217311564
  0
LINE
  8
_0-e_極細4
  6
CONTINUOUS
 62
    6
 10
665.76952377260739
 20
668.90996303201473
 11
672.01952377260625
 21
675.1599630320145
  0
LINE
  8
_0-e_極細4
  6
CONTINUOUS
 62
    6
 10
665.76952377260739
 20
674.21326389091359
 11
672.01952377260625
 21
680.46326389091359
  0
LINE
  8
_0-e_極細4
  6
CONTINUOUS
 62
    6
 10
665.76952377260739
 20
679.51656474981246
 11
672.01952377260625
 21
685.76656474981303
  0
LINE
  8
_0-e_極細4
  6
CONTINUOUS
 62
    6
 10
665.76952377260739
 20
684.81986560871189
 11
672.01952377260625
 21
691.06986560871223
  0
LINE
  8
_0-e_極細4
  6
CONTINUOUS
 62
    6
 10
665.76952377260739
 20
690.1231664676111
 11
672.01952377260625
 21
696.37316646761133
  0
LINE
  8
_0-e_極細4
  6
CONTINUOUS
 62
    6
 10
665.76952377260739
 20
695.42646732650996
 11
672.01952377260625
 21
701.67646732651019
  0
LINE
  8
_0-e_極細4
  6
CONTINUOUS
 62
    6
 10
665.76952377260739
 20
700.72976818540906
 11
672.01952377260625
 21
706.97976818540906
  0
LINE
  8
_0-e_極細4
  6
CONTINUOUS
 62
    6
 10
665.76952377260739
 20
706.03306904430849
 11
672.01952377260625
 21
712.28306904430883
  0
LINE
  8
_0-e_極細4
  6
CONTINUOUS
 62
    6
 10
665.76952377260739
 20
711.3363699032077
 11
672.01952377260625
 21
717.5863699032077
  0
LINE
  8
_0-e_極細4
  6
CONTINUOUS
 62
    6
 10
665.76952377260739
 20
716.63967076210679
 11
672.01952377260625
 21
722.88967076210656
  0
LINE
  8
_0-e_極細4
  6
CONTINUOUS
 62
    6
 10
665.76952377260739
 20
721.94297162100565
 11
672.01952377260625
 21
728.19297162100543
  0
LINE
  8
_0-e_極細4
  6
CONTINUOUS
 62
    6
 10
665.76952377260739
 20
727.24627247990509
 11
672.01952377260625
 21
733.49627247990452
  0
LINE
  8
_0-e_極細4
  6
CONTINUOUS
 62
    6
 10
665.76952377260739
 20
732.54957333880429
 11
672.01952377260625
 21
738.79957333880395
  0
LINE
  8
_0-e_極細4
  6
CONTINUOUS
 62
    6
 10
665.76952377260739
 20
737.85287419770316
 11
672.01952377260625
 21
744.10287419770316
  0
LINE
  8
_0-e_極細4
  6
CONTINUOUS
 62
    6
 10
665.76952377260739
 20
743.15617505660225
 11
672.01952377260625
 21
749.40617505660225
  0
LINE
  8
_0-e_極細4
  6
CONTINUOUS
 62
    6
 10
665.76952377260739
 20
748.45947591550112
 11
672.01952377260625
 21
754.70947591550112
  0
LINE
  8
_0-e_極細4
  6
CONTINUOUS
 62
    6
 10
665.76952377260739
 20
753.76277677440089
 11
672.01952377260625
 21
760.01277677439998
  0
LINE
  8
_0-e_極細4
  6
CONTINUOUS
 62
    6
 10
665.76952377260739
 20
759.06607763329941
 11
672.01952377260625
 21
765.31607763329976
  0
LINE
  8
_0-e_極細4
  6
CONTINUOUS
 62
    6
 10
665.76952377260739
 20
764.36937849219862
 11
672.01952377260625
 21
770.61937849219873
  0
LINE
  8
_0-e_極細4
  6
CONTINUOUS
 62
    6
 10
665.76952377260739
 20
769.67267935109771
 11
672.373972521263
 21
776.27712809975321
  0
LINE
  8
_0-e_極細4
  6
CONTINUOUS
 62
    6
 10
665.76952377260739
 20
774.97598020999658
 11
678.26952377260739
 21
787.47598020999658
  0
LINE
  8
_0-e_極細4
  6
CONTINUOUS
 62
    6
 10
665.76952377260739
 20
780.27928106889544
 11
678.26952377260739
 21
792.77928106889647
  0
LINE
  8
_0-e_極細4
  6
CONTINUOUS
 62
    6
 10
665.76952377260739
 20
785.58258192779533
 11
669.83378517075323
 21
789.64684332594129
  0
LINE
  8
_0-e_極細4
  6
CONTINUOUS
 62
    6
 10
670.14382943643284
 20
789.95688759162078
 11
678.26952377260739
 21
798.08258192779533
  0
LINE
  8
_0-e_極細4
  6
CONTINUOUS
 62
    6
 10
684.33378517075369
 20
804.14684332594163
 11
688.01952377260761
 21
807.8325819277951
  0
LINE
  8
_0-e_極細4
  6
CONTINUOUS
 62
    6
 10
667.01952377260739
 20
792.1358827866942
 11
678.26952377260739
 21
803.3858827866942
  0
LINE
  8
_0-e_極細4
  6
CONTINUOUS
 62
    6
 10
679.03048431185482
 20
804.14684332594163
 11
688.01952377260761
 21
813.13588278669442
  0
LINE
  8
_0-e_極細4
  6
CONTINUOUS
 62
    6
 10
667.01952377260739
 20
797.43918364559318
 11
688.01952377260761
 21
818.43918364559329
  0
LINE
  8
_0-e_極細4
  6
CONTINUOUS
 62
    6
 10
670.71702377260692
 20
806.4399845044926
 11
688.01952377260761
 21
823.74248450449227
  0
LINE
  8
_0-e_極細4
  6
CONTINUOUS
 62
    6
 10
670.71702377260692
 20
811.74328536339158
 11
688.01952377260761
 21
829.0457853633917
  0
LINE
  8
_0-e_極細4
  6
CONTINUOUS
 62
    6
 10
670.71702377260692
 20
817.04658622229044
 11
688.01952377260761
 21
834.34908622229102
  0
LINE
  8
_0-e_極細4
  6
CONTINUOUS
 62
    6
 10
670.71702377260692
 20
822.34988708118988
 11
687.44790666264691
 21
839.08076997122873
  0
LINE
  8
_0-e_極細4
  6
CONTINUOUS
 62
    6
 10
670.71702377260692
 20
827.6531879400892
 11
681.4514771177295
 21
838.38764128521018
  0
LINE
  8
_0-e_極細4
  6
CONTINUOUS
 62
    6
 10
670.71702377260692
 20
832.95648879898806
 11
675.45504757281094
 21
837.69451259919163
  0
LINE
  8
_0-e_極細4
  6
CENTER2
 62
    6
 10
545.76952377260682
 20
872.7873782899843
 11
545.76952377260682
 21
465.71797994010745
  0
LINE
  8
_0-e_極細4
  6
CONTINUOUS
 62
    6
 10
403.51952377260744
 20
845.1288958626169
 11
688.01952377260761
 21
845.1288958626169
  0
LINE
  8
_0-e_極細4
  6
CONTINUOUS
 62
    6
 10
688.01952377260761
 20
843.39684332594129
 11
688.01952377260761
 21
845.1288958626169
  0
LINE
  8
_0-e_極細4
  6
CONTINUOUS
 62
    6
 10
613.26952377260682
 20
789.64684332594129
 11
670.71702377260692
 21
789.64684332594129
  0
LINE
  8
_0-e_極細4
  6
CONTINUOUS
 62
    6
 10
641.39452377260682
 20
776.64684332594163
 11
613.26952377260682
 21
776.64684332594163
  0
LINE
  8
_0-e_極細4
  6
CONTINUOUS
 62
    6
 10
670.71702377260692
 20
842.66450332594161
 11
688.01952377260761
 21
845.1288958626169
  0
LINE
  8
_0-e_極細4
  6
CONTINUOUS
 62
    6
 10
613.26952377260682
 20
788.90768332594178
 11
613.26952377260682
 21
792.60206582594208
  0
LINE
  8
_0-e_極細4
  6
CONTINUOUS
 62
    6
 10
613.26952377260682
 20
791.64684332594163
 11
667.01952377260739
 21
791.64684332594163
  0
LINE
  8
_0-e_極細4
  6
CONTINUOUS
 62
    6
 10
654.51952377260739
 20
825.41645082594141
 11
654.51952377260739
 21
827.66450332594161
  0
LINE
  8
_0-e_極細4
  6
CONTINUOUS
 62
    6
 10
654.51952377260739
 20
825.41645082594141
 11
545.76952377260682
 21
825.41645082594141
  0
LINE
  8
_0-e_極細4
  6
CONTINUOUS
 62
    6
 10
654.51952377260739
 20
813.91645082594152
 11
545.76952377260682
 21
813.91645082594164
  0
LINE
  8
_0-e_極細4
  6
CONTINUOUS
 62
    6
 10
654.51952377260739
 20
810.16645082594152
 11
654.51952377260739
 21
813.91645082594152
  0
LINE
  8
_0-e_極細4
  6
CONTINUOUS
 62
    6
 10
645.14452377260739
 20
821.17977832594147
 11
645.14452377260739
 21
817.92977832594158
  0
LINE
  8
_0-e_極細4
  6
CONTINUOUS
 62
    6
 10
645.14452377260739
 20
815.42977832594102
 11
645.14452377260739
 21
814.17977832594158
  0
LINE
  8
_0-e_極細4
  6
CONTINUOUS
 62
    6
 10
654.14452377260716
 20
821.17977832594147
 11
654.14452377260716
 21
814.17977832594158
  0
LINE
  8
_0-e_極細4
  6
CONTINUOUS
 62
    6
 10
545.76952377260682
 20
814.17977832594158
 11
654.14452377260716
 21
814.17977832594158
  0
LINE
  8
_0-e_極細4
  6
CONTINUOUS
 62
    6
 10
545.76952377260682
 20
816.67977832594158
 11
643.89452377260625
 21
816.67977832594158
  0
LINE
  8
_0-e_極細4
  6
CONTINUOUS
 62
    6
 10
545.76952377260682
 20
822.42977832594147
 11
643.89452377260625
 21
822.42977832594147
  0
LINE
  8
_0-e_極細4
  6
CONTINUOUS
 62
    6
 10
643.89452377260625
 20
822.42977832594147
 11
645.14452377260739
 21
823.67977832594147
  0
LINE
  8
_0-e_極細4
  6
CONTINUOUS
 62
    6
 10
645.14452377260739
 20
821.17977832594147
 11
643.89452377260625
 21
822.42977832594147
  0
LINE
  8
_0-e_極細4
  6
CONTINUOUS
 62
    6
 10
645.14452377260739
 20
815.42977832594102
 11
643.89452377260625
 21
816.67977832594158
  0
LINE
  8
_0-e_極細4
  6
CONTINUOUS
 62
    6
 10
643.89452377260625
 20
816.67977832594158
 11
645.14452377260739
 21
817.92977832594158
  0
LINE
  8
_0-e_極細4
  6
CONTINUOUS
 62
    6
 10
654.14452377260716
 20
821.17977832594147
 11
656.14452377260761
 21
824.92977832594136
  0
LINE
  8
_0-e_極細4
  6
CONTINUOUS
 62
    6
 10
645.14452377260739
 20
824.92977832594136
 11
645.14452377260739
 21
823.67977832594147
  0
LINE
  8
_0-e_極細4
  6
CONTINUOUS
 62
    6
 10
545.76952377260682
 20
824.92977832594147
 11
656.14452377260761
 21
824.92977832594136
  0
LINE
  8
_0-e_極細4
  6
CONTINUOUS
 62
    6
 10
546.26952377260727
 20
827.66450332594172
 11
655.2695237726067
 21
827.66450332594161
  0
LINE
  8
_0-e_極細4
  6
CONTINUOUS
 62
    6
 10
546.26952377260727
 20
830.16450332594172
 11
653.76952377260693
 21
830.16450332594161
  0
ARC
  8
_0-e_極細4
  6
CONTINUOUS
 62
    6
 10
660.64452377260693
 20
840.16450332594172
 40
1.25
 50
24.05454900000543
 51
89.999999999999901
  0
ARC
  8
_0-e_極細4
  6
CONTINUOUS
 62
    6
 10
661.39452377260739
 20
836.91450332594127
 40
0.4999999999999715
 50
269.99999999999977
 51
359.99999999999966
  0
ARC
  8
_0-e_極細4
  6
CONTINUOUS
 62
    6
 10
660.64452377260693
 20
840.16450332594172
 40
1.25
 50
0
 51
24.05454900000543
  0
LINE
  8
_0-e_極細4
  6
CONTINUOUS
 62
    6
 10
656.5195237726067
 20
828.91450332594172
 11
656.5195237726067
 21
836.41450332594172
  0
LINE
  8
_0-e_極細4
  6
CONTINUOUS
 62
    6
 10
656.5195237726067
 20
836.41450332594172
 11
661.39452377260739
 21
836.41450332594172
  0
LINE
  8
_0-e_極細4
  6
CONTINUOUS
 62
    6
 10
545.76952377260682
 20
841.41450332594172
 11
660.64452377260693
 21
841.41450332594161
  0
LINE
  8
_0-e_極細4
  6
CONTINUOUS
 62
    6
 10
661.89452377260693
 20
836.91450332594127
 11
661.89452377260693
 21
840.16450332594172
  0
LINE
  8
_0-e_極細4
  6
CONTINUOUS
 62
    6
 10
632.73530627260754
 20
794.66450332594206
 11
632.73530627260754
 21
798.91450332594161
  0
LINE
  8
_0-e_極細4
  6
CONTINUOUS
 62
    6
 10
620.23530627260754
 20
794.66450332594206
 11
620.23530627260754
 21
798.91450332594161
  0
LINE
  8
_0-e_極細4
  6
CONTINUOUS
 62
    6
 10
620.23530627260754
 20
794.66450332594206
 11
632.73530627260754
 21
794.66450332594206
  0
LINE
  8
_0-e_極細4
  6
CONTINUOUS
 62
    6
 10
653.26952377260625
 20
798.91450332594161
 11
667.01952377260739
 21
798.91450332594161
  0
LINE
  8
_0-e_極細4
  6
CONTINUOUS
 62
    6
 10
651.19406377260759
 20
793.91450332594161
 11
653.26952377260625
 21
793.91450332594161
  0
LINE
  8
_0-e_極細4
  6
CONTINUOUS
 62
    6
 10
653.26952377260625
 20
805.66450332594127
 11
656.5195237726067
 21
805.66450332594127
  0
LINE
  8
_0-e_極細4
  6
CONTINUOUS
 62
    6
 10
653.26952377260625
 20
803.91450332594161
 11
658.26952377260739
 21
803.91450332594161
  0
LINE
  8
_0-e_極細4
  6
CONTINUOUS
 62
    6
 10
653.26952377260625
 20
793.91450332594161
 11
653.26952377260625
 21
808.91450332594161
  0
LINE
  8
_0-e_極細4
  6
CONTINUOUS
 62
    6
 10
670.71702377260692
 20
802.61200332594126
 11
667.01952377260739
 21
798.91450332594161
  0
LINE
  8
_0-e_極細4
  6
CONTINUOUS
 62
    6
 10
658.26952377260739
 20
803.91450332594161
 11
658.26952377260739
 21
832.03950332594161
  0
ARC
  8
_0-e_極細4
  6
CONTINUOUS
 62
    6
 10
660.8945237726067
 20
832.03950332594161
 40
2.6250000000000284
 50
89.999999999999915
 51
179.99999999999983
  0
LINE
  8
_0-e_極細4
  6
CONTINUOUS
 62
    6
 10
663.87258377260707
 20
834.66450332594161
 11
660.8945237726067
 21
834.66450332594161
  0
ARC
  8
_0-e_極細4
  6
CONTINUOUS
 62
    6
 10
663.87258377260707
 20
838.91450332594161
 40
4.2499999999999716
 50
269.99999999999977
 51
356.64911199999864
  0
ARC
  8
_0-e_極細4
  6
CONTINUOUS
 62
    6
 10
663.87258377260707
 20
838.91450332594161
 40
2.5
 50
269.99999999999977
 51
356.64911200000284
  0
ARC
  8
_0-e_極細4
  6
CONTINUOUS
 62
    6
 10
670.71702377260692
 20
838.28950332594172
 40
4.3749999999999991
 50
89.999999999999915
 51
175.84901000000218
  0
ARC
  8
_0-e_極細4
  6
CONTINUOUS
 62
    6
 10
660.8945237726067
 20
832.03950332594161
 40
4.3749999999999991
 50
89.999999999999915
 51
179.99999999999983
  0
LINE
  8
_0-e_極細4
  6
CONTINUOUS
 62
    6
 10
662.01952377260739
 20
836.41450332594172
 11
662.01952377260739
 21
842.66450332594161
  0
LINE
  8
_0-e_極細4
  6
CONTINUOUS
 62
    6
 10
656.5195237726067
 20
805.66450332594127
 11
656.5195237726067
 21
832.03950332594161
  0
LINE
  8
_0-e_極細4
  6
CONTINUOUS
 62
    6
 10
663.87258377260707
 20
836.41450332594172
 11
660.8945237726067
 21
836.41450332594172
  0
LINE
  8
_0-e_極細4
  6
CONTINUOUS
 62
    6
 10
646.39452377260625
 20
808.91450332594161
 11
656.5195237726067
 21
808.91450332594161
  0
LINE
  8
_0-e_極細4
  6
CONTINUOUS
 62
    6
 10
545.76952377260682
 20
842.66450332594172
 11
670.71702377260692
 21
842.66450332594161
  0
ARC
  8
_0-e_極細4
  6
CONTINUOUS
 62
    6
 10
641.39452377260682
 20
774.14684332594175
 40
2.5
 50
89.999999999999915
 51
179.99999999999983
  0
ARC
  8
_0-e_極細4
  6
CONTINUOUS
 62
    6
 10
641.39452377260682
 20
774.14684332594175
 40
2.5
 50
0
 51
89.999999999999915
  0
LINE
  8
_0-e_極細4
  6
CONTINUOUS
 62
    6
 10
688.01952377260761
 20
839.14684332594163
 11
670.71702377260692
 21
837.14684332594129
  0
LINE
  8
_0-e_極細4
  6
CONTINUOUS
 62
    6
 10
670.71702377260692
 20
789.64684332594129
 11
667.01952377260739
 21
791.64684332594163
  0
LINE
  8
_0-e_極細4
  6
CONTINUOUS
 62
    6
 10
667.01952377260739
 20
791.64684332594163
 11
667.01952377260739
 21
798.91450332594161
  0
LINE
  8
_0-e_極細4
  6
CONTINUOUS
 62
    6
 10
688.01952377260761
 20
805.5349458259418
 11
688.01952377260761
 21
845.09328832594133
  0
LINE
  8
_0-e_極細4
  6
CONTINUOUS
 62
    6
 10
678.26952377260739
 20
804.14684332594163
 11
688.01952377260761
 21
804.14684332594163
  0
LINE
  8
_0-e_極細4
  6
CONTINUOUS
 62
    6
 10
688.01952377260761
 20
804.14684332594163
 11
688.01952377260761
 21
805.5349458259418
  0
ARC
  8
_0-e_極細4
  6
CONTINUOUS
 62
    6
 10
684.51952377260739
 20
773.32152582594131
 40
12.5
 50
119.99999999999989
 51
179.99999999999983
  0
LINE
  8
_0-e_極細4
  6
CONTINUOUS
 62
    6
 10
678.26952377260739
 20
784.14684332594163
 11
678.26952377260739
 21
804.14684332594163
  0
LINE
  8
_0-e_極細4
  6
CONTINUOUS
 62
    6
 10
670.71702377260692
 20
840.89684196031453
 11
688.01952377260761
 21
843.36123582594109
  0
LINE
  8
_0-e_極細4
  6
CONTINUOUS
 62
    6
 10
670.71702377260692
 20
802.61200332594126
 11
670.71702377260692
 21
840.91450332594206
  0
ARC
  8
_0-e_極細4
  6
CONTINUOUS
 62
    6
 10
670.71702377260692
 20
838.28950332594172
 40
2.6250000000000284
 50
89.999999999999915
 51
175.84901000000326
  0
LINE
  8
_0-e_極細4
  6
CONTINUOUS
 62
    6
 10
647.01952377260739
 20
791.66645082594243
 11
639.51952377260682
 21
791.66645082594243
  0
ARC
  8
_0-e_極細4
  6
CONTINUOUS
 62
    6
 10
647.01952377260739
 20
796.66645082594141
 40
5
 50
269.99999999999977
 51
359.99999999999966
  0
LINE
  8
_0-e_極細4
  6
CONTINUOUS
 62
    6
 10
652.01952377260739
 20
796.66645082594141
 11
652.01952377260739
 21
799.16645082594141
  0
LINE
  8
_0-e_極細4
  6
CONTINUOUS
 62
    6
 10
652.01952377260739
 20
799.16645082594141
 11
646.39452377260625
 21
799.16645082594141
  0
LINE
  8
_0-e_極細4
  6
CONTINUOUS
 62
    6
 10
654.51952377260739
 20
810.16645082594152
 11
646.39452377260625
 21
810.16645082594152
  0
LINE
  8
_0-e_極細4
  6
CONTINUOUS
 62
    6
 10
646.39452377260625
 20
799.16645082594141
 11
646.39452377260625
 21
810.16645082594164
  0
LINE
  8
_0-e_極細4
  6
CONTINUOUS
 62
    6
 10
646.39452377260625
 20
810.16645082594164
 11
545.76952377260682
 21
810.16645082594164
  0
ARC
  8
_0-e_極細4
  6
CONTINUOUS
 62
    6
 10
613.89452377260625
 20
629.64680152593201
 40
25
 50
269.99999999999977
 51
359.99999999999966
  0
LINE
  8
_0-e_極細4
  6
CONTINUOUS
 62
    6
 10
545.76952377260682
 20
604.64680152593201
 11
613.89452377260625
 21
604.64680152593201
  0
LINE
  8
_0-e_極細4
  6
CONTINUOUS
 62
    6
 10
638.89452377260625
 20
629.64680152593201
 11
638.89452377260625
 21
774.14684332594175
  0
LINE
  8
_0-e_極細4
  6
CONTINUOUS
 62
    6
 10
643.89452377260625
 20
629.64680152593201
 11
643.89452377260625
 21
774.14684332594175
  0
LINE
  8
_0-e_極細4
  6
CONTINUOUS
 62
    6
 10
548.09710877260704
 20
599.64680152593201
 11
613.89452377260625
 21
599.64680152593201
  0
LINE
  8
_0-e_極細4
  6
CONTINUOUS
 62
    6
 10
545.76952377260682
 20
599.64680152593201
 11
548.09710877260704
 21
599.64680152593201
  0
LINE
  8
_0-e_極細4
  6
CONTINUOUS
 62
    6
 10
641.39452377260625
 20
505.89680152593201
 11
640.76952377260625
 21
568.39680152593201
  0
LINE
  8
_0-e_極細4
  6
CONTINUOUS
 62
    6
 10
665.76952377260739
 20
721.95071902593168
 11
665.76952377260739
 21
789.64684332594129
  0
ARC
  8
_0-e_極細4
  6
CONTINUOUS
 62
    6
 10
663.26952377260739
 20
721.95071902593168
 40
2.5
 50
277.18075599997792
 51
359.99999999999966
  0
ARC
  8
_0-e_極細4
  6
CONTINUOUS
 62
    6
 10
613.89452377260625
 20
629.64680152593201
 40
30
 50
269.99999999999977
 51
359.99999999999966
  0
LINE
  8
_0-e_極細4
  6
CONTINUOUS
 62
    6
 10
608.26952377260625
 20
574.64680152593201
 11
608.26952377260625
 21
599.64680152593201
  0
LINE
  8
_0-e_極細4
  6
CONTINUOUS
 62
    6
 10
613.89452377260625
 20
599.64680152593201
 11
608.26952377260625
 21
599.64680152593201
  0
LINE
  8
_0-e_極細4
  6
CONTINUOUS
 62
    6
 10
643.89452377260625
 20
629.64680152593201
 11
643.89452377260625
 21
697.14680152593178
  0
LINE
  8
_0-e_極細4
  6
CONTINUOUS
 62
    6
 10
608.2734712726068
 20
574.39011902593234
 11
608.26952377260625
 21
574.64680152593201
  0
LINE
  8
_0-e_極細4
  6
CONTINUOUS
 62
    6
 10
608.26952377260625
 20
574.64680152593201
 11
545.76952377260682
 21
574.64680152593291
  0
ARC
  8
_0-e_極細4
  6
CONTINUOUS
 62
    6
 10
645.76952377260625
 20
594.64680152593201
 40
20
 50
269.99999999999977
 51
359.99999999999966
  0
LINE
  8
_0-e_極細4
  6
CONTINUOUS
 62
    6
 10
615.76952377260625
 20
568.39680152593201
 11
640.76952377260625
 21
568.39680152593201
  0
LINE
  8
_0-e_極細4
  6
CONTINUOUS
 62
    6
 10
609.51952377260682
 20
493.39680152593201
 11
608.26952377260625
 21
574.64680152593201
  0
LINE
  8
_0-e_極細4
  6
CONTINUOUS
 62
    6
 10
665.76952377260739
 20
594.64680152593201
 11
665.76952377260739
 21
721.95071902593168
  0
LINE
  8
_0-e_極細4
  6
CONTINUOUS
 62
    6
 10
645.76952377260625
 20
574.64680152593201
 11
608.26952377260625
 21
574.64680152593201
  0
LINE
  8
_0-e_極細4
  6
CONTINUOUS
 62
    6
 10
614.72785710593996
 20
505.89680152593201
 11
615.76952377260625
 21
568.39680152593201
  0
ARC
  8
_0-e_極細4
  6
CONTINUOUS
 62
    6
 10
652.01952377260739
 20
588.39680152593201
 40
20
 50
269.99999999999636
 51
359.99999999999966
  0
LINE
  8
_0-e_極細4
  6
CONTINUOUS
 62
    6
 10
672.01952377260625
 20
588.39680152593201
 11
672.01952377260625
 21
773.32152582594131
  0
LINE
  8
_0-e_極細4
  6
CONTINUOUS
 62
    6
 10
648.51952377260716
 20
505.89680152593201
 11
649.51952377260625
 21
568.39680152593201
  0
LINE
  8
_0-e_極細4
  6
CONTINUOUS
 62
    6
 10
614.72785627260635
 20
505.89680152593201
 11
648.51952377260716
 21
505.89680152593201
  0
LINE
  8
_0-e_極細4
  6
CONTINUOUS
 62
    6
 10
610.76952377260625
 20
642.66640902593213
 11
545.76952377260682
 21
642.66640902593213
  0
ARC
  8
_0-e_極細4
  6
CONTINUOUS
 62
    6
 10
610.76952377260625
 20
645.16640902593213
 40
2.5
 50
269.99954163376469
 51
359.99999999999966
  0
LINE
  8
_0-e_極細4
  6
CONTINUOUS
 62
    6
 10
613.26952377260682
 20
645.16640902593213
 11
613.26952377260682
 21
792.60206582594208
  0
LINE
  8
_0-e_極細4
  6
CONTINUOUS
 62
    6
 10
663.58202378206727
 20
719.47032717300101
 11
643.89452377260625
 21
719.47032717300101
  0
LINE
  8
_0-e_極細4
  6
CONTINUOUS
 62
    6
 10
649.51952377260625
 20
568.39680152593201
 11
652.01952377260625
 21
568.39680152593201
  0
LINE
  8
_0-e_極細4
  6
CONTINUOUS
 62
    6
 10
545.76952377260659
 20
493.39680152593201
 11
614.51952377260625
 21
493.39680152593201
  0
LINE
  8
_0-e_極細4
  6
CONTINUOUS
 62
    6
 10
614.51952377260625
 20
493.39680152593201
 11
614.72785710593996
 21
505.89680152593201
  0
LINE
  8
_0-e_極細4
  6
CONTINUOUS
 62
    6
 10
403.51952377260744
 20
843.39684332594129
 11
403.51952377260744
 21
845.1288958626169
  0
LINE
  8
_0-e_極細4
  6
CONTINUOUS
 62
    6
 10
478.26952377260767
 20
789.64684332594129
 11
420.82202377260728
 21
789.64684332594129
  0
LINE
  8
_0-e_極細4
  6
CONTINUOUS
 62
    6
 10
450.14452377260767
 20
776.64684332594163
 11
478.26952377260767
 21
776.64684332594163
  0
LINE
  8
_0-e_極細4
  6
CONTINUOUS
 62
    6
 10
420.82202377260728
 20
842.66450332594161
 11
403.51952377260744
 21
845.1288958626169
  0
LINE
  8
_0-e_極細4
  6
CONTINUOUS
 62
    6
 10
478.26952377260767
 20
788.90768332594178
 11
478.26952377260767
 21
792.60206582594208
  0
LINE
  8
_0-e_極細4
  6
CONTINUOUS
 62
    6
 10
478.26952377260767
 20
791.64684332594163
 11
424.51952377260767
 21
791.64684332594163
  0
LINE
  8
_0-e_極細4
  6
CONTINUOUS
 62
    6
 10
437.01952377260767
 20
825.41645082594141
 11
437.01952377260767
 21
827.66450332594161
  0
LINE
  8
_0-e_極細4
  6
CONTINUOUS
 62
    6
 10
437.01952377260767
 20
825.41645082594141
 11
545.76952377260773
 21
825.41645082594141
  0
LINE
  8
_0-e_極細4
  6
CONTINUOUS
 62
    6
 10
437.01952377260767
 20
813.91645082594152
 11
545.76952377260773
 21
813.91645082594164
  0
LINE
  8
_0-e_極細4
  6
CONTINUOUS
 62
    6
 10
437.01952377260767
 20
810.16645082594152
 11
437.01952377260767
 21
813.91645082594152
  0
LINE
  8
_0-e_極細4
  6
CONTINUOUS
 62
    6
 10
446.39452377260767
 20
821.17977832594147
 11
446.39452377260767
 21
817.92977832594158
  0
LINE
  8
_0-e_極細4
  6
CONTINUOUS
 62
    6
 10
446.39452377260767
 20
815.42977832594102
 11
446.39452377260767
 21
814.17977832594158
  0
LINE
  8
_0-e_極細4
  6
CONTINUOUS
 62
    6
 10
437.39452377260704
 20
821.17977832594147
 11
437.39452377260704
 21
814.17977832594158
  0
LINE
  8
_0-e_極細4
  6
CONTINUOUS
 62
    6
 10
545.76952377260773
 20
814.17977832594158
 11
437.39452377260704
 21
814.17977832594158
  0
LINE
  8
_0-e_極細4
  6
CONTINUOUS
 62
    6
 10
545.76952377260773
 20
816.67977832594158
 11
447.64452377260767
 21
816.67977832594158
  0
LINE
  8
_0-e_極細4
  6
CONTINUOUS
 62
    6
 10
545.76952377260773
 20
822.42977832594147
 11
447.64452377260767
 21
822.42977832594147
  0
LINE
  8
_0-e_極細4
  6
CONTINUOUS
 62
    6
 10
447.64452377260767
 20
822.42977832594147
 11
446.39452377260767
 21
823.67977832594147
  0
LINE
  8
_0-e_極細4
  6
CONTINUOUS
 62
    6
 10
446.39452377260767
 20
821.17977832594147
 11
447.64452377260767
 21
822.42977832594147
  0
LINE
  8
_0-e_極細4
  6
CONTINUOUS
 62
    6
 10
446.39452377260767
 20
815.42977832594102
 11
447.64452377260767
 21
816.67977832594158
  0
LINE
  8
_0-e_極細4
  6
CONTINUOUS
 62
    6
 10
447.64452377260767
 20
816.67977832594158
 11
446.39452377260767
 21
817.92977832594158
  0
LINE
  8
_0-e_極細4
  6
CONTINUOUS
 62
    6
 10
437.39452377260704
 20
821.17977832594147
 11
435.39452377260744
 21
824.92977832594136
  0
LINE
  8
_0-e_極細4
  6
CONTINUOUS
 62
    6
 10
446.39452377260767
 20
824.92977832594136
 11
446.39452377260767
 21
823.67977832594147
  0
LINE
  8
_0-e_極細4
  6
CONTINUOUS
 62
    6
 10
545.76952377260773
 20
824.92977832594147
 11
435.39452377260744
 21
824.92977832594136
  0
LINE
  8
_0-e_極細4
  6
CONTINUOUS
 62
    6
 10
545.26952377260727
 20
827.66450332594172
 11
436.2695237726075
 21
827.66450332594161
  0
LINE
  8
_0-e_極細4
  6
CONTINUOUS
 62
    6
 10
545.26952377260727
 20
830.16450332594172
 11
437.76952377260727
 21
830.16450332594161
  0
ARC
  8
_0-e_極細4
  6
CONTINUOUS
 62
    6
 10
430.89452377260727
 20
840.16450332594172
 40
1.25
 50
89.999999999999915
 51
155.94545099999456
  0
ARC
  8
_0-e_極細4
  6
CONTINUOUS
 62
    6
 10
430.14452377260682
 20
836.91450332594127
 40
0.4999999999999715
 50
179.99999999999983
 51
269.99999999999977
  0
ARC
  8
_0-e_極細4
  6
CONTINUOUS
 62
    6
 10
430.89452377260727
 20
840.16450332594172
 40
1.25
 50
155.94545099999456
 51
179.99999999999983
  0
LINE
  8
_0-e_極細4
  6
CONTINUOUS
 62
    6
 10
435.0195237726075
 20
828.91450332594172
 11
435.01952377260722
 21
836.41450332594172
  0
LINE
  8
_0-e_極細4
  6
CONTINUOUS
 62
    6
 10
435.01952377260722
 20
836.41450332594172
 11
430.14452377260682
 21
836.41450332594172
  0
LINE
  8
_0-e_極細4
  6
CONTINUOUS
 62
    6
 10
545.76952377260682
 20
841.41450332594172
 11
430.89452377260727
 21
841.41450332594161
  0
LINE
  8
_0-e_極細4
  6
CONTINUOUS
 62
    6
 10
429.64452377260727
 20
836.91450332594127
 11
429.64452377260727
 21
840.16450332594172
  0
LINE
  8
_0-e_極細4
  6
CONTINUOUS
 62
    6
 10
458.80374127260751
 20
794.66450332594206
 11
458.80374127260751
 21
798.91450332594161
  0
LINE
  8
_0-e_極細4
  6
CONTINUOUS
 62
    6
 10
471.30374127260751
 20
794.66450332594206
 11
471.30374127260751
 21
798.91450332594161
  0
LINE
  8
_0-e_極細4
  6
CONTINUOUS
 62
    6
 10
471.30374127260751
 20
794.66450332594206
 11
458.80374127260751
 21
794.66450332594206
  0
LINE
  8
_0-e_極細4
  6
CONTINUOUS
 62
    6
 10
438.26952377260767
 20
798.91450332594161
 11
424.51952377260767
 21
798.91450332594161
  0
LINE
  8
_0-e_極細4
  6
CONTINUOUS
 62
    6
 10
440.34498377260746
 20
793.91450332594161
 11
438.26952377260767
 21
793.91450332594161
  0
LINE
  8
_0-e_極細4
  6
CONTINUOUS
 62
    6
 10
438.26952377260767
 20
805.66450332594127
 11
435.0195237726075
 21
805.66450332594127
  0
LINE
  8
_0-e_極細4
  6
CONTINUOUS
 62
    6
 10
438.26952377260767
 20
803.91450332594161
 11
433.26952377260767
 21
803.91450332594161
  0
LINE
  8
_0-e_極細4
  6
CONTINUOUS
 62
    6
 10
438.26952377260767
 20
793.91450332594161
 11
438.26952377260767
 21
808.91450332594161
  0
LINE
  8
_0-e_極細4
  6
CONTINUOUS
 62
    6
 10
420.82202377260728
 20
802.61200332594126
 11
424.51952377260767
 21
798.91450332594161
  0
LINE
  8
_0-e_極細4
  6
CONTINUOUS
 62
    6
 10
433.26952377260767
 20
803.91450332594161
 11
433.26952377260682
 21
832.03950332594161
  0
ARC
  8
_0-e_極細4
  6
CONTINUOUS
 62
    6
 10
430.64452377260722
 20
832.03950332594161
 40
2.6250000000000284
 50
0
 51
89.999999999999915
  0
LINE
  8
_0-e_極細4
  6
CONTINUOUS
 62
    6
 10
427.66646377260713
 20
834.66450332594161
 11
430.64452377260722
 21
834.66450332594161
  0
ARC
  8
_0-e_極細4
  6
CONTINUOUS
 62
    6
 10
427.66646377260713
 20
838.91450332594161
 40
4.2499999999999716
 50
183.35088800000065
 51
269.99999999999977
  0
ARC
  8
_0-e_極細4
  6
CONTINUOUS
 62
    6
 10
427.66646377260713
 20
838.91450332594161
 40
2.5
 50
183.35088799999644
 51
269.99999999999977
  0
ARC
  8
_0-e_極細4
  6
CONTINUOUS
 62
    6
 10
420.82202377260728
 20
838.28950332594172
 40
4.3749999999999991
 50
4.1509899999970168
 51
89.999999999999915
  0
ARC
  8
_0-e_極細4
  6
CONTINUOUS
 62
    6
 10
430.64452377260722
 20
832.03950332594161
 40
4.3749999999999991
 50
0
 51
89.999999999999915
  0
LINE
  8
_0-e_極細4
  6
CONTINUOUS
 62
    6
 10
429.51952377260682
 20
836.41450332594172
 11
429.51952377260682
 21
842.66450332594161
  0
LINE
  8
_0-e_極細4
  6
CONTINUOUS
 62
    6
 10
435.0195237726075
 20
805.66450332594127
 11
435.0195237726075
 21
832.03950332594161
  0
LINE
  8
_0-e_極細4
  6
CONTINUOUS
 62
    6
 10
427.66646377260713
 20
836.41450332594172
 11
430.64452377260722
 21
836.41450332594172
  0
LINE
  8
_0-e_極細4
  6
CONTINUOUS
 62
    6
 10
445.14452377260682
 20
808.91450332594161
 11
435.0195237726075
 21
808.91450332594161
  0
LINE
  8
_0-e_極細4
  6
CONTINUOUS
 62
    6
 10
545.76952377260682
 20
842.66450332594172
 11
420.82202377260728
 21
842.66450332594161
  0
ARC
  8
_0-e_極細4
  6
CONTINUOUS
 62
    6
 10
450.14452377260767
 20
774.14684332594175
 40
2.5
 50
0
 51
89.999999999999915
  0
ARC
  8
_0-e_極細4
  6
CONTINUOUS
 62
    6
 10
450.14452377260767
 20
774.14684332594175
 40
2.5
 50
89.999999999999915
 51
179.99999999999983
  0
LINE
  8
_0-e_極細4
  6
CONTINUOUS
 62
    6
 10
403.51952377260744
 20
839.14684332594163
 11
420.82202377260728
 21
837.14684332594129
  0
LINE
  8
_0-e_極細4
  6
CONTINUOUS
 62
    6
 10
420.82202377260728
 20
789.64684332594129
 11
424.51952377260767
 21
791.64684332594163
  0
LINE
  8
_0-e_極細4
  6
CONTINUOUS
 62
    6
 10
424.51952377260767
 20
791.64684332594163
 11
424.51952377260767
 21
798.91450332594161
  0
LINE
  8
_0-e_極細4
  6
CONTINUOUS
 62
    6
 10
403.51952377260744
 20
805.5349458259418
 11
403.51952377260744
 21
845.09328832594133
  0
LINE
  8
_0-e_極細4
  6
CONTINUOUS
 62
    6
 10
413.26952377260767
 20
804.14684332594163
 11
403.51952377260744
 21
804.14684332594163
  0
LINE
  8
_0-e_極細4
  6
CONTINUOUS
 62
    6
 10
403.51952377260744
 20
804.14684332594163
 11
403.51952377260744
 21
805.5349458259418
  0
ARC
  8
_0-e_極細4
  6
CONTINUOUS
 62
    6
 10
407.01952377260767
 20
773.32152582594131
 40
12.5
 50
0
 51
60.000000000000107
  0
LINE
  8
_0-e_極細4
  6
CONTINUOUS
 62
    6
 10
413.26952377260767
 20
784.14684332594163
 11
413.26952377260767
 21
804.14684332594163
  0
LINE
  8
_0-e_極細4
  6
CONTINUOUS
 62
    6
 10
420.82202377260728
 20
840.89684196031453
 11
403.51952377260744
 21
843.36123582594109
  0
LINE
  8
_0-e_極細4
  6
CONTINUOUS
 62
    6
 10
420.82202377260728
 20
802.61200332594126
 11
420.82202377260728
 21
840.91450332594206
  0
ARC
  8
_0-e_極細4
  6
CONTINUOUS
 62
    6
 10
420.82202377260728
 20
838.28950332594172
 40
2.6250000000000284
 50
4.1509899999971962
 51
89.999999999999915
  0
LINE
  8
_0-e_極細4
  6
CONTINUOUS
 62
    6
 10
444.51952377260767
 20
791.66645082594243
 11
452.01952377260767
 21
791.66645082594243
  0
ARC
  8
_0-e_極細4
  6
CONTINUOUS
 62
    6
 10
444.51952377260767
 20
796.66645082594141
 40
5
 50
179.99999999999983
 51
269.99999999999977
  0
LINE
  8
_0-e_極細4
  6
CONTINUOUS
 62
    6
 10
439.51952377260767
 20
796.66645082594141
 11
439.51952377260767
 21
799.16645082594141
  0
LINE
  8
_0-e_極細4
  6
CONTINUOUS
 62
    6
 10
439.51952377260767
 20
799.16645082594141
 11
445.14452377260682
 21
799.16645082594141
  0
LINE
  8
_0-e_極細4
  6
CONTINUOUS
 62
    6
 10
437.01952377260767
 20
810.16645082594152
 11
445.14452377260682
 21
810.16645082594152
  0
LINE
  8
_0-e_極細4
  6
CONTINUOUS
 62
    6
 10
445.14452377260682
 20
799.16645082594141
 11
445.14452377260682
 21
810.16645082594164
  0
LINE
  8
_0-e_極細4
  6
CONTINUOUS
 62
    6
 10
445.14452377260682
 20
810.16645082594164
 11
545.76952377260773
 21
810.16645082594164
  0
ARC
  8
_0-e_極細4
  6
CONTINUOUS
 62
    6
 10
477.64452377260739
 20
629.64680152593201
 40
25
 50
179.99999999999983
 51
269.99999999999977
  0
LINE
  8
_0-e_極細4
  6
CONTINUOUS
 62
    6
 10
545.76952377260773
 20
604.64680152593201
 11
477.64452377260739
 21
604.64680152593201
  0
LINE
  8
_0-e_極細4
  6
CONTINUOUS
 62
    6
 10
452.64452377260767
 20
629.64680152593201
 11
452.64452377260767
 21
774.14684332594175
  0
LINE
  8
_0-e_極細4
  6
CONTINUOUS
 62
    6
 10
447.64452377260767
 20
629.64680152593201
 11
447.64452377260767
 21
774.14684332594175
  0
LINE
  8
_0-e_極細4
  6
CONTINUOUS
 62
    6
 10
543.4419387726075
 20
599.64680152593201
 11
477.64452377260739
 21
599.64680152593201
  0
LINE
  8
_0-e_極細4
  6
CONTINUOUS
 62
    6
 10
545.76952377260773
 20
599.64680152593201
 11
543.4419387726075
 21
599.64680152593201
  0
LINE
  8
_0-e_極細4
  6
CONTINUOUS
 62
    6
 10
450.14452377260795
 20
505.89680152593201
 11
450.76952377260767
 21
568.39680152593201
  0
LINE
  8
_0-e_極細4
  6
CONTINUOUS
 62
    6
 10
425.76952377260767
 20
721.95071902593168
 11
425.76952377260767
 21
789.64684332594129
  0
ARC
  8
_0-e_極細4
  6
CONTINUOUS
 62
    6
 10
428.26952377260767
 20
721.95071902593168
 40
2.5
 50
179.99999999999983
 51
262.81924399999554
  0
ARC
  8
_0-e_極細4
  6
CONTINUOUS
 62
    6
 10
477.64452377260739
 20
629.64680152593201
 40
30
 50
179.99999999999983
 51
269.99999999999977
  0
LINE
  8
_0-e_極細4
  6
CONTINUOUS
 62
    6
 10
483.26952377260767
 20
574.64680152593201
 11
483.26952377260767
 21
599.64680152593201
  0
LINE
  8
_0-e_極細4
  6
CONTINUOUS
 62
    6
 10
477.64452377260739
 20
599.64680152593201
 11
483.26952377260767
 21
599.64680152593201
  0
LINE
  8
_0-e_極細4
  6
CONTINUOUS
 62
    6
 10
447.64452377260767
 20
629.64680152593201
 11
447.64452377260767
 21
697.14680152593178
  0
LINE
  8
_0-e_極細4
  6
CONTINUOUS
 62
    6
 10
483.2655762726074
 20
574.39011902593234
 11
483.26952377260767
 21
574.64680152593201
  0
LINE
  8
_0-e_極細4
  6
CONTINUOUS
 62
    6
 10
483.26952377260767
 20
574.64680152593201
 11
545.76952377260773
 21
574.64680152593291
  0
ARC
  8
_0-e_極細4
  6
CONTINUOUS
 62
    6
 10
445.76952377260767
 20
594.64680152593201
 40
20
 50
179.99999999999983
 51
269.99999999999977
  0
LINE
  8
_0-e_極細4
  6
CONTINUOUS
 62
    6
 10
475.76952377260767
 20
568.39680152593201
 11
450.76952377260767
 21
568.39680152593201
  0
LINE
  8
_0-e_極細4
  6
CONTINUOUS
 62
    6
 10
482.01952377260767
 20
493.39680152593201
 11
483.26952377260767
 21
574.64680152593201
  0
LINE
  8
_0-e_極細4
  6
CONTINUOUS
 62
    6
 10
425.76952377260767
 20
594.64680152593201
 11
425.76952377260767
 21
721.95071902593168
  0
LINE
  8
_0-e_極細4
  6
CONTINUOUS
 62
    6
 10
445.76952377260767
 20
574.64680152593201
 11
483.26952377260767
 21
574.64680152593201
  0
LINE
  8
_0-e_極細4
  6
CONTINUOUS
 62
    6
 10
476.81119043927424
 20
505.89680152593201
 11
475.76952377260767
 21
568.39680152593201
  0
ARC
  8
_0-e_極細4
  6
CONTINUOUS
 62
    6
 10
439.51952377260767
 20
588.39680152593201
 40
20
 50
179.99999999999983
 51
269.99999999999977
  0
LINE
  8
_0-e_極細4
  6
CONTINUOUS
 62
    6
 10
419.51952377260767
 20
588.39680152593201
 11
419.51952377260767
 21
773.32152582594131
  0
LINE
  8
_0-e_極細4
  6
CONTINUOUS
 62
    6
 10
443.0195237726079
 20
505.89680152593201
 11
442.01952377260795
 21
568.39680152593201
  0
LINE
  8
_0-e_極細4
  6
CONTINUOUS
 62
    6
 10
476.81119127260786
 20
505.89680152593201
 11
443.0195237726079
 21
505.89680152593201
  0
LINE
  8
_0-e_極細4
  6
CONTINUOUS
 62
    6
 10
480.76952377260682
 20
642.66640902593213
 11
545.76952377260773
 21
642.66640902593213
  0
ARC
  8
_0-e_極細4
  6
CONTINUOUS
 62
    6
 10
480.76952377260682
 20
645.16640902593213
 40
2.5
 50
179.99999999999983
 51
270.00045836623457
  0
LINE
  8
_0-e_極細4
  6
CONTINUOUS
 62
    6
 10
478.26952377260767
 20
645.16640902593213
 11
478.26952377260767
 21
792.60206582594208
  0
LINE
  8
_0-e_極細4
  6
CONTINUOUS
 62
    6
 10
427.95702376314665
 20
719.47032717300101
 11
447.64452377260767
 21
719.47032717300101
  0
LINE
  8
_0-e_極細4
  6
CONTINUOUS
 62
    6
 10
442.01952377260795
 20
568.39680152593201
 11
439.51952377260767
 21
568.39680152593201
  0
LINE
  8
_0-e_極細4
  6
CONTINUOUS
 62
    6
 10
545.76952377260773
 20
493.39680152593201
 11
477.01952377260767
 21
493.39680152593201
  0
LINE
  8
_0-e_極細4
  6
CONTINUOUS
 62
    6
 10
477.01952377260767
 20
493.39680152593201
 11
476.81119043927424
 21
505.89680152593201
  0
LINE
  8
_0-e_極細4
  6
CONTINUOUS
 62
    6
 10
653.76952377260693
 20
827.66450332594161
 11
653.76952377260693
 21
830.16450332594161
  0
ARC
  8
_0-e_極細4
  6
CONTINUOUS
 62
    6
 10
655.2695237726067
 20
828.91450332594172
 40
1.25
 50
269.99999999999977
 51
359.99999999999966
  0
LINE
  8
_0-e_極細4
  6
CONTINUOUS
 62
    6
 10
437.76952377260727
 20
827.66450332594161
 11
437.76952377260727
 21
830.16450332594161
  0
ARC
  8
_0-e_極細4
  6
CONTINUOUS
 62
    6
 10
436.2695237726075
 20
828.91450332594172
 40
1.25
 50
179.99999999999983
 51
269.99999999999977
  0
CIRCLE
  8
_1-1_寸法4
  6
CONTINUOUS
 62
    7
 10
656.5195237726067
 20
819.76864404275204
 40
45.147944228592245
  0
TEXT
  8
_1-1_寸法4
 62
    7
 10
679.73070934855571
 20
858.4930256676007
 40
30
 41
0.8000000000000001
 50
0
  1
Ｃ部
  0
LINE
  8
_1-1_寸法4
  6
CONTINUOUS
 62
    7
 10
507.42839625186633
 20
704.28664959767798
 11
495.39886796125973
 21
688.30883844891628
  0
LINE
  8
_1-1_寸法4
  6
CONTINUOUS
 62
    7
 10
507.42839625186633
 20
704.28664959767798
 11
489.02161358227659
 21
696.46422339128344
  0
LINE
  8
_1-1_寸法4
  6
CONTINUOUS
 62
    7
 10
507.42839625186633
 20
704.28664959767798
 11
394.46005865417931
 21
615.94896465423903
  0
LINE
  8
_1-1_寸法4
  6
CONTINUOUS
 62
    7
 10
394.46005865417931
 20
615.94896465423903
 11
202.46005865417942
 21
615.94896465423903
  0
TEXT
  8
_1-1_寸法4
 62
    7
 10
202.46005865417942
 20
615.9489646542396
 40
30
 41
0.7999999999999998
 50
-0.0000000000001696
  1
防臭インナー１号
  0
LINE
  8
_1-1_寸法4
  6
CONTINUOUS
 62
    7
 10
432.95058946334592
 20
593.96037276013044
 11
420.81551267699922
 21
578.06257695726936
  0
LINE
  8
_1-1_寸法4
  6
CONTINUOUS
 62
    7
 10
432.95058946334592
 20
593.96037276013044
 11
414.49240678806433
 21
586.26001612384846
  0
LINE
  8
_1-1_寸法4
  6
CONTINUOUS
 62
    7
 10
432.95058946334592
 20
593.96037276013044
 11
394.46005865417931
 21
564.27064928893583
  0
LINE
  8
_1-1_寸法4
  6
CONTINUOUS
 62
    7
 10
394.46005865417931
 20
564.27064928893583
 11
250.46005865417925
 21
564.27064928893583
  0
TEXT
  8
_1-1_寸法4
 62
    7
 10
250.46005865417939
 20
564.27064928893606
 40
30
 41
0.7999999999999998
 50
-0.0000000000001696
  1
トラップ本体
  0
LINE
  8
_1-1_寸法4
  6
CONTINUOUS
 62
    7
 10
461.73649024663945
 20
743.983664831449
 11
449.71514436991356
 21
727.99969650965477
  0
LINE
  8
_1-1_寸法4
  6
CONTINUOUS
 62
    7
 10
461.73649024663945
 20
743.983664831449
 11
443.3337151688184
 21
736.1518151498525
  0
LINE
  8
_1-1_寸法4
  6
CONTINUOUS
 62
    7
 10
461.73649024663945
 20
743.983664831449
 11
394.46005865417931
 21
691.32008079175489
  0
LINE
  8
_1-1_寸法4
  6
CONTINUOUS
 62
    7
 10
394.46005865417931
 20
691.32008079175489
 11
202.46005865417942
 21
691.32008079175489
  0
TEXT
  8
_1-1_寸法4
 62
    7
 10
202.46005865417942
 20
691.32008079175523
 40
30
 41
0.7999999999999998
 50
-0.0000000000001696
  1
防臭インナー２号
  0
LINE
  8
_1-1_寸法4
  6
CONTINUOUS
 62
    7
 10
443.01952377260773
 20
485.89680152593201
 11
443.01952377260534
 21
243.39680152593203
  0
LINE
  8
_1-1_寸法4
  6
CONTINUOUS
 62
    7
 10
443.01952377260545
 20
253.39680152593203
 11
462.33804029838694
 21
258.57318242798243
  0
LINE
  8
_1-1_寸法4
  6
CONTINUOUS
 62
    7
 10
443.01952377260545
 20
253.39680152593203
 11
462.33804029838694
 21
248.22042062388164
  0
LINE
  8
_1-1_寸法4
  6
CONTINUOUS
 62
    7
 10
648.51952377260704
 20
485.89680152593201
 11
648.51952377260432
 21
243.39680152593203
  0
LINE
  8
_1-1_寸法4
  6
CONTINUOUS
 62
    7
 10
648.51952377260443
 20
253.39680152593203
 11
629.201007246823
 21
248.22042062388164
  0
LINE
  8
_1-1_寸法4
  6
CONTINUOUS
 62
    7
 10
648.51952377260443
 20
253.39680152593203
 11
629.20100724682311
 21
258.57318242798243
  0
LINE
  8
_1-1_寸法4
  6
CONTINUOUS
 62
    7
 10
443.01952377260545
 20
253.39680152593203
 11
648.51952377260443
 21
253.39680152593203
  0
TEXT
  8
_1-1_寸法4
 62
    7
 10
485.76952377260511
 20
253.39680152593203
 40
30
 41
1
 50
0
  1
VU75外接
  0
LINE
  8
_1-1_寸法4
  6
CONTINUOUS
 62
    7
 10
450.14452377260784
 20
485.89680152593201
 11
450.14452377260653
 21
313.39680152593201
  0
LINE
  8
_1-1_寸法4
  6
CONTINUOUS
 62
    7
 10
450.14452377260653
 20
323.39680152593201
 11
469.46304029838785
 21
328.57318242798243
  0
LINE
  8
_1-1_寸法4
  6
CONTINUOUS
 62
    7
 10
450.14452377260653
 20
323.39680152593201
 11
469.46304029838785
 21
318.22042062388164
  0
LINE
  8
_1-1_寸法4
  6
CONTINUOUS
 62
    7
 10
641.39452377260614
 20
485.89680152593201
 11
641.39452377260466
 21
313.39680152593201
  0
LINE
  8
_1-1_寸法4
  6
CONTINUOUS
 62
    7
 10
641.39452377260477
 20
323.39680152593201
 11
622.07600724682334
 21
318.22042062388164
  0
LINE
  8
_1-1_寸法4
  6
CONTINUOUS
 62
    7
 10
641.39452377260477
 20
323.39680152593201
 11
622.07600724682356
 21
328.57318242798243
  0
LINE
  8
_1-1_寸法4
  6
CONTINUOUS
 62
    7
 10
450.14452377260653
 20
323.39680152593201
 11
641.39452377260477
 21
323.39680152593201
  0
TEXT
  8
_1-1_寸法4
 62
    7
 10
485.7695237726054
 20
323.39680152593201
 40
30
 41
1
 50
0
  1
VU65内接
  0
LINE
  8
_1-1_寸法4
  6
CONTINUOUS
 62
    7
 10
477.01952377260767
 20
473.39680152593201
 11
477.01952377260739
 21
383.39680152593201
  0
LINE
  8
_1-1_寸法4
  6
CONTINUOUS
 62
    7
 10
477.01952377260739
 20
393.39680152593201
 11
496.33804029838871
 21
398.57318242798243
  0
LINE
  8
_1-1_寸法4
  6
CONTINUOUS
 62
    7
 10
477.01952377260739
 20
393.39680152593201
 11
496.33804029838871
 21
388.22042062388164
  0
LINE
  8
_1-1_寸法4
  6
CONTINUOUS
 62
    7
 10
614.51952377260625
 20
473.39680152593201
 11
614.51952377260625
 21
383.39680152593201
  0
LINE
  8
_1-1_寸法4
  6
CONTINUOUS
 62
    7
 10
614.51952377260625
 20
393.39680152593201
 11
595.20100724682493
 21
388.22042062388164
  0
LINE
  8
_1-1_寸法4
  6
CONTINUOUS
 62
    7
 10
614.51952377260625
 20
393.39680152593201
 11
595.20100724682493
 21
398.57318242798243
  0
LINE
  8
_1-1_寸法4
  6
CONTINUOUS
 62
    7
 10
477.01952377260739
 20
393.39680152593201
 11
614.51952377260625
 21
393.39680152593201
  0
TEXT
  8
_1-1_寸法4
 62
    7
 10
485.76952377260682
 20
393.39680152593201
 40
30
 41
1
 50
0
  1
VU50外接
  0
TEXT
  8
_0-7_枠細線
 62
    5
 10
426.17139881041055
 20
171.69913859344163
 40
50
 41
0.8
 50
0
  1
排水部詳細図
  0
TEXT
  8
_0-7_枠細線
 62
    5
 10
697.3337067965474
 20
174.14715234739319
 40
40
 41
0.6000000000000002
 50
0
  1
Ｓ＝１：４
  0
LINE
  8
_1-1_寸法4
  6
CONTINUOUS
 62
    7
 10
488.25412731193012
 20
834.74543545557651
 11
472.2639305228563
 21
846.75849529254947
  0
LINE
  8
_1-1_寸法4
  6
CONTINUOUS
 62
    7
 10
488.25412731193012
 20
834.74543545557651
 11
480.41274059956635
 21
853.14414884611449
  0
LINE
  8
_1-1_寸法4
  6
CONTINUOUS
 62
    7
 10
488.25412731193012
 20
834.74543545557651
 11
455.63833052347917
 21
876.36684997488942
  0
LINE
  8
_1-1_寸法4
  6
CONTINUOUS
 62
    7
 10
455.63833052347917
 20
876.36684997488942
 11
311.63833052347923
 21
876.36684997488942
  0
TEXT
  8
_1-1_寸法4
 62
    7
 10
311.63833052347911
 20
876.36684997488999
 40
30
 41
0.7999999999999998
 50
-0.0000000000002261
  1
ストレーナー
  0
LINE
  8
_1-2_極細2
  6
CONTINUOUS
 62
    2
 10
1782.4749279905532
 20
460.16760725389275
 11
1752.4749279905539
 21
460.16760725389275
  0
LINE
  8
_1-2_極細2
  6
CONTINUOUS
 62
    2
 10
1309.1415946572201
 20
460.16760725389275
 11
1339.1415946572197
 21
460.16760725389275
  0
LINE
  8
_1-2_極細2
  6
CONTINUOUS
 62
    2
 10
1785.8082613238857
 20
436.83427392055904
 11
1785.8082613238867
 21
463.5009405872259
  0
LINE
  8
_1-2_極細2
  6
CONTINUOUS
 62
    2
 10
1305.8082613238867
 20
436.83427392055961
 11
1305.8082613238867
 21
463.5009405872259
  0
LINE
  8
_1-2_極細2
  6
CONTINUOUS
 62
    2
 10
1305.8082613238867
 20
463.5009405872259
 11
1342.4749279905532
 21
463.5009405872259
  0
LINE
  8
_1-2_極細2
  6
CONTINUOUS
 62
    2
 10
1749.1415946572204
 20
463.5009405872259
 11
1785.8082613238867
 21
463.5009405872259
  0
LINE
  8
_1-2_極細2
  6
CONTINUOUS
 62
    2
 10
1342.4749279905532
 20
400.16760725389219
 11
1342.4749279905532
 21
463.5009405872259
  0
LINE
  8
_1-2_極細2
  6
CONTINUOUS
 62
    2
 10
1309.1415946572201
 20
436.83427392055961
 11
1309.1415946572201
 21
460.16760725389275
  0
LINE
  8
_1-2_極細2
  6
CONTINUOUS
 62
    2
 10
1305.8082613238867
 20
436.83427392055961
 11
1309.1415946572201
 21
436.83427392055961
  0
LINE
  8
_1-2_極細2
  6
CONTINUOUS
 62
    2
 10
1782.4749279905529
 20
436.83427392055904
 11
1782.4749279905532
 21
460.16760725389275
  0
LINE
  8
_1-2_極細2
  6
CONTINUOUS
 62
    2
 10
1782.4749279905529
 20
436.83427392055904
 11
1785.8082613238857
 21
436.83427392055904
  0
LINE
  8
_1-2_極細2
  6
CONTINUOUS
 62
    2
 10
1749.1415946572204
 20
400.16760725389219
 11
1342.4749279905532
 21
400.16760725389219
  0
LINE
  8
_1-2_極細2
  6
CONTINUOUS
 62
    2
 10
1749.1415946572204
 20
400.16760725389219
 11
1749.1415946572204
 21
463.5009405872259
  0
LINE
  8
_1-2_極細2
  6
CONTINUOUS
 62
    2
 10
1752.4749279905539
 20
460.16760725389275
 11
1752.4749279905539
 21
396.83427392055904
  0
LINE
  8
_1-2_極細2
  6
CONTINUOUS
 62
    2
 10
1752.4749279905539
 20
396.83427392055904
 11
1339.1415946572197
 21
396.83427392055904
  0
LINE
  8
_1-2_極細2
  6
CONTINUOUS
 62
    2
 10
1339.1415946572197
 20
460.16760725389275
 11
1339.1415946572197
 21
396.83427392055904
  0
LINE
  8
_1-3_細線2
  6
CONTINUOUS
 62
    4
 10
1713.9749279905532
 20
432.11760772323629
 11
1713.9749279905532
 21
418.88427438990249
  0
LINE
  8
_1-3_細線2
  6
CONTINUOUS
 62
    4
 10
1584.3082613238869
 20
456.16760772323602
 11
1558.9749279905552
 21
456.16760772323602
  0
LINE
  8
_1-3_細線2
  6
CONTINUOUS
 62
    4
 10
1558.9749279905552
 20
456.16760772323602
 11
1558.9749279905552
 21
406.83427438990265
  0
LINE
  8
_1-3_細線2
  6
CONTINUOUS
 62
    4
 10
1713.9749279905532
 20
456.16760772323602
 11
1713.9749279905532
 21
406.83427438990265
  0
LINE
  8
_1-3_細線2
  6
CONTINUOUS
 62
    4
 10
1635.974927990552
 20
456.16760772323602
 11
1610.6415946572204
 21
456.16760772323602
  0
LINE
  8
_1-3_細線2
  6
CONTINUOUS
 62
    4
 10
1687.6415946572185
 20
456.16760772323602
 11
1662.3082613238855
 21
456.16760772323602
  0
LINE
  8
_1-3_細線2
  6
CONTINUOUS
 62
    4
 10
1739.3082613238857
 20
456.16760772323602
 11
1713.9749279905532
 21
456.16760772323602
  0
LINE
  8
_1-3_細線2
  6
CONTINUOUS
 62
    4
 10
1662.3082613238855
 20
456.16760772323602
 11
1662.3082613238855
 21
406.83427438990265
  0
LINE
  8
_1-3_細線2
  6
CONTINUOUS
 62
    4
 10
1610.6415946572204
 20
456.16760772323602
 11
1610.6415946572204
 21
406.83427438990265
  0
LINE
  8
_1-3_細線2
  6
CONTINUOUS
 62
    4
 10
1507.3082613238873
 20
456.16760772323602
 11
1532.6415946572206
 21
456.16760772323602
  0
LINE
  8
_1-3_細線2
  6
CONTINUOUS
 62
    4
 10
1532.6415946572206
 20
456.16760772323602
 11
1532.6415946572206
 21
406.83427438990265
  0
LINE
  8
_1-3_細線2
  6
CONTINUOUS
 62
    4
 10
1455.6415946572213
 20
456.16760772323602
 11
1480.9749279905552
 21
456.16760772323602
  0
LINE
  8
_1-3_細線2
  6
CONTINUOUS
 62
    4
 10
1480.9749279905552
 20
456.16760772323602
 11
1480.9749279905552
 21
406.83427438990265
  0
LINE
  8
_1-3_細線2
  6
CONTINUOUS
 62
    4
 10
1377.6415946572231
 20
456.16760772323602
 11
1377.6415946572231
 21
406.83427438990265
  0
LINE
  8
_1-3_細線2
  6
CONTINUOUS
 62
    4
 10
1403.9749279905552
 20
456.16760772323602
 11
1429.3082613238892
 21
456.16760772323602
  0
LINE
  8
_1-3_細線2
  6
CONTINUOUS
 62
    4
 10
1352.3082613238901
 20
456.16760772323602
 11
1377.6415946572231
 21
456.16760772323602
  0
LINE
  8
_1-3_細線2
  6
CONTINUOUS
 62
    4
 10
1429.3082613238892
 20
456.16760772323602
 11
1429.3082613238892
 21
406.83427438990265
  0
ARC
  8
_1-3_細線2
  6
CONTINUOUS
 62
    4
 10
1739.3082613238869
 20
456.16760772323602
 40
3.9999999999999996
 50
0
 51
89.999999999999915
  0
LINE
  8
_1-3_細線2
  6
CONTINUOUS
 62
    4
 10
1709.9749279905523
 20
456.16760772323602
 11
1709.9749279905523
 21
406.83427438990265
  0
LINE
  8
_1-3_細線2
  6
CONTINUOUS
 62
    4
 10
1739.3082613238869
 20
460.16760772323636
 11
1713.9749279905527
 21
460.16760772323636
  0
ARC
  8
_1-3_細線2
  6
CONTINUOUS
 62
    4
 10
1713.9749279905527
 20
456.16760772323602
 40
3.9999999999999996
 50
89.999999999999915
 51
179.99999999999983
  0
ARC
  8
_1-3_細線2
  6
CONTINUOUS
 62
    4
 10
1687.6415946572195
 20
456.16760772323602
 40
3.9999999999999996
 50
0
 51
89.999999999999915
  0
LINE
  8
_1-3_細線2
  6
CONTINUOUS
 62
    4
 10
1658.3082613238867
 20
456.16760772323602
 11
1658.3082613238867
 21
406.83427438990265
  0
LINE
  8
_1-3_細線2
  6
CONTINUOUS
 62
    4
 10
1687.6415946572195
 20
460.16760772323636
 11
1662.3082613238876
 21
460.16760772323636
  0
ARC
  8
_1-3_細線2
  6
CONTINUOUS
 62
    4
 10
1662.3082613238876
 20
456.16760772323602
 40
3.9999999999999996
 50
89.999999999999915
 51
179.99999999999983
  0
ARC
  8
_1-3_細線2
  6
CONTINUOUS
 62
    4
 10
1635.9749279905532
 20
456.16760772323602
 40
3.9999999999999996
 50
0
 51
89.999999999999915
  0
LINE
  8
_1-3_細線2
  6
CONTINUOUS
 62
    4
 10
1606.6415946572195
 20
456.16760772323602
 11
1606.6415946572195
 21
406.83427438990265
  0
LINE
  8
_1-3_細線2
  6
CONTINUOUS
 62
    4
 10
1635.9749279905532
 20
460.16760772323636
 11
1610.6415946572199
 21
460.16760772323636
  0
ARC
  8
_1-3_細線2
  6
CONTINUOUS
 62
    4
 10
1610.6415946572199
 20
456.16760772323602
 40
3.9999999999999996
 50
89.999999999999915
 51
179.99999999999983
  0
ARC
  8
_1-3_細線2
  6
CONTINUOUS
 62
    4
 10
1584.308261323888
 20
456.16760772323602
 40
3.9999999999999996
 50
0
 51
89.999999999999915
  0
LINE
  8
_1-3_細線2
  6
CONTINUOUS
 62
    4
 10
1554.9749279905543
 20
456.16760772323602
 11
1554.9749279905543
 21
406.83427438990265
  0
LINE
  8
_1-3_細線2
  6
CONTINUOUS
 62
    4
 10
1584.308261323888
 20
460.16760772323636
 11
1558.9749279905548
 21
460.16760772323636
  0
ARC
  8
_1-3_細線2
  6
CONTINUOUS
 62
    4
 10
1558.9749279905548
 20
456.16760772323602
 40
3.9999999999999996
 50
89.999999999999915
 51
179.99999999999983
  0
LINE
  8
_1-3_細線2
  6
CONTINUOUS
 62
    4
 10
1536.6415946572215
 20
456.16760772323602
 11
1536.6415946572215
 21
406.83427438990265
  0
ARC
  8
_1-3_細線2
  6
CONTINUOUS
 62
    4
 10
1532.6415946572206
 20
456.16760772323602
 40
3.9999999999999996
 50
0
 51
89.999999999999915
  0
LINE
  8
_1-3_細線2
  6
CONTINUOUS
 62
    4
 10
1507.3082613238867
 20
460.16760772323636
 11
1532.6415946572206
 21
460.16760772323636
  0
ARC
  8
_1-3_細線2
  6
CONTINUOUS
 62
    4
 10
1507.3082613238867
 20
456.16760772323602
 40
3.9999999999999996
 50
89.999999999999915
 51
179.99999999999983
  0
LINE
  8
_1-3_細線2
  6
CONTINUOUS
 62
    4
 10
1484.9749279905552
 20
456.16760772323602
 11
1484.9749279905552
 21
406.83427438990265
  0
ARC
  8
_1-3_細線2
  6
CONTINUOUS
 62
    4
 10
1480.9749279905552
 20
456.16760772323602
 40
3.9999999999999996
 50
0
 51
89.999999999999915
  0
LINE
  8
_1-3_細線2
  6
CONTINUOUS
 62
    4
 10
1455.6415946572206
 20
460.16760772323636
 11
1480.9749279905552
 21
460.16760772323636
  0
ARC
  8
_1-3_細線2
  6
CONTINUOUS
 62
    4
 10
1455.641594657221
 20
456.16760772323602
 40
3.9999999999999996
 50
90.000000000006509
 51
179.99999999999983
  0
LINE
  8
_1-3_細線2
  6
CONTINUOUS
 62
    4
 10
1433.3082613238892
 20
456.16760772323602
 11
1433.3082613238892
 21
406.83427438990265
  0
ARC
  8
_1-3_細線2
  6
CONTINUOUS
 62
    4
 10
1429.3082613238892
 20
456.16760772323602
 40
3.9999999999999996
 50
0
 51
89.999999999999915
  0
LINE
  8
_1-3_細線2
  6
CONTINUOUS
 62
    4
 10
1403.974927990555
 20
460.16760772323636
 11
1429.3082613238892
 21
460.16760772323636
  0
ARC
  8
_1-3_細線2
  6
CONTINUOUS
 62
    4
 10
1403.974927990555
 20
456.16760772323602
 40
3.9999999999999996
 50
89.999999999999915
 51
179.99999999999983
  0
LINE
  8
_1-3_細線2
  6
CONTINUOUS
 62
    4
 10
1381.6415946572215
 20
456.16760772323602
 11
1381.6415946572215
 21
406.83427438990265
  0
ARC
  8
_1-3_細線2
  6
CONTINUOUS
 62
    4
 10
1377.6415946572217
 20
456.16760772323602
 40
3.9999999999999996
 50
0
 51
89.999999999999915
  0
LINE
  8
_1-3_細線2
  6
CONTINUOUS
 62
    4
 10
1352.3082613238889
 20
460.16760772323636
 11
1377.6415946572217
 21
460.16760772323636
  0
ARC
  8
_1-3_細線2
  6
CONTINUOUS
 62
    4
 10
1352.3082613238889
 20
456.16760772323602
 40
3.9999999999999996
 50
89.999999999999915
 51
179.99999999999983
  0
LINE
  8
_1-3_細線2
  6
CONTINUOUS
 62
    4
 10
1377.6415946572231
 20
406.83427438990265
 11
1381.6415946572215
 21
406.83427438990265
  0
LINE
  8
_1-3_細線2
  6
CONTINUOUS
 62
    4
 10
1429.3082613238892
 20
406.83427438990265
 11
1433.3082613238892
 21
406.83427438990265
  0
LINE
  8
_1-3_細線2
  6
CONTINUOUS
 62
    4
 10
1480.9749279905552
 20
406.83427438990265
 11
1484.9749279905552
 21
406.83427438990265
  0
LINE
  8
_1-3_細線2
  6
CONTINUOUS
 62
    4
 10
1532.6415946572206
 20
406.83427438990265
 11
1536.6415946572215
 21
406.83427438990265
  0
LINE
  8
_1-3_細線2
  6
CONTINUOUS
 62
    4
 10
1554.9749279905543
 20
406.83427438990265
 11
1558.9749279905552
 21
406.83427438990265
  0
LINE
  8
_1-3_細線2
  6
CONTINUOUS
 62
    4
 10
1606.6415946572195
 20
406.83427438990265
 11
1610.6415946572204
 21
406.83427438990265
  0
LINE
  8
_1-3_細線2
  6
CONTINUOUS
 62
    4
 10
1658.3082613238867
 20
406.83427438990265
 11
1662.3082613238855
 21
406.83427438990265
  0
LINE
  8
_1-3_細線2
  6
CONTINUOUS
 62
    4
 10
1709.9749279905523
 20
406.83427438990265
 11
1713.9749279905532
 21
406.83427438990265
  0
LINE
  8
_1-3_細線2
  6
CONTINUOUS
 62
    4
 10
1588.3082613238878
 20
440.16760725389219
 11
1584.3082613238869
 21
440.16760725389219
  0
LINE
  8
_1-3_細線2
  6
CONTINUOUS
 62
    4
 10
1743.3082613238867
 20
440.16760725389219
 11
1739.3082613238857
 21
440.16760725389219
  0
LINE
  8
_1-3_細線2
  6
CONTINUOUS
 62
    4
 10
1691.6415946572195
 20
440.16760725389219
 11
1687.6415946572185
 21
440.16760725389219
  0
LINE
  8
_1-3_細線2
  6
CONTINUOUS
 62
    4
 10
1639.9749279905529
 20
440.16760725389219
 11
1635.974927990552
 21
440.16760725389219
  0
LINE
  8
_1-3_細線2
  6
CONTINUOUS
 62
    4
 10
1503.3082613238867
 20
440.16760725389219
 11
1507.3082613238876
 21
440.16760725389219
  0
LINE
  8
_1-3_細線2
  6
CONTINUOUS
 62
    4
 10
1451.6415946572213
 20
440.16760725389219
 11
1455.6415946572222
 21
440.16760725389219
  0
LINE
  8
_1-3_細線2
  6
CONTINUOUS
 62
    4
 10
1348.3082613238892
 20
440.16760725389219
 11
1352.3082613238901
 21
440.16760725389219
  0
LINE
  8
_1-3_細線2
  6
CONTINUOUS
 62
    4
 10
1399.9749279905552
 20
440.16760725389219
 11
1403.9749279905561
 21
440.16760725389219
  0
LINE
  8
_1-3_細線2
  6
CONTINUOUS
 62
    4
 10
1584.3082613238869
 20
456.16760772323602
 11
1584.3082613238869
 21
440.16760725389219
  0
LINE
  8
_1-3_細線2
  6
CONTINUOUS
 62
    4
 10
1687.6415946572185
 20
456.16760772323602
 11
1687.6415946572185
 21
440.16760725389219
  0
LINE
  8
_1-3_細線2
  6
CONTINUOUS
 62
    4
 10
1739.3082613238857
 20
456.16760772323602
 11
1739.3082613238857
 21
440.16760725389219
  0
LINE
  8
_1-3_細線2
  6
CONTINUOUS
 62
    4
 10
1635.974927990552
 20
456.16760772323602
 11
1635.974927990552
 21
440.16760725389219
  0
LINE
  8
_1-3_細線2
  6
CONTINUOUS
 62
    4
 10
1507.3082613238873
 20
456.16760772323602
 11
1507.3082613238876
 21
440.16760725389219
  0
LINE
  8
_1-3_細線2
  6
CONTINUOUS
 62
    4
 10
1455.6415946572213
 20
456.16760772323602
 11
1455.6415946572222
 21
440.16760725389219
  0
LINE
  8
_1-3_細線2
  6
CONTINUOUS
 62
    4
 10
1352.3082613238901
 20
456.16760772323602
 11
1352.3082613238901
 21
440.16760725389219
  0
LINE
  8
_1-3_細線2
  6
CONTINUOUS
 62
    4
 10
1403.9749279905552
 20
456.16760772323602
 11
1403.9749279905561
 21
440.16760725389219
  0
LINE
  8
_1-3_細線2
  6
CONTINUOUS
 62
    4
 10
1743.3082613238867
 20
456.16760772323602
 11
1743.3082613238867
 21
440.16760725389219
  0
LINE
  8
_1-3_細線2
  6
CONTINUOUS
 62
    4
 10
1691.6415946572195
 20
456.16760772323602
 11
1691.6415946572195
 21
440.16760725389219
  0
LINE
  8
_1-3_細線2
  6
CONTINUOUS
 62
    4
 10
1639.9749279905529
 20
456.16760772323602
 11
1639.9749279905529
 21
440.16760725389219
  0
LINE
  8
_1-3_細線2
  6
CONTINUOUS
 62
    4
 10
1588.3082613238878
 20
456.16760772323602
 11
1588.3082613238878
 21
440.16760725389219
  0
LINE
  8
_1-3_細線2
  6
CONTINUOUS
 62
    4
 10
1503.3082613238867
 20
456.16760772323602
 11
1503.3082613238867
 21
440.16760725389219
  0
LINE
  8
_1-3_細線2
  6
CONTINUOUS
 62
    4
 10
1451.6415946572213
 20
456.16760772323602
 11
1451.6415946572213
 21
440.16760725389219
  0
LINE
  8
_1-3_細線2
  6
CONTINUOUS
 62
    4
 10
1399.9749279905552
 20
456.16760772323602
 11
1399.9749279905552
 21
440.16760725389219
  0
LINE
  8
_1-3_細線2
  6
CONTINUOUS
 62
    4
 10
1348.3082613238892
 20
456.16760772323602
 11
1348.3082613238892
 21
440.16760725389219
  0
ARC
  8
_1-3_細線2
  6
CONTINUOUS
 62
    4
 10
1361.6524346572226
 20
407.50094058722681
 40
0.6666666666666669
 50
179.99999999999983
 51
269.99999999999977
  0
LINE
  8
_1-3_細線2
  6
CONTINUOUS
 62
    4
 10
1364.3082613238901
 20
406.83427392055961
 11
1361.6524346572226
 21
406.83427392055961
  0
ARC
  8
_1-3_細線2
  6
CONTINUOUS
 62
    4
 10
1361.6524346572226
 20
439.50094058722613
 40
0.6666666666666669
 50
89.999999999999915
 51
179.99999999999983
  0
LINE
  8
_1-3_細線2
  6
CONTINUOUS
 62
    4
 10
1364.3082613238901
 20
440.16760725389332
 11
1361.6524346572226
 21
440.16760725389332
  0
LINE
  8
_1-3_細線2
  6
CONTINUOUS
 62
    4
 10
1360.9857679905545
 20
421.83427392055961
 11
1360.9857679905545
 21
407.50094058722681
  0
LINE
  8
_1-3_細線2
  6
CONTINUOUS
 62
    4
 10
1360.9857679905545
 20
439.50094058722613
 11
1360.9857679905545
 21
421.83427392055961
  0
ARC
  8
_1-3_細線2
  6
CONTINUOUS
 62
    4
 10
1365.9749279905566
 20
453.5009405872259
 40
1.6666666666666663
 50
89.999999999999915
 51
179.99999999999983
  0
LINE
  8
_1-3_細線2
  6
CONTINUOUS
 62
    4
 10
1375.9749279905566
 20
455.16760725389219
 11
1365.9749279905566
 21
455.16760725389219
  0
ARC
  8
_1-3_細線2
  6
CONTINUOUS
 62
    4
 10
1375.9749279905566
 20
453.5009405872259
 40
1.6666666666666663
 50
0
 51
89.999999999999915
  0
LINE
  8
_1-3_細線2
  6
CONTINUOUS
 62
    4
 10
1364.3082613238901
 20
453.5009405872259
 11
1364.3082613238901
 21
401.83427392055904
  0
ARC
  8
_1-3_細線2
  6
CONTINUOUS
 62
    4
 10
1365.9749279905566
 20
401.83427392055904
 40
1.6666666666666663
 50
179.99999999999983
 51
269.99999999999977
  0
LINE
  8
_1-3_細線2
  6
CONTINUOUS
 62
    4
 10
1365.9749279905566
 20
400.16760725389219
 11
1375.9749279905566
 21
400.16760725389219
  0
LINE
  8
_1-3_細線2
  6
CONTINUOUS
 62
    4
 10
1377.6415946572231
 20
401.83427392055904
 11
1377.6415946572231
 21
453.5009405872259
  0
ARC
  8
_1-3_細線2
  6
CONTINUOUS
 62
    4
 10
1375.9749279905566
 20
401.83427392055904
 40
1.6666666666666663
 50
269.99999999999977
 51
359.99999999999966
  0
LINE
  8
_1-3_細線2
  6
CONTINUOUS
 62
    4
 10
1381.6415946572229
 20
412.00094058722556
 11
1429.3082613238892
 21
412.00094058722556
  0
LINE
  8
_1-3_細線2
  6
CONTINUOUS
 62
    4
 10
1381.6415946572229
 20
435.00094058722567
 11
1429.3082613238892
 21
435.00094058722567
  0
LINE
  8
_1-3_細線2
  6
CONTINUOUS
 62
    4
 10
1433.3082613238903
 20
412.00094058722556
 11
1480.9749279905566
 21
412.00094058722556
  0
LINE
  8
_1-3_細線2
  6
CONTINUOUS
 62
    4
 10
1433.3082613238903
 20
435.00094058722567
 11
1480.9749279905566
 21
435.00094058722567
  0
LINE
  8
_1-3_細線2
  6
CONTINUOUS
 62
    4
 10
1484.9749279905564
 20
412.00094058722556
 11
1532.6415946572226
 21
412.00094058722556
  0
LINE
  8
_1-3_細線2
  6
CONTINUOUS
 62
    4
 10
1484.9749279905564
 20
435.00094058722567
 11
1532.6415946572226
 21
435.00094058722567
  0
LINE
  8
_1-3_細線2
  6
CONTINUOUS
 62
    4
 10
1536.641594657222
 20
435.00094058722567
 11
1554.9749279905543
 21
435.00094058722567
  0
LINE
  8
_1-3_細線2
  6
CONTINUOUS
 62
    4
 10
1536.641594657222
 20
412.00094058722556
 11
1554.9749279905543
 21
412.00094058722556
  0
ARC
  8
_1-3_細線2
  6
CONTINUOUS
 62
    4
 10
1729.9640883307193
 20
407.50094058722681
 40
0.6666666666666669
 50
269.99999999999977
 51
359.99999999999966
  0
LINE
  8
_1-3_細線2
  6
CONTINUOUS
 62
    4
 10
1727.3082616640522
 20
406.83427392055961
 11
1729.9640883307193
 21
406.83427392055961
  0
ARC
  8
_1-3_細線2
  6
CONTINUOUS
 62
    4
 10
1729.9640883307193
 20
439.50094058722613
 40
0.6666666666666669
 50
0
 51
89.999999999999915
  0
LINE
  8
_1-3_細線2
  6
CONTINUOUS
 62
    4
 10
1727.3082616640522
 20
440.16760725389332
 11
1729.9640883307193
 21
440.16760725389332
  0
LINE
  8
_1-3_細線2
  6
CONTINUOUS
 62
    4
 10
1730.6307549973872
 20
421.83427392055961
 11
1730.6307549973872
 21
407.50094058722681
  0
LINE
  8
_1-3_細線2
  6
CONTINUOUS
 62
    4
 10
1730.6307549973872
 20
439.50094058722613
 11
1730.6307549973872
 21
421.83427392055961
  0
ARC
  8
_1-3_細線2
  6
CONTINUOUS
 62
    4
 10
1725.6415949973853
 20
453.5009405872259
 40
1.6666666666666663
 50
0
 51
89.999999999999915
  0
LINE
  8
_1-3_細線2
  6
CONTINUOUS
 62
    4
 10
1715.6415949973853
 20
455.16760725389219
 11
1725.6415949973853
 21
455.16760725389219
  0
ARC
  8
_1-3_細線2
  6
CONTINUOUS
 62
    4
 10
1715.6415949973853
 20
453.5009405872259
 40
1.6666666666666663
 50
89.999999999999915
 51
179.99999999999983
  0
LINE
  8
_1-3_細線2
  6
CONTINUOUS
 62
    4
 10
1727.3082616640522
 20
453.5009405872259
 11
1727.3082616640522
 21
401.83427392055904
  0
ARC
  8
_1-3_細線2
  6
CONTINUOUS
 62
    4
 10
1725.6415949973853
 20
401.83427392055904
 40
1.6666666666666663
 50
269.99999999999977
 51
359.99999999999966
  0
LINE
  8
_1-3_細線2
  6
CONTINUOUS
 62
    4
 10
1725.6415949973853
 20
400.16760725389219
 11
1715.6415949973853
 21
400.16760725389219
  0
LINE
  8
_1-3_細線2
  6
CONTINUOUS
 62
    4
 10
1713.9749283307187
 20
401.83427392055904
 11
1713.9749283307187
 21
453.5009405872259
  0
ARC
  8
_1-3_細線2
  6
CONTINUOUS
 62
    4
 10
1715.6415949973853
 20
401.83427392055904
 40
1.6666666666666663
 50
179.99999999999983
 51
269.99999999999977
  0
LINE
  8
_1-3_細線2
  6
CONTINUOUS
 62
    4
 10
1709.9749283307187
 20
412.00094058722556
 11
1662.3082616640527
 21
412.00094058722556
  0
LINE
  8
_1-3_細線2
  6
CONTINUOUS
 62
    4
 10
1709.9749283307187
 20
435.00094058722567
 11
1662.3082616640527
 21
435.00094058722567
  0
LINE
  8
_1-3_細線2
  6
CONTINUOUS
 62
    4
 10
1658.3082616640513
 20
412.00094058722556
 11
1610.6415949973853
 21
412.00094058722556
  0
LINE
  8
_1-3_細線2
  6
CONTINUOUS
 62
    4
 10
1658.3082616640513
 20
435.00094058722567
 11
1610.6415949973853
 21
435.00094058722567
  0
LINE
  8
_1-3_細線2
  6
CONTINUOUS
 62
    4
 10
1606.6415949973853
 20
412.00094058722556
 11
1558.9749283307196
 21
412.00094058722556
  0
LINE
  8
_1-3_細線2
  6
CONTINUOUS
 62
    4
 10
1606.6415949973853
 20
435.00094058722567
 11
1558.9749283307196
 21
435.00094058722567
  0
LINE
  8
_1-2_極細2
  6
CENTER1
 62
    2
 10
1346.8085700496208
 20
423.5009405872259
 11
1746.1199357718601
 21
423.5009405872259
  0
LINE
  8
_1-2_極細2
  6
CONTINUOUS
 62
    2
 10
1360.9857679905545
 20
423.5009405872259
 11
1350.9707146572212
 21
423.5009405872259
  0
LINE
  8
_1-3_細線2
  6
CONTINUOUS
 62
    4
 10
1360.9857679905545
 20
411.83427392056075
 11
1350.9706746572228
 21
411.83427392056075
  0
ARC
  8
_1-3_細線2
  6
CONTINUOUS
 62
    4
 10
1350.9706746572228
 20
412.50094058722681
 40
0.6666666666666669
 50
179.99999999999983
 51
269.99999999999977
  0
ARC
  8
_1-2_極細2
  6
CONTINUOUS
 62
    2
 10
1376.1639413238881
 20
417.66712058722788
 40
25.859853333333334
 50
166.96197800000505
 51
193.03566999999961
  0
ARC
  8
_1-3_細線2
  6
CONTINUOUS
 62
    4
 10
1350.9706746572228
 20
434.50094058722726
 40
0.6666666666666669
 50
89.999999999999915
 51
179.99999999999983
  0
ARC
  8
_1-2_極細2
  6
CONTINUOUS
 62
    2
 10
1376.1639413238881
 20
429.33475392055954
 40
25.859853333333334
 50
166.96433000000002
 51
193.0380219999995
  0
LINE
  8
_1-3_細線2
  6
CONTINUOUS
 62
    4
 10
1360.9857679905545
 20
435.16760725389332
 11
1350.9706746572228
 21
435.16760725389332
  0
LINE
  8
_1-3_細線2
  6
CONTINUOUS
 62
    4
 10
1350.3040079905552
 20
412.50094058722681
 11
1350.3040079905552
 21
434.50094058722726
  0
LINE
  8
_1-2_極細2
  6
CONTINUOUS
 62
    2
 10
1730.6307549973872
 20
423.5009405872259
 11
1740.6458083307211
 21
423.5009405872259
  0
LINE
  8
_1-3_細線2
  6
CONTINUOUS
 62
    4
 10
1730.6307549973872
 20
411.83427392056075
 11
1740.6458483307188
 21
411.83427392056075
  0
ARC
  8
_1-3_細線2
  6
CONTINUOUS
 62
    4
 10
1740.6458483307188
 20
412.50094058722681
 40
0.6666666666666669
 50
269.99999999999977
 51
359.99999999999966
  0
ARC
  8
_1-2_極細2
  6
CONTINUOUS
 62
    2
 10
1715.4525816640535
 20
417.66712058722788
 40
25.859853333333334
 50
346.96432999999968
 51
13.038021999994573
  0
ARC
  8
_1-3_細線2
  6
CONTINUOUS
 62
    4
 10
1740.6458483307188
 20
434.50094058722726
 40
0.6666666666666669
 50
0
 51
89.999999999999915
  0
ARC
  8
_1-2_極細2
  6
CONTINUOUS
 62
    2
 10
1715.4525816640535
 20
429.33475392055954
 40
25.859853333333334
 50
346.96197799999976
 51
13.035669999999625
  0
LINE
  8
_1-3_細線2
  6
CONTINUOUS
 62
    4
 10
1730.6307549973872
 20
435.16760725389332
 11
1740.6458483307188
 21
435.16760725389332
  0
LINE
  8
_1-3_細線2
  6
CONTINUOUS
 62
    4
 10
1741.3125149973871
 20
412.50094058722681
 11
1741.3125149973871
 21
434.50094058722726
  0
LINE
  8
_1-2_極細2
  6
CENTER1
 62
    2
 10
1545.8082613238867
 20
493.66113756229566
 11
1545.8082613238867
 21
375.66970128398196
  0
LINE
  8
_1-5_寸法2
  6
CONTINUOUS
 62
    7
 10
1305.8082613238867
 20
483.5009405872259
 11
1305.8082613238867
 21
713.50094058722584
  0
LINE
  8
_1-5_寸法2
  6
CONTINUOUS
 62
    7
 10
1305.8082613238867
 20
703.50094058722584
 11
1325.1267778496683
 21
708.67732148927632
  0
LINE
  8
_1-5_寸法2
  6
CONTINUOUS
 62
    7
 10
1305.8082613238867
 20
703.50094058722584
 11
1325.1267778496683
 21
698.32455968517547
  0
LINE
  8
_1-5_寸法2
  6
CONTINUOUS
 62
    7
 10
1785.8082613238867
 20
483.5009405872259
 11
1785.8082613238867
 21
713.50094058722584
  0
LINE
  8
_1-5_寸法2
  6
CONTINUOUS
 62
    7
 10
1785.8082613238867
 20
703.50094058722584
 11
1766.4897447981052
 21
698.32455968517547
  0
LINE
  8
_1-5_寸法2
  6
CONTINUOUS
 62
    7
 10
1785.8082613238867
 20
703.50094058722584
 11
1766.4897447981052
 21
708.67732148927632
  0
LINE
  8
_1-5_寸法2
  6
CONTINUOUS
 62
    7
 10
1305.8082613238867
 20
703.50094058722584
 11
1785.8082613238867
 21
703.50094058722584
  0
TEXT
  8
_1-5_寸法2
 62
    7
 10
1523.3082613238867
 20
703.50094058722584
 40
30
 41
1
 50
0
  1
144
  0
LINE
  8
_1-5_寸法2
  6
CONTINUOUS
 62
    7
 10
1749.1415946572204
 20
483.5009405872259
 11
1749.1415946572213
 21
643.50094058722584
  0
LINE
  8
_1-5_寸法2
  6
CONTINUOUS
 62
    7
 10
1749.1415946572213
 20
633.50094058722584
 11
1768.4601111830025
 21
638.67732148927621
  0
LINE
  8
_1-5_寸法2
  6
CONTINUOUS
 62
    7
 10
1749.1415946572213
 20
633.50094058722584
 11
1768.4601111830025
 21
628.32455968517547
  0
LINE
  8
_1-5_寸法2
  6
CONTINUOUS
 62
    7
 10
1785.8082613238867
 20
483.5009405872259
 11
1785.8082613238878
 21
643.50094058722584
  0
LINE
  8
_1-5_寸法2
  6
CONTINUOUS
 62
    7
 10
1785.8082613238878
 20
633.50094058722584
 11
1766.4897447981061
 21
628.32455968517547
  0
LINE
  8
_1-5_寸法2
  6
CONTINUOUS
 62
    7
 10
1785.8082613238878
 20
633.50094058722584
 11
1766.4897447981061
 21
638.67732148927632
  0
LINE
  8
_1-5_寸法2
  6
CONTINUOUS
 62
    7
 10
1749.1415946572213
 20
633.50094058722584
 11
1785.8082613238878
 21
633.50094058722584
  0
TEXT
  8
_1-5_寸法2
 62
    7
 10
1752.4749279905543
 20
633.50094058722584
 40
30
 41
1
 50
0
  1
11
  0
LINE
  8
_1-5_寸法2
  6
CONTINUOUS
 62
    7
 10
1348.3082613238892
 20
483.5009405872259
 11
1348.3082613238894
 21
643.50094058722584
  0
LINE
  8
_1-5_寸法2
  6
CONTINUOUS
 62
    7
 10
1348.3082613238894
 20
633.50094058722584
 11
1367.6267778496708
 21
638.67732148927621
  0
LINE
  8
_1-5_寸法2
  6
CONTINUOUS
 62
    7
 10
1348.3082613238894
 20
633.50094058722584
 11
1367.6267778496708
 21
628.32455968517547
  0
LINE
  8
_1-5_寸法2
  6
CONTINUOUS
 62
    7
 10
1743.3082613238869
 20
483.5009405872259
 11
1743.3082613238878
 21
643.50094058722584
  0
LINE
  8
_1-5_寸法2
  6
CONTINUOUS
 62
    7
 10
1743.3082613238878
 20
633.50094058722584
 11
1723.9897447981066
 21
628.32455968517547
  0
LINE
  8
_1-5_寸法2
  6
CONTINUOUS
 62
    7
 10
1743.3082613238878
 20
633.50094058722584
 11
1723.9897447981066
 21
638.67732148927632
  0
LINE
  8
_1-5_寸法2
  6
CONTINUOUS
 62
    7
 10
1348.3082613238894
 20
633.50094058722584
 11
1743.3082613238878
 21
633.50094058722584
  0
TEXT
  8
_1-5_寸法2
 62
    7
 10
1508.3082613238887
 20
633.50094058722584
 40
30
 41
1
 50
0
  1
118.5
  0
LINE
  8
_1-5_寸法2
  6
CONTINUOUS
 62
    7
 10
1305.8082613238867
 20
483.5009405872259
 11
1305.8082613238876
 21
643.50094058722584
  0
LINE
  8
_1-5_寸法2
  6
CONTINUOUS
 62
    7
 10
1305.8082613238876
 20
633.50094058722584
 11
1325.126777849669
 21
638.67732148927621
  0
LINE
  8
_1-5_寸法2
  6
CONTINUOUS
 62
    7
 10
1305.8082613238876
 20
633.50094058722584
 11
1325.126777849669
 21
628.32455968517547
  0
LINE
  8
_1-5_寸法2
  6
CONTINUOUS
 62
    7
 10
1342.4749279905532
 20
483.5009405872259
 11
1342.4749279905539
 21
643.50094058722584
  0
LINE
  8
_1-5_寸法2
  6
CONTINUOUS
 62
    7
 10
1342.4749279905539
 20
633.50094058722584
 11
1323.1564114647722
 21
628.32455968517547
  0
LINE
  8
_1-5_寸法2
  6
CONTINUOUS
 62
    7
 10
1342.4749279905539
 20
633.50094058722584
 11
1323.1564114647722
 21
638.67732148927632
  0
LINE
  8
_1-5_寸法2
  6
CONTINUOUS
 62
    7
 10
1305.8082613238876
 20
633.50094058722584
 11
1342.4749279905539
 21
633.50094058722584
  0
TEXT
  8
_1-5_寸法2
 62
    7
 10
1309.1415946572213
 20
633.50094058722584
 40
30
 41
1
 50
0
  1
11
  0
LINE
  8
_1-5_寸法2
  6
CONTINUOUS
 62
    7
 10
1484.9749279905552
 20
483.5009405872259
 11
1484.9749279905554
 21
573.50094058722584
  0
LINE
  8
_1-5_寸法2
  6
CONTINUOUS
 62
    7
 10
1484.9749279905554
 20
563.50094058722584
 11
1465.6564114647742
 21
558.32455968517547
  0
LINE
  8
_1-5_寸法2
  6
CONTINUOUS
 62
    7
 10
1484.9749279905554
 20
563.50094058722584
 11
1465.6564114647742
 21
568.67732148927632
  0
LINE
  8
_1-5_寸法2
  6
CONTINUOUS
 62
    7
 10
1503.3082613238869
 20
483.5009405872259
 11
1503.3082613238876
 21
573.50094058722584
  0
LINE
  8
_1-5_寸法2
  6
CONTINUOUS
 62
    7
 10
1417.5781650026374
 20
563.50094058722584
 11
1503.3082613238876
 21
563.50094058722584
  0
TEXT
  8
_1-5_寸法2
 62
    7
 10
1417.5781650026374
 20
563.50094058722584
 40
30
 41
1
 50
0
  1
5.5
  0
LINE
  8
_1-5_寸法2
  6
CONTINUOUS
 62
    7
 10
1503.3082613238876
 20
563.50094058722584
 11
1522.626777849669
 21
568.67732148927621
  0
LINE
  8
_1-5_寸法2
  6
CONTINUOUS
 62
    7
 10
1503.3082613238876
 20
563.50094058722584
 11
1522.626777849669
 21
558.32455968517536
  0
LINE
  8
_1-5_寸法2
  6
CONTINUOUS
 62
    7
 10
1536.6415946572215
 20
483.5009405872259
 11
1536.6415946572215
 21
573.50094058722584
  0
LINE
  8
_1-5_寸法2
  6
CONTINUOUS
 62
    7
 10
1536.6415946572215
 20
563.50094058722584
 11
1517.3230781314398
 21
558.32455968517547
  0
LINE
  8
_1-5_寸法2
  6
CONTINUOUS
 62
    7
 10
1536.6415946572215
 20
563.50094058722584
 11
1517.3230781314398
 21
568.67732148927632
  0
LINE
  8
_1-5_寸法2
  6
CONTINUOUS
 62
    7
 10
1503.3082613238876
 20
563.50094058722584
 11
1536.6415946572215
 21
563.50094058722584
  0
TEXT
  8
_1-5_寸法2
 62
    7
 10
1504.974927990555
 20
563.50094058722584
 40
30
 41
1
 50
0
  1
10
  0
LINE
  8
_1-5_寸法2
  6
CONTINUOUS
 62
    7
 10
1285.8082613238867
 20
463.50094058722607
 11
1195.8082613238867
 21
463.50094058722652
  0
LINE
  8
_1-5_寸法2
  6
CONTINUOUS
 62
    7
 10
1205.8082613238867
 20
463.50094058722647
 11
1210.984642225937
 21
444.18242406144515
  0
LINE
  8
_1-5_寸法2
  6
CONTINUOUS
 62
    7
 10
1205.8082613238867
 20
463.50094058722647
 11
1200.6318804218363
 21
444.18242406144515
  0
LINE
  8
_1-5_寸法2
  6
CONTINUOUS
 62
    7
 10
1319.1415946572197
 20
396.83427392055904
 11
1195.8082613238867
 21
396.83427392055961
  0
LINE
  8
_1-5_寸法2
  6
CONTINUOUS
 62
    7
 10
1205.8082613238867
 20
396.83427392055961
 11
1200.6318804218363
 21
416.15279044634099
  0
LINE
  8
_1-5_寸法2
  6
CONTINUOUS
 62
    7
 10
1205.8082613238867
 20
396.83427392055961
 11
1210.984642225937
 21
416.15279044634099
  0
LINE
  8
_1-5_寸法2
  6
CONTINUOUS
 62
    7
 10
1205.8082613238867
 20
463.50094058722647
 11
1205.8082613238867
 21
396.83427392055961
  0
TEXT
  8
_1-5_寸法2
 62
    7
 10
1205.8082613238867
 20
415.16760725389275
 40
30
 41
1
 50
90
  1
20
  0
LINE
  8
_1-5_寸法2
  6
CONTINUOUS
 62
    7
 10
1805.8082613238857
 20
436.83427392055881
 11
1895.8082613238867
 21
436.83427392055785
  0
LINE
  8
_1-5_寸法2
  6
CONTINUOUS
 62
    7
 10
1885.8082613238867
 20
436.83427392055791
 11
1880.6318804218361
 21
456.15279044633928
  0
LINE
  8
_1-5_寸法2
  6
CONTINUOUS
 62
    7
 10
1885.8082613238867
 20
436.83427392055791
 11
1890.984642225937
 21
456.15279044633928
  0
LINE
  8
_1-5_寸法2
  6
CONTINUOUS
 62
    7
 10
1805.8082613238857
 20
463.50094058722567
 11
1895.8082613238867
 21
463.5009405872247
  0
LINE
  8
_1-5_寸法2
  6
CONTINUOUS
 62
    7
 10
1885.8082613238867
 20
463.50094058722476
 11
1890.984642225937
 21
444.18242406144344
  0
LINE
  8
_1-5_寸法2
  6
CONTINUOUS
 62
    7
 10
1885.8082613238867
 20
463.50094058722476
 11
1880.6318804218361
 21
444.18242406144344
  0
LINE
  8
_1-5_寸法2
  6
CONTINUOUS
 62
    7
 10
1885.8082613238867
 20
436.83427392055791
 11
1885.8082613238867
 21
463.50094058722476
  0
TEXT
  8
_1-5_寸法2
 62
    7
 10
1885.8082613238867
 20
442.66760725389162
 40
30
 41
1
 50
90
  1
8
  0
TEXT
  8
_0-7_枠細線
 62
    5
 10
1445.8082613238869
 20
302.14973189060072
 40
50
 41
0.8
 50
0
  1
断面詳細図
  0
TEXT
  8
_0-7_枠細線
 62
    5
 10
1675.706200822224
 20
306.0956516510272
 40
40
 41
0.6
 50
0
  1
Ｓ＝１：３
  0
LINE
  8
_0-a_極細1
  6
CONTINUOUS
 62
    7
 10
893.56665104315641
 20
779.03564182510365
 11
917.56664864315769
 21
779.03564182510365
  0
LINE
  8
_0-a_極細1
  6
CONTINUOUS
 62
    7
 10
893.56665104315641
 20
780.36897502510385
 11
917.56664864315769
 21
780.36897502510385
  0
LINE
  8
_0-a_極細1
  6
CONTINUOUS
 62
    7
 10
893.35180617724734
 20
781.70230822510348
 11
917.56664864315769
 21
781.70230822510348
  0
LINE
  8
_0-a_極細1
  6
CONTINUOUS
 62
    7
 10
892.01847297724714
 20
783.03564142510368
 11
917.56664864315769
 21
783.03564142510368
  0
LINE
  8
_0-a_極細1
  6
CONTINUOUS
 62
    7
 10
890.68513977724695
 20
784.36897462510376
 11
917.56664864315769
 21
784.36897462510376
  0
LINE
  8
_0-a_極細1
  6
CONTINUOUS
 62
    7
 10
891.11482950906509
 20
785.70230782510396
 11
917.56664864315769
 21
785.70230782510396
  0
LINE
  8
_0-a_極細1
  6
CONTINUOUS
 62
    7
 10
892.44816270906529
 20
787.03564102510416
 11
917.56664864315769
 21
787.03564102510416
  0
LINE
  8
_0-a_極細1
  6
CONTINUOUS
 62
    7
 10
893.56665104315641
 20
788.3689742251039
 11
917.56664864315769
 21
788.3689742251039
  0
LINE
  8
_0-a_極細1
  6
CONTINUOUS
 62
    7
 10
893.56665104315641
 20
789.7023074251041
 11
917.56664864315769
 21
789.7023074251041
  0
LINE
  8
_0-a_極細1
  6
CONTINUOUS
 62
    7
 10
893.56665104315641
 20
791.03564062510429
 11
917.56664864315769
 21
791.03564062510429
  0
LINE
  8
_0-a_極細1
  6
CONTINUOUS
 62
    7
 10
893.56665104315641
 20
792.36897382510392
 11
917.56664864315769
 21
792.36897382510392
  0
LINE
  8
_0-a_極細1
  6
CONTINUOUS
 62
    7
 10
893.56665104315641
 20
793.70230702510412
 11
917.56664864315769
 21
793.70230702510412
  0
LINE
  8
_0-a_極細1
  6
CONTINUOUS
 62
    7
 10
893.56665104315641
 20
795.03564022510432
 11
917.56664864315769
 21
795.03564022510432
  0
LINE
  8
_0-a_極細1
  6
CONTINUOUS
 62
    7
 10
893.56665104315641
 20
796.36897342510395
 11
917.56664864315769
 21
796.36897342510395
  0
LINE
  8
_0-a_極細1
  6
CONTINUOUS
 62
    7
 10
892.6851395772461
 20
797.70230662510414
 11
918.03678809164262
 21
797.70230662510414
  0
LINE
  8
_0-a_極細1
  6
CONTINUOUS
 62
    7
 10
891.35180637724591
 20
799.03563982510434
 11
918.74789913164238
 21
799.03563982510434
  0
LINE
  8
_0-a_極細1
  6
CONTINUOUS
 62
    7
 10
890.44816290906613
 20
800.36897302510454
 11
919.45901017164249
 21
800.36897302510454
  0
LINE
  8
_0-a_極細1
  6
CONTINUOUS
 62
    7
 10
891.78149610906632
 20
801.70230622510417
 11
920.17012121164259
 21
801.70230622510417
  0
LINE
  8
_0-a_極細1
  6
CONTINUOUS
 62
    7
 10
893.11482930906573
 20
803.03563942510493
 11
920.8812322516427
 21
803.03563942510493
  0
LINE
  8
_0-a_極細1
  6
CONTINUOUS
 62
    7
 10
893.56665104315641
 20
804.36897262510445
 11
921.59234329164281
 21
804.36897262510445
  0
LINE
  8
_0-a_極細1
  6
CONTINUOUS
 62
    7
 10
893.56665104315641
 20
805.70230582510465
 11
922.30345433164177
 21
805.70230582510465
  0
LINE
  8
_0-a_極細1
  6
CONTINUOUS
 62
    7
 10
960.95375889891773
 20
746.50051478569583
 11
960.95375889891773
 21
849.40014047686361
  0
LINE
  8
_0-a_極細1
  6
CONTINUOUS
 62
    7
 10
959.62042569891787
 20
745.16718158569574
 11
959.62042569891787
 21
849.11173015993199
  0
LINE
  8
_0-a_極細1
  6
CONTINUOUS
 62
    7
 10
958.28709249891847
 20
743.83384838569611
 11
958.28709249891847
 21
848.52447512361312
  0
LINE
  8
_0-a_極細1
  6
CONTINUOUS
 62
    7
 10
956.95375929891827
 20
742.50051518569592
 11
956.95375929891827
 21
847.53595336612364
  0
LINE
  8
_0-a_極細1
  6
CONTINUOUS
 62
    7
 10
955.62042609891807
 20
741.16718198569629
 11
955.62042609891807
 21
845.80914836650379
  0
LINE
  8
_0-a_極細1
  6
CONTINUOUS
 62
    7
 10
954.28709289891788
 20
739.83384878569609
 11
954.28709289891788
 21
840.61216495261419
  0
LINE
  8
_0-a_極細1
  6
CONTINUOUS
 62
    7
 10
952.95375969891768
 20
738.50051558569589
 11
952.95375969891768
 21
837.85042982087475
  0
LINE
  8
_0-a_極細1
  6
CONTINUOUS
 62
    7
 10
951.62042649891748
 20
737.44673442993474
 11
951.62042649891748
 21
836.19914905796566
  0
LINE
  8
_0-a_極細1
  6
CONTINUOUS
 62
    7
 10
950.28709329891728
 20
737.44673442993474
 11
950.28709329891728
 21
835.03097871539069
  0
LINE
  8
_0-a_極細1
  6
CONTINUOUS
 62
    7
 10
948.95376009891709
 20
737.44673442993474
 11
948.95376009891709
 21
834.17409298158589
  0
LINE
  8
_0-a_極細1
  6
CONTINUOUS
 62
    7
 10
947.62042689891689
 20
737.44673442993474
 11
947.62042689891689
 21
833.55244775721019
  0
LINE
  8
_0-a_極細1
  6
CONTINUOUS
 62
    7
 10
946.28709369891783
 20
737.44673442993474
 11
946.28709369891783
 21
833.12604172053511
  0
LINE
  8
_0-a_極細1
  6
CONTINUOUS
 62
    7
 10
944.95376049891763
 20
737.44673442993474
 11
944.95376049891763
 21
832.87263430132555
  0
LINE
  8
_0-a_極細1
  6
CONTINUOUS
 62
    7
 10
943.62042729891743
 20
737.44673442993474
 11
943.62042729891743
 21
832.780614504357
  0
LINE
  8
_0-a_極細1
  6
CONTINUOUS
 62
    7
 10
942.28709409891724
 20
737.44673442993474
 11
942.28709409891724
 21
832.78005822993521
  0
LINE
  8
_0-a_極細1
  6
CONTINUOUS
 62
    7
 10
940.95376089891704
 20
737.44673442993474
 11
940.95376089891704
 21
832.78005822993521
  0
LINE
  8
_0-a_極細1
  6
CONTINUOUS
 62
    7
 10
939.62042769891718
 20
737.44673442993474
 11
939.62042769891718
 21
832.78005822993521
  0
LINE
  8
_0-a_極細1
  6
CONTINUOUS
 62
    7
 10
938.28709449891699
 20
737.44673442993474
 11
938.28709449891699
 21
832.78005822993521
  0
LINE
  8
_0-a_極細1
  6
CONTINUOUS
 62
    7
 10
936.95376129891679
 20
737.44673442993474
 11
936.95376129891679
 21
832.78005822993521
  0
LINE
  8
_0-a_極細1
  6
CONTINUOUS
 62
    7
 10
935.62042809891739
 20
737.44673442993474
 11
935.62042809891739
 21
832.78005822993521
  0
LINE
  8
_0-a_極細1
  6
CONTINUOUS
 62
    7
 10
934.28709489891719
 20
737.44673442993474
 11
934.28709489891719
 21
832.66211799841074
  0
LINE
  8
_0-a_極細1
  6
CONTINUOUS
 62
    7
 10
932.95376169891699
 20
737.44673442993474
 11
932.95376169891699
 21
832.27411940262925
  0
LINE
  8
_0-a_極細1
  6
CONTINUOUS
 62
    7
 10
931.62042849891679
 20
737.44673442993474
 11
931.62042849891679
 21
831.56169805561433
  0
LINE
  8
_0-a_極細1
  6
CONTINUOUS
 62
    7
 10
930.28709529891773
 20
737.44673442993474
 11
930.28709529891773
 21
830.37639722163135
  0
LINE
  8
_0-a_極細1
  6
CONTINUOUS
 62
    7
 10
928.9537620989164
 20
737.44673442993474
 11
928.9537620989164
 21
828.07565156788428
  0
LINE
  8
_0-a_極細1
  6
CONTINUOUS
 62
    7
 10
927.62042889891734
 20
737.44673442993474
 11
927.62042889891734
 21
750.78006642993444
  0
LINE
  8
_0-a_極細1
  6
CONTINUOUS
 62
    7
 10
926.28709569891714
 20
737.44673442993474
 11
926.28709569891714
 21
750.78006642993444
  0
LINE
  8
_0-a_極細1
  6
CONTINUOUS
 62
    7
 10
924.95376249891694
 20
737.44673442993474
 11
924.95376249891694
 21
750.78006642993444
  0
LINE
  8
_0-a_極細1
  6
CONTINUOUS
 62
    7
 10
923.62042929891675
 20
737.44673442993474
 11
923.62042929891675
 21
750.78006642993444
  0
LINE
  8
_0-a_極細1
  6
CONTINUOUS
 62
    7
 10
922.28709609891689
 20
737.44673442993474
 11
922.28709609891689
 21
750.78006642993444
  0
LINE
  8
_0-a_極細1
  6
CONTINUOUS
 62
    7
 10
920.95376289891635
 20
737.44673442993474
 11
920.95376289891635
 21
750.78006642993444
  0
LINE
  8
_0-a_極細1
  6
CONTINUOUS
 62
    7
 10
919.6204296989165
 20
737.44673442993474
 11
919.6204296989165
 21
750.78006642993444
  0
LINE
  8
_0-a_極細1
  6
CONTINUOUS
 62
    7
 10
918.28709649891709
 20
737.44673442993474
 11
918.28709649891709
 21
750.78006642993444
  0
LINE
  8
_0-a_極細1
  6
CONTINUOUS
 62
    7
 10
916.9537632989161
 20
737.44673442993474
 11
916.9537632989161
 21
750.78006642993444
  0
LINE
  8
_0-a_極細1
  6
CONTINUOUS
 62
    7
 10
915.6204300989167
 20
737.44673442993474
 11
915.6204300989167
 21
750.78006642993444
  0
LINE
  8
_0-a_極細1
  6
CONTINUOUS
 62
    7
 10
914.28709689891798
 20
724.1134024299339
 11
914.28709689891798
 21
764.1133984299347
  0
LINE
  8
_0-a_極細1
  6
CONTINUOUS
 62
    7
 10
912.95376369891778
 20
724.1134024299339
 11
912.95376369891778
 21
764.1133984299347
  0
LINE
  8
_0-a_極細1
  6
CONTINUOUS
 62
    7
 10
911.62043049891838
 20
724.1134024299339
 11
911.62043049891838
 21
728.73594399446404
  0
LINE
  8
_0-a_極細1
  6
CONTINUOUS
 62
    7
 10
911.62043049891838
 20
738.11859436274858
 11
911.62043049891838
 21
764.1133984299347
  0
LINE
  8
_0-a_極細1
  6
CONTINUOUS
 62
    7
 10
910.28709729891818
 20
724.1134024299339
 11
910.28709729891818
 21
725.09513120792576
  0
LINE
  8
_0-a_極細1
  6
CONTINUOUS
 62
    7
 10
910.28709729891818
 20
738.11859436274858
 11
910.28709729891818
 21
764.1133984299347
  0
LINE
  8
_0-a_極細1
  6
CONTINUOUS
 62
    7
 10
908.95376409891799
 20
738.11859436274858
 11
908.95376409891799
 21
764.1133984299347
  0
LINE
  8
_0-a_極細1
  6
CONTINUOUS
 62
    7
 10
907.62043089891779
 20
738.11859436274858
 11
907.62043089891779
 21
764.1133984299347
  0
LINE
  8
_0-a_極細1
  6
CONTINUOUS
 62
    7
 10
906.28709769891759
 20
738.11859436274858
 11
906.28709769891759
 21
764.1133984299347
  0
LINE
  8
_0-a_極細1
  6
CONTINUOUS
 62
    7
 10
904.95376449891739
 20
738.11859436274858
 11
904.95376449891739
 21
764.1133984299347
  0
LINE
  8
_0-a_極細1
  6
CONTINUOUS
 62
    7
 10
903.62043129891833
 20
738.11859436274858
 11
903.62043129891833
 21
764.1133984299347
  0
LINE
  8
_0-a_極細1
  6
CONTINUOUS
 62
    7
 10
902.28709809891814
 20
738.11859436274858
 11
902.28709809891814
 21
764.1133984299347
  0
LINE
  8
_0-a_極細1
  6
CONTINUOUS
 62
    7
 10
900.95376489891794
 20
738.11859436274858
 11
900.95376489891794
 21
764.1133984299347
  0
LINE
  8
_0-a_極細1
  6
CONTINUOUS
 62
    7
 10
899.62043169891774
 20
738.11859436274858
 11
899.62043169891774
 21
764.1133984299347
  0
LINE
  8
_0-a_極細1
  6
CONTINUOUS
 62
    7
 10
898.28709849891754
 20
738.11859436274858
 11
898.28709849891754
 21
764.1133984299347
  0
LINE
  8
_0-a_極細1
  6
CONTINUOUS
 62
    7
 10
896.95376529891735
 20
738.11859436274858
 11
896.95376529891735
 21
764.1133984299347
  0
LINE
  8
_0-a_極細1
  6
CONTINUOUS
 62
    7
 10
878.56665254315647
 20
718.11859636274903
 11
878.56665254315647
 21
737.44673442993474
  0
ARC
  8
_0-a_極細1
  6
CONTINUOUS
 62
    7
 10
858.56665454315691
 20
738.11859436274858
 40
19.999997999999998
 50
358.07490068720563
 51
50.029499419965092
  0
LINE
  8
_0-a_極細1
  6
CONTINUOUS
 62
    7
 10
961.75997755715673
 20
840.36896902510364
 11
970.14596400061941
 21
840.36896902510364
  0
LINE
  8
_0-a_極細1
  6
CONTINUOUS
 62
    7
 10
961.75997755715673
 20
841.70230222510384
 11
981.68096284711953
 21
841.70230222510384
  0
LINE
  8
_0-a_極細1
  6
CONTINUOUS
 62
    7
 10
961.75997755715673
 20
843.03563542510346
 11
993.21596169361885
 21
843.03563542510346
  0
LINE
  8
_0-a_極細1
  6
CONTINUOUS
 62
    7
 10
961.75997755715673
 20
844.36896862510366
 11
1004.7509605401193
 21
844.36896862510366
  0
LINE
  8
_0-a_極細1
  6
CONTINUOUS
 62
    7
 10
961.75997755715673
 20
845.70230182510375
 11
1007.8999729431563
 21
845.70230182510375
  0
LINE
  8
_0-a_極細1
  6
CONTINUOUS
 62
    7
 10
961.75997755715673
 20
847.03563502510394
 11
1007.8999729431563
 21
847.03563502510394
  0
LINE
  8
_0-a_極細1
  6
CONTINUOUS
 62
    7
 10
961.75997755715673
 20
848.36896822510414
 11
1007.8999729431563
 21
848.36896822510414
  0
LINE
  8
_0-a_極細1
  6
CONTINUOUS
 62
    7
 10
963.88505874791338
 20
849.70230142510388
 11
1007.8999729431563
 21
849.70230142510388
  0
LINE
  8
_0-a_極細1
  6
CONTINUOUS
 62
    7
 10
973.24638609691408
 20
851.03563462510408
 11
1007.8999729431563
 21
851.03563462510408
  0
LINE
  8
_0-a_極細1
  6
CONTINUOUS
 62
    7
 10
982.60771344591365
 20
852.36896782510428
 11
1007.8999729431563
 21
852.36896782510428
  0
LINE
  8
_0-a_極細1
  6
CONTINUOUS
 62
    7
 10
991.96904079491355
 20
853.70230102510448
 11
1007.8999729431563
 21
853.70230102510448
  0
LINE
  8
_0-a_極細1
  6
CONTINUOUS
 62
    7
 10
1001.3303681439131
 20
855.0356342251041
 11
1007.8999729431563
 21
855.0356342251041
  0
LINE
  8
_0-a_極細1
  6
CONTINUOUS
 62
    7
 10
1007.8999729431563
 20
856.06629590131092
 11
1007.8999729431563
 21
860.6851022038984
  0
LINE
  8
_0-a_極細1
  6
CONTINUOUS
 62
    7
 10
961.75997755715673
 20
854.11338942993495
 11
1007.8999729431563
 21
860.6851022038984
  0
LINE
  8
_0-a_極細1
  6
CONTINUOUS
 62
    7
 10
918.56664854315591
 20
808.11858736274928
 11
918.56664854315591
 21
814.11339342993472
  0
LINE
  8
_0-a_極細1
  6
CONTINUOUS
 62
    7
 10
918.56664854315591
 20
767.45192476274838
 11
918.56664854315591
 21
777.45192376274815
  0
LINE
  8
_0-a_極細1
  6
CONTINUOUS
 62
    7
 10
893.56665104315641
 20
796.8207951591944
 11
893.56665104315641
 21
788.15412935919483
  0
LINE
  8
_0-a_極細1
  6
CONTINUOUS
 62
    7
 10
893.56665104315641
 20
781.48746335919429
 11
893.56665104315641
 21
778.15413035919505
  0
LINE
  8
_0-a_極細1
  6
CONTINUOUS
 62
    7
 10
917.56664864315769
 20
796.8207951591944
 11
917.56664864315769
 21
778.15413035919505
  0
LINE
  8
_0-a_極細1
  6
CONTINUOUS
 62
    7
 10
890.23331804315626
 20
800.15412815919478
 11
893.56665104315641
 21
803.48746115919482
  0
LINE
  8
_0-a_極細1
  6
CONTINUOUS
 62
    7
 10
893.56665104315641
 20
796.8207951591944
 11
890.23331804315626
 21
800.15412815919478
  0
LINE
  8
_0-a_極細1
  6
CONTINUOUS
 62
    7
 10
893.56665104315641
 20
781.48746335919429
 11
890.23331804315626
 21
784.82079635919479
  0
LINE
  8
_0-a_極細1
  6
CONTINUOUS
 62
    7
 10
890.23331804315626
 20
784.82079635919479
 11
893.56665104315641
 21
788.15412935919483
  0
LINE
  8
_0-a_極細1
  6
CONTINUOUS
 62
    7
 10
917.56664864315769
 20
796.8207951591944
 11
922.89998144315655
 21
806.82079415919418
  0
LINE
  8
_0-a_極細1
  6
CONTINUOUS
 62
    7
 10
893.56665104315641
 20
806.82079415919418
 11
893.56665104315641
 21
803.48746115919482
  0
ARC
  8
_0-a_極細1
  6
CONTINUOUS
 62
    7
 10
934.89998024315685
 20
847.4467234299351
 40
3.3333330000000005
 50
24.054548999993997
 51
89.999999999999915
  0
ARC
  8
_0-a_極細1
  6
CONTINUOUS
 62
    7
 10
936.89998004315714
 20
838.78005762993496
 40
1.3333331999999243
 50
269.99999999999977
 51
359.99999999999966
  0
ARC
  8
_0-a_極細1
  6
CONTINUOUS
 62
    7
 10
934.89998024315685
 20
847.4467234299351
 40
3.3333330000000005
 50
0
 51
24.054548999993997
  0
LINE
  8
_0-a_極細1
  6
CONTINUOUS
 62
    7
 10
923.89998134315636
 20
817.44672642993453
 11
923.89998134315863
 21
837.44672442993476
  0
LINE
  8
_0-a_極細1
  6
CONTINUOUS
 62
    7
 10
923.89998134315863
 20
837.44672442993476
 11
936.89998004315714
 21
837.44672442993476
  0
LINE
  8
_0-a_極細1
  6
CONTINUOUS
 62
    7
 10
938.23331324315654
 20
838.78005762993496
 11
938.23331324315654
 21
847.4467234299351
  0
LINE
  8
_0-a_極細1
  6
CONTINUOUS
 62
    7
 10
915.23331554315621
 20
737.44673442993474
 11
951.89997854315595
 21
737.44673442993474
  0
LINE
  8
_0-a_極細1
  6
CONTINUOUS
 62
    7
 10
909.69875609661233
 20
724.1134024299339
 11
915.23331554315621
 21
724.1134024299339
  0
LINE
  8
_0-a_極細1
  6
CONTINUOUS
 62
    7
 10
915.23331554315621
 20
755.44673262993513
 11
923.89998134315636
 21
755.44673262993513
  0
LINE
  8
_0-a_極細1
  6
CONTINUOUS
 62
    7
 10
915.23331554315621
 20
750.78006642993444
 11
928.56664754315591
 21
750.78006642993444
  0
LINE
  8
_0-a_極細1
  6
CONTINUOUS
 62
    7
 10
915.23331554315621
 20
724.1134024299339
 11
915.23331554315621
 21
764.1133984299347
  0
LINE
  8
_0-a_極細1
  6
CONTINUOUS
 62
    7
 10
961.75997755715673
 20
747.30673344393438
 11
951.89997854315595
 21
737.44673442993474
  0
LINE
  8
_0-a_極細1
  6
CONTINUOUS
 62
    7
 10
928.56664754315591
 20
750.78006642993444
 11
928.56664754315705
 21
825.78005892993417
  0
ARC
  8
_0-a_極細1
  6
CONTINUOUS
 62
    7
 10
935.56664684315615
 20
825.78005892993417
 40
6.9999993000000771
 50
89.999999999999915
 51
179.99999999999983
  0
LINE
  8
_0-a_極細1
  6
CONTINUOUS
 62
    7
 10
943.50813938234171
 20
832.78005822993521
 11
935.56664684315615
 21
832.78005822993521
  0
ARC
  8
_0-a_極細1
  6
CONTINUOUS
 62
    7
 10
943.50813938234171
 20
844.11339042993461
 40
11.333332199999923
 50
269.99999999999977
 51
356.64911199999887
  0
ARC
  8
_0-a_極細1
  6
CONTINUOUS
 62
    7
 10
943.50813938234171
 20
844.11339042993461
 40
6.6666660000000011
 50
269.99999999999977
 51
356.64911199999932
  0
ARC
  8
_0-a_極細1
  6
CONTINUOUS
 62
    7
 10
961.75997755715673
 20
842.44672392993436
 40
11.666665500000002
 50
89.999999999999915
 51
175.84900999999778
  0
ARC
  8
_0-a_極細1
  6
CONTINUOUS
 62
    7
 10
935.56664684315615
 20
825.78005892993417
 40
11.666665500000002
 50
89.999999999999915
 51
179.99999999999983
  0
LINE
  8
_0-a_極細1
  6
CONTINUOUS
 62
    7
 10
938.56664654315659
 20
837.44672442993476
 11
938.56664654315659
 21
854.11338942993495
  0
LINE
  8
_0-a_極細1
  6
CONTINUOUS
 62
    7
 10
923.89998134315636
 20
755.44673262993513
 11
923.89998134315636
 21
825.78005892993417
  0
LINE
  8
_0-a_極細1
  6
CONTINUOUS
 62
    7
 10
943.50813938234171
 20
837.44672442993476
 11
935.56664684315615
 21
837.44672442993476
  0
LINE
  8
_0-a_極細1
  6
CONTINUOUS
 62
    7
 10
896.89998404315691
 20
764.1133984299347
 11
923.89998134315636
 21
764.1133984299347
  0
LINE
  8
_0-a_極細1
  6
CONTINUOUS
 62
    7
 10
1007.8999729431563
 20
844.73296370131095
 11
961.75997755715673
 21
839.39963090131073
  0
LINE
  8
_0-a_極細1
  6
CONTINUOUS
 62
    7
 10
961.75997755715446
 20
712.73297690131074
 11
951.89997854315595
 21
718.06630970131039
  0
LINE
  8
_0-a_極細1
  6
CONTINUOUS
 62
    7
 10
951.89997854315595
 20
718.06630970131039
 11
951.89997854315595
 21
737.44673442993474
  0
LINE
  8
_0-a_極細1
  6
CONTINUOUS
 62
    7
 10
1007.8999729431563
 20
755.10124599781761
 11
1007.8999729431563
 21
860.59014878225923
  0
LINE
  8
_0-a_極細1
  6
CONTINUOUS
 62
    7
 10
981.89997554315585
 20
751.39963970131078
 11
1007.8999729431563
 21
751.39963970131078
  0
LINE
  8
_0-a_極細1
  6
CONTINUOUS
 62
    7
 10
1007.8999729431563
 20
751.39963970131078
 11
1007.8999729431563
 21
755.10124599781761
  0
LINE
  8
_0-a_極細1
  6
CONTINUOUS
 62
    7
 10
981.89997554315585
 20
698.06631170131027
 11
981.89997554315585
 21
751.39963970131078
  0
LINE
  8
_0-a_極細1
  6
CONTINUOUS
 62
    7
 10
961.75997755715673
 20
849.39962625963858
 11
1007.8999729431563
 21
855.97134257747246
  0
LINE
  8
_0-a_極細1
  6
CONTINUOUS
 62
    7
 10
961.75997755715673
 20
747.30673344393438
 11
961.75997755715673
 21
849.4467232299354
  0
ARC
  8
_0-a_極細1
  6
CONTINUOUS
 62
    7
 10
961.75997755715673
 20
842.44672392993436
 40
6.9999993000000771
 50
89.999999999999915
 51
175.84900999999752
  0
LINE
  8
_0-a_極細1
  6
CONTINUOUS
 62
    7
 10
898.56665054315602
 20
718.11859636274903
 11
878.56665254315647
 21
718.11859636274903
  0
ARC
  8
_0-a_極細1
  6
CONTINUOUS
 62
    7
 10
898.56665054315602
 20
731.4519283627493
 40
13.333332000000002
 50
269.99999999999977
 51
359.99999999999966
  0
LINE
  8
_0-a_極細1
  6
CONTINUOUS
 62
    7
 10
911.89998254315685
 20
731.4519283627493
 11
911.89998254315685
 21
738.11859436274858
  0
LINE
  8
_0-a_極細1
  6
CONTINUOUS
 62
    7
 10
911.89998254315685
 20
738.11859436274858
 11
896.89998404315691
 21
738.11859436274858
  0
LINE
  8
_0-a_極細1
  6
CONTINUOUS
 62
    7
 10
918.56664854315591
 20
767.45192476274838
 11
896.89998404315691
 21
767.45192476274838
  0
LINE
  8
_0-a_極細1
  6
CONTINUOUS
 62
    7
 10
896.89998404315691
 20
738.11859436274858
 11
896.89998404315691
 21
767.45192476274894
  0
LINE
  8
_0-a_極細1
  6
CONTINUOUS
 62
    7
 10
916.56664874315754
 20
814.11339342993472
 11
916.56664874315754
 21
820.78005942993457
  0
ARC
  8
_0-a_極細1
  6
CONTINUOUS
 62
    7
 10
920.5666483431562
 20
817.44672642993453
 40
3.3333330000000005
 50
269.99999999999977
 51
359.99999999999966
  0
CIRCLE
  8
_0-a_極細1
  6
CONTINUOUS
 62
    7
 10
925.40118023380376
 20
796.88766116454246
 40
124.1013462770983
  0
ARC
  8
_0-a_極細1
  6
CONTINUOUS
 62
    7
 10
998.56664054315604
 20
669.19880125472889
 40
33.333330000000004
 50
120.00000000000082
 51
161.13978923390184
  0
LINE
  8
_0-a_極細1
  6
CONTINUOUS
 62
    7
 10
948.5666455431558
 20
674.96758338901998
 11
948.5666455431558
 21
712.73297690131074
  0
LINE
  8
_0-a_極細1
  6
CONTINUOUS
 62
    7
 10
979.26152041654052
 20
696.37274513090972
 11
981.89997554315698
 21
699.01120025752505
  0
LINE
  8
_0-a_極細1
  6
CONTINUOUS
 62
    7
 10
948.5666455431566
 20
675.10595973053682
 11
981.89997554315698
 21
708.43928973053664
  0
LINE
  8
_0-a_極細1
  6
CONTINUOUS
 62
    7
 10
948.5666455431558
 20
679.82000446704262
 11
981.89997554315698
 21
713.15333446704301
  0
LINE
  8
_0-a_極細1
  6
CONTINUOUS
 62
    7
 10
948.5666455431558
 20
684.53404920354842
 11
981.89997554315698
 21
717.86737920354869
  0
LINE
  8
_0-a_極細1
  6
CONTINUOUS
 62
    7
 10
948.5666455431558
 20
689.24809394005422
 11
981.89997554315698
 21
722.58142394005461
  0
LINE
  8
_0-a_極細1
  6
CONTINUOUS
 62
    7
 10
948.5666455431558
 20
693.96213867656002
 11
981.89997554315698
 21
727.2954686765604
  0
LINE
  8
_0-a_極細1
  6
CONTINUOUS
 62
    7
 10
1006.0041465679068
 20
751.39963970131078
 11
1007.8999729431563
 21
753.29546607656027
  0
LINE
  8
_0-a_極細1
  6
CONTINUOUS
 62
    7
 10
948.5666455431558
 20
698.67618341306581
 11
981.89997554315698
 21
732.0095134130662
  0
LINE
  8
_0-a_極細1
  6
CONTINUOUS
 62
    7
 10
1001.2901018314016
 20
751.39963970131078
 11
1007.8999729431563
 21
758.00951081306607
  0
LINE
  8
_0-a_極細1
  6
CONTINUOUS
 62
    7
 10
948.5666455431558
 20
703.3902281495715
 11
957.90939429489515
 21
712.73297690131074
  0
LINE
  8
_0-a_極細1
  6
CONTINUOUS
 62
    7
 10
959.26106898107707
 20
714.08465158749266
 11
981.89997554315698
 21
736.72355814957189
  0
LINE
  8
_0-a_極細1
  6
CONTINUOUS
 62
    7
 10
996.57605709489519
 20
751.39963970131078
 11
1007.8999729431563
 21
762.72355554957244
  0
LINE
  8
_0-a_極細1
  6
CONTINUOUS
 62
    7
 10
948.5666455431558
 20
708.10427288607741
 11
953.19534955838992
 21
712.73297690131119
  0
LINE
  8
_0-a_極細1
  6
CONTINUOUS
 62
    7
 10
956.20180080850434
 20
715.7394281514263
 11
981.89997554315698
 21
741.4376028860778
  0
LINE
  8
_0-a_極細1
  6
CONTINUOUS
 62
    7
 10
991.86201235838882
 20
751.39963970131021
 11
1007.8999729431563
 21
767.43760028607824
  0
LINE
  8
_0-a_極細1
  6
CONTINUOUS
 62
    7
 10
953.14253263593275
 20
717.39420471535993
 11
981.89997554315698
 21
746.1516476225836
  0
LINE
  8
_0-a_極細1
  6
CONTINUOUS
 62
    7
 10
987.14796762188246
 20
751.39963970131021
 11
1007.8999729431563
 21
772.15164502258347
  0
LINE
  8
_0-a_極細1
  6
CONTINUOUS
 62
    7
 10
951.89997854315629
 20
720.86569535908893
 11
981.89997554315698
 21
750.86569235908939
  0
LINE
  8
_0-a_極細1
  6
CONTINUOUS
 62
    7
 10
982.43392288537757
 20
751.39963970131021
 11
1007.8999729431563
 21
776.86568975908926
  0
LINE
  8
_0-a_極細1
  6
CONTINUOUS
 62
    7
 10
951.89997854315629
 20
725.57974009559473
 11
1007.8999729431563
 21
781.57973449559506
  0
LINE
  8
_0-a_極細1
  6
CONTINUOUS
 62
    7
 10
951.89997854315629
 20
730.29378483210053
 11
1007.8999729431563
 21
786.29377923210143
  0
LINE
  8
_0-a_極細1
  6
CONTINUOUS
 62
    7
 10
951.89997854315629
 20
735.00782956860633
 11
1007.8999729431563
 21
791.00782396860711
  0
LINE
  8
_0-a_極細1
  6
CONTINUOUS
 62
    7
 10
961.75997755715673
 20
749.58187331911347
 11
1007.8999729431563
 21
795.72186870511302
  0
LINE
  8
_0-a_極細1
  6
CONTINUOUS
 62
    7
 10
961.75997755715673
 20
754.2959180556187
 11
1007.8999729431563
 21
800.43591344161825
  0
LINE
  8
_0-a_極細1
  6
CONTINUOUS
 62
    7
 10
961.75997755715673
 20
759.0099627921245
 11
1007.8999729431563
 21
805.14995817812405
  0
LINE
  8
_0-a_極細1
  6
CONTINUOUS
 62
    7
 10
961.75997755715673
 20
763.7240075286303
 11
1007.8999729431563
 21
809.86400291462985
  0
LINE
  8
_0-a_極細1
  6
CONTINUOUS
 62
    7
 10
961.75997755715673
 20
768.43805226513666
 11
1007.8999729431563
 21
814.57804765113565
  0
LINE
  8
_0-a_極細1
  6
CONTINUOUS
 62
    7
 10
961.75997755715673
 20
773.15209700164246
 11
1007.8999729431563
 21
819.29209238764145
  0
LINE
  8
_0-a_極細1
  6
CONTINUOUS
 62
    7
 10
961.75997755715673
 20
777.86614173814769
 11
1007.8999729431563
 21
824.00613712414781
  0
LINE
  8
_0-a_極細1
  6
CONTINUOUS
 62
    7
 10
961.75997755715673
 20
782.58018647465394
 11
1007.8999729431563
 21
828.7201818606535
  0
LINE
  8
_0-a_極細1
  6
CONTINUOUS
 62
    7
 10
961.75997755715673
 20
787.29423121115985
 11
1007.8999729431563
 21
833.43422659715884
  0
LINE
  8
_0-a_極細1
  6
CONTINUOUS
 62
    7
 10
961.75997755715673
 20
792.00827594766565
 11
1007.8999729431563
 21
838.14827133366464
  0
LINE
  8
_0-a_極細1
  6
CONTINUOUS
 62
    7
 10
961.75997755715673
 20
796.72232068417077
 11
1007.8999729431563
 21
842.86231607017044
  0
LINE
  8
_0-a_極細1
  6
CONTINUOUS
 62
    7
 10
961.75997755715673
 20
801.43636542067668
 11
1004.6849506647321
 21
844.36133852825208
  0
LINE
  8
_0-a_極細1
  6
CONTINUOUS
 62
    7
 10
961.75997755715673
 20
806.15041015718248
 11
999.3547916022668
 21
843.74522420229141
  0
LINE
  8
_0-a_極細1
  6
CONTINUOUS
 62
    7
 10
961.75997755715673
 20
810.86445489368828
 11
994.02463253979954
 21
843.12910987633074
  0
LINE
  8
_0-a_極細1
  6
CONTINUOUS
 62
    7
 10
961.75997755715673
 20
815.57849963019407
 11
988.69447347733387
 21
842.51299555037065
  0
LINE
  8
_0-a_極細1
  6
CONTINUOUS
 62
    7
 10
961.75997755715673
 20
820.29254436669987
 11
983.36431441486661
 21
841.89688122440998
  0
LINE
  8
_0-a_極細1
  6
CONTINUOUS
 62
    7
 10
961.75997755715673
 20
825.00658910320567
 11
978.03415535240015
 21
841.28076689844931
  0
LINE
  8
_0-a_極細1
  6
CONTINUOUS
 62
    7
 10
961.75997755715673
 20
829.72063383971147
 11
972.70399628993448
 21
840.66465257248854
  0
LINE
  8
_0-a_極細1
  6
CONTINUOUS
 62
    7
 10
961.75997755715673
 20
834.43467857621715
 11
967.37383722746802
 21
840.04853824652798
  0
LINE
  8
_0-a_極細1
  6
CONTINUOUS
 62
    7
 10
961.75997755715673
 20
839.14872331272306
 11
962.04367816500155
 21
839.43242392056732
  0
LINE
  8
_0-a_極細1
  6
CONTINUOUS
 62
    7
 10
954.39563737365222
 20
676.22090682452722
 11
981.89997554315698
 21
703.72524499403085
  0
LINE
  8
_0-a_極細1
  6
CONTINUOUS
 62
    7
 10
960.8438428859406
 20
677.95506760030946
 11
971.39269666697476
 21
688.50392138134396
  0
LINE
  8
_0-a_極細1
  6
CONTINUOUS
 62
    7
 10
834.19189745872575
 20
712.73297690131074
 11
961.75997755715446
 21
712.73297690131074
  0
LINE
  8
_0-a_極細1
  6
CONTINUOUS
 62
    7
 10
829.54535776433681
 20
718.06630970131039
 11
951.89997854315595
 21
718.06630970131039
  0
LINE
  8
_0-a_極細1
  6
CONTINUOUS
 62
    7
 10
816.46119502763918
 20
737.44673442993474
 11
878.56665254315647
 21
737.44673442993474
  0
LINE
  8
_0-a_極細1
  6
CONTINUOUS
 62
    7
 10
818.9538662018457
 20
860.6851022038984
 11
1007.8999729431563
 21
860.6851022038984
  0
LINE
  8
_0-a_極細1
  6
CONTINUOUS
 62
    7
 10
815.28142645509308
 20
854.11338942993541
 11
961.75997755715673
 21
854.11338942993495
  0
LINE
  8
_0-a_極細1
  6
CONTINUOUS
 62
    7
 10
813.61229938983445
 20
850.78005642993492
 11
934.89998024315685
 21
850.78005642993446
  0
LINE
  8
_0-a_極細1
  6
CONTINUOUS
 62
    7
 10
803.62147152616922
 20
820.78005942993502
 11
916.56664874315754
 21
820.78005942993457
  0
LINE
  8
_0-a_極細1
  6
CONTINUOUS
 62
    7
 10
802.50114648397346
 20
814.11339342993472
 11
920.5666483431562
 21
814.11339342993472
  0
LINE
  8
_0-a_極細1
  6
CONTINUOUS
 62
    7
 10
918.56664854315591
 20
808.11858736274928
 11
801.80906703672792
 21
808.11858736274928
  0
LINE
  8
_0-a_極細1
  6
CONTINUOUS
 62
    7
 10
801.69799912394285
 20
806.82079415919475
 11
922.89998144315655
 21
806.82079415919418
  0
LINE
  8
_0-a_極細1
  6
CONTINUOUS
 62
    7
 10
801.3428296839063
 20
800.15412815919478
 11
890.23331804315626
 21
800.15412815919478
  0
LINE
  8
_0-a_極細1
  6
CONTINUOUS
 62
    7
 10
801.8878816722405
 20
784.82079635919479
 11
890.23331804315626
 21
784.82079635919479
  0
LINE
  8
_0-a_極細1
  6
CONTINUOUS
 62
    7
 10
802.72192782593595
 20
778.15413035919505
 11
917.56664864315769
 21
778.15413035919505
  0
LINE
  8
_0-a_極細1
  6
CONTINUOUS
 62
    7
 10
918.56664854315591
 20
777.45192376274815
 11
802.83121548127178
 21
777.45192376274815
  0
LINE
  8
_0-a_極細1
  6
CONTINUOUS
 62
    7
 10
896.89998404315691
 20
767.45192476274894
 11
804.84131307116763
 21
767.45192476274894
  0
LINE
  8
_0-d_寸法1
  6
CONTINUOUS
 62
    7
 10
994.61061548094438
 20
848.07310451103547
 11
1002.7744466047899
 21
866.33103049898182
  0
LINE
  8
_0-d_寸法1
  6
CONTINUOUS
 62
    7
 10
994.61061548094438
 20
848.07310451103547
 11
1010.8096636203738
 21
859.80301667509036
  0
LINE
  8
_0-d_寸法1
  6
CONTINUOUS
 62
    7
 10
994.61061548094438
 20
848.07310451103547
 11
1035.5264910055562
 21
898.43573364941676
  0
LINE
  8
_0-d_寸法1
  6
CONTINUOUS
 62
    7
 10
1035.5264910055562
 20
898.43573364941676
 11
1123.5264910055562
 21
898.43573364941676
  0
TEXT
  8
_0-d_寸法1
 62
    7
 10
1035.5264910055562
 20
898.43573364941676
 40
30
 41
0.7333333333333333
 50
0
  1
パッキン
  0
LINE
  8
_0-a_極細1
  6
CONTINUOUS
 62
    7
 10
859.62043569891864
 20
726.11340222993476
 11
859.62043569891864
 21
737.44673442993474
  0
LINE
  8
_0-a_極細1
  6
CONTINUOUS
 62
    7
 10
858.28710249891844
 20
726.11340222993476
 11
858.28710249891844
 21
737.44673442993474
  0
LINE
  8
_0-a_極細1
  6
CONTINUOUS
 62
    7
 10
856.95376929891825
 20
726.11340222993476
 11
856.95376929891825
 21
737.44673442993474
  0
LINE
  8
_0-a_極細1
  6
CONTINUOUS
 62
    7
 10
855.62043609891805
 20
726.11340222993476
 11
855.62043609891805
 21
737.44673442993474
  0
LINE
  8
_0-a_極細1
  6
CONTINUOUS
 62
    7
 10
854.28710289891785
 20
726.11340222993476
 11
854.28710289891785
 21
737.44673442993474
  0
LINE
  8
_0-a_極細1
  6
CONTINUOUS
 62
    7
 10
852.95376969891765
 20
726.11340222993476
 11
852.95376969891765
 21
737.44673442993474
  0
LINE
  8
_0-a_極細1
  6
CONTINUOUS
 62
    7
 10
851.6204364989178
 20
726.11340222993476
 11
851.6204364989178
 21
737.44673442993474
  0
LINE
  8
_0-a_極細1
  6
CONTINUOUS
 62
    7
 10
850.2871032989184
 20
726.11340222993476
 11
850.2871032989184
 21
737.44673442993474
  0
LINE
  8
_0-a_極細1
  6
CONTINUOUS
 62
    7
 10
848.9537700989182
 20
726.11340222993476
 11
848.9537700989182
 21
737.44673442993474
  0
LINE
  8
_0-a_極細1
  6
CONTINUOUS
 62
    7
 10
847.620436898918
 20
726.11340222993476
 11
847.620436898918
 21
737.44673442993474
  0
LINE
  8
_0-a_極細1
  6
CONTINUOUS
 62
    7
 10
846.2871036989178
 20
726.11340222993476
 11
846.2871036989178
 21
737.44673442993474
  0
LINE
  8
_0-a_極細1
  6
CONTINUOUS
 62
    7
 10
844.95377049891761
 20
726.11340222993476
 11
844.95377049891761
 21
737.44673442993474
  0
LINE
  8
_0-a_極細1
  6
CONTINUOUS
 62
    7
 10
843.62043729891741
 20
726.11340222993476
 11
843.62043729891741
 21
737.44673442993474
  0
LINE
  8
_0-a_極細1
  6
CONTINUOUS
 62
    7
 10
842.28710409891721
 20
726.11340222993476
 11
842.28710409891721
 21
737.44673442993474
  0
LINE
  8
_0-a_極細1
  6
CONTINUOUS
 62
    7
 10
840.95377089891701
 20
726.11340222993476
 11
840.95377089891701
 21
737.44673442993474
  0
LINE
  8
_0-a_極細1
  6
CONTINUOUS
 62
    7
 10
839.62043769891795
 20
726.11340222993476
 11
839.62043769891795
 21
737.44673442993474
  0
LINE
  8
_0-a_極細1
  6
CONTINUOUS
 62
    7
 10
838.28710449891776
 20
726.11340222993476
 11
838.28710449891776
 21
737.44673442993474
  0
LINE
  8
_0-a_極細1
  6
CONTINUOUS
 62
    7
 10
836.95377129891756
 20
726.11340222993476
 11
836.95377129891756
 21
737.44673442993474
  0
LINE
  8
_0-a_極細1
  6
CONTINUOUS
 62
    7
 10
835.62043809891736
 20
726.11340222993476
 11
835.62043809891736
 21
737.44673442993474
  0
LINE
  8
_0-a_極細1
  6
CONTINUOUS
 62
    7
 10
834.28710489891716
 20
726.11340222993476
 11
834.28710489891716
 21
737.44673442993474
  0
LINE
  8
_0-a_極細1
  6
CONTINUOUS
 62
    7
 10
832.95377169891697
 20
726.11340222993476
 11
832.95377169891697
 21
737.44673442993474
  0
LINE
  8
_0-a_極細1
  6
CONTINUOUS
 62
    7
 10
831.62043849891711
 20
726.11340222993476
 11
831.62043849891711
 21
737.44673442993474
  0
LINE
  8
_0-a_極細1
  6
CONTINUOUS
 62
    7
 10
830.28710529891771
 20
726.11340222993476
 11
830.28710529891771
 21
737.44673442993474
  0
LINE
  8
_0-a_極細1
  6
CONTINUOUS
 62
    7
 10
828.95377209891672
 20
726.11340222993476
 11
828.95377209891672
 21
737.44673442993474
  0
LINE
  8
_0-a_極細1
  6
CONTINUOUS
 62
    7
 10
827.62043889891731
 20
726.11340222993476
 11
827.62043889891731
 21
737.44673442993474
  0
LINE
  8
_0-a_極細1
  6
CONTINUOUS
 62
    7
 10
860.47540768561464
 20
726.11340222993476
 11
860.47540768561464
 21
737.44673442993474
  0
LINE
  8
_0-a_極細1
  6
CONTINUOUS
 62
    7
 10
827.14207768561425
 20
726.11340222993476
 11
827.14207768561425
 21
737.44673442993474
  0
LINE
  8
_0-a_極細1
  6
CONTINUOUS
 62
    7
 10
827.14207768561425
 20
726.11340222993476
 11
860.47540768561464
 21
726.11340222993476
  0
ARC
  8
_0-a_極細1
  6
CONTINUOUS
 62
    7
 10
848.56665554315657
 20
720.61356944658485
 40
39.999995999999996
 50
55.166292356155729
 51
148.68484545273029
  0
LINE
  8
_0-a_極細1
  6
CONTINUOUS
 62
    7
 10
878.48022796917451
 20
737.44673442993474
 11
878.48022796917451
 21
739.97588093369075
  0
LINE
  8
_0-a_極細1
  6
CONTINUOUS
 62
    7
 10
876.48022796917519
 20
737.44673442993474
 11
876.48022796917519
 21
747.01262646920497
  0
LINE
  8
_0-a_極細1
  6
CONTINUOUS
 62
    7
 10
874.48022796917473
 20
737.44673442993474
 11
874.48022796917473
 21
750.23297015412766
  0
LINE
  8
_0-a_極細1
  6
CONTINUOUS
 62
    7
 10
872.48022796917542
 20
737.44673442993474
 11
872.48022796917542
 21
752.48565371805228
  0
LINE
  8
_0-a_極細1
  6
CONTINUOUS
 62
    7
 10
870.48022796917496
 20
737.44673442993474
 11
870.48022796917496
 21
754.07690794604821
  0
LINE
  8
_0-a_極細1
  6
CONTINUOUS
 62
    7
 10
868.48022796917451
 20
737.44673442993474
 11
868.48022796917451
 21
755.30433642043192
  0
LINE
  8
_0-a_極細1
  6
CONTINUOUS
 62
    7
 10
866.48022796917519
 20
737.44673442993474
 11
866.48022796917519
 21
756.37812736273759
  0
LINE
  8
_0-a_極細1
  6
CONTINUOUS
 62
    7
 10
864.48022796917473
 20
737.44673442993474
 11
864.48022796917473
 21
757.31176957468222
  0
LINE
  8
_0-a_極細1
  6
CONTINUOUS
 62
    7
 10
862.48022796917462
 20
737.44673442993474
 11
862.48022796917462
 21
758.11573181551978
  0
LINE
  8
_0-a_極細1
  6
CONTINUOUS
 62
    7
 10
860.48022796917496
 20
737.44673442993474
 11
860.48022796917496
 21
758.79820604365136
  0
LINE
  8
_0-a_極細1
  6
CONTINUOUS
 62
    7
 10
858.48022796917451
 20
737.44673442993474
 11
858.48022796917451
 21
759.36561147992961
  0
LINE
  8
_0-a_極細1
  6
CONTINUOUS
 62
    7
 10
856.48022796917519
 20
737.44673442993474
 11
856.48022796917519
 21
759.82294398199656
  0
LINE
  8
_0-a_極細1
  6
CONTINUOUS
 62
    7
 10
854.48022796917473
 20
737.44673442993474
 11
854.48022796917473
 21
760.17402117760355
  0
LINE
  8
_0-a_極細1
  6
CONTINUOUS
 62
    7
 10
852.48022796917462
 20
737.44673442993474
 11
852.48022796917462
 21
760.42165444029365
  0
LINE
  8
_0-a_極細1
  6
CONTINUOUS
 62
    7
 10
850.48022796917496
 20
737.44673442993474
 11
850.48022796917496
 21
760.56776723067799
  0
LINE
  8
_0-a_極細1
  6
CONTINUOUS
 62
    7
 10
848.48022796917451
 20
737.44673442993474
 11
848.48022796917451
 21
760.61347207489746
  0
LINE
  8
_0-a_極細1
  6
CONTINUOUS
 62
    7
 10
846.48022796917405
 20
737.44673442993474
 11
846.48022796917405
 21
760.55911362836525
  0
LINE
  8
_0-a_極細1
  6
CONTINUOUS
 62
    7
 10
844.48022796917473
 20
737.44673442993474
 11
844.48022796917473
 21
760.40428180113611
  0
LINE
  8
_0-a_極細1
  6
CONTINUOUS
 62
    7
 10
842.48022796917428
 20
737.44673442993474
 11
842.48022796917428
 21
760.14779612912776
  0
LINE
  8
_0-a_極細1
  6
CONTINUOUS
 62
    7
 10
840.48022796917496
 20
737.44673442993474
 11
840.48022796917496
 21
759.78765997962444
  0
LINE
  8
_0-a_極細1
  6
CONTINUOUS
 62
    7
 10
838.48022796917451
 20
737.44673442993474
 11
838.48022796917451
 21
759.32098034934143
  0
LINE
  8
_0-a_極細1
  6
CONTINUOUS
 62
    7
 10
836.48022796917405
 20
737.44673442993474
 11
836.48022796917405
 21
758.74384545527562
  0
LINE
  8
_0-a_極細1
  6
CONTINUOUS
 62
    7
 10
834.48022796917473
 20
737.44673442993474
 11
834.48022796917473
 21
758.05114733569212
  0
LINE
  8
_0-a_極細1
  6
CONTINUOUS
 62
    7
 10
832.48022796917428
 20
737.44673442993474
 11
832.48022796917428
 21
757.2363291447158
  0
LINE
  8
_0-a_極細1
  6
CONTINUOUS
 62
    7
 10
830.48022796917417
 20
737.44673442993474
 11
830.48022796917417
 21
756.29102475958518
  0
LINE
  8
_0-a_極細1
  6
CONTINUOUS
 62
    7
 10
828.48022796917451
 20
737.44673442993474
 11
828.48022796917451
 21
755.20453802676798
  0
LINE
  8
_0-a_極細1
  6
CONTINUOUS
 62
    7
 10
826.48022796917405
 20
737.44673442993474
 11
826.48022796917405
 21
753.96307314632963
  0
LINE
  8
_0-a_極細1
  6
CONTINUOUS
 62
    7
 10
824.48022796917473
 20
737.44673442993474
 11
824.48022796917473
 21
752.54856101889231
  0
LINE
  8
_0-a_極細1
  6
CONTINUOUS
 62
    7
 10
822.48022796917428
 20
737.44673442993474
 11
822.48022796917428
 21
750.93679448000444
  0
LINE
  8
_0-a_極細1
  6
CONTINUOUS
 62
    7
 10
820.48022796917417
 20
737.44673442993474
 11
820.48022796917417
 21
749.09430444643135
  0
LINE
  8
_0-a_極細1
  6
CONTINUOUS
 62
    7
 10
818.48022796917451
 20
737.44673442993474
 11
818.48022796917451
 21
746.97275296648058
  0
LINE
  8
_0-a_極細1
  6
CONTINUOUS
 62
    7
 10
816.48022796917405
 20
737.44673442993474
 11
816.48022796917405
 21
744.49789161698834
  0
LINE
  8
_0-a_極細1
  6
CONTINUOUS
 62
    7
 10
814.4802279691736
 20
741.2307972886822
 11
814.4802279691736
 21
741.54476948967101
  0
LINE
  8
_0-d_寸法1
  6
CONTINUOUS
 62
    7
 10
908.53685086630423
 20
787.18065446558569
 11
922.67891565398463
 21
773.03844800615911
  0
LINE
  8
_0-d_寸法1
  6
CONTINUOUS
 62
    7
 10
908.53685086630423
 20
787.18065446558569
 11
913.7131350046875
 21
767.86211201231754
  0
LINE
  8
_0-d_寸法1
  6
CONTINUOUS
 62
    7
 10
908.53685086630423
 20
787.18065446558569
 11
989.31794470367038
 21
647.26207715186081
  0
LINE
  8
_0-d_寸法1
  6
CONTINUOUS
 62
    7
 10
989.31794470367038
 20
647.26207715186081
 11
1209.3179447036705
 21
647.26207715186081
  0
TEXT
  8
_0-d_寸法1
 62
    7
 10
989.31794470367038
 20
647.26207715186081
 40
30
 41
0.7333333333333333
 50
0
  1
防臭インナーパッキン
  0
LINE
  8
_0-d_寸法1
  6
CONTINUOUS
 62
    7
 10
993.23662076864468
 20
760.90123000180017
 11
1007.3794125450564
 21
746.75975056119501
  0
LINE
  8
_0-d_寸法1
  6
CONTINUOUS
 62
    7
 10
993.23662076864468
 20
760.90123000180017
 11
998.41389800714842
 21
741.5829536709349
  0
LINE
  8
_0-d_寸法1
  6
CONTINUOUS
 62
    7
 10
993.23662076864468
 20
760.90123000180017
 11
1032.4931151252708
 21
692.91427236708603
  0
LINE
  8
_0-d_寸法1
  6
CONTINUOUS
 62
    7
 10
1032.4931151252708
 20
692.91427236708603
 11
1186.4931151252708
 21
692.91427236708603
  0
TEXT
  8
_0-d_寸法1
 62
    7
 10
1032.4931151252708
 20
692.91427236708603
 40
30
 41
0.7333333333333333
 50
0
  1
ロックフランジ
  0
TEXT
  8
_0-7_枠細線
 62
    5
 10
827.9840608361643
 20
576.17127249333726
 40
50
 41
0.8
 50
0
  1
Ｃ部拡大図
  0
TEXT
  8
_0-7_枠細線
 62
    5
 10
1921.0000000000002
 20
299.06069690229828
 40
40
 41
0.6
 50
0
  1
排水ユニット ＳＵＳグレーチング 浅型
  0
TEXT
  8
_0-7_枠細線
 62
    5
 10
1930.9999999999995
 20
220
 40
40
 41
0.6
 50
0
  1
ＨＳＡＴ－１５Ｌ１８００
  0
LINE
  8
_0-7_枠細線
  6
CONTINUOUS
 62
    5
 10
2339.7411904658284
 20
1344.3603023313174
 11
2324.7411904658284
 21
1374.3603023313174
  0
LINE
  8
_0-7_枠細線
  6
CONTINUOUS
 62
    5
 10
2309.7411904658284
 20
1344.3603023313174
 11
2339.7411904658284
 21
1344.3603023313174
  0
LINE
  8
_0-7_枠細線
  6
CONTINUOUS
 62
    5
 10
2324.7411904658284
 20
1374.3603023313174
 11
2309.7411904658284
 21
1344.3603023313174
  0
TEXT
  8
_0-7_枠細線
 62
    5
 10
2314.471493002126
 20
1343.7462978405565
 40
25
 41
0.8
 50
0
  1
１
  0
LINE
  8
_0-0_計極細
  6
CONTINUOUS
 62
    2
 10
863.02174142651279
 20
1528.83196239718
 11
863.0217437074873
 21
1523.3319623971804
  0
LINE
  8
_0-0_計極細
  6
CONTINUOUS
 62
    2
 10
869.92174139630902
 20
1528.83196239718
 11
869.92174370748785
 21
1523.3319623971804
  0
LINE
  8
_0-0_計極細
  6
CONTINUOUS
 62
    2
 10
863.02174371673971
 20
1513.3319623971804
 11
863.02174371673971
 21
1507.8319623971802
  0
LINE
  8
_0-0_計極細
  6
CONTINUOUS
 62
    2
 10
869.92174371686201
 20
1513.3319623971804
 11
869.92174371686201
 21
1507.8319623971802
  0
LINE
  8
_0-0_計極細
  6
CONTINUOUS
 62
    2
 10
863.02174371673971
 20
1492.3319623971806
 11
863.02174371673971
 21
1497.8319623971802
  0
LINE
  8
_0-0_計極細
  6
CONTINUOUS
 62
    2
 10
869.92174371686201
 20
1492.3319623971806
 11
869.92174371686201
 21
1497.8319623971802
  0
LINE
  8
_0-0_計極細
  6
CONTINUOUS
 62
    2
 10
863.02174371673971
 20
1476.8319623971811
 11
863.02174371673971
 21
1482.3319623971806
  0
LINE
  8
_0-0_計極細
  6
CONTINUOUS
 62
    2
 10
869.92174371686201
 20
1476.8319623971811
 11
869.92174371686201
 21
1482.3319623971806
  0
LINE
  8
_0-0_計極細
  6
CONTINUOUS
 62
    2
 10
863.02174142651279
 20
1430.3319623971797
 11
863.0217437074873
 21
1435.8319623971793
  0
LINE
  8
_0-0_計極細
  6
CONTINUOUS
 62
    2
 10
869.92174139630902
 20
1430.3319623971797
 11
869.92174370748785
 21
1435.8319623971793
  0
LINE
  8
_0-0_計極細
  6
CONTINUOUS
 62
    2
 10
863.02174371673971
 20
1445.8319623971793
 11
863.02174371673971
 21
1451.3319623971793
  0
LINE
  8
_0-0_計極細
  6
CONTINUOUS
 62
    2
 10
869.92174371686201
 20
1445.8319623971793
 11
869.92174371686201
 21
1451.3319623971793
  0
LINE
  8
_0-0_計極細
  6
CONTINUOUS
 62
    2
 10
863.02174371673971
 20
1466.8319623971788
 11
863.02174371673971
 21
1461.3319623971793
  0
LINE
  8
_0-0_計極細
  6
CONTINUOUS
 62
    2
 10
869.92174371686201
 20
1466.8319623971788
 11
869.92174371686201
 21
1461.3319623971793
  0
LINE
  8
_0-0_計極細
  6
CONTINUOUS
 62
    2
 10
1154.021741426513
 20
1528.83196239718
 11
1154.0217437074873
 21
1523.3319623971804
  0
LINE
  8
_0-0_計極細
  6
CONTINUOUS
 62
    2
 10
1160.9217413963092
 20
1528.83196239718
 11
1160.9217437074878
 21
1523.3319623971804
  0
LINE
  8
_0-0_計極細
  6
CONTINUOUS
 62
    2
 10
1154.0217437167396
 20
1513.3319623971804
 11
1154.0217437167396
 21
1507.8319623971802
  0
LINE
  8
_0-0_計極細
  6
CONTINUOUS
 62
    2
 10
1160.9217437168622
 20
1513.3319623971804
 11
1160.9217437168622
 21
1507.8319623971802
  0
LINE
  8
_0-0_計極細
  6
CONTINUOUS
 62
    2
 10
1154.0217437167396
 20
1492.3319623971806
 11
1154.0217437167396
 21
1497.8319623971802
  0
LINE
  8
_0-0_計極細
  6
CONTINUOUS
 62
    2
 10
1160.9217437168622
 20
1492.3319623971806
 11
1160.9217437168622
 21
1497.8319623971802
  0
LINE
  8
_0-0_計極細
  6
CONTINUOUS
 62
    2
 10
1154.0217437167396
 20
1476.8319623971811
 11
1154.0217437167396
 21
1482.3319623971806
  0
LINE
  8
_0-0_計極細
  6
CONTINUOUS
 62
    2
 10
1160.9217437168622
 20
1476.8319623971811
 11
1160.9217437168622
 21
1482.3319623971806
  0
LINE
  8
_0-0_計極細
  6
CONTINUOUS
 62
    2
 10
1154.021741426513
 20
1430.3319623971797
 11
1154.0217437074873
 21
1435.8319623971793
  0
LINE
  8
_0-0_計極細
  6
CONTINUOUS
 62
    2
 10
1160.9217413963092
 20
1430.3319623971797
 11
1160.9217437074878
 21
1435.8319623971793
  0
LINE
  8
_0-0_計極細
  6
CONTINUOUS
 62
    2
 10
1154.0217437167396
 20
1445.8319623971793
 11
1154.0217437167396
 21
1451.3319623971793
  0
LINE
  8
_0-0_計極細
  6
CONTINUOUS
 62
    2
 10
1160.9217437168622
 20
1445.8319623971793
 11
1160.9217437168622
 21
1451.3319623971793
  0
LINE
  8
_0-0_計極細
  6
CONTINUOUS
 62
    2
 10
1154.0217437167396
 20
1466.8319623971788
 11
1154.0217437167396
 21
1461.3319623971793
  0
LINE
  8
_0-0_計極細
  6
CONTINUOUS
 62
    2
 10
1160.9217437168622
 20
1466.8319623971788
 11
1160.9217437168622
 21
1461.3319623971793
  0
LINE
  8
_0-0_計極細
  6
CONTINUOUS
 62
    2
 10
1445.0217414265128
 20
1528.83196239718
 11
1445.0217437074875
 21
1523.3319623971804
  0
LINE
  8
_0-0_計極細
  6
CONTINUOUS
 62
    2
 10
1451.921741396309
 20
1528.83196239718
 11
1451.9217437074881
 21
1523.3319623971804
  0
LINE
  8
_0-0_計極細
  6
CONTINUOUS
 62
    2
 10
1445.0217437167396
 20
1513.3319623971804
 11
1445.0217437167396
 21
1507.8319623971802
  0
LINE
  8
_0-0_計極細
  6
CONTINUOUS
 62
    2
 10
1451.921743716862
 20
1513.3319623971804
 11
1451.921743716862
 21
1507.8319623971802
  0
LINE
  8
_0-0_計極細
  6
CONTINUOUS
 62
    2
 10
1445.0217437167396
 20
1492.3319623971806
 11
1445.0217437167396
 21
1497.8319623971802
  0
LINE
  8
_0-0_計極細
  6
CONTINUOUS
 62
    2
 10
1451.921743716862
 20
1492.3319623971806
 11
1451.921743716862
 21
1497.8319623971802
  0
LINE
  8
_0-0_計極細
  6
CONTINUOUS
 62
    2
 10
1445.0217437167396
 20
1476.8319623971811
 11
1445.0217437167396
 21
1482.3319623971806
  0
LINE
  8
_0-0_計極細
  6
CONTINUOUS
 62
    2
 10
1451.921743716862
 20
1476.8319623971811
 11
1451.921743716862
 21
1482.3319623971806
  0
LINE
  8
_0-0_計極細
  6
CONTINUOUS
 62
    2
 10
1445.0217414265128
 20
1430.3319623971797
 11
1445.0217437074875
 21
1435.8319623971793
  0
LINE
  8
_0-0_計極細
  6
CONTINUOUS
 62
    2
 10
1451.921741396309
 20
1430.3319623971797
 11
1451.9217437074881
 21
1435.8319623971793
  0
LINE
  8
_0-0_計極細
  6
CONTINUOUS
 62
    2
 10
1445.0217437167396
 20
1445.8319623971793
 11
1445.0217437167396
 21
1451.3319623971793
  0
LINE
  8
_0-0_計極細
  6
CONTINUOUS
 62
    2
 10
1451.921743716862
 20
1445.8319623971793
 11
1451.921743716862
 21
1451.3319623971793
  0
LINE
  8
_0-0_計極細
  6
CONTINUOUS
 62
    2
 10
1445.0217437167396
 20
1466.8319623971788
 11
1445.0217437167396
 21
1461.3319623971793
  0
LINE
  8
_0-0_計極細
  6
CONTINUOUS
 62
    2
 10
1451.921743716862
 20
1466.8319623971788
 11
1451.921743716862
 21
1461.3319623971793
  0
LINE
  8
_0-0_計極細
  6
CONTINUOUS
 62
    2
 10
1736.0217414265128
 20
1528.83196239718
 11
1736.0217437074875
 21
1523.3319623971804
  0
LINE
  8
_0-0_計極細
  6
CONTINUOUS
 62
    2
 10
1742.921741396309
 20
1528.83196239718
 11
1742.9217437074881
 21
1523.3319623971804
  0
LINE
  8
_0-0_計極細
  6
CONTINUOUS
 62
    2
 10
1736.0217437167398
 20
1513.3319623971804
 11
1736.0217437167398
 21
1507.8319623971802
  0
LINE
  8
_0-0_計極細
  6
CONTINUOUS
 62
    2
 10
1742.921743716862
 20
1513.3319623971804
 11
1742.921743716862
 21
1507.8319623971802
  0
LINE
  8
_0-0_計極細
  6
CONTINUOUS
 62
    2
 10
1736.0217437167398
 20
1492.3319623971806
 11
1736.0217437167398
 21
1497.8319623971802
  0
LINE
  8
_0-0_計極細
  6
CONTINUOUS
 62
    2
 10
1742.921743716862
 20
1492.3319623971806
 11
1742.921743716862
 21
1497.8319623971802
  0
LINE
  8
_0-0_計極細
  6
CONTINUOUS
 62
    2
 10
1736.0217437167398
 20
1476.8319623971811
 11
1736.0217437167398
 21
1482.3319623971806
  0
LINE
  8
_0-0_計極細
  6
CONTINUOUS
 62
    2
 10
1742.921743716862
 20
1476.8319623971811
 11
1742.921743716862
 21
1482.3319623971806
  0
LINE
  8
_0-0_計極細
  6
CONTINUOUS
 62
    2
 10
1736.0217414265128
 20
1430.3319623971797
 11
1736.0217437074875
 21
1435.8319623971793
  0
LINE
  8
_0-0_計極細
  6
CONTINUOUS
 62
    2
 10
1742.921741396309
 20
1430.3319623971797
 11
1742.9217437074881
 21
1435.8319623971793
  0
LINE
  8
_0-0_計極細
  6
CONTINUOUS
 62
    2
 10
1736.0217437167398
 20
1445.8319623971793
 11
1736.0217437167398
 21
1451.3319623971793
  0
LINE
  8
_0-0_計極細
  6
CONTINUOUS
 62
    2
 10
1742.921743716862
 20
1445.8319623971793
 11
1742.921743716862
 21
1451.3319623971793
  0
LINE
  8
_0-0_計極細
  6
CONTINUOUS
 62
    2
 10
1736.0217437167398
 20
1466.8319623971788
 11
1736.0217437167398
 21
1461.3319623971793
  0
LINE
  8
_0-0_計極細
  6
CONTINUOUS
 62
    2
 10
1742.921743716862
 20
1466.8319623971788
 11
1742.921743716862
 21
1461.3319623971793
  0
LINE
  8
_0-0_計極細
  6
CONTINUOUS
 62
    2
 10
2027.021741426513
 20
1528.83196239718
 11
2027.0217437074873
 21
1523.3319623971804
  0
LINE
  8
_0-0_計極細
  6
CONTINUOUS
 62
    2
 10
2033.9217413963092
 20
1528.83196239718
 11
2033.9217437074878
 21
1523.3319623971804
  0
LINE
  8
_0-0_計極細
  6
CONTINUOUS
 62
    2
 10
2027.0217437167398
 20
1513.3319623971804
 11
2027.0217437167398
 21
1507.8319623971802
  0
LINE
  8
_0-0_計極細
  6
CONTINUOUS
 62
    2
 10
2033.9217437168622
 20
1513.3319623971804
 11
2033.9217437168622
 21
1507.8319623971802
  0
LINE
  8
_0-0_計極細
  6
CONTINUOUS
 62
    2
 10
2027.0217437167398
 20
1492.3319623971806
 11
2027.0217437167398
 21
1497.8319623971802
  0
LINE
  8
_0-0_計極細
  6
CONTINUOUS
 62
    2
 10
2033.9217437168622
 20
1492.3319623971806
 11
2033.9217437168622
 21
1497.8319623971802
  0
LINE
  8
_0-0_計極細
  6
CONTINUOUS
 62
    2
 10
2027.0217437167398
 20
1476.8319623971811
 11
2027.0217437167398
 21
1482.3319623971806
  0
LINE
  8
_0-0_計極細
  6
CONTINUOUS
 62
    2
 10
2033.9217437168622
 20
1476.8319623971811
 11
2033.9217437168622
 21
1482.3319623971806
  0
LINE
  8
_0-0_計極細
  6
CONTINUOUS
 62
    2
 10
2027.021741426513
 20
1430.3319623971797
 11
2027.0217437074873
 21
1435.8319623971793
  0
LINE
  8
_0-0_計極細
  6
CONTINUOUS
 62
    2
 10
2033.9217413963092
 20
1430.3319623971797
 11
2033.9217437074878
 21
1435.8319623971793
  0
LINE
  8
_0-0_計極細
  6
CONTINUOUS
 62
    2
 10
2027.0217437167398
 20
1445.8319623971793
 11
2027.0217437167398
 21
1451.3319623971793
  0
LINE
  8
_0-0_計極細
  6
CONTINUOUS
 62
    2
 10
2033.9217437168622
 20
1445.8319623971793
 11
2033.9217437168622
 21
1451.3319623971793
  0
LINE
  8
_0-0_計極細
  6
CONTINUOUS
 62
    2
 10
2027.0217437167398
 20
1466.8319623971788
 11
2027.0217437167398
 21
1461.3319623971793
  0
LINE
  8
_0-0_計極細
  6
CONTINUOUS
 62
    2
 10
2033.9217437168622
 20
1466.8319623971788
 11
2033.9217437168622
 21
1461.3319623971793
  0
ENDSEC
  0
EOF
