  0
SECTION
  2
HEADER
  9
$ACADVER
  1
AC1009
  9
$INSBASE
 10
0
 20
0
 30
0
  9
$EXTMIN
 10
0
 20
0
  9
$EXTMAX
 10
2376
 20
1680
  9
$LIMMIN
 10
0
 20
0
  9
$LIMMAX
 10
2376
 20
1680
  9
$LTSCALE
 40
8
  0
ENDSEC
  0
SECTION
  2
TABLES
  0
TABLE
  2
LTYPE
 70
     9
  0
LTYPE
  2
CONTINUOUS
 70
    64
  3
実線
 72
    65
 73
     0
 40
0.0
  0
LTYPE
  2
DASHED1
 70
    64
  3
--  --  --  --  --  --  --  --  
 72
    65
 73
     2
 40
2.5
 49
1.25
 49
-1.25
  0
LTYPE
  2
DASHED2
 70
    64
  3
----    ----    ----    ----    
 72
    65
 73
     2
 40
5.0
 49
2.5
 49
-2.5
  0
LTYPE
  2
DASHED3
 70
    64
  3
------  ------  ------  ------  
 72
    65
 73
     2
 40
5.0
 49
3.75
 49
-1.25
  0
LTYPE
  2
CENTER1
 70
    64
  3
----- - ----- - ----- - ----- - 
 72
    65
 73
     4
 40
10.0
 49
6.25
 49
-1.25
 49
1.25
 49
-1.25
  0
LTYPE
  2
CENTER2
 70
    64
  3
----------  --  ----------  --  
 72
    65
 73
     4
 40
20.0
 49
12.5
 49
-2.5
 49
2.5
 49
-2.5
  0
LTYPE
  2
PHANTOM1
 70
    64
  3
--- - - --- - - --- - - --- - - 
 72
    65
 73
     6
 40
10.0
 49
3.25
 49
-1.25
 49
1.25
 49
-1.25
 49
1.25
 49
-1.25
  0
LTYPE
  2
PHANTOM2
 70
    64
  3
--------  -  -  --------  -  -  
 72
    65
 73
     6
 40
20.0
 49
10.0
 49
-2.5
 49
1.25
 49
-2.5
 49
1.25
 49
-2.5
  0
LTYPE
  2
DOT
 70
    64
  3
-   -   -   -   -   -   -   -   
 72
    65
 73
     2
 40
2.5
 49
0.625
 49
-1.875
  0
LTYPE
  2
DUMMY
 70
    64
  3
ダミー
 72
    65
 73
     0
 40
0.0
  0
LTYPE
  2
RAND1
 70
    64
  3
ランダム線1
 72
    65
 73
     4
 40
10.0
 49
1.0
 49
-2.0
 49
3.0
 49
-4.0
  0
LTYPE
  2
RAND2
 70
    64
  3
ランダム線2
 72
    65
 73
     4
 40
14.0
 49
2.0
 49
-3.0
 49
4.0
 49
-5.0
  0
LTYPE
  2
RAND3
 70
    64
  3
ランダム線3
 72
    65
 73
     4
 40
18.0
 49
3.0
 49
-4.0
 49
5.0
 49
-6.0
  0
LTYPE
  2
RAND4
 70
    64
  3
ランダム線4
 72
    65
 73
     4
 40
22.0
 49
4.0
 49
-5.0
 49
6.0
 49
-7.0
  0
LTYPE
  2
RAND5
 70
    64
  3
ランダム線5
 72
    65
 73
     4
 40
26.0
 49
5.0
 49
-6.0
 49
7.0
 49
-8.0
  0
LTYPE
  2
LONG1
 70
    64
  3
----------  --  ----------  --  
 72
    65
 73
     4
 40
40.0
 49
32.5
 49
-2.5
 49
2.5
 49
-2.5
  0
LTYPE
  2
LONG2
 70
    64
  3
--------  -  -  --------  -  -  
 72
    65
 73
     6
 40
40.0
 49
30.0
 49
-2.5
 49
1.25
 49
-2.5
 49
1.25
 49
-2.5
  0
LTYPE
  2
LONG3
 70
    64
  3
+++++++++++++++..+++++++++++++++
 72
    65
 73
     2
 40
40.0
 49
37.5
 49
-2.5
  0
LTYPE
  2
LONG4
 70
    64
  3
+++++++++++++++..+++++++++++++++
 72
    65
 73
     2
 40
80.0
 49
75.0
 49
-5.0
  0
LTYPE
  2
LONG5
 70
    64
  3
----------  --  ----------  --  
 72
    65
 73
     4
 40
60.0
 49
37.5
 49
-7.5
 49
7.5
 49
-7.5
  0
LTYPE
  2
dashed
 70
   64
  3
-------   -------------   ------
 72
   65
 73
    2
 40
7.5
 49
6
 49
-1.5
  0
LTYPE
  2
dashed_spaced
 70
   64
  3
----        --------        ----
 72
   65
 73
    2
 40
12
 49
6
 49
-6
  0
LTYPE
  2
long_dashed_dotted
 70
   64
  3
------------- --- --------------
 72
   65
 73
    4
 40
15.25
 49
12
 49
-1.5
 49
0.25
 49
-1.5
  0
LTYPE
  2
long_dashed_double-dotted
 70
   64
  3
----------- --- --- ------------
 72
   65
 73
    6
 40
17
 49
12
 49
-1.5
 49
0.25
 49
-1.5
 49
0.25
 49
-1.5
  0
LTYPE
  2
long_dashed_triplicate-dotted
 70
   64
  3
--------- --- --- --- ----------
 72
   65
 73
    8
 40
18.75
 49
12
 49
-1.5
 49
0.25
 49
-1.5
 49
0.25
 49
-1.5
 49
0.25
 49
-1.5
  0
LTYPE
  2
dotted
 70
   64
  3
   -       -       -       -    
 72
   65
 73
    2
 40
1.75
 49
0.25
 49
-1.5
  0
LTYPE
  2
chain
 70
   64
  3
-------------- -- --------------
 72
   65
 73
    4
 40
18.5
 49
12
 49
-1.5
 49
3.5
 49
-1.5
  0
LTYPE
  2
chain_double_dash
 70
   64
  3
------------ -- -- -------------
 72
   65
 73
    6
 40
23.5
 49
12
 49
-1.5
 49
3.5
 49
-1.5
 49
3.5
 49
-1.5
  0
LTYPE
  2
dashed_dotted
 70
   64
  3
-----------     -     ----------
 72
   65
 73
    4
 40
9.25
 49
6
 49
-1.5
 49
0.25
 49
-1.5
  0
LTYPE
  2
double-dashed_dotted
 70
   64
  3
------   -----------   -   -----
 72
   65
 73
    6
 40
16.75
 49
6
 49
-1.5
 49
6
 49
-1.5
 49
0.25
 49
-1.5
  0
LTYPE
  2
dashed_double-dotted
 70
   64
  3
---------    -    -    ---------
 72
   65
 73
    6
 40
11
 49
6
 49
-1.5
 49
0.25
 49
-1.5
 49
0.25
 49
-1.5
  0
LTYPE
  2
double-dashed_double-dotted
 70
   64
  3
-----   ---------   -   -   ----
 72
   65
 73
    8
 40
18.5
 49
6
 49
-1.5
 49
6
 49
-1.5
 49
0.25
 49
-1.5
 49
0.25
 49
-1.5
  0
LTYPE
  2
dashed_triplicate-dotted
 70
   64
  3
-------    -    -    -    ------
 72
   65
 73
    8
 40
12.75
 49
6
 49
-1.5
 49
0.25
 49
-1.5
 49
0.25
 49
-1.5
 49
0.25
 49
-1.5
  0
LTYPE
  2
double-dashed_triplicate-dotted
 70
   64
  3
-----  ---------  -  -  -  -----
 72
   65
 73
   10
 40
20.25
 49
6
 49
-1.5
 49
6
 49
-1.5
 49
0.25
 49
-1.5
 49
0.25
 49
-1.5
 49
0.25
 49
-1.5
  0
LTYPE
  2
undefined
 70
   64
  3
--------------------------------
 72
   65
 73
    0
 40
0
  0
ENDTAB
  0
TABLE
  2
STYLE
  5
3
100
AcDbSymbolTable
 70
     1
  0
STYLE
  5
10
100
AcDbSymbolTableRecord
100
AcDbTextStyleTableRecord
  2
STANDARD
 70
     0
 40
0.0
 41
1.0
 50
0.0
 71
     0
 42
0.2
  3
txt
  4
bigfont.shx
  0
STYLE
  5
26
100
AcDbSymbolTableRecord
100
AcDbTextStyleTableRecord
  2
TATEGAKI
 70
    68
 40
0.0
 41
1.0
 50
0.0
 71
     0
 42
1.0
  3
txt
  4
bigfont.shx
  0
ENDTAB
  0
TABLE
  2
LAYER
 70
   13
  0
LAYER
  2
_0-0_計極細
 70
   64
 62
    7
  6
CONTINUOUS
  0
LAYER
  2
_0-1_計細線
 70
   64
 62
    7
  6
CONTINUOUS
  0
LAYER
  2
_0-5_寸法線
 70
   64
 62
    7
  6
CONTINUOUS
  0
LAYER
  2
_0-7_枠細線
 70
   64
 62
    7
  6
CONTINUOUS
  0
LAYER
  2
_0-8_枠中線
 70
   64
 62
    7
  6
CONTINUOUS
  0
LAYER
  2
_0-a_極細1
 70
   64
 62
    7
  6
CONTINUOUS
  0
LAYER
  2
_0-d_寸法1
 70
   64
 62
    7
  6
CONTINUOUS
  0
LAYER
  2
_0-e_極細4
 70
   64
 62
    7
  6
CONTINUOUS
  0
LAYER
  2
_1-1_寸法4
 70
   64
 62
    7
  6
CONTINUOUS
  0
LAYER
  2
_1-2_極細2
 70
   64
 62
    7
  6
CONTINUOUS
  0
LAYER
  2
_1-3_細線2
 70
   64
 62
    7
  6
CONTINUOUS
  0
LAYER
  2
_1-5_寸法2
 70
   64
 62
    7
  6
CONTINUOUS
  0
LAYER
  2
ADD_LINE
 70
   64
 62
    7
  6
CONTINUOUS
  0
ENDTAB
  0
ENDSEC
  0
SECTION
  2
BLOCKS
  0
ENDSEC
  0
SECTION
  2
ENTITIES
  0
LINE
  8
_0-8_枠中線
  6
CONTINUOUS
 62
    5
 10
96
 20
96
 11
96
 21
1536
  0
LINE
  8
_0-8_枠中線
  6
CONTINUOUS
 62
    5
 10
96
 20
1536
 11
2280
 21
1536
  0
LINE
  8
_0-8_枠中線
  6
CONTINUOUS
 62
    5
 10
2280
 20
1536
 11
2280
 21
96
  0
LINE
  8
_0-8_枠中線
  6
CONTINUOUS
 62
    5
 10
2280
 20
96
 11
96
 21
96
  0
LINE
  8
_0-7_枠細線
  6
CONTINUOUS
 62
    5
 10
1896
 20
288
 11
1896
 21
160
  0
TEXT
  8
_0-7_枠細線
 62
    5
 10
1500
 20
156
 40
28
 41
1
 50
0
  1
備考
  7
TATEGAKI
  0
TEXT
  8
_0-7_枠細線
 62
    5
 10
1500
 20
220
 40
28
 41
1
 50
0
  1
品番
  7
TATEGAKI
  0
TEXT
  8
_0-7_枠細線
 62
    5
 10
1500
 20
284
 40
28
 41
1
 50
0
  1
品名
  7
TATEGAKI
  0
LINE
  8
_0-7_枠細線
  6
CONTINUOUS
 62
    5
 10
1896
 20
224
 11
1480
 21
224
  0
LINE
  8
_0-7_枠細線
  6
CONTINUOUS
 62
    5
 10
1520
 20
288
 11
1520
 21
96
  0
LINE
  8
_0-8_枠中線
  6
CONTINUOUS
 62
    5
 10
2280
 20
288
 11
1480
 21
288
  0
LINE
  8
_0-8_枠中線
  6
CONTINUOUS
 62
    5
 10
1480
 20
288
 11
1480
 21
96
  0
LINE
  8
_0-7_枠細線
  6
CONTINUOUS
 62
    5
 10
1992
 20
288
 11
1992
 21
96
  0
TEXT
  8
_0-7_枠細線
 62
    5
 10
1908
 20
256
 40
24
 41
1
 50
0
  1
縮　尺
  0
LINE
  8
_0-7_枠細線
  6
CONTINUOUS
 62
    5
 10
1896
 20
248
 11
1992
 21
248
  0
LINE
  8
_0-7_枠細線
  6
CONTINUOUS
 62
    5
 10
1992
 20
160
 11
1480
 21
160
  0
LINE
  8
_0-7_枠細線
  6
CONTINUOUS
 62
    5
 10
2280
 20
144
 11
1992
 21
144
  0
LINE
  8
_0-7_枠細線
  6
CONTINUOUS
 62
    5
 10
1992
 20
192
 11
2280
 21
192
  0
LINE
  8
_0-7_枠細線
  6
CONTINUOUS
 62
    5
 10
2280
 20
224
 11
1992
 21
224
  0
TEXT
  8
_0-7_枠細線
 62
    5
 10
2004
 20
96
 40
24
 41
1
 50
0
  1
年月日
  0
TEXT
  8
_0-7_枠細線
 62
    5
 10
2004
 20
120
 40
24
 41
1
 50
0
  1
作　成
  0
TEXT
  8
_0-7_枠細線
 62
    5
 10
2010
 20
196
 40
24
 41
1
 50
0
  1
承 認
  0
LINE
  8
_0-7_枠細線
  6
CONTINUOUS
 62
    5
 10
2088
 20
224
 11
2088
 21
96
  0
TEXT
  8
_0-7_枠細線
 62
    5
 10
2106
 20
196
 40
24
 41
1
 50
0
  1
検 図
  0
LINE
  8
_0-7_枠細線
  6
CONTINUOUS
 62
    5
 10
2184
 20
224
 11
2184
 21
144
  0
TEXT
  8
_0-7_枠細線
 62
    5
 10
2202
 20
196
 40
24
 41
1
 50
0
  1
設 計
  0
LINE
  8
_0-7_枠細線
  6
CONTINUOUS
 62
    5
 10
2280
 20
1508
 11
1424
 21
1508
  0
TEXT
  8
_0-7_枠細線
 62
    5
 10
1432
 20
1511.9999999999991
 40
20
 41
1
 50
0
  1
記号
  0
TEXT
  8
_0-7_枠細線
 62
    5
 10
1595
 20
1512
 40
20
 41
1
 50
0
  1
訂　 正　 記　 事
  0
TEXT
  8
_0-7_枠細線
 62
    5
 10
1890
 20
1512
 40
20
 41
1
 50
0
  1
訂 正 年 月 日
  0
TEXT
  8
_0-7_枠細線
 62
    5
 10
2090
 20
1512
 40
20
 41
1
 50
0
  1
備　　　　　考
  0
LINE
  8
_0-7_枠細線
  6
CONTINUOUS
 62
    5
 10
2280
 20
1480
 11
1424
 21
1480
  0
TEXT
  8
_0-7_枠細線
 62
    5
 10
1910.4000000000001
 20
188
 40
32
 41
0.6999999999999998
 50
0
  1
１：８
  0
LINE
  8
_0-7_枠細線
  6
CONTINUOUS
 62
    5
 10
2040
 20
1480
 11
2040
 21
1535.9999999999991
  0
LINE
  8
_0-7_枠細線
  6
CONTINUOUS
 62
    5
 10
1880
 20
1480
 11
1880
 21
1536
  0
LINE
  8
_0-7_枠細線
  6
CONTINUOUS
 62
    5
 10
1480
 20
1480
 11
1480
 21
1535.9999999999991
  0
LINE
  8
_0-7_枠細線
  6
CONTINUOUS
 62
    5
 10
1424
 20
1480
 11
1424
 21
1535.9999999999991
  0
TEXT
  8
_0-7_枠細線
 62
    5
 10
2200
 20
152
 40
32
 41
1
 50
0
  1
藤戸
  0
TEXT
  8
_0-7_枠細線
 62
    5
 10
2008
 20
152
 40
32
 41
1
 50
0
  1
大野
  0
TEXT
  8
_0-7_枠細線
 62
    5
 10
2104
 20
152
 40
32
 41
1
 50
0
  1
深川
  0
TEXT
  8
_0-7_枠細線
 62
    5
 10
2096
 20
108
 40
24
 41
0.6666666666666666
 50
0
  1
２０１５年０４月０１日
  0
TEXT
  8
_0-7_枠細線
 62
    5
 10
2007.9999999999991
 20
236
 40
40
 41
0.8
 50
0
  1
株式会社シマブン
  0
TEXT
  8
_0-7_枠細線
 62
    5
 10
1544.7999999999995
 20
112
 40
32.000000000000007
 41
0.5999999999999997
 50
0
  1
表面形状については記号表参照のこと
  0
LINE
  8
_0-0_計極細
  6
CENTER1
 62
    2
 10
1096.0037602689461
 20
826.73877774131233
 11
1096.0037602689461
 21
871.79247781884987
  0
LINE
  8
_0-1_計細線
  6
CONTINUOUS
 62
    3
 10
1090.0037604220267
 20
866.52165946705099
 11
1088.0037604220267
 21
864.52165946705099
  0
LINE
  8
_0-1_計細線
  6
CONTINUOUS
 62
    3
 10
1088.0037604220267
 20
854.52165946705099
 11
1088.0037604220267
 21
864.52165946705099
  0
LINE
  8
_0-1_計細線
  6
CONTINUOUS
 62
    3
 10
1104.0037601158654
 20
854.52165946705099
 11
1104.0037601158654
 21
864.52165946705099
  0
LINE
  8
_0-1_計細線
  6
CONTINUOUS
 62
    3
 10
1090.0037604220267
 20
850.52165946705099
 11
1088.0037604220267
 21
848.52165946705099
  0
LINE
  8
_0-1_計細線
  6
CONTINUOUS
 62
    3
 10
1090.0037604220267
 20
852.52165946705099
 11
1090.0037604220267
 21
850.52165946705099
  0
LINE
  8
_0-1_計細線
  6
CONTINUOUS
 62
    3
 10
1088.0037604220267
 20
854.52165946705099
 11
1090.0037604220267
 21
852.52165946705099
  0
LINE
  8
_0-1_計細線
  6
CONTINUOUS
 62
    3
 10
1102.0037601158654
 20
850.52165946705099
 11
1104.0037601158654
 21
848.52165946705099
  0
LINE
  8
_0-1_計細線
  6
CONTINUOUS
 62
    3
 10
1102.0037601158654
 20
852.52165946705099
 11
1102.0037601158654
 21
850.52165946705099
  0
LINE
  8
_0-1_計細線
  6
CONTINUOUS
 62
    3
 10
1104.0037601158654
 20
854.52165946705099
 11
1102.0037601158654
 21
852.52165946705099
  0
LINE
  8
_0-1_計細線
  6
CONTINUOUS
 62
    3
 10
1088.0037604220267
 20
848.52165946705099
 11
1088.0037604220267
 21
834.52165946705099
  0
ARC
  8
_0-1_計細線
  6
CONTINUOUS
 62
    3
 10
1091.0037604220267
 20
834.52165946705099
 40
3
 50
179.99999999999983
 51
269.99999999999977
  0
LINE
  8
_0-1_計細線
  6
CONTINUOUS
 62
    3
 10
1091.0037604220267
 20
831.52165946705099
 11
1101.0037601158654
 21
831.52165946705099
  0
LINE
  8
_0-1_計細線
  6
CONTINUOUS
 62
    3
 10
1104.0037601158654
 20
848.52165946705099
 11
1104.0037601158654
 21
834.52165946705099
  0
ARC
  8
_0-1_計細線
  6
CONTINUOUS
 62
    3
 10
1101.0037601158654
 20
834.52165946705099
 40
3
 50
269.99999999999977
 51
359.99999999999966
  0
LINE
  8
_0-1_計細線
  6
CONTINUOUS
 62
    3
 10
1090.0037604220267
 20
866.52165946705099
 11
1102.0037601158654
 21
866.52165946705099
  0
LINE
  8
_0-1_計細線
  6
CONTINUOUS
 62
    3
 10
1104.0037601158654
 20
864.52165946705099
 11
1102.0037601158654
 21
866.52165946705099
  0
ARC
  8
_0-1_計細線
  6
CONTINUOUS
 62
    3
 10
1502.6195190041451
 20
1200.7340632024866
 40
0.501740082747087
 50
330.00000000003996
 51
20.189990999990084
  0
ARC
  8
_0-1_計細線
  6
CONTINUOUS
 62
    3
 10
1502.6195190041451
 20
1172.3344534264775
 40
0.501740082747087
 50
339.81000900000919
 51
29.999999999959307
  0
LINE
  8
_0-1_計細線
  6
CONTINUOUS
 62
    3
 10
1465.3083254779438
 20
1188.7920977182011
 11
1464.0047573825284
 21
1191.0499371219203
  0
LINE
  8
_0-1_計細線
  6
CONTINUOUS
 62
    3
 10
1465.3083254779438
 20
1188.7920977182011
 11
1445.1684341221969
 21
1223.6754094395078
  0
LINE
  8
_0-1_計細線
  6
CONTINUOUS
 62
    3
 10
1465.3083254779438
 20
1188.7920977182011
 11
1467.9154556478704
 21
1188.7920977182011
  0
LINE
  8
_0-1_計細線
  6
CONTINUOUS
 62
    3
 10
1461.3976332335076
 20
1186.5342583144811
 11
1441.2577418777571
 21
1221.41757003579
  0
ARC
  8
_0-1_計細線
  6
CONTINUOUS
 62
    3
 10
1432.3999850189527
 20
1160.1927986044211
 40
0.501740082747087
 50
219.81000899998574
 51
269.99999999999977
  0
LINE
  8
_0-1_計細線
  6
CONTINUOUS
 62
    3
 10
1465.3083254779438
 20
1184.276418910762
 11
1445.1684341221969
 21
1149.3931071894549
  0
LINE
  8
_0-1_計細線
  6
CONTINUOUS
 62
    3
 10
1461.3976332335076
 20
1186.5342583144811
 11
1441.2577418777571
 21
1151.650946593174
  0
ARC
  8
_0-1_計細線
  6
CONTINUOUS
 62
    3
 10
1464.0047573825284
 20
1186.5342583144811
 40
46.4111412917104
 50
89.999999999999915
 51
269.99999999999977
  0
ARC
  8
_0-1_計細線
  6
CONTINUOUS
 62
    3
 10
1464.0047573825284
 20
1186.5342583144811
 40
57.198598227560829
 50
89.999999999999915
 51
269.99999999999977
  0
CIRCLE
  8
_0-1_計細線
  6
CONTINUOUS
 62
    3
 10
1464.0047573825284
 20
1186.5342583144811
 40
58.202084413960065
  0
LINE
  8
_0-1_計細線
  6
CONTINUOUS
 62
    3
 10
1465.3083254779438
 20
1188.7920977182011
 11
1505.5881021685343
 21
1188.7920977182011
  0
LINE
  8
_0-1_計細線
  6
CONTINUOUS
 62
    3
 10
1465.3083254779438
 20
1184.276418910762
 11
1505.5881021685343
 21
1184.276418910762
  0
ARC
  8
_0-1_計細線
  6
CONTINUOUS
 62
    3
 10
1464.0047573825284
 20
1186.5342583144811
 40
46.4111412917104
 50
269.99999999999977
 51
89.999999999999545
  0
ARC
  8
_0-1_計細線
  6
CONTINUOUS
 62
    3
 10
1464.0047573825284
 20
1186.5342583144811
 40
57.198598227560829
 50
269.99999999999977
 51
89.999999999999545
  0
ARC
  8
_0-1_計細線
  6
CONTINUOUS
 62
    3
 10
1464.0047573825284
 20
1186.5342583144811
 40
41.644595453350369
 50
89.999999999999915
 51
116.89207624474167
  0
ARC
  8
_0-1_計細線
  6
CONTINUOUS
 62
    3
 10
1464.0047573825284
 20
1186.5342583144811
 40
41.644595453350369
 50
123.10791868694014
 51
236.89208131305782
  0
ARC
  8
_0-1_計細線
  6
CONTINUOUS
 62
    3
 10
1464.0047573825284
 20
1186.5342583144811
 40
41.644595453350369
 50
243.10792375525659
 51
269.99999999999977
  0
ARC
  8
_0-1_計細線
  6
CONTINUOUS
 62
    3
 10
1464.0047573825284
 20
1186.5342583144811
 40
41.644595453350369
 50
269.99999999999977
 51
356.8920785890931
  0
ARC
  8
_0-1_計細線
  6
CONTINUOUS
 62
    3
 10
1464.0047573825284
 20
1186.5342583144811
 40
41.644595453350369
 50
3.1079214109077964
 51
89.999999999999915
  0
ARC
  8
_0-0_計極細
  6
CONTINUOUS
 62
    2
 10
1464.0047573825284
 20
1186.5342583144811
 40
50.153133796808191
 50
269.99999999999977
 51
89.999999999999545
  0
ARC
  8
_0-0_計極細
  6
CONTINUOUS
 62
    2
 10
1464.0047573825284
 20
1186.5342583144811
 40
50.153133796808191
 50
89.999999999999915
 51
269.99999999999977
  0
ARC
  8
_0-0_計極細
  6
CONTINUOUS
 62
    2
 10
1450.3897563380212
 20
1157.4332160848899
 40
0.501740082747087
 50
149.99997568607938
 51
210.00002243784951
  0
ARC
  8
_0-0_計極細
  6
CONTINUOUS
 62
    2
 10
1464.2944411884771
 20
1180.513353237895
 40
1.0034861863992508
 50
29.999999999951111
 51
149.99999999997101
  0
ARC
  8
_0-0_計極細
  6
CONTINUOUS
 62
    2
 10
1464.2944411884771
 20
1180.513353237895
 40
1.0034861863992508
 50
29.999999999951111
 51
106.77865499997519
  0
ARC
  8
_0-0_計極細
  6
CONTINUOUS
 62
    2
 10
1458.6456641710563
 20
1183.7746788280147
 40
1.0034861863992508
 50
329.99999999995163
 51
89.999999999999545
  0
ARC
  8
_0-0_計極細
  6
CONTINUOUS
 62
    2
 10
1423.5095410824904
 20
1193.8130191135742
 40
0.501740082747087
 50
89.993779916795503
 51
169.8086801233749
  0
ARC
  8
_0-0_計極細
  6
CONTINUOUS
 62
    2
 10
1423.5079753770576
 20
1179.2624957808198
 40
0.501740082747087
 50
190.17882981053808
 51
269.99383436904543
  0
ARC
  8
_0-0_計極細
  6
CONTINUOUS
 62
    2
 10
1423.4562430864514
 20
1189.2973447111153
 40
1.0034861863992508
 50
176.10042624738318
 51
269.99385985774035
  0
ARC
  8
_0-0_計極細
  6
CONTINUOUS
 62
    2
 10
1464.0047573825284
 20
1186.5342583144811
 40
37.630656728658437
 50
317.45760300000074
 51
327.38710799999916
  0
ARC
  8
_0-0_計極細
  6
CONTINUOUS
 62
    2
 10
1464.0047573825284
 20
1186.5342583144811
 40
37.630656728658437
 50
32.612892000001082
 51
42.54239699999939
  0
LINE
  8
_0-0_計極細
  6
CONTINUOUS
 62
    2
 10
1499.1789751535159
 20
1167.2553202592558
 11
1490.2208859325153
 21
1182.7711926416173
  0
LINE
  8
_0-0_計極細
  6
CONTINUOUS
 62
    2
 10
1497.7721485360369
 20
1162.6676254061949
 11
1485.4411482911316
 21
1184.0255458589354
  0
LINE
  8
_0-0_計極細
  6
CONTINUOUS
 62
    2
 10
1493.1502127958054
 20
1158.6312407473774
 11
1479.2130096827166
 21
1182.7711926416173
  0
LINE
  8
_0-0_計極細
  6
CONTINUOUS
 62
    2
 10
1499.1789751535159
 20
1205.8131963697078
 11
1490.2208859325153
 21
1190.2973239873472
  0
LINE
  8
_0-0_計極細
  6
CONTINUOUS
 62
    2
 10
1497.7721485360369
 20
1210.4008912227682
 11
1485.4411482911316
 21
1189.0429707700273
  0
LINE
  8
_0-0_計極細
  6
CONTINUOUS
 62
    2
 10
1493.1502127958054
 20
1214.4372698606817
 11
1479.2130096827166
 21
1190.2973239873472
  0
LINE
  8
_0-0_計極細
  6
CONTINUOUS
 62
    2
 10
1461.997791030635
 20
1159.5146219193098
 11
1461.997791030635
 21
1167.4320338232537
  0
LINE
  8
_0-0_計極細
  6
CONTINUOUS
 62
    2
 10
1462.4995311133823
 20
1159.4820307601299
 11
1462.4995311133823
 21
1166.5629944472148
  0
ARC
  8
_0-0_計極細
  6
CONTINUOUS
 62
    2
 10
1464.0047573825284
 20
1186.5342583144811
 40
37.630656728658437
 50
213.59599499999973
 51
225.50677599999941
  0
LINE
  8
_0-0_計極細
  6
CONTINUOUS
 62
    2
 10
1490.987094270751
 20
1155.3534901282114
 11
1474.4332720413329
 21
1184.0255458589354
  0
LINE
  8
_0-0_計極細
  6
CONTINUOUS
 62
    2
 10
1485.7992416205623
 20
1152.2973027949556
 11
1468.2051334329169
 21
1182.7711926416173
  0
LINE
  8
_0-0_計極細
  6
CONTINUOUS
 62
    2
 10
1467.7901726550388
 20
1145.3575233110118
 11
1455.4591724101335
 21
1166.7154437637528
  0
LINE
  8
_0-0_計極細
  6
CONTINUOUS
 62
    2
 10
1473.5967515736118
 20
1147.3420437287796
 11
1459.659548460522
 21
1171.4819956230185
  0
LINE
  8
_0-0_計極細
  6
CONTINUOUS
 62
    2
 10
1477.5169327644523
 20
1147.5764857306535
 11
1460.9631105350343
 21
1176.2485474822838
  0
LINE
  8
_0-0_計極細
  6
CONTINUOUS
 62
    2
 10
1482.7575887521632
 20
1150.5412094948888
 11
1465.1634865854228
 21
1181.0150933206437
  0
LINE
  8
_0-0_計極細
  6
CONTINUOUS
 62
    2
 10
1432.3999850189527
 20
1159.6910585216742
 11
1445.6100193423242
 21
1159.6910585216742
  0
ARC
  8
_0-0_計極細
  6
CONTINUOUS
 62
    2
 10
1442.1338497963568
 20
1155.1753797142346
 40
1.0034861863992508
 50
329.99999999997061
 51
89.999999999999545
  0
ARC
  8
_0-0_計極細
  6
CONTINUOUS
 62
    2
 10
1464.0047573825284
 20
1186.5342583144811
 40
37.630656728658437
 50
233.77152299999938
 51
236.31964599999873
  0
ARC
  8
_0-0_計極細
  6
CONTINUOUS
 62
    2
 10
1438.1528695060549
 20
1155.1753797142346
 40
1.0034861863992508
 50
89.999999999999915
 51
230.49822999997428
  0
LINE
  8
_0-0_計極細
  6
CONTINUOUS
 62
    2
 10
1438.1528695060549
 20
1156.1788598797289
 11
1442.1338497963568
 21
1156.1788598797289
  0
ARC
  8
_0-0_計極細
  6
CONTINUOUS
 62
    2
 10
1464.0047573825284
 20
1186.5342583144811
 40
37.630656728658437
 50
272.61289199999942
 51
282.54239699999982
  0
ARC
  8
_0-0_計極細
  6
CONTINUOUS
 62
    2
 10
1468.2246953535102
 20
1145.6083963628375
 40
0.501740082747087
 50
210.00000000000426
 51
275.88706199997517
  0
LINE
  8
_0-0_計極細
  6
CONTINUOUS
 62
    2
 10
1463.1136995566237
 20
1146.4330195221282
 11
1454.1556103356231
 21
1161.9488979253938
  0
LINE
  8
_0-0_計極細
  6
CONTINUOUS
 62
    2
 10
1456.560251446919
 20
1145.7421206645913
 11
1449.9552342852346
 21
1157.182346066129
  0
ARC
  8
_0-0_計極細
  6
CONTINUOUS
 62
    2
 10
1464.0047573825284
 20
1186.5342583144811
 40
37.630656728658437
 50
254.49322399999932
 51
266.40400499999907
  0
ARC
  8
_0-0_計極細
  6
CONTINUOUS
 62
    2
 10
1445.6100193423242
 20
1160.1927986044211
 40
0.501740082747087
 50
269.99999999999977
 51
329.99999999989114
  0
ARC
  8
_0-0_計極細
  6
CONTINUOUS
 62
    2
 10
1449.7731199693824
 20
1148.4664236682129
 40
1.0034861863992508
 50
249.50177000005806
 51
29.999999999976708
  0
LINE
  8
_0-0_計極細
  6
CONTINUOUS
 62
    2
 10
1450.6421593454231
 20
1148.9681637509602
 11
1448.6516722107242
 21
1152.4157942068618
  0
ARC
  8
_0-0_計極細
  6
CONTINUOUS
 62
    2
 10
1453.2865649386783
 20
1161.4471518217424
 40
1.0034861863992508
 50
29.999999999977071
 51
149.99999999999699
  0
ARC
  8
_0-0_計極細
  6
CONTINUOUS
 62
    2
 10
1464.0047573825284
 20
1186.5342583144811
 40
27.094072844634088
 50
244.78019200000111
 51
249.77896100000117
  0
ARC
  8
_0-0_計極細
  6
CONTINUOUS
 62
    2
 10
1464.0047573825284
 20
1186.5342583144811
 40
37.630656728658437
 50
243.68035399999945
 51
246.22847699999838
  0
ARC
  8
_0-0_計極細
  6
CONTINUOUS
 62
    2
 10
1447.7826268137794
 20
1151.9140541241168
 40
1.0034861863992508
 50
29.999999999977071
 51
150.00000000002294
  0
ARC
  8
_0-0_計極細
  6
CONTINUOUS
 62
    2
 10
1462.2446601805857
 20
1145.9312794393827
 40
1.0034861863992508
 50
267.5178359999677
 51
30.000000000002665
  0
ARC
  8
_0-0_計極細
  6
CONTINUOUS
 62
    2
 10
1456.9947741453905
 20
1145.992993716417
 40
0.501740082747087
 50
210.00000000010814
 51
260.18999100005101
  0
ARC
  8
_0-0_計極細
  6
CONTINUOUS
 62
    2
 10
1464.0047573825284
 20
1186.5342583144811
 40
27.094072844634088
 50
260.29098299999907
 51
275.37568199999987
  0
ARC
  8
_0-0_計極細
  6
CONTINUOUS
 62
    2
 10
1464.0047573825284
 20
1186.5342583144811
 40
37.630656728658437
 50
288.07291800000053
 51
297.3252259999997
  0
ARC
  8
_0-0_計極細
  6
CONTINUOUS
 62
    2
 10
1464.0047573825284
 20
1186.5342583144811
 40
27.094072844634088
 50
283.31934900000118
 51
296.2837799999993
  0
ARC
  8
_0-0_計極細
  6
CONTINUOUS
 62
    2
 10
1477.951449442018
 20
1147.8273587824797
 40
0.501740082747087
 50
210.00000000010814
 51
289.81487200010849
  0
ARC
  8
_0-0_計極細
  6
CONTINUOUS
 62
    2
 10
1472.7277061766679
 20
1146.8403036460331
 40
1.0034861863992508
 50
282.39403400005705
 51
30.000000000002665
  0
ARC
  8
_0-0_計極細
  6
CONTINUOUS
 62
    2
 10
1464.0047573825284
 20
1186.5342583144811
 40
37.630656728658437
 50
302.67477399999865
 51
311.92708199999919
  0
ARC
  8
_0-0_計極細
  6
CONTINUOUS
 62
    2
 10
1486.6682809966003
 20
1152.7990488986084
 40
1.0034861863992508
 50
210.00000000002515
 51
303.89345000001418
  0
ARC
  8
_0-0_計極細
  6
CONTINUOUS
 62
    2
 10
1490.5525715722786
 20
1155.1026170763857
 40
0.501740082747087
 50
310.18512800003361
 51
29.999999999907399
  0
ARC
  8
_0-0_計極細
  6
CONTINUOUS
 62
    2
 10
1481.8885493761243
 20
1150.039463391236
 40
1.0034861863992508
 50
296.10655000002453
 51
29.999999999999204
  0
LINE
  8
_0-0_計極細
  6
CONTINUOUS
 62
    2
 10
1429.7215974374456
 20
1165.7119635982599
 11
1447.6377879212557
 21
1165.7119635982599
  0
ARC
  8
_0-0_計極細
  6
CONTINUOUS
 62
    2
 10
1442.1338497963568
 20
1217.8931369147294
 40
1.0034861863992508
 50
269.99999999999977
 51
30.000000000051159
  0
LINE
  8
_0-0_計極細
  6
CONTINUOUS
 62
    2
 10
1432.3999850189527
 20
1213.3774581072898
 11
1445.6100193423242
 21
1213.3774581072898
  0
LINE
  8
_0-0_計極細
  6
CONTINUOUS
 62
    2
 10
1429.7215974374456
 20
1207.3565530307033
 11
1447.6377879212557
 21
1207.3565530307033
  0
LINE
  8
_0-0_計極細
  6
CONTINUOUS
 62
    2
 10
1426.4519569774163
 20
1203.8443604096647
 11
1451.1139574672231
 21
1203.8443604096647
  0
LINE
  8
_0-0_計極細
  6
CONTINUOUS
 62
    2
 10
1425.2673137990721
 20
1197.8234553330794
 11
1453.1417260461565
 21
1197.8234553330794
  0
LINE
  8
_0-0_計極細
  6
CONTINUOUS
 62
    2
 10
1423.5102571541918
 20
1194.311262712039
 11
1456.6178955921221
 21
1194.311262712039
  0
LINE
  8
_0-0_計極細
  6
CONTINUOUS
 62
    2
 10
1423.4574477957647
 20
1188.2903576354538
 11
1458.6456641710563
 21
1188.2903576354538
  0
LINE
  8
_0-0_計極細
  6
CONTINUOUS
 62
    2
 10
1426.4519569774163
 20
1169.2241562192994
 11
1451.1139574672231
 21
1169.2241562192994
  0
LINE
  8
_0-0_計極細
  6
CONTINUOUS
 62
    2
 10
1425.2673137990721
 20
1175.2450612958851
 11
1453.1417260461565
 21
1175.2450612958851
  0
LINE
  8
_0-0_計極細
  6
CONTINUOUS
 62
    2
 10
1423.5102571541918
 20
1178.757253916925
 11
1456.6178955921221
 21
1178.757253916925
  0
LINE
  8
_0-0_計極細
  6
CONTINUOUS
 62
    2
 10
1423.4574477957647
 20
1184.7781589935089
 11
1458.6456641710563
 21
1184.7781589935089
  0
ARC
  8
_0-0_計極細
  6
CONTINUOUS
 62
    2
 10
1464.0047573825284
 20
1186.5342583144811
 40
27.094072844634088
 50
140.2909829999995
 51
155.37568200000004
  0
ARC
  8
_0-0_計極細
  6
CONTINUOUS
 62
    2
 10
1464.0047573825284
 20
1186.5342583144811
 40
37.630656728658437
 50
152.61289200000007
 51
162.54239699999968
  0
ARC
  8
_0-0_計極細
  6
CONTINUOUS
 62
    2
 10
1425.2673137990721
 20
1198.82694151948
 40
1.0034861863992508
 50
162.39403400002107
 51
269.99999999999977
  0
ARC
  8
_0-0_計極細
  6
CONTINUOUS
 62
    2
 10
1429.7215974374456
 20
1164.7084774118593
 40
1.0034861863992508
 50
89.999999999999915
 51
212.4821639999854
  0
ARC
  8
_0-0_計極細
  6
CONTINUOUS
 62
    2
 10
1464.0047573825284
 20
1186.5342583144811
 40
37.630656728658437
 50
168.07291799999925
 51
177.32522600000016
  0
ARC
  8
_0-0_計極細
  6
CONTINUOUS
 62
    2
 10
1464.0047573825284
 20
1186.5342583144811
 40
37.630656728658437
 50
182.67477399999882
 51
191.9270819999997
  0
ARC
  8
_0-0_計極細
  6
CONTINUOUS
 62
    2
 10
1464.0047573825284
 20
1186.5342583144811
 40
37.630656728658437
 50
197.4576029999993
 51
207.38710799999896
  0
ARC
  8
_0-0_計極細
  6
CONTINUOUS
 62
    2
 10
1423.4574477957647
 20
1183.7746788280156
 40
1.0034861863992508
 50
89.999999999999915
 51
183.89344999999844
  0
ARC
  8
_0-0_計極細
  6
CONTINUOUS
 62
    2
 10
1425.2673137990721
 20
1174.2415751094859
 40
1.0034861863992508
 50
89.999999999999915
 51
197.60596600000332
  0
ARC
  8
_0-0_計極細
  6
CONTINUOUS
 62
    2
 10
1426.4519569774163
 20
1169.7258963020454
 40
0.501740082747087
 50
204.11293800002809
 51
269.99999999999977
  0
ARC
  8
_0-0_計極細
  6
CONTINUOUS
 62
    2
 10
1464.0047573825284
 20
1186.5342583144811
 40
27.094072844634088
 50
163.31934899999951
 51
176.28377999999955
  0
ARC
  8
_0-0_計極細
  6
CONTINUOUS
 62
    2
 10
1464.0047573825284
 20
1186.5342583144811
 40
27.094072844634088
 50
183.71621999999911
 51
196.68065099999922
  0
ARC
  8
_0-0_計極細
  6
CONTINUOUS
 62
    2
 10
1464.0047573825284
 20
1186.5342583144811
 40
27.094072844634088
 50
204.62431799999874
 51
219.70901699999865
  0
ARC
  8
_0-0_計極細
  6
CONTINUOUS
 62
    2
 10
1426.4519569774163
 20
1203.3426203269187
 40
0.501740082747087
 50
89.999999999999915
 51
155.88706199997156
  0
ARC
  8
_0-0_計極細
  6
CONTINUOUS
 62
    2
 10
1429.7215974374456
 20
1208.3600392171043
 40
1.0034861863992508
 50
147.5178360000142
 51
269.99999999999977
  0
ARC
  8
_0-0_計極細
  6
CONTINUOUS
 62
    2
 10
1464.0047573825284
 20
1186.5342583144811
 40
37.630656728658437
 50
123.68035400000058
 51
126.22847700000025
  0
ARC
  8
_0-0_計極細
  6
CONTINUOUS
 62
    2
 10
1464.0047573825284
 20
1186.5342583144811
 40
37.630656728658437
 50
134.49322399999971
 51
146.40400499999933
  0
ARC
  8
_0-0_計極細
  6
CONTINUOUS
 62
    2
 10
1432.3999850189527
 20
1212.8757180245434
 40
0.501740082747087
 50
89.999999999999915
 51
140.18999100005377
  0
ARC
  8
_0-0_計極細
  6
CONTINUOUS
 62
    2
 10
1438.1528695060549
 20
1217.8931369147294
 40
1.0034861863992508
 50
129.50177000002535
 51
269.99999999999977
  0
LINE
  8
_0-0_計極細
  6
CONTINUOUS
 62
    2
 10
1438.1528695060549
 20
1216.8896567492352
 11
1442.1338497963568
 21
1216.8896567492352
  0
ARC
  8
_0-0_計極細
  6
CONTINUOUS
 62
    2
 10
1464.0047573825284
 20
1186.5342583144811
 40
37.630656728658437
 50
77.457603000000148
 51
87.387108000000282
  0
ARC
  8
_0-0_計極細
  6
CONTINUOUS
 62
    2
 10
1464.0047573825284
 20
1186.5342583144811
 40
37.630656728658437
 50
77.457603000000148
 51
87.387108000000282
  0
ARC
  8
_0-0_計極細
  6
CONTINUOUS
 62
    2
 10
1469.0741788298617
 20
1183.2729327243637
 40
1.0034861863992508
 50
89.999999999999915
 51
209.9999999999992
  0
ARC
  8
_0-0_計極細
  6
CONTINUOUS
 62
    2
 10
1469.0741788298617
 20
1189.7955839046017
 40
1.0034861863992508
 50
150.00000000000043
 51
269.99999999999977
  0
ARC
  8
_0-0_計極細
  6
CONTINUOUS
 62
    2
 10
1468.2246953535102
 20
1227.4601202661238
 40
0.501740082747087
 50
84.112938000024442
 51
150.00000000004033
  0
LINE
  8
_0-0_計極細
  6
CONTINUOUS
 62
    2
 10
1473.5967515736118
 20
1225.7264668792773
 11
1459.659548460522
 21
1201.5865210059455
  0
LINE
  8
_0-0_計極細
  6
CONTINUOUS
 62
    2
 10
1477.5169327644523
 20
1225.492024877406
 11
1460.9631105350343
 21
1196.8199691466803
  0
LINE
  8
_0-0_計極細
  6
CONTINUOUS
 62
    2
 10
1482.7575887521632
 20
1222.5273071340753
 11
1465.1634865854228
 21
1192.0534233083204
  0
LINE
  8
_0-0_計極細
  6
CONTINUOUS
 62
    2
 10
1461.997791030635
 20
1194.5261066678868
 11
1461.997791030635
 21
1198.6120915427255
  0
LINE
  8
_0-0_計極細
  6
CONTINUOUS
 62
    2
 10
1462.4995311133823
 20
1193.6570672918479
 11
1462.4995311133823
 21
1199.4811369396684
  0
ARC
  8
_0-0_計極細
  6
CONTINUOUS
 62
    2
 10
1453.1417260461565
 20
1198.82694151948
 40
1.0034861863992508
 50
269.99999999999977
 51
29.999999999999204
  0
LINE
  8
_0-0_計極細
  6
CONTINUOUS
 62
    2
 10
1465.5099836516754
 20
1192.65358110545
 11
1465.5099836516754
 21
1204.6953912586196
  0
LINE
  8
_0-0_計極細
  6
CONTINUOUS
 62
    2
 10
1466.0117297553268
 20
1193.5226265023925
 11
1466.0117297553268
 21
1205.5644366555648
  0
ARC
  8
_0-0_計極細
  6
CONTINUOUS
 62
    2
 10
1453.1417260461565
 20
1174.2415751094859
 40
1.0034861863992508
 50
329.9999999999776
 51
89.999999999999545
  0
ARC
  8
_0-0_計極細
  6
CONTINUOUS
 62
    2
 10
1451.1139574672231
 20
1169.7258963020454
 40
0.501740082747087
 50
269.99999999999977
 51
329.999999999995
  0
ARC
  8
_0-0_計極細
  6
CONTINUOUS
 62
    2
 10
1464.0047573825284
 20
1186.5342583144811
 40
27.094072844634088
 50
230.22103899999877
 51
235.21980799999864
  0
ARC
  8
_0-0_計極細
  6
CONTINUOUS
 62
    2
 10
1447.6377879212557
 20
1164.7084774118593
 40
1.0034861863992508
 50
330.00000000000011
 51
89.999999999999545
  0
ARC
  8
_0-0_計極細
  6
CONTINUOUS
 62
    2
 10
1455.8936951086059
 20
1166.9663168155798
 40
0.501740082747087
 50
149.9999999999884
 51
210.00000000005619
  0
LINE
  8
_0-0_計極細
  6
CONTINUOUS
 62
    2
 10
1461.997791030635
 20
1174.4564250862386
 11
1461.997791030635
 21
1178.5424099610773
  0
LINE
  8
_0-0_計極細
  6
CONTINUOUS
 62
    2
 10
1462.4995311133823
 20
1173.5873796892938
 11
1462.4995311133823
 21
1179.4114493371158
  0
ARC
  8
_0-0_計極細
  6
CONTINUOUS
 62
    2
 10
1456.6178955921221
 20
1179.2590000205764
 40
0.501740082747087
 50
269.99999999999977
 51
330.00000000003996
  0
ARC
  8
_0-0_計極細
  6
CONTINUOUS
 62
    2
 10
1461.3976332335076
 20
1176.4994145132041
 40
0.501740082747087
 50
150.00000000009922
 51
209.99999999985545
  0
ARC
  8
_0-0_計極細
  6
CONTINUOUS
 62
    2
 10
1458.7905030635773
 20
1170.9802555402712
 40
1.0034861863992508
 50
29.999999999999559
 51
150.00000000000043
  0
ARC
  8
_0-0_計極細
  6
CONTINUOUS
 62
    2
 10
1461.3976332335076
 20
1196.5691021157591
 40
0.501740082747087
 50
150.00000000009922
 51
209.99999999985545
  0
ARC
  8
_0-0_計極細
  6
CONTINUOUS
 62
    2
 10
1464.2944411884771
 20
1192.5551633910677
 40
1.0034861863992508
 50
210.00000000005113
 51
330.00000000002603
  0
ARC
  8
_0-0_計極細
  6
CONTINUOUS
 62
    2
 10
1456.6178955921221
 20
1193.8095166083863
 40
0.501740082747087
 50
29.99999999995967
 51
89.999999999999901
  0
ARC
  8
_0-0_計極細
  6
CONTINUOUS
 62
    2
 10
1458.6456641710563
 20
1189.2938378009485
 40
1.0034861863992508
 50
269.99999999999977
 51
30.000000000002665
  0
LINE
  8
_0-0_計極細
  6
CONTINUOUS
 62
    2
 10
1465.5099836516754
 20
1168.3731253703436
 11
1465.5099836516754
 21
1180.4149355235154
  0
LINE
  8
_0-0_計極細
  6
CONTINUOUS
 62
    2
 10
1466.0117297553268
 20
1167.5040799734006
 11
1466.0117297553268
 21
1179.5458901265706
  0
ARC
  8
_0-0_計極細
  6
CONTINUOUS
 62
    2
 10
1464.2944411884771
 20
1192.5551633910677
 40
1.0034861863992508
 50
253.22134500003193
 51
330.00000000002603
  0
LINE
  8
_0-0_計極細
  6
CONTINUOUS
 62
    2
 10
1463.1136995566237
 20
1226.6354910859309
 11
1454.1556103356231
 21
1211.1196187035698
  0
ARC
  8
_0-0_計極細
  6
CONTINUOUS
 62
    2
 10
1464.0047573825284
 20
1186.5342583144811
 40
37.630656728658437
 50
93.595995000000485
 51
105.50677600000017
  0
LINE
  8
_0-0_計極細
  6
CONTINUOUS
 62
    2
 10
1456.560251446919
 20
1227.326395964375
 11
1449.9552342852346
 21
1215.8861705628346
  0
LINE
  8
_0-0_計極細
  6
CONTINUOUS
 62
    2
 10
1467.7901726550388
 20
1227.7109933179509
 11
1455.4591724101335
 21
1206.3530728652095
  0
ARC
  8
_0-0_計極細
  6
CONTINUOUS
 62
    2
 10
1455.8936951086059
 20
1206.1021998133842
 40
0.501740082747087
 50
149.9999999999884
 51
210.00000000001123
  0
ARC
  8
_0-0_計極細
  6
CONTINUOUS
 62
    2
 10
1464.0047573825284
 20
1186.5342583144811
 40
27.094072844634088
 50
110.2210389999981
 51
115.21980799999808
  0
ARC
  8
_0-0_計極細
  6
CONTINUOUS
 62
    2
 10
1453.2865649386783
 20
1211.621364807223
 40
1.0034861863992508
 50
210.00000000000267
 51
330.00000000002257
  0
ARC
  8
_0-0_計極細
  6
CONTINUOUS
 62
    2
 10
1450.3897569837061
 20
1215.6352975110085
 40
0.501740082747087
 50
149.99999999999537
 51
209.9999999999593
  0
ARC
  8
_0-0_計極細
  6
CONTINUOUS
 62
    2
 10
1464.0047573825284
 20
1186.5342583144811
 40
37.630656728658437
 50
113.77152300000098
 51
116.31964599999986
  0
ARC
  8
_0-0_計極細
  6
CONTINUOUS
 62
    2
 10
1449.7731199693824
 20
1224.6020929607512
 40
1.0034861863992508
 50
330.00000000002257
 51
110.49822999994124
  0
ARC
  8
_0-0_計極細
  6
CONTINUOUS
 62
    2
 10
1447.7826268137794
 20
1221.1544625048464
 40
1.0034861863992508
 50
209.9999999999992
 51
330.00000000000011
  0
LINE
  8
_0-0_計極細
  6
CONTINUOUS
 62
    2
 10
1450.6421593454231
 20
1224.1003528780038
 11
1448.6516722107242
 21
1220.6527224221018
  0
ARC
  8
_0-0_計極細
  6
CONTINUOUS
 62
    2
 10
1464.0047573825284
 20
1186.5342583144811
 40
27.094072844634088
 50
124.78019199999984
 51
129.77896100000024
  0
ARC
  8
_0-0_計極細
  6
CONTINUOUS
 62
    2
 10
1445.6100193423242
 20
1212.8757180245434
 40
0.501740082747087
 50
30.000000000063526
 51
89.999999999999915
  0
ARC
  8
_0-0_計極細
  6
CONTINUOUS
 62
    2
 10
1447.6377879212557
 20
1208.3600392171043
 40
1.0034861863992508
 50
269.99999999999977
 51
29.999999999999204
  0
ARC
  8
_0-0_計極細
  6
CONTINUOUS
 62
    2
 10
1451.1139574672231
 20
1203.3426203269187
 40
0.501740082747087
 50
29.99999999995967
 51
89.999999999999901
  0
LINE
  8
_0-0_計極細
  6
CONTINUOUS
 62
    2
 10
1462.4995311133823
 20
1206.5055221817493
 11
1462.4995311133823
 21
1213.5864858688342
  0
LINE
  8
_0-0_計極細
  6
CONTINUOUS
 62
    2
 10
1461.997791030635
 20
1205.6364828057108
 11
1461.997791030635
 21
1213.5538947096543
  0
ARC
  8
_0-0_計極細
  6
CONTINUOUS
 62
    2
 10
1462.2446601805857
 20
1227.1372371895845
 40
1.0034861863992508
 50
329.99999999997414
 51
92.482164000031602
  0
ARC
  8
_0-0_計極細
  6
CONTINUOUS
 62
    2
 10
1464.0047573825284
 20
1186.5342583144811
 40
27.094072844634088
 50
84.624317999999832
 51
99.709017000000401
  0
ARC
  8
_0-0_計極細
  6
CONTINUOUS
 62
    2
 10
1456.9947741453905
 20
1227.0755229125498
 40
0.501740082747087
 50
99.810008999948636
 51
149.99999999993648
  0
ARC
  8
_0-0_計極細
  6
CONTINUOUS
 62
    2
 10
1458.7905030635773
 20
1202.0882610886915
 40
1.0034861863992508
 50
209.9999999999992
 51
330.00000000000011
  0
ARC
  8
_0-0_計極細
  6
CONTINUOUS
 62
    2
 10
1464.0047573825284
 20
1186.5342583144811
 40
27.094072844634088
 50
84.624317999999832
 51
89.999999999999915
  0
ARC
  8
_0-0_計極細
  6
CONTINUOUS
 62
    2
 10
1464.0047573825284
 20
1186.5342583144811
 40
27.094072844634088
 50
20.290983000001571
 51
35.37568200000068
  0
LINE
  8
_0-0_計極細
  6
CONTINUOUS
 62
    2
 10
1490.987094270751
 20
1217.715026500754
 11
1474.4332720413329
 21
1189.0429707700273
  0
LINE
  8
_0-0_計極細
  6
CONTINUOUS
 62
    2
 10
1485.7992416205623
 20
1220.771213834008
 11
1468.2051334329169
 21
1190.2973239873472
  0
ARC
  8
_0-0_計極細
  6
CONTINUOUS
 62
    2
 10
1464.0047573825284
 20
1186.5342583144811
 40
27.094072844634088
 50
303.71622000000156
 51
316.68065099999922
  0
ARC
  8
_0-0_計極細
  6
CONTINUOUS
 62
    2
 10
1480.0820490587537
 20
1183.2729327243637
 40
1.0034861863992508
 50
89.999999999999915
 51
210.00000000002515
  0
ARC
  8
_0-0_計極細
  6
CONTINUOUS
 62
    2
 10
1473.9987493428614
 20
1183.7746788280156
 40
0.501740082747087
 50
30.0000000001085
 51
89.999999999999915
  0
ARC
  8
_0-0_計極細
  6
CONTINUOUS
 62
    2
 10
1480.0820490587537
 20
1189.7955839046017
 40
1.0034861863992508
 50
149.99999999997448
 51
269.99999999999977
  0
ARC
  8
_0-0_計極細
  6
CONTINUOUS
 62
    2
 10
1473.9987493428614
 20
1189.2938378009485
 40
0.501740082747087
 50
269.99999999999977
 51
329.99999999989114
  0
ARC
  8
_0-0_計極細
  6
CONTINUOUS
 62
    2
 10
1464.0047573825284
 20
1186.5342583144811
 40
27.094072844634088
 50
324.62431799999973
 51
339.7090169999999
  0
ARC
  8
_0-0_計極細
  6
CONTINUOUS
 62
    2
 10
1464.0047573825284
 20
1186.5342583144811
 40
27.094072844634088
 50
350.22103899999934
 51
355.21980800000068
  0
ARC
  8
_0-0_計極細
  6
CONTINUOUS
 62
    2
 10
1464.0047573825284
 20
1186.5342583144811
 40
27.094072844634088
 50
4.7801919999998796
 51
9.778961000001221
  0
ARC
  8
_0-0_計極細
  6
CONTINUOUS
 62
    2
 10
1491.0899253085533
 20
1183.2729327243637
 40
1.0034861863992508
 50
89.999999999999915
 51
210.00000000002515
  0
ARC
  8
_0-0_計極細
  6
CONTINUOUS
 62
    2
 10
1485.0066255926602
 20
1183.7746788280156
 40
0.501740082747087
 50
30.000000000056566
 51
89.999999999999915
  0
ARC
  8
_0-0_計極細
  6
CONTINUOUS
 62
    2
 10
1491.0899253085533
 20
1189.7955839046017
 40
1.0034861863992508
 50
149.99999999997448
 51
269.99999999999977
  0
ARC
  8
_0-0_計極細
  6
CONTINUOUS
 62
    2
 10
1485.0066255926602
 20
1189.2938378009485
 40
0.501740082747087
 50
269.99999999999977
 51
329.9999999999431
  0
ARC
  8
_0-0_計極細
  6
CONTINUOUS
 62
    2
 10
1464.0047573825284
 20
1186.5342583144811
 40
27.094072844634088
 50
43.319349000001104
 51
56.28377999999919
  0
ARC
  8
_0-0_計極細
  6
CONTINUOUS
 62
    2
 10
1464.0047573825284
 20
1186.5342583144811
 40
37.630656728658437
 50
62.674774000000312
 51
71.927081999999317
  0
ARC
  8
_0-0_計極細
  6
CONTINUOUS
 62
    2
 10
1464.0047573825284
 20
1186.5342583144811
 40
27.094072844634088
 50
63.716220000000746
 51
76.680650999998889
  0
ARC
  8
_0-0_計極細
  6
CONTINUOUS
 62
    2
 10
1477.951449442018
 20
1225.2411578464839
 40
0.501740082747087
 50
70.185127999891137
 51
149.99999999993648
  0
ARC
  8
_0-0_計極細
  6
CONTINUOUS
 62
    2
 10
1472.7277061766679
 20
1226.2282129829309
 40
1.0034861863992508
 50
329.99999999999665
 51
77.605965999942228
  0
ARC
  8
_0-0_計極細
  6
CONTINUOUS
 62
    2
 10
1464.0047573825284
 20
1186.5342583144811
 40
37.630656728658437
 50
48.072918000001373
 51
57.325226000001372
  0
ARC
  8
_0-0_計極細
  6
CONTINUOUS
 62
    2
 10
1486.6682809966003
 20
1220.2694677303562
 40
1.0034861863992508
 50
56.106549999971008
 51
149.99999999999699
  0
ARC
  8
_0-0_計極細
  6
CONTINUOUS
 62
    2
 10
1490.5525715722786
 20
1217.9658935316743
 40
0.501740082747087
 50
330.00000000009186
 51
49.814871999965682
  0
ARC
  8
_0-0_計極細
  6
CONTINUOUS
 62
    2
 10
1481.8885493761243
 20
1223.0290532377267
 40
1.0034861863992508
 50
330.00000000000011
 51
63.893449999974756
  0
ARC
  8
_0-0_計極細
  6
CONTINUOUS
 62
    2
 10
1494.0192581927483
 20
1159.1329868510302
 40
1.0034861863992508
 50
210.00000000002515
 51
317.6059660000256
  0
ARC
  8
_0-0_計極細
  6
CONTINUOUS
 62
    2
 10
1497.3376318584685
 20
1162.4167523543692
 40
0.501740082747087
 50
324.11293799996702
 51
29.999999999959307
  0
ARC
  8
_0-0_計極細
  6
CONTINUOUS
 62
    2
 10
1464.0047573825284
 20
1186.5342583144811
 40
37.630656728658437
 50
14.493223999999607
 51
26.404005000000534
  0
LINE
  8
_0-0_計極細
  6
CONTINUOUS
 62
    2
 10
1503.0540417026166
 20
1200.4831961715663
 11
1496.4490245409313
 21
1189.0429707700273
  0
ARC
  8
_0-0_計極細
  6
CONTINUOUS
 62
    2
 10
1504.0882947139578
 20
1179.8253022684594
 40
1.0034861863992508
 50
209.99999999997672
 51
350.4982300000064
  0
ARC
  8
_0-0_計極細
  6
CONTINUOUS
 62
    2
 10
1504.0882947139578
 20
1193.2432143605047
 40
1.0034861863992508
 50
9.5017699999932326
 51
150.00000000000043
  0
ARC
  8
_0-0_計極細
  6
CONTINUOUS
 62
    2
 10
1464.0047573825284
 20
1186.5342583144811
 40
37.630656728658437
 50
3.6803540000001762
 51
6.228477000000372
  0
ARC
  8
_0-0_計極細
  6
CONTINUOUS
 62
    2
 10
1464.0047573825284
 20
1186.5342583144811
 40
37.630656728658437
 50
353.77152300000063
 51
356.31964600000015
  0
ARC
  8
_0-0_計極細
  6
CONTINUOUS
 62
    2
 10
1464.0047573825284
 20
1186.5342583144811
 40
37.630656728658437
 50
333.59599499999973
 51
345.50677600000074
  0
ARC
  8
_0-0_計極細
  6
CONTINUOUS
 62
    2
 10
1500.0480205504607
 20
1167.7570603420027
 40
1.0034861863992508
 50
209.99999999997672
 51
332.48216400001218
  0
ARC
  8
_0-0_計極細
  6
CONTINUOUS
 62
    2
 10
1502.0978015583521
 20
1183.2729327243637
 40
1.0034861863992508
 50
89.999999999999915
 51
210.00000000002515
  0
ARC
  8
_0-0_計極細
  6
CONTINUOUS
 62
    2
 10
1496.0145018424589
 20
1183.7746788280156
 40
0.501740082747087
 50
30.000000000004636
 51
89.999999999999915
  0
LINE
  8
_0-0_計極細
  6
CONTINUOUS
 62
    2
 10
1503.219249317013
 20
1179.3235621857129
 11
1501.2287621823141
 21
1182.7711926416173
  0
LINE
  8
_0-0_計極細
  6
CONTINUOUS
 62
    2
 10
1503.0540417026166
 20
1172.5853204573987
 11
1496.4490245409313
 21
1184.0255458589354
  0
ARC
  8
_0-0_計極細
  6
CONTINUOUS
 62
    2
 10
1502.0978015583521
 20
1189.7955839046017
 40
1.0034861863992508
 50
149.99999999997448
 51
269.99999999999977
  0
ARC
  8
_0-0_計極細
  6
CONTINUOUS
 62
    2
 10
1496.0145018424589
 20
1189.2938378009485
 40
0.501740082747087
 50
269.99999999999977
 51
329.999999999995
  0
LINE
  8
_0-0_計極細
  6
CONTINUOUS
 62
    2
 10
1503.219249317013
 20
1193.7449544432511
 11
1501.2287621823141
 21
1190.2973239873472
  0
ARC
  8
_0-0_計極細
  6
CONTINUOUS
 62
    2
 10
1494.0192581927483
 20
1213.9355297779339
 40
1.0034861863992508
 50
42.394033999974049
 51
149.99999999997448
  0
ARC
  8
_0-0_計極細
  6
CONTINUOUS
 62
    2
 10
1497.3376318584685
 20
1210.6517642745944
 40
0.501740082747087
 50
330.00000000003996
 51
35.887062000032259
  0
ARC
  8
_0-0_計極細
  6
CONTINUOUS
 62
    2
 10
1500.0480205504607
 20
1205.3114562869614
 40
1.0034861863992508
 50
27.517836000010465
 51
150.00000000000043
  0
LINE
  8
_0-0_計極細
  6
CONTINUOUS
 62
    2
 10
1465.5099836516754
 20
1159.4820296227635
 11
1465.5099836516754
 21
1161.3487412728568
  0
LINE
  8
_0-0_計極細
  6
CONTINUOUS
 62
    2
 10
1466.0117297553268
 20
1159.514620174692
 11
1466.0117297553268
 21
1160.4796912412985
  0
LINE
  8
_0-0_計極細
  6
CONTINUOUS
 62
    2
 10
1465.5099836516754
 20
1211.7197728287047
 11
1465.5099836516754
 21
1213.5864870061991
  0
LINE
  8
_0-0_計極細
  6
CONTINUOUS
 62
    2
 10
1466.0117297553268
 20
1212.5888226435072
 11
1466.0117297553268
 21
1213.5538964542707
  0
LINE
  8
_0-0_計極細
  6
CENTER2
 62
    2
 10
638.83230101112053
 20
1186.5342583144811
 11
1553.8610216377526
 21
1186.5342583144811
  0
LINE
  8
_0-1_計細線
  6
CONTINUOUS
 62
    3
 10
648.00376026894605
 20
1258.5342583144816
 11
648.00376026894605
 21
1114.5342583144811
  0
LINE
  8
_0-1_計細線
  6
CONTINUOUS
 62
    3
 10
648.00376026894605
 20
1114.5342583144811
 11
1544.0037602689461
 21
1114.5342583144811
  0
LINE
  8
_0-1_計細線
  6
CONTINUOUS
 62
    3
 10
1544.0037602689461
 20
1114.5342583144811
 11
1544.0037602689461
 21
1258.5342583144816
  0
LINE
  8
_0-1_計細線
  6
CONTINUOUS
 62
    3
 10
1544.0037602689461
 20
1258.5342583144816
 11
648.00376026894605
 21
1258.5342583144816
  0
LINE
  8
_0-1_計細線
  6
CONTINUOUS
 62
    3
 10
659.00376026894605
 20
1247.5342583144816
 11
659.00376026894605
 21
1125.5342583144811
  0
LINE
  8
_0-1_計細線
  6
CONTINUOUS
 62
    3
 10
659.00376026894605
 20
1125.5342583144811
 11
1533.0037602689461
 21
1125.5342583144811
  0
LINE
  8
_0-1_計細線
  6
CONTINUOUS
 62
    3
 10
1533.0037602689461
 20
1125.5342583144811
 11
1533.0037602689461
 21
1247.5342583144816
  0
LINE
  8
_0-1_計細線
  6
CONTINUOUS
 62
    3
 10
1533.0037602689461
 20
1247.5342583144816
 11
659.00376026894605
 21
1247.5342583144816
  0
LINE
  8
_0-5_寸法線
  6
CONTINUOUS
 62
    7
 10
648.00376026894605
 20
1098.5342583144811
 11
648.00376026894605
 21
1026.5342583144811
  0
LINE
  8
_0-5_寸法線
  6
CONTINUOUS
 62
    7
 10
648.00376026894605
 20
1034.5342583144811
 11
663.45857348957111
 21
1038.6753630361216
  0
LINE
  8
_0-5_寸法線
  6
CONTINUOUS
 62
    7
 10
648.00376026894605
 20
1034.5342583144811
 11
663.45857348957111
 21
1030.3931535928407
  0
LINE
  8
_0-5_寸法線
  6
CONTINUOUS
 62
    7
 10
1464.0037602689461
 20
1098.5342583144811
 11
1464.0037602689461
 21
1026.5342583144811
  0
LINE
  8
_0-5_寸法線
  6
CONTINUOUS
 62
    7
 10
1464.0037602689461
 20
1034.5342583144811
 11
1448.548947048321
 21
1030.3931535928409
  0
LINE
  8
_0-5_寸法線
  6
CONTINUOUS
 62
    7
 10
1464.0037602689461
 20
1034.5342583144811
 11
1448.548947048321
 21
1038.6753630361216
  0
LINE
  8
_0-5_寸法線
  6
CONTINUOUS
 62
    7
 10
648.00376026894605
 20
1034.5342583144811
 11
1464.0037602689461
 21
1034.5342583144811
  0
TEXT
  8
_0-5_寸法線
 62
    7
 10
1038.0037602689461
 20
1034.5342583144811
 40
24
 41
1
 50
0
  1
816
  0
LINE
  8
_0-5_寸法線
  6
CONTINUOUS
 62
    7
 10
1464.0037602689461
 20
1034.5342583144811
 11
1479.4585734895711
 21
1038.6753630361213
  0
LINE
  8
_0-5_寸法線
  6
CONTINUOUS
 62
    7
 10
1464.0037602689461
 20
1034.5342583144811
 11
1479.4585734895711
 21
1030.3931535928407
  0
LINE
  8
_0-5_寸法線
  6
CONTINUOUS
 62
    7
 10
1544.0037602689461
 20
1098.5342583144811
 11
1544.0037602689461
 21
1026.5342583144811
  0
LINE
  8
_0-5_寸法線
  6
CONTINUOUS
 62
    7
 10
1544.0037602689461
 20
1034.5342583144811
 11
1528.548947048321
 21
1030.3931535928409
  0
LINE
  8
_0-5_寸法線
  6
CONTINUOUS
 62
    7
 10
1544.0037602689461
 20
1034.5342583144811
 11
1528.548947048321
 21
1038.6753630361216
  0
LINE
  8
_0-5_寸法線
  6
CONTINUOUS
 62
    7
 10
1464.0037602689461
 20
1034.5342583144811
 11
1544.0037602689461
 21
1034.5342583144811
  0
TEXT
  8
_0-5_寸法線
 62
    7
 10
1492.0037602689451
 20
1034.5342583144811
 40
24
 41
1
 50
0
  1
80
  0
LINE
  8
_0-5_寸法線
  6
CONTINUOUS
 62
    7
 10
632.00376026894605
 20
1114.5342583144811
 11
560.00376026894605
 21
1114.5342583144811
  0
LINE
  8
_0-5_寸法線
  6
CONTINUOUS
 62
    7
 10
568.00376026894605
 20
1114.5342583144811
 11
572.14486499058626
 21
1099.0794450938561
  0
LINE
  8
_0-5_寸法線
  6
CONTINUOUS
 62
    7
 10
568.00376026894605
 20
1114.5342583144811
 11
563.86265554730562
 21
1099.0794450938561
  0
LINE
  8
_0-5_寸法線
  6
CONTINUOUS
 62
    7
 10
632.00376026894605
 20
1125.5342583144811
 11
560.00376026894605
 21
1125.5342583144811
  0
LINE
  8
_0-5_寸法線
  6
CONTINUOUS
 62
    7
 10
568.00376026894605
 20
1065.9534918260433
 11
568.00376026894605
 21
1125.5342583144811
  0
TEXT
  8
_0-5_寸法線
 62
    7
 10
568.00376026894605
 20
1065.9534918260433
 40
24
 41
1
 50
90
  1
11
  0
LINE
  8
_0-5_寸法線
  6
CONTINUOUS
 62
    7
 10
568.00376026894605
 20
1125.5342583144811
 11
563.86265554730574
 21
1140.9890715351062
  0
LINE
  8
_0-5_寸法線
  6
CONTINUOUS
 62
    7
 10
568.00376026894605
 20
1125.5342583144811
 11
572.14486499058637
 21
1140.9890715351062
  0
LINE
  8
_0-5_寸法線
  6
CONTINUOUS
 62
    7
 10
632.00376026894605
 20
1247.5342583144816
 11
560.00376026894605
 21
1247.534258314482
  0
LINE
  8
_0-5_寸法線
  6
CONTINUOUS
 62
    7
 10
568.00376026894605
 20
1247.534258314482
 11
572.14486499058626
 21
1232.079445093857
  0
LINE
  8
_0-5_寸法線
  6
CONTINUOUS
 62
    7
 10
568.00376026894605
 20
1247.534258314482
 11
563.86265554730562
 21
1232.079445093857
  0
LINE
  8
_0-5_寸法線
  6
CONTINUOUS
 62
    7
 10
568.00376026894605
 20
1125.5342583144811
 11
568.00376026894605
 21
1247.534258314482
  0
TEXT
  8
_0-5_寸法線
 62
    7
 10
568.00376026894605
 20
1168.5342583144816
 40
24
 41
1
 50
90
  1
122
  0
LINE
  8
_0-5_寸法線
  6
CONTINUOUS
 62
    7
 10
632.00376026894605
 20
1258.5342583144816
 11
560.00376026894605
 21
1258.534258314482
  0
LINE
  8
_0-5_寸法線
  6
CONTINUOUS
 62
    7
 10
568.00376026894605
 20
1258.534258314482
 11
563.86265554730574
 21
1273.9890715351071
  0
LINE
  8
_0-5_寸法線
  6
CONTINUOUS
 62
    7
 10
568.00376026894605
 20
1258.534258314482
 11
572.14486499058637
 21
1273.9890715351071
  0
LINE
  8
_0-5_寸法線
  6
CONTINUOUS
 62
    7
 10
568.00376026894605
 20
1247.534258314482
 11
568.00376026894605
 21
1301.6519148867874
  0
TEXT
  8
_0-5_寸法線
 62
    7
 10
568.00376026894605
 20
1277.6519148867874
 40
24
 41
1
 50
90
  1
11
  0
LINE
  8
_0-5_寸法線
  6
CONTINUOUS
 62
    7
 10
632.00376026894605
 20
1258.5342583144816
 11
504.00376026894605
 21
1258.5342583144816
  0
LINE
  8
_0-5_寸法線
  6
CONTINUOUS
 62
    7
 10
512.00376026894605
 20
1258.5342583144816
 11
516.14486499058626
 21
1243.0794450938565
  0
LINE
  8
_0-5_寸法線
  6
CONTINUOUS
 62
    7
 10
512.00376026894605
 20
1258.5342583144816
 11
507.86265554730562
 21
1243.0794450938565
  0
LINE
  8
_0-5_寸法線
  6
CONTINUOUS
 62
    7
 10
632.00376026894605
 20
1114.5342583144811
 11
504.00376026894605
 21
1114.5342583144811
  0
LINE
  8
_0-5_寸法線
  6
CONTINUOUS
 62
    7
 10
512.00376026894605
 20
1114.5342583144811
 11
507.86265554730562
 21
1129.9890715351062
  0
LINE
  8
_0-5_寸法線
  6
CONTINUOUS
 62
    7
 10
512.00376026894605
 20
1114.5342583144811
 11
516.14486499058637
 21
1129.9890715351062
  0
LINE
  8
_0-5_寸法線
  6
CONTINUOUS
 62
    7
 10
512.00376026894605
 20
1258.5342583144816
 11
512.00376026894605
 21
1114.5342583144811
  0
TEXT
  8
_0-5_寸法線
 62
    7
 10
512.00376026894605
 20
1168.5342583144811
 40
24
 41
1
 50
90
  1
144
  0
LINE
  8
_0-5_寸法線
  6
CONTINUOUS
 62
    7
 10
1531.5037602689461
 20
1274.5342583144816
 11
1531.5037602689461
 21
1346.5342583144816
  0
LINE
  8
_0-5_寸法線
  6
CONTINUOUS
 62
    7
 10
1531.5037602689461
 20
1338.5342583144816
 11
1516.048947048321
 21
1334.3931535928414
  0
LINE
  8
_0-5_寸法線
  6
CONTINUOUS
 62
    7
 10
1531.5037602689461
 20
1338.5342583144816
 11
1516.048947048321
 21
1342.675363036122
  0
LINE
  8
_0-5_寸法線
  6
CONTINUOUS
 62
    7
 10
660.50376026894617
 20
1274.5342583144811
 11
660.50376026894651
 21
1346.5342583144816
  0
LINE
  8
_0-5_寸法線
  6
CONTINUOUS
 62
    7
 10
660.50376026894651
 20
1338.5342583144816
 11
675.95857348957156
 21
1342.675363036122
  0
LINE
  8
_0-5_寸法線
  6
CONTINUOUS
 62
    7
 10
660.50376026894651
 20
1338.5342583144816
 11
675.95857348957156
 21
1334.3931535928411
  0
LINE
  8
_0-5_寸法線
  6
CONTINUOUS
 62
    7
 10
1531.5037602689461
 20
1338.5342583144816
 11
660.50376026894651
 21
1338.5342583144816
  0
TEXT
  8
_0-5_寸法線
 62
    7
 10
1078.0037602689461
 20
1338.5342583144816
 40
24
 41
1
 50
0
  1
871
  0
LINE
  8
_0-5_寸法線
  6
CONTINUOUS
 62
    7
 10
648.00376026894605
 20
1274.5342583144816
 11
648.00376026894651
 21
1402.5342583144816
  0
LINE
  8
_0-5_寸法線
  6
CONTINUOUS
 62
    7
 10
648.00376026894651
 20
1394.5342583144816
 11
632.54894704832145
 21
1390.3931535928414
  0
LINE
  8
_0-5_寸法線
  6
CONTINUOUS
 62
    7
 10
648.00376026894651
 20
1394.5342583144816
 11
632.54894704832145
 21
1398.675363036122
  0
LINE
  8
_0-5_寸法線
  6
CONTINUOUS
 62
    7
 10
659.00376026894605
 20
1274.5342583144811
 11
659.00376026894651
 21
1402.5342583144816
  0
LINE
  8
_0-5_寸法線
  6
CONTINUOUS
 62
    7
 10
601.45197405717431
 20
1394.5342583144816
 11
659.00376026894651
 21
1394.5342583144816
  0
TEXT
  8
_0-5_寸法線
 62
    7
 10
601.45197405717431
 20
1394.5342583144816
 40
24
 41
1
 50
0
  1
11
  0
LINE
  8
_0-5_寸法線
  6
CONTINUOUS
 62
    7
 10
659.00376026894651
 20
1394.5342583144816
 11
674.45857348957168
 21
1398.6753630361218
  0
LINE
  8
_0-5_寸法線
  6
CONTINUOUS
 62
    7
 10
659.00376026894651
 20
1394.5342583144816
 11
674.45857348957156
 21
1390.3931535928411
  0
LINE
  8
_0-5_寸法線
  6
CONTINUOUS
 62
    7
 10
1533.0037602689461
 20
1274.5342583144816
 11
1533.0037602689461
 21
1402.5342583144816
  0
LINE
  8
_0-5_寸法線
  6
CONTINUOUS
 62
    7
 10
1533.0037602689461
 20
1394.5342583144816
 11
1517.548947048321
 21
1390.3931535928414
  0
LINE
  8
_0-5_寸法線
  6
CONTINUOUS
 62
    7
 10
1533.0037602689461
 20
1394.5342583144816
 11
1517.548947048321
 21
1398.675363036122
  0
LINE
  8
_0-5_寸法線
  6
CONTINUOUS
 62
    7
 10
659.00376026894651
 20
1394.5342583144816
 11
1533.0037602689461
 21
1394.5342583144816
  0
TEXT
  8
_0-5_寸法線
 62
    7
 10
1078.0037602689461
 20
1394.5342583144816
 40
24
 41
1
 50
0
  1
874
  0
LINE
  8
_0-5_寸法線
  6
CONTINUOUS
 62
    7
 10
1544.0037602689461
 20
1274.5342583144816
 11
1544.0037602689461
 21
1402.5342583144816
  0
LINE
  8
_0-5_寸法線
  6
CONTINUOUS
 62
    7
 10
1544.0037602689461
 20
1394.5342583144816
 11
1559.4585734895711
 21
1398.6753630361218
  0
LINE
  8
_0-5_寸法線
  6
CONTINUOUS
 62
    7
 10
1544.0037602689461
 20
1394.5342583144816
 11
1559.4585734895711
 21
1390.3931535928411
  0
LINE
  8
_0-5_寸法線
  6
CONTINUOUS
 62
    7
 10
1533.0037602689461
 20
1394.5342583144816
 11
1587.2807477584151
 21
1394.5342583144816
  0
TEXT
  8
_0-5_寸法線
 62
    7
 10
1563.2807477584154
 20
1394.5342583144816
 40
24
 41
1
 50
0
  1
11
  0
LINE
  8
_0-5_寸法線
  6
CONTINUOUS
 62
    7
 10
648.00376026894605
 20
1274.5342583144816
 11
648.00376026894605
 21
1458.5342583144816
  0
LINE
  8
_0-5_寸法線
  6
CONTINUOUS
 62
    7
 10
648.00376026894605
 20
1450.5342583144816
 11
663.45857348957111
 21
1454.675363036122
  0
LINE
  8
_0-5_寸法線
  6
CONTINUOUS
 62
    7
 10
648.00376026894605
 20
1450.5342583144816
 11
663.45857348957111
 21
1446.3931535928411
  0
LINE
  8
_0-5_寸法線
  6
CONTINUOUS
 62
    7
 10
1544.0037602689461
 20
1274.5342583144816
 11
1544.0037602689461
 21
1458.5342583144816
  0
LINE
  8
_0-5_寸法線
  6
CONTINUOUS
 62
    7
 10
1544.0037602689461
 20
1450.5342583144816
 11
1528.548947048321
 21
1446.3931535928414
  0
LINE
  8
_0-5_寸法線
  6
CONTINUOUS
 62
    7
 10
1544.0037602689461
 20
1450.5342583144816
 11
1528.548947048321
 21
1454.675363036122
  0
LINE
  8
_0-5_寸法線
  6
CONTINUOUS
 62
    7
 10
648.00376026894605
 20
1450.5342583144816
 11
1544.0037602689461
 21
1450.5342583144816
  0
TEXT
  8
_0-5_寸法線
 62
    7
 10
1078.0037602689461
 20
1450.5342583144816
 40
24
 41
1
 50
0
  1
896
  0
LINE
  8
_0-1_計細線
  6
CONTINUOUS
 62
    3
 10
1688.0037602689461
 20
1124.5342583144811
 11
1723.0037602689461
 21
1124.5342583144811
  0
LINE
  8
_0-1_計細線
  6
CONTINUOUS
 62
    3
 10
1723.0037602689461
 20
1124.5342583144811
 11
1723.0037602689461
 21
1123.3342583144822
  0
LINE
  8
_0-1_計細線
  6
CONTINUOUS
 62
    3
 10
1723.0037602689461
 20
1123.3342583144822
 11
1688.0037602689461
 21
1123.3342583144822
  0
LINE
  8
_0-1_計細線
  6
CONTINUOUS
 62
    3
 10
1688.0037602689461
 20
1123.3342583144822
 11
1688.0037602689461
 21
1124.5342583144811
  0
LINE
  8
_0-1_計細線
  6
CONTINUOUS
 62
    3
 10
1690.0037602689461
 20
1123.3342583144822
 11
1690.0037602689461
 21
1124.5342583144811
  0
LINE
  8
_0-1_計細線
  6
CONTINUOUS
 62
    3
 10
1700.0037602689461
 20
1123.3342583144822
 11
1700.0037602689461
 21
1124.5342583144811
  0
LINE
  8
_0-1_計細線
  6
CONTINUOUS
 62
    3
 10
1702.0037602689461
 20
1123.3342583144822
 11
1702.0037602689461
 21
1124.5342583144811
  0
LINE
  8
_0-1_計細線
  6
CONTINUOUS
 62
    3
 10
1704.0037602689461
 20
1123.3342583144822
 11
1704.0037602689461
 21
1124.5342583144811
  0
LINE
  8
_0-1_計細線
  6
CONTINUOUS
 62
    3
 10
1706.0037602689461
 20
1123.3342583144822
 11
1706.0037602689461
 21
1124.5342583144811
  0
LINE
  8
_0-1_計細線
  6
CONTINUOUS
 62
    3
 10
1720.0037602689461
 20
1123.3342583144822
 11
1720.0037602689461
 21
1124.5342583144811
  0
ARC
  8
_0-1_計細線
  6
CONTINUOUS
 62
    3
 10
1699.0037602689461
 20
1247.5342583144811
 40
1
 50
0
 51
89.999999999999915
  0
LINE
  8
_0-1_計細線
  6
CONTINUOUS
 62
    3
 10
1688.0037602689461
 20
1249.7342583144809
 11
1723.0037602689461
 21
1249.7342583144809
  0
LINE
  8
_0-1_計細線
  6
CONTINUOUS
 62
    3
 10
1723.0037602689461
 20
1249.7342583144809
 11
1723.0037602689461
 21
1248.5342583144811
  0
LINE
  8
_0-1_計細線
  6
CONTINUOUS
 62
    3
 10
1723.0037602689461
 20
1248.5342583144811
 11
1688.0037602689461
 21
1248.5342583144811
  0
LINE
  8
_0-1_計細線
  6
CONTINUOUS
 62
    3
 10
1688.0037602689461
 20
1248.5342583144811
 11
1688.0037602689461
 21
1249.7342583144809
  0
LINE
  8
_0-1_計細線
  6
CONTINUOUS
 62
    3
 10
1690.0037602689461
 20
1248.5342583144811
 11
1690.0037602689461
 21
1249.7342583144809
  0
LINE
  8
_0-1_計細線
  6
CONTINUOUS
 62
    3
 10
1700.0037602689461
 20
1248.5342583144811
 11
1700.0037602689461
 21
1249.7342583144809
  0
LINE
  8
_0-1_計細線
  6
CONTINUOUS
 62
    3
 10
1702.0037602689461
 20
1248.5342583144811
 11
1702.0037602689461
 21
1249.7342583144809
  0
LINE
  8
_0-1_計細線
  6
CONTINUOUS
 62
    3
 10
1704.0037602689461
 20
1248.5342583144811
 11
1704.0037602689461
 21
1249.7342583144809
  0
LINE
  8
_0-1_計細線
  6
CONTINUOUS
 62
    3
 10
1706.0037602689461
 20
1248.5342583144811
 11
1706.0037602689461
 21
1249.7342583144809
  0
LINE
  8
_0-1_計細線
  6
CONTINUOUS
 62
    3
 10
1720.0037602689461
 20
1248.5342583144811
 11
1720.0037602689461
 21
1249.7342583144809
  0
LINE
  8
_0-1_計細線
  6
CONTINUOUS
 62
    3
 10
1688.0037602689461
 20
1258.5342583144811
 11
1681.0037602689461
 21
1258.5342583144811
  0
ARC
  8
_0-1_計細線
  6
CONTINUOUS
 62
    3
 10
1681.0037602689461
 20
1257.5342583144811
 40
1
 50
89.999999999999915
 51
179.99999999999983
  0
LINE
  8
_0-1_計細線
  6
CONTINUOUS
 62
    3
 10
1680.0037602689461
 20
1257.5342583144811
 11
1680.0037602689461
 21
1115.5342583144811
  0
ARC
  8
_0-1_計細線
  6
CONTINUOUS
 62
    3
 10
1681.0037602689461
 20
1115.5342583144811
 40
1
 50
179.99999999999983
 51
269.99999999994753
  0
LINE
  8
_0-1_計細線
  6
CONTINUOUS
 62
    3
 10
1688.0037602689461
 20
1114.5342583144811
 11
1688.0037602689461
 21
1258.5342583144811
  0
LINE
  8
_0-1_計細線
  6
CONTINUOUS
 62
    3
 10
1688.0037602689461
 20
1114.5342583144811
 11
1681.0037602689451
 21
1114.5342583144811
  0
LINE
  8
_0-0_計極細
  6
CENTER2
 62
    2
 10
1640.7614538832083
 20
1186.5342583144811
 11
1755.9844754659405
 21
1186.5342583144811
  0
LINE
  8
_0-1_計細線
  6
CONTINUOUS
 62
    3
 10
1700.0037602689461
 20
1247.5342583144811
 11
1700.0037602689461
 21
1125.5342583144811
  0
ARC
  8
_0-1_計細線
  6
CONTINUOUS
 62
    3
 10
1699.0037602689461
 20
1125.5342583144811
 40
1
 50
269.99999999999977
 51
359.99999999999966
  0
ARC
  8
_0-1_計細線
  6
CONTINUOUS
 62
    3
 10
1702.503760268947
 20
1243.5342583144811
 40
1.5
 50
0
 51
89.999999999999915
  0
LINE
  8
_0-1_計細線
  6
CONTINUOUS
 62
    3
 10
1700.503760268947
 20
1245.0342583144811
 11
1702.503760268947
 21
1245.0342583144811
  0
ARC
  8
_0-1_計細線
  6
CONTINUOUS
 62
    3
 10
1700.503760268947
 20
1245.5342583144811
 40
0.5
 50
179.99999999999983
 51
269.99999999999977
  0
LINE
  8
_0-1_計細線
  6
CONTINUOUS
 62
    3
 10
1700.503760268947
 20
1128.0342583144811
 11
1702.503760268947
 21
1128.0342583144811
  0
ARC
  8
_0-1_計細線
  6
CONTINUOUS
 62
    3
 10
1700.503760268947
 20
1127.5342583144811
 40
0.5
 50
89.999999999999915
 51
179.99999999999983
  0
LINE
  8
_0-1_計細線
  6
CONTINUOUS
 62
    3
 10
1704.003760268947
 20
1243.5342583144811
 11
1704.003760268947
 21
1129.5342583144811
  0
ARC
  8
_0-1_計細線
  6
CONTINUOUS
 62
    3
 10
1702.503760268947
 20
1129.5342583144811
 40
1.5
 50
269.99999999999977
 51
359.99999999999966
  0
LINE
  8
_0-5_寸法線
  6
CONTINUOUS
 62
    7
 10
1680.0037602689461
 20
1274.5342583144811
 11
1680.0037602689461
 21
1346.5342583144816
  0
LINE
  8
_0-5_寸法線
  6
CONTINUOUS
 62
    7
 10
1680.0037602689461
 20
1338.5342583144816
 11
1664.548947048321
 21
1334.3931535928414
  0
LINE
  8
_0-5_寸法線
  6
CONTINUOUS
 62
    7
 10
1680.0037602689461
 20
1338.5342583144816
 11
1664.548947048321
 21
1342.675363036122
  0
LINE
  8
_0-5_寸法線
  6
CONTINUOUS
 62
    7
 10
1700.0037602689461
 20
1265.7342583144809
 11
1700.0037602689461
 21
1346.5342583144816
  0
CIRCLE
  8
_0-5_寸法線
  6
CONTINUOUS
 62
    1
 10
1700.0037602689461
 20
1338.5342583144816
 40
2.4000000000000004
  0
LINE
  8
_0-5_寸法線
  6
CONTINUOUS
 62
    7
 10
1637.0421667177484
 20
1338.5342583144816
 11
1700.0037602689461
 21
1338.5342583144816
  0
TEXT
  8
_0-5_寸法線
 62
    7
 10
1637.0421667177486
 20
1338.5342583144816
 40
24
 41
1
 50
0
  1
20
  0
LINE
  8
_0-5_寸法線
  6
CONTINUOUS
 62
    7
 10
1723.0037602689461
 20
1265.7342583144809
 11
1723.0037602689461
 21
1346.5342583144816
  0
LINE
  8
_0-5_寸法線
  6
CONTINUOUS
 62
    7
 10
1723.0037602689461
 20
1338.5342583144816
 11
1738.4585734895711
 21
1342.6753630361218
  0
LINE
  8
_0-5_寸法線
  6
CONTINUOUS
 62
    7
 10
1723.0037602689461
 20
1338.5342583144816
 11
1738.4585734895711
 21
1334.3931535928411
  0
LINE
  8
_0-5_寸法線
  6
CONTINUOUS
 62
    7
 10
1700.0037602689461
 20
1338.5342583144816
 11
1769.344950711034
 21
1338.5342583144816
  0
TEXT
  8
_0-5_寸法線
 62
    7
 10
1745.3449507110342
 20
1338.5342583144816
 40
24
 41
1
 50
0
  1
23
  0
LINE
  8
_0-5_寸法線
  6
CONTINUOUS
 62
    7
 10
1680.0037602689463
 20
1274.534258314482
 11
1680.0037602689479
 21
1402.5342583144816
  0
LINE
  8
_0-5_寸法線
  6
CONTINUOUS
 62
    7
 10
1680.0037602689479
 20
1394.5342583144816
 11
1695.4585734895729
 21
1398.675363036122
  0
LINE
  8
_0-5_寸法線
  6
CONTINUOUS
 62
    7
 10
1680.0037602689479
 20
1394.5342583144816
 11
1695.4585734895729
 21
1390.3931535928411
  0
LINE
  8
_0-5_寸法線
  6
CONTINUOUS
 62
    7
 10
1723.0037602689461
 20
1265.7342583144809
 11
1723.0037602689461
 21
1402.5342583144816
  0
LINE
  8
_0-5_寸法線
  6
CONTINUOUS
 62
    7
 10
1723.0037602689461
 20
1394.5342583144816
 11
1707.548947048321
 21
1390.3931535928414
  0
LINE
  8
_0-5_寸法線
  6
CONTINUOUS
 62
    7
 10
1723.0037602689461
 20
1394.5342583144816
 11
1707.548947048321
 21
1398.675363036122
  0
LINE
  8
_0-5_寸法線
  6
CONTINUOUS
 62
    7
 10
1680.0037602689479
 20
1394.5342583144816
 11
1723.0037602689461
 21
1394.5342583144816
  0
TEXT
  8
_0-5_寸法線
 62
    7
 10
1689.5037602689461
 20
1394.5342583144816
 40
24
 41
1
 50
0
  1
43
  0
ARC
  8
_0-1_計細線
  6
CONTINUOUS
 62
    3
 10
1543.0037602689461
 20
873.53425831448112
 40
1
 50
0
 51
89.999999999999915
  0
LINE
  8
_0-1_計細線
  6
CONTINUOUS
 62
    3
 10
1544.0037602689461
 20
866.53425831448112
 11
1544.0037602689461
 21
873.53425831448112
  0
LINE
  8
_0-1_計細線
  6
CONTINUOUS
 62
    3
 10
1543.003760268947
 20
866.53425831448112
 11
1544.0037602689461
 21
866.53425831448112
  0
ARC
  8
_0-1_計細線
  6
CONTINUOUS
 62
    3
 10
1523.0037602689461
 20
854.03425831448021
 40
1.5
 50
89.999999999999915
 51
179.99999999999983
  0
LINE
  8
_0-1_計細線
  6
CONTINUOUS
 62
    3
 10
1521.5037602689461
 20
854.03425831448021
 11
1521.5037602689461
 21
852.03425831448021
  0
ARC
  8
_0-1_計細線
  6
CONTINUOUS
 62
    3
 10
1521.0037602689461
 20
852.03425831448021
 40
1.5
 50
269.99999999999977
 51
359.99999999999966
  0
LINE
  8
_0-1_計細線
  6
CONTINUOUS
 62
    3
 10
1522.5037602689461
 20
854.03425831448021
 11
1522.5037602689461
 21
852.03425831448021
  0
LINE
  8
_0-1_計細線
  6
CONTINUOUS
 62
    3
 10
1521.0037602689461
 20
850.53425831448021
 11
1515.0037602689461
 21
850.53425831448021
  0
ARC
  8
_0-1_計細線
  6
CONTINUOUS
 62
    3
 10
1523.0037602689461
 20
854.03425831448021
 40
0.5
 50
89.999999999999915
 51
179.99999999999983
  0
ARC
  8
_0-1_計細線
  6
CONTINUOUS
 62
    3
 10
1521.0037602689461
 20
852.03425831448021
 40
0.5
 50
269.99999999999977
 51
359.99999999999966
  0
LINE
  8
_0-1_計細線
  6
CONTINUOUS
 62
    3
 10
1521.0037602689461
 20
851.53425831448021
 11
1515.0037602689461
 21
851.53425831448021
  0
LINE
  8
_0-1_計細線
  6
CONTINUOUS
 62
    3
 10
1515.0037602689461
 20
851.53425831448021
 11
1515.0037602689461
 21
850.53425831448021
  0
LINE
  8
_0-1_計細線
  6
CONTINUOUS
 62
    3
 10
1533.0037602689461
 20
855.53425831448021
 11
1523.0037602689461
 21
855.53425831448021
  0
LINE
  8
_0-1_計細線
  6
CONTINUOUS
 62
    3
 10
1533.0037602689461
 20
873.53425831448112
 11
1533.0037602689461
 21
855.53425831448021
  0
ARC
  8
_0-1_計細線
  6
CONTINUOUS
 62
    3
 10
649.00376026894605
 20
873.53425831448112
 40
1
 50
89.999999999999915
 51
179.99999999999983
  0
LINE
  8
_0-1_計細線
  6
CONTINUOUS
 62
    3
 10
648.00376026894605
 20
866.53425831448112
 11
648.00376026894605
 21
873.53425831448112
  0
LINE
  8
_0-1_計細線
  6
CONTINUOUS
 62
    3
 10
648.00376026894605
 20
866.53425831448294
 11
1464.0037602689461
 21
866.53425831448294
  0
LINE
  8
_0-1_計細線
  6
CONTINUOUS
 62
    3
 10
659.00376026894605
 20
855.53425831448112
 11
659.00376026894605
 21
866.53425831448294
  0
ARC
  8
_0-1_計細線
  6
CONTINUOUS
 62
    3
 10
660.00376026894605
 20
855.53425831448112
 40
1
 50
179.99999999999983
 51
269.99999999999977
  0
LINE
  8
_0-1_計細線
  6
CONTINUOUS
 62
    3
 10
1523.0037602689461
 20
854.53425831448112
 11
1533.0037602689461
 21
854.53425831448112
  0
LINE
  8
_0-1_計細線
  6
CONTINUOUS
 62
    3
 10
1534.0037602689461
 20
866.53425831448112
 11
1543.003760268947
 21
866.53425831448112
  0
LINE
  8
_0-1_計細線
  6
CONTINUOUS
 62
    3
 10
1543.003760268947
 20
866.53425831448112
 11
1543.003760268947
 21
873.53425831448112
  0
LINE
  8
_0-1_計細線
  6
CONTINUOUS
 62
    3
 10
1543.003760268947
 20
873.53425831448112
 11
1534.0037602689461
 21
873.53425831448112
  0
LINE
  8
_0-1_計細線
  6
CONTINUOUS
 62
    3
 10
1534.0037602689461
 20
873.53425831448112
 11
1534.0037602689461
 21
855.53425831448112
  0
ARC
  8
_0-1_計細線
  6
CONTINUOUS
 62
    3
 10
1533.0037602689461
 20
855.53425831448112
 40
1
 50
269.99999999999977
 51
359.99999999999966
  0
LINE
  8
_0-1_計細線
  6
CONTINUOUS
 62
    3
 10
1543.0037602689461
 20
874.53425831448112
 11
1534.0037602689461
 21
874.53425831448112
  0
LINE
  8
_0-1_計細線
  6
CONTINUOUS
 62
    3
 10
1534.0037602689461
 20
874.53425831448112
 11
649.00376026894787
 21
874.53425831448112
  0
ARC
  8
_0-1_計細線
  6
CONTINUOUS
 62
    3
 10
1534.0037602689461
 20
873.53425831448112
 40
1
 50
89.999999999999915
 51
179.99999999999983
  0
LINE
  8
_0-0_計極細
  6
CENTER1
 62
    2
 10
683.0037602689456
 20
826.73877774131233
 11
683.0037602689456
 21
871.79247781884987
  0
LINE
  8
_0-1_計細線
  6
CONTINUOUS
 62
    3
 10
677.00376042202629
 20
866.52165946705099
 11
675.00376042202629
 21
864.52165946705099
  0
LINE
  8
_0-1_計細線
  6
CONTINUOUS
 62
    3
 10
675.00376042202629
 20
854.52165946705099
 11
675.00376042202629
 21
864.52165946705099
  0
LINE
  8
_0-1_計細線
  6
CONTINUOUS
 62
    3
 10
691.00376011586491
 20
854.52165946705099
 11
691.00376011586491
 21
864.52165946705099
  0
LINE
  8
_0-1_計細線
  6
CONTINUOUS
 62
    3
 10
677.00376042202629
 20
850.52165946705099
 11
675.00376042202629
 21
848.52165946705099
  0
LINE
  8
_0-1_計細線
  6
CONTINUOUS
 62
    3
 10
677.00376042202629
 20
852.52165946705099
 11
677.00376042202629
 21
850.52165946705099
  0
LINE
  8
_0-1_計細線
  6
CONTINUOUS
 62
    3
 10
675.00376042202629
 20
854.52165946705099
 11
677.00376042202629
 21
852.52165946705099
  0
LINE
  8
_0-1_計細線
  6
CONTINUOUS
 62
    3
 10
689.00376011586491
 20
850.52165946705099
 11
691.00376011586491
 21
848.52165946705099
  0
LINE
  8
_0-1_計細線
  6
CONTINUOUS
 62
    3
 10
689.00376011586491
 20
852.52165946705099
 11
689.00376011586491
 21
850.52165946705099
  0
LINE
  8
_0-1_計細線
  6
CONTINUOUS
 62
    3
 10
691.00376011586491
 20
854.52165946705099
 11
689.00376011586491
 21
852.52165946705099
  0
LINE
  8
_0-1_計細線
  6
CONTINUOUS
 62
    3
 10
675.00376042202629
 20
848.52165946705099
 11
675.00376042202629
 21
834.52165946705099
  0
ARC
  8
_0-1_計細線
  6
CONTINUOUS
 62
    3
 10
678.00376042202629
 20
834.52165946705099
 40
3
 50
179.99999999999983
 51
269.99999999999977
  0
LINE
  8
_0-1_計細線
  6
CONTINUOUS
 62
    3
 10
678.00376042202629
 20
831.52165946705099
 11
688.00376011586491
 21
831.52165946705099
  0
LINE
  8
_0-1_計細線
  6
CONTINUOUS
 62
    3
 10
691.00376011586491
 20
848.52165946705099
 11
691.00376011586491
 21
834.52165946705099
  0
ARC
  8
_0-1_計細線
  6
CONTINUOUS
 62
    3
 10
688.00376011586491
 20
834.52165946705099
 40
3
 50
269.99999999999977
 51
359.99999999999966
  0
LINE
  8
_0-1_計細線
  6
CONTINUOUS
 62
    3
 10
677.00376042202629
 20
866.52165946705099
 11
689.00376011586491
 21
866.52165946705099
  0
LINE
  8
_0-1_計細線
  6
CONTINUOUS
 62
    3
 10
691.00376011586491
 20
864.52165946705099
 11
689.00376011586491
 21
866.52165946705099
  0
LINE
  8
_0-1_計細線
  6
CONTINUOUS
 62
    3
 10
660.00376026894605
 20
854.53425831448112
 11
675.00376042202629
 21
854.53425831448112
  0
LINE
  8
_0-1_計細線
  6
CONTINUOUS
 62
    3
 10
1104.0037601158654
 20
854.53425831448112
 11
1464.0037602689461
 21
854.53425831448112
  0
LINE
  8
_0-1_計細線
  6
CONTINUOUS
 62
    3
 10
691.00376011586491
 20
854.53425831448112
 11
1088.0037604220267
 21
854.53425831448112
  0
LINE
  8
_0-0_計極細
  6
DASHED2
 62
    2
 10
1509.0037602689461
 20
826.73877774131233
 11
1509.0037602689461
 21
871.79247781884987
  0
LINE
  8
_0-1_計細線
  6
DASHED2
 62
    3
 10
1517.0037601158654
 20
864.52165946705099
 11
1515.0037601158654
 21
866.52165946705099
  0
LINE
  8
_0-1_計細線
  6
DASHED2
 62
    3
 10
1503.0037604220267
 20
866.52165946705099
 11
1515.0037601158654
 21
866.52165946705099
  0
ARC
  8
_0-1_計細線
  6
DASHED2
 62
    3
 10
1514.0037601158654
 20
834.52165946705099
 40
3
 50
269.99999999999977
 51
359.99999999999966
  0
LINE
  8
_0-1_計細線
  6
DASHED2
 62
    3
 10
1517.0037601158654
 20
848.52165946705099
 11
1517.0037601158654
 21
834.52165946705099
  0
LINE
  8
_0-1_計細線
  6
DASHED2
 62
    3
 10
1504.0037604220267
 20
831.52165946705099
 11
1514.0037601158654
 21
831.52165946705099
  0
ARC
  8
_0-1_計細線
  6
DASHED2
 62
    3
 10
1504.0037604220267
 20
834.52165946705099
 40
3
 50
179.99999999999983
 51
269.99999999999977
  0
LINE
  8
_0-1_計細線
  6
DASHED2
 62
    3
 10
1501.0037604220267
 20
848.52165946705099
 11
1501.0037604220267
 21
834.52165946705099
  0
LINE
  8
_0-1_計細線
  6
DASHED2
 62
    3
 10
1517.0037601158654
 20
854.52165946705099
 11
1515.0037601158654
 21
852.52165946705099
  0
LINE
  8
_0-1_計細線
  6
DASHED2
 62
    3
 10
1515.0037601158654
 20
852.52165946705099
 11
1515.0037601158654
 21
850.52165946705099
  0
LINE
  8
_0-1_計細線
  6
DASHED2
 62
    3
 10
1515.0037601158654
 20
850.52165946705099
 11
1517.0037601158654
 21
848.52165946705099
  0
LINE
  8
_0-1_計細線
  6
DASHED2
 62
    3
 10
1501.0037604220267
 20
854.52165946705099
 11
1503.0037604220267
 21
852.52165946705099
  0
LINE
  8
_0-1_計細線
  6
DASHED2
 62
    3
 10
1503.0037604220267
 20
852.52165946705099
 11
1503.0037604220267
 21
850.52165946705099
  0
LINE
  8
_0-1_計細線
  6
DASHED2
 62
    3
 10
1503.0037604220267
 20
850.52165946705099
 11
1501.0037604220267
 21
848.52165946705099
  0
LINE
  8
_0-1_計細線
  6
DASHED2
 62
    3
 10
1517.0037601158654
 20
854.52165946705099
 11
1517.0037601158654
 21
864.52165946705099
  0
LINE
  8
_0-1_計細線
  6
DASHED2
 62
    3
 10
1501.0037604220267
 20
854.52165946705099
 11
1501.0037604220267
 21
864.52165946705099
  0
LINE
  8
_0-1_計細線
  6
DASHED2
 62
    3
 10
1503.0037604220267
 20
866.52165946705099
 11
1501.0037604220267
 21
864.52165946705099
  0
LINE
  8
_0-5_寸法線
  6
CONTINUOUS
 62
    7
 10
648.00376026894639
 20
890.53425831448112
 11
648.0037602689481
 21
962.53425831448112
  0
LINE
  8
_0-5_寸法線
  6
CONTINUOUS
 62
    7
 10
648.00376026894787
 20
954.53425831448112
 11
663.45857348957293
 21
958.67536303612144
  0
LINE
  8
_0-5_寸法線
  6
CONTINUOUS
 62
    7
 10
648.00376026894787
 20
954.53425831448112
 11
663.45857348957293
 21
950.3931535928408
  0
LINE
  8
_0-5_寸法線
  6
CONTINUOUS
 62
    7
 10
683.00376026894594
 20
890.53425831448112
 11
683.00376026894764
 21
962.53425831448112
  0
LINE
  8
_0-5_寸法線
  6
CONTINUOUS
 62
    7
 10
683.00376026894742
 20
954.53425831448112
 11
667.54894704832236
 21
950.3931535928408
  0
LINE
  8
_0-5_寸法線
  6
CONTINUOUS
 62
    7
 10
683.00376026894742
 20
954.53425831448112
 11
667.54894704832236
 21
958.67536303612155
  0
LINE
  8
_0-5_寸法線
  6
CONTINUOUS
 62
    7
 10
648.00376026894787
 20
954.53425831448112
 11
683.00376026894742
 21
954.53425831448112
  0
TEXT
  8
_0-5_寸法線
 62
    7
 10
653.50376026894901
 20
954.53425831448112
 40
24
 41
1
 50
0
  1
35
  0
LINE
  8
_0-5_寸法線
  6
CONTINUOUS
 62
    7
 10
683.00376026894742
 20
954.53425831448112
 11
698.45857348957259
 21
958.67536303612133
  0
LINE
  8
_0-5_寸法線
  6
CONTINUOUS
 62
    7
 10
683.00376026894742
 20
954.53425831448112
 11
698.45857348957247
 21
950.39315359284069
  0
LINE
  8
_0-5_寸法線
  6
CONTINUOUS
 62
    7
 10
1509.0037602689465
 20
890.53425831448112
 11
1509.0037602689481
 21
962.53425831448112
  0
LINE
  8
_0-5_寸法線
  6
CONTINUOUS
 62
    7
 10
1509.0037602689479
 20
954.53425831448112
 11
1493.5489470483228
 21
950.3931535928408
  0
LINE
  8
_0-5_寸法線
  6
CONTINUOUS
 62
    7
 10
1509.0037602689479
 20
954.53425831448112
 11
1493.5489470483228
 21
958.67536303612155
  0
LINE
  8
_0-5_寸法線
  6
CONTINUOUS
 62
    7
 10
683.00376026894742
 20
954.53425831448112
 11
1509.0037602689479
 21
954.53425831448112
  0
TEXT
  8
_0-5_寸法線
 62
    7
 10
1042.0037602689499
 20
954.53425831448112
 40
24
 41
1
 50
0
  1
2@413=826
  0
LINE
  8
_0-5_寸法線
  6
CONTINUOUS
 62
    7
 10
1509.0037602689479
 20
954.53425831448112
 11
1524.4585734895729
 21
958.67536303612133
  0
LINE
  8
_0-5_寸法線
  6
CONTINUOUS
 62
    7
 10
1509.0037602689479
 20
954.53425831448112
 11
1524.4585734895729
 21
950.39315359284069
  0
LINE
  8
_0-5_寸法線
  6
CONTINUOUS
 62
    7
 10
1544.0037602689465
 20
890.53425831448112
 11
1544.0037602689481
 21
962.53425831448112
  0
LINE
  8
_0-5_寸法線
  6
CONTINUOUS
 62
    7
 10
1544.0037602689479
 20
954.53425831448112
 11
1528.5489470483228
 21
950.3931535928408
  0
LINE
  8
_0-5_寸法線
  6
CONTINUOUS
 62
    7
 10
1544.0037602689479
 20
954.53425831448112
 11
1528.5489470483228
 21
958.67536303612155
  0
LINE
  8
_0-5_寸法線
  6
CONTINUOUS
 62
    7
 10
1509.0037602689479
 20
954.53425831448112
 11
1544.0037602689479
 21
954.53425831448112
  0
TEXT
  8
_0-5_寸法線
 62
    7
 10
1514.503760268949
 20
954.53425831448112
 40
24
 41
1
 50
0
  1
35
  0
LINE
  8
_0-5_寸法線
  6
CONTINUOUS
 62
    7
 10
683.0037602689456
 20
831.52165946705099
 11
691.00376021787383
 21
817.66525297701367
  0
LINE
  8
_0-5_寸法線
  6
CONTINUOUS
 62
    7
 10
683.0037602689456
 20
831.52165946705099
 11
683.00376020997294
 21
815.52165946705099
  0
LINE
  8
_0-5_寸法線
  6
CONTINUOUS
 62
    7
 10
683.0037602689456
 20
831.52165946705099
 11
694.6521178483963
 21
788.04939651489258
  0
LINE
  8
_0-5_寸法線
  6
CONTINUOUS
 62
    7
 10
694.6521178483963
 20
788.04939651489258
 11
771.45211784839626
 21
788.04939651489258
  0
TEXT
  8
_0-5_寸法線
 62
    7
 10
694.6521178483963
 20
788.04939651489258
 40
24
 41
0.8000000000000001
 50
0
  1
アンカー
  0
LINE
  8
_0-5_寸法線
  6
CONTINUOUS
 62
    7
 10
1550.0037602689461
 20
854.53425831448101
 11
1632.0037602689461
 21
854.53425831448078
  0
LINE
  8
_0-5_寸法線
  6
CONTINUOUS
 62
    7
 10
1624.0037602689461
 20
854.53425831448078
 11
1628.1448649905863
 21
839.07944509385561
  0
LINE
  8
_0-5_寸法線
  6
CONTINUOUS
 62
    7
 10
1624.0037602689461
 20
854.53425831448078
 11
1619.8626555473056
 21
839.07944509385572
  0
LINE
  8
_0-5_寸法線
  6
CONTINUOUS
 62
    7
 10
1560.0037602689461
 20
874.53425831448203
 11
1632.0037602689461
 21
874.53425831448203
  0
LINE
  8
_0-5_寸法線
  6
CONTINUOUS
 62
    7
 10
1624.0037602689461
 20
874.53425831448203
 11
1619.8626555473058
 21
889.98907153510709
  0
LINE
  8
_0-5_寸法線
  6
CONTINUOUS
 62
    7
 10
1624.0037602689461
 20
874.53425831448203
 11
1628.1448649905865
 21
889.98907153510709
  0
LINE
  8
_0-5_寸法線
  6
CONTINUOUS
 62
    7
 10
1624.0037602689461
 20
830.53425831448078
 11
1624.0037602689461
 21
917.43713346731352
  0
TEXT
  8
_0-5_寸法線
 62
    7
 10
1624.0037602689461
 20
893.43713346731329
 40
24
 41
1
 50
90
  1
20
  0
LINE
  8
_0-5_寸法線
  6
CONTINUOUS
 62
    7
 10
1507.5037602689461
 20
713.53425831448101
 11
1632.0037602689461
 21
713.53425831448021
  0
LINE
  8
_0-5_寸法線
  6
CONTINUOUS
 62
    7
 10
1624.0037602689461
 20
713.53425831448021
 11
1619.8626555473058
 21
728.98907153510527
  0
LINE
  8
_0-5_寸法線
  6
CONTINUOUS
 62
    7
 10
1624.0037602689461
 20
713.53425831448021
 11
1628.1448649905865
 21
728.98907153510527
  0
LINE
  8
_0-5_寸法線
  6
CONTINUOUS
 62
    7
 10
1550.0037604416875
 20
854.53425831448101
 11
1632.0037602689461
 21
854.53425831448078
  0
LINE
  8
_0-5_寸法線
  6
CONTINUOUS
 62
    7
 10
1624.0037602689461
 20
854.53425831448078
 11
1628.1448649905865
 21
839.07944509385572
  0
LINE
  8
_0-5_寸法線
  6
CONTINUOUS
 62
    7
 10
1624.0037602689461
 20
854.53425831448078
 11
1619.8626555473058
 21
839.07944509385572
  0
LINE
  8
_0-5_寸法線
  6
CONTINUOUS
 62
    7
 10
1624.0037602689461
 20
713.53425831448021
 11
1624.0037602689461
 21
854.53425831448078
  0
TEXT
  8
_0-5_寸法線
 62
    7
 10
1624.0037602689461
 20
766.03425831448112
 40
24
 41
1
 50
90
  1
141
  0
LINE
  8
_0-5_寸法線
  6
CONTINUOUS
 62
    7
 10
1507.5037602689461
 20
713.53425831448112
 11
1688.0037602689461
 21
713.53425831448112
  0
LINE
  8
_0-5_寸法線
  6
CONTINUOUS
 62
    7
 10
1680.0037602689461
 20
713.53425831448112
 11
1675.8626555473058
 21
728.98907153510618
  0
LINE
  8
_0-5_寸法線
  6
CONTINUOUS
 62
    7
 10
1680.0037602689461
 20
713.53425831448112
 11
1684.1448649905865
 21
728.98907153510618
  0
LINE
  8
_0-5_寸法線
  6
CONTINUOUS
 62
    7
 10
1560.0037602689461
 20
874.53425831448112
 11
1688.0037602689461
 21
874.53425831448067
  0
LINE
  8
_0-5_寸法線
  6
CONTINUOUS
 62
    7
 10
1680.0037602689461
 20
874.53425831448067
 11
1684.1448649905865
 21
859.07944509385561
  0
LINE
  8
_0-5_寸法線
  6
CONTINUOUS
 62
    7
 10
1680.0037602689461
 20
874.53425831448067
 11
1675.8626555473058
 21
859.07944509385561
  0
LINE
  8
_0-5_寸法線
  6
CONTINUOUS
 62
    7
 10
1680.0037602689461
 20
713.53425831448112
 11
1680.0037602689461
 21
874.53425831448067
  0
TEXT
  8
_0-5_寸法線
 62
    7
 10
1680.0037602689461
 20
776.03425831448021
 40
24
 41
1
 50
90
  1
161
  0
LINE
  8
_0-5_寸法線
  6
CONTINUOUS
 62
    7
 10
1433.7007932662964
 20
789.63756656646729
 11
1428.3486592482241
 21
774.55928213313086
  0
LINE
  8
_0-5_寸法線
  6
CONTINUOUS
 62
    7
 10
1433.7007932662964
 20
789.63756656646729
 11
1421.5265670255187
 21
779.25545621074662
  0
LINE
  8
_0-5_寸法線
  6
CONTINUOUS
 62
    7
 10
1433.7007932662964
 20
789.63756656646729
 11
1380.1590168734126
 21
711.85788244854575
  0
LINE
  8
_0-5_寸法線
  6
CONTINUOUS
 62
    7
 10
1380.1590168734126
 20
711.85788244854575
 11
1168.9590168734128
 21
711.85788244854666
  0
TEXT
  8
_0-5_寸法線
 62
    7
 10
1168.9590168734128
 20
711.85788244854575
 40
24
 41
0.7999999999999998
 50
0
  1
縦引き排水トラップ一式
  0
ARC
  8
_0-1_計細線
  6
CONTINUOUS
 62
    3
 10
1407.0037602689461
 20
852.03425831448021
 40
1.5
 50
179.99999999999983
 51
269.99999999999977
  0
LINE
  8
_0-1_計細線
  6
CONTINUOUS
 62
    3
 10
1405.5037602689461
 20
854.03425831448021
 11
1405.5037602689461
 21
852.03425831448021
  0
ARC
  8
_0-1_計細線
  6
CONTINUOUS
 62
    3
 10
1405.0037602689461
 20
854.03425831448021
 40
0.5
 50
0
 51
89.999999999999915
  0
LINE
  8
_0-0_計極細
  6
CONTINUOUS
 62
    2
 10
1491.0037602689461
 20
832.03427503448529
 11
1513.9827602689454
 21
832.03427503448529
  0
LINE
  8
_0-0_計極細
  6
CONTINUOUS
 62
    2
 10
1502.2537602689461
 20
826.83427503448456
 11
1491.0037602689461
 21
826.83427503448456
  0
LINE
  8
_0-0_計極細
  6
CONTINUOUS
 62
    2
 10
1513.9827602689454
 20
853.24133903448455
 11
1520.9037602689475
 21
854.22709604915508
  0
LINE
  8
_0-0_計極細
  6
CONTINUOUS
 62
    2
 10
1491.0037602689461
 20
831.73861103448507
 11
1491.0037602689461
 21
833.2163640344852
  0
LINE
  8
_0-0_計極細
  6
CONTINUOUS
 62
    2
 10
1491.0037602689461
 20
832.83427503448456
 11
1512.5037602689461
 21
832.83427503448456
  0
LINE
  8
_0-0_計極細
  6
CONTINUOUS
 62
    2
 10
1507.5037602689461
 20
846.34211803448488
 11
1507.5037602689461
 21
847.24133903448455
  0
LINE
  8
_0-0_計極細
  6
CONTINUOUS
 62
    2
 10
1507.5037602689461
 20
846.34211803448488
 11
1464.0037602689461
 21
846.34211803448488
  0
LINE
  8
_0-0_計極細
  6
CONTINUOUS
 62
    2
 10
1507.5037602689461
 20
841.74211803448452
 11
1464.0037602689461
 21
841.74211803448543
  0
LINE
  8
_0-0_計極細
  6
CONTINUOUS
 62
    2
 10
1507.5037602689461
 20
840.24211803448452
 11
1507.5037602689461
 21
841.74211803448452
  0
LINE
  8
_0-0_計極細
  6
CONTINUOUS
 62
    2
 10
1503.7537602689461
 20
844.64744903448536
 11
1503.7537602689461
 21
843.34744903448518
  0
LINE
  8
_0-0_計極細
  6
CONTINUOUS
 62
    2
 10
1503.7537602689461
 20
842.34744903448518
 11
1503.7537602689461
 21
841.84744903448518
  0
LINE
  8
_0-0_計極細
  6
CONTINUOUS
 62
    2
 10
1507.3537602689482
 20
844.64744903448536
 11
1507.3537602689482
 21
841.84744903448518
  0
LINE
  8
_0-0_計極細
  6
CONTINUOUS
 62
    2
 10
1464.0037602689461
 20
841.84744903448518
 11
1507.3537602689482
 21
841.84744903448518
  0
LINE
  8
_0-0_計極細
  6
CONTINUOUS
 62
    2
 10
1464.0037602689461
 20
842.84744903448518
 11
1503.2537602689461
 21
842.84744903448518
  0
LINE
  8
_0-0_計極細
  6
CONTINUOUS
 62
    2
 10
1464.0037602689461
 20
845.14744903448536
 11
1503.2537602689461
 21
845.14744903448536
  0
LINE
  8
_0-0_計極細
  6
CONTINUOUS
 62
    2
 10
1503.2537602689461
 20
845.14744903448536
 11
1503.7537602689461
 21
845.64744903448536
  0
LINE
  8
_0-0_計極細
  6
CONTINUOUS
 62
    2
 10
1503.7537602689461
 20
844.64744903448536
 11
1503.2537602689461
 21
845.14744903448536
  0
LINE
  8
_0-0_計極細
  6
CONTINUOUS
 62
    2
 10
1503.7537602689461
 20
842.34744903448518
 11
1503.2537602689461
 21
842.84744903448518
  0
LINE
  8
_0-0_計極細
  6
CONTINUOUS
 62
    2
 10
1503.2537602689461
 20
842.84744903448518
 11
1503.7537602689461
 21
843.34744903448518
  0
LINE
  8
_0-0_計極細
  6
CONTINUOUS
 62
    2
 10
1507.3537602689482
 20
844.64744903448536
 11
1508.1537602689475
 21
846.14744903448536
  0
LINE
  8
_0-0_計極細
  6
CONTINUOUS
 62
    2
 10
1503.7537602689461
 20
846.14744903448536
 11
1503.7537602689461
 21
845.64744903448536
  0
LINE
  8
_0-0_計極細
  6
CONTINUOUS
 62
    2
 10
1464.0037602689461
 20
846.14744903448536
 11
1508.1537602689475
 21
846.14744903448536
  0
LINE
  8
_0-0_計極細
  6
CONTINUOUS
 62
    2
 10
1464.2037602689468
 20
847.24133903448546
 11
1507.803760268949
 21
847.24133903448455
  0
LINE
  8
_0-0_計極細
  6
CONTINUOUS
 62
    2
 10
1464.2037602689468
 20
848.24133903448546
 11
1507.2037602689468
 21
848.24133903448455
  0
ARC
  8
_0-0_計極細
  6
CONTINUOUS
 62
    2
 10
1509.9537602689468
 20
852.24133903448455
 40
0.5
 50
24.054549000007984
 51
89.999999999999915
  0
ARC
  8
_0-0_計極細
  6
CONTINUOUS
 62
    2
 10
1510.2537602689461
 20
850.94133903448528
 40
0.1999999999999886
 50
269.99999999999977
 51
359.99999999999966
  0
ARC
  8
_0-0_計極細
  6
CONTINUOUS
 62
    2
 10
1509.9537602689468
 20
852.24133903448455
 40
0.5
 50
0
 51
24.054549000007984
  0
ARC
  8
_0-0_計極細
  6
CONTINUOUS
 62
    2
 10
1507.803760268949
 20
847.74133903448455
 40
0.5
 50
269.99999999999977
 51
359.99999999999966
  0
LINE
  8
_0-0_計極細
  6
CONTINUOUS
 62
    2
 10
1507.2037602689468
 20
847.24133903448455
 11
1507.2037602689468
 21
848.24133903448455
  0
LINE
  8
_0-0_計極細
  6
CONTINUOUS
 62
    2
 10
1508.303760268949
 20
847.74133903448455
 11
1508.303760268949
 21
850.74133903448455
  0
LINE
  8
_0-0_計極細
  6
CONTINUOUS
 62
    2
 10
1508.303760268949
 20
850.74133903448455
 11
1510.2537602689461
 21
850.74133903448455
  0
LINE
  8
_0-0_計極細
  6
CONTINUOUS
 62
    2
 10
1464.0037602689461
 20
852.74133903448546
 11
1509.9537602689468
 21
852.74133903448455
  0
LINE
  8
_0-0_計極細
  6
CONTINUOUS
 62
    2
 10
1510.4537602689468
 20
850.94133903448528
 11
1510.4537602689468
 21
852.24133903448455
  0
LINE
  8
_0-0_計極細
  6
CONTINUOUS
 62
    2
 10
1495.2900732689466
 20
834.04133903448474
 11
1495.2900732689466
 21
835.74133903448455
  0
LINE
  8
_0-0_計極細
  6
CONTINUOUS
 62
    2
 10
1498.7900732689466
 20
834.04133903448474
 11
1498.7900732689466
 21
835.74133903448455
  0
LINE
  8
_0-0_計極細
  6
CONTINUOUS
 62
    2
 10
1493.7900732689466
 20
834.04133903448474
 11
1493.7900732689466
 21
835.74133903448455
  0
LINE
  8
_0-0_計極細
  6
CONTINUOUS
 62
    2
 10
1493.7900732689466
 20
834.04133903448474
 11
1498.7900732689466
 21
834.04133903448474
  0
LINE
  8
_0-0_計極細
  6
CONTINUOUS
 62
    2
 10
1507.0037602689461
 20
835.74133903448455
 11
1512.5037602689461
 21
835.74133903448455
  0
LINE
  8
_0-0_計極細
  6
CONTINUOUS
 62
    2
 10
1506.1735762689475
 20
833.74133903448455
 11
1507.0037602689461
 21
833.74133903448455
  0
LINE
  8
_0-0_計極細
  6
CONTINUOUS
 62
    2
 10
1507.0037602689461
 20
838.44133903448528
 11
1508.303760268949
 21
838.44133903448528
  0
LINE
  8
_0-0_計極細
  6
CONTINUOUS
 62
    2
 10
1507.0037602689461
 20
837.74133903448455
 11
1509.0037602689461
 21
837.74133903448455
  0
LINE
  8
_0-0_計極細
  6
CONTINUOUS
 62
    2
 10
1504.7537602689461
 20
835.84211803448488
 11
1504.7537602689461
 21
839.74133903448455
  0
LINE
  8
_0-0_計極細
  6
CONTINUOUS
 62
    2
 10
1507.0037602689461
 20
833.74133903448455
 11
1507.0037602689461
 21
839.74133903448455
  0
LINE
  8
_0-0_計極細
  6
CONTINUOUS
 62
    2
 10
1513.9827602689454
 20
837.22033903448482
 11
1512.5037602689461
 21
835.74133903448455
  0
LINE
  8
_0-0_計極細
  6
CONTINUOUS
 62
    2
 10
1509.0037602689461
 20
837.74133903448455
 11
1509.0037602689461
 21
848.99133903448455
  0
ARC
  8
_0-0_計極細
  6
CONTINUOUS
 62
    2
 10
1510.053760268949
 20
848.99133903448455
 40
1.0500000000000114
 50
89.999999999999915
 51
179.99999999999983
  0
LINE
  8
_0-0_計極細
  6
CONTINUOUS
 62
    2
 10
1511.2449842689473
 20
850.04133903448474
 11
1510.053760268949
 21
850.04133903448474
  0
ARC
  8
_0-0_計極細
  6
CONTINUOUS
 62
    2
 10
1511.2449842689473
 20
851.74133903448455
 40
1.6999999999999886
 50
269.99999999999977
 51
356.64911199999773
  0
ARC
  8
_0-0_計極細
  6
CONTINUOUS
 62
    2
 10
1511.2449842689473
 20
851.74133903448455
 40
1
 50
269.99999999999977
 51
356.64911200003189
  0
ARC
  8
_0-0_計極細
  6
CONTINUOUS
 62
    2
 10
1513.9827602689454
 20
851.49133903448455
 40
1.75
 50
89.999999999999915
 51
175.84900999996924
  0
ARC
  8
_0-0_計極細
  6
CONTINUOUS
 62
    2
 10
1510.053760268949
 20
848.99133903448455
 40
1.75
 50
89.999999999999915
 51
179.99999999999983
  0
LINE
  8
_0-0_計極細
  6
CONTINUOUS
 62
    2
 10
1510.5037602689461
 20
850.74133903448455
 11
1510.5037602689461
 21
853.24133903448455
  0
LINE
  8
_0-0_計極細
  6
CONTINUOUS
 62
    2
 10
1508.303760268949
 20
838.44133903448528
 11
1508.303760268949
 21
848.99133903448455
  0
LINE
  8
_0-0_計極細
  6
CONTINUOUS
 62
    2
 10
1511.2449842689473
 20
850.74133903448455
 11
1510.053760268949
 21
850.74133903448455
  0
LINE
  8
_0-0_計極細
  6
CONTINUOUS
 62
    2
 10
1504.2537602689461
 20
839.74133903448455
 11
1508.303760268949
 21
839.74133903448455
  0
LINE
  8
_0-0_計極細
  6
CONTINUOUS
 62
    2
 10
1464.0037602689461
 20
853.24133903448546
 11
1513.9827602689454
 21
853.24133903448455
  0
LINE
  8
_0-0_計極細
  6
CONTINUOUS
 62
    2
 10
1491.5609212689467
 20
835.74133903448455
 11
1501.5020672689477
 21
835.74133903448455
  0
ARC
  8
_0-0_計極細
  6
CONTINUOUS
 62
    2
 10
1502.2537602689461
 20
825.83427503448456
 40
1
 50
89.999999999999915
 51
179.99999999999983
  0
ARC
  8
_0-0_計極細
  6
CONTINUOUS
 62
    2
 10
1502.2537602689461
 20
825.83427503448456
 40
1
 50
0
 51
89.999999999999915
  0
LINE
  8
_0-0_計極細
  6
CONTINUOUS
 62
    2
 10
1520.9037602689475
 20
851.83427503448456
 11
1513.9827602689454
 21
851.03427503448529
  0
LINE
  8
_0-0_計極細
  6
CONTINUOUS
 62
    2
 10
1513.9827602689454
 20
832.03427503448529
 11
1512.5037602689461
 21
832.83427503448456
  0
LINE
  8
_0-0_計極細
  6
CONTINUOUS
 62
    2
 10
1512.5037602689461
 20
832.83427503448456
 11
1512.5037602689461
 21
835.74133903448455
  0
LINE
  8
_0-1_計細線
  6
CONTINUOUS
 62
    3
 10
1464.0037602689461
 20
825.5041480344853
 11
1413.5037602689461
 21
825.5041480344853
  0
LINE
  8
_0-1_計細線
  6
CONTINUOUS
 62
    3
 10
1438.5037602689461
 20
837.83427503448547
 11
1434.5037602689461
 21
837.83427503448547
  0
LINE
  8
_0-1_計細線
  6
CONTINUOUS
 62
    3
 10
1411.0037602689461
 20
837.83427503448547
 11
1407.1037602689482
 21
837.83427503448547
  0
LINE
  8
_0-1_計細線
  6
CONTINUOUS
 62
    3
 10
1438.5037602689461
 20
837.83427503448547
 11
1438.5037602689461
 21
847.83427503448547
  0
LINE
  8
_0-1_計細線
  6
CONTINUOUS
 62
    3
 10
1434.5037602689461
 20
837.83427503448547
 11
1434.5037602689461
 21
847.83427503448547
  0
LINE
  8
_0-1_計細線
  6
CONTINUOUS
 62
    3
 10
1462.0037602689461
 20
837.83427503448547
 11
1462.0037602689461
 21
847.83427503448547
  0
LINE
  8
_0-1_計細線
  6
CONTINUOUS
 62
    3
 10
1464.0037602689461
 20
837.83427503448547
 11
1462.0037602689461
 21
837.83427503448547
  0
LINE
  8
_0-1_計細線
  6
CONTINUOUS
 62
    3
 10
1464.0037602689461
 20
829.83427503448547
 11
1411.0037602689461
 21
829.83427503448547
  0
LINE
  8
_0-1_計細線
  6
CONTINUOUS
 62
    3
 10
1520.9037602689475
 20
838.3895160344855
 11
1520.9037602689475
 21
854.21285303448531
  0
LINE
  8
_0-1_計細線
  6
CONTINUOUS
 62
    3
 10
1517.0037602689461
 20
837.83427503448456
 11
1520.9037602689475
 21
837.83427503448456
  0
LINE
  8
_0-1_計細線
  6
CONTINUOUS
 62
    3
 10
1520.9037602689475
 20
837.83427503448456
 11
1520.9037602689475
 21
838.3895160344855
  0
ARC
  8
_0-1_計細線
  6
CONTINUOUS
 62
    3
 10
1519.5037602689461
 20
825.5041480344853
 40
5
 50
119.99999999999989
 51
179.99999999999983
  0
LINE
  8
_0-1_計細線
  6
CONTINUOUS
 62
    3
 10
1517.0037602689461
 20
829.83427503448456
 11
1517.0037602689461
 21
837.83427503448456
  0
ARC
  8
_0-1_計細線
  6
CONTINUOUS
 62
    3
 10
1408.5037602689461
 20
825.5041480344853
 40
5
 50
0
 51
60.000000000000107
  0
LINE
  8
_0-1_計細線
  6
CONTINUOUS
 62
    3
 10
1411.0037602689461
 20
829.83427503448547
 11
1411.0037602689461
 21
847.83427503448547
  0
LINE
  8
_0-1_計細線
  6
CONTINUOUS
 62
    3
 10
1464.0037602689461
 20
847.83427503448547
 11
1407.1037602689482
 21
847.83427503448547
  0
LINE
  8
_0-0_計極細
  6
CONTINUOUS
 62
    2
 10
1513.9827602689454
 20
852.53427448823368
 11
1520.9037602689475
 21
853.52003203448476
  0
LINE
  8
_0-0_計極細
  6
CONTINUOUS
 62
    2
 10
1513.9827602689454
 20
837.22033903448482
 11
1513.9827602689454
 21
852.54133903448474
  0
ARC
  8
_0-0_計極細
  6
CONTINUOUS
 62
    2
 10
1513.9827602689454
 20
851.49133903448455
 40
1.0500000000000114
 50
89.999999999999915
 51
175.84900999996637
  0
LINE
  8
_0-0_計極細
  6
CONTINUOUS
 62
    2
 10
1464.0037602689461
 20
832.03427503448529
 11
1489.0037442689479
 21
832.03427503448529
  0
ARC
  8
_0-0_計極細
  6
CONTINUOUS
 62
    2
 10
1497.0037602689461
 20
833.2163640344852
 40
6
 50
55.166292356132701
 51
179.9999999999998
  0
ARC
  8
_0-0_計極細
  6
CONTINUOUS
 62
    2
 10
1498.5037602689461
 20
835.84211803448488
 40
3
 50
0
 51
50.029499419924285
  0
LINE
  8
_0-0_計極細
  6
CONTINUOUS
 62
    2
 10
1501.5037602689461
 20
832.84211803448488
 11
1501.5037602689461
 21
835.84211803448488
  0
LINE
  8
_0-0_計極細
  6
CONTINUOUS
 62
    2
 10
1504.5037602689461
 20
832.84211803448488
 11
1501.5037602689461
 21
832.84211803448488
  0
ARC
  8
_0-0_計極細
  6
CONTINUOUS
 62
    2
 10
1504.5037602689461
 20
834.84211803448488
 40
2
 50
269.99999999999977
 51
359.99999999999966
  0
LINE
  8
_0-0_計極細
  6
CONTINUOUS
 62
    2
 10
1506.5037602689461
 20
834.84211803448488
 11
1506.5037602689461
 21
835.84211803448488
  0
LINE
  8
_0-0_計極細
  6
CONTINUOUS
 62
    2
 10
1506.5037602689461
 20
835.84211803448488
 11
1504.2537602689461
 21
835.84211803448488
  0
LINE
  8
_0-0_計極細
  6
CONTINUOUS
 62
    2
 10
1507.5037602689461
 20
840.24211803448452
 11
1504.2537602689461
 21
840.24211803448452
  0
LINE
  8
_0-0_計極細
  6
CONTINUOUS
 62
    2
 10
1504.2537602689461
 20
835.84211803448488
 11
1504.2537602689461
 21
840.24211803448543
  0
LINE
  8
_0-0_計極細
  6
CONTINUOUS
 62
    2
 10
1504.2537602689461
 20
840.24211803448543
 11
1464.0037602689461
 21
840.24211803448543
  0
ARC
  8
_0-0_計極細
  6
CONTINUOUS
 62
    2
 10
1491.2537602689461
 20
768.03425831448112
 40
10
 50
269.99999999999977
 51
359.99999999999966
  0
LINE
  8
_0-0_計極細
  6
CONTINUOUS
 62
    2
 10
1464.0037602689461
 20
758.03425831448112
 11
1491.2537602689461
 21
758.03425831448112
  0
LINE
  8
_0-0_計極細
  6
CONTINUOUS
 62
    2
 10
1501.2537602689461
 20
768.03425831448112
 11
1501.2537602689461
 21
825.83427503448456
  0
LINE
  8
_0-0_計極細
  6
CONTINUOUS
 62
    2
 10
1503.2537602689461
 20
768.03425831448112
 11
1503.2537602689461
 21
825.83427503448456
  0
LINE
  8
_0-0_計極細
  6
CONTINUOUS
 62
    2
 10
1464.9347942689471
 20
756.03425831448112
 11
1491.2537602689461
 21
756.03425831448112
  0
LINE
  8
_0-0_計極細
  6
CONTINUOUS
 62
    2
 10
1464.0037602689461
 20
756.03425831448112
 11
1464.9347942689471
 21
756.03425831448112
  0
ARC
  8
_0-0_計極細
  6
CONTINUOUS
 62
    2
 10
1465.500324268947
 20
746.53425831448112
 40
0.5
 50
180.39513700000705
 51
269.99999999999977
  0
LINE
  8
_0-0_計極細
  6
CONTINUOUS
 62
    2
 10
1465.0003352689471
 20
746.53081031448164
 11
1464.9348652689457
 21
756.0239753144815
  0
LINE
  8
_0-0_計極細
  6
CONTINUOUS
 62
    2
 10
1502.2537602689461
 20
718.53425831448112
 11
1502.0037602689461
 21
743.53425831448112
  0
LINE
  8
_0-0_計極細
  6
CONTINUOUS
 62
    2
 10
1512.0037602689461
 20
804.95582531448144
 11
1512.0037602689461
 21
832.03427503448529
  0
ARC
  8
_0-0_計極細
  6
CONTINUOUS
 62
    2
 10
1511.0037602689461
 20
804.95582531448144
 40
1
 50
277.18075600015402
 51
359.99999999999966
  0
ARC
  8
_0-0_計極細
  6
CONTINUOUS
 62
    2
 10
1491.2537602689461
 20
768.03425831448112
 40
12
 50
269.99999999999977
 51
359.99999999999966
  0
LINE
  8
_0-0_計極細
  6
CONTINUOUS
 62
    2
 10
1489.0037602689461
 20
746.03425831448112
 11
1489.0037602689461
 21
756.03425831448112
  0
LINE
  8
_0-0_計極細
  6
CONTINUOUS
 62
    2
 10
1491.2537602689461
 20
756.03425831448112
 11
1489.0037602689461
 21
756.03425831448112
  0
LINE
  8
_0-0_計極細
  6
CONTINUOUS
 62
    2
 10
1503.2537602689461
 20
768.03425831448112
 11
1503.2537602689461
 21
795.03425831448112
  0
LINE
  8
_0-0_計極細
  6
CONTINUOUS
 62
    2
 10
1489.0053392689458
 20
745.93158531448171
 11
1489.0037602689461
 21
746.03425831448112
  0
LINE
  8
_0-0_計極細
  6
CONTINUOUS
 62
    2
 10
1489.0037602689461
 20
746.03425831448112
 11
1464.0037602689461
 21
746.03425831448112
  0
ARC
  8
_0-0_計極細
  6
CONTINUOUS
 62
    2
 10
1504.0037602689461
 20
754.03425831448112
 40
8
 50
269.99999999999977
 51
359.99999999999966
  0
LINE
  8
_0-0_計極細
  6
CONTINUOUS
 62
    2
 10
1492.0037602689461
 20
743.53425831448112
 11
1502.0037602689461
 21
743.53425831448112
  0
LINE
  8
_0-0_計極細
  6
CONTINUOUS
 62
    2
 10
1489.5037602689461
 20
713.53425831448112
 11
1489.0037602689461
 21
746.03425831448112
  0
LINE
  8
_0-0_計極細
  6
CONTINUOUS
 62
    2
 10
1512.0037602689461
 20
754.03425831448112
 11
1512.0037602689461
 21
804.95582531448144
  0
LINE
  8
_0-0_計極細
  6
CONTINUOUS
 62
    2
 10
1504.0037602689461
 20
746.03425831448112
 11
1489.0037602689461
 21
746.03425831448112
  0
LINE
  8
_0-0_計極細
  6
CONTINUOUS
 62
    2
 10
1491.5870936022818
 20
718.53425831448112
 11
1492.0037602689461
 21
743.53425831448112
  0
LINE
  8
_0-1_計細線
  6
CONTINUOUS
 62
    3
 10
1491.5037602689461
 20
713.53425831448112
 11
1491.5870936022818
 21
718.53425831448112
  0
LINE
  8
_0-1_計細線
  6
CONTINUOUS
 62
    3
 10
1464.0037602689461
 20
713.53425831448112
 11
1488.5601612689477
 21
713.53425831448112
  0
ARC
  8
_0-1_計細線
  6
CONTINUOUS
 62
    3
 10
1506.5037602689461
 20
751.53425831448112
 40
8
 50
269.99999999999977
 51
359.99999999999966
  0
LINE
  8
_0-1_計細線
  6
CONTINUOUS
 62
    3
 10
1514.5037602689461
 20
751.53425831448112
 11
1514.5037602689461
 21
825.5041480344853
  0
LINE
  8
_0-1_計細線
  6
CONTINUOUS
 62
    3
 10
1505.1037602689482
 20
718.53425831448112
 11
1505.5037602689461
 21
743.53425831448112
  0
LINE
  8
_0-1_計細線
  6
CONTINUOUS
 62
    3
 10
1491.5870932689484
 20
718.53425831448112
 11
1505.1037602689482
 21
718.53425831448112
  0
LINE
  8
_0-1_計細線
  6
CONTINUOUS
 62
    3
 10
1488.5601612689477
 20
713.53425831448112
 11
1491.5037602689461
 21
713.53425831448112
  0
ARC
  8
_0-1_計細線
  6
CONTINUOUS
 62
    3
 10
1421.5037602689461
 20
751.53425831448112
 40
8
 50
179.99999999999983
 51
269.99999999999977
  0
LINE
  8
_0-1_計細線
  6
CONTINUOUS
 62
    3
 10
1464.0037602689461
 20
743.53425831448112
 11
1421.5037602689461
 21
743.53425831448112
  0
LINE
  8
_0-1_計細線
  6
CONTINUOUS
 62
    3
 10
1413.5037602689461
 20
751.53425831448112
 11
1413.5037602689461
 21
825.5041480344853
  0
LINE
  8
_0-1_計細線
  6
CONTINUOUS
 62
    3
 10
1422.9037602689475
 20
718.53425831448112
 11
1422.5037602689461
 21
743.53425831448112
  0
LINE
  8
_0-1_計細線
  6
CONTINUOUS
 62
    3
 10
1464.0037602689461
 20
718.53425831448112
 11
1422.9037602689475
 21
718.53425831448112
  0
LINE
  8
_0-1_計細線
  6
CONTINUOUS
 62
    3
 10
1436.5037602689461
 20
713.53425831448112
 11
1436.4204272689474
 21
718.53425831448112
  0
LINE
  8
_0-1_計細線
  6
CONTINUOUS
 62
    3
 10
1439.447359268948
 20
713.53425831448112
 11
1436.5037602689461
 21
713.53425831448112
  0
LINE
  8
_0-1_計細線
  6
CONTINUOUS
 62
    3
 10
1464.0037602689461
 20
713.53425831448112
 11
1439.447359268948
 21
713.53425831448112
  0
LINE
  8
_0-0_計極細
  6
CONTINUOUS
 62
    2
 10
1490.0037602689461
 20
773.24210131448126
 11
1464.0037602689461
 21
773.24210131448126
  0
ARC
  8
_0-0_計極細
  6
CONTINUOUS
 62
    2
 10
1490.0037442689479
 20
774.24210131448126
 40
1
 50
179.99999999999983
 51
270.0004583661825
  0
ARC
  8
_0-0_計極細
  6
CONTINUOUS
 62
    2
 10
1490.0037602689461
 20
774.24210131448126
 40
1
 50
269.99954163381682
 51
359.99999999999966
  0
LINE
  8
_0-0_計極細
  6
CONTINUOUS
 62
    2
 10
1489.0037442689479
 20
774.24210131448126
 11
1489.0037442689479
 21
832.03427503448529
  0
LINE
  8
_0-0_計極細
  6
CONTINUOUS
 62
    2
 10
1491.0037602689461
 20
774.24210131448126
 11
1491.0037602689461
 21
833.2163640344852
  0
LINE
  8
_0-0_計極細
  6
CONTINUOUS
 62
    2
 10
1511.1287602727332
 20
803.9636685733085
 11
1503.2537602689461
 21
803.9636685733085
  0
LINE
  8
_0-1_計細線
  6
CONTINUOUS
 62
    3
 10
1505.5037602689461
 20
743.53425831448112
 11
1506.5037602689461
 21
743.53425831448112
  0
LINE
  8
_0-0_計極細
  6
CONTINUOUS
 62
    2
 10
1425.7537602689461
 20
718.53425831448112
 11
1426.0037602689461
 21
743.53425831448112
  0
LINE
  8
_0-0_計極細
  6
CONTINUOUS
 62
    2
 10
1505.016529342183
 20
718.53425831448112
 11
1505.1051786580008
 21
718.62290763029796
  0
LINE
  8
_0-0_計極細
  6
CONTINUOUS
 62
    2
 10
1503.7437371360481
 20
718.53425831448112
 11
1505.1258744662316
 21
719.91639564466368
  0
LINE
  8
_0-0_計極細
  6
CONTINUOUS
 62
    2
 10
1502.4709449299132
 20
718.53425831448112
 11
1505.1465702744588
 21
721.2098836590294
  0
LINE
  8
_0-0_計極細
  6
CONTINUOUS
 62
    2
 10
1502.2433087090956
 20
719.57941429979928
 11
1505.1672660826896
 21
722.50337167339512
  0
LINE
  8
_0-0_計極細
  6
CONTINUOUS
 62
    2
 10
1502.2307068060634
 20
720.83960460290382
 11
1505.1879618909204
 21
723.79685968776084
  0
LINE
  8
_0-0_計極細
  6
CONTINUOUS
 62
    2
 10
1502.2181049030312
 20
722.09979490600836
 11
1505.2086576991512
 21
725.09034770212656
  0
LINE
  8
_0-0_計極細
  6
CONTINUOUS
 62
    2
 10
1502.2055030000026
 20
723.3599852091138
 11
1505.2293535073784
 21
726.38383571649229
  0
LINE
  8
_0-0_計極細
  6
CONTINUOUS
 62
    2
 10
1491.1069838992314
 20
713.53425831448112
 11
1491.5104852921629
 21
713.93775970741081
  0
LINE
  8
_0-0_計極細
  6
CONTINUOUS
 62
    2
 10
1502.1929010969704
 20
724.62017551221834
 11
1505.2500493156092
 21
727.67732373085801
  0
LINE
  8
_0-0_計極細
  6
CONTINUOUS
 62
    2
 10
1489.8341916930965
 20
713.53425831448112
 11
1491.5320580414207
 21
715.23212466280347
  0
LINE
  8
_0-0_計極細
  6
CONTINUOUS
 62
    2
 10
1502.1802991939383
 20
725.88036581532288
 11
1505.27074512384
 21
728.97081174522282
  0
LINE
  8
_0-0_計極細
  6
CONTINUOUS
 62
    2
 10
1489.4894820752795
 20
714.46234090280086
 11
1491.5536307906748
 21
716.52648961819614
  0
LINE
  8
_0-0_計極細
  6
CONTINUOUS
 62
    2
 10
1502.1676972909061
 20
727.14055611842741
 11
1505.2914409320672
 21
730.26429975958854
  0
LINE
  8
_0-0_計極細
  6
CONTINUOUS
 62
    2
 10
1489.4701973448844
 20
715.71584837854061
 11
1491.5752035399325
 21
717.82085457358789
  0
LINE
  8
_0-0_計極細
  6
CONTINUOUS
 62
    2
 10
1502.1550953878775
 20
728.40074642153286
 11
1505.312136740298
 21
731.55778777395426
  0
LINE
  8
_0-0_計極細
  6
CONTINUOUS
 62
    2
 10
1489.4509126144892
 20
716.96935585428037
 11
1491.5967762891903
 21
719.11521952898056
  0
LINE
  8
_0-0_計極細
  6
CONTINUOUS
 62
    2
 10
1502.1424934848453
 20
729.66093672463739
 11
1505.3328325485288
 21
732.85127578831998
  0
LINE
  8
_0-0_計極細
  6
CONTINUOUS
 62
    2
 10
1489.431627884094
 20
718.22286333002012
 11
1491.6183490384444
 21
720.40958448437232
  0
LINE
  8
_0-0_計極細
  6
CONTINUOUS
 62
    2
 10
1502.1298915818131
 20
730.92112702774193
 11
1505.3535283567596
 21
734.1447638026857
  0
LINE
  8
_0-0_計極細
  6
CONTINUOUS
 62
    2
 10
1489.4123431536952
 20
719.47637080575987
 11
1491.6399217877022
 21
721.70394943976498
  0
LINE
  8
_0-0_計極細
  6
CONTINUOUS
 62
    2
 10
1502.1172896787846
 20
732.18131733084647
 11
1505.3742241649868
 21
735.43825181705142
  0
LINE
  8
_0-0_計極細
  6
CONTINUOUS
 62
    2
 10
1489.3930584233001
 20
720.72987828149962
 11
1491.6614945369599
 21
722.99831439515765
  0
LINE
  8
_0-0_計極細
  6
CONTINUOUS
 62
    2
 10
1502.1046877757524
 20
733.44150763395101
 11
1505.3949199732176
 21
736.73173983141714
  0
LINE
  8
_0-0_計極細
  6
CONTINUOUS
 62
    2
 10
1489.3737736929049
 20
721.98338575723938
 11
1491.6830672862141
 21
724.29267935054941
  0
LINE
  8
_0-0_計極細
  6
CONTINUOUS
 62
    2
 10
1502.0920858727202
 20
734.70169793705645
 11
1505.4156157814484
 21
738.02522784578287
  0
LINE
  8
_0-0_計極細
  6
CONTINUOUS
 62
    2
 10
1489.3544889625098
 20
723.23689323297913
 11
1491.7046400354718
 21
725.58704430594207
  0
LINE
  8
_0-0_計極細
  6
CONTINUOUS
 62
    2
 10
1502.0794839696916
 20
735.96188824016099
 11
1505.4363115896792
 21
739.31871586014859
  0
LINE
  8
_0-0_計極細
  6
CONTINUOUS
 62
    2
 10
1511.1134414086425
 20
744.99584567911461
 11
1513.0421729043135
 21
746.92457717478464
  0
LINE
  8
_0-0_計極細
  6
CONTINUOUS
 62
    2
 10
1489.335204232111
 20
724.49040070871888
 11
1491.7262127847296
 21
726.88140926133474
  0
LINE
  8
_0-0_計極細
  6
CONTINUOUS
 62
    2
 10
1502.0668820666594
 20
737.22207854326552
 11
1505.4570073979064
 21
740.61220387451431
  0
LINE
  8
_0-0_計極細
  6
CONTINUOUS
 62
    2
 10
1508.6810479014546
 20
743.83624437805975
 11
1514.2017742053665
 21
749.35697068197442
  0
LINE
  8
_0-0_計極細
  6
CONTINUOUS
 62
    2
 10
1489.3159195017158
 20
725.74390818445863
 11
1491.7477855339837
 21
728.1757742167265
  0
LINE
  8
_0-0_計極細
  6
CONTINUOUS
 62
    2
 10
1502.0542801636273
 20
738.48226884637006
 11
1505.4777032061372
 21
741.90569188888003
  0
LINE
  8
_0-0_計極細
  6
CONTINUOUS
 62
    2
 10
1507.1308880927406
 20
743.55887677548071
 11
1514.4791418079492
 21
750.90713049068927
  0
LINE
  8
_0-0_計極細
  6
CONTINUOUS
 62
    2
 10
1489.2966347713207
 20
726.99741566019839
 11
1491.7693582832414
 21
729.47013917211916
  0
LINE
  8
_0-0_計極細
  6
CONTINUOUS
 62
    2
 10
1502.0416782605987
 20
739.74245914947551
 11
1505.498399014368
 21
743.19917990324575
  0
LINE
  8
_0-0_計極細
  6
CONTINUOUS
 62
    2
 10
1505.8334774256016
 20
743.53425831448112
 11
1514.5037602689461
 21
752.20454115782468
  0
LINE
  8
_0-0_計極細
  6
CONTINUOUS
 62
    2
 10
1489.2773500409255
 20
728.25092313593814
 11
1491.7909310324992
 21
730.76450412751183
  0
LINE
  8
_0-0_計極細
  6
CONTINUOUS
 62
    2
 10
1502.0290763575665
 20
741.00264945258004
 11
1508.333847736272
 21
747.30742083128735
  0
LINE
  8
_0-0_計極細
  6
CONTINUOUS
 62
    2
 10
1510.7305977521407
 20
749.70417084715518
 11
1514.5037602689461
 21
753.4773333639605
  0
LINE
  8
_0-0_計極細
  6
CONTINUOUS
 62
    2
 10
1489.2580653105304
 20
729.50443061167789
 11
1491.8125037817533
 21
732.05886908290358
  0
LINE
  8
_0-0_計極細
  6
CONTINUOUS
 62
    2
 10
1502.0164744545343
 20
742.26283975568458
 11
1506.0554593039685
 21
746.30182460511878
  0
LINE
  8
_0-0_計極細
  6
CONTINUOUS
 62
    2
 10
1511.7361939783093
 20
751.98255927945957
 11
1514.5037602689461
 21
754.75012557009632
  0
LINE
  8
_0-0_計極細
  6
CONTINUOUS
 62
    2
 10
1489.2387805801316
 20
730.75793808741764
 11
1491.8340765310111
 21
733.35323403829625
  0
LINE
  8
_0-0_計極細
  6
CONTINUOUS
 62
    2
 10
1502.0038725515058
 20
743.52303005878912
 11
1504.5325993693057
 21
746.05175687658993
  0
LINE
  8
_0-0_計極細
  6
CONTINUOUS
 62
    2
 10
1511.9862617068372
 20
753.50541921412332
 11
1514.5037602689461
 21
756.02291777623213
  0
LINE
  8
_0-0_計極細
  6
CONTINUOUS
 62
    2
 10
1489.2194958497364
 20
732.0114455631583
 11
1491.8556492802688
 21
734.64759899368801
  0
LINE
  8
_0-0_計極細
  6
CONTINUOUS
 62
    2
 10
1500.7423086010619
 20
743.53425831448112
 11
1503.2423086010619
 21
746.03425831448112
  0
LINE
  8
_0-0_計極細
  6
CONTINUOUS
 62
    2
 10
1512.0037602689461
 20
754.79570998236795
 11
1514.5037602689461
 21
757.29570998236795
  0
LINE
  8
_0-0_計極細
  6
CONTINUOUS
 62
    2
 10
1489.2002111193412
 20
733.26495303889806
 11
1491.877222029523
 21
735.94196394908067
  0
LINE
  8
_0-0_計極細
  6
CONTINUOUS
 62
    2
 10
1499.4695163949234
 20
743.53425831448112
 11
1501.9695163949234
 21
746.03425831448112
  0
LINE
  8
_0-0_計極細
  6
CONTINUOUS
 62
    2
 10
1512.0037602689461
 20
756.06850218850377
 11
1514.5037602689461
 21
758.56850218850377
  0
LINE
  8
_0-0_計極細
  6
CONTINUOUS
 62
    2
 10
1489.1809263889461
 20
734.51846051463781
 11
1491.8987947787807
 21
737.23632890447334
  0
LINE
  8
_0-0_計極細
  6
CONTINUOUS
 62
    2
 10
1498.1967241887885
 20
743.53425831448112
 11
1500.6967241887885
 21
746.03425831448112
  0
LINE
  8
_0-0_計極細
  6
CONTINUOUS
 62
    2
 10
1512.0037602689461
 20
757.34129439463959
 11
1514.5037602689461
 21
759.84129439463959
  0
LINE
  8
_0-0_計極細
  6
CONTINUOUS
 62
    2
 10
1489.1616416585473
 20
735.77196799037756
 11
1491.9203675280385
 21
738.5306938598651
  0
LINE
  8
_0-0_計極細
  6
CONTINUOUS
 62
    2
 10
1496.9239319826536
 20
743.53425831448112
 11
1499.4239319826536
 21
746.03425831448112
  0
LINE
  8
_0-0_計極細
  6
CONTINUOUS
 62
    2
 10
1512.0037602689461
 20
758.61408660077541
 11
1514.5037602689461
 21
761.11408660077541
  0
LINE
  8
_0-0_計極細
  6
CONTINUOUS
 62
    2
 10
1489.1423569281521
 20
737.02547546611731
 11
1491.9419402772926
 21
739.82505881525776
  0
LINE
  8
_0-0_計極細
  6
CONTINUOUS
 62
    2
 10
1495.6511397765187
 20
743.53425831448112
 11
1498.1511397765187
 21
746.03425831448112
  0
LINE
  8
_0-0_計極細
  6
CONTINUOUS
 62
    2
 10
1512.0037602689461
 20
759.88687880691123
 11
1514.5037602689461
 21
762.38687880691123
  0
LINE
  8
_0-0_計極細
  6
CONTINUOUS
 62
    2
 10
1489.123072197757
 20
738.27898294185707
 11
1491.9635130265503
 21
741.11942377065043
  0
LINE
  8
_0-0_計極細
  6
CONTINUOUS
 62
    2
 10
1494.3783475703801
 20
743.53425831448112
 11
1496.8783475703801
 21
746.03425831448112
  0
LINE
  8
_0-0_計極細
  6
CONTINUOUS
 62
    2
 10
1512.0037602689461
 20
761.15967101304705
 11
1514.5037602689461
 21
763.65967101304705
  0
LINE
  8
_0-0_計極細
  6
CONTINUOUS
 62
    2
 10
1489.1037874673618
 20
739.53249041759682
 11
1491.9850857758081
 21
742.41378872604218
  0
LINE
  8
_0-0_計極細
  6
CONTINUOUS
 62
    2
 10
1493.1055553642452
 20
743.53425831448112
 11
1495.6055553642452
 21
746.03425831448112
  0
LINE
  8
_0-0_計極細
  6
CONTINUOUS
 62
    2
 10
1512.0037602689461
 20
762.43246321918286
 11
1514.5037602689461
 21
764.93246321918286
  0
LINE
  8
_0-0_計極細
  6
CONTINUOUS
 62
    2
 10
1489.084502736963
 20
740.78599789333657
 11
1494.3327631581103
 21
746.03425831448112
  0
LINE
  8
_0-0_計極細
  6
CONTINUOUS
 62
    2
 10
1512.0037602689461
 20
763.70525542531868
 11
1514.5037602689461
 21
766.20525542531868
  0
LINE
  8
_0-0_計極細
  6
CONTINUOUS
 62
    2
 10
1489.0652180065679
 20
742.03950536907632
 11
1493.0599709519754
 21
746.03425831448112
  0
LINE
  8
_0-0_計極細
  6
CONTINUOUS
 62
    2
 10
1512.0037602689461
 20
764.9780476314545
 11
1514.5037602689461
 21
767.4780476314545
  0
LINE
  8
_0-0_計極細
  6
CONTINUOUS
 62
    2
 10
1489.0459332761727
 20
743.29301284481608
 11
1491.7871787458369
 21
746.03425831448112
  0
LINE
  8
_0-0_計極細
  6
CONTINUOUS
 62
    2
 10
1512.0037602689461
 20
766.25083983759032
 11
1514.5037602689461
 21
768.75083983759032
  0
LINE
  8
_0-0_計極細
  6
CONTINUOUS
 62
    2
 10
1489.0266485457776
 20
744.54652032055583
 11
1490.5143865397019
 21
746.03425831448112
  0
LINE
  8
_0-0_計極細
  6
CONTINUOUS
 62
    2
 10
1512.0037602689461
 20
767.52363204372614
 11
1514.5037602689461
 21
770.02363204372614
  0
LINE
  8
_0-0_計極細
  6
CONTINUOUS
 62
    2
 10
1489.0073638153824
 20
745.80002779629558
 11
1489.241594333567
 21
746.03425831448112
  0
LINE
  8
_0-0_計極細
  6
CONTINUOUS
 62
    2
 10
1512.0037602689461
 20
768.79642424986196
 11
1514.5037602689461
 21
771.29642424986196
  0
LINE
  8
_0-0_計極細
  6
CONTINUOUS
 62
    2
 10
1512.0037602689461
 20
770.06921645599778
 11
1514.5037602689461
 21
772.56921645599778
  0
LINE
  8
_0-0_計極細
  6
CONTINUOUS
 62
    2
 10
1512.0037602689461
 20
771.34200866213359
 11
1514.5037602689461
 21
773.84200866213359
  0
LINE
  8
_0-0_計極細
  6
CONTINUOUS
 62
    2
 10
1512.0037602689461
 20
772.61480086826941
 11
1514.5037602689461
 21
775.11480086826941
  0
LINE
  8
_0-0_計極細
  6
CONTINUOUS
 62
    2
 10
1512.0037602689461
 20
773.88759307440523
 11
1514.5037602689461
 21
776.38759307440523
  0
LINE
  8
_0-0_計極細
  6
CONTINUOUS
 62
    2
 10
1512.0037602689461
 20
775.16038528054105
 11
1514.5037602689461
 21
777.66038528054105
  0
LINE
  8
_0-0_計極細
  6
CONTINUOUS
 62
    2
 10
1512.0037602689461
 20
776.43317748667687
 11
1514.5037602689461
 21
778.93317748667687
  0
LINE
  8
_0-0_計極細
  6
CONTINUOUS
 62
    2
 10
1512.0037602689461
 20
777.70596969281269
 11
1514.5037602689461
 21
780.20596969281269
  0
LINE
  8
_0-0_計極細
  6
CONTINUOUS
 62
    2
 10
1512.0037602689461
 20
778.97876189894851
 11
1514.5037602689461
 21
781.47876189894851
  0
LINE
  8
_0-0_計極細
  6
CONTINUOUS
 62
    2
 10
1512.0037602689461
 20
780.25155410508432
 11
1514.5037602689461
 21
782.75155410508432
  0
LINE
  8
_0-0_計極細
  6
CONTINUOUS
 62
    2
 10
1512.0037602689461
 20
781.52434631122014
 11
1514.5037602689461
 21
784.02434631122014
  0
LINE
  8
_0-0_計極細
  6
CONTINUOUS
 62
    2
 10
1512.0037602689461
 20
782.79713851735596
 11
1514.5037602689461
 21
785.29713851735596
  0
LINE
  8
_0-0_計極細
  6
CONTINUOUS
 62
    2
 10
1512.0037602689461
 20
784.06993072349178
 11
1514.5037602689461
 21
786.56993072349178
  0
LINE
  8
_0-0_計極細
  6
CONTINUOUS
 62
    2
 10
1512.0037602689461
 20
785.3427229296276
 11
1514.5037602689461
 21
787.8427229296276
  0
LINE
  8
_0-0_計極細
  6
CONTINUOUS
 62
    2
 10
1512.0037602689461
 20
786.61551513576342
 11
1514.5037602689461
 21
789.11551513576342
  0
LINE
  8
_0-0_計極細
  6
CONTINUOUS
 62
    2
 10
1512.0037602689461
 20
787.88830734189924
 11
1514.5037602689461
 21
790.38830734189924
  0
LINE
  8
_0-0_計極細
  6
CONTINUOUS
 62
    2
 10
1512.0037602689461
 20
789.16109954803414
 11
1514.5037602689461
 21
791.66109954803414
  0
LINE
  8
_0-0_計極細
  6
CONTINUOUS
 62
    2
 10
1512.0037602689461
 20
790.43389175416996
 11
1514.5037602689461
 21
792.93389175416996
  0
LINE
  8
_0-0_計極細
  6
CONTINUOUS
 62
    2
 10
1512.0037602689461
 20
791.70668396030578
 11
1514.5037602689461
 21
794.20668396030578
  0
LINE
  8
_0-0_計極細
  6
CONTINUOUS
 62
    2
 10
1512.0037602689461
 20
792.9794761664416
 11
1514.5037602689461
 21
795.4794761664416
  0
LINE
  8
_0-0_計極細
  6
CONTINUOUS
 62
    2
 10
1512.0037602689461
 20
794.25226837257742
 11
1514.5037602689461
 21
796.75226837257742
  0
LINE
  8
_0-0_計極細
  6
CONTINUOUS
 62
    2
 10
1512.0037602689461
 20
795.52506057871324
 11
1514.5037602689461
 21
798.02506057871324
  0
LINE
  8
_0-0_計極細
  6
CONTINUOUS
 62
    2
 10
1512.0037602689461
 20
796.79785278484906
 11
1514.5037602689461
 21
799.29785278484906
  0
LINE
  8
_0-0_計極細
  6
CONTINUOUS
 62
    2
 10
1512.0037602689461
 20
798.07064499098487
 11
1514.5037602689461
 21
800.57064499098487
  0
LINE
  8
_0-0_計極細
  6
CONTINUOUS
 62
    2
 10
1512.0037602689461
 20
799.34343719712069
 11
1514.5037602689461
 21
801.84343719712069
  0
LINE
  8
_0-0_計極細
  6
CONTINUOUS
 62
    2
 10
1512.0037602689461
 20
800.61622940325651
 11
1514.5037602689461
 21
803.11622940325651
  0
LINE
  8
_0-0_計極細
  6
CONTINUOUS
 62
    2
 10
1512.0037602689461
 20
801.88902160939233
 11
1514.5037602689461
 21
804.38902160939233
  0
LINE
  8
_0-0_計極細
  6
CONTINUOUS
 62
    2
 10
1512.0037602689461
 20
803.16181381552815
 11
1514.5037602689461
 21
805.66181381552815
  0
LINE
  8
_0-0_計極細
  6
CONTINUOUS
 62
    2
 10
1512.0037602689461
 20
804.43460602166397
 11
1514.5037602689461
 21
806.93460602166397
  0
LINE
  8
_0-0_計極細
  6
CONTINUOUS
 62
    2
 10
1512.0037602689461
 20
805.70739822779979
 11
1514.5037602689461
 21
808.20739822779979
  0
LINE
  8
_0-0_計極細
  6
CONTINUOUS
 62
    2
 10
1512.0037602689461
 20
806.9801904339356
 11
1514.5037602689461
 21
809.4801904339356
  0
LINE
  8
_0-0_計極細
  6
CONTINUOUS
 62
    2
 10
1512.0037602689461
 20
808.25298264007142
 11
1514.5037602689461
 21
810.75298264007142
  0
LINE
  8
_0-0_計極細
  6
CONTINUOUS
 62
    2
 10
1512.0037602689461
 20
809.52577484620724
 11
1514.5037602689461
 21
812.02577484620724
  0
LINE
  8
_0-0_計極細
  6
CONTINUOUS
 62
    2
 10
1512.0037602689461
 20
810.79856705234306
 11
1514.5037602689461
 21
813.29856705234306
  0
LINE
  8
_0-0_計極細
  6
CONTINUOUS
 62
    2
 10
1512.0037602689461
 20
812.07135925847888
 11
1514.5037602689461
 21
814.57135925847888
  0
LINE
  8
_0-0_計極細
  6
CONTINUOUS
 62
    2
 10
1512.0037602689461
 20
813.3441514646147
 11
1514.5037602689461
 21
815.8441514646147
  0
LINE
  8
_0-0_計極細
  6
CONTINUOUS
 62
    2
 10
1512.0037602689461
 20
814.61694367075052
 11
1514.5037602689461
 21
817.11694367075052
  0
LINE
  8
_0-0_計極細
  6
CONTINUOUS
 62
    2
 10
1512.0037602689461
 20
815.88973587688633
 11
1514.5037602689461
 21
818.38973587688633
  0
LINE
  8
_0-0_計極細
  6
CONTINUOUS
 62
    2
 10
1512.0037602689461
 20
817.16252808302215
 11
1514.5037602689461
 21
819.66252808302215
  0
LINE
  8
_0-0_計極細
  6
CONTINUOUS
 62
    2
 10
1512.0037602689461
 20
818.43532028915797
 11
1514.5037602689461
 21
820.93532028915797
  0
LINE
  8
_0-0_計極細
  6
CONTINUOUS
 62
    2
 10
1512.0037602689461
 20
819.70811249529379
 11
1514.5037602689461
 21
822.20811249529379
  0
LINE
  8
_0-0_計極細
  6
CONTINUOUS
 62
    2
 10
1512.0037602689461
 20
820.98090470142961
 11
1514.5037602689461
 21
823.48090470142961
  0
LINE
  8
_0-0_計極細
  6
CONTINUOUS
 62
    2
 10
1512.0037602689461
 20
822.25369690756452
 11
1514.5037602689461
 21
824.75369690756543
  0
LINE
  8
_0-0_計極細
  6
CONTINUOUS
 62
    2
 10
1512.0037602689461
 20
823.52648911370034
 11
1514.5344372773559
 21
826.05716612210927
  0
LINE
  8
_0-0_計極細
  6
CONTINUOUS
 62
    2
 10
1512.0037602689461
 20
824.79928131983615
 11
1515.1281645323413
 21
827.92368558322869
  0
LINE
  8
_0-0_計極細
  6
CONTINUOUS
 62
    2
 10
1512.0037602689461
 20
826.07207352597197
 11
1517.0037602689461
 21
831.07207352597197
  0
LINE
  8
_0-0_計極細
  6
CONTINUOUS
 62
    2
 10
1512.0037602689461
 20
827.34486573210779
 11
1517.0037602689461
 21
832.34486573210779
  0
LINE
  8
_0-0_計極細
  6
CONTINUOUS
 62
    2
 10
1512.0037602689461
 20
828.61765793824361
 11
1517.0037602689461
 21
833.61765793824361
  0
LINE
  8
_0-0_計極細
  6
CONTINUOUS
 62
    2
 10
1512.0037602689461
 20
829.89045014437943
 11
1517.0037602689461
 21
834.89045014437943
  0
LINE
  8
_0-0_計極細
  6
CONTINUOUS
 62
    2
 10
1519.9475851590521
 20
837.83427503448456
 11
1520.9037602689475
 21
838.79045014437997
  0
LINE
  8
_0-0_計極細
  6
CONTINUOUS
 62
    2
 10
1512.0037602689461
 20
831.16324235051525
 11
1512.8747929529179
 21
832.03427503448529
  0
LINE
  8
_0-0_計極細
  6
CONTINUOUS
 62
    2
 10
1513.263723998474
 20
832.42320608004229
 11
1517.0037602689461
 21
836.16324235051525
  0
LINE
  8
_0-0_計極細
  6
CONTINUOUS
 62
    2
 10
1518.6747929529172
 20
837.83427503448547
 11
1520.9037602689475
 21
840.06324235051579
  0
LINE
  8
_0-0_計極細
  6
CONTINUOUS
 62
    2
 10
1512.5037602689461
 20
832.93603455665107
 11
1517.0037602689461
 21
837.43603455665107
  0
LINE
  8
_0-0_計極細
  6
CONTINUOUS
 62
    2
 10
1517.4020007467823
 20
837.83427503448456
 11
1520.9037602689475
 21
841.33603455665161
  0
LINE
  8
_0-0_計極細
  6
CONTINUOUS
 62
    2
 10
1512.5037602689461
 20
834.20882676278688
 11
1520.9037602689475
 21
842.60882676278743
  0
LINE
  8
_0-0_計極細
  6
CONTINUOUS
 62
    2
 10
1512.5037602689461
 20
835.4816189689227
 11
1520.9037602689475
 21
843.88161896892325
  0
LINE
  8
_0-0_計極細
  6
CONTINUOUS
 62
    2
 10
1513.9827602689491
 20
838.23341117505879
 11
1520.9037602689475
 21
845.15441117505816
  0
LINE
  8
_0-0_計極細
  6
CONTINUOUS
 62
    2
 10
1513.9827602689491
 20
839.50620338119461
 11
1520.9037602689475
 21
846.42720338119398
  0
LINE
  8
_0-0_計極細
  6
CONTINUOUS
 62
    2
 10
1513.9827602689491
 20
840.77899558733043
 11
1520.9037602689475
 21
847.69999558732979
  0
LINE
  8
_0-0_計極細
  6
CONTINUOUS
 62
    2
 10
1513.9827602689491
 20
842.05178779346625
 11
1520.9037602689475
 21
848.97278779346561
  0
LINE
  8
_0-0_計極細
  6
CONTINUOUS
 62
    2
 10
1513.9827602689491
 20
843.32457999960207
 11
1520.9037602689475
 21
850.24557999960143
  0
LINE
  8
_0-0_計極細
  6
CONTINUOUS
 62
    2
 10
1513.9827602689491
 20
844.59737220573788
 11
1520.9037602689475
 21
851.51837220573725
  0
LINE
  8
_0-0_計極細
  6
CONTINUOUS
 62
    2
 10
1513.9827602689491
 20
845.8701644118737
 11
1519.8218077479703
 21
851.70921189089586
  0
LINE
  8
_0-0_計極細
  6
CONTINUOUS
 62
    2
 10
1513.9827602689491
 20
847.14295661800861
 11
1518.3826646571886
 21
851.54286100625086
  0
LINE
  8
_0-0_計極細
  6
CONTINUOUS
 62
    2
 10
1513.9827602689491
 20
848.41574882414443
 11
1516.9435215664105
 21
851.37651012160677
  0
LINE
  8
_0-0_計極細
  6
CONTINUOUS
 62
    2
 10
1513.9827602689491
 20
849.68854103028025
 11
1515.5043784756288
 21
851.21015923696268
  0
LINE
  8
_0-0_計極細
  6
CONTINUOUS
 62
    2
 10
1513.9827602689491
 20
850.96133323641607
 11
1514.065235384847
 21
851.04380835231768
  0
LINE
  8
_0-0_計極細
  6
CONTINUOUS
 62
    2
 10
1519.8218077479703
 20
851.70921189089586
 11
1520.9037602689475
 21
852.79116441187307
  0
LINE
  8
_0-0_計極細
  6
CONTINUOUS
 62
    2
 10
1518.3826646571886
 20
851.54286100625086
 11
1520.2694977140652
 21
853.42969406312568
  0
LINE
  8
_0-0_計極細
  6
CONTINUOUS
 62
    2
 10
1516.9435215664105
 20
851.37651012160677
 11
1518.7853132132093
 21
853.21830176840649
  0
LINE
  8
_0-0_計極細
  6
CONTINUOUS
 62
    2
 10
1515.5043784756288
 20
851.21015923696268
 11
1517.301128712357
 21
853.00690947368821
  0
LINE
  8
_0-0_計極細
  6
CONTINUOUS
 62
    2
 10
1514.0652353848507
 20
851.04380835231768
 11
1515.8169442115011
 21
852.79551717896993
  0
LINE
  8
_0-0_計極細
  6
CONTINUOUS
 62
    2
 10
1513.9827602689491
 20
852.23412544255189
 11
1514.3327597106488
 21
852.58412488425165
  0
LINE
  8
_0-0_計極細
  6
CONTINUOUS
 62
    2
 10
1508.3338477362756
 20
747.30742083128735
 11
1510.7305977521407
 21
749.70417084715427
  0
LINE
  8
_0-0_計極細
  6
CONTINUOUS
 62
    2
 10
1506.0554593039685
 20
746.30182460511878
 11
1511.7361939783093
 21
751.98255927945957
  0
LINE
  8
_0-0_計極細
  6
CONTINUOUS
 62
    2
 10
1504.5325993693057
 20
746.05175687658993
 11
1511.9862617068372
 21
753.50541921412332
  0
LINE
  8
_0-0_計極細
  6
CONTINUOUS
 62
    2
 10
1503.2423086010619
 20
746.03425831448112
 11
1512.0037602689461
 21
754.79570998236795
  0
LINE
  8
_0-0_計極細
  6
CONTINUOUS
 62
    2
 10
1501.9695163949234
 20
746.03425831448112
 11
1512.0037602689461
 21
756.06850218850377
  0
LINE
  8
_0-0_計極細
  6
CONTINUOUS
 62
    2
 10
1500.6967241887885
 20
746.03425831448112
 11
1512.0037602689461
 21
757.34129439463959
  0
LINE
  8
_0-0_計極細
  6
CONTINUOUS
 62
    2
 10
1499.4239319826536
 20
746.03425831448112
 11
1512.0037602689461
 21
758.61408660077541
  0
LINE
  8
_0-0_計極細
  6
CONTINUOUS
 62
    2
 10
1498.1511397765187
 20
746.03425831448112
 11
1512.0037602689461
 21
759.88687880691123
  0
LINE
  8
_0-0_計極細
  6
CONTINUOUS
 62
    2
 10
1496.8783475703801
 20
746.03425831448112
 11
1512.0037602689461
 21
761.15967101304705
  0
LINE
  8
_0-0_計極細
  6
CONTINUOUS
 62
    2
 10
1495.6055553642452
 20
746.03425831448112
 11
1512.0037602689461
 21
762.43246321918286
  0
LINE
  8
_0-0_計極細
  6
CONTINUOUS
 62
    2
 10
1494.3327631581103
 20
746.03425831448112
 11
1512.0037602689461
 21
763.70525542531868
  0
LINE
  8
_0-0_計極細
  6
CONTINUOUS
 62
    2
 10
1493.0599709519754
 20
746.03425831448112
 11
1512.0037602689461
 21
764.9780476314545
  0
LINE
  8
_0-0_計極細
  6
CONTINUOUS
 62
    2
 10
1491.7871787458369
 20
746.03425831448112
 11
1512.0037602689461
 21
766.25083983759032
  0
LINE
  8
_0-0_計極細
  6
CONTINUOUS
 62
    2
 10
1490.5143865397019
 20
746.03425831448112
 11
1512.0037602689461
 21
767.52363204372614
  0
LINE
  8
_0-0_計極細
  6
CONTINUOUS
 62
    2
 10
1489.241594333567
 20
746.03425831448112
 11
1512.0037602689461
 21
768.79642424986196
  0
LINE
  8
_0-0_計極細
  6
CONTINUOUS
 62
    2
 10
1489.0037602689461
 20
747.06921645599778
 11
1512.0037602689461
 21
770.06921645599778
  0
LINE
  8
_0-0_計極細
  6
CONTINUOUS
 62
    2
 10
1489.0037602689461
 20
748.34200866213359
 11
1512.0037602689461
 21
771.34200866213359
  0
LINE
  8
_0-0_計極細
  6
CONTINUOUS
 62
    2
 10
1489.0037602689461
 20
749.61480086826941
 11
1496.7622200864878
 21
757.37326068580933
  0
LINE
  8
_0-0_計極細
  6
CONTINUOUS
 62
    2
 10
1501.9147578976206
 20
762.52579849694121
 11
1512.0037602689461
 21
772.61480086826941
  0
LINE
  8
_0-0_計極細
  6
CONTINUOUS
 62
    2
 10
1489.0037602689461
 20
750.88759307440523
 11
1494.6373246076089
 21
756.52115741306807
  0
LINE
  8
_0-0_計極細
  6
CONTINUOUS
 62
    2
 10
1502.7668611703609
 20
764.65069397581829
 11
1512.0037602689461
 21
773.88759307440523
  0
LINE
  8
_0-0_計極細
  6
CONTINUOUS
 62
    2
 10
1489.0037602689461
 20
752.16038528054105
 11
1493.0062975242706
 21
756.16292253586289
  0
LINE
  8
_0-0_計極細
  6
CONTINUOUS
 62
    2
 10
1503.1250960475643
 20
766.28172105915928
 11
1512.0037602689461
 21
775.16038528054105
  0
LINE
  8
_0-0_計極細
  6
CONTINUOUS
 62
    2
 10
1489.0037602689461
 20
753.43317748667687
 11
1491.6101340246184
 21
756.03955124234835
  0
LINE
  8
_0-0_計極細
  6
CONTINUOUS
 62
    2
 10
1503.2484673410816
 20
767.67788455880964
 11
1512.0037602689461
 21
776.43317748667687
  0
LINE
  8
_0-0_計極細
  6
CONTINUOUS
 62
    2
 10
1489.0037602689461
 20
754.70596969281269
 11
1490.3320488906154
 21
756.03425831448112
  0
LINE
  8
_0-0_計極細
  6
CONTINUOUS
 62
    2
 10
1503.2537602689461
 20
768.95596969281269
 11
1512.0037602689461
 21
777.70596969281269
  0
LINE
  8
_0-0_計極細
  6
CONTINUOUS
 62
    2
 10
1489.0037602689461
 20
755.97876189894851
 11
1489.0592566844805
 21
756.03425831448112
  0
LINE
  8
_0-0_計極細
  6
CONTINUOUS
 62
    2
 10
1503.2537602689461
 20
770.22876189894851
 11
1512.0037602689461
 21
778.97876189894851
  0
LINE
  8
_0-0_計極細
  6
CONTINUOUS
 62
    2
 10
1503.2537602689461
 20
771.50155410508432
 11
1512.0037602689461
 21
780.25155410508432
  0
LINE
  8
_0-0_計極細
  6
CONTINUOUS
 62
    2
 10
1503.2537602689461
 20
772.77434631121923
 11
1512.0037602689461
 21
781.52434631122014
  0
LINE
  8
_0-0_計極細
  6
CONTINUOUS
 62
    2
 10
1503.2537602689461
 20
774.04713851735596
 11
1512.0037602689461
 21
782.79713851735505
  0
LINE
  8
_0-0_計極細
  6
CONTINUOUS
 62
    2
 10
1503.2537602689461
 20
775.31993072349087
 11
1512.0037602689461
 21
784.06993072349087
  0
LINE
  8
_0-0_計極細
  6
CONTINUOUS
 62
    2
 10
1503.2537602689461
 20
776.59272292962669
 11
1512.0037602689461
 21
785.34272292962669
  0
LINE
  8
_0-0_計極細
  6
CONTINUOUS
 62
    2
 10
1503.2537602689461
 20
777.86551513576251
 11
1512.0037602689461
 21
786.61551513576251
  0
LINE
  8
_0-0_計極細
  6
CONTINUOUS
 62
    2
 10
1503.2537602689461
 20
779.13830734189833
 11
1512.0037602689461
 21
787.88830734189833
  0
LINE
  8
_0-0_計極細
  6
CONTINUOUS
 62
    2
 10
1503.2537602689461
 20
780.41109954803414
 11
1512.0037602689461
 21
789.16109954803414
  0
LINE
  8
_0-0_計極細
  6
CONTINUOUS
 62
    2
 10
1503.2537602689461
 20
781.68389175416996
 11
1512.0037602689461
 21
790.43389175416996
  0
LINE
  8
_0-0_計極細
  6
CONTINUOUS
 62
    2
 10
1503.2537602689461
 20
782.95668396030578
 11
1512.0037602689461
 21
791.70668396030578
  0
LINE
  8
_0-0_計極細
  6
CONTINUOUS
 62
    2
 10
1503.2537602689461
 20
784.2294761664416
 11
1512.0037602689461
 21
792.9794761664416
  0
LINE
  8
_0-0_計極細
  6
CONTINUOUS
 62
    2
 10
1503.2537602689461
 20
785.50226837257742
 11
1512.0037602689461
 21
794.25226837257742
  0
LINE
  8
_0-0_計極細
  6
CONTINUOUS
 62
    2
 10
1503.2537602689461
 20
786.77506057871324
 11
1512.0037602689461
 21
795.52506057871324
  0
LINE
  8
_0-0_計極細
  6
CONTINUOUS
 62
    2
 10
1503.2537602689461
 20
788.04785278484906
 11
1512.0037602689461
 21
796.79785278484906
  0
LINE
  8
_0-0_計極細
  6
CONTINUOUS
 62
    2
 10
1503.2537602689461
 20
789.32064499098487
 11
1512.0037602689461
 21
798.07064499098487
  0
LINE
  8
_0-0_計極細
  6
CONTINUOUS
 62
    2
 10
1503.2537602689461
 20
790.59343719712069
 11
1512.0037602689461
 21
799.34343719712069
  0
LINE
  8
_0-0_計極細
  6
CONTINUOUS
 62
    2
 10
1503.2537602689461
 20
791.86622940325651
 11
1512.0037602689461
 21
800.61622940325651
  0
LINE
  8
_0-0_計極細
  6
CONTINUOUS
 62
    2
 10
1503.2537602689461
 20
793.13902160939233
 11
1512.0037602689461
 21
801.88902160939233
  0
LINE
  8
_0-0_計極細
  6
CONTINUOUS
 62
    2
 10
1503.2537602689461
 20
794.41181381552815
 11
1512.0037602689461
 21
803.16181381552815
  0
LINE
  8
_0-0_計極細
  6
CONTINUOUS
 62
    2
 10
1503.2537602689461
 20
795.68460602166397
 11
1512.0037602689461
 21
804.43460602166397
  0
LINE
  8
_0-0_計極細
  6
CONTINUOUS
 62
    2
 10
1503.2537602689461
 20
796.95739822779979
 11
1510.2600306144575
 21
803.9636685733085
  0
LINE
  8
_0-0_計極細
  6
CONTINUOUS
 62
    2
 10
1503.2537602689461
 20
798.2301904339356
 11
1508.9872384083189
 21
803.9636685733085
  0
LINE
  8
_0-0_計極細
  6
CONTINUOUS
 62
    2
 10
1503.2537602689461
 20
799.50298264007142
 11
1507.714446202184
 21
803.9636685733085
  0
LINE
  8
_0-0_計極細
  6
CONTINUOUS
 62
    2
 10
1503.2537602689461
 20
800.77577484620724
 11
1506.4416539960491
 21
803.9636685733085
  0
LINE
  8
_0-0_計極細
  6
CONTINUOUS
 62
    2
 10
1503.2537602689461
 20
802.04856705234306
 11
1505.1688617899142
 21
803.9636685733085
  0
LINE
  8
_0-0_計極細
  6
CONTINUOUS
 62
    2
 10
1503.2537602689461
 20
803.32135925847888
 11
1503.8960695837793
 21
803.9636685733085
  0
LINE
  8
_0-0_計極細
  6
CONTINUOUS
 62
    2
 10
1489.7527995780163
 20
773.27409988778163
 11
1491.0037602689461
 21
774.52506057871324
  0
LINE
  8
_0-0_計極細
  6
CONTINUOUS
 62
    2
 10
1489.0037442689479
 20
774.64636492227328
 11
1491.0037602689461
 21
776.64638092227324
  0
LINE
  8
_0-0_計極細
  6
CONTINUOUS
 62
    2
 10
1489.0037442689479
 20
776.76768526583237
 11
1491.0037602689461
 21
778.76770126583233
  0
LINE
  8
_0-0_計極細
  6
CONTINUOUS
 62
    2
 10
1489.0037442689479
 20
778.88900560939237
 11
1491.0037602689461
 21
780.88902160939233
  0
LINE
  8
_0-0_計極細
  6
CONTINUOUS
 62
    2
 10
1489.0037442689479
 20
781.01032595295237
 11
1491.0037602689461
 21
783.01034195295142
  0
LINE
  8
_0-0_計極細
  6
CONTINUOUS
 62
    2
 10
1489.0037442689479
 20
783.13164629651146
 11
1491.0037602689461
 21
785.13166229651142
  0
LINE
  8
_0-0_計極細
  6
CONTINUOUS
 62
    2
 10
1489.0037442689479
 20
785.25296664007146
 11
1491.0037602689461
 21
787.25298264007142
  0
LINE
  8
_0-0_計極細
  6
CONTINUOUS
 62
    2
 10
1489.0037442689479
 20
787.37428698363055
 11
1491.0037602689461
 21
789.37430298363051
  0
LINE
  8
_0-0_計極細
  6
CONTINUOUS
 62
    2
 10
1489.0037442689479
 20
789.49560732719056
 11
1491.0037602689461
 21
791.49562332719051
  0
LINE
  8
_0-0_計極細
  6
CONTINUOUS
 62
    2
 10
1489.0037442689479
 20
791.61692767075056
 11
1491.0037602689461
 21
793.61694367074961
  0
LINE
  8
_0-0_計極細
  6
CONTINUOUS
 62
    2
 10
1489.0037442689479
 20
793.73824801430965
 11
1491.0037602689461
 21
795.73826401430961
  0
LINE
  8
_0-0_計極細
  6
CONTINUOUS
 62
    2
 10
1489.0037442689479
 20
795.85956835786965
 11
1491.0037602689461
 21
797.85958435786961
  0
LINE
  8
_0-0_計極細
  6
CONTINUOUS
 62
    2
 10
1489.0037442689479
 20
797.98088870142874
 11
1491.0037602689461
 21
799.9809047014287
  0
LINE
  8
_0-0_計極細
  6
CONTINUOUS
 62
    2
 10
1489.0037442689479
 20
800.10220904498874
 11
1491.0037602689461
 21
802.1022250449887
  0
LINE
  8
_0-0_計極細
  6
CONTINUOUS
 62
    2
 10
1489.0037442689479
 20
802.22352938854874
 11
1491.0037602689461
 21
804.22354538854779
  0
LINE
  8
_0-0_計極細
  6
CONTINUOUS
 62
    2
 10
1489.0037442689479
 20
804.34484973210783
 11
1491.0037602689461
 21
806.34486573210779
  0
LINE
  8
_0-0_計極細
  6
CONTINUOUS
 62
    2
 10
1489.0037442689479
 20
806.46617007566783
 11
1491.0037602689461
 21
808.46618607566779
  0
LINE
  8
_0-0_計極細
  6
CONTINUOUS
 62
    2
 10
1489.0037442689479
 20
808.58749041922783
 11
1491.0037602689461
 21
810.58750641922688
  0
LINE
  8
_0-0_計極細
  6
CONTINUOUS
 62
    2
 10
1489.0037442689479
 20
810.70881076278692
 11
1491.0037602689461
 21
812.70882676278688
  0
LINE
  8
_0-0_計極細
  6
CONTINUOUS
 62
    2
 10
1489.0037442689479
 20
812.83013110634693
 11
1491.0037602689461
 21
814.83014710634598
  0
LINE
  8
_0-0_計極細
  6
CONTINUOUS
 62
    2
 10
1489.0037442689479
 20
814.95145144990602
 11
1491.0037602689461
 21
816.95146744990598
  0
LINE
  8
_0-0_計極細
  6
CONTINUOUS
 62
    2
 10
1489.0037442689479
 20
817.07277179346602
 11
1491.0037602689461
 21
819.07278779346598
  0
LINE
  8
_0-0_計極細
  6
CONTINUOUS
 62
    2
 10
1504.7943074686061
 20
832.86333499312605
 11
1506.4825433103049
 21
834.55157083482482
  0
LINE
  8
_0-0_計極細
  6
CONTINUOUS
 62
    2
 10
1489.0037442689479
 20
819.19409213702511
 11
1491.0037602689461
 21
821.19410813702507
  0
LINE
  8
_0-0_計極細
  6
CONTINUOUS
 62
    2
 10
1502.6517701664068
 20
832.84211803448488
 11
1505.6517701664068
 21
835.84211803448488
  0
LINE
  8
_0-0_計極細
  6
CONTINUOUS
 62
    2
 10
1489.0037442689479
 20
821.31541248058511
 11
1491.0037602689461
 21
823.31542848058507
  0
LINE
  8
_0-0_計極細
  6
CONTINUOUS
 62
    2
 10
1501.5037602689461
 20
833.81542848058507
 11
1504.2537602689461
 21
836.56542848058507
  0
LINE
  8
_0-0_計極細
  6
CONTINUOUS
 62
    2
 10
1489.0037442689479
 20
823.43673282414511
 11
1491.0037602689461
 21
825.43674882414507
  0
LINE
  8
_0-0_計極細
  6
CONTINUOUS
 62
    2
 10
1501.5023127332513
 20
835.9353012884485
 11
1504.2537602689461
 21
838.68674882414507
  0
LINE
  8
_0-0_計極細
  6
CONTINUOUS
 62
    2
 10
1489.0037442689479
 20
825.5580531677042
 11
1491.0037602689461
 21
827.55806916770416
  0
LINE
  8
_0-0_計極細
  6
CONTINUOUS
 62
    2
 10
1500.9805669076575
 20
837.53487580641649
 11
1503.6878091357264
 21
840.24211803448543
  0
LINE
  8
_0-0_計極細
  6
CONTINUOUS
 62
    2
 10
1489.0037442689479
 20
827.6793735112642
 11
1491.0037602689461
 21
829.67938951126416
  0
LINE
  8
_0-0_計極細
  6
CONTINUOUS
 62
    2
 10
1499.832219990463
 20
838.50784923277934
 11
1501.5664887921682
 21
840.24211803448543
  0
LINE
  8
_0-0_計極細
  6
CONTINUOUS
 62
    2
 10
1489.0037442689479
 20
829.8006938548242
 11
1491.0037602689461
 21
831.80070985482325
  0
LINE
  8
_0-0_計極細
  6
CONTINUOUS
 62
    2
 10
1498.2817334832232
 20
839.07868306909859
 11
1499.44516844861
 21
840.24211803448543
  0
LINE
  8
_0-0_計極細
  6
CONTINUOUS
 62
    2
 10
1489.0037442689479
 20
831.92201419838329
 11
1491.0512136788218
 21
833.969483608259
  0
LINE
  8
_0-0_計極細
  6
CONTINUOUS
 62
    2
 10
1496.2506406951741
 20
839.16891062460945
 11
1497.3238481050482
 21
840.24211803448543
  0
LINE
  8
_0-0_計極細
  6
CONTINUOUS
 62
    2
 10
1486.9946847614899
 20
832.03427503448529
 11
1495.20252776149
 21
840.24211803448543
  0
LINE
  8
_0-0_計極細
  6
CONTINUOUS
 62
    2
 10
1484.8733644179281
 20
832.03427503448529
 11
1493.0812074179282
 21
840.24211803448543
  0
LINE
  8
_0-0_計極細
  6
CONTINUOUS
 62
    2
 10
1482.7520440743699
 20
832.03427503448529
 11
1490.95988707437
 21
840.24211803448543
  0
LINE
  8
_0-0_計極細
  6
CONTINUOUS
 62
    2
 10
1480.6307237308117
 20
832.03427503448529
 11
1488.8385667308119
 21
840.24211803448543
  0
LINE
  8
_0-0_計極細
  6
CONTINUOUS
 62
    2
 10
1478.5094033872499
 20
832.03427503448529
 11
1486.71724638725
 21
840.24211803448543
  0
LINE
  8
_0-0_計極細
  6
CONTINUOUS
 62
    2
 10
1476.3880830436917
 20
832.03427503448529
 11
1484.5959260436919
 21
840.24211803448543
  0
LINE
  8
_0-0_計極細
  6
CONTINUOUS
 62
    2
 10
1474.2667627001299
 20
832.03427503448529
 11
1482.47460570013
 21
840.24211803448543
  0
LINE
  8
_0-0_計極細
  6
CONTINUOUS
 62
    2
 10
1472.1454423565717
 20
832.03427503448529
 11
1480.3532853565719
 21
840.24211803448543
  0
LINE
  8
_0-0_計極細
  6
CONTINUOUS
 62
    2
 10
1470.0241220130135
 20
832.03427503448529
 11
1478.2319650130137
 21
840.24211803448543
  0
LINE
  8
_0-0_計極細
  6
CONTINUOUS
 62
    2
 10
1467.9028016694517
 20
832.03427503448529
 11
1476.1106446694519
 21
840.24211803448543
  0
LINE
  8
_0-0_計極細
  6
CONTINUOUS
 62
    2
 10
1465.7814813258935
 20
832.03427503448529
 11
1473.9893243258937
 21
840.24211803448543
  0
LINE
  8
_0-0_計極細
  6
CONTINUOUS
 62
    2
 10
1464.0037602689461
 20
832.37787432109872
 11
1471.8680039823319
 21
840.24211803448543
  0
LINE
  8
_0-0_計極細
  6
CONTINUOUS
 62
    2
 10
1464.0037602689461
 20
834.49919466465872
 11
1469.7466836387737
 21
840.24211803448543
  0
LINE
  8
_0-0_計極細
  6
CONTINUOUS
 62
    2
 10
1464.0037602689461
 20
836.62051500821872
 11
1467.6253632952155
 21
840.24211803448543
  0
LINE
  8
_0-0_計極細
  6
CONTINUOUS
 62
    2
 10
1464.0037602689461
 20
838.74183535177781
 11
1465.5040429516537
 21
840.24211803448543
  0
LINE
  8
_0-0_計極細
  6
CONTINUOUS
 62
    2
 10
1464.0037602689461
 20
854.22709604915599
 11
1520.9037602689475
 21
854.22709604915508
  0
LINE
  8
_0-1_計細線
  6
CONTINUOUS
 62
    3
 10
1407.0037602689461
 20
850.53425831448021
 11
1464.0037602689463
 21
850.53425831448021
  0
LINE
  8
_0-1_計細線
  6
CONTINUOUS
 62
    3
 10
1407.1037602689482
 20
837.83427503448547
 11
1407.1037602689482
 21
850.53425831448044
  0
TEXT
  8
_0-7_枠細線
 62
    5
 10
1536.8
 20
239.24855752183862
 40
32
 41
0.6
 50
0
  1
排水ユニット ＳＵＳグレーチング 浅型
  0
LINE
  8
_0-0_計極細
  6
CENTER2
 62
    2
 10
1464.0037602689461
 20
1278.9690800122003
 11
1464.0037602689461
 21
694.67154038991475
  0
CIRCLE
  8
_0-5_寸法線
  6
CONTINUOUS
 62
    7
 10
679.50982005453648
 20
1178.7842597545205
 40
35.999998559961114
  0
LINE
  8
_0-0_計極細
  6
CONTINUOUS
 62
    2
 10
707.5037583888959
 20
1168.284260174531
 11
707.5037583888959
 21
1173.7842599545256
  0
LINE
  8
_0-0_計極細
  6
CONTINUOUS
 62
    2
 10
707.5037583888959
 20
1189.2842593345099
 11
707.5037583888959
 21
1183.7842595545153
  0
LINE
  8
_0-0_計極細
  6
CONTINUOUS
 62
    2
 10
696.55376099423324
 20
1189.2842583144834
 11
696.55376099423324
 21
1187.6842593985202
  0
LINE
  8
_0-0_計極細
  6
CONTINUOUS
 62
    2
 10
696.55376099423324
 20
1186.6842594385198
 11
696.55376099423324
 21
1183.7842583144834
  0
LINE
  8
_0-0_計極細
  6
CONTINUOUS
 62
    2
 10
703.45376099435566
 20
1189.2842583144834
 11
703.45376099435566
 21
1187.6842593985202
  0
LINE
  8
_0-0_計極細
  6
CONTINUOUS
 62
    2
 10
703.45376099435566
 20
1186.6842594385198
 11
703.45376099435566
 21
1183.7842583144834
  0
LINE
  8
_0-0_計極細
  6
CONTINUOUS
 62
    2
 10
696.55376099423324
 20
1168.2842583144834
 11
696.55376099423324
 21
1169.8842601105207
  0
LINE
  8
_0-0_計極細
  6
CONTINUOUS
 62
    2
 10
696.55376099423324
 20
1170.8842600705207
 11
696.55376099423324
 21
1173.7842583144834
  0
LINE
  8
_0-0_計極細
  6
CONTINUOUS
 62
    2
 10
703.45376099435566
 20
1168.2842583144834
 11
703.45376099435566
 21
1169.8842601105207
  0
LINE
  8
_0-0_計極細
  6
CONTINUOUS
 62
    2
 10
703.45376099435566
 20
1170.8842600705207
 11
703.45376099435566
 21
1173.7842583144834
  0
LINE
  8
_0-0_計極細
  6
CONTINUOUS
 62
    2
 10
664.00376014890367
 20
1168.8842601505203
 11
673.00375978890474
 21
1168.8842601505203
  0
LINE
  8
_0-0_計極細
  6
CONTINUOUS
 62
    2
 10
664.00376014890367
 20
1168.8842601505203
 11
664.00376014890367
 21
1169.8842601105207
  0
LINE
  8
_0-0_計極細
  6
CONTINUOUS
 62
    2
 10
673.00375978890474
 20
1168.8842601505203
 11
673.00375978890474
 21
1169.8842601105207
  0
LINE
  8
_0-0_計極細
  6
CONTINUOUS
 62
    2
 10
664.00376014890367
 20
1188.6842593585202
 11
673.00375978890474
 21
1188.6842593585202
  0
LINE
  8
_0-0_計極細
  6
CONTINUOUS
 62
    2
 10
664.00376014890367
 20
1188.6842593585202
 11
664.00376014890367
 21
1187.6842593985202
  0
LINE
  8
_0-0_計極細
  6
CONTINUOUS
 62
    2
 10
673.00375978890474
 20
1188.6842593585202
 11
673.00375978890474
 21
1187.6842593985202
  0
LINE
  8
_0-1_計細線
  6
CONTINUOUS
 62
    3
 10
705.00375850890418
 20
1186.6842594385198
 11
705.00375850890418
 21
1187.6842593985202
  0
LINE
  8
_0-1_計細線
  6
CONTINUOUS
 62
    3
 10
692.20375902090495
 20
1186.6842594385198
 11
705.00375850890418
 21
1186.6842594385198
  0
LINE
  8
_0-1_計細線
  6
CONTINUOUS
 62
    3
 10
705.00375850890418
 20
1187.6842593985202
 11
663.00376018890415
 21
1187.6842593985202
  0
LINE
  8
_0-1_計細線
  6
CONTINUOUS
 62
    3
 10
663.00376018890415
 20
1169.8842601105207
 11
705.00375850890418
 21
1169.8842601105207
  0
LINE
  8
_0-1_計細線
  6
CONTINUOUS
 62
    3
 10
705.00375850890418
 20
1170.8842600705207
 11
692.20375902090495
 21
1170.8842600705207
  0
LINE
  8
_0-1_計細線
  6
CONTINUOUS
 62
    3
 10
705.00375850890418
 20
1169.8842601105207
 11
705.00375850890418
 21
1170.8842600705207
  0
LINE
  8
_0-1_計細線
  6
CONTINUOUS
 62
    3
 10
692.20375902090495
 20
1169.8842601105207
 11
692.20375902090495
 21
1187.6842593985202
  0
LINE
  8
_0-1_計細線
  6
CONTINUOUS
 62
    3
 10
663.00376018890415
 20
1187.6842593985202
 11
663.00376018890415
 21
1169.8842601105207
  0
LINE
  8
_0-1_計細線
  6
CONTINUOUS
 62
    3
 10
694.50375890890496
 20
1183.7842595545153
 11
694.50375890890496
 21
1173.7842599545256
  0
LINE
  8
_0-0_計極細
  6
CONTINUOUS
 62
    2
 10
667.50375998890445
 20
1189.2842593345099
 11
667.50375998890445
 21
1188.6842593585202
  0
LINE
  8
_0-0_計極細
  6
CONTINUOUS
 62
    2
 10
667.50375998890445
 20
1168.8842601505203
 11
667.50375998890445
 21
1168.284260174531
  0
LINE
  8
_0-0_計極細
  6
CONTINUOUS
 62
    2
 10
707.5037583888959
 20
1204.7842587144933
 11
707.5037583888959
 21
1199.2842589344996
  0
LINE
  8
_0-0_計極細
  6
CONTINUOUS
 62
    2
 10
667.50375998890445
 20
1204.7842587144933
 11
667.50375998890445
 21
1199.2842589344996
  0
LINE
  8
_0-0_計極細
  6
CONTINUOUS
 62
    2
 10
703.45375867380335
 20
1204.7842583144825
 11
703.4537609849815
 21
1199.2842583144834
  0
LINE
  8
_0-0_計極細
  6
CONTINUOUS
 62
    2
 10
696.55375870400667
 20
1204.7842583144825
 11
696.55376098498164
 21
1199.2842583144834
  0
LINE
  8
_0-0_計極細
  6
CONTINUOUS
 62
    2
 10
707.5037583888959
 20
1220.2842587144933
 11
707.5037583888959
 21
1214.7842589344996
  0
LINE
  8
_0-0_計極細
  6
CONTINUOUS
 62
    2
 10
667.50375998890445
 20
1220.2842587144933
 11
667.50375998890445
 21
1214.7842589344996
  0
LINE
  8
_0-0_計極細
  6
CONTINUOUS
 62
    2
 10
703.45375867380335
 20
1220.2842583144825
 11
703.4537609849815
 21
1214.7842583144834
  0
LINE
  8
_0-0_計極細
  6
CONTINUOUS
 62
    2
 10
696.55375870400667
 20
1220.2842583144825
 11
696.55376098498164
 21
1214.7842583144834
  0
LINE
  8
_0-0_計極細
  6
CONTINUOUS
 62
    2
 10
707.5037583888959
 20
1235.7842587144928
 11
707.5037583888959
 21
1230.2842589344991
  0
LINE
  8
_0-0_計極細
  6
CONTINUOUS
 62
    2
 10
667.50375998890445
 20
1235.7842587144928
 11
667.50375998890445
 21
1230.2842589344991
  0
LINE
  8
_0-0_計極細
  6
CONTINUOUS
 62
    2
 10
703.45375867380335
 20
1235.7842583144825
 11
703.4537609849815
 21
1230.2842583144825
  0
LINE
  8
_0-0_計極細
  6
CONTINUOUS
 62
    2
 10
696.55375870400667
 20
1235.7842583144825
 11
696.55376098498164
 21
1230.2842583144825
  0
LINE
  8
_0-0_計極細
  6
CONTINUOUS
 62
    2
 10
707.5037583888959
 20
1158.2842587144946
 11
707.5037583888959
 21
1152.7842589345009
  0
LINE
  8
_0-0_計極細
  6
CONTINUOUS
 62
    2
 10
667.50375998890445
 20
1158.2842587144946
 11
667.50375998890445
 21
1152.7842589345009
  0
LINE
  8
_0-0_計極細
  6
CONTINUOUS
 62
    2
 10
703.45375867380335
 20
1158.2842583144843
 11
703.4537609849815
 21
1152.7842583144843
  0
LINE
  8
_0-0_計極細
  6
CONTINUOUS
 62
    2
 10
696.55375870400667
 20
1158.2842583144843
 11
696.55376098498164
 21
1152.7842583144843
  0
LINE
  8
_0-0_計極細
  6
CONTINUOUS
 62
    2
 10
707.5037583888959
 20
1142.7842587144951
 11
707.5037583888959
 21
1137.2842589345014
  0
LINE
  8
_0-0_計極細
  6
CONTINUOUS
 62
    2
 10
667.50375998890445
 20
1142.7842587144951
 11
667.50375998890445
 21
1137.2842589345014
  0
LINE
  8
_0-0_計極細
  6
CONTINUOUS
 62
    2
 10
703.45375867380335
 20
1142.7842583144843
 11
703.4537609849815
 21
1137.2842583144852
  0
LINE
  8
_0-0_計極細
  6
CONTINUOUS
 62
    2
 10
696.55375870400667
 20
1142.7842583144843
 11
696.55376098498164
 21
1137.2842583144852
  0
ARC
  8
_0-0_計極細
  6
CONTINUOUS
 62
    2
 10
1337.5817283864242
 20
1215.5342583143954
 40
54.312365187078854
 50
327.72737804884275
 51
33.846056193751458
  0
ARC
  8
_0-0_計極細
  6
CONTINUOUS
 62
    2
 10
1429.4257921514761
 20
1157.5342583145716
 40
54.312365187078854
 50
147.72737804884292
 51
213.84605619376094
  0
LINE
  8
_0-1_計細線
  6
CONTINUOUS
 62
    3
 10
660.50376026894605
 20
1245.7842583144825
 11
660.50376026894605
 21
1235.7842583144816
  0
LINE
  8
_0-1_計細線
  6
CONTINUOUS
 62
    3
 10
1382.690158997669
 20
1245.7842583144825
 11
660.50376026894605
 21
1245.7842583144825
  0
LINE
  8
_0-1_計細線
  6
CONTINUOUS
 62
    3
 10
660.50376026894605
 20
1235.7842583144816
 11
1387.977864272136
 21
1235.7842583144816
  0
LINE
  8
_0-1_計細線
  6
CONTINUOUS
 62
    3
 10
660.50376026894605
 20
1230.2842583144816
 11
660.50376026894605
 21
1220.2842583144816
  0
LINE
  8
_0-1_計細線
  6
CONTINUOUS
 62
    3
 10
1389.8528534193917
 20
1230.2842583144816
 11
660.50376026894605
 21
1230.2842583144816
  0
LINE
  8
_0-1_計細線
  6
CONTINUOUS
 62
    3
 10
660.50376026894605
 20
1220.2842583144816
 11
1391.6859843392956
 21
1220.2842583144816
  0
LINE
  8
_0-1_計細線
  6
CONTINUOUS
 62
    3
 10
660.50376026894605
 20
1214.7842583144816
 11
660.50376026894605
 21
1204.7842583144816
  0
LINE
  8
_0-1_計細線
  6
CONTINUOUS
 62
    3
 10
1391.8889149478248
 20
1214.7842583144816
 11
660.50376026894605
 21
1214.7842583144816
  0
LINE
  8
_0-1_計細線
  6
CONTINUOUS
 62
    3
 10
660.50376026894605
 20
1204.7842583144816
 11
1390.8195956635461
 21
1204.7842583144816
  0
LINE
  8
_0-1_計細線
  6
CONTINUOUS
 62
    3
 10
660.50376026894605
 20
1199.2842583144816
 11
660.50376026894605
 21
1189.2842583144816
  0
LINE
  8
_0-1_計細線
  6
CONTINUOUS
 62
    3
 10
1389.406148423868
 20
1199.2842583144816
 11
660.50376026894605
 21
1199.2842583144816
  0
LINE
  8
_0-1_計細線
  6
CONTINUOUS
 62
    3
 10
660.50376026894605
 20
1189.2842583144816
 11
1385.1292889150061
 21
1189.2842583144816
  0
LINE
  8
_0-1_計細線
  6
CONTINUOUS
 62
    3
 10
1381.8782316228924
 20
1183.7842583144816
 11
694.50375890890496
 21
1183.7842583144816
  0
LINE
  8
_0-1_計細線
  6
CONTINUOUS
 62
    3
 10
694.50375890890496
 20
1173.7842583144816
 11
1377.6013721140309
 21
1173.7842583144816
  0
LINE
  8
_0-1_計細線
  6
CONTINUOUS
 62
    3
 10
660.50376026894605
 20
1168.2842583144816
 11
660.50376026894605
 21
1158.2842583144807
  0
LINE
  8
_0-1_計細線
  6
CONTINUOUS
 62
    3
 10
1376.1879248743533
 20
1168.2842583144816
 11
660.50376026894605
 21
1168.2842583144816
  0
LINE
  8
_0-1_計細線
  6
CONTINUOUS
 62
    3
 10
660.50376026894605
 20
1158.2842583144807
 11
1375.118605590076
 21
1158.2842583144807
  0
LINE
  8
_0-1_計細線
  6
CONTINUOUS
 62
    3
 10
660.50376026894605
 20
1152.7842583144807
 11
660.50376026894605
 21
1142.7842583144807
  0
LINE
  8
_0-1_計細線
  6
CONTINUOUS
 62
    3
 10
1375.3215361986056
 20
1152.7842583144807
 11
660.50376026894605
 21
1152.7842583144807
  0
LINE
  8
_0-1_計細線
  6
CONTINUOUS
 62
    3
 10
660.50376026894605
 20
1142.7842583144807
 11
1377.1546671185104
 21
1142.7842583144807
  0
LINE
  8
_0-1_計細線
  6
CONTINUOUS
 62
    3
 10
660.50376026894605
 20
1137.2842583144807
 11
660.50376026894605
 21
1127.2842583144807
  0
LINE
  8
_0-1_計細線
  6
CONTINUOUS
 62
    3
 10
1379.0296562657666
 20
1137.2842583144807
 11
660.50376026894605
 21
1137.2842583144807
  0
LINE
  8
_0-1_計細線
  6
CONTINUOUS
 62
    3
 10
660.50376026894605
 20
1127.2842583144807
 11
1384.3173615402363
 21
1127.2842583144807
  0
LINE
  8
_0-0_計極細
  6
CONTINUOUS
 62
    2
 10
967.45375637772668
 20
1235.7842583144816
 11
967.45375868890505
 21
1230.2842583144825
  0
LINE
  8
_0-0_計極細
  6
CONTINUOUS
 62
    2
 10
960.55375640793022
 20
1235.7842583144816
 11
960.55375868890496
 21
1230.2842583144825
  0
LINE
  8
_0-0_計極細
  6
CONTINUOUS
 62
    2
 10
971.50375838889727
 20
1235.7842572744553
 11
971.50375838889727
 21
1230.2842574944611
  0
LINE
  8
_0-0_計極細
  6
CONTINUOUS
 62
    2
 10
956.50375898891275
 20
1235.7842572744553
 11
956.50375898891275
 21
1230.2842574944611
  0
LINE
  8
_0-0_計極細
  6
CONTINUOUS
 62
    2
 10
967.45375637772668
 20
1220.2842583144825
 11
967.45375868890505
 21
1214.7842583144825
  0
LINE
  8
_0-0_計極細
  6
CONTINUOUS
 62
    2
 10
960.55375640793022
 20
1220.2842583144825
 11
960.55375868890496
 21
1214.7842583144825
  0
LINE
  8
_0-0_計極細
  6
CONTINUOUS
 62
    2
 10
971.50375838889727
 20
1220.2842572744557
 11
971.50375838889727
 21
1214.7842574944621
  0
LINE
  8
_0-0_計極細
  6
CONTINUOUS
 62
    2
 10
956.50375898891275
 20
1220.2842572744557
 11
956.50375898891275
 21
1214.7842574944621
  0
LINE
  8
_0-0_計極細
  6
CONTINUOUS
 62
    2
 10
967.45375637772668
 20
1204.7842583144825
 11
967.45375868890505
 21
1199.2842583144825
  0
LINE
  8
_0-0_計極細
  6
CONTINUOUS
 62
    2
 10
960.55375640793022
 20
1204.7842583144825
 11
960.55375868890496
 21
1199.2842583144825
  0
LINE
  8
_0-0_計極細
  6
CONTINUOUS
 62
    2
 10
971.50375838889727
 20
1204.7842572744557
 11
971.50375838889727
 21
1199.2842574944621
  0
LINE
  8
_0-0_計極細
  6
CONTINUOUS
 62
    2
 10
956.50375898891275
 20
1204.7842572744557
 11
956.50375898891275
 21
1199.2842574944621
  0
LINE
  8
_0-0_計極細
  6
CONTINUOUS
 62
    2
 10
967.45375637772668
 20
1189.2842583144825
 11
967.45375868890505
 21
1183.7842583144834
  0
LINE
  8
_0-0_計極細
  6
CONTINUOUS
 62
    2
 10
960.55375640793022
 20
1189.2842583144825
 11
960.55375868890496
 21
1183.7842583144834
  0
LINE
  8
_0-0_計極細
  6
CONTINUOUS
 62
    2
 10
971.50375838889727
 20
1189.2842572744562
 11
971.50375838889727
 21
1183.7842574944621
  0
LINE
  8
_0-0_計極細
  6
CONTINUOUS
 62
    2
 10
956.50375898891275
 20
1189.2842572744562
 11
956.50375898891275
 21
1183.7842574944621
  0
LINE
  8
_0-0_計極細
  6
CONTINUOUS
 62
    2
 10
967.45375637772668
 20
1173.7842583144834
 11
967.45375868890505
 21
1168.2842583144834
  0
LINE
  8
_0-0_計極細
  6
CONTINUOUS
 62
    2
 10
960.55375640793022
 20
1173.7842583144834
 11
960.55375868890496
 21
1168.2842583144834
  0
LINE
  8
_0-0_計極細
  6
CONTINUOUS
 62
    2
 10
971.50375838889727
 20
1173.7842572744566
 11
971.50375838889727
 21
1168.284257494463
  0
LINE
  8
_0-0_計極細
  6
CONTINUOUS
 62
    2
 10
956.50375898891275
 20
1173.7842572744566
 11
956.50375898891275
 21
1168.284257494463
  0
LINE
  8
_0-0_計極細
  6
CONTINUOUS
 62
    2
 10
967.45375637772668
 20
1158.2842583144834
 11
967.45375868890505
 21
1152.7842583144843
  0
LINE
  8
_0-0_計極細
  6
CONTINUOUS
 62
    2
 10
960.55375640793022
 20
1158.2842583144834
 11
960.55375868890496
 21
1152.7842583144843
  0
LINE
  8
_0-0_計極細
  6
CONTINUOUS
 62
    2
 10
971.50375838889727
 20
1158.2842572744571
 11
971.50375838889727
 21
1152.784257494463
  0
LINE
  8
_0-0_計極細
  6
CONTINUOUS
 62
    2
 10
956.50375898891275
 20
1158.2842572744571
 11
956.50375898891275
 21
1152.784257494463
  0
LINE
  8
_0-0_計極細
  6
CONTINUOUS
 62
    2
 10
967.45375637772668
 20
1142.7842583144843
 11
967.45375868890505
 21
1137.2842583144843
  0
LINE
  8
_0-0_計極細
  6
CONTINUOUS
 62
    2
 10
960.55375640793022
 20
1142.7842583144843
 11
960.55375868890496
 21
1137.2842583144843
  0
LINE
  8
_0-0_計極細
  6
CONTINUOUS
 62
    2
 10
971.50375838889727
 20
1142.7842572744576
 11
971.50375838889727
 21
1137.2842574944639
  0
LINE
  8
_0-0_計極細
  6
CONTINUOUS
 62
    2
 10
956.50375898891275
 20
1142.7842572744576
 11
956.50375898891275
 21
1137.2842574944639
  0
LINE
  8
_0-0_計極細
  6
CONTINUOUS
 62
    2
 10
1231.4537586738033
 20
1235.7842583144816
 11
1231.4537609849817
 21
1230.2842583144825
  0
LINE
  8
_0-0_計極細
  6
CONTINUOUS
 62
    2
 10
1224.5537587040067
 20
1235.7842583144816
 11
1224.5537609849816
 21
1230.2842583144825
  0
LINE
  8
_0-0_計極細
  6
CONTINUOUS
 62
    2
 10
1235.5037606849737
 20
1235.7842572744553
 11
1235.5037606849737
 21
1230.2842574944611
  0
LINE
  8
_0-0_計極細
  6
CONTINUOUS
 62
    2
 10
1220.5037612849892
 20
1235.7842572744553
 11
1220.5037612849892
 21
1230.2842574944611
  0
LINE
  8
_0-0_計極細
  6
CONTINUOUS
 62
    2
 10
1231.4537586738033
 20
1220.2842583144825
 11
1231.4537609849817
 21
1214.7842583144825
  0
LINE
  8
_0-0_計極細
  6
CONTINUOUS
 62
    2
 10
1224.5537587040067
 20
1220.2842583144825
 11
1224.5537609849816
 21
1214.7842583144825
  0
LINE
  8
_0-0_計極細
  6
CONTINUOUS
 62
    2
 10
1235.5037606849737
 20
1220.2842572744557
 11
1235.5037606849737
 21
1214.7842574944621
  0
LINE
  8
_0-0_計極細
  6
CONTINUOUS
 62
    2
 10
1220.5037612849892
 20
1220.2842572744557
 11
1220.5037612849892
 21
1214.7842574944621
  0
LINE
  8
_0-0_計極細
  6
CONTINUOUS
 62
    2
 10
1231.4537586738033
 20
1204.7842583144825
 11
1231.4537609849817
 21
1199.2842583144825
  0
LINE
  8
_0-0_計極細
  6
CONTINUOUS
 62
    2
 10
1224.5537587040067
 20
1204.7842583144825
 11
1224.5537609849816
 21
1199.2842583144825
  0
LINE
  8
_0-0_計極細
  6
CONTINUOUS
 62
    2
 10
1235.5037606849737
 20
1204.7842572744557
 11
1235.5037606849737
 21
1199.2842574944621
  0
LINE
  8
_0-0_計極細
  6
CONTINUOUS
 62
    2
 10
1220.5037612849892
 20
1204.7842572744557
 11
1220.5037612849892
 21
1199.2842574944621
  0
LINE
  8
_0-0_計極細
  6
CONTINUOUS
 62
    2
 10
1231.4537586738033
 20
1189.2842583144825
 11
1231.4537609849817
 21
1183.7842583144834
  0
LINE
  8
_0-0_計極細
  6
CONTINUOUS
 62
    2
 10
1224.5537587040067
 20
1189.2842583144825
 11
1224.5537609849816
 21
1183.7842583144834
  0
LINE
  8
_0-0_計極細
  6
CONTINUOUS
 62
    2
 10
1235.5037606849737
 20
1189.2842572744562
 11
1235.5037606849737
 21
1183.7842574944621
  0
LINE
  8
_0-0_計極細
  6
CONTINUOUS
 62
    2
 10
1220.5037612849892
 20
1189.2842572744562
 11
1220.5037612849892
 21
1183.7842574944621
  0
LINE
  8
_0-0_計極細
  6
CONTINUOUS
 62
    2
 10
1231.4537586738033
 20
1173.7842583144834
 11
1231.4537609849817
 21
1168.2842583144834
  0
LINE
  8
_0-0_計極細
  6
CONTINUOUS
 62
    2
 10
1224.5537587040067
 20
1173.7842583144834
 11
1224.5537609849816
 21
1168.2842583144834
  0
LINE
  8
_0-0_計極細
  6
CONTINUOUS
 62
    2
 10
1235.5037606849737
 20
1173.7842572744566
 11
1235.5037606849737
 21
1168.284257494463
  0
LINE
  8
_0-0_計極細
  6
CONTINUOUS
 62
    2
 10
1220.5037612849892
 20
1173.7842572744566
 11
1220.5037612849892
 21
1168.284257494463
  0
LINE
  8
_0-0_計極細
  6
CONTINUOUS
 62
    2
 10
1231.4537586738033
 20
1158.2842583144834
 11
1231.4537609849817
 21
1152.7842583144843
  0
LINE
  8
_0-0_計極細
  6
CONTINUOUS
 62
    2
 10
1224.5537587040067
 20
1158.2842583144834
 11
1224.5537609849816
 21
1152.7842583144843
  0
LINE
  8
_0-0_計極細
  6
CONTINUOUS
 62
    2
 10
1235.5037606849737
 20
1158.2842572744571
 11
1235.5037606849737
 21
1152.784257494463
  0
LINE
  8
_0-0_計極細
  6
CONTINUOUS
 62
    2
 10
1220.5037612849892
 20
1158.2842572744571
 11
1220.5037612849892
 21
1152.784257494463
  0
LINE
  8
_0-0_計極細
  6
CONTINUOUS
 62
    2
 10
1231.4537586738033
 20
1142.7842583144843
 11
1231.4537609849817
 21
1137.2842583144843
  0
LINE
  8
_0-0_計極細
  6
CONTINUOUS
 62
    2
 10
1224.5537587040067
 20
1142.7842583144843
 11
1224.5537609849816
 21
1137.2842583144843
  0
LINE
  8
_0-0_計極細
  6
CONTINUOUS
 62
    2
 10
1235.5037606849737
 20
1142.7842572744576
 11
1235.5037606849737
 21
1137.2842574944639
  0
LINE
  8
_0-0_計極細
  6
CONTINUOUS
 62
    2
 10
1220.5037612849892
 20
1142.7842572744576
 11
1220.5037612849892
 21
1137.2842574944639
  0
TEXT
  8
_0-5_寸法線
 62
    7
 10
588.14521663219227
 20
1156.2593672979838
 40
24
 41
1
 50
0
  1
Ａ部
  0
LINE
  8
_0-1_計細線
  6
CONTINUOUS
 62
    3
 10
1464.0037602689461
 20
866.63425831448023
 11
1531.5037602689461
 21
866.63425831448023
  0
LINE
  8
_0-1_計細線
  6
CONTINUOUS
 62
    3
 10
1464.0037602689461
 20
872.63425831448114
 11
1531.5037602689461
 21
872.63425831448114
  0
LINE
  8
_0-1_計細線
  6
CONTINUOUS
 62
    3
 10
1464.0037602689461
 20
855.53425831448112
 11
1531.5037602689461
 21
855.53425831448112
  0
LINE
  8
_0-1_計細線
  6
CONTINUOUS
 62
    3
 10
1531.5037602689461
 20
872.63425831448114
 11
1531.5037602689461
 21
855.53425831448112
  0
LINE
  8
_0-a_極細1
  6
CONTINUOUS
 62
    7
 10
271.8435525885975
 20
927.72801128046967
 11
291.04355066859853
 21
927.72801128046967
  0
LINE
  8
_0-a_極細1
  6
CONTINUOUS
 62
    7
 10
271.8435525885975
 20
928.79467784046983
 11
291.04355066859853
 21
928.79467784046983
  0
LINE
  8
_0-a_極細1
  6
CONTINUOUS
 62
    7
 10
271.67167669587025
 20
929.86134440046953
 11
291.04355066859853
 21
929.86134440046953
  0
LINE
  8
_0-a_極細1
  6
CONTINUOUS
 62
    7
 10
270.60501013587009
 20
930.92801096046969
 11
291.04355066859853
 21
930.92801096046969
  0
LINE
  8
_0-a_極細1
  6
CONTINUOUS
 62
    7
 10
269.53834357586993
 20
931.99467752046962
 11
291.04355066859853
 21
931.99467752046962
  0
LINE
  8
_0-a_極細1
  6
CONTINUOUS
 62
    7
 10
269.88209536132445
 20
933.06134408046978
 11
291.04355066859853
 21
933.06134408046978
  0
LINE
  8
_0-a_極細1
  6
CONTINUOUS
 62
    7
 10
270.9487619213246
 20
934.12801064046994
 11
291.04355066859853
 21
934.12801064046994
  0
LINE
  8
_0-a_極細1
  6
CONTINUOUS
 62
    7
 10
271.8435525885975
 20
935.19467720046987
 11
291.04355066859853
 21
935.19467720046987
  0
LINE
  8
_0-a_極細1
  6
CONTINUOUS
 62
    7
 10
271.8435525885975
 20
936.26134376047003
 11
291.04355066859853
 21
936.26134376047003
  0
LINE
  8
_0-a_極細1
  6
CONTINUOUS
 62
    7
 10
271.8435525885975
 20
937.32801032047018
 11
291.04355066859853
 21
937.32801032047018
  0
LINE
  8
_0-a_極細1
  6
CONTINUOUS
 62
    7
 10
271.8435525885975
 20
938.39467688046989
 11
291.04355066859853
 21
938.39467688046989
  0
LINE
  8
_0-a_極細1
  6
CONTINUOUS
 62
    7
 10
271.8435525885975
 20
939.46134344047005
 11
291.04355066859853
 21
939.46134344047005
  0
LINE
  8
_0-a_極細1
  6
CONTINUOUS
 62
    7
 10
271.8435525885975
 20
940.5280100004702
 11
291.04355066859853
 21
940.5280100004702
  0
LINE
  8
_0-a_極細1
  6
CONTINUOUS
 62
    7
 10
271.8435525885975
 20
941.59467656046991
 11
291.04355066859853
 21
941.59467656046991
  0
LINE
  8
_0-a_極細1
  6
CONTINUOUS
 62
    7
 10
271.13834341586926
 20
942.66134312047006
 11
291.41966222738665
 21
942.66134312047006
  0
LINE
  8
_0-a_極細1
  6
CONTINUOUS
 62
    7
 10
270.0716768558691
 20
943.72800968047022
 11
291.98855105938628
 21
943.72800968047022
  0
LINE
  8
_0-a_極細1
  6
CONTINUOUS
 62
    7
 10
269.34876208132528
 20
944.79467624047038
 11
292.55743989138637
 21
944.79467624047038
  0
LINE
  8
_0-a_極細1
  6
CONTINUOUS
 62
    7
 10
270.41542864132543
 20
945.86134280047008
 11
293.12632872338645
 21
945.86134280047008
  0
LINE
  8
_0-a_極細1
  6
CONTINUOUS
 62
    7
 10
271.48209520132514
 20
946.9280093604707
 11
293.69521755538653
 21
946.9280093604707
  0
LINE
  8
_0-a_極細1
  6
CONTINUOUS
 62
    7
 10
271.8435525885975
 20
947.99467592047017
 11
294.26410638738662
 21
947.99467592047017
  0
LINE
  8
_0-a_極細1
  6
CONTINUOUS
 62
    7
 10
271.8435525885975
 20
949.06134248047033
 11
294.83299521938579
 21
949.06134248047033
  0
LINE
  8
_0-a_極細1
  6
CONTINUOUS
 62
    7
 10
325.75323887320656
 20
901.69990964894328
 11
325.75323887320656
 21
984.01961020187764
  0
LINE
  8
_0-a_極細1
  6
CONTINUOUS
 62
    7
 10
324.68657231320685
 20
900.63324308894335
 11
324.68657231320685
 21
983.78888194833235
  0
LINE
  8
_0-a_極細1
  6
CONTINUOUS
 62
    7
 10
323.61990575320715
 20
899.56657652894364
 11
323.61990575320715
 21
983.31907791927711
  0
LINE
  8
_0-a_極細1
  6
CONTINUOUS
 62
    7
 10
322.55323919320699
 20
898.49990996894348
 11
322.55323919320699
 21
982.52826051328566
  0
LINE
  8
_0-a_極細1
  6
CONTINUOUS
 62
    7
 10
321.48657263320683
 20
897.43324340894378
 11
321.48657263320683
 21
981.14681651358978
  0
LINE
  8
_0-a_極細1
  6
CONTINUOUS
 62
    7
 10
320.41990607320668
 20
896.36657684894362
 11
320.41990607320668
 21
976.98922978247811
  0
LINE
  8
_0-a_極細1
  6
CONTINUOUS
 62
    7
 10
319.35323951320652
 20
895.29991028894347
 11
319.35323951320652
 21
974.77984167708655
  0
LINE
  8
_0-a_極細1
  6
CONTINUOUS
 62
    7
 10
318.28657295320636
 20
894.45688536433454
 11
318.28657295320636
 21
973.45881706675914
  0
LINE
  8
_0-a_極細1
  6
CONTINUOUS
 62
    7
 10
317.2199063932062
 20
894.45688536433454
 11
317.2199063932062
 21
972.5242807926993
  0
LINE
  8
_0-a_極細1
  6
CONTINUOUS
 62
    7
 10
316.15323983320604
 20
894.45688536433454
 11
316.15323983320604
 21
971.83877220565546
  0
LINE
  8
_0-a_極細1
  6
CONTINUOUS
 62
    7
 10
315.08657327320589
 20
894.45688536433454
 11
315.08657327320589
 21
971.3414560261549
  0
LINE
  8
_0-a_極細1
  6
CONTINUOUS
 62
    7
 10
314.01990671320664
 20
894.45688536433454
 11
314.01990671320664
 21
971.00033119681484
  0
LINE
  8
_0-a_極細1
  6
CONTINUOUS
 62
    7
 10
312.95324015320648
 20
894.45688536433454
 11
312.95324015320648
 21
970.79760526144719
  0
LINE
  8
_0-a_極細1
  6
CONTINUOUS
 62
    7
 10
311.88657359320632
 20
894.45688536433454
 11
311.88657359320632
 21
970.72398942387235
  0
LINE
  8
_0-a_極細1
  6
CONTINUOUS
 62
    7
 10
310.81990703320616
 20
894.45688536433454
 11
310.81990703320616
 21
970.72354440433492
  0
LINE
  8
_0-a_極細1
  6
CONTINUOUS
 62
    7
 10
309.75324047320601
 20
894.45688536433454
 11
309.75324047320601
 21
970.72354440433492
  0
LINE
  8
_0-a_極細1
  6
CONTINUOUS
 62
    7
 10
308.6865739132063
 20
894.45688536433454
 11
308.6865739132063
 21
970.72354440433492
  0
LINE
  8
_0-a_極細1
  6
CONTINUOUS
 62
    7
 10
307.61990735320614
 20
894.45688536433454
 11
307.61990735320614
 21
970.72354440433492
  0
LINE
  8
_0-a_極細1
  6
CONTINUOUS
 62
    7
 10
306.55324079320599
 20
894.45688536433454
 11
306.55324079320599
 21
970.72354440433492
  0
LINE
  8
_0-a_極細1
  6
CONTINUOUS
 62
    7
 10
305.48657423320628
 20
894.45688536433454
 11
305.48657423320628
 21
970.72354440433492
  0
LINE
  8
_0-a_極細1
  6
CONTINUOUS
 62
    7
 10
304.41990767320613
 20
894.45688536433454
 11
304.41990767320613
 21
970.62919221911534
  0
LINE
  8
_0-a_極細1
  6
CONTINUOUS
 62
    7
 10
303.35324111320597
 20
894.45688536433454
 11
303.35324111320597
 21
970.31879334249015
  0
LINE
  8
_0-a_極細1
  6
CONTINUOUS
 62
    7
 10
302.28657455320581
 20
894.45688536433454
 11
302.28657455320581
 21
969.74885626487821
  0
LINE
  8
_0-a_極細1
  6
CONTINUOUS
 62
    7
 10
301.21990799320656
 20
894.45688536433454
 11
301.21990799320656
 21
968.80061559769183
  0
LINE
  8
_0-a_極細1
  6
CONTINUOUS
 62
    7
 10
300.15324143320549
 20
894.45688536433454
 11
300.15324143320549
 21
966.96001907469417
  0
LINE
  8
_0-a_極細1
  6
CONTINUOUS
 62
    7
 10
299.08657487320625
 20
894.45688536433454
 11
299.08657487320625
 21
905.1235509643343
  0
LINE
  8
_0-a_極細1
  6
CONTINUOUS
 62
    7
 10
298.01990831320609
 20
894.45688536433454
 11
298.01990831320609
 21
905.1235509643343
  0
LINE
  8
_0-a_極細1
  6
CONTINUOUS
 62
    7
 10
296.95324175320593
 20
894.45688536433454
 11
296.95324175320593
 21
905.1235509643343
  0
LINE
  8
_0-a_極細1
  6
CONTINUOUS
 62
    7
 10
295.88657519320577
 20
894.45688536433454
 11
295.88657519320577
 21
905.1235509643343
  0
LINE
  8
_0-a_極細1
  6
CONTINUOUS
 62
    7
 10
294.81990863320607
 20
894.45688536433454
 11
294.81990863320607
 21
905.1235509643343
  0
LINE
  8
_0-a_極細1
  6
CONTINUOUS
 62
    7
 10
293.75324207320546
 20
894.45688536433454
 11
293.75324207320546
 21
905.1235509643343
  0
LINE
  8
_0-a_極細1
  6
CONTINUOUS
 62
    7
 10
292.68657551320575
 20
894.45688536433454
 11
292.68657551320575
 21
905.1235509643343
  0
LINE
  8
_0-a_極細1
  6
CONTINUOUS
 62
    7
 10
291.61990895320605
 20
894.45688536433454
 11
291.61990895320605
 21
905.1235509643343
  0
LINE
  8
_0-a_極細1
  6
CONTINUOUS
 62
    7
 10
290.55324239320544
 20
894.45688536433454
 11
290.55324239320544
 21
905.1235509643343
  0
LINE
  8
_0-a_極細1
  6
CONTINUOUS
 62
    7
 10
289.48657583320573
 20
894.45688536433454
 11
289.48657583320573
 21
905.1235509643343
  0
LINE
  8
_0-a_極細1
  6
CONTINUOUS
 62
    7
 10
288.41990927320694
 20
883.79021976433387
 11
288.41990927320694
 21
915.79021656433451
  0
LINE
  8
_0-a_極細1
  6
CONTINUOUS
 62
    7
 10
287.35324271320678
 20
883.79021976433387
 11
287.35324271320678
 21
915.79021656433451
  0
LINE
  8
_0-a_極細1
  6
CONTINUOUS
 62
    7
 10
286.28657615320708
 20
883.79021976433387
 11
286.28657615320708
 21
887.48825301595798
  0
LINE
  8
_0-a_極細1
  6
CONTINUOUS
 62
    7
 10
286.28657615320708
 20
894.99437331058562
 11
286.28657615320708
 21
915.79021656433451
  0
LINE
  8
_0-a_極細1
  6
CONTINUOUS
 62
    7
 10
285.21990959320692
 20
883.79021976433387
 11
285.21990959320692
 21
884.57560278672736
  0
LINE
  8
_0-a_極細1
  6
CONTINUOUS
 62
    7
 10
285.21990959320692
 20
894.99437331058562
 11
285.21990959320692
 21
915.79021656433451
  0
LINE
  8
_0-a_極細1
  6
CONTINUOUS
 62
    7
 10
284.15324303320676
 20
894.99437331058562
 11
284.15324303320676
 21
915.79021656433451
  0
LINE
  8
_0-a_極細1
  6
CONTINUOUS
 62
    7
 10
283.08657647320661
 20
894.99437331058562
 11
283.08657647320661
 21
915.79021656433451
  0
LINE
  8
_0-a_極細1
  6
CONTINUOUS
 62
    7
 10
282.01990991320645
 20
894.99437331058562
 11
282.01990991320645
 21
915.79021656433451
  0
LINE
  8
_0-a_極細1
  6
CONTINUOUS
 62
    7
 10
280.95324335320629
 20
894.99437331058562
 11
280.95324335320629
 21
915.79021656433451
  0
LINE
  8
_0-a_極細1
  6
CONTINUOUS
 62
    7
 10
279.88657679320704
 20
894.99437331058562
 11
279.88657679320704
 21
915.79021656433451
  0
LINE
  8
_0-a_極細1
  6
CONTINUOUS
 62
    7
 10
278.81991023320688
 20
894.99437331058562
 11
278.81991023320688
 21
915.79021656433451
  0
LINE
  8
_0-a_極細1
  6
CONTINUOUS
 62
    7
 10
277.75324367320673
 20
894.99437331058562
 11
277.75324367320673
 21
915.79021656433451
  0
LINE
  8
_0-a_極細1
  6
CONTINUOUS
 62
    7
 10
276.68657711320657
 20
894.99437331058562
 11
276.68657711320657
 21
915.79021656433451
  0
LINE
  8
_0-a_極細1
  6
CONTINUOUS
 62
    7
 10
275.61991055320641
 20
894.99437331058562
 11
275.61991055320641
 21
915.79021656433451
  0
LINE
  8
_0-a_極細1
  6
CONTINUOUS
 62
    7
 10
274.55324399320625
 20
894.99437331058562
 11
274.55324399320625
 21
915.79021656433451
  0
LINE
  8
_0-a_極細1
  6
CONTINUOUS
 62
    7
 10
259.84355378859755
 20
878.99437491058598
 11
259.84355378859755
 21
894.45688536433454
  0
ARC
  8
_0-a_極細1
  6
CONTINUOUS
 62
    7
 10
243.84355538859791
 20
894.99437331058562
 40
15.999998399999999
 50
358.07490068720563
 51
50.029499419965092
  0
LINE
  8
_0-a_極細1
  6
CONTINUOUS
 62
    7
 10
326.39821379979776
 20
976.79467304046966
 11
333.10700295456809
 21
976.79467304046966
  0
LINE
  8
_0-a_極細1
  6
CONTINUOUS
 62
    7
 10
326.39821379979776
 20
977.86133960046982
 11
342.335002031768
 21
977.86133960046982
  0
LINE
  8
_0-a_極細1
  6
CONTINUOUS
 62
    7
 10
326.39821379979776
 20
978.92800616046952
 11
351.56300110896746
 21
978.92800616046952
  0
LINE
  8
_0-a_極細1
  6
CONTINUOUS
 62
    7
 10
326.39821379979776
 20
979.99467272046968
 11
360.79100018616782
 21
979.99467272046968
  0
LINE
  8
_0-a_極細1
  6
CONTINUOUS
 62
    7
 10
326.39821379979776
 20
981.06133928046961
 11
363.3102101085974
 21
981.06133928046961
  0
LINE
  8
_0-a_極細1
  6
CONTINUOUS
 62
    7
 10
326.39821379979776
 20
982.12800584046977
 11
363.3102101085974
 21
982.12800584046977
  0
LINE
  8
_0-a_極細1
  6
CONTINUOUS
 62
    7
 10
326.39821379979776
 20
983.19467240046993
 11
363.3102101085974
 21
983.19467240046993
  0
LINE
  8
_0-a_極細1
  6
CONTINUOUS
 62
    7
 10
328.09827875240308
 20
984.26133896046986
 11
363.3102101085974
 21
984.26133896046986
  0
LINE
  8
_0-a_極細1
  6
CONTINUOUS
 62
    7
 10
335.58734063160364
 20
985.32800552047001
 11
363.3102101085974
 21
985.32800552047001
  0
LINE
  8
_0-a_極細1
  6
CONTINUOUS
 62
    7
 10
343.07640251080329
 20
986.39467208047017
 11
363.3102101085974
 21
986.39467208047017
  0
LINE
  8
_0-a_極細1
  6
CONTINUOUS
 62
    7
 10
350.5654643900034
 20
987.46133864047033
 11
363.3102101085974
 21
987.46133864047033
  0
LINE
  8
_0-a_極細1
  6
CONTINUOUS
 62
    7
 10
358.05452626920305
 20
988.52800520047003
 11
363.3102101085974
 21
988.52800520047003
  0
LINE
  8
_0-a_極細1
  6
CONTINUOUS
 62
    7
 10
363.3102101085974
 20
989.35253454143549
 11
363.3102101085974
 21
993.04757958350547
  0
LINE
  8
_0-a_極細1
  6
CONTINUOUS
 62
    7
 10
326.39821379979776
 20
987.79020936433471
 11
363.3102101085974
 21
993.04757958350547
  0
LINE
  8
_0-a_極細1
  6
CONTINUOUS
 62
    7
 10
291.84355058859728
 20
950.99436771058618
 11
291.84355058859728
 21
955.79021256433452
  0
LINE
  8
_0-a_極細1
  6
CONTINUOUS
 62
    7
 10
291.84355058859728
 20
918.46103763058545
 11
291.84355058859728
 21
926.46103683058527
  0
LINE
  8
_0-a_極細1
  6
CONTINUOUS
 62
    7
 10
271.8435525885975
 20
941.95613394774227
 11
271.8435525885975
 21
935.02280130774261
  0
LINE
  8
_0-a_極細1
  6
CONTINUOUS
 62
    7
 10
271.8435525885975
 20
929.68946850774205
 11
271.8435525885975
 21
927.02280210774279
  0
LINE
  8
_0-a_極細1
  6
CONTINUOUS
 62
    7
 10
291.04355066859853
 20
941.95613394774227
 11
291.04355066859853
 21
927.02280210774279
  0
LINE
  8
_0-a_極細1
  6
CONTINUOUS
 62
    7
 10
269.17688618859756
 20
944.62280034774244
 11
271.8435525885975
 21
947.28946674774261
  0
LINE
  8
_0-a_極細1
  6
CONTINUOUS
 62
    7
 10
271.8435525885975
 20
941.95613394774227
 11
269.17688618859756
 21
944.62280034774244
  0
LINE
  8
_0-a_極細1
  6
CONTINUOUS
 62
    7
 10
271.8435525885975
 20
929.68946850774205
 11
269.17688618859756
 21
932.35613490774244
  0
LINE
  8
_0-a_極細1
  6
CONTINUOUS
 62
    7
 10
269.17688618859756
 20
932.35613490774244
 11
271.8435525885975
 21
935.02280130774261
  0
LINE
  8
_0-a_極細1
  6
CONTINUOUS
 62
    7
 10
291.04355066859853
 20
941.95613394774227
 11
295.31021690859779
 21
949.95613314774209
  0
LINE
  8
_0-a_極細1
  6
CONTINUOUS
 62
    7
 10
271.8435525885975
 20
949.95613314774209
 11
271.8435525885975
 21
947.28946674774261
  0
ARC
  8
_0-a_極細1
  6
CONTINUOUS
 62
    7
 10
304.91021594859785
 20
982.45687656433483
 40
2.6666664000000004
 50
24.054548999993202
 51
89.999999999999929
  0
ARC
  8
_0-a_極細1
  6
CONTINUOUS
 62
    7
 10
306.51021578859809
 20
975.52354392433472
 40
1.0666665599999394
 50
269.99999999999977
 51
359.99999999999966
  0
ARC
  8
_0-a_極細1
  6
CONTINUOUS
 62
    7
 10
304.91021594859785
 20
982.45687656433483
 40
2.6666664000000004
 50
0
 51
24.054548999993202
  0
LINE
  8
_0-a_極細1
  6
CONTINUOUS
 62
    7
 10
296.11021682859746
 20
958.45687896433424
 11
296.11021682859928
 21
974.45687736433456
  0
LINE
  8
_0-a_極細1
  6
CONTINUOUS
 62
    7
 10
296.11021682859928
 20
974.45687736433456
 11
306.51021578859809
 21
974.45687736433456
  0
LINE
  8
_0-a_極細1
  6
CONTINUOUS
 62
    7
 10
307.57688234859779
 20
975.52354392433472
 11
307.57688234859779
 21
982.45687656433483
  0
LINE
  8
_0-a_極細1
  6
CONTINUOUS
 62
    7
 10
289.17688418859734
 20
894.45688536433454
 11
318.51021458859714
 21
894.45688536433454
  0
LINE
  8
_0-a_極細1
  6
CONTINUOUS
 62
    7
 10
284.74923663136224
 20
883.79021976433387
 11
289.17688418859734
 21
883.79021976433387
  0
LINE
  8
_0-a_極細1
  6
CONTINUOUS
 62
    7
 10
289.17688418859734
 20
908.85688392433485
 11
296.11021682859746
 21
908.85688392433485
  0
LINE
  8
_0-a_極細1
  6
CONTINUOUS
 62
    7
 10
289.17688418859734
 20
905.1235509643343
 11
299.8435497885971
 21
905.1235509643343
  0
LINE
  8
_0-a_極細1
  6
CONTINUOUS
 62
    7
 10
289.17688418859734
 20
883.79021976433387
 11
289.17688418859734
 21
915.79021656433451
  0
LINE
  8
_0-a_極細1
  6
CONTINUOUS
 62
    7
 10
326.39821379979776
 20
902.34488457553425
 11
318.51021458859714
 21
894.45688536433454
  0
LINE
  8
_0-a_極細1
  6
CONTINUOUS
 62
    7
 10
299.8435497885971
 20
905.1235509643343
 11
299.84354978859801
 21
965.12354496433409
  0
ARC
  8
_0-a_極細1
  6
CONTINUOUS
 62
    7
 10
305.44354922859748
 20
965.12354496433409
 40
5.5999994400000617
 50
89.999999999999915
 51
179.99999999999983
  0
LINE
  8
_0-a_極細1
  6
CONTINUOUS
 62
    7
 10
311.79674325994574
 20
970.72354440433492
 11
305.44354922859748
 21
970.72354440433492
  0
ARC
  8
_0-a_極細1
  6
CONTINUOUS
 62
    7
 10
311.79674325994574
 20
979.79021016433444
 40
9.066665759999939
 50
269.99999999999977
 51
356.64911199999887
  0
ARC
  8
_0-a_極細1
  6
CONTINUOUS
 62
    7
 10
311.79674325994574
 20
979.79021016433444
 40
5.3333328000000009
 50
269.99999999999977
 51
356.64911199999932
  0
ARC
  8
_0-a_極細1
  6
CONTINUOUS
 62
    7
 10
326.39821379979776
 20
978.45687696433424
 40
9.3333323999999998
 50
89.999999999999915
 51
175.84900999999778
  0
ARC
  8
_0-a_極細1
  6
CONTINUOUS
 62
    7
 10
305.44354922859748
 20
965.12354496433409
 40
9.3333323999999998
 50
89.999999999999915
 51
179.99999999999983
  0
LINE
  8
_0-a_極細1
  6
CONTINUOUS
 62
    7
 10
307.84354898859783
 20
974.45687736433456
 11
307.84354898859783
 21
987.79020936433471
  0
LINE
  8
_0-a_極細1
  6
CONTINUOUS
 62
    7
 10
296.11021682859746
 20
908.85688392433485
 11
296.11021682859746
 21
965.12354496433409
  0
LINE
  8
_0-a_極細1
  6
CONTINUOUS
 62
    7
 10
311.79674325994574
 20
974.45687736433456
 11
305.44354922859748
 21
974.45687736433456
  0
LINE
  8
_0-a_極細1
  6
CONTINUOUS
 62
    7
 10
274.5102189885979
 20
915.79021656433451
 11
296.11021682859746
 21
915.79021656433451
  0
LINE
  8
_0-a_極細1
  6
CONTINUOUS
 62
    7
 10
363.3102101085974
 20
980.28586878143551
 11
326.39821379979776
 21
976.01920254143533
  0
LINE
  8
_0-a_極細1
  6
CONTINUOUS
 62
    7
 10
326.39821379979594
 20
874.68587934143534
 11
318.51021458859714
 21
878.95254558143506
  0
LINE
  8
_0-a_極細1
  6
CONTINUOUS
 62
    7
 10
318.51021458859714
 20
878.95254558143506
 11
318.51021458859714
 21
894.45688536433454
  0
LINE
  8
_0-a_極細1
  6
CONTINUOUS
 62
    7
 10
363.3102101085974
 20
908.58049461864084
 11
363.3102101085974
 21
992.97161684619414
  0
LINE
  8
_0-a_極細1
  6
CONTINUOUS
 62
    7
 10
342.51021218859705
 20
905.61920958143537
 11
363.3102101085974
 21
905.61920958143537
  0
LINE
  8
_0-a_極細1
  6
CONTINUOUS
 62
    7
 10
363.3102101085974
 20
905.61920958143537
 11
363.3102101085974
 21
908.58049461864084
  0
LINE
  8
_0-a_極細1
  6
CONTINUOUS
 62
    7
 10
342.51021218859705
 20
862.95254718143497
 11
342.51021218859705
 21
905.61920958143537
  0
LINE
  8
_0-a_極細1
  6
CONTINUOUS
 62
    7
 10
326.39821379979776
 20
984.01919882809761
 11
363.3102101085974
 21
989.27657188236458
  0
LINE
  8
_0-a_極細1
  6
CONTINUOUS
 62
    7
 10
326.39821379979776
 20
902.34488457553425
 11
326.39821379979776
 21
984.05687640433507
  0
ARC
  8
_0-a_極細1
  6
CONTINUOUS
 62
    7
 10
326.39821379979776
 20
978.45687696433424
 40
5.5999994400000617
 50
89.999999999999915
 51
175.84900999999743
  0
LINE
  8
_0-a_極細1
  6
CONTINUOUS
 62
    7
 10
275.84355218859719
 20
878.99437491058598
 11
259.84355378859755
 21
878.99437491058598
  0
ARC
  8
_0-a_極細1
  6
CONTINUOUS
 62
    7
 10
275.84355218859719
 20
889.66104051058619
 40
10.666665600000002
 50
269.99999999999977
 51
359.99999999999966
  0
LINE
  8
_0-a_極細1
  6
CONTINUOUS
 62
    7
 10
286.51021778859786
 20
889.66104051058619
 11
286.51021778859786
 21
894.99437331058562
  0
LINE
  8
_0-a_極細1
  6
CONTINUOUS
 62
    7
 10
286.51021778859786
 20
894.99437331058562
 11
274.5102189885979
 21
894.99437331058562
  0
LINE
  8
_0-a_極細1
  6
CONTINUOUS
 62
    7
 10
291.84355058859728
 20
918.46103763058545
 11
274.5102189885979
 21
918.46103763058545
  0
LINE
  8
_0-a_極細1
  6
CONTINUOUS
 62
    7
 10
274.5102189885979
 20
894.99437331058562
 11
274.5102189885979
 21
918.46103763058591
  0
LINE
  8
_0-a_極細1
  6
CONTINUOUS
 62
    7
 10
290.24355074859841
 20
955.79021256433452
 11
290.24355074859841
 21
961.1235453643344
  0
ARC
  8
_0-a_極細1
  6
CONTINUOUS
 62
    7
 10
293.44355042859752
 20
958.45687896433424
 40
2.6666664000000004
 50
269.99999999999977
 51
359.99999999999966
  0
CIRCLE
  8
_0-a_極細1
  6
CONTINUOUS
 62
    7
 10
297.31117594111538
 20
942.00962675202072
 40
99.281077021678641
  0
ARC
  8
_0-a_極細1
  6
CONTINUOUS
 62
    7
 10
355.84354418859721
 20
839.85853882416973
 40
26.666664000000004
 50
120.00000000000082
 51
161.13978923390184
  0
LINE
  8
_0-a_極細1
  6
CONTINUOUS
 62
    7
 10
315.8435481885972
 20
844.47356453160273
 11
315.8435481885972
 21
874.68587934143534
  0
LINE
  8
_0-a_極細1
  6
CONTINUOUS
 62
    7
 10
340.39944808730479
 20
861.59769392511453
 11
342.51021218859796
 21
863.70845802640679
  0
LINE
  8
_0-a_極細1
  6
CONTINUOUS
 62
    7
 10
315.84354818859765
 20
844.58426560481621
 11
342.51021218859796
 21
871.25092960481606
  0
LINE
  8
_0-a_極細1
  6
CONTINUOUS
 62
    7
 10
315.8435481885972
 20
848.35550139402085
 11
342.51021218859796
 21
875.02216539402116
  0
LINE
  8
_0-a_極細1
  6
CONTINUOUS
 62
    7
 10
315.8435481885972
 20
852.12673718322549
 11
342.51021218859796
 21
878.79340118322557
  0
LINE
  8
_0-a_極細1
  6
CONTINUOUS
 62
    7
 10
315.8435481885972
 20
855.89797297243013
 11
342.51021218859796
 21
882.56463697243043
  0
LINE
  8
_0-a_極細1
  6
CONTINUOUS
 62
    7
 10
315.8435481885972
 20
859.66920876163476
 11
342.51021218859796
 21
886.33587276163507
  0
LINE
  8
_0-a_極細1
  6
CONTINUOUS
 62
    7
 10
361.7935490083978
 20
905.61920958143537
 11
363.3102101085974
 21
907.13587068163497
  0
LINE
  8
_0-a_極細1
  6
CONTINUOUS
 62
    7
 10
315.8435481885972
 20
863.4404445508394
 11
342.51021218859796
 21
890.10710855083971
  0
LINE
  8
_0-a_極細1
  6
CONTINUOUS
 62
    7
 10
358.02231321919362
 20
905.61920958143537
 11
363.3102101085974
 21
910.90710647083961
  0
LINE
  8
_0-a_極細1
  6
CONTINUOUS
 62
    7
 10
315.8435481885972
 20
867.21168034004381
 11
323.31774718998849
 21
874.68587934143534
  0
LINE
  8
_0-a_極細1
  6
CONTINUOUS
 62
    7
 10
324.39908693893403
 20
875.76721909038088
 11
342.51021218859796
 21
893.87834434004412
  0
LINE
  8
_0-a_極細1
  6
CONTINUOUS
 62
    7
 10
354.25107742998853
 20
905.61920958143537
 11
363.3102101085974
 21
914.6783422600447
  0
LINE
  8
_0-a_極細1
  6
CONTINUOUS
 62
    7
 10
315.8435481885972
 20
870.98291612924868
 11
319.54651140078431
 21
874.68587934143557
  0
LINE
  8
_0-a_極細1
  6
CONTINUOUS
 62
    7
 10
321.95167240087585
 20
877.09104034152779
 11
342.51021218859796
 21
897.64958012924899
  0
LINE
  8
_0-a_極細1
  6
CONTINUOUS
 62
    7
 10
350.47984164078343
 20
905.61920958143492
 11
363.3102101085974
 21
918.44957804924934
  0
LINE
  8
_0-a_極細1
  6
CONTINUOUS
 62
    7
 10
319.50425786281858
 20
878.4148615926747
 11
342.51021218859796
 21
901.42081591845363
  0
LINE
  8
_0-a_極細1
  6
CONTINUOUS
 62
    7
 10
346.70860585157834
 20
905.61920958143492
 11
363.3102101085974
 21
922.22081383845352
  0
LINE
  8
_0-a_極細1
  6
CONTINUOUS
 62
    7
 10
318.51021458859759
 20
881.1920541076579
 11
342.51021218859796
 21
905.19205170765827
  0
LINE
  8
_0-a_極細1
  6
CONTINUOUS
 62
    7
 10
342.93737006237461
 20
905.61920958143492
 11
363.3102101085974
 21
925.99204962765816
  0
LINE
  8
_0-a_極細1
  6
CONTINUOUS
 62
    7
 10
318.51021458859759
 20
884.96328989686253
 11
363.3102101085974
 21
929.7632854168628
  0
LINE
  8
_0-a_極細1
  6
CONTINUOUS
 62
    7
 10
318.51021458859759
 20
888.73452568606717
 11
363.3102101085974
 21
933.53452120606789
  0
LINE
  8
_0-a_極細1
  6
CONTINUOUS
 62
    7
 10
318.51021458859759
 20
892.50576147527181
 11
363.3102101085974
 21
937.3057569952723
  0
LINE
  8
_0-a_極細1
  6
CONTINUOUS
 62
    7
 10
326.39821379979776
 20
904.16499647567753
 11
363.3102101085974
 21
941.07699278447717
  0
LINE
  8
_0-a_極細1
  6
CONTINUOUS
 62
    7
 10
326.39821379979776
 20
907.93623226488171
 11
363.3102101085974
 21
944.84822857368135
  0
LINE
  8
_0-a_極細1
  6
CONTINUOUS
 62
    7
 10
326.39821379979776
 20
911.70746805408635
 11
363.3102101085974
 21
948.61946436288599
  0
LINE
  8
_0-a_極細1
  6
CONTINUOUS
 62
    7
 10
326.39821379979776
 20
915.47870384329099
 11
363.3102101085974
 21
952.39070015209063
  0
LINE
  8
_0-a_極細1
  6
CONTINUOUS
 62
    7
 10
326.39821379979776
 20
919.24993963249608
 11
363.3102101085974
 21
956.16193594129527
  0
LINE
  8
_0-a_極細1
  6
CONTINUOUS
 62
    7
 10
326.39821379979776
 20
923.02117542170072
 11
363.3102101085974
 21
959.93317173049991
  0
LINE
  8
_0-a_極細1
  6
CONTINUOUS
 62
    7
 10
326.39821379979776
 20
926.7924112109049
 11
363.3102101085974
 21
963.704407519705
  0
LINE
  8
_0-a_極細1
  6
CONTINUOUS
 62
    7
 10
326.39821379979776
 20
930.56364700010977
 11
363.3102101085974
 21
967.47564330890941
  0
LINE
  8
_0-a_極細1
  6
CONTINUOUS
 62
    7
 10
326.39821379979776
 20
934.33488278931463
 11
363.3102101085974
 21
971.24687909811382
  0
LINE
  8
_0-a_極細1
  6
CONTINUOUS
 62
    7
 10
326.39821379979776
 20
938.10611857851927
 11
363.3102101085974
 21
975.01811488731846
  0
LINE
  8
_0-a_極細1
  6
CONTINUOUS
 62
    7
 10
326.39821379979776
 20
941.87735436772323
 11
363.3102101085974
 21
978.7893506765231
  0
LINE
  8
_0-a_極細1
  6
CONTINUOUS
 62
    7
 10
326.39821379979776
 20
945.64859015692809
 11
360.73819228585808
 21
979.98856864298841
  0
LINE
  8
_0-a_極細1
  6
CONTINUOUS
 62
    7
 10
326.39821379979776
 20
949.41982594613273
 11
356.47406503588581
 21
979.49567718221988
  0
LINE
  8
_0-a_極細1
  6
CONTINUOUS
 62
    7
 10
326.39821379979776
 20
953.19106173533737
 11
352.20993778591219
 21
979.00278572145135
  0
LINE
  8
_0-a_極細1
  6
CONTINUOUS
 62
    7
 10
326.39821379979776
 20
956.96229752454201
 11
347.94581053593947
 21
978.50989426068327
  0
LINE
  8
_0-a_極細1
  6
CONTINUOUS
 62
    7
 10
326.39821379979776
 20
960.73353331374665
 11
343.68168328596585
 21
978.01700279991474
  0
LINE
  8
_0-a_極細1
  6
CONTINUOUS
 62
    7
 10
326.39821379979776
 20
964.50476910295129
 11
339.41755603599267
 21
977.5241113391462
  0
LINE
  8
_0-a_極細1
  6
CONTINUOUS
 62
    7
 10
326.39821379979776
 20
968.27600489215592
 11
335.15342878601996
 21
977.03121987837744
  0
LINE
  8
_0-a_極細1
  6
CONTINUOUS
 62
    7
 10
326.39821379979776
 20
972.04724068136034
 11
330.88930153604679
 21
976.53832841760914
  0
LINE
  8
_0-a_極細1
  6
CONTINUOUS
 62
    7
 10
326.39821379979776
 20
975.8184764705652
 11
326.62517428607362
 21
976.0454369568406
  0
LINE
  8
_0-a_極細1
  6
CONTINUOUS
 62
    7
 10
320.50674165299415
 20
845.47622328000853
 11
342.51021218859796
 21
867.47969381561143
  0
LINE
  8
_0-a_極細1
  6
CONTINUOUS
 62
    7
 10
325.66530606282504
 20
846.86355190063432
 11
334.10438908765218
 21
855.30263492546192
  0
LINE
  8
_0-a_極細1
  6
CONTINUOUS
 62
    7
 10
224.34374972105297
 20
874.68587934143534
 11
326.39821379979594
 21
874.68587934143534
  0
LINE
  8
_0-a_極細1
  6
CONTINUOUS
 62
    7
 10
220.62651796554201
 20
878.95254558143506
 11
318.51021458859714
 21
878.95254558143506
  0
LINE
  8
_0-a_極細1
  6
CONTINUOUS
 62
    7
 10
210.1591877761839
 20
894.45688536433454
 11
259.84355378859755
 21
894.45688536433454
  0
LINE
  8
_0-a_極細1
  6
CONTINUOUS
 62
    7
 10
212.15332471554893
 20
993.04757958350547
 11
363.3102101085974
 21
993.04757958350547
  0
LINE
  8
_0-a_極細1
  6
CONTINUOUS
 62
    7
 10
209.21537291814684
 20
987.79020936433494
 11
326.39821379979776
 21
987.79020936433471
  0
LINE
  8
_0-a_極細1
  6
CONTINUOUS
 62
    7
 10
207.88007126593993
 20
985.12354296433455
 11
304.91021594859785
 21
985.12354296433432
  0
LINE
  8
_0-a_極細1
  6
CONTINUOUS
 62
    7
 10
199.88740897500793
 20
961.12354536433463
 11
290.24355074859841
 21
961.1235453643344
  0
LINE
  8
_0-a_極細1
  6
CONTINUOUS
 62
    7
 10
198.99114894125114
 20
955.79021256433452
 11
293.44355042859752
 21
955.79021256433452
  0
LINE
  8
_0-a_極細1
  6
CONTINUOUS
 62
    7
 10
291.84355058859728
 20
950.99436771058618
 11
198.43748538345471
 21
950.99436771058618
  0
LINE
  8
_0-a_極細1
  6
CONTINUOUS
 62
    7
 10
198.34863105322665
 20
949.95613314774255
 11
295.31021690859779
 21
949.95613314774209
  0
LINE
  8
_0-a_極細1
  6
CONTINUOUS
 62
    7
 10
198.0644955011976
 20
944.62280034774244
 11
269.17688618859756
 21
944.62280034774244
  0
LINE
  8
_0-a_極細1
  6
CONTINUOUS
 62
    7
 10
198.50053709186477
 20
932.35613490774244
 11
269.17688618859756
 21
932.35613490774244
  0
LINE
  8
_0-a_極細1
  6
CONTINUOUS
 62
    7
 10
199.16777401482113
 20
927.02280210774279
 11
291.04355066859853
 21
927.02280210774279
  0
LINE
  8
_0-a_極細1
  6
CONTINUOUS
 62
    7
 10
291.84355058859728
 20
926.46103683058527
 11
199.25520413908998
 21
926.46103683058527
  0
LINE
  8
_0-a_極細1
  6
CONTINUOUS
 62
    7
 10
274.5102189885979
 20
918.46103763058591
 11
200.86328221100666
 21
918.46103763058591
  0
LINE
  8
_0-d_寸法1
  6
CONTINUOUS
 62
    7
 10
352.67872413882787
 20
982.95798142921512
 11
359.20978903790433
 21
997.5643222195722
  0
LINE
  8
_0-d_寸法1
  6
CONTINUOUS
 62
    7
 10
352.67872413882787
 20
982.95798142921512
 11
365.63796265037149
 21
992.34191116045906
  0
LINE
  8
_0-d_寸法1
  6
CONTINUOUS
 62
    7
 10
352.67872413882787
 20
982.95798142921512
 11
385.41142455851741
 21
1023.2480847399202
  0
LINE
  8
_0-d_寸法1
  6
CONTINUOUS
 62
    7
 10
385.41142455851741
 20
1023.2480847399202
 11
455.8114245585175
 21
1023.2480847399202
  0
TEXT
  8
_0-d_寸法1
 62
    7
 10
385.41142455851741
 20
1023.2480847399202
 40
24
 41
0.7333333333333333
 50
0
  1
パッキン
  0
LINE
  8
_0-a_極細1
  6
CONTINUOUS
 62
    7
 10
244.68658031320729
 20
885.39021960433456
 11
244.68658031320729
 21
894.45688536433454
  0
LINE
  8
_0-a_極細1
  6
CONTINUOUS
 62
    7
 10
243.61991375320713
 20
885.39021960433456
 11
243.61991375320713
 21
894.45688536433454
  0
LINE
  8
_0-a_極細1
  6
CONTINUOUS
 62
    7
 10
242.55324719320697
 20
885.39021960433456
 11
242.55324719320697
 21
894.45688536433454
  0
LINE
  8
_0-a_極細1
  6
CONTINUOUS
 62
    7
 10
241.48658063320681
 20
885.39021960433456
 11
241.48658063320681
 21
894.45688536433454
  0
LINE
  8
_0-a_極細1
  6
CONTINUOUS
 62
    7
 10
240.41991407320666
 20
885.39021960433456
 11
240.41991407320666
 21
894.45688536433454
  0
LINE
  8
_0-a_極細1
  6
CONTINUOUS
 62
    7
 10
239.3532475132065
 20
885.39021960433456
 11
239.3532475132065
 21
894.45688536433454
  0
LINE
  8
_0-a_極細1
  6
CONTINUOUS
 62
    7
 10
238.28658095320679
 20
885.39021960433456
 11
238.28658095320679
 21
894.45688536433454
  0
LINE
  8
_0-a_極細1
  6
CONTINUOUS
 62
    7
 10
237.21991439320709
 20
885.39021960433456
 11
237.21991439320709
 21
894.45688536433454
  0
LINE
  8
_0-a_極細1
  6
CONTINUOUS
 62
    7
 10
236.15324783320693
 20
885.39021960433456
 11
236.15324783320693
 21
894.45688536433454
  0
LINE
  8
_0-a_極細1
  6
CONTINUOUS
 62
    7
 10
235.08658127320678
 20
885.39021960433456
 11
235.08658127320678
 21
894.45688536433454
  0
LINE
  8
_0-a_極細1
  6
CONTINUOUS
 62
    7
 10
234.01991471320662
 20
885.39021960433456
 11
234.01991471320662
 21
894.45688536433454
  0
LINE
  8
_0-a_極細1
  6
CONTINUOUS
 62
    7
 10
232.95324815320646
 20
885.39021960433456
 11
232.95324815320646
 21
894.45688536433454
  0
LINE
  8
_0-a_極細1
  6
CONTINUOUS
 62
    7
 10
231.8865815932063
 20
885.39021960433456
 11
231.8865815932063
 21
894.45688536433454
  0
LINE
  8
_0-a_極細1
  6
CONTINUOUS
 62
    7
 10
230.81991503320614
 20
885.39021960433456
 11
230.81991503320614
 21
894.45688536433454
  0
LINE
  8
_0-a_極細1
  6
CONTINUOUS
 62
    7
 10
229.75324847320599
 20
885.39021960433456
 11
229.75324847320599
 21
894.45688536433454
  0
LINE
  8
_0-a_極細1
  6
CONTINUOUS
 62
    7
 10
228.68658191320674
 20
885.39021960433456
 11
228.68658191320674
 21
894.45688536433454
  0
LINE
  8
_0-a_極細1
  6
CONTINUOUS
 62
    7
 10
227.61991535320658
 20
885.39021960433456
 11
227.61991535320658
 21
894.45688536433454
  0
LINE
  8
_0-a_極細1
  6
CONTINUOUS
 62
    7
 10
226.55324879320642
 20
885.39021960433456
 11
226.55324879320642
 21
894.45688536433454
  0
LINE
  8
_0-a_極細1
  6
CONTINUOUS
 62
    7
 10
225.48658223320626
 20
885.39021960433456
 11
225.48658223320626
 21
894.45688536433454
  0
LINE
  8
_0-a_極細1
  6
CONTINUOUS
 62
    7
 10
224.41991567320611
 20
885.39021960433456
 11
224.41991567320611
 21
894.45688536433454
  0
LINE
  8
_0-a_極細1
  6
CONTINUOUS
 62
    7
 10
223.35324911320595
 20
885.39021960433456
 11
223.35324911320595
 21
894.45688536433454
  0
LINE
  8
_0-a_極細1
  6
CONTINUOUS
 62
    7
 10
222.28658255320624
 20
885.39021960433456
 11
222.28658255320624
 21
894.45688536433454
  0
LINE
  8
_0-a_極細1
  6
CONTINUOUS
 62
    7
 10
221.21991599320654
 20
885.39021960433456
 11
221.21991599320654
 21
894.45688536433454
  0
LINE
  8
_0-a_極細1
  6
CONTINUOUS
 62
    7
 10
220.15324943320593
 20
885.39021960433456
 11
220.15324943320593
 21
894.45688536433454
  0
LINE
  8
_0-a_極細1
  6
CONTINUOUS
 62
    7
 10
219.08658287320623
 20
885.39021960433456
 11
219.08658287320623
 21
894.45688536433454
  0
LINE
  8
_0-a_極細1
  6
CONTINUOUS
 62
    7
 10
245.37055790256409
 20
885.39021960433456
 11
245.37055790256409
 21
894.45688536433454
  0
LINE
  8
_0-a_極細1
  6
CONTINUOUS
 62
    7
 10
218.70389390256378
 20
885.39021960433456
 11
218.70389390256378
 21
894.45688536433454
  0
LINE
  8
_0-a_極細1
  6
CONTINUOUS
 62
    7
 10
218.70389390256378
 20
885.39021960433456
 11
245.37055790256409
 21
885.39021960433456
  0
ARC
  8
_0-a_極細1
  6
CONTINUOUS
 62
    7
 10
235.84355618859763
 20
880.99035337765463
 40
31.999996799999998
 50
55.166292356155729
 51
148.68484545273029
  0
LINE
  8
_0-a_極細1
  6
CONTINUOUS
 62
    7
 10
259.77441412941198
 20
894.45688536433454
 11
259.77441412941198
 21
896.48020256733935
  0
LINE
  8
_0-a_極細1
  6
CONTINUOUS
 62
    7
 10
258.17441412941253
 20
894.45688536433454
 11
258.17441412941253
 21
902.10959899575073
  0
LINE
  8
_0-a_極細1
  6
CONTINUOUS
 62
    7
 10
256.57441412941216
 20
894.45688536433454
 11
256.57441412941216
 21
904.68587394368888
  0
LINE
  8
_0-a_極細1
  6
CONTINUOUS
 62
    7
 10
254.97441412941271
 20
894.45688536433454
 11
254.97441412941271
 21
906.48802079482857
  0
LINE
  8
_0-a_極細1
  6
CONTINUOUS
 62
    7
 10
253.37441412941234
 20
894.45688536433454
 11
253.37441412941234
 21
907.76102417722518
  0
LINE
  8
_0-a_極細1
  6
CONTINUOUS
 62
    7
 10
251.77441412941198
 20
894.45688536433454
 11
251.77441412941198
 21
908.74296695673229
  0
LINE
  8
_0-a_極細1
  6
CONTINUOUS
 62
    7
 10
250.17441412941253
 20
894.45688536433454
 11
250.17441412941253
 21
909.60199971057682
  0
LINE
  8
_0-a_極細1
  6
CONTINUOUS
 62
    7
 10
248.57441412941216
 20
894.45688536433454
 11
248.57441412941216
 21
910.34891348013252
  0
LINE
  8
_0-a_極細1
  6
CONTINUOUS
 62
    7
 10
246.97441412941225
 20
894.45688536433454
 11
246.97441412941225
 21
910.99208327280257
  0
LINE
  8
_0-a_極細1
  6
CONTINUOUS
 62
    7
 10
245.37441412941234
 20
894.45688536433454
 11
245.37441412941234
 21
911.53806265530784
  0
LINE
  8
_0-a_極細1
  6
CONTINUOUS
 62
    7
 10
243.77441412941198
 20
894.45688536433454
 11
243.77441412941198
 21
911.99198700433044
  0
LINE
  8
_0-a_極細1
  6
CONTINUOUS
 62
    7
 10
242.17441412941253
 20
894.45688536433454
 11
242.17441412941253
 21
912.357853005984
  0
LINE
  8
_0-a_極細1
  6
CONTINUOUS
 62
    7
 10
240.57441412941216
 20
894.45688536433454
 11
240.57441412941216
 21
912.63871476246959
  0
LINE
  8
_0-a_極細1
  6
CONTINUOUS
 62
    7
 10
238.97441412941225
 20
894.45688536433454
 11
238.97441412941225
 21
912.83682137262167
  0
LINE
  8
_0-a_極細1
  6
CONTINUOUS
 62
    7
 10
237.37441412941234
 20
894.45688536433454
 11
237.37441412941234
 21
912.95371160492914
  0
LINE
  8
_0-a_極細1
  6
CONTINUOUS
 62
    7
 10
235.77441412941198
 20
894.45688536433454
 11
235.77441412941198
 21
912.99027548030472
  0
LINE
  8
_0-a_極細1
  6
CONTINUOUS
 62
    7
 10
234.17441412941162
 20
894.45688536433454
 11
234.17441412941162
 21
912.94678872307895
  0
LINE
  8
_0-a_極細1
  6
CONTINUOUS
 62
    7
 10
232.57441412941216
 20
894.45688536433454
 11
232.57441412941216
 21
912.8229232612955
  0
LINE
  8
_0-a_極細1
  6
CONTINUOUS
 62
    7
 10
230.9744141294118
 20
894.45688536433454
 11
230.9744141294118
 21
912.61773472368895
  0
LINE
  8
_0-a_極細1
  6
CONTINUOUS
 62
    7
 10
229.37441412941234
 20
894.45688536433454
 11
229.37441412941234
 21
912.32962580408616
  0
LINE
  8
_0-a_極細1
  6
CONTINUOUS
 62
    7
 10
227.77441412941198
 20
894.45688536433454
 11
227.77441412941198
 21
911.95628209985989
  0
LINE
  8
_0-a_極細1
  6
CONTINUOUS
 62
    7
 10
226.17441412941162
 20
894.45688536433454
 11
226.17441412941162
 21
911.49457418460725
  0
LINE
  8
_0-a_極細1
  6
CONTINUOUS
 62
    7
 10
224.57441412941216
 20
894.45688536433454
 11
224.57441412941216
 21
910.94041568894045
  0
LINE
  8
_0-a_極細1
  6
CONTINUOUS
 62
    7
 10
222.9744141294118
 20
894.45688536433454
 11
222.9744141294118
 21
910.28856113615939
  0
LINE
  8
_0-a_極細1
  6
CONTINUOUS
 62
    7
 10
221.37441412941189
 20
894.45688536433454
 11
221.37441412941189
 21
909.5323176280549
  0
LINE
  8
_0-a_極細1
  6
CONTINUOUS
 62
    7
 10
219.77441412941198
 20
894.45688536433454
 11
219.77441412941198
 21
908.66312824180113
  0
LINE
  8
_0-a_極細1
  6
CONTINUOUS
 62
    7
 10
218.17441412941162
 20
894.45688536433454
 11
218.17441412941162
 21
907.66995633745046
  0
LINE
  8
_0-a_極細1
  6
CONTINUOUS
 62
    7
 10
216.57441412941216
 20
894.45688536433454
 11
216.57441412941216
 21
906.5383466355006
  0
LINE
  8
_0-a_極細1
  6
CONTINUOUS
 62
    7
 10
214.9744141294118
 20
894.45688536433454
 11
214.9744141294118
 21
905.2489334043903
  0
LINE
  8
_0-a_極細1
  6
CONTINUOUS
 62
    7
 10
213.37441412941189
 20
894.45688536433454
 11
213.37441412941189
 21
903.77494137753183
  0
LINE
  8
_0-a_極細1
  6
CONTINUOUS
 62
    7
 10
211.77441412941198
 20
894.45688536433454
 11
211.77441412941198
 21
902.07770019357122
  0
LINE
  8
_0-a_極細1
  6
CONTINUOUS
 62
    7
 10
210.17441412941162
 20
894.45688536433454
 11
210.17441412941162
 21
900.09781111397729
  0
LINE
  8
_0-a_極細1
  6
CONTINUOUS
 62
    7
 10
208.57441412941125
 20
897.48413565133251
 11
208.57441412941125
 21
897.73531341212356
  0
LINE
  8
_0-d_寸法1
  6
CONTINUOUS
 62
    7
 10
283.81971244711576
 20
934.2440213928553
 11
295.13336427726006
 21
922.930256225314
  0
LINE
  8
_0-d_寸法1
  6
CONTINUOUS
 62
    7
 10
283.81971244711576
 20
934.2440213928553
 11
287.96073975782235
 21
918.78918743024087
  0
LINE
  8
_0-d_寸法1
  6
CONTINUOUS
 62
    7
 10
283.81971244711576
 20
934.2440213928553
 11
348.44458751700881
 21
822.30915954187537
  0
LINE
  8
_0-d_寸法1
  6
CONTINUOUS
 62
    7
 10
348.44458751700881
 20
822.30915954187537
 11
524.4445875170087
 21
822.30915954187537
  0
TEXT
  8
_0-d_寸法1
 62
    7
 10
348.44458751700881
 20
822.30915954187537
 40
24
 41
0.7333333333333333
 50
0
  1
防臭インナーパッキン
  0
LINE
  8
_0-d_寸法1
  6
CONTINUOUS
 62
    7
 10
351.57952836898812
 20
913.22048182182675
 11
362.89376179011765
 21
901.90729826934262
  0
LINE
  8
_0-d_寸法1
  6
CONTINUOUS
 62
    7
 10
351.57952836898812
 20
913.22048182182675
 11
355.7213501597912
 21
897.76586075713453
  0
LINE
  8
_0-d_寸法1
  6
CONTINUOUS
 62
    7
 10
351.57952836898812
 20
913.22048182182675
 11
382.98472385428909
 21
858.83091571405555
  0
LINE
  8
_0-d_寸法1
  6
CONTINUOUS
 62
    7
 10
382.98472385428909
 20
858.83091571405555
 11
506.18472385428902
 21
858.83091571405555
  0
TEXT
  8
_0-d_寸法1
 62
    7
 10
382.98472385428909
 20
858.83091571405555
 40
24
 41
0.7333333333333333
 50
0
  1
ロックフランジ
  0
TEXT
  8
_0-7_枠細線
 62
    5
 10
219.37748042300382
 20
765.43651581505651
 40
40
 41
0.8
 50
0
  1
Ｃ部拡大図
  0
LINE
  8
_0-0_計極細
  6
CONTINUOUS
 62
    2
 10
1523.0037610689612
 20
1178.2842583344825
 11
1523.0037610689612
 21
1179.284258294482
  0
LINE
  8
_0-1_計細線
  6
CONTINUOUS
 62
    3
 10
1532.0037607089569
 20
1188.2842579344783
 11
1533.0037606689577
 21
1188.2842579344783
  0
ARC
  8
_0-1_計細線
  6
CONTINUOUS
 62
    3
 10
1532.0037607089569
 20
1179.284258294482
 40
0.9999999599995135
 50
269.99999999999977
 51
359.99999999999966
  0
LINE
  8
_0-1_計細線
  6
CONTINUOUS
 62
    3
 10
1521.0037611489622
 20
1178.2842583344825
 11
1521.0037611489622
 21
1179.284258294482
  0
LINE
  8
_0-1_計細線
  6
CONTINUOUS
 62
    3
 10
1521.0037611489622
 20
1179.284258294482
 11
1532.0037607089569
 21
1179.284258294482
  0
LINE
  8
_0-1_計細線
  6
CONTINUOUS
 62
    3
 10
1532.0037607089569
 20
1178.2842583344825
 11
1521.0037611489622
 21
1178.2842583344825
  0
LINE
  8
_0-1_計細線
  6
CONTINUOUS
 62
    3
 10
1532.0037607089569
 20
1179.284258294482
 11
1532.0037607089569
 21
1188.2842579344783
  0
LINE
  8
_0-5_寸法線
  6
CONTINUOUS
 62
    7
 10
1527.659423618943
 20
1178.713573909462
 11
1537.3318442256
 21
1165.9682108464528
  0
LINE
  8
_0-5_寸法線
  6
CONTINUOUS
 62
    7
 10
1527.659423618943
 20
1178.713573909462
 11
1529.6633040488914
 21
1162.8395554131116
  0
LINE
  8
_0-5_寸法線
  6
CONTINUOUS
 62
    7
 10
1527.659423618943
 20
1178.713573909462
 11
1571.1790830592001
 21
1072.0440271969019
  0
LINE
  8
_0-5_寸法線
  6
CONTINUOUS
 62
    7
 10
1571.1790830592001
 20
1072.0440271969019
 11
1705.5790830592
 21
1072.0440271969019
  0
TEXT
  8
_0-5_寸法線
 62
    7
 10
1571.1790830592001
 20
1072.0440271969019
 40
24
 41
0.7999999999999998
 50
0
  1
抜け防止Ｌ金具
  0
LINE
  8
_0-5_寸法線
  6
CONTINUOUS
 62
    7
 10
679.50982005453648
 20
1178.7842597545205
 11
687.50982007450409
 21
1164.9278533054978
  0
LINE
  8
_0-5_寸法線
  6
CONTINUOUS
 62
    7
 10
679.50982005453648
 20
1178.7842597545205
 11
679.50982007759319
 21
1162.7842597545205
  0
LINE
  8
_0-5_寸法線
  6
CONTINUOUS
 62
    7
 10
679.50982005453648
 20
1178.7842597545205
 11
708.1107793331214
 21
1072.0440271969019
  0
LINE
  8
_0-5_寸法線
  6
CONTINUOUS
 62
    7
 10
708.1107793331214
 20
1072.0440271969019
 11
861.71077933312131
 21
1072.0440271969019
  0
TEXT
  8
_0-5_寸法線
 62
    7
 10
708.1107793331214
 20
1072.0440271969019
 40
24
 41
0.7999999999999998
 50
0
  1
ボルトカバー金具
  0
LINE
  8
_0-5_寸法線
  6
CONTINUOUS
 62
    7
 10
897.53047010124885
 20
1163.6751909255981
 11
905.5304701225383
 21
1149.8187844773386
  0
LINE
  8
_0-5_寸法線
  6
CONTINUOUS
 62
    7
 10
897.53047010124885
 20
1163.6751909255981
 11
897.53047012583181
 21
1147.6751909255981
  0
LINE
  8
_0-5_寸法線
  6
CONTINUOUS
 62
    7
 10
897.53047010124885
 20
1163.6751909255981
 11
922.08296657477047
 21
1072.0440271969019
  0
LINE
  8
_0-5_寸法線
  6
CONTINUOUS
 62
    7
 10
922.08296657477047
 20
1072.0440271969019
 11
979.68296657477049
 21
1072.0440271969019
  0
TEXT
  8
_0-5_寸法線
 62
    7
 10
922.08296657477047
 20
1072.0440271969019
 40
24
 41
0.7999999999999998
 50
0
  1
上フタ
  0
LINE
  8
_0-5_寸法線
  6
CONTINUOUS
 62
    7
 10
1023.6143631974669
 20
1120.8095397949219
 11
1031.6143631962441
 21
1106.9531333336649
  0
LINE
  8
_0-5_寸法線
  6
CONTINUOUS
 62
    7
 10
1023.6143631974669
 20
1120.8095397949219
 11
1023.6143631960549
 21
1104.8095397949219
  0
LINE
  8
_0-5_寸法線
  6
CONTINUOUS
 62
    7
 10
1023.6143631974669
 20
1120.8095397949219
 11
1036.6810429119837
 21
1072.0440271969019
  0
LINE
  8
_0-5_寸法線
  6
CONTINUOUS
 62
    7
 10
1036.6810429119837
 20
1072.0440271969019
 11
1151.881042911984
 21
1072.0440271969019
  0
TEXT
  8
_0-5_寸法線
 62
    7
 10
1036.6810429119837
 20
1072.0440271969019
 40
24
 41
0.7999999999999998
 50
0
  1
排水ユニット
  0
LINE
  8
_0-e_極細4
  6
CONTINUOUS
 62
    6
 10
349.91561901808564
 20
652.19853677656045
 11
357.11561901808614
 21
652.19853677656045
  0
LINE
  8
_0-e_極細4
  6
CONTINUOUS
 62
    6
 10
349.91561901808564
 20
653.39853677656049
 11
358.06090490227871
 21
653.39853677656049
  0
LINE
  8
_0-e_極細4
  6
CONTINUOUS
 62
    6
 10
349.91561901808564
 20
654.59853677656031
 11
357.11561901808614
 21
654.59853677656031
  0
LINE
  8
_0-e_極細4
  6
CONTINUOUS
 62
    6
 10
349.91561901808564
 20
655.79853677656058
 11
357.11561901808614
 21
655.79853677656058
  0
LINE
  8
_0-e_極細4
  6
CONTINUOUS
 62
    6
 10
349.88643815632167
 20
656.99853677656097
 11
357.17033313389311
 21
656.99853677656097
  0
LINE
  8
_0-e_極細4
  6
CONTINUOUS
 62
    6
 10
349.24643815632203
 20
658.19853677656045
 11
357.86090490227866
 21
658.19853677656045
  0
LINE
  8
_0-e_極細4
  6
CONTINUOUS
 62
    6
 10
348.60643815632193
 20
659.39853677656049
 11
357.11561901808614
 21
659.39853677656049
  0
LINE
  8
_0-e_極細4
  6
CONTINUOUS
 62
    6
 10
516.11561901808591
 20
652.19853677656045
 11
523.31561901808573
 21
652.19853677656045
  0
LINE
  8
_0-e_極細4
  6
CONTINUOUS
 62
    6
 10
515.17033313389265
 20
653.39853677656049
 11
523.31561901808573
 21
653.39853677656049
  0
LINE
  8
_0-e_極細4
  6
CONTINUOUS
 62
    6
 10
516.11561901808591
 20
654.59853677656031
 11
523.31561901808573
 21
654.59853677656031
  0
LINE
  8
_0-e_極細4
  6
CONTINUOUS
 62
    6
 10
516.11561901808591
 20
655.79853677656058
 11
523.31561901808573
 21
655.79853677656058
  0
LINE
  8
_0-e_極細4
  6
CONTINUOUS
 62
    6
 10
516.06090490227734
 20
656.99853677656097
 11
523.34479987984969
 21
656.99853677656097
  0
LINE
  8
_0-e_極細4
  6
CONTINUOUS
 62
    6
 10
515.37033313389338
 20
658.19853677656045
 11
523.98479987985002
 21
658.19853677656045
  0
LINE
  8
_0-e_極細4
  6
CONTINUOUS
 62
    6
 10
516.11561901808591
 20
659.39853677656049
 11
524.62479987985034
 21
659.39853677656049
  0
LINE
  8
_0-e_極細4
  6
CONTINUOUS
 62
    6
 10
349.63726855875552
 20
639.13160266075329
 11
349.63726855875552
 21
643.13160266075317
  0
LINE
  8
_0-e_極細4
  6
CONTINUOUS
 62
    6
 10
348.4372685587557
 20
639.13160266075329
 11
348.4372685587557
 21
643.13160266075317
  0
LINE
  8
_0-e_極細4
  6
CONTINUOUS
 62
    6
 10
347.2372685587552
 20
639.13160266075329
 11
347.2372685587552
 21
643.13160266075317
  0
LINE
  8
_0-e_極細4
  6
CONTINUOUS
 62
    6
 10
346.03726855875539
 20
639.13160266075329
 11
346.03726855875539
 21
667.07886997378841
  0
LINE
  8
_0-e_極細4
  6
CONTINUOUS
 62
    6
 10
344.83726855875557
 20
639.13160266075329
 11
344.83726855875557
 21
667.70682350996083
  0
LINE
  8
_0-e_極細4
  6
CONTINUOUS
 62
    6
 10
343.63726855875552
 20
639.13160266075329
 11
343.63726855875552
 21
667.73160266075342
  0
LINE
  8
_0-e_極細4
  6
CONTINUOUS
 62
    6
 10
342.43726855875502
 20
639.13160266075329
 11
342.43726855875502
 21
667.73160266075342
  0
LINE
  8
_0-e_極細4
  6
CONTINUOUS
 62
    6
 10
341.2372685587552
 20
639.13160266075329
 11
341.2372685587552
 21
667.85176138664167
  0
LINE
  8
_0-e_極細4
  6
CONTINUOUS
 62
    6
 10
340.03726855875516
 20
639.13160266075329
 11
340.03726855875516
 21
668.45444131317413
  0
LINE
  8
_0-e_極細4
  6
CONTINUOUS
 62
    6
 10
338.83726855875534
 20
639.90995312008397
 11
338.83726855875534
 21
670.29672124487524
  0
LINE
  8
_0-e_極細4
  6
CONTINUOUS
 62
    6
 10
337.63726855875484
 20
641.10995312008401
 11
337.63726855875484
 21
672.48909741914861
  0
LINE
  8
_0-e_極細4
  6
CONTINUOUS
 62
    6
 10
535.6372685587553
 20
641.15325220142324
 11
535.6372685587553
 21
672.51129620420988
  0
LINE
  8
_0-e_極細4
  6
CONTINUOUS
 62
    6
 10
534.43726855875548
 20
639.95325220142354
 11
534.43726855875548
 21
670.49149870764211
  0
LINE
  8
_0-e_極細4
  6
CONTINUOUS
 62
    6
 10
533.23726855875475
 20
639.13160266075329
 11
533.23726855875475
 21
668.4889114626759
  0
LINE
  8
_0-e_極細4
  6
CONTINUOUS
 62
    6
 10
532.03726855875584
 20
639.13160266075329
 11
532.03726855875584
 21
667.86389697235279
  0
LINE
  8
_0-e_極細4
  6
CONTINUOUS
 62
    6
 10
530.83726855875602
 20
639.13160266075329
 11
530.83726855875602
 21
667.73160266075342
  0
LINE
  8
_0-e_極細4
  6
CONTINUOUS
 62
    6
 10
529.6372685587553
 20
639.13160266075329
 11
529.6372685587553
 21
667.73160266075342
  0
LINE
  8
_0-e_極細4
  6
CONTINUOUS
 62
    6
 10
528.43726855875548
 20
639.13160266075329
 11
528.43726855875548
 21
667.71307354015312
  0
LINE
  8
_0-e_極細4
  6
CONTINUOUS
 62
    6
 10
527.23726855875475
 20
639.13160266075329
 11
527.23726855875475
 21
667.1230717081686
  0
LINE
  8
_0-e_極細4
  6
CONTINUOUS
 62
    6
 10
526.03726855875584
 20
639.13160266075329
 11
526.03726855875584
 21
643.13160266075317
  0
LINE
  8
_0-e_極細4
  6
CONTINUOUS
 62
    6
 10
524.83726855875511
 20
639.13160266075329
 11
524.83726855875511
 21
643.13160266075317
  0
LINE
  8
_0-e_極細4
  6
CONTINUOUS
 62
    6
 10
523.6372685587553
 20
639.13160266075329
 11
523.6372685587553
 21
643.13160266075317
  0
LINE
  8
_0-e_極細4
  6
CONTINUOUS
 62
    6
 10
522.43726855875548
 20
635.13160266075317
 11
522.43726855875548
 21
647.13160266075317
  0
LINE
  8
_0-e_極細4
  6
CONTINUOUS
 62
    6
 10
521.23726855875475
 20
635.13160266075317
 11
521.23726855875475
 21
635.63502797908075
  0
LINE
  8
_0-e_極細4
  6
CONTINUOUS
 62
    6
 10
521.23726855875475
 20
639.33316066075326
 11
521.23726855875475
 21
647.13160266075317
  0
LINE
  8
_0-e_極細4
  6
CONTINUOUS
 62
    6
 10
520.03726855875584
 20
639.33316066075326
 11
520.03726855875584
 21
647.13160266075317
  0
LINE
  8
_0-e_極細4
  6
CONTINUOUS
 62
    6
 10
518.83726855875602
 20
639.33316066075326
 11
518.83726855875602
 21
647.13160266075317
  0
LINE
  8
_0-e_極細4
  6
CONTINUOUS
 62
    6
 10
517.6372685587553
 20
639.33316066075326
 11
517.6372685587553
 21
647.13160266075317
  0
LINE
  8
_0-e_極細4
  6
CONTINUOUS
 62
    6
 10
355.63726855875552
 20
639.33316066075326
 11
355.63726855875552
 21
647.13160266075317
  0
LINE
  8
_0-e_極細4
  6
CONTINUOUS
 62
    6
 10
354.4372685587557
 20
639.33316066075326
 11
354.4372685587557
 21
647.13160266075317
  0
LINE
  8
_0-e_極細4
  6
CONTINUOUS
 62
    6
 10
353.2372685587552
 20
639.33316066075326
 11
353.2372685587552
 21
647.13160266075317
  0
LINE
  8
_0-e_極細4
  6
CONTINUOUS
 62
    6
 10
352.03726855875539
 20
635.13160266075317
 11
352.03726855875539
 21
635.54559024529829
  0
LINE
  8
_0-e_極細4
  6
CONTINUOUS
 62
    6
 10
352.03726855875539
 20
639.33316066075326
 11
352.03726855875539
 21
647.13160266075317
  0
LINE
  8
_0-e_極細4
  6
CONTINUOUS
 62
    6
 10
350.83726855875557
 20
635.13160266075317
 11
350.83726855875557
 21
647.13160266075317
  0
LINE
  8
_0-e_極細4
  6
CONTINUOUS
 62
    6
 10
376.03726855875539
 20
635.73160266075354
 11
376.03726855875539
 21
639.13160266075329
  0
LINE
  8
_0-e_極細4
  6
CONTINUOUS
 62
    6
 10
374.83726855875557
 20
635.73160266075354
 11
374.83726855875557
 21
639.13160266075329
  0
LINE
  8
_0-e_極細4
  6
CONTINUOUS
 62
    6
 10
373.63726855875552
 20
635.73160266075354
 11
373.63726855875552
 21
639.13160266075329
  0
LINE
  8
_0-e_極細4
  6
CONTINUOUS
 62
    6
 10
372.4372685587557
 20
635.73160266075354
 11
372.4372685587557
 21
639.13160266075329
  0
LINE
  8
_0-e_極細4
  6
CONTINUOUS
 62
    6
 10
371.2372685587552
 20
635.73160266075354
 11
371.2372685587552
 21
639.13160266075329
  0
LINE
  8
_0-e_極細4
  6
CONTINUOUS
 62
    6
 10
370.03726855875539
 20
635.73160266075354
 11
370.03726855875539
 21
639.13160266075329
  0
LINE
  8
_0-e_極細4
  6
CONTINUOUS
 62
    6
 10
368.83726855875534
 20
635.73160266075354
 11
368.83726855875534
 21
639.13160266075329
  0
LINE
  8
_0-e_極細4
  6
CONTINUOUS
 62
    6
 10
367.6372685587553
 20
635.73160266075354
 11
367.6372685587553
 21
639.13160266075329
  0
LINE
  8
_0-e_極細4
  6
CONTINUOUS
 62
    6
 10
505.6372685587553
 20
635.73160266075354
 11
505.6372685587553
 21
639.13160266075329
  0
LINE
  8
_0-e_極細4
  6
CONTINUOUS
 62
    6
 10
504.43726855875548
 20
635.73160266075354
 11
504.43726855875548
 21
639.13160266075329
  0
LINE
  8
_0-e_極細4
  6
CONTINUOUS
 62
    6
 10
503.23726855875475
 20
635.73160266075354
 11
503.23726855875475
 21
639.13160266075329
  0
LINE
  8
_0-e_極細4
  6
CONTINUOUS
 62
    6
 10
502.03726855875584
 20
635.73160266075354
 11
502.03726855875584
 21
639.13160266075329
  0
LINE
  8
_0-e_極細4
  6
CONTINUOUS
 62
    6
 10
500.83726855875557
 20
635.73160266075354
 11
500.83726855875557
 21
639.13160266075329
  0
LINE
  8
_0-e_極細4
  6
CONTINUOUS
 62
    6
 10
499.6372685587553
 20
635.73160266075354
 11
499.6372685587553
 21
639.13160266075329
  0
LINE
  8
_0-e_極細4
  6
CONTINUOUS
 62
    6
 10
498.43726855875457
 20
635.73160266075354
 11
498.43726855875457
 21
639.13160266075329
  0
LINE
  8
_0-e_極細4
  6
CONTINUOUS
 62
    6
 10
497.23726855875475
 20
635.73160266075354
 11
497.23726855875475
 21
639.13160266075329
  0
LINE
  8
_0-e_極細4
  6
CONTINUOUS
 62
    6
 10
380.83726855875557
 20
639.13160266075329
 11
380.83726855875557
 21
640.36797755433997
  0
LINE
  8
_0-e_極細4
  6
CONTINUOUS
 62
    6
 10
379.63726855875552
 20
639.13160266075329
 11
379.63726855875552
 21
641.99429062576485
  0
LINE
  8
_0-e_極細4
  6
CONTINUOUS
 62
    6
 10
378.4372685587557
 20
639.13160266075329
 11
378.4372685587557
 21
643.18230090485918
  0
LINE
  8
_0-e_極細4
  6
CONTINUOUS
 62
    6
 10
377.2372685587552
 20
639.13160266075329
 11
377.2372685587552
 21
644.08933757588488
  0
LINE
  8
_0-e_極細4
  6
CONTINUOUS
 62
    6
 10
376.03726855875539
 20
639.13160266075329
 11
376.03726855875539
 21
644.78705859692229
  0
LINE
  8
_0-e_極細4
  6
CONTINUOUS
 62
    6
 10
374.83726855875534
 20
639.13160266075329
 11
374.83726855875534
 21
645.31453631348325
  0
LINE
  8
_0-e_極細4
  6
CONTINUOUS
 62
    6
 10
373.63726855875552
 20
639.13160266075329
 11
373.63726855875552
 21
645.69499128723703
  0
LINE
  8
_0-e_極細4
  6
CONTINUOUS
 62
    6
 10
372.43726855875502
 20
639.13160266075329
 11
372.43726855875502
 21
645.94257981468991
  0
LINE
  8
_0-e_極細4
  6
CONTINUOUS
 62
    6
 10
371.2372685587552
 20
639.13160266075329
 11
371.2372685587552
 21
646.06553983681556
  0
LINE
  8
_0-e_極細4
  6
CONTINUOUS
 62
    6
 10
370.03726855875516
 20
639.13160266075329
 11
370.03726855875516
 21
646.06770750570502
  0
LINE
  8
_0-e_極細4
  6
CONTINUOUS
 62
    6
 10
368.83726855875534
 20
639.13160266075329
 11
368.83726855875534
 21
645.94914901187144
  0
LINE
  8
_0-e_極細4
  6
CONTINUOUS
 62
    6
 10
367.63726855875484
 20
639.13160266075329
 11
367.63726855875484
 21
645.70617108266663
  0
LINE
  8
_0-e_極細4
  6
CONTINUOUS
 62
    6
 10
366.43726855875502
 20
639.13160266075329
 11
366.43726855875502
 21
645.33071428557389
  0
LINE
  8
_0-e_極細4
  6
CONTINUOUS
 62
    6
 10
365.23726855875498
 20
639.13160266075329
 11
365.23726855875498
 21
644.80887720098826
  0
LINE
  8
_0-e_極細4
  6
CONTINUOUS
 62
    6
 10
364.03726855875516
 20
639.13160266075329
 11
364.03726855875516
 21
644.11785240140318
  0
LINE
  8
_0-e_極細4
  6
CONTINUOUS
 62
    6
 10
362.83726855875466
 20
639.13160266075329
 11
362.83726855875466
 21
642.961847322317
  0
LINE
  8
_0-e_極細4
  6
CONTINUOUS
 62
    6
 10
361.63726855875484
 20
639.13160266075329
 11
361.63726855875484
 21
639.84240106116829
  0
ARC
  8
_0-e_極細4
  6
CONTINUOUS
 62
    6
 10
370.61561901808614
 20
634.08165266075355
 40
12.000000000000002
 50
0
 51
24.886947317068593
  0
LINE
  8
_0-e_極細4
  6
CONTINUOUS
 62
    6
 10
381.50129791273957
 20
639.13160266075329
 11
361.61561901808614
 21
639.13160266075329
  0
ARC
  8
_0-e_極細4
  6
CONTINUOUS
 62
    6
 10
370.61561901808614
 20
634.08165266075355
 40
12.000000000000002
 50
24.886947317068593
 51
124.83370764384597
  0
LINE
  8
_0-e_極細4
  6
CONTINUOUS
 62
    6
 10
361.61561901808614
 20
633.33316066075383
 11
361.61561901808614
 21
639.13160266075329
  0
ARC
  8
_0-e_極細4
  6
CONTINUOUS
 62
    6
 10
367.61561901808614
 20
639.33316066075326
 40
6.0000000000000009
 50
129.97050058003774
 51
181.92509931279378
  0
LINE
  8
_0-e_極細4
  6
CONTINUOUS
 62
    6
 10
510.43726855875548
 20
639.13160266075329
 11
510.43726855875548
 21
642.90411231359872
  0
LINE
  8
_0-e_極細4
  6
CONTINUOUS
 62
    6
 10
509.23726855875475
 20
639.13160266075329
 11
509.23726855875475
 21
644.08933757588488
  0
LINE
  8
_0-e_極細4
  6
CONTINUOUS
 62
    6
 10
508.03726855875584
 20
639.13160266075329
 11
508.03726855875584
 21
644.78705859692184
  0
LINE
  8
_0-e_極細4
  6
CONTINUOUS
 62
    6
 10
506.83726855875557
 20
639.13160266075329
 11
506.83726855875557
 21
645.31453631348302
  0
LINE
  8
_0-e_極細4
  6
CONTINUOUS
 62
    6
 10
505.6372685587553
 20
639.13160266075329
 11
505.6372685587553
 21
645.69499128723635
  0
LINE
  8
_0-e_極細4
  6
CONTINUOUS
 62
    6
 10
504.43726855875457
 20
639.13160266075329
 11
504.43726855875457
 21
645.94257981468957
  0
LINE
  8
_0-e_極細4
  6
CONTINUOUS
 62
    6
 10
503.23726855875475
 20
639.13160266075329
 11
503.23726855875475
 21
646.06553983681556
  0
LINE
  8
_0-e_極細4
  6
CONTINUOUS
 62
    6
 10
502.03726855875493
 20
639.13160266075329
 11
502.03726855875493
 21
646.06770750570536
  0
LINE
  8
_0-e_極細4
  6
CONTINUOUS
 62
    6
 10
500.83726855875511
 20
639.13160266075329
 11
500.83726855875511
 21
645.94914901187144
  0
LINE
  8
_0-e_極細4
  6
CONTINUOUS
 62
    6
 10
499.63726855875439
 20
639.13160266075329
 11
499.63726855875439
 21
645.70617108266686
  0
LINE
  8
_0-e_極細4
  6
CONTINUOUS
 62
    6
 10
498.43726855875457
 20
639.13160266075329
 11
498.43726855875457
 21
645.33071428557423
  0
LINE
  8
_0-e_極細4
  6
CONTINUOUS
 62
    6
 10
497.23726855875475
 20
639.13160266075329
 11
497.23726855875475
 21
644.80887720098826
  0
LINE
  8
_0-e_極細4
  6
CONTINUOUS
 62
    6
 10
496.03726855875493
 20
639.13160266075329
 11
496.03726855875493
 21
644.11785240140364
  0
LINE
  8
_0-e_極細4
  6
CONTINUOUS
 62
    6
 10
494.83726855875511
 20
639.13160266075329
 11
494.83726855875511
 21
643.2193364007303
  0
LINE
  8
_0-e_極細4
  6
CONTINUOUS
 62
    6
 10
493.63726855875439
 20
639.13160266075329
 11
493.63726855875439
 21
642.04338758659947
  0
LINE
  8
_0-e_極細4
  6
CONTINUOUS
 62
    6
 10
492.43726855875457
 20
639.13160266075329
 11
492.43726855875457
 21
640.43784506871577
  0
LINE
  8
_0-e_極細4
  6
CONTINUOUS
 62
    6
 10
511.61561901808545
 20
633.33316066075383
 11
511.61561901808545
 21
639.13160266075329
  0
LINE
  8
_0-e_極細4
  6
CONTINUOUS
 62
    6
 10
491.72994012343179
 20
639.13160266075329
 11
511.61561901808545
 21
639.13160266075329
  0
ARC
  8
_0-e_極細4
  6
CONTINUOUS
 62
    6
 10
505.61561901808545
 20
639.33316066075326
 40
6.0000000000000009
 50
358.0749006872054
 51
50.029499419963159
  0
ARC
  8
_0-e_極細4
  6
CONTINUOUS
 62
    6
 10
502.61561901808545
 20
634.08165266075355
 40
12.000000000000002
 50
55.166292356154699
 51
155.11305268293177
  0
ARC
  8
_0-e_極細4
  6
CONTINUOUS
 62
    6
 10
502.61561901808545
 20
634.08165266075355
 40
12.000000000000002
 50
155.11305268293177
 51
179.99999999999983
  0
LINE
  8
_0-e_極細4
  6
CONTINUOUS
 62
    6
 10
332.49583038870765
 20
670.19853677656045
 11
336.65761901808582
 21
670.19853677656045
  0
LINE
  8
_0-e_極細4
  6
CONTINUOUS
 62
    6
 10
322.81561901808595
 20
671.39853677656049
 11
336.65761901808582
 21
671.39853677656049
  0
LINE
  8
_0-e_極細4
  6
CONTINUOUS
 62
    6
 10
322.81561901808595
 20
672.59853677656042
 11
336.65761901808582
 21
672.59853677656042
  0
LINE
  8
_0-e_極細4
  6
CONTINUOUS
 62
    6
 10
322.81561901808595
 20
673.79853677656092
 11
329.06747832561632
 21
673.79853677656092
  0
LINE
  8
_0-e_極細4
  6
CONTINUOUS
 62
    6
 10
536.57361901808554
 20
670.19853677656045
 11
540.73540764746349
 21
670.19853677656045
  0
LINE
  8
_0-e_極細4
  6
CONTINUOUS
 62
    6
 10
536.57361901808554
 20
671.39853677656049
 11
550.41561901808609
 21
671.39853677656049
  0
LINE
  8
_0-e_極細4
  6
CONTINUOUS
 62
    6
 10
536.57361901808554
 20
672.59853677656042
 11
550.41561901808609
 21
672.59853677656042
  0
LINE
  8
_0-e_極細4
  6
CONTINUOUS
 62
    6
 10
544.16375971055504
 20
673.79853677656092
 11
550.41561901808609
 21
673.79853677656092
  0
LINE
  8
_0-e_極細4
  6
CONTINUOUS
 62
    6
 10
383.71980843898109
 20
394.71744122074568
 11
385.64524105838427
 21
396.64287384014955
  0
LINE
  8
_0-e_極細4
  6
CONTINUOUS
 62
    6
 10
381.58056243995156
 20
396.82083590883542
 11
385.71153231912081
 21
400.95180578800534
  0
LINE
  8
_0-e_極細4
  6
CONTINUOUS
 62
    6
 10
381.51101095327704
 20
400.99392510928067
 11
385.77782357985689
 21
405.26073773586057
  0
LINE
  8
_0-e_極細4
  6
CONTINUOUS
 62
    6
 10
381.44145946660319
 20
405.16701430972597
 11
385.84411484059342
 21
409.56966968371614
  0
LINE
  8
_0-e_極細4
  6
CONTINUOUS
 62
    6
 10
381.37190797992912
 20
409.34010351017122
 11
385.9104061013295
 21
413.878601631572
  0
LINE
  8
_0-e_極細4
  6
CONTINUOUS
 62
    6
 10
381.30235649325527
 20
413.51319271061641
 11
385.97669736206581
 21
418.18753357942717
  0
LINE
  8
_0-e_極細4
  6
CONTINUOUS
 62
    6
 10
381.23280500658075
 20
417.68628191106166
 11
386.04298862280211
 21
422.49646552728279
  0
LINE
  8
_0-e_極細4
  6
CONTINUOUS
 62
    6
 10
381.1632535199069
 20
421.85937111150673
 11
386.10927988353797
 21
426.80539747513797
  0
LINE
  8
_0-e_極細4
  6
CONTINUOUS
 62
    6
 10
359.77868294202653
 20
404.71744122074568
 11
360.11902241279404
 21
405.05778069151319
  0
LINE
  8
_0-e_極細4
  6
CONTINUOUS
 62
    6
 10
381.09370203323283
 20
426.03246031195198
 11
386.1755711442745
 21
431.11432942299359
  0
LINE
  8
_0-e_極細4
  6
CONTINUOUS
 62
    6
 10
355.53604225490699
 20
404.71744122074568
 11
360.16187736922961
 21
409.34327633506803
  0
LINE
  8
_0-e_極細4
  6
CONTINUOUS
 62
    6
 10
381.02415054655876
 20
430.20554951239745
 11
386.24186240501058
 21
435.4232613708495
  0
LINE
  8
_0-e_極細4
  6
CONTINUOUS
 62
    6
 10
354.36645023934125
 20
407.79048989229921
 11
360.20473232566542
 21
413.62877197862298
  0
LINE
  8
_0-e_極細4
  6
CONTINUOUS
 62
    6
 10
380.95459905988446
 20
434.37863871284242
 11
386.30815366574711
 21
439.73219331870467
  0
LINE
  8
_0-e_極細4
  6
CONTINUOUS
 62
    6
 10
354.29963700017379
 20
411.96631734025112
 11
360.24758728210054
 21
417.91426762217759
  0
LINE
  8
_0-e_極細4
  6
CONTINUOUS
 62
    6
 10
380.88504757321016
 20
438.55172791328766
 11
386.37444492648319
 21
444.0411252665603
  0
LINE
  8
_0-e_極細4
  6
CONTINUOUS
 62
    6
 10
354.23282376100701
 20
416.14214478820344
 11
360.29044223853612
 21
422.19976326573254
  0
LINE
  8
_0-e_極細4
  6
CONTINUOUS
 62
    6
 10
380.81549608653654
 20
442.72481711373297
 11
386.4407361872195
 21
448.3500572144161
  0
LINE
  8
_0-e_極細4
  6
CONTINUOUS
 62
    6
 10
354.16601052183933
 20
420.31797223615524
 11
360.33329719497192
 21
426.48525890928738
  0
LINE
  8
_0-e_極細4
  6
CONTINUOUS
 62
    6
 10
380.74594459986201
 20
446.89790631417821
 11
386.50702744795581
 21
452.65898916227127
  0
LINE
  8
_0-e_極細4
  6
CONTINUOUS
 62
    6
 10
354.09919728267232
 20
424.49379968410761
 11
360.37615215140704
 21
430.77075455284228
  0
LINE
  8
_0-e_極細4
  6
CONTINUOUS
 62
    6
 10
380.67639311318817
 20
451.07099551462341
 11
386.57331870869166
 21
456.96792111012689
  0
LINE
  8
_0-e_極細4
  6
CONTINUOUS
 62
    6
 10
354.03238404350554
 20
428.66962713205942
 11
360.41900710784262
 21
435.05625019639723
  0
LINE
  8
_0-e_極細4
  6
CONTINUOUS
 62
    6
 10
380.08019813219175
 20
454.71744122074568
 11
385.08019813219175
 21
459.71744122074631
  0
LINE
  8
_0-e_極細4
  6
CONTINUOUS
 62
    6
 10
353.96557080433809
 20
432.84545458001173
 11
360.46186206427842
 21
439.34174583995207
  0
LINE
  8
_0-e_極細4
  6
CONTINUOUS
 62
    6
 10
375.83755744507266
 20
454.71744122074568
 11
380.83755744507266
 21
459.71744122074631
  0
LINE
  8
_0-e_極細4
  6
CONTINUOUS
 62
    6
 10
353.89875756517131
 20
437.02128202796359
 11
360.50471702071354
 21
443.62724148350702
  0
LINE
  8
_0-e_極細4
  6
CONTINUOUS
 62
    6
 10
371.59491675795289
 20
454.71744122074568
 11
376.59491675795289
 21
459.71744122074631
  0
LINE
  8
_0-e_極細4
  6
CONTINUOUS
 62
    6
 10
353.83194432600339
 20
441.19710947591591
 11
360.54757197714912
 21
447.91273712706123
  0
LINE
  8
_0-e_極細4
  6
CONTINUOUS
 62
    6
 10
367.35227607083357
 20
454.71744122074568
 11
372.3522760708338
 21
459.71744122074631
  0
LINE
  8
_0-e_極細4
  6
CONTINUOUS
 62
    6
 10
353.76513108683662
 20
445.37293692386783
 11
360.59042693358492
 21
452.19823277061607
  0
LINE
  8
_0-e_極細4
  6
CONTINUOUS
 62
    6
 10
363.10963538371448
 20
454.71744122074568
 11
368.10963538371448
 21
459.71744122074631
  0
LINE
  8
_0-e_極細4
  6
CONTINUOUS
 62
    6
 10
353.69831784766939
 20
449.54876437182008
 11
363.86699469659538
 21
459.71744122074631
  0
LINE
  8
_0-e_極細4
  6
CONTINUOUS
 62
    6
 10
353.63150460850193
 20
453.724591819772
 11
359.62435400947629
 21
459.71744122074631
  0
LINE
  8
_0-e_極細4
  6
CONTINUOUS
 62
    6
 10
350.42599944688823
 20
454.76172734527734
 11
355.42599944688823
 21
459.76172734527734
  0
LINE
  8
_0-e_極細4
  6
CONTINUOUS
 62
    6
 10
346.86164660035115
 20
455.44001518585958
 11
351.86164660035115
 21
460.44001518585958
  0
LINE
  8
_0-e_極細4
  6
CONTINUOUS
 62
    6
 10
343.88690191059231
 20
456.70791118322029
 11
348.88690191059231
 21
461.70791118322029
  0
LINE
  8
_0-e_極細4
  6
CONTINUOUS
 62
    6
 10
341.36698738140421
 20
458.43063734115157
 11
346.36698738140421
 21
463.43063734115157
  0
LINE
  8
_0-e_極細4
  6
CONTINUOUS
 62
    6
 10
339.25349670952164
 20
460.55978735638803
 11
344.25349670952164
 21
465.55978735638803
  0
LINE
  8
_0-e_極細4
  6
CONTINUOUS
 62
    6
 10
337.54731014620666
 20
463.09624148019219
 11
342.54731014620666
 21
468.09624148019282
  0
LINE
  8
_0-e_極細4
  6
CONTINUOUS
 62
    6
 10
336.29916889705419
 20
466.0907409181595
 11
341.29916889705419
 21
471.09074091815967
  0
LINE
  8
_0-e_極細4
  6
CONTINUOUS
 62
    6
 10
335.64907504026087
 20
469.68328774848544
 11
340.64907504026155
 21
474.68328774848544
  0
LINE
  8
_0-e_極細4
  6
CONTINUOUS
 62
    6
 10
335.61561901808614
 20
473.89247241342986
 11
340.61561901808614
 21
478.89247241342986
  0
LINE
  8
_0-e_極細4
  6
CONTINUOUS
 62
    6
 10
335.61561901808614
 20
478.13511310054889
 11
340.61561901808614
 21
483.13511310054889
  0
LINE
  8
_0-e_極細4
  6
CONTINUOUS
 62
    6
 10
335.61561901808614
 20
482.37775378766827
 11
340.61561901808614
 21
487.37775378766827
  0
LINE
  8
_0-e_極細4
  6
CONTINUOUS
 62
    6
 10
335.61561901808614
 20
486.6203944747873
 11
340.61561901808614
 21
491.6203944747873
  0
LINE
  8
_0-e_極細4
  6
CONTINUOUS
 62
    6
 10
335.61561901808614
 20
490.86303516190708
 11
340.61561901808614
 21
495.8630351619064
  0
LINE
  8
_0-e_極細4
  6
CONTINUOUS
 62
    6
 10
335.61561901808614
 20
495.10567584902617
 11
340.61561901808614
 21
500.10567584902617
  0
LINE
  8
_0-e_極細4
  6
CONTINUOUS
 62
    6
 10
335.61561901808614
 20
499.34831653614549
 11
340.61561901808614
 21
504.34831653614532
  0
LINE
  8
_0-e_極細4
  6
CONTINUOUS
 62
    6
 10
335.61561901808614
 20
503.59095722326458
 11
340.61561901808614
 21
508.59095722326458
  0
LINE
  8
_0-e_極細4
  6
CONTINUOUS
 62
    6
 10
335.61561901808614
 20
507.83359791038436
 11
340.61561901808614
 21
512.83359791038367
  0
LINE
  8
_0-e_極細4
  6
CONTINUOUS
 62
    6
 10
335.61561901808614
 20
512.07623859750345
 11
340.61561901808614
 21
517.07623859750277
  0
LINE
  8
_0-e_極細4
  6
CONTINUOUS
 62
    6
 10
335.61561901808614
 20
516.31887928462254
 11
340.61561901808614
 21
521.31887928462231
  0
LINE
  8
_0-e_極細4
  6
CONTINUOUS
 62
    6
 10
335.61561901808614
 20
520.5615199717414
 11
340.61561901808614
 21
525.56151997174175
  0
LINE
  8
_0-e_極細4
  6
CONTINUOUS
 62
    6
 10
335.61561901808614
 20
524.80416065886095
 11
340.61561901808614
 21
529.80416065886072
  0
LINE
  8
_0-e_極細4
  6
CONTINUOUS
 62
    6
 10
335.61561901808614
 20
529.04680134598016
 11
340.61561901808614
 21
534.04680134598016
  0
LINE
  8
_0-e_極細4
  6
CONTINUOUS
 62
    6
 10
335.61561901808614
 20
533.28944203309914
 11
340.61561901808614
 21
538.28944203309959
  0
LINE
  8
_0-e_極細4
  6
CONTINUOUS
 62
    6
 10
335.61561901808614
 20
537.53208272021868
 11
340.61561901808614
 21
542.53208272021891
  0
LINE
  8
_0-e_極細4
  6
CONTINUOUS
 62
    6
 10
335.61561901808614
 20
541.774723407338
 11
340.61561901808614
 21
546.77472340733834
  0
LINE
  8
_0-e_極細4
  6
CONTINUOUS
 62
    6
 10
335.61561901808614
 20
546.01736409445709
 11
340.61561901808614
 21
551.01736409445732
  0
LINE
  8
_0-e_極細4
  6
CONTINUOUS
 62
    6
 10
335.61561901808614
 20
550.26000478157641
 11
340.61561901808614
 21
555.26000478157641
  0
LINE
  8
_0-e_極細4
  6
CONTINUOUS
 62
    6
 10
335.61561901808614
 20
554.50264546869596
 11
340.61561901808614
 21
559.50264546869596
  0
LINE
  8
_0-e_極細4
  6
CONTINUOUS
 62
    6
 10
335.61561901808614
 20
558.74528615581528
 11
340.61561901808614
 21
563.74528615581528
  0
LINE
  8
_0-e_極細4
  6
CONTINUOUS
 62
    6
 10
335.61561901808614
 20
562.9879268429346
 11
340.61561901808614
 21
567.9879268429346
  0
LINE
  8
_0-e_極細4
  6
CONTINUOUS
 62
    6
 10
335.61561901808614
 20
567.23056753005369
 11
340.61561901808614
 21
572.23056753005369
  0
LINE
  8
_0-e_極細4
  6
CONTINUOUS
 62
    6
 10
335.61561901808614
 20
571.47320821717335
 11
340.61561901808614
 21
576.47320821717278
  0
LINE
  8
_0-e_極細4
  6
CONTINUOUS
 62
    6
 10
335.61561901808614
 20
575.71584890429256
 11
340.61561901808614
 21
580.71584890429233
  0
LINE
  8
_0-e_極細4
  6
CONTINUOUS
 62
    6
 10
335.61561901808614
 20
579.95848959141176
 11
340.61561901808614
 21
584.95848959141176
  0
LINE
  8
_0-e_極細4
  6
CONTINUOUS
 62
    6
 10
335.61561901808614
 20
584.20113027853097
 11
340.61561901808614
 21
589.20113027853097
  0
LINE
  8
_0-e_極細4
  6
CONTINUOUS
 62
    6
 10
335.61561901808614
 20
588.44377096565051
 11
340.61561901808614
 21
593.44377096565017
  0
LINE
  8
_0-e_極細4
  6
CONTINUOUS
 62
    6
 10
335.61561901808614
 20
592.68641165276995
 11
340.61561901808614
 21
597.68641165276961
  0
LINE
  8
_0-e_極細4
  6
CONTINUOUS
 62
    6
 10
335.61561901808614
 20
596.92905233988915
 11
340.61561901808614
 21
601.92905233988893
  0
LINE
  8
_0-e_極細4
  6
CONTINUOUS
 62
    6
 10
335.61561901808614
 20
601.17169302700802
 11
340.61561901808614
 21
606.17169302700802
  0
LINE
  8
_0-e_極細4
  6
CONTINUOUS
 62
    6
 10
335.61561901808614
 20
605.41433371412734
 11
340.61561901808614
 21
610.41433371412734
  0
LINE
  8
_0-e_極細4
  6
CONTINUOUS
 62
    6
 10
335.61561901808614
 20
609.65697440124643
 11
340.61561901808614
 21
614.65697440124643
  0
LINE
  8
_0-e_極細4
  6
CONTINUOUS
 62
    6
 10
335.61561901808614
 20
613.8996150883662
 11
340.61561901808614
 21
618.8996150883662
  0
LINE
  8
_0-e_極細4
  6
CONTINUOUS
 62
    6
 10
335.61561901808636
 20
618.1422557754853
 11
340.61561901808614
 21
623.1422557754853
  0
LINE
  8
_0-e_極細4
  6
CONTINUOUS
 62
    6
 10
335.08932695828298
 20
621.85860440280123
 11
340.61561901808614
 21
627.38489646260462
  0
LINE
  8
_0-e_極細4
  6
CONTINUOUS
 62
    6
 10
333.62832446270386
 20
624.64024259434132
 11
340.61561901808614
 21
631.62753714972371
  0
LINE
  8
_0-e_極細4
  6
CONTINUOUS
 62
    6
 10
331.4931009922293
 20
626.74765981098642
 11
339.61561901808614
 21
634.8701778368428
  0
LINE
  8
_0-e_極細4
  6
CONTINUOUS
 62
    6
 10
330.61561901808614
 20
630.11281852396201
 11
339.61561901808614
 21
639.11281852396189
  0
LINE
  8
_0-e_極細4
  6
CONTINUOUS
 62
    6
 10
330.61561901808614
 20
634.35545921108178
 11
337.50369074292189
 21
641.24353093591765
  0
LINE
  8
_0-e_極細4
  6
CONTINUOUS
 62
    6
 10
330.61561901808614
 20
638.59809989820076
 11
336.65761901808582
 21
644.64009989820102
  0
LINE
  8
_0-e_極細4
  6
CONTINUOUS
 62
    6
 10
330.61561901808614
 20
642.84074058532019
 11
336.65761901808582
 21
648.88274058532022
  0
LINE
  8
_0-e_極細4
  6
CONTINUOUS
 62
    6
 10
326.8497124063997
 20
643.31747466075331
 11
336.65761901808582
 21
653.12538127243954
  0
LINE
  8
_0-e_極細4
  6
CONTINUOUS
 62
    6
 10
322.81561901808618
 20
643.52602195955888
 11
336.65761901808582
 21
657.36802195955863
  0
LINE
  8
_0-e_極細4
  6
CONTINUOUS
 62
    6
 10
322.81561901808618
 20
647.76866264667785
 11
336.65761901808582
 21
661.61066264667784
  0
LINE
  8
_0-e_極細4
  6
CONTINUOUS
 62
    6
 10
322.81561901808618
 20
652.01130333379729
 11
336.65761901808582
 21
665.85330333379761
  0
LINE
  8
_0-e_極細4
  6
CONTINUOUS
 62
    6
 10
322.81561901808595
 20
656.25394402091672
 11
336.31836420113359
 21
669.75668920396413
  0
LINE
  8
_0-e_極細4
  6
CONTINUOUS
 62
    6
 10
322.81561901808595
 20
660.49658470803604
 11
332.51531845633963
 21
670.1962841462896
  0
LINE
  8
_0-e_極細4
  6
CONTINUOUS
 62
    6
 10
322.81561901808595
 20
664.73922539515502
 11
328.71227271154635
 21
670.63587908861496
  0
LINE
  8
_0-e_極細4
  6
CONTINUOUS
 62
    6
 10
322.81561901808618
 20
668.98186608227422
 11
324.90922696675239
 21
671.07547403094088
  0
LINE
  8
_0-e_極細4
  6
CONTINUOUS
 62
    6
 10
385.08019813219175
 20
459.71744122074631
 11
386.61561901808614
 21
461.25286210664069
  0
LINE
  8
_0-e_極細4
  6
CONTINUOUS
 62
    6
 10
380.83755744507198
 20
459.71744122074631
 11
386.61561901808614
 21
465.49550279375978
  0
LINE
  8
_0-e_極細4
  6
CONTINUOUS
 62
    6
 10
376.59491675795289
 20
459.71744122074631
 11
386.61561901808614
 21
469.7381434808791
  0
LINE
  8
_0-e_極細4
  6
CONTINUOUS
 62
    6
 10
372.3522760708338
 20
459.71744122074568
 11
386.61561901808614
 21
473.98078416799797
  0
LINE
  8
_0-e_極細4
  6
CONTINUOUS
 62
    6
 10
368.10963538371448
 20
459.71744122074568
 11
386.61561901808614
 21
478.22342485511734
  0
LINE
  8
_0-e_極細4
  6
CONTINUOUS
 62
    6
 10
363.86699469659538
 20
459.71744122074568
 11
383.86699469659516
 21
479.71744122074568
  0
LINE
  8
_0-e_極細4
  6
CONTINUOUS
 62
    6
 10
359.62435400947561
 20
459.71744122074631
 11
379.74201714424271
 21
479.8351043555125
  0
LINE
  8
_0-e_極細4
  6
CONTINUOUS
 62
    6
 10
355.42599944688823
 20
459.76172734527734
 11
376.13803658525808
 21
480.47376448364741
  0
LINE
  8
_0-e_極細4
  6
CONTINUOUS
 62
    6
 10
351.86164660035115
 20
460.44001518585958
 11
372.95579791426735
 21
481.53416649977555
  0
LINE
  8
_0-e_極細4
  6
CONTINUOUS
 62
    6
 10
348.88690191059231
 20
461.70791118322029
 11
370.11321208600839
 21
482.93422135863574
  0
LINE
  8
_0-e_極細4
  6
CONTINUOUS
 62
    6
 10
346.36698738140421
 20
463.43063734115157
 11
367.56652306853903
 21
484.63017302828632
  0
LINE
  8
_0-e_極細4
  6
CONTINUOUS
 62
    6
 10
344.25349670952164
 20
465.55978735638803
 11
365.29346537145739
 21
486.59975601832377
  0
LINE
  8
_0-e_極細4
  6
CONTINUOUS
 62
    6
 10
342.54731014620666
 20
468.09624148019282
 11
363.28664744849357
 21
488.83557878247956
  0
LINE
  8
_0-e_極細4
  6
CONTINUOUS
 62
    6
 10
341.29916889705419
 20
471.09074091815967
 11
361.55162150084902
 21
491.34319352195359
  0
LINE
  8
_0-e_極細4
  6
CONTINUOUS
 62
    6
 10
340.64907504026155
 20
474.68328774848544
 11
360.10832131552888
 21
494.14253402375323
  0
LINE
  8
_0-e_極細4
  6
CONTINUOUS
 62
    6
 10
340.61561901808614
 20
478.89247241342986
 11
358.9968371133134
 21
497.27369050865639
  0
LINE
  8
_0-e_極細4
  6
CONTINUOUS
 62
    6
 10
340.61561901808614
 20
483.13511310054889
 11
358.29217493644637
 21
500.81166901890867
  0
LINE
  8
_0-e_極細4
  6
CONTINUOUS
 62
    6
 10
340.61561901808614
 20
487.37775378766827
 11
358.11561901808614
 21
504.87775378766827
  0
LINE
  8
_0-e_極細4
  6
CONTINUOUS
 62
    6
 10
340.61561901808614
 20
491.6203944747873
 11
358.11561901808614
 21
509.1203944747873
  0
LINE
  8
_0-e_極細4
  6
CONTINUOUS
 62
    6
 10
340.61561901808614
 20
495.8630351619064
 11
358.11561901808614
 21
513.36303516190685
  0
LINE
  8
_0-e_極細4
  6
CONTINUOUS
 62
    6
 10
340.61561901808614
 20
500.10567584902617
 11
358.11561901808614
 21
517.60567584902617
  0
LINE
  8
_0-e_極細4
  6
CONTINUOUS
 62
    6
 10
340.61561901808614
 20
504.34831653614532
 11
358.11561901808614
 21
521.84831653614549
  0
LINE
  8
_0-e_極細4
  6
CONTINUOUS
 62
    6
 10
340.61561901808614
 20
508.59095722326458
 11
358.11561901808614
 21
526.09095722326435
  0
LINE
  8
_0-e_極細4
  6
CONTINUOUS
 62
    6
 10
340.61561901808614
 20
512.83359791038367
 11
358.11561901808614
 21
530.33359791038367
  0
LINE
  8
_0-e_極細4
  6
CONTINUOUS
 62
    6
 10
340.61561901808614
 20
517.07623859750277
 11
358.11561901808614
 21
534.57623859750333
  0
LINE
  8
_0-e_極細4
  6
CONTINUOUS
 62
    6
 10
340.61561901808614
 20
521.31887928462231
 11
358.11561901808614
 21
538.81887928462254
  0
LINE
  8
_0-e_極細4
  6
CONTINUOUS
 62
    6
 10
340.61561901808614
 20
525.56151997174175
 11
358.11561901808614
 21
543.0615199717414
  0
LINE
  8
_0-e_極細4
  6
CONTINUOUS
 62
    6
 10
340.61561901808614
 20
529.80416065886072
 11
358.11561901808614
 21
547.30416065886072
  0
LINE
  8
_0-e_極細4
  6
CONTINUOUS
 62
    6
 10
340.61561901808614
 20
534.04680134598016
 11
358.11561901808614
 21
551.54680134598016
  0
LINE
  8
_0-e_極細4
  6
CONTINUOUS
 62
    6
 10
340.61561901808614
 20
538.28944203309959
 11
358.11561901808614
 21
555.78944203309914
  0
LINE
  8
_0-e_極細4
  6
CONTINUOUS
 62
    6
 10
340.61561901808614
 20
542.53208272021891
 11
358.11561901808614
 21
560.03208272021868
  0
LINE
  8
_0-e_極細4
  6
CONTINUOUS
 62
    6
 10
340.61561901808614
 20
546.77472340733834
 11
358.11561901808614
 21
564.274723407338
  0
LINE
  8
_0-e_極細4
  6
CONTINUOUS
 62
    6
 10
340.61561901808614
 20
551.01736409445732
 11
358.11561901808614
 21
568.51736409445709
  0
LINE
  8
_0-e_極細4
  6
CONTINUOUS
 62
    6
 10
340.61561901808614
 20
555.26000478157641
 11
358.11561901808614
 21
572.76000478157641
  0
LINE
  8
_0-e_極細4
  6
CONTINUOUS
 62
    6
 10
340.61561901808614
 20
559.50264546869596
 11
356.68923528779101
 21
575.57626173840106
  0
LINE
  8
_0-e_極細4
  6
CONTINUOUS
 62
    6
 10
340.61561901808614
 20
563.74528615581528
 11
352.44659460067192
 21
575.57626173840106
  0
LINE
  8
_0-e_極細4
  6
CONTINUOUS
 62
    6
 10
340.61561901808614
 20
567.9879268429346
 11
348.20395391355214
 21
575.57626173840106
  0
LINE
  8
_0-e_極細4
  6
CONTINUOUS
 62
    6
 10
340.61561901808614
 20
572.23056753005369
 11
343.96131322643305
 21
575.57626173840106
  0
LINE
  8
_0-e_極細4
  6
CONTINUOUS
 62
    6
 10
340.61561901808614
 20
576.47320821717278
 11
340.82073042489264
 21
576.67831962397975
  0
LINE
  8
_0-e_極細4
  6
CONTINUOUS
 62
    6
 10
521.66103050746779
 20
460.5337716082044
 11
531.79928863062696
 21
470.67202973136375
  0
LINE
  8
_0-e_極細4
  6
CONTINUOUS
 62
    6
 10
516.60205943288975
 20
459.71744122074631
 11
532.61561901808591
 21
475.73100080594179
  0
LINE
  8
_0-e_極細4
  6
CONTINUOUS
 62
    6
 10
512.35941874576974
 20
459.71744122074631
 11
532.61561901808591
 21
479.97364149306094
  0
LINE
  8
_0-e_極細4
  6
CONTINUOUS
 62
    6
 10
508.11677805865065
 20
459.71744122074631
 11
532.61561901808591
 21
484.21628218018071
  0
LINE
  8
_0-e_極細4
  6
CONTINUOUS
 62
    6
 10
503.87413737153156
 20
459.71744122074631
 11
532.61561901808591
 21
488.45892286729975
  0
LINE
  8
_0-e_極細4
  6
CONTINUOUS
 62
    6
 10
499.63149668441247
 20
459.71744122074631
 11
532.61561901808591
 21
492.70156355441912
  0
LINE
  8
_0-e_極細4
  6
CONTINUOUS
 62
    6
 10
495.38885599729338
 20
459.71744122074631
 11
532.61561901808591
 21
496.94420424153816
  0
LINE
  8
_0-e_極細4
  6
CONTINUOUS
 62
    6
 10
491.14621531017383
 20
459.71744122074631
 11
532.61561901808591
 21
501.18684492865793
  0
LINE
  8
_0-e_極細4
  6
CONTINUOUS
 62
    6
 10
486.90357462305428
 20
459.71744122074631
 11
532.61561901808591
 21
505.42948561577703
  0
LINE
  8
_0-e_極細4
  6
CONTINUOUS
 62
    6
 10
486.615619018085
 20
463.67212630289612
 11
532.61561901808591
 21
509.67212630289634
  0
LINE
  8
_0-e_極細4
  6
CONTINUOUS
 62
    6
 10
486.615619018085
 20
467.91476699001521
 11
500.20680015198241
 21
481.5059481239129
  0
LINE
  8
_0-e_極細4
  6
CONTINUOUS
 62
    6
 10
513.32711211491869
 20
494.6262600868489
 11
532.61561901808591
 21
513.91476699001544
  0
LINE
  8
_0-e_極細4
  6
CONTINUOUS
 62
    6
 10
486.615619018085
 20
472.15740767713453
 11
494.40167922249702
 21
479.94346788154616
  0
LINE
  8
_0-e_極細4
  6
CONTINUOUS
 62
    6
 10
514.88959235728589
 20
500.43138101633451
 11
532.61561901808591
 21
518.15740767713498
  0
LINE
  8
_0-e_極細4
  6
CONTINUOUS
 62
    6
 10
486.615619018085
 20
476.4000483642543
 11
489.93301187457746
 21
479.71744122074568
  0
LINE
  8
_0-e_極細4
  6
CONTINUOUS
 62
    6
 10
515.115619018085
 20
504.90004836425436
 11
532.61561901808591
 21
522.40004836425419
  0
LINE
  8
_0-e_極細4
  6
CONTINUOUS
 62
    6
 10
515.115619018085
 20
509.1426890513734
 11
532.61561901808591
 21
526.6426890513734
  0
LINE
  8
_0-e_極細4
  6
CONTINUOUS
 62
    6
 10
515.115619018085
 20
513.3853297384926
 11
532.61561901808591
 21
530.88532973849226
  0
LINE
  8
_0-e_極細4
  6
CONTINUOUS
 62
    6
 10
515.115619018085
 20
517.62797042561158
 11
532.61561901808591
 21
535.12797042561158
  0
LINE
  8
_0-e_極細4
  6
CONTINUOUS
 62
    6
 10
515.115619018085
 20
521.87061111273101
 11
532.61561901808591
 21
539.37061111273101
  0
LINE
  8
_0-e_極細4
  6
CONTINUOUS
 62
    6
 10
515.115619018085
 20
526.11325179985045
 11
532.61561901808591
 21
543.61325179984999
  0
LINE
  8
_0-e_極細4
  6
CONTINUOUS
 62
    6
 10
515.115619018085
 20
530.35589248696976
 11
532.61561901808591
 21
547.85589248696954
  0
LINE
  8
_0-e_極細4
  6
CONTINUOUS
 62
    6
 10
515.115619018085
 20
534.5985331740892
 11
532.61561901808591
 21
552.09853317408886
  0
LINE
  8
_0-e_極細4
  6
CONTINUOUS
 62
    6
 10
515.115619018085
 20
538.84117386120818
 11
532.61561901808591
 21
556.34117386120795
  0
LINE
  8
_0-e_極細4
  6
CONTINUOUS
 62
    6
 10
515.115619018085
 20
543.08381454832772
 11
532.61561901808591
 21
560.58381454832727
  0
LINE
  8
_0-e_極細4
  6
CONTINUOUS
 62
    6
 10
515.115619018085
 20
547.32645523544704
 11
532.61561901808591
 21
564.82645523544682
  0
LINE
  8
_0-e_極細4
  6
CONTINUOUS
 62
    6
 10
515.115619018085
 20
551.56909592256613
 11
532.61561901808591
 21
569.06909592256613
  0
LINE
  8
_0-e_極細4
  6
CONTINUOUS
 62
    6
 10
515.115619018085
 20
555.81173660968545
 11
532.61561901808591
 21
573.31173660968545
  0
LINE
  8
_0-e_極細4
  6
CONTINUOUS
 62
    6
 10
515.115619018085
 20
560.054377296805
 11
530.63750345968265
 21
575.57626173840083
  0
LINE
  8
_0-e_極細4
  6
CONTINUOUS
 62
    6
 10
532.61560938462071
 20
577.55436766333935
 11
532.61561901808591
 21
577.55437729680455
  0
LINE
  8
_0-e_極細4
  6
CONTINUOUS
 62
    6
 10
515.115619018085
 20
564.29701798392421
 11
526.39486277256265
 21
575.57626173840106
  0
LINE
  8
_0-e_極細4
  6
CONTINUOUS
 62
    6
 10
515.115619018085
 20
568.53965867104341
 11
522.15222208544355
 21
575.57626173840083
  0
LINE
  8
_0-e_極細4
  6
CONTINUOUS
 62
    6
 10
515.115619018085
 20
572.78229935816262
 11
517.90958139832446
 21
575.57626173840083
  0
LINE
  8
_0-e_極細4
  6
CONTINUOUS
 62
    6
 10
516.75638836544067
 20
404.71744122074568
 11
518.84910244333196
 21
406.81015529863691
  0
LINE
  8
_0-e_極細4
  6
CONTINUOUS
 62
    6
 10
513.10965989590886
 20
405.31335343833456
 11
518.91808847076436
 21
411.12178201318932
  0
LINE
  8
_0-e_極細4
  6
CONTINUOUS
 62
    6
 10
513.06765355247217
 20
409.5139877820169
 11
518.98707449819767
 21
415.43340872774172
  0
LINE
  8
_0-e_極細4
  6
CONTINUOUS
 62
    6
 10
513.02564720903547
 20
413.71462212569929
 11
519.05606052563007
 21
419.7450354422939
  0
LINE
  8
_0-e_極細4
  6
CONTINUOUS
 62
    6
 10
489.78582561696248
 20
394.71744122074568
 11
491.64663246556165
 21
396.57824806934457
  0
LINE
  8
_0-e_極細4
  6
CONTINUOUS
 62
    6
 10
512.98364086559877
 20
417.91525646938169
 11
519.12504655306338
 21
424.05666215684562
  0
LINE
  8
_0-e_極細4
  6
CONTINUOUS
 62
    6
 10
487.58421850159675
 20
396.75847479249904
 11
491.71854162975023
 21
400.89279792065247
  0
LINE
  8
_0-e_極細4
  6
CONTINUOUS
 62
    6
 10
512.94163452216208
 20
422.11589081306414
 11
519.19403258049579
 21
428.36828887139779
  0
LINE
  8
_0-e_極細4
  6
CONTINUOUS
 62
    6
 10
487.5199360669435
 20
400.93683304496551
 11
491.79045079393882
 21
405.20734777196083
  0
LINE
  8
_0-e_極細4
  6
CONTINUOUS
 62
    6
 10
512.89962817872538
 20
426.31652515674671
 11
519.2630186079291
 21
432.6799155859502
  0
LINE
  8
_0-e_極細4
  6
CONTINUOUS
 62
    6
 10
487.45565363229025
 20
405.11519129743073
 11
491.8623599581274
 21
409.52189762326782
  0
LINE
  8
_0-e_極細4
  6
CONTINUOUS
 62
    6
 10
512.85762183528868
 20
430.5171595004291
 11
519.3320046353615
 21
436.99154230050198
  0
LINE
  8
_0-e_極細4
  6
CONTINUOUS
 62
    6
 10
487.391371197637
 20
409.29354954989719
 11
491.93426912231598
 21
413.83644747457623
  0
LINE
  8
_0-e_極細4
  6
CONTINUOUS
 62
    6
 10
512.81561549185153
 20
434.7177938441115
 11
519.40099066279481
 21
441.30316901505438
  0
LINE
  8
_0-e_極細4
  6
CONTINUOUS
 62
    6
 10
487.32708876298375
 20
413.47190780236303
 11
492.00617828650456
 21
418.15099732588385
  0
LINE
  8
_0-e_極細4
  6
CONTINUOUS
 62
    6
 10
512.77360914841438
 20
438.91842818779395
 11
519.46997669022721
 21
445.61479572960678
  0
LINE
  8
_0-e_極細4
  6
CONTINUOUS
 62
    6
 10
487.2628063283305
 20
417.65026605482916
 11
492.07808745069224
 21
422.46554717719158
  0
LINE
  8
_0-e_極細4
  6
CONTINUOUS
 62
    6
 10
512.73160280497814
 20
443.11906253147635
 11
519.53896271765962
 21
449.9264224441589
  0
LINE
  8
_0-e_極細4
  6
CONTINUOUS
 62
    6
 10
524.61330662241699
 20
455.00076634891468
 11
537.33229388991685
 21
467.71975361641461
  0
LINE
  8
_0-e_極細4
  6
CONTINUOUS
 62
    6
 10
487.19852389367634
 20
421.828624307295
 11
492.14999661488082
 21
426.7800970284992
  0
LINE
  8
_0-e_極細4
  6
CONTINUOUS
 62
    6
 10
512.68959646154099
 20
447.31969687515942
 11
519.60794874509293
 21
454.23804915871068
  0
LINE
  8
_0-e_極細4
  6
CONTINUOUS
 62
    6
 10
520.08734080712884
 20
454.71744122074568
 11
537.615619018085
 21
472.24571943170338
  0
LINE
  8
_0-e_極細4
  6
CONTINUOUS
 62
    6
 10
487.134241459024
 20
426.00698255976084
 11
492.22190577907031
 21
431.09464687980687
  0
LINE
  8
_0-e_極細4
  6
CONTINUOUS
 62
    6
 10
512.64759011810474
 20
451.52033121884182
 11
521.66103050746779
 21
460.5337716082044
  0
LINE
  8
_0-e_極細4
  6
CONTINUOUS
 62
    6
 10
531.79928863062696
 20
470.67202973136375
 11
537.615619018085
 21
476.48836011882253
  0
LINE
  8
_0-e_極細4
  6
CONTINUOUS
 62
    6
 10
487.06995902437029
 20
430.18534081222668
 11
492.29381494325844
 21
435.40919673111483
  0
LINE
  8
_0-e_極細4
  6
CONTINUOUS
 62
    6
 10
511.60205943288975
 20
454.71744122074568
 11
516.60205943288975
 21
459.71744122074568
  0
LINE
  8
_0-e_極細4
  6
CONTINUOUS
 62
    6
 10
532.61561901808591
 20
475.73100080594179
 11
537.615619018085
 21
480.73100080594156
  0
LINE
  8
_0-e_極細4
  6
CONTINUOUS
 62
    6
 10
487.0056765897175
 20
434.36369906469315
 11
492.36572410744657
 21
439.72374658242245
  0
LINE
  8
_0-e_極細4
  6
CONTINUOUS
 62
    6
 10
507.3594187457702
 20
454.71744122074568
 11
512.35941874576974
 21
459.71744122074568
  0
LINE
  8
_0-e_極細4
  6
CONTINUOUS
 62
    6
 10
532.61561901808591
 20
479.97364149306094
 11
537.615619018085
 21
484.97364149306094
  0
LINE
  8
_0-e_極細4
  6
CONTINUOUS
 62
    6
 10
486.94139415506334
 20
438.54205731715899
 11
492.43763327163515
 21
444.03829643373012
  0
LINE
  8
_0-e_極細4
  6
CONTINUOUS
 62
    6
 10
503.11677805865065
 20
454.71744122074568
 11
508.11677805865065
 21
459.71744122074568
  0
LINE
  8
_0-e_極細4
  6
CONTINUOUS
 62
    6
 10
532.61561901808591
 20
484.21628218018071
 11
537.615619018085
 21
489.21628218017997
  0
LINE
  8
_0-e_極細4
  6
CONTINUOUS
 62
    6
 10
486.87711172041008
 20
442.72041556962483
 11
492.50954243582373
 21
448.35284628503786
  0
LINE
  8
_0-e_極細4
  6
CONTINUOUS
 62
    6
 10
498.87413737153156
 20
454.71744122074568
 11
503.87413737153156
 21
459.71744122074631
  0
LINE
  8
_0-e_極細4
  6
CONTINUOUS
 62
    6
 10
532.61561901808591
 20
488.45892286729975
 11
537.615619018085
 21
493.45892286729975
  0
LINE
  8
_0-e_極細4
  6
CONTINUOUS
 62
    6
 10
486.81282928575683
 20
446.89877382209067
 11
492.58145160001231
 21
452.66739613634621
  0
LINE
  8
_0-e_極細4
  6
CONTINUOUS
 62
    6
 10
494.63149668441247
 20
454.71744122074568
 11
499.63149668441156
 21
459.71744122074631
  0
LINE
  8
_0-e_極細4
  6
CONTINUOUS
 62
    6
 10
532.61561901808591
 20
492.70156355441912
 11
537.615619018085
 21
497.70156355441884
  0
LINE
  8
_0-e_極細4
  6
CONTINUOUS
 62
    6
 10
486.74854685110358
 20
451.07713207455674
 11
495.38885599729338
 21
459.71744122074568
  0
LINE
  8
_0-e_極細4
  6
CONTINUOUS
 62
    6
 10
532.61561901808591
 20
496.94420424153816
 11
537.615619018085
 21
501.94420424153816
  0
LINE
  8
_0-e_極細4
  6
CONTINUOUS
 62
    6
 10
486.68426441645079
 20
455.25549032702259
 11
491.14621531017383
 21
459.71744122074631
  0
LINE
  8
_0-e_極細4
  6
CONTINUOUS
 62
    6
 10
532.61561901808591
 20
501.18684492865793
 11
537.615619018085
 21
506.18684492865725
  0
LINE
  8
_0-e_極細4
  6
CONTINUOUS
 62
    6
 10
486.61998198179708
 20
459.43384857948843
 11
486.90357462305428
 21
459.71744122074631
  0
LINE
  8
_0-e_極細4
  6
CONTINUOUS
 62
    6
 10
532.61561901808591
 20
505.42948561577703
 11
537.615619018085
 21
510.42948561577703
  0
LINE
  8
_0-e_極細4
  6
CONTINUOUS
 62
    6
 10
532.61561901808591
 20
509.67212630289634
 11
537.615619018085
 21
514.672126302896
  0
LINE
  8
_0-e_極細4
  6
CONTINUOUS
 62
    6
 10
532.61561901808591
 20
513.91476699001544
 11
537.615619018085
 21
518.91476699001521
  0
LINE
  8
_0-e_極細4
  6
CONTINUOUS
 62
    6
 10
532.61561901808591
 20
518.15740767713498
 11
537.615619018085
 21
523.15740767713453
  0
LINE
  8
_0-e_極細4
  6
CONTINUOUS
 62
    6
 10
532.61561901808591
 20
522.40004836425419
 11
537.615619018085
 21
527.40004836425362
  0
LINE
  8
_0-e_極細4
  6
CONTINUOUS
 62
    6
 10
532.61561901808591
 20
526.6426890513734
 11
537.615619018085
 21
531.64268905137317
  0
LINE
  8
_0-e_極細4
  6
CONTINUOUS
 62
    6
 10
532.61561901808591
 20
530.88532973849226
 11
537.615619018085
 21
535.8853297384926
  0
LINE
  8
_0-e_極細4
  6
CONTINUOUS
 62
    6
 10
532.61561901808591
 20
535.12797042561181
 11
537.615619018085
 21
540.12797042561158
  0
LINE
  8
_0-e_極細4
  6
CONTINUOUS
 62
    6
 10
532.61561901808591
 20
539.37061111273101
 11
537.615619018085
 21
544.37061111273101
  0
LINE
  8
_0-e_極細4
  6
CONTINUOUS
 62
    6
 10
532.61561901808591
 20
543.61325179984999
 11
537.615619018085
 21
548.61325179985045
  0
LINE
  8
_0-e_極細4
  6
CONTINUOUS
 62
    6
 10
532.61561901808591
 20
547.85589248696954
 11
537.615619018085
 21
552.85589248696976
  0
LINE
  8
_0-e_極細4
  6
CONTINUOUS
 62
    6
 10
532.61561901808591
 20
552.09853317408886
 11
537.615619018085
 21
557.0985331740892
  0
LINE
  8
_0-e_極細4
  6
CONTINUOUS
 62
    6
 10
532.61561901808591
 20
556.34117386120795
 11
537.615619018085
 21
561.34117386120818
  0
LINE
  8
_0-e_極細4
  6
CONTINUOUS
 62
    6
 10
532.61561901808591
 20
560.58381454832727
 11
537.615619018085
 21
565.58381454832727
  0
LINE
  8
_0-e_極細4
  6
CONTINUOUS
 62
    6
 10
532.61561901808591
 20
564.82645523544682
 11
537.615619018085
 21
569.82645523544704
  0
LINE
  8
_0-e_極細4
  6
CONTINUOUS
 62
    6
 10
532.61561901808591
 20
569.06909592256613
 11
537.615619018085
 21
574.06909592256613
  0
LINE
  8
_0-e_極細4
  6
CONTINUOUS
 62
    6
 10
532.61561901808591
 20
573.31173660968545
 11
537.615619018085
 21
578.31173660968523
  0
LINE
  8
_0-e_極細4
  6
CONTINUOUS
 62
    6
 10
532.61561901808591
 20
577.55437729680455
 11
537.615619018085
 21
582.55437729680443
  0
LINE
  8
_0-e_極細4
  6
CONTINUOUS
 62
    6
 10
532.61561901808591
 20
581.79701798392421
 11
537.615619018085
 21
586.79701798392364
  0
LINE
  8
_0-e_極細4
  6
CONTINUOUS
 62
    6
 10
532.61561901808591
 20
586.03965867104341
 11
537.615619018085
 21
591.03965867104318
  0
LINE
  8
_0-e_極細4
  6
CONTINUOUS
 62
    6
 10
532.61561901808591
 20
590.28229935816262
 11
537.615619018085
 21
595.28229935816262
  0
LINE
  8
_0-e_極細4
  6
CONTINUOUS
 62
    6
 10
532.61561901808591
 20
594.52494004528182
 11
537.615619018085
 21
599.52494004528182
  0
LINE
  8
_0-e_極細4
  6
CONTINUOUS
 62
    6
 10
532.61561901808591
 20
598.76758073240103
 11
537.615619018085
 21
603.76758073240103
  0
LINE
  8
_0-e_極細4
  6
CONTINUOUS
 62
    6
 10
532.61561901808591
 20
603.0102214195208
 11
537.615619018085
 21
608.01022141952001
  0
LINE
  8
_0-e_極細4
  6
CONTINUOUS
 62
    6
 10
532.61561901808591
 20
607.25286210663955
 11
537.615619018085
 21
612.25286210663978
  0
LINE
  8
_0-e_極細4
  6
CONTINUOUS
 62
    6
 10
532.61561901808591
 20
611.49550279375887
 11
537.615619018085
 21
616.49550279375887
  0
LINE
  8
_0-e_極細4
  6
CONTINUOUS
 62
    6
 10
532.61561901808591
 20
615.73814348087819
 11
537.8991780170104
 21
621.02170247980246
  0
LINE
  8
_0-e_極細4
  6
CONTINUOUS
 62
    6
 10
532.61561901808591
 20
619.98078416799729
 11
542.61561901808591
 21
629.98078416799729
  0
LINE
  8
_0-e_極細4
  6
CONTINUOUS
 62
    6
 10
532.61561901808591
 20
624.22342485511638
 11
542.61561901808591
 21
634.22342485511706
  0
LINE
  8
_0-e_極細4
  6
CONTINUOUS
 62
    6
 10
532.61561901808591
 20
628.46606554223615
 11
535.86702813660258
 21
631.71747466075306
  0
LINE
  8
_0-e_極細4
  6
CONTINUOUS
 62
    6
 10
536.11506354914627
 20
631.96551007329651
 11
542.61561901808591
 21
638.46606554223615
  0
LINE
  8
_0-e_極細4
  6
CONTINUOUS
 62
    6
 10
547.46702813660295
 20
643.31747466075331
 11
550.41561901808609
 21
646.26606554223611
  0
LINE
  8
_0-e_極細4
  6
CONTINUOUS
 62
    6
 10
533.61561901808591
 20
633.70870622935524
 11
542.61561901808591
 21
642.70870622935536
  0
LINE
  8
_0-e_極細4
  6
CONTINUOUS
 62
    6
 10
543.22438744948386
 20
643.31747466075331
 11
550.41561901808609
 21
650.50870622935554
  0
LINE
  8
_0-e_極細4
  6
CONTINUOUS
 62
    6
 10
533.61561901808591
 20
637.95134691647468
 11
550.41561901808609
 21
654.75134691647452
  0
LINE
  8
_0-e_極細4
  6
CONTINUOUS
 62
    6
 10
536.57361901808554
 20
645.15198760359397
 11
550.41561901808609
 21
658.99398760359395
  0
LINE
  8
_0-e_極細4
  6
CONTINUOUS
 62
    6
 10
536.57361901808554
 20
649.39462829071329
 11
550.41561901808609
 21
663.23662829071338
  0
LINE
  8
_0-e_極細4
  6
CONTINUOUS
 62
    6
 10
536.57361901808554
 20
653.63726897783238
 11
550.41561901808609
 21
667.4792689778327
  0
LINE
  8
_0-e_極細4
  6
CONTINUOUS
 62
    6
 10
536.57361901808554
 20
657.87990966495204
 11
549.95832533011753
 21
671.26461597698312
  0
LINE
  8
_0-e_極細4
  6
CONTINUOUS
 62
    6
 10
536.57361901808554
 20
662.12255035207124
 11
545.1611816941836
 21
670.71011302816817
  0
LINE
  8
_0-e_極細4
  6
CONTINUOUS
 62
    6
 10
536.57361901808554
 20
666.36519103919045
 11
540.36403805824875
 21
670.15561007935332
  0
LINE
  8
_0-e_極細4
  6
CENTER2
 62
    6
 10
436.61561901808545
 20
698.22990263198733
 11
436.61561901808545
 21
372.5743839520859
  0
LINE
  8
_0-e_極細4
  6
CONTINUOUS
 62
    6
 10
322.81561901808595
 20
676.10311669009366
 11
550.41561901808609
 21
676.10311669009366
  0
LINE
  8
_0-e_極細4
  6
CONTINUOUS
 62
    6
 10
550.41561901808609
 20
674.71747466075317
 11
550.41561901808609
 21
676.10311669009366
  0
LINE
  8
_0-e_極細4
  6
CONTINUOUS
 62
    6
 10
490.61561901808545
 20
631.71747466075306
 11
536.57361901808554
 21
631.71747466075306
  0
LINE
  8
_0-e_極細4
  6
CONTINUOUS
 62
    6
 10
513.11561901808545
 20
621.31747466075331
 11
490.61561901808545
 21
621.31747466075331
  0
LINE
  8
_0-e_極細4
  6
CONTINUOUS
 62
    6
 10
536.57361901808554
 20
674.13160266075329
 11
550.41561901808609
 21
676.10311669009366
  0
LINE
  8
_0-e_極細4
  6
CONTINUOUS
 62
    6
 10
490.61561901808545
 20
631.12614666075331
 11
490.61561901808545
 21
634.08165266075355
  0
LINE
  8
_0-e_極細4
  6
CONTINUOUS
 62
    6
 10
490.61561901808545
 20
633.31747466075319
 11
533.61561901808591
 21
633.31747466075319
  0
LINE
  8
_0-e_極細4
  6
CONTINUOUS
 62
    6
 10
523.61561901808591
 20
660.33316066075315
 11
523.61561901808591
 21
662.13160266075317
  0
LINE
  8
_0-e_極細4
  6
CONTINUOUS
 62
    6
 10
523.61561901808591
 20
660.33316066075315
 11
436.61561901808545
 21
660.33316066075315
  0
LINE
  8
_0-e_極細4
  6
CONTINUOUS
 62
    6
 10
523.61561901808591
 20
651.13316066075311
 11
436.61561901808545
 21
651.13316066075345
  0
LINE
  8
_0-e_極細4
  6
CONTINUOUS
 62
    6
 10
523.61561901808591
 20
648.13316066075322
 11
523.61561901808591
 21
651.13316066075311
  0
LINE
  8
_0-e_極細4
  6
CONTINUOUS
 62
    6
 10
516.11561901808591
 20
656.9438226607532
 11
516.11561901808591
 21
654.34382266075329
  0
LINE
  8
_0-e_極細4
  6
CONTINUOUS
 62
    6
 10
516.11561901808591
 20
652.34382266075283
 11
516.11561901808591
 21
651.3438226607534
  0
LINE
  8
_0-e_極細4
  6
CONTINUOUS
 62
    6
 10
523.31561901808573
 20
656.9438226607532
 11
523.31561901808573
 21
651.3438226607534
  0
LINE
  8
_0-e_極細4
  6
CONTINUOUS
 62
    6
 10
436.61561901808545
 20
651.3438226607534
 11
523.31561901808573
 21
651.3438226607534
  0
LINE
  8
_0-e_極細4
  6
CONTINUOUS
 62
    6
 10
436.61561901808545
 20
653.3438226607534
 11
515.115619018085
 21
653.3438226607534
  0
LINE
  8
_0-e_極細4
  6
CONTINUOUS
 62
    6
 10
436.61561901808545
 20
657.9438226607532
 11
515.115619018085
 21
657.9438226607532
  0
LINE
  8
_0-e_極細4
  6
CONTINUOUS
 62
    6
 10
515.115619018085
 20
657.9438226607532
 11
516.11561901808591
 21
658.94382266075331
  0
LINE
  8
_0-e_極細4
  6
CONTINUOUS
 62
    6
 10
516.11561901808591
 20
656.9438226607532
 11
515.115619018085
 21
657.9438226607532
  0
LINE
  8
_0-e_極細4
  6
CONTINUOUS
 62
    6
 10
516.11561901808591
 20
652.34382266075283
 11
515.115619018085
 21
653.3438226607534
  0
LINE
  8
_0-e_極細4
  6
CONTINUOUS
 62
    6
 10
515.115619018085
 20
653.3438226607534
 11
516.11561901808591
 21
654.34382266075329
  0
LINE
  8
_0-e_極細4
  6
CONTINUOUS
 62
    6
 10
523.31561901808573
 20
656.9438226607532
 11
524.91561901808609
 21
659.94382266075309
  0
LINE
  8
_0-e_極細4
  6
CONTINUOUS
 62
    6
 10
516.11561901808591
 20
659.94382266075309
 11
516.11561901808591
 21
658.94382266075331
  0
LINE
  8
_0-e_極細4
  6
CONTINUOUS
 62
    6
 10
436.61561901808545
 20
659.9438226607532
 11
524.91561901808609
 21
659.94382266075309
  0
LINE
  8
_0-e_極細4
  6
CONTINUOUS
 62
    6
 10
437.01561901808577
 20
662.13160266075352
 11
524.21561901808536
 21
662.13160266075317
  0
LINE
  8
_0-e_極細4
  6
CONTINUOUS
 62
    6
 10
437.01561901808577
 20
664.1316026607534
 11
523.01561901808554
 21
664.13160266075329
  0
ARC
  8
_0-e_極細4
  6
CONTINUOUS
 62
    6
 10
528.51561901808554
 20
672.13160266075352
 40
1
 50
24.05454900000543
 51
89.999999999999901
  0
ARC
  8
_0-e_極細4
  6
CONTINUOUS
 62
    6
 10
529.11561901808591
 20
669.53160266075304
 40
0.3999999999999773
 50
269.99999999999977
 51
359.99999999999966
  0
ARC
  8
_0-e_極細4
  6
CONTINUOUS
 62
    6
 10
528.51561901808554
 20
672.13160266075352
 40
1
 50
0
 51
24.05454900000543
  0
LINE
  8
_0-e_極細4
  6
CONTINUOUS
 62
    6
 10
525.21561901808536
 20
663.1316026607534
 11
525.21561901808536
 21
669.1316026607534
  0
LINE
  8
_0-e_極細4
  6
CONTINUOUS
 62
    6
 10
525.21561901808536
 20
669.1316026607534
 11
529.11561901808591
 21
669.1316026607534
  0
LINE
  8
_0-e_極細4
  6
CONTINUOUS
 62
    6
 10
436.61561901808545
 20
673.1316026607534
 11
528.51561901808554
 21
673.13160266075317
  0
LINE
  8
_0-e_極細4
  6
CONTINUOUS
 62
    6
 10
529.51561901808554
 20
669.53160266075304
 11
529.51561901808554
 21
672.13160266075352
  0
LINE
  8
_0-e_極細4
  6
CONTINUOUS
 62
    6
 10
506.18824501808604
 20
635.73160266075354
 11
506.18824501808604
 21
639.13160266075329
  0
LINE
  8
_0-e_極細4
  6
CONTINUOUS
 62
    6
 10
496.18824501808604
 20
635.73160266075354
 11
496.18824501808604
 21
639.13160266075329
  0
LINE
  8
_0-e_極細4
  6
CONTINUOUS
 62
    6
 10
496.18824501808604
 20
635.73160266075354
 11
506.18824501808604
 21
635.73160266075354
  0
LINE
  8
_0-e_極細4
  6
CONTINUOUS
 62
    6
 10
522.615619018085
 20
639.13160266075329
 11
533.61561901808591
 21
639.13160266075329
  0
LINE
  8
_0-e_極細4
  6
CONTINUOUS
 62
    6
 10
520.95525101808607
 20
635.13160266075317
 11
522.615619018085
 21
635.13160266075317
  0
LINE
  8
_0-e_極細4
  6
CONTINUOUS
 62
    6
 10
522.615619018085
 20
644.53160266075304
 11
525.21561901808536
 21
644.53160266075304
  0
LINE
  8
_0-e_極細4
  6
CONTINUOUS
 62
    6
 10
522.615619018085
 20
643.13160266075317
 11
526.61561901808591
 21
643.13160266075317
  0
LINE
  8
_0-e_極細4
  6
CONTINUOUS
 62
    6
 10
522.615619018085
 20
635.13160266075317
 11
522.615619018085
 21
647.13160266075317
  0
LINE
  8
_0-e_極細4
  6
CONTINUOUS
 62
    6
 10
536.57361901808554
 20
642.08960266075314
 11
533.61561901808591
 21
639.13160266075329
  0
LINE
  8
_0-e_極細4
  6
CONTINUOUS
 62
    6
 10
526.61561901808591
 20
643.13160266075317
 11
526.61561901808591
 21
665.63160266075317
  0
ARC
  8
_0-e_極細4
  6
CONTINUOUS
 62
    6
 10
528.71561901808536
 20
665.63160266075317
 40
2.1000000000000227
 50
89.999999999999915
 51
179.99999999999983
  0
LINE
  8
_0-e_極細4
  6
CONTINUOUS
 62
    6
 10
531.09806701808566
 20
667.73160266075342
 11
528.71561901808536
 21
667.73160266075342
  0
ARC
  8
_0-e_極細4
  6
CONTINUOUS
 62
    6
 10
531.09806701808566
 20
671.13160266075329
 40
3.3999999999999773
 50
269.99999999999977
 51
356.64911199999671
  0
ARC
  8
_0-e_極細4
  6
CONTINUOUS
 62
    6
 10
531.09806701808566
 20
671.13160266075329
 40
2
 50
269.99999999999977
 51
356.6491119999996
  0
ARC
  8
_0-e_極細4
  6
CONTINUOUS
 62
    6
 10
536.57361901808554
 20
670.6316026607534
 40
3.4999999999999991
 50
89.999999999999915
 51
175.84901000000218
  0
ARC
  8
_0-e_極細4
  6
CONTINUOUS
 62
    6
 10
528.71561901808536
 20
665.63160266075317
 40
3.4999999999999991
 50
89.999999999999915
 51
179.99999999999983
  0
LINE
  8
_0-e_極細4
  6
CONTINUOUS
 62
    6
 10
529.61561901808591
 20
669.1316026607534
 11
529.61561901808591
 21
674.13160266075329
  0
LINE
  8
_0-e_極細4
  6
CONTINUOUS
 62
    6
 10
525.21561901808536
 20
644.53160266075304
 11
525.21561901808536
 21
665.63160266075317
  0
LINE
  8
_0-e_極細4
  6
CONTINUOUS
 62
    6
 10
531.09806701808566
 20
669.1316026607534
 11
528.71561901808536
 21
669.1316026607534
  0
LINE
  8
_0-e_極細4
  6
CONTINUOUS
 62
    6
 10
517.115619018085
 20
647.13160266075317
 11
525.21561901808536
 21
647.13160266075317
  0
LINE
  8
_0-e_極細4
  6
CONTINUOUS
 62
    6
 10
436.61561901808545
 20
674.1316026607534
 11
536.57361901808554
 21
674.13160266075329
  0
ARC
  8
_0-e_極細4
  6
CONTINUOUS
 62
    6
 10
513.11561901808545
 20
619.31747466075342
 40
2
 50
89.999999999999915
 51
179.99999999999983
  0
ARC
  8
_0-e_極細4
  6
CONTINUOUS
 62
    6
 10
513.11561901808545
 20
619.31747466075342
 40
2
 50
0
 51
89.999999999999915
  0
LINE
  8
_0-e_極細4
  6
CONTINUOUS
 62
    6
 10
550.41561901808609
 20
671.31747466075331
 11
536.57361901808554
 21
669.71747466075317
  0
LINE
  8
_0-e_極細4
  6
CONTINUOUS
 62
    6
 10
536.57361901808554
 20
631.71747466075306
 11
533.61561901808591
 21
633.31747466075319
  0
LINE
  8
_0-e_極細4
  6
CONTINUOUS
 62
    6
 10
533.61561901808591
 20
633.31747466075319
 11
533.61561901808591
 21
639.13160266075329
  0
LINE
  8
_0-e_極細4
  6
CONTINUOUS
 62
    6
 10
550.41561901808609
 20
644.42795666075358
 11
550.41561901808609
 21
676.07463066075309
  0
LINE
  8
_0-e_極細4
  6
CONTINUOUS
 62
    6
 10
542.61561901808591
 20
643.31747466075331
 11
550.41561901808609
 21
643.31747466075331
  0
LINE
  8
_0-e_極細4
  6
CONTINUOUS
 62
    6
 10
550.41561901808609
 20
643.31747466075331
 11
550.41561901808609
 21
644.42795666075358
  0
ARC
  8
_0-e_極細4
  6
CONTINUOUS
 62
    6
 10
547.61561901808591
 20
618.65722066075307
 40
10
 50
119.99999999999956
 51
179.99999999999983
  0
LINE
  8
_0-e_極細4
  6
CONTINUOUS
 62
    6
 10
542.61561901808591
 20
627.31747466075319
 11
542.61561901808591
 21
643.31747466075331
  0
LINE
  8
_0-e_極細4
  6
CONTINUOUS
 62
    6
 10
536.57361901808554
 20
672.71747356825176
 11
550.41561901808609
 21
674.6889886607529
  0
LINE
  8
_0-e_極細4
  6
CONTINUOUS
 62
    6
 10
536.57361901808554
 20
642.08960266075314
 11
536.57361901808554
 21
672.73160266075354
  0
ARC
  8
_0-e_極細4
  6
CONTINUOUS
 62
    6
 10
536.57361901808554
 20
670.6316026607534
 40
2.1000000000000227
 50
89.999999999999915
 51
175.84901000000141
  0
LINE
  8
_0-e_極細4
  6
CONTINUOUS
 62
    6
 10
517.61561901808591
 20
633.33316066075383
 11
511.61561901808545
 21
633.33316066075383
  0
ARC
  8
_0-e_極細4
  6
CONTINUOUS
 62
    6
 10
517.61561901808591
 20
637.33316066075315
 40
4
 50
269.99999999999977
 51
359.99999999999966
  0
LINE
  8
_0-e_極細4
  6
CONTINUOUS
 62
    6
 10
521.61561901808591
 20
637.33316066075315
 11
521.61561901808591
 21
639.33316066075326
  0
LINE
  8
_0-e_極細4
  6
CONTINUOUS
 62
    6
 10
521.61561901808591
 20
639.33316066075326
 11
517.115619018085
 21
639.33316066075326
  0
LINE
  8
_0-e_極細4
  6
CONTINUOUS
 62
    6
 10
523.61561901808591
 20
648.13316066075322
 11
517.115619018085
 21
648.13316066075322
  0
LINE
  8
_0-e_極細4
  6
CONTINUOUS
 62
    6
 10
517.115619018085
 20
639.33316066075326
 11
517.115619018085
 21
648.13316066075333
  0
LINE
  8
_0-e_極細4
  6
CONTINUOUS
 62
    6
 10
517.115619018085
 20
648.13316066075333
 11
436.61561901808545
 21
648.13316066075333
  0
ARC
  8
_0-e_極細4
  6
CONTINUOUS
 62
    6
 10
491.115619018085
 20
503.71744122074568
 40
20
 50
269.99999999999977
 51
359.99999999999966
  0
LINE
  8
_0-e_極細4
  6
CONTINUOUS
 62
    6
 10
436.61561901808545
 20
483.71744122074568
 11
491.115619018085
 21
483.71744122074568
  0
LINE
  8
_0-e_極細4
  6
CONTINUOUS
 62
    6
 10
511.115619018085
 20
503.71744122074568
 11
511.115619018085
 21
619.31747466075342
  0
LINE
  8
_0-e_極細4
  6
CONTINUOUS
 62
    6
 10
515.115619018085
 20
503.71744122074568
 11
515.115619018085
 21
619.31747466075342
  0
LINE
  8
_0-e_極細4
  6
CONTINUOUS
 62
    6
 10
438.47768701808559
 20
479.71744122074568
 11
491.115619018085
 21
479.71744122074568
  0
LINE
  8
_0-e_極細4
  6
CONTINUOUS
 62
    6
 10
436.61561901808545
 20
479.71744122074568
 11
438.47768701808559
 21
479.71744122074568
  0
LINE
  8
_0-e_極細4
  6
CONTINUOUS
 62
    6
 10
513.115619018085
 20
404.71744122074568
 11
512.615619018085
 21
454.71744122074568
  0
LINE
  8
_0-e_極細4
  6
CONTINUOUS
 62
    6
 10
532.61561901808591
 20
577.56057522074548
 11
532.61561901808591
 21
631.71747466075306
  0
ARC
  8
_0-e_極細4
  6
CONTINUOUS
 62
    6
 10
530.61561901808591
 20
577.56057522074548
 40
2
 50
277.18075599997752
 51
359.99999999999966
  0
ARC
  8
_0-e_極細4
  6
CONTINUOUS
 62
    6
 10
491.115619018085
 20
503.71744122074568
 40
24.000000000000004
 50
269.99999999999977
 51
359.99999999999966
  0
LINE
  8
_0-e_極細4
  6
CONTINUOUS
 62
    6
 10
486.615619018085
 20
459.71744122074568
 11
486.615619018085
 21
479.71744122074568
  0
LINE
  8
_0-e_極細4
  6
CONTINUOUS
 62
    6
 10
491.115619018085
 20
479.71744122074568
 11
486.615619018085
 21
479.71744122074568
  0
LINE
  8
_0-e_極細4
  6
CONTINUOUS
 62
    6
 10
515.115619018085
 20
503.71744122074568
 11
515.115619018085
 21
557.7174412207454
  0
LINE
  8
_0-e_極細4
  6
CONTINUOUS
 62
    6
 10
486.61877701808544
 20
459.51209522074589
 11
486.615619018085
 21
459.71744122074568
  0
LINE
  8
_0-e_極細4
  6
CONTINUOUS
 62
    6
 10
486.615619018085
 20
459.71744122074568
 11
436.61561901808545
 21
459.71744122074631
  0
ARC
  8
_0-e_極細4
  6
CONTINUOUS
 62
    6
 10
516.615619018085
 20
475.71744122074563
 40
16
 50
269.99999999999977
 51
359.99999999999966
  0
LINE
  8
_0-e_極細4
  6
CONTINUOUS
 62
    6
 10
492.615619018085
 20
454.71744122074568
 11
512.615619018085
 21
454.71744122074568
  0
LINE
  8
_0-e_極細4
  6
CONTINUOUS
 62
    6
 10
487.61561901808545
 20
394.71744122074568
 11
486.615619018085
 21
459.71744122074568
  0
LINE
  8
_0-e_極細4
  6
CONTINUOUS
 62
    6
 10
532.61561901808591
 20
475.71744122074563
 11
532.61561901808591
 21
577.56057522074548
  0
LINE
  8
_0-e_極細4
  6
CONTINUOUS
 62
    6
 10
516.615619018085
 20
459.71744122074568
 11
486.615619018085
 21
459.71744122074568
  0
LINE
  8
_0-e_極細4
  6
CONTINUOUS
 62
    6
 10
491.78228568475197
 20
404.71744122074568
 11
492.615619018085
 21
454.71744122074568
  0
ARC
  8
_0-e_極細4
  6
CONTINUOUS
 62
    6
 10
521.61561901808591
 20
470.71744122074563
 40
16
 50
269.99999999999636
 51
359.99999999999966
  0
LINE
  8
_0-e_極細4
  6
CONTINUOUS
 62
    6
 10
537.615619018085
 20
470.71744122074563
 11
537.615619018085
 21
618.65722066075307
  0
LINE
  8
_0-e_極細4
  6
CONTINUOUS
 62
    6
 10
518.81561901808573
 20
404.71744122074568
 11
519.615619018085
 21
454.71744122074568
  0
LINE
  8
_0-e_極細4
  6
CONTINUOUS
 62
    6
 10
491.78228501808508
 20
404.71744122074568
 11
518.81561901808573
 21
404.71744122074568
  0
LINE
  8
_0-e_極細4
  6
CONTINUOUS
 62
    6
 10
488.615619018085
 20
514.13312722074568
 11
436.61561901808545
 21
514.13312722074568
  0
ARC
  8
_0-e_極細4
  6
CONTINUOUS
 62
    6
 10
488.615619018085
 20
516.13312722074568
 40
2
 50
269.99954163376634
 51
359.99999999999966
  0
LINE
  8
_0-e_極細4
  6
CONTINUOUS
 62
    6
 10
490.61561901808545
 20
516.13312722074568
 11
490.61561901808545
 21
634.08165266075355
  0
LINE
  8
_0-e_極細4
  6
CONTINUOUS
 62
    6
 10
530.86561902565381
 20
575.57626173840083
 11
515.115619018085
 21
575.57626173840083
  0
LINE
  8
_0-e_極細4
  6
CONTINUOUS
 62
    6
 10
519.615619018085
 20
454.71744122074568
 11
521.615619018085
 21
454.71744122074568
  0
LINE
  8
_0-e_極細4
  6
CONTINUOUS
 62
    6
 10
436.61561901808523
 20
394.71744122074568
 11
491.615619018085
 21
394.71744122074568
  0
LINE
  8
_0-e_極細4
  6
CONTINUOUS
 62
    6
 10
491.615619018085
 20
394.71744122074568
 11
491.78228568475197
 21
404.71744122074568
  0
LINE
  8
_0-e_極細4
  6
CONTINUOUS
 62
    6
 10
322.81561901808595
 20
674.71747466075317
 11
322.81561901808595
 21
676.10311669009366
  0
LINE
  8
_0-e_極細4
  6
CONTINUOUS
 62
    6
 10
382.61561901808614
 20
631.71747466075306
 11
336.65761901808582
 21
631.71747466075306
  0
LINE
  8
_0-e_極細4
  6
CONTINUOUS
 62
    6
 10
360.11561901808614
 20
621.31747466075331
 11
382.61561901808614
 21
621.31747466075331
  0
LINE
  8
_0-e_極細4
  6
CONTINUOUS
 62
    6
 10
336.65761901808582
 20
674.13160266075329
 11
322.81561901808595
 21
676.10311669009366
  0
LINE
  8
_0-e_極細4
  6
CONTINUOUS
 62
    6
 10
382.61561901808614
 20
631.12614666075331
 11
382.61561901808614
 21
634.08165266075355
  0
LINE
  8
_0-e_極細4
  6
CONTINUOUS
 62
    6
 10
382.61561901808614
 20
633.31747466075319
 11
339.61561901808614
 21
633.31747466075319
  0
LINE
  8
_0-e_極細4
  6
CONTINUOUS
 62
    6
 10
349.61561901808614
 20
660.33316066075315
 11
349.61561901808614
 21
662.13160266075317
  0
LINE
  8
_0-e_極細4
  6
CONTINUOUS
 62
    6
 10
349.61561901808614
 20
660.33316066075315
 11
436.61561901808614
 21
660.33316066075315
  0
LINE
  8
_0-e_極細4
  6
CONTINUOUS
 62
    6
 10
349.61561901808614
 20
651.13316066075311
 11
436.61561901808614
 21
651.13316066075345
  0
LINE
  8
_0-e_極細4
  6
CONTINUOUS
 62
    6
 10
349.61561901808614
 20
648.13316066075322
 11
349.61561901808614
 21
651.13316066075311
  0
LINE
  8
_0-e_極細4
  6
CONTINUOUS
 62
    6
 10
357.11561901808614
 20
656.9438226607532
 11
357.11561901808614
 21
654.34382266075329
  0
LINE
  8
_0-e_極細4
  6
CONTINUOUS
 62
    6
 10
357.11561901808614
 20
652.34382266075283
 11
357.11561901808614
 21
651.3438226607534
  0
LINE
  8
_0-e_極細4
  6
CONTINUOUS
 62
    6
 10
349.91561901808564
 20
656.9438226607532
 11
349.91561901808564
 21
651.3438226607534
  0
LINE
  8
_0-e_極細4
  6
CONTINUOUS
 62
    6
 10
436.61561901808614
 20
651.3438226607534
 11
349.91561901808564
 21
651.3438226607534
  0
LINE
  8
_0-e_極細4
  6
CONTINUOUS
 62
    6
 10
436.61561901808614
 20
653.3438226607534
 11
358.11561901808614
 21
653.3438226607534
  0
LINE
  8
_0-e_極細4
  6
CONTINUOUS
 62
    6
 10
436.61561901808614
 20
657.9438226607532
 11
358.11561901808614
 21
657.9438226607532
  0
LINE
  8
_0-e_極細4
  6
CONTINUOUS
 62
    6
 10
358.11561901808614
 20
657.9438226607532
 11
357.11561901808614
 21
658.94382266075331
  0
LINE
  8
_0-e_極細4
  6
CONTINUOUS
 62
    6
 10
357.11561901808614
 20
656.9438226607532
 11
358.11561901808614
 21
657.9438226607532
  0
LINE
  8
_0-e_極細4
  6
CONTINUOUS
 62
    6
 10
357.11561901808614
 20
652.34382266075283
 11
358.11561901808614
 21
653.3438226607534
  0
LINE
  8
_0-e_極細4
  6
CONTINUOUS
 62
    6
 10
358.11561901808614
 20
653.3438226607534
 11
357.11561901808614
 21
654.34382266075329
  0
LINE
  8
_0-e_極細4
  6
CONTINUOUS
 62
    6
 10
349.91561901808564
 20
656.9438226607532
 11
348.31561901808595
 21
659.94382266075309
  0
LINE
  8
_0-e_極細4
  6
CONTINUOUS
 62
    6
 10
357.11561901808614
 20
659.94382266075309
 11
357.11561901808614
 21
658.94382266075331
  0
LINE
  8
_0-e_極細4
  6
CONTINUOUS
 62
    6
 10
436.61561901808614
 20
659.9438226607532
 11
348.31561901808595
 21
659.94382266075309
  0
LINE
  8
_0-e_極細4
  6
CONTINUOUS
 62
    6
 10
436.21561901808582
 20
662.13160266075352
 11
349.015619018086
 21
662.13160266075317
  0
LINE
  8
_0-e_極細4
  6
CONTINUOUS
 62
    6
 10
436.21561901808582
 20
664.1316026607534
 11
350.21561901808582
 21
664.13160266075329
  0
ARC
  8
_0-e_極細4
  6
CONTINUOUS
 62
    6
 10
344.71561901808582
 20
672.13160266075352
 40
1
 50
89.999999999999915
 51
155.94545099999456
  0
ARC
  8
_0-e_極細4
  6
CONTINUOUS
 62
    6
 10
344.11561901808545
 20
669.53160266075304
 40
0.3999999999999773
 50
179.99999999999983
 51
269.99999999999977
  0
ARC
  8
_0-e_極細4
  6
CONTINUOUS
 62
    6
 10
344.71561901808582
 20
672.13160266075352
 40
1
 50
155.94545099999456
 51
179.99999999999983
  0
LINE
  8
_0-e_極細4
  6
CONTINUOUS
 62
    6
 10
348.015619018086
 20
663.1316026607534
 11
348.01561901808577
 21
669.1316026607534
  0
LINE
  8
_0-e_極細4
  6
CONTINUOUS
 62
    6
 10
348.01561901808577
 20
669.1316026607534
 11
344.11561901808545
 21
669.1316026607534
  0
LINE
  8
_0-e_極細4
  6
CONTINUOUS
 62
    6
 10
436.61561901808545
 20
673.1316026607534
 11
344.71561901808582
 21
673.13160266075317
  0
LINE
  8
_0-e_極細4
  6
CONTINUOUS
 62
    6
 10
343.71561901808582
 20
669.53160266075304
 11
343.71561901808582
 21
672.13160266075352
  0
LINE
  8
_0-e_極細4
  6
CONTINUOUS
 62
    6
 10
367.04299301808601
 20
635.73160266075354
 11
367.04299301808601
 21
639.13160266075329
  0
LINE
  8
_0-e_極細4
  6
CONTINUOUS
 62
    6
 10
377.04299301808601
 20
635.73160266075354
 11
377.04299301808601
 21
639.13160266075329
  0
LINE
  8
_0-e_極細4
  6
CONTINUOUS
 62
    6
 10
377.04299301808601
 20
635.73160266075354
 11
367.04299301808601
 21
635.73160266075354
  0
LINE
  8
_0-e_極細4
  6
CONTINUOUS
 62
    6
 10
350.61561901808614
 20
639.13160266075329
 11
339.61561901808614
 21
639.13160266075329
  0
LINE
  8
_0-e_極細4
  6
CONTINUOUS
 62
    6
 10
352.27598701808597
 20
635.13160266075317
 11
350.61561901808614
 21
635.13160266075317
  0
LINE
  8
_0-e_極細4
  6
CONTINUOUS
 62
    6
 10
350.61561901808614
 20
644.53160266075304
 11
348.015619018086
 21
644.53160266075304
  0
LINE
  8
_0-e_極細4
  6
CONTINUOUS
 62
    6
 10
350.61561901808614
 20
643.13160266075317
 11
346.61561901808614
 21
643.13160266075317
  0
LINE
  8
_0-e_極細4
  6
CONTINUOUS
 62
    6
 10
350.61561901808614
 20
635.13160266075317
 11
350.61561901808614
 21
647.13160266075317
  0
LINE
  8
_0-e_極細4
  6
CONTINUOUS
 62
    6
 10
336.65761901808582
 20
642.08960266075314
 11
339.61561901808614
 21
639.13160266075329
  0
LINE
  8
_0-e_極細4
  6
CONTINUOUS
 62
    6
 10
346.61561901808614
 20
643.13160266075317
 11
346.61561901808545
 21
665.63160266075317
  0
ARC
  8
_0-e_極細4
  6
CONTINUOUS
 62
    6
 10
344.51561901808577
 20
665.63160266075317
 40
2.1000000000000227
 50
0
 51
89.999999999999915
  0
LINE
  8
_0-e_極細4
  6
CONTINUOUS
 62
    6
 10
342.1331710180857
 20
667.73160266075342
 11
344.51561901808577
 21
667.73160266075342
  0
ARC
  8
_0-e_極細4
  6
CONTINUOUS
 62
    6
 10
342.1331710180857
 20
671.13160266075329
 40
3.3999999999999773
 50
183.35088800000256
 51
269.99999999999977
  0
ARC
  8
_0-e_極細4
  6
CONTINUOUS
 62
    6
 10
342.1331710180857
 20
671.13160266075329
 40
2
 50
183.35088799999966
 51
269.99999999999977
  0
ARC
  8
_0-e_極細4
  6
CONTINUOUS
 62
    6
 10
336.65761901808582
 20
670.6316026607534
 40
3.4999999999999991
 50
4.1509899999970834
 51
89.999999999999915
  0
ARC
  8
_0-e_極細4
  6
CONTINUOUS
 62
    6
 10
344.51561901808577
 20
665.63160266075317
 40
3.4999999999999991
 50
0
 51
89.999999999999915
  0
LINE
  8
_0-e_極細4
  6
CONTINUOUS
 62
    6
 10
343.61561901808545
 20
669.1316026607534
 11
343.61561901808545
 21
674.13160266075329
  0
LINE
  8
_0-e_極細4
  6
CONTINUOUS
 62
    6
 10
348.015619018086
 20
644.53160266075304
 11
348.015619018086
 21
665.63160266075317
  0
LINE
  8
_0-e_極細4
  6
CONTINUOUS
 62
    6
 10
342.1331710180857
 20
669.1316026607534
 11
344.51561901808577
 21
669.1316026607534
  0
LINE
  8
_0-e_極細4
  6
CONTINUOUS
 62
    6
 10
356.11561901808545
 20
647.13160266075317
 11
348.015619018086
 21
647.13160266075317
  0
LINE
  8
_0-e_極細4
  6
CONTINUOUS
 62
    6
 10
436.61561901808545
 20
674.1316026607534
 11
336.65761901808582
 21
674.13160266075329
  0
ARC
  8
_0-e_極細4
  6
CONTINUOUS
 62
    6
 10
360.11561901808614
 20
619.31747466075342
 40
2
 50
0
 51
89.999999999999915
  0
ARC
  8
_0-e_極細4
  6
CONTINUOUS
 62
    6
 10
360.11561901808614
 20
619.31747466075342
 40
2
 50
89.999999999999915
 51
179.99999999999983
  0
LINE
  8
_0-e_極細4
  6
CONTINUOUS
 62
    6
 10
322.81561901808595
 20
671.31747466075331
 11
336.65761901808582
 21
669.71747466075317
  0
LINE
  8
_0-e_極細4
  6
CONTINUOUS
 62
    6
 10
336.65761901808582
 20
631.71747466075306
 11
339.61561901808614
 21
633.31747466075319
  0
LINE
  8
_0-e_極細4
  6
CONTINUOUS
 62
    6
 10
339.61561901808614
 20
633.31747466075319
 11
339.61561901808614
 21
639.13160266075329
  0
LINE
  8
_0-e_極細4
  6
CONTINUOUS
 62
    6
 10
322.81561901808595
 20
644.42795666075358
 11
322.81561901808595
 21
676.07463066075309
  0
LINE
  8
_0-e_極細4
  6
CONTINUOUS
 62
    6
 10
330.61561901808614
 20
643.31747466075331
 11
322.81561901808595
 21
643.31747466075331
  0
LINE
  8
_0-e_極細4
  6
CONTINUOUS
 62
    6
 10
322.81561901808595
 20
643.31747466075331
 11
322.81561901808595
 21
644.42795666075358
  0
ARC
  8
_0-e_極細4
  6
CONTINUOUS
 62
    6
 10
325.61561901808614
 20
618.65722066075307
 40
10
 50
0
 51
60.000000000000441
  0
LINE
  8
_0-e_極細4
  6
CONTINUOUS
 62
    6
 10
330.61561901808614
 20
627.31747466075319
 11
330.61561901808614
 21
643.31747466075331
  0
LINE
  8
_0-e_極細4
  6
CONTINUOUS
 62
    6
 10
336.65761901808582
 20
672.71747356825176
 11
322.81561901808595
 21
674.6889886607529
  0
LINE
  8
_0-e_極細4
  6
CONTINUOUS
 62
    6
 10
336.65761901808582
 20
642.08960266075314
 11
336.65761901808582
 21
672.73160266075354
  0
ARC
  8
_0-e_極細4
  6
CONTINUOUS
 62
    6
 10
336.65761901808582
 20
670.6316026607534
 40
2.1000000000000227
 50
4.1509899999990525
 51
89.999999999999915
  0
LINE
  8
_0-e_極細4
  6
CONTINUOUS
 62
    6
 10
355.61561901808614
 20
633.33316066075383
 11
361.61561901808614
 21
633.33316066075383
  0
ARC
  8
_0-e_極細4
  6
CONTINUOUS
 62
    6
 10
355.61561901808614
 20
637.33316066075315
 40
4
 50
179.99999999999983
 51
269.99999999999977
  0
LINE
  8
_0-e_極細4
  6
CONTINUOUS
 62
    6
 10
351.61561901808614
 20
637.33316066075315
 11
351.61561901808614
 21
639.33316066075326
  0
LINE
  8
_0-e_極細4
  6
CONTINUOUS
 62
    6
 10
351.61561901808614
 20
639.33316066075326
 11
356.11561901808545
 21
639.33316066075326
  0
LINE
  8
_0-e_極細4
  6
CONTINUOUS
 62
    6
 10
349.61561901808614
 20
648.13316066075322
 11
356.11561901808545
 21
648.13316066075322
  0
LINE
  8
_0-e_極細4
  6
CONTINUOUS
 62
    6
 10
356.11561901808545
 20
639.33316066075326
 11
356.11561901808545
 21
648.13316066075333
  0
LINE
  8
_0-e_極細4
  6
CONTINUOUS
 62
    6
 10
356.11561901808545
 20
648.13316066075333
 11
436.61561901808614
 21
648.13316066075333
  0
ARC
  8
_0-e_極細4
  6
CONTINUOUS
 62
    6
 10
382.11561901808591
 20
503.71744122074568
 40
20
 50
179.99999999999983
 51
269.99999999999977
  0
LINE
  8
_0-e_極細4
  6
CONTINUOUS
 62
    6
 10
436.61561901808614
 20
483.71744122074568
 11
382.11561901808591
 21
483.71744122074568
  0
LINE
  8
_0-e_極細4
  6
CONTINUOUS
 62
    6
 10
362.11561901808614
 20
503.71744122074568
 11
362.11561901808614
 21
619.31747466075342
  0
LINE
  8
_0-e_極細4
  6
CONTINUOUS
 62
    6
 10
358.11561901808614
 20
503.71744122074568
 11
358.11561901808614
 21
619.31747466075342
  0
LINE
  8
_0-e_極細4
  6
CONTINUOUS
 62
    6
 10
434.753551018086
 20
479.71744122074568
 11
382.11561901808591
 21
479.71744122074568
  0
LINE
  8
_0-e_極細4
  6
CONTINUOUS
 62
    6
 10
436.61561901808614
 20
479.71744122074568
 11
434.753551018086
 21
479.71744122074568
  0
LINE
  8
_0-e_極細4
  6
CONTINUOUS
 62
    6
 10
360.11561901808636
 20
404.71744122074568
 11
360.61561901808614
 21
454.71744122074568
  0
LINE
  8
_0-e_極細4
  6
CONTINUOUS
 62
    6
 10
340.61561901808614
 20
577.56057522074548
 11
340.61561901808614
 21
631.71747466075306
  0
ARC
  8
_0-e_極細4
  6
CONTINUOUS
 62
    6
 10
342.61561901808614
 20
577.56057522074548
 40
2
 50
179.99999999999983
 51
262.81924399999752
  0
ARC
  8
_0-e_極細4
  6
CONTINUOUS
 62
    6
 10
382.11561901808591
 20
503.71744122074568
 40
24.000000000000004
 50
179.99999999999983
 51
269.99999999999977
  0
LINE
  8
_0-e_極細4
  6
CONTINUOUS
 62
    6
 10
386.61561901808614
 20
459.71744122074568
 11
386.61561901808614
 21
479.71744122074568
  0
LINE
  8
_0-e_極細4
  6
CONTINUOUS
 62
    6
 10
382.11561901808591
 20
479.71744122074568
 11
386.61561901808614
 21
479.71744122074568
  0
LINE
  8
_0-e_極細4
  6
CONTINUOUS
 62
    6
 10
358.11561901808614
 20
503.71744122074568
 11
358.11561901808614
 21
557.7174412207454
  0
LINE
  8
_0-e_極細4
  6
CONTINUOUS
 62
    6
 10
386.61246101808592
 20
459.51209522074589
 11
386.61561901808614
 21
459.71744122074568
  0
LINE
  8
_0-e_極細4
  6
CONTINUOUS
 62
    6
 10
386.61561901808614
 20
459.71744122074568
 11
436.61561901808614
 21
459.71744122074631
  0
ARC
  8
_0-e_極細4
  6
CONTINUOUS
 62
    6
 10
356.61561901808614
 20
475.71744122074563
 40
16
 50
179.99999999999983
 51
269.99999999999977
  0
LINE
  8
_0-e_極細4
  6
CONTINUOUS
 62
    6
 10
380.61561901808614
 20
454.71744122074568
 11
360.61561901808614
 21
454.71744122074568
  0
LINE
  8
_0-e_極細4
  6
CONTINUOUS
 62
    6
 10
385.61561901808614
 20
394.71744122074568
 11
386.61561901808614
 21
459.71744122074568
  0
LINE
  8
_0-e_極細4
  6
CONTINUOUS
 62
    6
 10
340.61561901808614
 20
475.71744122074563
 11
340.61561901808614
 21
577.56057522074548
  0
LINE
  8
_0-e_極細4
  6
CONTINUOUS
 62
    6
 10
356.61561901808614
 20
459.71744122074568
 11
386.61561901808614
 21
459.71744122074568
  0
LINE
  8
_0-e_極細4
  6
CONTINUOUS
 62
    6
 10
381.44895235141939
 20
404.71744122074568
 11
380.61561901808614
 21
454.71744122074568
  0
ARC
  8
_0-e_極細4
  6
CONTINUOUS
 62
    6
 10
351.61561901808614
 20
470.71744122074563
 40
16
 50
179.99999999999983
 51
269.99999999999977
  0
LINE
  8
_0-e_極細4
  6
CONTINUOUS
 62
    6
 10
335.61561901808614
 20
470.71744122074563
 11
335.61561901808614
 21
618.65722066075307
  0
LINE
  8
_0-e_極細4
  6
CONTINUOUS
 62
    6
 10
354.41561901808632
 20
404.71744122074568
 11
353.61561901808636
 21
454.71744122074568
  0
LINE
  8
_0-e_極細4
  6
CONTINUOUS
 62
    6
 10
381.44895301808629
 20
404.71744122074568
 11
354.41561901808632
 21
404.71744122074568
  0
LINE
  8
_0-e_極細4
  6
CONTINUOUS
 62
    6
 10
384.61561901808545
 20
514.13312722074568
 11
436.61561901808614
 21
514.13312722074568
  0
ARC
  8
_0-e_極細4
  6
CONTINUOUS
 62
    6
 10
384.61561901808545
 20
516.13312722074568
 40
2
 50
179.99999999999983
 51
270.00045836623298
  0
LINE
  8
_0-e_極細4
  6
CONTINUOUS
 62
    6
 10
382.61561901808614
 20
516.13312722074568
 11
382.61561901808614
 21
634.08165266075355
  0
LINE
  8
_0-e_極細4
  6
CONTINUOUS
 62
    6
 10
342.36561901051732
 20
575.57626173840083
 11
358.11561901808614
 21
575.57626173840083
  0
LINE
  8
_0-e_極細4
  6
CONTINUOUS
 62
    6
 10
353.61561901808636
 20
454.71744122074568
 11
351.61561901808614
 21
454.71744122074568
  0
LINE
  8
_0-e_極細4
  6
CONTINUOUS
 62
    6
 10
436.61561901808614
 20
394.71744122074568
 11
381.61561901808614
 21
394.71744122074568
  0
LINE
  8
_0-e_極細4
  6
CONTINUOUS
 62
    6
 10
381.61561901808614
 20
394.71744122074568
 11
381.44895235141939
 21
404.71744122074568
  0
LINE
  8
_0-e_極細4
  6
CONTINUOUS
 62
    6
 10
523.01561901808554
 20
662.13160266075317
 11
523.01561901808554
 21
664.13160266075329
  0
ARC
  8
_0-e_極細4
  6
CONTINUOUS
 62
    6
 10
524.21561901808536
 20
663.1316026607534
 40
1
 50
269.99999999999977
 51
359.99999999999966
  0
LINE
  8
_0-e_極細4
  6
CONTINUOUS
 62
    6
 10
350.21561901808582
 20
662.13160266075317
 11
350.21561901808582
 21
664.13160266075329
  0
ARC
  8
_0-e_極細4
  6
CONTINUOUS
 62
    6
 10
349.015619018086
 20
663.1316026607534
 40
1
 50
179.99999999999983
 51
269.99999999999977
  0
CIRCLE
  8
_1-1_寸法4
  6
CONTINUOUS
 62
    7
 10
525.21561901808536
 20
655.81491523420152
 40
36.118355382873787
  0
TEXT
  8
_1-1_寸法4
 62
    7
 10
543.78456747884456
 20
686.7944205340807
 40
24.000000000000004
 41
0.8
 50
0
  1
Ｃ部
  0
LINE
  8
_1-1_寸法4
  6
CONTINUOUS
 62
    7
 10
405.94271700149307
 20
563.42931967814241
 11
396.31909436900764
 21
550.64707075913304
  0
LINE
  8
_1-1_寸法4
  6
CONTINUOUS
 62
    7
 10
405.94271700149307
 20
563.42931967814241
 11
391.21729086582127
 21
557.1713787130268
  0
LINE
  8
_1-1_寸法4
  6
CONTINUOUS
 62
    7
 10
405.94271700149307
 20
563.42931967814241
 11
315.56804692334345
 21
492.7591717233912
  0
LINE
  8
_1-1_寸法4
  6
CONTINUOUS
 62
    7
 10
315.56804692334345
 20
492.7591717233912
 11
161.96804692334354
 21
492.7591717233912
  0
TEXT
  8
_1-1_寸法4
 62
    7
 10
161.96804692334354
 20
492.75917172339166
 40
24
 41
0.7999999999999998
 50
-0.0000000000001696
  1
防臭インナー１号
  0
LINE
  8
_1-1_寸法4
  6
CONTINUOUS
 62
    7
 10
346.36047157067674
 20
475.16829820810443
 11
336.65241014159938
 21
462.45006156581553
  0
LINE
  8
_1-1_寸法4
  6
CONTINUOUS
 62
    7
 10
346.36047157067674
 20
475.16829820810443
 11
331.59392543045146
 21
469.00801289907884
  0
LINE
  8
_1-1_寸法4
  6
CONTINUOUS
 62
    7
 10
346.36047157067674
 20
475.16829820810443
 11
315.56804692334345
 21
451.41651943114874
  0
LINE
  8
_1-1_寸法4
  6
CONTINUOUS
 62
    7
 10
315.56804692334345
 20
451.41651943114874
 11
200.3680469233434
 21
451.41651943114874
  0
TEXT
  8
_1-1_寸法4
 62
    7
 10
200.36804692334351
 20
451.41651943114886
 40
24
 41
0.7999999999999998
 50
-0.0000000000001696
  1
トラップ本体
  0
LINE
  8
_1-1_寸法4
  6
CONTINUOUS
 62
    7
 10
369.38919219731156
 20
595.18693186515918
 11
359.77211549593073
 21
582.39975720772372
  0
LINE
  8
_1-1_寸法4
  6
CONTINUOUS
 62
    7
 10
369.38919219731156
 20
595.18693186515918
 11
354.66697213505461
 21
588.92145211988191
  0
LINE
  8
_1-1_寸法4
  6
CONTINUOUS
 62
    7
 10
369.38919219731156
 20
595.18693186515918
 11
315.56804692334345
 21
553.05606463340393
  0
LINE
  8
_1-1_寸法4
  6
CONTINUOUS
 62
    7
 10
315.56804692334345
 20
553.05606463340393
 11
161.96804692334354
 21
553.05606463340393
  0
TEXT
  8
_1-1_寸法4
 62
    7
 10
161.96804692334354
 20
553.05606463340416
 40
24
 41
0.7999999999999998
 50
-0.0000000000001696
  1
防臭インナー２号
  0
LINE
  8
_1-1_寸法4
  6
CONTINUOUS
 62
    7
 10
354.41561901808609
 20
388.71744122074568
 11
354.41561901808427
 21
194.71744122074563
  0
LINE
  8
_1-1_寸法4
  6
CONTINUOUS
 62
    7
 10
354.41561901808439
 20
202.71744122074563
 11
369.87043223870955
 21
206.85854594238594
  0
LINE
  8
_1-1_寸法4
  6
CONTINUOUS
 62
    7
 10
354.41561901808439
 20
202.71744122074563
 11
369.87043223870955
 21
198.57633649910531
  0
LINE
  8
_1-1_寸法4
  6
CONTINUOUS
 62
    7
 10
518.81561901808561
 20
388.71744122074568
 11
518.81561901808345
 21
194.71744122074563
  0
LINE
  8
_1-1_寸法4
  6
CONTINUOUS
 62
    7
 10
518.81561901808357
 20
202.71744122074563
 11
503.3608057974584
 21
198.57633649910531
  0
LINE
  8
_1-1_寸法4
  6
CONTINUOUS
 62
    7
 10
518.81561901808357
 20
202.71744122074563
 11
503.36080579745851
 21
206.85854594238606
  0
LINE
  8
_1-1_寸法4
  6
CONTINUOUS
 62
    7
 10
354.41561901808439
 20
202.71744122074563
 11
518.81561901808357
 21
202.71744122074563
  0
TEXT
  8
_1-1_寸法4
 62
    7
 10
388.61561901808398
 20
202.71744122074563
 40
24
 41
1
 50
0
  1
VU75外接
  0
LINE
  8
_1-1_寸法4
  6
CONTINUOUS
 62
    7
 10
360.11561901808636
 20
388.71744122074568
 11
360.11561901808523
 21
250.71744122074563
  0
LINE
  8
_1-1_寸法4
  6
CONTINUOUS
 62
    7
 10
360.11561901808523
 20
258.71744122074563
 11
375.5704322387104
 21
262.85854594238594
  0
LINE
  8
_1-1_寸法4
  6
CONTINUOUS
 62
    7
 10
360.11561901808523
 20
258.71744122074563
 11
375.5704322387104
 21
254.57633649910531
  0
LINE
  8
_1-1_寸法4
  6
CONTINUOUS
 62
    7
 10
513.11561901808489
 20
388.71744122074568
 11
513.11561901808375
 21
250.71744122074563
  0
LINE
  8
_1-1_寸法4
  6
CONTINUOUS
 62
    7
 10
513.11561901808386
 20
258.71744122074563
 11
497.66080579745881
 21
254.57633649910531
  0
LINE
  8
_1-1_寸法4
  6
CONTINUOUS
 62
    7
 10
513.11561901808386
 20
258.71744122074563
 11
497.66080579745881
 21
262.85854594238594
  0
LINE
  8
_1-1_寸法4
  6
CONTINUOUS
 62
    7
 10
360.11561901808523
 20
258.71744122074563
 11
513.11561901808386
 21
258.71744122074563
  0
TEXT
  8
_1-1_寸法4
 62
    7
 10
388.61561901808432
 20
258.71744122074563
 40
24
 41
1
 50
0
  1
VU65内接
  0
LINE
  8
_1-1_寸法4
  6
CONTINUOUS
 62
    7
 10
381.61561901808614
 20
378.71744122074568
 11
381.61561901808591
 21
306.71744122074563
  0
LINE
  8
_1-1_寸法4
  6
CONTINUOUS
 62
    7
 10
381.61561901808591
 20
314.71744122074563
 11
397.07043223871096
 21
318.85854594238594
  0
LINE
  8
_1-1_寸法4
  6
CONTINUOUS
 62
    7
 10
381.61561901808591
 20
314.71744122074563
 11
397.07043223871096
 21
310.57633649910531
  0
LINE
  8
_1-1_寸法4
  6
CONTINUOUS
 62
    7
 10
491.615619018085
 20
378.71744122074568
 11
491.615619018085
 21
306.71744122074563
  0
LINE
  8
_1-1_寸法4
  6
CONTINUOUS
 62
    7
 10
491.615619018085
 20
314.71744122074563
 11
476.16080579745994
 21
310.57633649910531
  0
LINE
  8
_1-1_寸法4
  6
CONTINUOUS
 62
    7
 10
491.615619018085
 20
314.71744122074563
 11
476.16080579745994
 21
318.85854594238594
  0
LINE
  8
_1-1_寸法4
  6
CONTINUOUS
 62
    7
 10
381.61561901808591
 20
314.71744122074563
 11
491.615619018085
 21
314.71744122074563
  0
TEXT
  8
_1-1_寸法4
 62
    7
 10
388.61561901808545
 20
314.71744122074563
 40
24
 41
1
 50
0
  1
VU50外接
  0
TEXT
  8
_0-7_枠細線
 62
    5
 10
340.93711904832844
 20
137.35931087475331
 40
40
 41
0.8
 50
0
  1
排水部詳細図
  0
TEXT
  8
_0-7_枠細線
 62
    5
 10
557.86696543723792
 20
139.31772187791455
 40
32
 41
0.6000000000000002
 50
0
  1
Ｓ＝１：４
  0
LINE
  8
_1-1_寸法4
  6
CONTINUOUS
 62
    7
 10
390.6033018495441
 20
667.7963483644611
 11
377.81114441828504
 21
677.40679623403946
  0
LINE
  8
_1-1_寸法4
  6
CONTINUOUS
 62
    7
 10
390.6033018495441
 20
667.7963483644611
 11
384.33019247965308
 21
682.5153190768915
  0
LINE
  8
_1-1_寸法4
  6
CONTINUOUS
 62
    7
 10
390.6033018495441
 20
667.7963483644611
 11
364.51066441878334
 21
701.09347997991154
  0
LINE
  8
_1-1_寸法4
  6
CONTINUOUS
 62
    7
 10
364.51066441878334
 20
701.09347997991154
 11
249.3106644187834
 21
701.09347997991154
  0
TEXT
  8
_1-1_寸法4
 62
    7
 10
249.3106644187834
 20
701.09347997991188
 40
24
 41
0.7999999999999998
 50
-0.0000000000001696
  1
ストレーナー
  0
LINE
  8
_1-2_極細2
  6
CONTINUOUS
 62
    2
 10
1142.0844895791056
 20
440.71859928447861
 11
1118.0844895791054
 21
440.71859928447861
  0
LINE
  8
_1-2_極細2
  6
CONTINUOUS
 62
    2
 10
763.4178229124384
 20
440.71859928447861
 11
787.4178229124384
 21
440.71859928447861
  0
LINE
  8
_1-2_極細2
  6
CENTER1
 62
    2
 10
952.75115624577188
 20
459.69490473777881
 11
952.75115624577188
 21
371.06181121259874
  0
LINE
  8
_1-2_極細2
  6
CONTINUOUS
 62
    2
 10
760.75115624577188
 20
422.0519326178121
 11
760.75115624577188
 21
443.3852659511453
  0
LINE
  8
_1-2_極細2
  6
CONTINUOUS
 62
    2
 10
760.75115624577188
 20
443.3852659511453
 11
790.08448957910537
 21
443.3852659511453
  0
LINE
  8
_1-2_極細2
  6
CONTINUOUS
 62
    2
 10
1144.7511562457714
 20
422.05193261781181
 11
1144.7511562457723
 21
443.3852659511453
  0
LINE
  8
_1-2_極細2
  6
CONTINUOUS
 62
    2
 10
1115.4178229124389
 20
443.3852659511453
 11
1144.7511562457723
 21
443.3852659511453
  0
LINE
  8
_1-5_寸法2
  6
CONTINUOUS
 62
    7
 10
760.75115624577188
 20
459.3852659511453
 11
760.75115624577188
 21
643.38526595114536
  0
LINE
  8
_1-5_寸法2
  6
CONTINUOUS
 62
    7
 10
760.75115624577188
 20
635.38526595114536
 11
776.20596946639694
 21
639.52637067278567
  0
LINE
  8
_1-5_寸法2
  6
CONTINUOUS
 62
    7
 10
760.75115624577188
 20
635.38526595114536
 11
776.20596946639694
 21
631.24416122950504
  0
LINE
  8
_1-5_寸法2
  6
CONTINUOUS
 62
    7
 10
1144.7511562457719
 20
459.3852659511453
 11
1144.7511562457719
 21
643.38526595114536
  0
LINE
  8
_1-5_寸法2
  6
CONTINUOUS
 62
    7
 10
1144.7511562457719
 20
635.38526595114536
 11
1129.2963430251468
 21
631.24416122950504
  0
LINE
  8
_1-5_寸法2
  6
CONTINUOUS
 62
    7
 10
1144.7511562457719
 20
635.38526595114536
 11
1129.2963430251468
 21
639.52637067278579
  0
LINE
  8
_1-5_寸法2
  6
CONTINUOUS
 62
    7
 10
760.75115624577188
 20
635.38526595114536
 11
1144.7511562457719
 21
635.38526595114536
  0
TEXT
  8
_1-5_寸法2
 62
    7
 10
934.75115624577211
 20
635.38526595114536
 40
24
 41
1
 50
0
  1
144
  0
LINE
  8
_1-5_寸法2
  6
CONTINUOUS
 62
    7
 10
1115.4178229124389
 20
459.3852659511453
 11
1115.4178229124391
 21
587.38526595114536
  0
LINE
  8
_1-5_寸法2
  6
CONTINUOUS
 62
    7
 10
1115.4178229124391
 20
579.38526595114536
 11
1130.8726361330641
 21
583.52637067278567
  0
LINE
  8
_1-5_寸法2
  6
CONTINUOUS
 62
    7
 10
1115.4178229124391
 20
579.38526595114536
 11
1130.8726361330641
 21
575.24416122950504
  0
LINE
  8
_1-5_寸法2
  6
CONTINUOUS
 62
    7
 10
1144.7511562457719
 20
459.3852659511453
 11
1144.7511562457728
 21
587.38526595114536
  0
LINE
  8
_1-5_寸法2
  6
CONTINUOUS
 62
    7
 10
1144.7511562457728
 20
579.38526595114536
 11
1129.2963430251477
 21
575.24416122950504
  0
LINE
  8
_1-5_寸法2
  6
CONTINUOUS
 62
    7
 10
1144.7511562457728
 20
579.38526595114536
 11
1129.2963430251477
 21
583.52637067278579
  0
LINE
  8
_1-5_寸法2
  6
CONTINUOUS
 62
    7
 10
1115.4178229124391
 20
579.38526595114536
 11
1144.7511562457728
 21
579.38526595114536
  0
TEXT
  8
_1-5_寸法2
 62
    7
 10
1118.0844895791058
 20
579.38526595114536
 40
24
 41
1
 50
0
  1
11
  0
LINE
  8
_1-5_寸法2
  6
CONTINUOUS
 62
    7
 10
794.7511562457737
 20
459.3852659511453
 11
794.75115624577415
 21
587.38526595114536
  0
LINE
  8
_1-5_寸法2
  6
CONTINUOUS
 62
    7
 10
794.75115624577415
 20
579.38526595114536
 11
810.20596946639921
 21
583.52637067278567
  0
LINE
  8
_1-5_寸法2
  6
CONTINUOUS
 62
    7
 10
794.75115624577415
 20
579.38526595114536
 11
810.20596946639921
 21
575.24416122950504
  0
LINE
  8
_1-5_寸法2
  6
CONTINUOUS
 62
    7
 10
1110.7511562457719
 20
459.3852659511453
 11
1110.7511562457728
 21
587.38526595114536
  0
LINE
  8
_1-5_寸法2
  6
CONTINUOUS
 62
    7
 10
1110.7511562457728
 20
579.38526595114536
 11
1095.2963430251477
 21
575.24416122950504
  0
LINE
  8
_1-5_寸法2
  6
CONTINUOUS
 62
    7
 10
1110.7511562457728
 20
579.38526595114536
 11
1095.2963430251477
 21
583.52637067278579
  0
LINE
  8
_1-5_寸法2
  6
CONTINUOUS
 62
    7
 10
794.75115624577415
 20
579.38526595114536
 11
1110.7511562457728
 21
579.38526595114536
  0
TEXT
  8
_1-5_寸法2
 62
    7
 10
922.75115624577325
 20
579.38526595114536
 40
24
 41
1
 50
0
  1
118.5
  0
LINE
  8
_1-5_寸法2
  6
CONTINUOUS
 62
    7
 10
760.75115624577199
 20
459.3852659511453
 11
760.75115624577256
 21
587.38526595114536
  0
LINE
  8
_1-5_寸法2
  6
CONTINUOUS
 62
    7
 10
760.75115624577256
 20
579.38526595114536
 11
776.20596946639762
 21
583.52637067278567
  0
LINE
  8
_1-5_寸法2
  6
CONTINUOUS
 62
    7
 10
760.75115624577256
 20
579.38526595114536
 11
776.20596946639762
 21
575.24416122950504
  0
LINE
  8
_1-5_寸法2
  6
CONTINUOUS
 62
    7
 10
790.08448957910537
 20
459.3852659511453
 11
790.08448957910537
 21
587.38526595114536
  0
LINE
  8
_1-5_寸法2
  6
CONTINUOUS
 62
    7
 10
790.08448957910537
 20
579.38526595114536
 11
774.62967635848031
 21
575.24416122950504
  0
LINE
  8
_1-5_寸法2
  6
CONTINUOUS
 62
    7
 10
790.08448957910537
 20
579.38526595114536
 11
774.62967635848031
 21
583.52637067278579
  0
LINE
  8
_1-5_寸法2
  6
CONTINUOUS
 62
    7
 10
760.75115624577256
 20
579.38526595114536
 11
790.08448957910537
 21
579.38526595114536
  0
TEXT
  8
_1-5_寸法2
 62
    7
 10
763.41782291243931
 20
579.38526595114536
 40
24
 41
1
 50
0
  1
11
  0
LINE
  8
_1-5_寸法2
  6
CONTINUOUS
 62
    7
 10
744.75115624577188
 20
443.38526595114541
 11
672.75115624577188
 21
443.38526595114581
  0
LINE
  8
_1-5_寸法2
  6
CONTINUOUS
 62
    7
 10
680.75115624577188
 20
443.38526595114575
 11
684.8922609674122
 21
427.93045273052064
  0
LINE
  8
_1-5_寸法2
  6
CONTINUOUS
 62
    7
 10
680.75115624577188
 20
443.38526595114575
 11
676.61005152413156
 21
427.93045273052064
  0
LINE
  8
_1-5_寸法2
  6
CONTINUOUS
 62
    7
 10
771.4178229124384
 20
390.05193261781187
 11
672.75115624577188
 21
390.05193261781233
  0
LINE
  8
_1-5_寸法2
  6
CONTINUOUS
 62
    7
 10
680.75115624577188
 20
390.05193261781227
 11
676.61005152413156
 21
405.50674583843738
  0
LINE
  8
_1-5_寸法2
  6
CONTINUOUS
 62
    7
 10
680.75115624577188
 20
390.05193261781227
 11
684.8922609674122
 21
405.50674583843738
  0
LINE
  8
_1-5_寸法2
  6
CONTINUOUS
 62
    7
 10
680.75115624577188
 20
443.38526595114575
 11
680.75115624577188
 21
390.05193261781227
  0
TEXT
  8
_1-5_寸法2
 62
    7
 10
680.75115624577188
 20
404.71859928447878
 40
24
 41
1
 50
90
  1
20
  0
LINE
  8
_1-5_寸法2
  6
CONTINUOUS
 62
    7
 10
1160.7511562457712
 20
422.05193261781164
 11
1232.7511562457717
 21
422.05193261781079
  0
LINE
  8
_1-5_寸法2
  6
CONTINUOUS
 62
    7
 10
1224.7511562457717
 20
422.05193261781091
 11
1220.6100515241314
 21
437.50674583843602
  0
LINE
  8
_1-5_寸法2
  6
CONTINUOUS
 62
    7
 10
1224.7511562457717
 20
422.05193261781091
 11
1228.8922609674121
 21
437.50674583843602
  0
LINE
  8
_1-5_寸法2
  6
CONTINUOUS
 62
    7
 10
1160.7511562457712
 20
443.38526595114513
 11
1232.7511562457717
 21
443.38526595114428
  0
LINE
  8
_1-5_寸法2
  6
CONTINUOUS
 62
    7
 10
1224.7511562457717
 20
443.38526595114439
 11
1228.8922609674121
 21
427.93045273051928
  0
LINE
  8
_1-5_寸法2
  6
CONTINUOUS
 62
    7
 10
1224.7511562457717
 20
443.38526595114439
 11
1220.6100515241314
 21
427.93045273051928
  0
LINE
  8
_1-5_寸法2
  6
CONTINUOUS
 62
    7
 10
1224.7511562457717
 20
422.05193261781091
 11
1224.7511562457717
 21
443.38526595114439
  0
TEXT
  8
_1-5_寸法2
 62
    7
 10
1224.7511562457717
 20
426.71859928447788
 40
24
 41
1
 50
90
  1
8
  0
LINE
  8
_1-2_極細2
  6
CONTINUOUS
 62
    2
 10
763.4178229124384
 20
422.0519326178121
 11
763.4178229124384
 21
440.71859928447861
  0
LINE
  8
_1-2_極細2
  6
CONTINUOUS
 62
    2
 10
760.75115624577188
 20
422.0519326178121
 11
763.4178229124384
 21
422.0519326178121
  0
LINE
  8
_1-2_極細2
  6
CONTINUOUS
 62
    2
 10
787.4178229124384
 20
440.71859928447861
 11
787.4178229124384
 21
390.05193261781181
  0
LINE
  8
_1-2_極細2
  6
CONTINUOUS
 62
    2
 10
1142.0844895791049
 20
422.05193261781181
 11
1144.7511562457714
 21
422.05193261781181
  0
LINE
  8
_1-2_極細2
  6
CONTINUOUS
 62
    2
 10
1142.0844895791049
 20
422.05193261781181
 11
1142.0844895791056
 21
440.71859928447861
  0
LINE
  8
_1-2_極細2
  6
CONTINUOUS
 62
    2
 10
1118.0844895791054
 20
390.05193261781181
 11
787.4178229124384
 21
390.05193261781181
  0
LINE
  8
_1-2_極細2
  6
CONTINUOUS
 62
    2
 10
1118.0844895791054
 20
440.71859928447861
 11
1118.0844895791054
 21
390.05193261781181
  0
LINE
  8
_1-2_極細2
  6
CONTINUOUS
 62
    2
 10
1115.4178229124389
 20
392.7185992844785
 11
1115.4178229124389
 21
443.3852659511453
  0
LINE
  8
_1-2_極細2
  6
CONTINUOUS
 62
    2
 10
1115.4178229124389
 20
392.7185992844785
 11
790.08448957910537
 21
392.7185992844785
  0
LINE
  8
_1-2_極細2
  6
CONTINUOUS
 62
    2
 10
790.08448957910537
 20
392.7185992844785
 11
790.08448957910537
 21
443.3852659511453
  0
LINE
  8
_1-3_細線2
  6
CONTINUOUS
 62
    4
 10
839.2844895791045
 20
435.11859928447808
 11
859.55115624577161
 21
435.11859928447808
  0
LINE
  8
_1-3_細線2
  6
CONTINUOUS
 62
    4
 10
859.55115624577161
 20
435.11859928447808
 11
859.55115624577161
 21
395.65193261781189
  0
LINE
  8
_1-3_細線2
  6
CONTINUOUS
 62
    4
 10
862.75115624577165
 20
435.11859928447842
 11
862.75115624577165
 21
395.65193261781189
  0
ARC
  8
_1-3_細線2
  6
CONTINUOUS
 62
    4
 10
859.55115624577161
 20
435.11859928447842
 40
3.1999999999999997
 50
0
 51
89.999999999999915
  0
LINE
  8
_1-3_細線2
  6
CONTINUOUS
 62
    4
 10
839.28448957910427
 20
438.31859928447852
 11
859.55115624577161
 21
438.31859928447852
  0
ARC
  8
_1-3_細線2
  6
CONTINUOUS
 62
    4
 10
839.28448957910427
 20
435.11859928447842
 40
3.1999999999999997
 50
89.999999999999915
 51
179.99999999999983
  0
LINE
  8
_1-3_細線2
  6
CONTINUOUS
 62
    4
 10
859.55115624577161
 20
395.65193261781189
 11
862.75115624577165
 21
395.65193261781189
  0
LINE
  8
_1-3_細線2
  6
CONTINUOUS
 62
    4
 10
836.08448957910446
 20
422.31859890900336
 11
839.28448957910518
 21
422.31859890900319
  0
LINE
  8
_1-3_細線2
  6
CONTINUOUS
 62
    4
 10
839.2844895791045
 20
435.11859928447808
 11
839.28448957910518
 21
422.31859890900336
  0
LINE
  8
_1-3_細線2
  6
CONTINUOUS
 62
    4
 10
836.08448957910446
 20
435.11859928447842
 11
836.08448957910446
 21
422.31859890900336
  0
LINE
  8
_1-3_細線2
  6
CONTINUOUS
 62
    4
 10
821.41782291244022
 20
399.78526557567005
 11
859.55115624577275
 21
399.78526557567005
  0
LINE
  8
_1-3_細線2
  6
CONTINUOUS
 62
    4
 10
821.41782291244022
 20
418.18526557567014
 11
859.55115624577275
 21
418.18526557567014
  0
LINE
  8
_1-3_細線2
  6
CONTINUOUS
 62
    4
 10
818.21782291244131
 20
435.11859928447808
 11
818.21782291244131
 21
395.65193261781189
  0
LINE
  8
_1-3_細線2
  6
CONTINUOUS
 62
    4
 10
797.95115624577488
 20
435.11859928447808
 11
818.21782291244131
 21
435.11859928447808
  0
LINE
  8
_1-3_細線2
  6
CONTINUOUS
 62
    4
 10
821.41782291244022
 20
435.11859928447842
 11
821.41782291244022
 21
395.65193261781189
  0
ARC
  8
_1-3_細線2
  6
CONTINUOUS
 62
    4
 10
818.21782291243994
 20
435.11859928447842
 40
3.1999999999999997
 50
0
 51
89.999999999999915
  0
LINE
  8
_1-3_細線2
  6
CONTINUOUS
 62
    4
 10
797.95115624577397
 20
438.31859928447852
 11
818.21782291243994
 21
438.31859928447852
  0
ARC
  8
_1-3_細線2
  6
CONTINUOUS
 62
    4
 10
797.95115624577397
 20
435.11859928447842
 40
3.1999999999999997
 50
89.999999999999915
 51
179.99999999999983
  0
LINE
  8
_1-3_細線2
  6
CONTINUOUS
 62
    4
 10
818.21782291244131
 20
395.65193261781189
 11
821.41782291244022
 21
395.65193261781189
  0
LINE
  8
_1-3_細線2
  6
CONTINUOUS
 62
    4
 10
794.75115624577415
 20
422.31859890900336
 11
797.95115624577488
 21
422.31859890900319
  0
LINE
  8
_1-3_細線2
  6
CONTINUOUS
 62
    4
 10
797.95115624577488
 20
435.11859928447808
 11
797.95115624577488
 21
422.31859890900336
  0
LINE
  8
_1-3_細線2
  6
CONTINUOUS
 62
    4
 10
794.75115624577415
 20
435.11859928447842
 11
794.75115624577415
 21
422.31859890900336
  0
LINE
  8
_1-2_極細2
  6
CONTINUOUS
 62
    2
 10
843.41782291243885
 20
395.65193261781189
 11
843.41782291243885
 21
394.05193261781181
  0
LINE
  8
_1-2_極細2
  6
CONTINUOUS
 62
    2
 10
844.75115624577234
 20
395.65193261781189
 11
844.75115624577234
 21
394.05193261781181
  0
LINE
  8
_1-2_極細2
  6
CONTINUOUS
 62
    2
 10
843.41782291243908
 20
394.40000000000003
 11
844.75115624577211
 21
394.40000000000003
  0
LINE
  8
_1-2_極細2
  6
CONTINUOUS
 62
    2
 10
843.41782291243908
 20
395.20000000000005
 11
844.75115624577211
 21
395.20000000000005
  0
LINE
  8
_1-2_極細2
  6
CONTINUOUS
 62
    2
 10
846.75115624577188
 20
394.05193261781181
 11
846.75115624577188
 21
392.7185992844785
  0
LINE
  8
_1-2_極細2
  6
CONTINUOUS
 62
    2
 10
846.75115624577234
 20
396.98526595114521
 11
846.75115624577188
 21
395.65193261781172
  0
LINE
  8
_1-2_極細2
  6
CONTINUOUS
 62
    2
 10
828.08448957910582
 20
394.05193261781181
 11
828.08448957910537
 21
392.7185992844785
  0
LINE
  8
_1-2_極細2
  6
CONTINUOUS
 62
    2
 10
828.08448957910559
 20
396.98526595114521
 11
828.08448957910582
 21
395.65193261781189
  0
LINE
  8
_1-2_極細2
  6
CONTINUOUS
 62
    2
 10
830.08448957910559
 20
395.65193261781189
 11
830.08448957910559
 21
394.05193261781181
  0
LINE
  8
_1-2_極細2
  6
CONTINUOUS
 62
    2
 10
831.41782291243885
 20
395.65193261781189
 11
831.41782291243885
 21
394.05193261781181
  0
LINE
  8
_1-2_極細2
  6
CONTINUOUS
 62
    2
 10
830.08448957910559
 20
394.40000000000003
 11
831.41782291243931
 21
394.40000000000003
  0
LINE
  8
_1-2_極細2
  6
CONTINUOUS
 62
    2
 10
830.08448957910559
 20
395.20000000000005
 11
831.41782291243931
 21
395.20000000000005
  0
LINE
  8
_1-2_極細2
  6
CONTINUOUS
 62
    2
 10
828.08448957910559
 20
392.7185992844785
 11
846.75115624577188
 21
392.7185992844785
  0
LINE
  8
_1-2_極細2
  6
CONTINUOUS
 62
    2
 10
828.08448957910559
 20
392.80000000000007
 11
846.75115624577188
 21
392.80000000000007
  0
LINE
  8
_1-2_極細2
  6
CONTINUOUS
 62
    2
 10
828.08448957910559
 20
393.60000000000008
 11
846.75115624577188
 21
393.60000000000008
  0
LINE
  8
_1-2_極細2
  6
CONTINUOUS
 62
    2
 10
828.08448957910582
 20
396.00000000000006
 11
846.75115624577211
 21
396.00000000000006
  0
LINE
  8
_1-2_極細2
  6
CONTINUOUS
 62
    2
 10
828.08448957910582
 20
396.80000000000007
 11
846.75115624577211
 21
396.80000000000007
  0
LINE
  8
_1-2_極細2
  6
CONTINUOUS
 62
    2
 10
828.08448957910582
 20
396.98526595114521
 11
846.75115624577188
 21
396.98526595114521
  0
LINE
  8
_1-2_極細2
  6
CONTINUOUS
 62
    2
 10
816.61782291243844
 20
432.18526595114503
 11
818.21782291243858
 21
432.18526595114503
  0
LINE
  8
_1-2_極細2
  6
CONTINUOUS
 62
    2
 10
816.61782291243844
 20
432.18526595114503
 11
816.61782291243844
 21
394.05193261781181
  0
ARC
  8
_1-3_細線2
  6
CONTINUOUS
 62
    4
 10
814.49316157910448
 20
396.18526520019554
 40
0.5333333333333335
 50
179.99999999999983
 51
269.99999999999977
  0
LINE
  8
_1-3_細線2
  6
CONTINUOUS
 62
    4
 10
816.61782291243844
 20
395.65193186686213
 11
814.49316157910448
 21
395.65193186686213
  0
ARC
  8
_1-3_細線2
  6
CONTINUOUS
 62
    4
 10
814.49316157910448
 20
421.78526520019489
 40
0.5333333333333335
 50
89.999999999999915
 51
179.99999999999983
  0
LINE
  8
_1-3_細線2
  6
CONTINUOUS
 62
    4
 10
816.61782291243844
 20
422.31859853352921
 11
814.49316157910448
 21
422.31859853352921
  0
LINE
  8
_1-3_細線2
  6
CONTINUOUS
 62
    4
 10
813.95982824577027
 20
407.65193186686213
 11
813.95982824577027
 21
396.18526520019554
  0
LINE
  8
_1-3_細線2
  6
CONTINUOUS
 62
    4
 10
813.95982824577027
 20
421.78526520019489
 11
813.95982824577027
 21
407.65193186686213
  0
LINE
  8
_1-2_極細2
  6
CONTINUOUS
 62
    2
 10
813.95982824577027
 20
408.98526520019482
 11
805.94778557910354
 21
408.98526520019482
  0
LINE
  8
_1-3_細線2
  6
CONTINUOUS
 62
    4
 10
813.95982824577027
 20
399.6519318668627
 11
805.94775357910498
 21
399.6519318668627
  0
ARC
  8
_1-3_細線2
  6
CONTINUOUS
 62
    4
 10
805.94775357910498
 20
400.18526520019554
 40
0.5333333333333335
 50
179.99999999999983
 51
269.99999999999977
  0
ARC
  8
_1-2_極細2
  6
CONTINUOUS
 62
    2
 10
826.10236691243722
 20
404.31820920019641
 40
20.687882666666667
 50
166.96197800000505
 51
193.03566999999961
  0
ARC
  8
_1-3_細線2
  6
CONTINUOUS
 62
    4
 10
805.94775357910498
 20
417.78526520019636
 40
0.5333333333333335
 50
89.999999999999915
 51
179.99999999999983
  0
ARC
  8
_1-2_極細2
  6
CONTINUOUS
 62
    2
 10
826.10236691243722
 20
413.65231586686173
 40
20.687882666666667
 50
166.96433000000002
 51
193.03802199999825
  0
LINE
  8
_1-3_細線2
  6
CONTINUOUS
 62
    4
 10
813.95982824577027
 20
418.31859853352921
 11
805.94775357910498
 21
418.31859853352921
  0
LINE
  8
_1-3_細線2
  6
CONTINUOUS
 62
    4
 10
805.41442024577077
 20
400.18526520019554
 11
805.41442024577077
 21
417.78526520019636
  0
LINE
  8
_1-3_細線2
  6
CONTINUOUS
 62
    4
 10
1024.8844893069729
 20
435.11859928447808
 11
1004.6178226403078
 21
435.11859928447808
  0
LINE
  8
_1-3_細線2
  6
CONTINUOUS
 62
    4
 10
1004.6178226403078
 20
435.11859928447808
 11
1004.6178226403078
 21
395.65193261781189
  0
ARC
  8
_1-3_細線2
  6
CONTINUOUS
 62
    4
 10
1024.8844893069738
 20
435.11859928447842
 40
3.1999999999999997
 50
0
 51
89.999999999999915
  0
LINE
  8
_1-3_細線2
  6
CONTINUOUS
 62
    4
 10
1001.4178226403071
 20
435.11859928447842
 11
1001.4178226403071
 21
395.65193261781189
  0
LINE
  8
_1-3_細線2
  6
CONTINUOUS
 62
    4
 10
1024.8844893069738
 20
438.31859928447852
 11
1004.6178226403074
 21
438.31859928447852
  0
ARC
  8
_1-3_細線2
  6
CONTINUOUS
 62
    4
 10
1004.6178226403074
 20
435.11859928447842
 40
3.1999999999999997
 50
89.999999999999915
 51
179.99999999999983
  0
LINE
  8
_1-3_細線2
  6
CONTINUOUS
 62
    4
 10
1001.4178226403071
 20
395.65193261781189
 11
1004.6178226403078
 21
395.65193261781189
  0
LINE
  8
_1-3_細線2
  6
CONTINUOUS
 62
    4
 10
1028.0844893069736
 20
422.31859890900336
 11
1024.8844893069729
 21
422.31859890900319
  0
LINE
  8
_1-3_細線2
  6
CONTINUOUS
 62
    4
 10
1024.8844893069729
 20
435.11859928447808
 11
1024.8844893069729
 21
422.31859890900336
  0
LINE
  8
_1-3_細線2
  6
CONTINUOUS
 62
    4
 10
1028.0844893069736
 20
435.11859928447842
 11
1028.0844893069736
 21
422.31859890900336
  0
LINE
  8
_1-3_細線2
  6
CONTINUOUS
 62
    4
 10
1042.7511562457719
 20
399.78526557567005
 11
1004.6178229124394
 21
399.78526557567005
  0
LINE
  8
_1-3_細線2
  6
CONTINUOUS
 62
    4
 10
1042.7511562457719
 20
418.18526557567014
 11
1004.6178229124394
 21
418.18526557567014
  0
LINE
  8
_1-3_細線2
  6
CONTINUOUS
 62
    4
 10
1087.2844895791054
 20
415.87859928447847
 11
1087.2844895791054
 21
405.29193261781177
  0
LINE
  8
_1-3_細線2
  6
CONTINUOUS
 62
    4
 10
1087.2844895791054
 20
435.11859928447808
 11
1087.2844895791054
 21
395.65193261781189
  0
LINE
  8
_1-3_細線2
  6
CONTINUOUS
 62
    4
 10
1066.2178229124374
 20
435.11859928447808
 11
1045.9511562457712
 21
435.11859928447808
  0
LINE
  8
_1-3_細線2
  6
CONTINUOUS
 62
    4
 10
1107.5511562457714
 20
435.11859928447808
 11
1087.2844895791054
 21
435.11859928447808
  0
LINE
  8
_1-3_細線2
  6
CONTINUOUS
 62
    4
 10
1045.9511562457712
 20
435.11859928447808
 11
1045.9511562457712
 21
395.65193261781189
  0
ARC
  8
_1-3_細線2
  6
CONTINUOUS
 62
    4
 10
1107.5511562457721
 20
435.11859928447842
 40
3.1999999999999997
 50
0
 51
89.999999999999915
  0
LINE
  8
_1-3_細線2
  6
CONTINUOUS
 62
    4
 10
1084.0844895791045
 20
435.11859928447842
 11
1084.0844895791045
 21
395.65193261781189
  0
LINE
  8
_1-3_細線2
  6
CONTINUOUS
 62
    4
 10
1107.5511562457721
 20
438.31859928447852
 11
1087.2844895791045
 21
438.31859928447852
  0
ARC
  8
_1-3_細線2
  6
CONTINUOUS
 62
    4
 10
1087.2844895791045
 20
435.11859928447842
 40
3.1999999999999997
 50
89.999999999999915
 51
179.99999999999983
  0
ARC
  8
_1-3_細線2
  6
CONTINUOUS
 62
    4
 10
1066.2178229124381
 20
435.11859928447842
 40
3.1999999999999997
 50
0
 51
89.999999999999915
  0
LINE
  8
_1-3_細線2
  6
CONTINUOUS
 62
    4
 10
1042.7511562457719
 20
435.11859928447842
 11
1042.7511562457719
 21
395.65193261781189
  0
LINE
  8
_1-3_細線2
  6
CONTINUOUS
 62
    4
 10
1066.2178229124381
 20
438.31859928447852
 11
1045.9511562457722
 21
438.31859928447852
  0
ARC
  8
_1-3_細線2
  6
CONTINUOUS
 62
    4
 10
1045.9511562457722
 20
435.11859928447842
 40
3.1999999999999997
 50
89.999999999999915
 51
179.99999999999983
  0
LINE
  8
_1-3_細線2
  6
CONTINUOUS
 62
    4
 10
1042.7511562457719
 20
395.65193261781189
 11
1045.9511562457712
 21
395.65193261781189
  0
LINE
  8
_1-3_細線2
  6
CONTINUOUS
 62
    4
 10
1084.0844895791045
 20
395.65193261781189
 11
1087.2844895791054
 21
395.65193261781189
  0
LINE
  8
_1-3_細線2
  6
CONTINUOUS
 62
    4
 10
1110.7511562457721
 20
422.31859890900336
 11
1107.5511562457714
 21
422.31859890900336
  0
LINE
  8
_1-3_細線2
  6
CONTINUOUS
 62
    4
 10
1069.4178229124382
 20
422.31859890900336
 11
1066.2178229124374
 21
422.31859890900336
  0
LINE
  8
_1-3_細線2
  6
CONTINUOUS
 62
    4
 10
1066.2178229124374
 20
435.11859928447808
 11
1066.2178229124374
 21
422.31859890900336
  0
LINE
  8
_1-3_細線2
  6
CONTINUOUS
 62
    4
 10
1107.5511562457714
 20
435.11859928447808
 11
1107.5511562457714
 21
422.31859890900336
  0
LINE
  8
_1-3_細線2
  6
CONTINUOUS
 62
    4
 10
1110.7511562457721
 20
435.11859928447842
 11
1110.7511562457721
 21
422.31859890900336
  0
LINE
  8
_1-3_細線2
  6
CONTINUOUS
 62
    4
 10
1069.4178229124382
 20
435.11859928447842
 11
1069.4178229124382
 21
422.31859890900336
  0
LINE
  8
_1-3_細線2
  6
CONTINUOUS
 62
    4
 10
1084.0844898512373
 20
399.78526557567005
 11
1045.9511565179048
 21
399.78526557567005
  0
LINE
  8
_1-3_細線2
  6
CONTINUOUS
 62
    4
 10
1084.0844898512373
 20
418.18526557567014
 11
1045.9511565179048
 21
418.18526557567014
  0
LINE
  8
_1-2_極細2
  6
CONTINUOUS
 62
    2
 10
1077.4178226403071
 20
396.98526595114521
 11
1077.4178226403071
 21
395.65193261781172
  0
LINE
  8
_1-2_極細2
  6
CONTINUOUS
 62
    2
 10
1077.4178226403071
 20
394.05193261781181
 11
1077.4178226403071
 21
392.7185992844785
  0
LINE
  8
_1-2_極細2
  6
CONTINUOUS
 62
    2
 10
1074.0844893069739
 20
395.65193261781189
 11
1074.0844893069739
 21
394.05193261781181
  0
LINE
  8
_1-2_極細2
  6
CONTINUOUS
 62
    2
 10
1075.4178226403071
 20
395.65193261781189
 11
1075.4178226403071
 21
394.05193261781181
  0
LINE
  8
_1-2_極細2
  6
CONTINUOUS
 62
    2
 10
1074.0844893069739
 20
394.40000000000003
 11
1075.4178226403071
 21
394.40000000000003
  0
LINE
  8
_1-2_極細2
  6
CONTINUOUS
 62
    2
 10
1074.0844893069739
 20
395.20000000000005
 11
1075.4178226403071
 21
395.20000000000005
  0
LINE
  8
_1-2_極細2
  6
CONTINUOUS
 62
    2
 10
1058.7511559736406
 20
396.98526595114521
 11
1058.7511559736411
 21
395.65193261781189
  0
LINE
  8
_1-2_極細2
  6
CONTINUOUS
 62
    2
 10
1058.7511559736411
 20
394.05193261781181
 11
1058.7511559736406
 21
392.7185992844785
  0
LINE
  8
_1-2_極細2
  6
CONTINUOUS
 62
    2
 10
1060.7511559736406
 20
395.65193261781189
 11
1060.7511559736406
 21
394.05193261781181
  0
LINE
  8
_1-2_極細2
  6
CONTINUOUS
 62
    2
 10
1062.0844893069739
 20
395.65193261781189
 11
1062.0844893069739
 21
394.05193261781181
  0
LINE
  8
_1-2_極細2
  6
CONTINUOUS
 62
    2
 10
1060.7511559736406
 20
394.40000000000003
 11
1062.0844893069739
 21
394.40000000000003
  0
LINE
  8
_1-2_極細2
  6
CONTINUOUS
 62
    2
 10
1060.7511559736406
 20
395.20000000000005
 11
1062.0844893069739
 21
395.20000000000005
  0
LINE
  8
_1-2_極細2
  6
CONTINUOUS
 62
    2
 10
1058.7511559736411
 20
396.98526595114521
 11
1077.4178226403071
 21
396.98526595114521
  0
LINE
  8
_1-2_極細2
  6
CONTINUOUS
 62
    2
 10
1058.7511559736411
 20
396.00000000000006
 11
1077.4178226403071
 21
396.00000000000006
  0
LINE
  8
_1-2_極細2
  6
CONTINUOUS
 62
    2
 10
1058.7511559736411
 20
396.80000000000007
 11
1077.4178226403071
 21
396.80000000000007
  0
LINE
  8
_1-2_極細2
  6
CONTINUOUS
 62
    2
 10
1058.7511559736406
 20
392.80000000000007
 11
1077.4178226403071
 21
392.80000000000007
  0
LINE
  8
_1-2_極細2
  6
CONTINUOUS
 62
    2
 10
1058.7511559736406
 20
393.60000000000008
 11
1077.4178226403071
 21
393.60000000000008
  0
LINE
  8
_1-2_極細2
  6
CONTINUOUS
 62
    2
 10
1058.7511559736406
 20
392.7185992844785
 11
1077.4178226403071
 21
392.7185992844785
  0
LINE
  8
_1-2_極細2
  6
CONTINUOUS
 62
    2
 10
1088.8844893069743
 20
432.18526595114503
 11
1087.2844893069739
 21
432.18526595114503
  0
LINE
  8
_1-2_極細2
  6
CONTINUOUS
 62
    2
 10
1088.8844893069743
 20
432.18526595114503
 11
1088.8844893069743
 21
394.05193261781181
  0
LINE
  8
_1-2_極細2
  6
CONTINUOUS
 62
    2
 10
1091.5424839736422
 20
408.98526557567004
 11
1099.5545266403092
 21
408.98526557567004
  0
LINE
  8
_1-3_細線2
  6
CONTINUOUS
 62
    4
 10
1091.5424839736422
 20
399.65193224233792
 11
1099.5545586403075
 21
399.65193224233792
  0
ARC
  8
_1-3_細線2
  6
CONTINUOUS
 62
    4
 10
1099.5545586403075
 20
400.18526557567077
 40
0.5333333333333335
 50
269.99999999999977
 51
359.99999999999966
  0
ARC
  8
_1-2_極細2
  6
CONTINUOUS
 62
    2
 10
1079.3999453069753
 20
404.31820957567163
 40
20.687882666666667
 50
346.96432999999968
 51
13.038021999994573
  0
ARC
  8
_1-3_細線2
  6
CONTINUOUS
 62
    4
 10
1099.5545586403075
 20
417.78526557567159
 40
0.5333333333333335
 50
0
 51
89.999999999999915
  0
ARC
  8
_1-2_極細2
  6
CONTINUOUS
 62
    2
 10
1079.3999453069753
 20
413.65231624233695
 40
20.687882666666667
 50
346.96197800000101
 51
13.035669999999625
  0
LINE
  8
_1-3_細線2
  6
CONTINUOUS
 62
    4
 10
1091.5424839736422
 20
418.31859890900444
 11
1099.5545586403075
 21
418.31859890900444
  0
LINE
  8
_1-3_細線2
  6
CONTINUOUS
 62
    4
 10
1100.0878919736419
 20
400.18526557567077
 11
1100.0878919736419
 21
417.78526557567159
  0
ARC
  8
_1-3_細線2
  6
CONTINUOUS
 62
    4
 10
1091.009150640308
 20
396.18526557567077
 40
0.5333333333333335
 50
269.99999999999977
 51
359.99999999999966
  0
LINE
  8
_1-3_細線2
  6
CONTINUOUS
 62
    4
 10
1088.8844893069743
 20
395.6519322423373
 11
1091.009150640308
 21
395.6519322423373
  0
ARC
  8
_1-3_細線2
  6
CONTINUOUS
 62
    4
 10
1091.009150640308
 20
421.78526557567005
 40
0.5333333333333335
 50
0
 51
89.999999999999915
  0
LINE
  8
_1-3_細線2
  6
CONTINUOUS
 62
    4
 10
1088.8844893069743
 20
422.31859890900444
 11
1091.009150640308
 21
422.31859890900444
  0
LINE
  8
_1-3_細線2
  6
CONTINUOUS
 62
    4
 10
1091.5424839736422
 20
421.78526557567005
 11
1091.5424839736422
 21
396.18526557567077
  0
LINE
  8
_1-2_極細2
  6
CONTINUOUS
 62
    2
 10
818.21782291243858
 20
395.65193261781189
 11
1087.2844893069739
 21
395.65193261781189
  0
LINE
  8
_1-2_極細2
  6
CONTINUOUS
 62
    2
 10
816.61782291243844
 20
394.05193261781181
 11
1088.8844893069743
 21
394.05193261781181
  0
LINE
  8
_1-2_極細2
  6
CENTER1
 62
    2
 10
801.78292847712623
 20
408.98526557567004
 11
1104.5810452668991
 21
408.98526557567004
  0
LINE
  8
_1-3_細線2
  6
CONTINUOUS
 62
    4
 10
983.55115570150838
 20
435.11859928447808
 11
963.28448903484309
 21
435.11859928447808
  0
LINE
  8
_1-3_細線2
  6
CONTINUOUS
 62
    4
 10
963.28448903484309
 20
435.11859928447808
 11
963.28448903484309
 21
395.65193261781189
  0
ARC
  8
_1-3_細線2
  6
CONTINUOUS
 62
    4
 10
983.55115570150906
 20
435.11859928447842
 40
3.1999999999999997
 50
0
 51
89.999999999999915
  0
LINE
  8
_1-3_細線2
  6
CONTINUOUS
 62
    4
 10
960.08448903484236
 20
435.11859928447842
 11
960.08448903484236
 21
395.65193261781189
  0
LINE
  8
_1-3_細線2
  6
CONTINUOUS
 62
    4
 10
983.55115570150906
 20
438.31859928447852
 11
963.28448903484218
 21
438.31859928447852
  0
ARC
  8
_1-3_細線2
  6
CONTINUOUS
 62
    4
 10
963.28448903484218
 20
435.11859928447842
 40
3.1999999999999997
 50
89.999999999999915
 51
179.99999999999983
  0
LINE
  8
_1-3_細線2
  6
CONTINUOUS
 62
    4
 10
960.08448903484236
 20
395.65193261781189
 11
963.28448903484309
 21
395.65193261781189
  0
LINE
  8
_1-3_細線2
  6
CONTINUOUS
 62
    4
 10
986.75115570150911
 20
422.31859890900336
 11
983.55115570150838
 21
422.31859890900319
  0
LINE
  8
_1-3_細線2
  6
CONTINUOUS
 62
    4
 10
983.55115570150838
 20
435.11859928447808
 11
983.55115570150838
 21
422.31859890900336
  0
LINE
  8
_1-3_細線2
  6
CONTINUOUS
 62
    4
 10
986.75115570150911
 20
435.11859928447842
 11
986.75115570150911
 21
422.31859890900336
  0
LINE
  8
_1-3_細線2
  6
CONTINUOUS
 62
    4
 10
1001.4178226403071
 20
399.78526557567005
 11
963.28448930697436
 21
399.78526557567005
  0
LINE
  8
_1-3_細線2
  6
CONTINUOUS
 62
    4
 10
1001.4178226403071
 20
418.18526557567014
 11
963.28448930697436
 21
418.18526557567014
  0
LINE
  8
_1-3_細線2
  6
CONTINUOUS
 62
    4
 10
880.61782318457108
 20
435.11859928447808
 11
900.88448985123637
 21
435.11859928447808
  0
LINE
  8
_1-3_細線2
  6
CONTINUOUS
 62
    4
 10
900.88448985123637
 20
435.11859928447808
 11
900.88448985123637
 21
395.65193261781189
  0
ARC
  8
_1-3_細線2
  6
CONTINUOUS
 62
    4
 10
880.61782318457017
 20
435.11859928447842
 40
3.1999999999999997
 50
89.999999999999915
 51
179.99999999999983
  0
LINE
  8
_1-3_細線2
  6
CONTINUOUS
 62
    4
 10
904.08448985123709
 20
435.11859928447842
 11
904.08448985123709
 21
395.65193261781189
  0
LINE
  8
_1-3_細線2
  6
CONTINUOUS
 62
    4
 10
880.61782318457017
 20
438.31859928447852
 11
900.88448985123682
 21
438.31859928447852
  0
ARC
  8
_1-3_細線2
  6
CONTINUOUS
 62
    4
 10
900.88448985123682
 20
435.11859928447842
 40
3.1999999999999997
 50
0
 51
89.999999999999915
  0
LINE
  8
_1-3_細線2
  6
CONTINUOUS
 62
    4
 10
904.08448985123709
 20
395.65193261781189
 11
900.88448985123637
 21
395.65193261781189
  0
LINE
  8
_1-3_細線2
  6
CONTINUOUS
 62
    4
 10
877.41782318457035
 20
422.31859890900336
 11
880.61782318457108
 21
422.31859890900319
  0
LINE
  8
_1-3_細線2
  6
CONTINUOUS
 62
    4
 10
880.61782318457108
 20
435.11859928447808
 11
880.61782318457108
 21
422.31859890900336
  0
LINE
  8
_1-3_細線2
  6
CONTINUOUS
 62
    4
 10
877.41782318457035
 20
435.11859928447842
 11
877.41782318457035
 21
422.31859890900336
  0
LINE
  8
_1-3_細線2
  6
CONTINUOUS
 62
    4
 10
862.75115624577188
 20
399.78526557567005
 11
900.88448957910464
 21
399.78526557567005
  0
LINE
  8
_1-3_細線2
  6
CONTINUOUS
 62
    4
 10
862.75115624577188
 20
418.18526557567014
 11
900.88448957910464
 21
418.18526557567014
  0
LINE
  8
_1-3_細線2
  6
CONTINUOUS
 62
    4
 10
921.95115679003561
 20
435.11859928447808
 11
942.21782345670113
 21
435.11859928447808
  0
LINE
  8
_1-3_細線2
  6
CONTINUOUS
 62
    4
 10
942.21782345670113
 20
435.11859928447808
 11
942.21782345670113
 21
395.65193261781189
  0
ARC
  8
_1-3_細線2
  6
CONTINUOUS
 62
    4
 10
921.95115679003516
 20
435.11859928447842
 40
3.1999999999999997
 50
89.999999999999915
 51
179.99999999999983
  0
LINE
  8
_1-3_細線2
  6
CONTINUOUS
 62
    4
 10
945.41782345670185
 20
435.11859928447842
 11
945.41782345670185
 21
395.65193261781189
  0
LINE
  8
_1-3_細線2
  6
CONTINUOUS
 62
    4
 10
921.95115679003516
 20
438.31859928447852
 11
942.21782345670158
 21
438.31859928447852
  0
ARC
  8
_1-3_細線2
  6
CONTINUOUS
 62
    4
 10
942.21782345670158
 20
435.11859928447842
 40
3.1999999999999997
 50
0
 51
89.999999999999915
  0
LINE
  8
_1-3_細線2
  6
CONTINUOUS
 62
    4
 10
945.41782345670185
 20
395.65193261781189
 11
942.21782345670113
 21
395.65193261781189
  0
LINE
  8
_1-3_細線2
  6
CONTINUOUS
 62
    4
 10
918.75115679003488
 20
422.31859890900336
 11
921.95115679003561
 21
422.31859890900319
  0
LINE
  8
_1-3_細線2
  6
CONTINUOUS
 62
    4
 10
921.95115679003561
 20
435.11859928447808
 11
921.95115679003561
 21
422.31859890900336
  0
LINE
  8
_1-3_細線2
  6
CONTINUOUS
 62
    4
 10
918.75115679003488
 20
435.11859928447842
 11
918.75115679003488
 21
422.31859890900336
  0
LINE
  8
_1-3_細線2
  6
CONTINUOUS
 62
    4
 10
904.08448985123709
 20
399.78526557567005
 11
942.21782318456962
 21
399.78526557567005
  0
LINE
  8
_1-3_細線2
  6
CONTINUOUS
 62
    4
 10
904.08448985123709
 20
418.18526557567014
 11
942.21782318456962
 21
418.18526557567014
  0
LINE
  8
_1-3_細線2
  6
CONTINUOUS
 62
    4
 10
960.08448903484236
 20
418.18526557567014
 11
945.41782345670185
 21
418.18526557567014
  0
LINE
  8
_1-3_細線2
  6
CONTINUOUS
 62
    4
 10
960.08448903484236
 20
399.78526557567005
 11
945.41782345670185
 21
399.78526557567005
  0
LINE
  8
_1-5_寸法2
  6
CONTINUOUS
 62
    7
 10
904.08448985123709
 20
454.31859928447852
 11
904.08448985123709
 21
531.38526595114524
  0
LINE
  8
_1-5_寸法2
  6
CONTINUOUS
 62
    7
 10
904.08448985123709
 20
523.38526595114524
 11
888.62967663061204
 21
519.24416122950493
  0
LINE
  8
_1-5_寸法2
  6
CONTINUOUS
 62
    7
 10
904.08448985123709
 20
523.38526595114524
 11
888.62967663061204
 21
527.52637067278567
  0
LINE
  8
_1-5_寸法2
  6
CONTINUOUS
 62
    7
 10
918.75115679003488
 20
454.31859928447852
 11
918.75115679003511
 21
531.38526595114524
  0
LINE
  8
_1-5_寸法2
  6
CONTINUOUS
 62
    7
 10
850.16707946090276
 20
523.38526595114524
 11
918.75115679003511
 21
523.38526595114524
  0
TEXT
  8
_1-5_寸法2
 62
    7
 10
850.16707946090264
 20
523.38526595114524
 40
24
 41
1
 50
0
  1
5.5
  0
LINE
  8
_1-5_寸法2
  6
CONTINUOUS
 62
    7
 10
918.75115679003511
 20
523.38526595114524
 11
934.20597001066028
 21
527.52637067278545
  0
LINE
  8
_1-5_寸法2
  6
CONTINUOUS
 62
    7
 10
918.75115679003511
 20
523.38526595114524
 11
934.20597001066017
 21
519.24416122950481
  0
LINE
  8
_1-5_寸法2
  6
CONTINUOUS
 62
    7
 10
945.41782345670185
 20
454.31859928447852
 11
945.41782345670185
 21
531.38526595114524
  0
LINE
  8
_1-5_寸法2
  6
CONTINUOUS
 62
    7
 10
945.41782345670185
 20
523.38526595114524
 11
929.9630102360768
 21
519.24416122950493
  0
LINE
  8
_1-5_寸法2
  6
CONTINUOUS
 62
    7
 10
945.41782345670185
 20
523.38526595114524
 11
929.9630102360768
 21
527.52637067278567
  0
LINE
  8
_1-5_寸法2
  6
CONTINUOUS
 62
    7
 10
918.75115679003511
 20
523.38526595114524
 11
945.41782345670185
 21
523.38526595114524
  0
TEXT
  8
_1-5_寸法2
 62
    7
 10
920.08449012336882
 20
523.38526595114524
 40
24
 41
1
 50
0
  1
10
  0
TEXT
  8
_0-7_枠細線
 62
    5
 10
872.75115624577188
 20
315.18169813211409
 40
40
 41
0.8
 50
0
  1
断面詳細図
  0
TEXT
  8
_0-7_枠細線
 62
    5
 10
1056.6695078444416
 20
318.33843394045527
 40
32
 41
0.6
 50
0
  1
Ｓ＝１：３
  0
LINE
  8
_0-7_枠細線
  6
CONTINUOUS
 62
    5
 10
2173.3080272873876
 20
528.51085913780207
 11
2173.3080272873876
 21
360.51085913780253
  0
TEXT
  8
_0-7_枠細線
 62
    5
 10
2027.7080272873889
 20
496.51085913780207
 40
24.000000000000004
 41
0.8
 50
0
  1
ノンスリップ
  0
LINE
  8
_0-7_枠細線
  6
CONTINUOUS
 62
    5
 10
2013.1923606279313
 20
412.11529377818852
 11
2165.0011392794177
 21
412.11529377818852
  0
LINE
  8
_0-7_枠細線
  6
CONTINUOUS
 62
    5
 10
2007.2160512951943
 20
438.78196044218885
 11
2159.0248299466812
 21
438.78196044218885
  0
ARC
  8
_0-7_枠細線
  6
CONTINUOUS
 62
    5
 10
2030.641360626186
 20
420.11529377738862
 40
5.3333333327999997
 50
51.31781299999917
 51
203.57817800000373
  0
ARC
  8
_0-7_枠細線
  6
CONTINUOUS
 62
    5
 10
2037.3080272921864
 20
428.44195777655614
 40
5.3333333327999997
 50
231.31781300000563
 51
308.68218699999358
  0
LINE
  8
_0-7_枠細線
  6
CONTINUOUS
 62
    5
 10
2025.7532806266761
 20
417.98196044426868
 11
2048.8627739576968
 21
417.98196044426868
  0
ARC
  8
_0-7_枠細線
  6
CONTINUOUS
 62
    5
 10
2043.9746939581867
 20
420.11529377738862
 40
5.3333333327999997
 50
336.42182199999456
 51
128.68218700000429
  0
ARC
  8
_0-7_枠細線
  6
CONTINUOUS
 62
    5
 10
2078.6413606213873
 20
430.78196044298875
 40
5.3333333327999997
 50
156.42182200000036
 51
308.68218699998596
  0
ARC
  8
_0-7_枠細線
  6
CONTINUOUS
 62
    5
 10
2085.3080272873858
 20
422.45529644382123
 40
5.3333333327999997
 50
51.317812999995361
 51
128.68218699999704
  0
ARC
  8
_0-7_枠細線
  6
CONTINUOUS
 62
    5
 10
2091.974693953387
 20
430.78196044298875
 40
5.3333333327999997
 50
231.31781299999807
 51
23.578178000003184
  0
LINE
  8
_0-7_枠細線
  6
CONTINUOUS
 62
    5
 10
2073.753280621876
 20
432.91529377610868
 11
2096.8627739528974
 21
432.91529377610868
  0
LINE
  8
_0-7_枠細線
  6
CONTINUOUS
 62
    5
 10
2121.7532806170757
 20
417.98196044426868
 11
2144.8627739480971
 21
417.98196044426868
  0
ARC
  8
_0-7_枠細線
  6
CONTINUOUS
 62
    5
 10
2126.6413606165861
 20
420.11529377738862
 40
5.3333333327999997
 50
51.317813000002985
 51
203.57817800000373
  0
ARC
  8
_0-7_枠細線
  6
CONTINUOUS
 62
    5
 10
2133.3080272825864
 20
428.44195777655614
 40
5.3333333327999997
 50
231.31781300000563
 51
308.68218699999358
  0
ARC
  8
_0-7_枠細線
  6
CONTINUOUS
 62
    5
 10
2139.9746939485858
 20
420.11529377738862
 40
5.3333333327999997
 50
336.42182199999553
 51
128.68218699999667
  0
ARC
  8
_0-7_枠細線
  6
CONTINUOUS
 62
    5
 10
2078.6413606213873
 20
430.78196044298875
 40
9.9466666656720477
 50
151.14636799999636
 51
308.68218700000085
  0
LINE
  8
_0-7_枠細線
  6
CONTINUOUS
 62
    5
 10
2006.6300192952542
 20
435.58196044250872
 11
2069.9295206222569
 21
435.58196044250872
  0
LINE
  8
_0-7_枠細線
  6
CONTINUOUS
 62
    5
 10
2052.6865366239808
 20
415.31529377786865
 11
2117.9295206174584
 21
415.31529377786865
  0
ARC
  8
_0-7_枠細線
  6
CONTINUOUS
 62
    5
 10
2000.0606646292447
 20
416.17383511111575
 40
13.744570665292123
 50
317.56162900000112
 51
42.438371000002093
  0
ARC
  8
_0-7_枠細線
  6
CONTINUOUS
 62
    5
 10
2030.641360626186
 20
420.11529377738862
 40
9.9466666656720477
 50
51.317812999990608
 51
208.8536319999987
  0
ARC
  8
_0-7_枠細線
  6
CONTINUOUS
 62
    5
 10
2020.3477499605481
 20
434.72341910926116
 40
13.744570665292123
 50
137.56162899999757
 51
222.43837100000209
  0
LINE
  8
_0-7_枠細線
  6
CONTINUOUS
 62
    5
 10
2013.7783952945395
 20
415.31529377786865
 11
2021.9295206270565
 21
415.31529377786865
  0
ARC
  8
_0-7_枠細線
  6
CONTINUOUS
 62
    5
 10
2037.3080272921864
 20
428.44195777655614
 40
0.7199999999279512
 50
231.31781300003806
 51
308.68218699996123
  0
ARC
  8
_0-7_枠細線
  6
CONTINUOUS
 62
    5
 10
2043.9746939581867
 20
420.11529377738862
 40
9.9466666656720477
 50
331.14636799999994
 51
128.68218700000494
  0
ARC
  8
_0-7_枠細線
  6
CONTINUOUS
 62
    5
 10
2151.8694432807324
 20
416.17383511111575
 40
13.744570665292123
 50
317.561628999996
 51
42.438371000004636
  0
ARC
  8
_0-7_枠細線
  6
CONTINUOUS
 62
    5
 10
2172.1565286120367
 20
434.72341910926116
 40
13.744570665292123
 50
137.56162900000521
 51
222.43837099999698
  0
LINE
  8
_0-7_枠細線
  6
CONTINUOUS
 62
    5
 10
2148.6865366143811
 20
415.31529377786865
 11
2165.5871739460263
 21
415.31529377786865
  0
LINE
  8
_0-7_枠細線
  6
CONTINUOUS
 62
    5
 10
2100.6865366191823
 20
435.58196044250872
 11
2158.438797946741
 21
435.58196044250872
  0
ARC
  8
_0-7_枠細線
  6
CONTINUOUS
 62
    5
 10
2126.6413606165861
 20
420.11529377738862
 40
9.9466666656720477
 50
51.317812999990608
 51
208.85363200000583
  0
ARC
  8
_0-7_枠細線
  6
CONTINUOUS
 62
    5
 10
2085.3080272873858
 20
422.45529644382123
 40
0.7199999999279512
 50
51.317812999959308
 51
128.6821869999842
  0
ARC
  8
_0-7_枠細線
  6
CONTINUOUS
 62
    5
 10
2091.974693953387
 20
430.78196044298875
 40
9.9466666656720477
 50
231.31781299998616
 51
28.853631999996409
  0
ARC
  8
_0-7_枠細線
  6
CONTINUOUS
 62
    5
 10
2133.3080272825864
 20
428.44195777655614
 40
0.7199999999279512
 50
231.31781299998158
 51
308.68218699996123
  0
ARC
  8
_0-7_枠細線
  6
CONTINUOUS
 62
    5
 10
2139.9746939485858
 20
420.11529377738862
 40
9.9466666656720477
 50
331.14636800000056
 51
128.68218700000088
  0
LINE
  8
_0-7_枠細線
  6
CENTER1
 62
    5
 10
2037.3080272921864
 20
441.02162177529772
 11
2037.3080272921864
 21
410.06458444506052
  0
LINE
  8
_0-7_枠細線
  6
CENTER1
 62
    5
 10
2133.3080272825864
 20
441.02162177529772
 11
2133.3080272825864
 21
410.06458444506052
  0
LINE
  8
_0-7_枠細線
  6
CENTER1
 62
    5
 10
2085.3080272873858
 20
441.02162177529772
 11
2085.3080272873858
 21
410.06458444506052
  0
LINE
  8
_0-7_枠細線
  6
CONTINUOUS
 62
    5
 10
2037.3080272921864
 20
404.11529377818852
 11
2037.3080272921864
 21
364.11529377818852
  0
LINE
  8
_0-7_枠細線
  6
CONTINUOUS
 62
    5
 10
2037.3080272921864
 20
372.11529377818852
 11
2052.7628405128116
 21
376.25639849982883
  0
LINE
  8
_0-7_枠細線
  6
CONTINUOUS
 62
    5
 10
2037.3080272921864
 20
372.11529377818852
 11
2052.7628405128116
 21
367.9741890565482
  0
LINE
  8
_0-7_枠細線
  6
CONTINUOUS
 62
    5
 10
2085.3080272873858
 20
404.11529377818852
 11
2085.3080272873858
 21
364.11529377818852
  0
LINE
  8
_0-7_枠細線
  6
CONTINUOUS
 62
    5
 10
2085.3080272873858
 20
372.11529377818852
 11
2069.8532140667608
 21
367.97418905654825
  0
LINE
  8
_0-7_枠細線
  6
CONTINUOUS
 62
    5
 10
2085.3080272873858
 20
372.11529377818852
 11
2069.8532140667608
 21
376.25639849982889
  0
LINE
  8
_0-7_枠細線
  6
CONTINUOUS
 62
    5
 10
2037.3080272921864
 20
372.11529377818852
 11
2085.3080272873858
 21
372.11529377818852
  0
TEXT
  8
_0-7_枠細線
 62
    5
 10
2049.3080272897869
 20
372.11529377818852
 40
24
 41
1
 50
0
  1
18
  0
LINE
  8
_0-7_枠細線
  6
CONTINUOUS
 62
    5
 10
2085.3080272873858
 20
372.11529377818852
 11
2100.7628405080109
 21
376.25639849982872
  0
LINE
  8
_0-7_枠細線
  6
CONTINUOUS
 62
    5
 10
2085.3080272873858
 20
372.11529377818852
 11
2100.7628405080109
 21
367.97418905654808
  0
LINE
  8
_0-7_枠細線
  6
CONTINUOUS
 62
    5
 10
2133.3080272825864
 20
404.11529377818852
 11
2133.3080272825864
 21
364.11529377818852
  0
LINE
  8
_0-7_枠細線
  6
CONTINUOUS
 62
    5
 10
2133.3080272825864
 20
372.11529377818852
 11
2117.8532140619614
 21
367.97418905654825
  0
LINE
  8
_0-7_枠細線
  6
CONTINUOUS
 62
    5
 10
2133.3080272825864
 20
372.11529377818852
 11
2117.8532140619614
 21
376.25639849982889
  0
LINE
  8
_0-7_枠細線
  6
CONTINUOUS
 62
    5
 10
2085.3080272873858
 20
372.11529377818852
 11
2133.3080272825864
 21
372.11529377818852
  0
TEXT
  8
_0-7_枠細線
 62
    5
 10
2097.3080272849866
 20
372.11529377818852
 40
24
 41
1
 50
0
  1
18
  0
TEXT
  8
_0-7_枠細線
 62
    5
 10
2046.9080272873878
 20
456.51085913780253
 40
24.000000000000004
 41
0.7999999999999997
 50
0
  1
品番－Ｄ
  0
LINE
  8
_0-7_枠細線
  6
CONTINUOUS
 62
    5
 10
1997.3080272873869
 20
528.51085913780207
 11
1997.3080272873869
 21
360.51085913780253
  0
TEXT
  8
_0-7_枠細線
 62
    5
 10
1870.9080272873864
 20
496.51085913780253
 40
24.000000000000004
 41
0.8
 50
0
  1
プレーン
  0
LINE
  8
_0-7_枠細線
  6
CONTINUOUS
 62
    5
 10
1836.3917912946774
 20
412.11529377818852
 11
1988.2005699461645
 21
412.11529377818852
  0
LINE
  8
_0-7_枠細線
  6
CONTINUOUS
 62
    5
 10
1830.4154819619412
 20
438.78196044218885
 11
1982.2242606134289
 21
438.78196044218885
  0
ARC
  8
_0-7_枠細線
  6
CONTINUOUS
 62
    5
 10
1975.0688739474765
 20
416.17383511111575
 40
13.744570665292123
 50
317.56162900000527
 51
42.43837099999547
  0
ARC
  8
_0-7_枠細線
  6
CONTINUOUS
 62
    5
 10
1823.2600952959917
 20
416.17383511111575
 40
13.744570665292276
 50
317.56162899999987
 51
42.438371000002242
  0
LINE
  8
_0-7_枠細線
  6
CONTINUOUS
 62
    5
 10
1829.8294499620008
 20
435.58196044250872
 11
1981.6382286134879
 21
435.58196044250872
  0
LINE
  8
_0-7_枠細線
  6
CONTINUOUS
 62
    5
 10
1836.977825961286
 20
415.31529377786865
 11
1988.7866046127722
 21
415.31529377786865
  0
ARC
  8
_0-7_枠細線
  6
CONTINUOUS
 62
    5
 10
1843.5471806272974
 20
434.72341910926116
 40
13.744570665292276
 50
137.56162899999882
 51
222.43837100000209
  0
ARC
  8
_0-7_枠細線
  6
CONTINUOUS
 62
    5
 10
1995.3559592787826
 20
434.72341910926116
 40
13.744570665292123
 50
137.5616290000001
 51
222.43837099999953
  0
TEXT
  8
_0-7_枠細線
 62
    5
 10
1870.9080272873882
 20
456.51085913780253
 40
24.000000000000004
 41
0.7999999999999997
 50
0
  1
品番－Ｆ
  0
TEXT
  8
_0-7_枠細線
 62
    5
 10
1742.9080272873871
 20
496.51085913780207
 40
24.000000000000004
 41
0.8
 50
0
  1
タ イ プ
  0
LINE
  8
_0-7_枠細線
  6
CONTINUOUS
 62
    5
 10
1741.3080272873863
 20
448.51085913780253
 11
2173.3080272873876
 21
448.51085913780253
  0
LINE
  8
_0-7_枠細線
  6
CONTINUOUS
 62
    5
 10
1741.3080272873863
 20
488.51085913780207
 11
2173.3080272873876
 21
488.51085913780207
  0
LINE
  8
_0-7_枠細線
  6
CONTINUOUS
 62
    5
 10
1741.3080272873863
 20
528.51085913780207
 11
2173.3080272873876
 21
528.51085913780207
  0
LINE
  8
_0-7_枠細線
  6
CONTINUOUS
 62
    5
 10
1741.3080272873863
 20
360.51085913780253
 11
2173.3080272873876
 21
360.51085913780253
  0
LINE
  8
_0-7_枠細線
  6
CONTINUOUS
 62
    5
 10
1821.3080272873874
 20
528.51085913780207
 11
1821.3080272873874
 21
360.51085913780253
  0
LINE
  8
_0-7_枠細線
  6
CONTINUOUS
 62
    5
 10
1741.3080272873863
 20
528.51085913780207
 11
1741.3080272873863
 21
360.51085913780253
  0
TEXT
  8
_0-7_枠細線
 62
    5
 10
1742.9080272873871
 20
392.51085913780253
 40
24.000000000000004
 41
0.8
 50
0
  1
表面形状
  0
TEXT
  8
_0-7_枠細線
 62
    5
 10
1742.9080272873871
 20
456.51085913780253
 40
24.000000000000004
 41
0.8
 50
0
  1
記　　号
  0
TEXT
  8
_0-7_枠細線
 62
    5
 10
1743.8029085323053
 20
532.51085913780253
 40
28.000000000000007
 41
0.7999999999999996
 50
0
  1
記号表
  0
TEXT
  8
_0-7_枠細線
 62
    5
 10
1585.7411882204694
 20
318.33843394045527
 40
32
 41
0.6
 50
0
  1
Ｓ＝１：３
  0
TEXT
  8
_0-7_枠細線
 62
    5
 10
1401.8228366217998
 20
315.18169813211409
 40
40
 41
0.8
 50
0
  1
Ａ部詳細図
  0
LINE
  8
_1-2_極細2
  6
CONTINUOUS
 62
    2
 10
1365.5406188797519
 20
440.71859928447913
 11
1386.8739519464182
 21
440.71859928447867
  0
LINE
  8
_1-2_極細2
  6
CONTINUOUS
 62
    2
 10
1362.8739522130854
 20
443.3852659511453
 11
1389.5406186130847
 21
443.3852659511453
  0
LINE
  8
_1-2_極細2
  6
CONTINUOUS
 62
    2
 10
1362.8739522130854
 20
422.05193283114596
 11
1362.8739522130854
 21
443.38526595114575
  0
LINE
  8
_1-2_極細2
  6
CONTINUOUS
 62
    2
 10
1362.8739522130854
 20
422.05193283114596
 11
1365.5406188797519
 21
422.05193283114596
  0
LINE
  8
_1-2_極細2
  6
CONTINUOUS
 62
    2
 10
1365.5406188797519
 20
422.05193283114596
 11
1365.5406188797519
 21
440.71859928447913
  0
LINE
  8
_1-2_極細2
  6
CONTINUOUS
 62
    2
 10
1386.8739519464182
 20
440.71859928447867
 11
1386.8739519464182
 21
390.05193315114622
  0
LINE
  8
_1-2_極細2
  6
CONTINUOUS
 62
    2
 10
1386.8739519464182
 20
390.05193315114622
 11
1575.1070933362839
 21
390.05193315114622
  0
LINE
  8
_1-2_極細2
  6
CONTINUOUS
 62
    2
 10
1389.5406186130847
 20
392.71859981781284
 11
1575.1070933362839
 21
392.71859981781284
  0
LINE
  8
_1-2_極細2
  6
CONTINUOUS
 62
    2
 10
1389.5406186130847
 20
443.38526595114575
 11
1389.5406186130847
 21
392.71859981781284
  0
LINE
  8
_1-2_極細2
  6
CENTER1
 62
    2
 10
1466.0076249513506
 20
507.44586754350979
 11
1479.2304492649323
 21
476.29484560148518
  0
CIRCLE
  8
_1-2_極細2
  6
DASHED2
 62
    2
 10
1473.4746399078242
 20
489.85468269266056
 40
7.9999999999999991
  0
LINE
  8
_1-2_極細2
  6
CENTER1
 62
    2
 10
1488.1954467435528
 20
496.10329446871327
 11
1460.733721497126
 21
484.44648369193777
  0
LINE
  8
_1-2_極細2
  6
CONTINUOUS
 62
    2
 10
1483.4958179052533
 20
502.82447120103831
 11
1491.0382902379097
 21
510.36694353369484
  0
LINE
  8
_1-2_極細2
  6
DASHED2
 62
    2
 10
1484.313004052126
 20
510.38858085610315
 11
1514.7379345904897
 21
438.71193626727285
  0
LINE
  8
_1-2_極細2
  6
CONTINUOUS
 62
    2
 10
1483.4958179052533
 20
502.82447120103831
 11
1486.256554386347
 21
513.12768001478821
  0
LINE
  8
_1-2_極細2
  6
CONTINUOUS
 62
    2
 10
1412.1726541423209
 20
394.05193261781193
 11
1518.8393195556541
 21
394.05193261781193
  0
LINE
  8
_1-5_寸法2
  6
CONTINUOUS
 62
    7
 10
1454.9652091877374
 20
458.18569780865931
 11
1445.3874850059851
 21
453.49048990314139
  0
ARC
  8
_1-5_寸法2
  6
CONTINUOUS
 62
    7
 10
1498.8393208089874
 20
407.91859875114511
 40
66.72120291340525
 50
131.11509464913769
 51
160.19528028383272
  0
LINE
  8
_1-5_寸法2
  6
CONTINUOUS
 62
    7
 10
1436.0644860674197
 20
430.52477139006618
 11
1436.9579253072698
 21
441.15395499476841
  0
LINE
  8
_1-5_寸法2
  6
CONTINUOUS
 62
    7
 10
1436.0644860674197
 20
430.52477139006618
 11
1442.1528189482185
 21
439.28319479330224
  0
LINE
  8
_1-5_寸法2
  6
CONTINUOUS
 62
    7
 10
1454.9652091877374
 20
458.18569780865931
 11
1449.0182606886581
 21
449.33066639555472
  0
LINE
  8
_1-3_細線2
  6
CONTINUOUS
 62
    4
 10
1519.1831226492566
 20
418.00251080150503
 11
1511.0559151766806
 21
437.14901175331573
  0
LINE
  8
_1-3_細線2
  6
CONTINUOUS
 62
    4
 10
1453.4089232605027
 20
484.23425231308858
 11
1487.793262567558
 21
403.22982520927377
  0
ARC
  8
_1-3_細線2
  6
CONTINUOUS
 62
    4
 10
1498.8393208089874
 20
407.91859875114511
 40
11.999999999999998
 50
202.99999999999923
 51
292.99999999999977
  0
LINE
  8
_1-3_細線2
  6
CONTINUOUS
 62
    4
 10
1503.5280943508587
 20
396.87254050971552
 11
1512.1194729830816
 21
400.51936437561545
  0
ARC
  8
_1-3_細線2
  6
CONTINUOUS
 62
    4
 10
1506.9097246032245
 20
412.79276242164798
 40
13.33333333333333
 50
292.99999999999989
 51
22.999999999999332
  0
LINE
  8
_1-3_細線2
  6
CONTINUOUS
 62
    4
 10
1517.1926141996969
 20
439.75388594324426
 11
1486.7676836613318
 21
511.43053053207456
  0
LINE
  8
_1-3_細線2
  6
CONTINUOUS
 62
    4
 10
1511.0559151766806
 20
437.14901175331573
 11
1517.1926141996969
 21
439.75388594324426
  0
LINE
  8
_1-3_細線2
  6
CONTINUOUS
 62
    4
 10
1486.7676836613318
 20
511.43053053207456
 11
1459.7662079600595
 21
499.96908409638894
  0
CIRCLE
  8
_1-3_細線2
  6
CONTINUOUS
 62
    4
 10
1473.4746399078242
 20
489.85468269266056
 40
4.6666666666666652
  0
ARC
  8
_1-3_細線2
  6
CONTINUOUS
 62
    4
 10
1464.4549815019309
 20
488.92302585495992
 40
11.999999999999998
 50
113.00000000000011
 51
202.99999999999994
  0
CIRCLE
  8
_1-3_細線2
  6
CONTINUOUS
 62
    4
 10
1473.4746399078242
 20
489.85468269266056
 40
11.999999999999998
  0
LINE
  8
_1-2_極細2
  6
CONTINUOUS
 62
    2
 10
1566.6734517347845
 20
452.02478893620895
 11
1566.5770594906171
 21
451.85457003647804
  0
LINE
  8
_1-2_極細2
  6
CONTINUOUS
 62
    2
 10
1566.5770594906171
 20
451.85457003647804
 11
1566.2906497792962
 21
451.34855272949272
  0
LINE
  8
_1-2_極細2
  6
CONTINUOUS
 62
    2
 10
1566.2906497792962
 20
451.34855272949272
 11
1565.8232231449656
 21
450.5205076163856
  0
LINE
  8
_1-2_極細2
  6
CONTINUOUS
 62
    2
 10
1565.8232231449656
 20
450.5205076163856
 11
1565.1918186355542
 21
449.39290525029668
  0
LINE
  8
_1-2_極細2
  6
CONTINUOUS
 62
    2
 10
1565.1918186355542
 20
449.39290525029668
 11
1564.4236275361909
 21
447.99623324196654
  0
LINE
  8
_1-2_極細2
  6
CONTINUOUS
 62
    2
 10
1564.4236275361909
 20
447.99623324196654
 11
1563.5573451858922
 21
446.36810783889774
  0
LINE
  8
_1-2_極細2
  6
CONTINUOUS
 62
    2
 10
1563.5573451858922
 20
446.36810783889774
 11
1562.6427321009458
 21
444.55223112268919
  0
LINE
  8
_1-2_極細2
  6
CONTINUOUS
 62
    2
 10
1562.6427321009458
 20
444.55223112268919
 11
1561.7377174855017
 21
442.59724068808777
  0
LINE
  8
_1-2_極細2
  6
CONTINUOUS
 62
    2
 10
1561.7377174855017
 20
442.59724068808777
 11
1560.9029793680397
 21
440.55548710921488
  0
LINE
  8
_1-2_極細2
  6
CONTINUOUS
 62
    2
 10
1560.9029793680397
 20
440.55548710921488
 11
1560.1946293449764
 21
438.48175951401782
  0
LINE
  8
_1-2_極細2
  6
CONTINUOUS
 62
    2
 10
1560.1946293449764
 20
438.48175951401782
 11
1559.6562390553725
 21
436.4319658798608
  0
LINE
  8
_1-2_極細2
  6
CONTINUOUS
 62
    2
 10
1559.6562390553725
 20
436.4319658798608
 11
1559.3118062101835
 21
434.46176659943563
  0
LINE
  8
_1-2_極細2
  6
CONTINUOUS
 62
    2
 10
1559.3118062101835
 20
434.46176659943563
 11
1559.1612611047603
 21
432.62516036129699
  0
LINE
  8
_1-2_極細2
  6
CONTINUOUS
 62
    2
 10
1559.1612611047603
 20
432.62516036129699
 11
1559.1797343219368
 21
430.97303112554681
  0
LINE
  8
_1-2_極細2
  6
CONTINUOUS
 62
    2
 10
1559.1797343219368
 20
430.97303112554681
 11
1559.3211093838668
 21
429.55168216151111
  0
LINE
  8
_1-2_極細2
  6
CONTINUOUS
 62
    2
 10
1559.3211093838668
 20
429.55168216151111
 11
1559.5255160226166
 21
428.40140384774639
  0
LINE
  8
_1-2_極細2
  6
CONTINUOUS
 62
    2
 10
1559.5255160226166
 20
428.40140384774639
 11
1559.7295724164676
 21
427.5551410857766
  0
LINE
  8
_1-2_極細2
  6
CONTINUOUS
 62
    2
 10
1559.7295724164676
 20
427.5551410857766
 11
1559.8775520081108
 21
427.03733859367338
  0
LINE
  8
_1-2_極細2
  6
CONTINUOUS
 62
    2
 10
1559.8775520081108
 20
427.03733859367338
 11
1559.9313825204699
 21
426.86304408024142
  0
LINE
  8
_1-2_極細2
  6
CONTINUOUS
 62
    2
 10
1559.9313825204699
 20
426.86304408024142
 11
1559.9872688526316
 21
426.68869357850787
  0
LINE
  8
_1-2_極細2
  6
CONTINUOUS
 62
    2
 10
1559.9872688526316
 20
426.68869357850787
 11
1560.1653059862681
 21
426.17006247238743
  0
LINE
  8
_1-2_極細2
  6
CONTINUOUS
 62
    2
 10
1560.1653059862681
 20
426.17006247238743
 11
1560.4934565745098
 21
425.32029936805344
  0
LINE
  8
_1-2_極細2
  6
CONTINUOUS
 62
    2
 10
1560.4934565745098
 20
425.32029936805344
 11
1561.0085374657272
 21
424.16095234831829
  0
LINE
  8
_1-2_極細2
  6
CONTINUOUS
 62
    2
 10
1561.0085374657272
 20
424.16095234831829
 11
1561.7440956823884
 21
422.72144868921663
  0
LINE
  8
_1-2_極細2
  6
CONTINUOUS
 62
    2
 10
1561.7440956823884
 20
422.72144868921663
 11
1562.7179113133548
 21
421.03841624352134
  0
LINE
  8
_1-2_極細2
  6
CONTINUOUS
 62
    2
 10
1562.7179113133548
 20
421.03841624352134
 11
1563.922271858366
 21
419.15487902668855
  0
LINE
  8
_1-2_極細2
  6
CONTINUOUS
 62
    2
 10
1563.922271858366
 20
419.15487902668855
 11
1565.3195236108538
 21
417.11934982713814
  0
LINE
  8
_1-2_極細2
  6
CONTINUOUS
 62
    2
 10
1565.3195236108538
 20
417.11934982713814
 11
1566.8441569497106
 21
414.98482693345278
  0
LINE
  8
_1-2_極細2
  6
CONTINUOUS
 62
    2
 10
1566.8441569497106
 20
414.98482693345278
 11
1568.4111243395528
 21
412.80768536508839
  0
LINE
  8
_1-2_極細2
  6
CONTINUOUS
 62
    2
 10
1568.4111243395528
 20
412.80768536508839
 11
1569.9285977115214
 21
410.64644111119384
  0
LINE
  8
_1-2_極細2
  6
CONTINUOUS
 62
    2
 10
1569.9285977115214
 20
410.64644111119384
 11
1571.3123054237428
 21
408.56036486522811
  0
LINE
  8
_1-2_極細2
  6
CONTINUOUS
 62
    2
 10
1571.3123054237428
 20
408.56036486522811
 11
1572.4982055620301
 21
406.60793247257124
  0
LINE
  8
_1-2_極細2
  6
CONTINUOUS
 62
    2
 10
1572.4982055620301
 20
406.60793247257124
 11
1573.450644891326
 21
404.84512258296269
  0
LINE
  8
_1-2_極細2
  6
CONTINUOUS
 62
    2
 10
1573.450644891326
 20
404.84512258296269
 11
1574.1642273653429
 21
403.32360433578111
  0
LINE
  8
_1-2_極細2
  6
CONTINUOUS
 62
    2
 10
1574.1642273653429
 20
403.32360433578111
 11
1574.6591144856479
 21
402.08889313700485
  0
LINE
  8
_1-2_極細2
  6
CONTINUOUS
 62
    2
 10
1574.6591144856479
 20
402.08889313700485
 11
1574.971041583125
 21
401.1785831408643
  0
LINE
  8
_1-2_極細2
  6
CONTINUOUS
 62
    2
 10
1574.971041583125
 20
401.1785831408643
 11
1575.1385835731053
 21
400.62078362538006
  0
LINE
  8
_1-2_極細2
  6
CONTINUOUS
 62
    2
 10
1575.1385835731053
 20
400.62078362538006
 11
1575.1908404203787
 21
400.43288770164071
  0
LINE
  8
_1-2_極細2
  6
CONTINUOUS
 62
    2
 10
1575.1908404203787
 20
400.43288770164071
 11
1575.2409916631684
 21
400.2448619672445
  0
LINE
  8
_1-2_極細2
  6
CONTINUOUS
 62
    2
 10
1575.2409916631684
 20
400.2448619672445
 11
1575.3777428256049
 21
399.6851544068499
  0
LINE
  8
_1-2_極細2
  6
CONTINUOUS
 62
    2
 10
1575.3777428256049
 20
399.6851544068499
 11
1575.5625055850967
 21
398.76688682118976
  0
LINE
  8
_1-2_極細2
  6
CONTINUOUS
 62
    2
 10
1575.5625055850967
 20
398.76688682118976
 11
1575.7388677539566
 21
397.51194512092042
  0
LINE
  8
_1-2_極細2
  6
CONTINUOUS
 62
    2
 10
1575.7388677539566
 20
397.51194512092042
 11
1575.8428158544473
 21
395.95091683522395
  0
LINE
  8
_1-2_極細2
  6
CONTINUOUS
 62
    2
 10
1575.8428158544473
 20
395.95091683522395
 11
1575.8141471937197
 21
394.12285171597176
  0
LINE
  8
_1-2_極細2
  6
CONTINUOUS
 62
    2
 10
1575.8141471937197
 20
394.12285171597176
 11
1575.6069291703134
 21
392.07473926850599
  0
LINE
  8
_1-2_極細2
  6
CONTINUOUS
 62
    2
 10
1575.6069291703134
 20
392.07473926850599
 11
1575.1971381790161
 21
389.86062006611661
  0
LINE
  8
_1-2_極細2
  6
CONTINUOUS
 62
    2
 10
1575.1971381790161
 20
389.86062006611661
 11
1574.5862586357084
 21
387.54029285413679
  0
LINE
  8
_1-2_極細2
  6
CONTINUOUS
 62
    2
 10
1574.5862586357084
 20
387.54029285413679
 11
1573.8004905493631
 21
385.17763711334243
  0
LINE
  8
_1-2_極細2
  6
CONTINUOUS
 62
    2
 10
1573.8004905493631
 20
385.17763711334243
 11
1572.8861032113091
 21
382.83862859643767
  0
LINE
  8
_1-2_極細2
  6
CONTINUOUS
 62
    2
 10
1572.8861032113091
 20
382.83862859643767
 11
1571.9021864094902
 21
380.58917119345693
  0
LINE
  8
_1-2_極細2
  6
CONTINUOUS
 62
    2
 10
1571.9021864094902
 20
380.58917119345693
 11
1570.9124399998364
 21
378.49289309209661
  0
LINE
  8
_1-2_極細2
  6
CONTINUOUS
 62
    2
 10
1570.9124399998364
 20
378.49289309209661
 11
1569.9776394699634
 21
376.60905436161255
  0
LINE
  8
_1-2_極細2
  6
CONTINUOUS
 62
    2
 10
1569.9776394699634
 20
376.60905436161255
 11
1569.1500456665162
 21
374.99068844354207
  0
LINE
  8
_1-2_極細2
  6
CONTINUOUS
 62
    2
 10
1569.1500456665162
 20
374.99068844354207
 11
1568.4704029163017
 21
373.68305851190763
  0
LINE
  8
_1-2_極細2
  6
CONTINUOUS
 62
    2
 10
1568.4704029163017
 20
373.68305851190763
 11
1567.9674591568487
 21
372.72246168330281
  0
LINE
  8
_1-2_極細2
  6
CONTINUOUS
 62
    2
 10
1567.9674591568487
 20
372.72246168330281
 11
1567.6593258726632
 21
372.13537089866287
  0
LINE
  8
_1-2_極細2
  6
CONTINUOUS
 62
    2
 10
1567.6593258726632
 20
372.13537089866287
 11
1567.5556248740395
 21
371.93787535596181
  0
LINE
  8
_1-5_寸法2
  6
CONTINUOUS
 62
    7
 10
1525.620210833717
 20
406.2500875934586
 11
1583.3051818309193
 21
430.73590505556012
  0
LINE
  8
_1-5_寸法2
  6
CONTINUOUS
 62
    7
 10
1579.6231624171098
 20
429.17298054160261
 11
1572.2352247132019
 21
438.62910958488322
  0
LINE
  8
_1-5_寸法2
  6
CONTINUOUS
 62
    7
 10
1579.6231624171098
 20
429.17298054160261
 11
1577.9530852055889
 21
441.05619736650146
  0
LINE
  8
_1-5_寸法2
  6
CONTINUOUS
 62
    7
 10
1500.268421511968
 20
517.16125374991771
 11
1539.5432954401203
 21
533.83244864223093
  0
LINE
  8
_1-5_寸法2
  6
CONTINUOUS
 62
    7
 10
1535.8612760263109
 20
532.26952412827336
 11
1543.2492137302188
 21
522.81339508499275
  0
LINE
  8
_1-5_寸法2
  6
CONTINUOUS
 62
    7
 10
1535.8612760263109
 20
532.26952412827336
 11
1537.5313532378318
 21
520.38630730337456
  0
LINE
  8
_1-5_寸法2
  6
CONTINUOUS
 62
    7
 10
1579.6231624171098
 20
429.17298054160261
 11
1535.8612760263109
 21
532.26952412827336
  0
TEXT
  8
_1-5_寸法2
 62
    7
 10
1553.0534456798391
 20
491.76731057636715
 40
24
 41
1
 50
-66.999999999999687
  1
42
  0
LINE
  8
_1-5_寸法2
  6
CONTINUOUS
 62
    7
 10
1447.6782000426604
 20
497.73499016372483
 11
1426.3182316562275
 21
548.05592222084169
  0
LINE
  8
_1-5_寸法2
  6
CONTINUOUS
 62
    7
 10
1427.8811561701841
 20
544.37390280703175
 11
1437.3372852134646
 21
551.76184051093969
  0
LINE
  8
_1-5_寸法2
  6
CONTINUOUS
 62
    7
 10
1427.8811561701841
 20
544.37390280703175
 11
1439.764372995083
 21
546.0439800185527
  0
LINE
  8
_1-5_寸法2
  6
CONTINUOUS
 62
    7
 10
1481.0369604434895
 20
524.93126838271041
 11
1464.3657655989264
 21
564.20614219839808
  0
LINE
  8
_1-5_寸法2
  6
CONTINUOUS
 62
    7
 10
1465.928690112883
 20
560.52412278458814
 11
1456.4725610696025
 21
553.13618508068021
  0
LINE
  8
_1-5_寸法2
  6
CONTINUOUS
 62
    7
 10
1465.928690112883
 20
560.52412278458814
 11
1454.0454732879841
 21
558.8540455730672
  0
LINE
  8
_1-5_寸法2
  6
CONTINUOUS
 62
    7
 10
1427.8811561701841
 20
544.37390280703175
 11
1465.928690112883
 21
560.52412278458814
  0
TEXT
  8
_1-5_寸法2
 62
    7
 10
1424.8128066586753
 20
543.07146571206727
 40
24
 41
1
 50
23.000000000000313
  1
15.5
  0
LINE
  8
_1-2_極細2
  6
CENTER1
 62
    2
 10
1486.0523915967242
 20
409.66691354180654
 11
1511.59230319567
 21
409.66691354180654
  0
LINE
  8
_1-2_極細2
  6
CENTER1
 62
    2
 10
1499.5456857895635
 20
396.33138674374294
 11
1499.5456857895635
 21
422.60935385590966
  0
CIRCLE
  8
_1-2_極細2
  6
CONTINUOUS
 62
    2
 10
1499.5456857895635
 20
409.6669136256092
 40
9.1999999999999993
  0
CIRCLE
  8
_1-3_細線2
  6
CONTINUOUS
 62
    4
 10
1499.5456857895635
 20
409.6669136256092
 40
9.5999999999999996
  0
LINE
  8
_1-2_極細2
  6
CONTINUOUS
 62
    2
 10
1518.8393208089874
 20
394.05193261781193
 11
1518.8393208089874
 21
395.65193261781184
  0
LINE
  8
_1-2_極細2
  6
CONTINUOUS
 62
    2
 10
1412.1726541423209
 20
395.65193261781184
 11
1412.1726541423209
 21
394.05193261781193
  0
LINE
  8
_1-2_極細2
  6
CONTINUOUS
 62
    2
 10
1484.2072852797514
 20
411.75944413359019
 11
1484.2072852797514
 21
395.65193208447812
  0
LINE
  8
_1-2_極細2
  6
CONTINUOUS
 62
    2
 10
1484.2072852797514
 20
395.65193208447812
 11
1575.8423090255724
 21
395.65193208447812
  0
LINE
  8
_1-2_極細2
  6
CONTINUOUS
 62
    2
 10
1412.1726541423209
 20
395.65193261781184
 11
1484.2072852797514
 21
395.65193261781184
  0
LINE
  8
_1-2_極細2
  6
DASHED2
 62
    2
 10
1484.2072852797514
 20
438.31859928447858
 11
1484.2072852797514
 21
411.75944413359019
  0
LINE
  8
_1-2_極細2
  6
DASHED2
 62
    2
 10
1513.8112907290085
 20
438.31859928447858
 11
1484.2072852797514
 21
438.31859928447858
  0
LINE
  8
_1-2_極細2
  6
CONTINUOUS
 62
    2
 10
1560.321073989601
 20
438.31859928447858
 11
1513.8112907290085
 21
438.31859928447858
  0
LINE
  8
_1-2_極細2
  6
CONTINUOUS
 62
    2
 10
1439.3307922540614
 20
411.65193261781184
 11
1439.3307922540614
 21
397.25193261781163
  0
LINE
  8
_1-2_極細2
  6
CONTINUOUS
 62
    2
 10
1425.0837783054415
 20
411.65193261781184
 11
1425.0837783054415
 21
397.25193261781175
  0
LINE
  8
_1-2_極細2
  6
CONTINUOUS
 62
    2
 10
1413.5406186130847
 20
395.65193261781184
 11
1450.8739519464182
 21
395.65193261781184
  0
LINE
  8
_1-3_細線2
  6
CONTINUOUS
 62
    4
 10
1446.940618613085
 20
411.65193261781184
 11
1417.4739519464179
 21
411.65193261781184
  0
LINE
  8
_1-3_細線2
  6
CONTINUOUS
 62
    4
 10
1450.8739519464182
 20
397.25193261781175
 11
1413.5406186130847
 21
397.25193261781175
  0
LINE
  8
_1-3_細線2
  6
CONTINUOUS
 62
    4
 10
1440.2072852797514
 20
411.65193261781184
 11
1440.2072852797514
 21
415.11859928447819
  0
LINE
  8
_1-3_細線2
  6
CONTINUOUS
 62
    4
 10
1437.5406186130847
 20
417.78526595114482
 11
1440.2072852797514
 21
415.11859928447819
  0
LINE
  8
_1-3_細線2
  6
CONTINUOUS
 62
    4
 10
1424.2072852797514
 20
411.65193261781184
 11
1424.2072852797514
 21
415.11859928447819
  0
LINE
  8
_1-3_細線2
  6
CONTINUOUS
 62
    4
 10
1424.2072852797514
 20
415.11859928447819
 11
1426.8739519464182
 21
417.78526595114482
  0
LINE
  8
_1-3_細線2
  6
CONTINUOUS
 62
    4
 10
1426.8739519464182
 20
417.78526595114482
 11
1437.5406186130847
 21
417.78526595114482
  0
LINE
  8
_1-3_細線2
  6
CONTINUOUS
 62
    4
 10
1413.5406186130847
 20
397.25193261781175
 11
1413.5406186130847
 21
395.65193261781184
  0
LINE
  8
_1-3_細線2
  6
CONTINUOUS
 62
    4
 10
1417.4739519464179
 20
411.65193261781184
 11
1417.4739519464179
 21
397.25193261781175
  0
LINE
  8
_1-3_細線2
  6
CONTINUOUS
 62
    4
 10
1450.8739519464182
 20
397.25193261781175
 11
1450.8739519464182
 21
395.65193261781184
  0
LINE
  8
_1-3_細線2
  6
CONTINUOUS
 62
    4
 10
1446.940618613085
 20
411.65193261781184
 11
1446.940618613085
 21
397.25193261781163
  0
LINE
  8
_1-3_細線2
  6
CONTINUOUS
 62
    4
 10
1440.2072852797514
 20
395.65193261781184
 11
1440.2072852797514
 21
392.71859981781284
  0
LINE
  8
_1-3_細線2
  6
CONTINUOUS
 62
    4
 10
1424.2072852797514
 20
395.65193261781184
 11
1424.2072852797514
 21
392.71859981781284
  0
LINE
  8
_1-3_細線2
  6
DASHED2
 62
    4
 10
1424.2072852797514
 20
411.65193261781184
 11
1424.2072852797514
 21
395.65193261781184
  0
LINE
  8
_1-3_細線2
  6
DASHED2
 62
    4
 10
1440.2072852797514
 20
411.65193261781184
 11
1440.2072852797514
 21
395.65193261781184
  0
LINE
  8
_1-5_寸法2
  6
CONTINUOUS
 62
    7
 10
1419.4853126551648
 20
404.70703211917709
 11
1417.2386971256299
 21
388.86554485748184
  0
LINE
  8
_1-5_寸法2
  6
CONTINUOUS
 62
    7
 10
1419.4853126551648
 20
404.70703211917709
 11
1409.6189429032033
 21
392.11120948158884
  0
LINE
  8
_1-5_寸法2
  6
CONTINUOUS
 62
    7
 10
1419.4853126551648
 20
404.70703211917709
 11
1398.1638545062083
 21
354.65125323428941
  0
LINE
  8
_1-5_寸法2
  6
CONTINUOUS
 62
    7
 10
1398.1638545062083
 20
354.65125323428941
 11
1263.7638545062086
 21
354.65125323428941
  0
TEXT
  8
_1-5_寸法2
 62
    7
 10
1263.7638545062086
 20
354.65125323428941
 40
24
 41
0.7999999999999998
 50
0
  1
フランジナット
  0
LINE
  8
_1-5_寸法2
  6
CONTINUOUS
 62
    7
 10
1431.3407419617781
 20
417.78526595114482
 11
1422.0309838784169
 21
430.79789076050935
  0
LINE
  8
_1-5_寸法2
  6
CONTINUOUS
 62
    7
 10
1431.3407419617781
 20
417.78526595114482
 11
1429.7845673631818
 21
433.70940864765078
  0
LINE
  8
_1-5_寸法2
  6
CONTINUOUS
 62
    7
 10
1431.3407419617781
 20
417.78526595114482
 11
1407.3885894877903
 21
481.57158671087205
  0
LINE
  8
_1-5_寸法2
  6
CONTINUOUS
 62
    7
 10
1407.3885894877903
 20
481.57158671087205
 11
1272.9885894877905
 21
481.57158671087205
  0
TEXT
  8
_1-5_寸法2
 62
    7
 10
1272.9885894877905
 20
481.57158671087205
 40
24
 41
0.7999999999999998
 50
0
  1
スタッドボルト
  0
LINE
  8
_1-5_寸法2
  6
CONTINUOUS
 62
    7
 10
1483.4958179052533
 20
502.82447120103831
 11
1487.6369225362776
 21
518.27928444594386
  0
LINE
  8
_1-5_寸法2
  6
CONTINUOUS
 62
    7
 10
1483.4958179052533
 20
502.82447120103831
 11
1494.8095263379025
 21
514.13817976635858
  0
LINE
  8
_1-5_寸法2
  6
CONTINUOUS
 62
    7
 10
1483.4958179052533
 20
502.82447120103831
 11
1511.6307364489574
 21
551.55558024539778
  0
LINE
  8
_1-5_寸法2
  6
CONTINUOUS
 62
    7
 10
1511.6307364489574
 20
551.55558024539778
 11
1665.2307364489575
 21
551.55558024539778
  0
TEXT
  8
_1-5_寸法2
 62
    7
 10
1511.6307364489574
 20
551.55558024539778
 40
24
 41
0.7999999999999998
 50
0
  1
ボルトカバー金具
  0
TEXT
  8
_0-7_枠細線
 62
    5
 10
1544.7999999999997
 20
176
 40
32
 41
0.6
 50
0
  1
ＨＳＡＴ－１５Ｌ９００Ｎ
  0
ENDSEC
  0
EOF
