  0
SECTION
  2
HEADER
  9
$ACADVER
  1
AC1009
  9
$INSBASE
 10
0
 20
0
 30
0
  9
$EXTMIN
 10
0
 20
0
  9
$EXTMAX
 10
2376
 20
1680
  9
$LIMMIN
 10
0
 20
0
  9
$LIMMAX
 10
2376
 20
1680
  9
$LTSCALE
 40
8
  0
ENDSEC
  0
SECTION
  2
TABLES
  0
TABLE
  2
LTYPE
 70
     9
  0
LTYPE
  2
CONTINUOUS
 70
    64
  3
実線
 72
    65
 73
     0
 40
0.0
  0
LTYPE
  2
DASHED1
 70
    64
  3
--  --  --  --  --  --  --  --  
 72
    65
 73
     2
 40
2.5
 49
1.25
 49
-1.25
  0
LTYPE
  2
DASHED2
 70
    64
  3
----    ----    ----    ----    
 72
    65
 73
     2
 40
5.0
 49
2.5
 49
-2.5
  0
LTYPE
  2
DASHED3
 70
    64
  3
------  ------  ------  ------  
 72
    65
 73
     2
 40
5.0
 49
3.75
 49
-1.25
  0
LTYPE
  2
CENTER1
 70
    64
  3
----- - ----- - ----- - ----- - 
 72
    65
 73
     4
 40
10.0
 49
6.25
 49
-1.25
 49
1.25
 49
-1.25
  0
LTYPE
  2
CENTER2
 70
    64
  3
----------  --  ----------  --  
 72
    65
 73
     4
 40
20.0
 49
12.5
 49
-2.5
 49
2.5
 49
-2.5
  0
LTYPE
  2
PHANTOM1
 70
    64
  3
--- - - --- - - --- - - --- - - 
 72
    65
 73
     6
 40
10.0
 49
3.25
 49
-1.25
 49
1.25
 49
-1.25
 49
1.25
 49
-1.25
  0
LTYPE
  2
PHANTOM2
 70
    64
  3
--------  -  -  --------  -  -  
 72
    65
 73
     6
 40
20.0
 49
10.0
 49
-2.5
 49
1.25
 49
-2.5
 49
1.25
 49
-2.5
  0
LTYPE
  2
DOT
 70
    64
  3
-   -   -   -   -   -   -   -   
 72
    65
 73
     2
 40
2.5
 49
0.625
 49
-1.875
  0
LTYPE
  2
DUMMY
 70
    64
  3
ダミー
 72
    65
 73
     0
 40
0.0
  0
LTYPE
  2
RAND1
 70
    64
  3
ランダム線1
 72
    65
 73
     4
 40
10.0
 49
1.0
 49
-2.0
 49
3.0
 49
-4.0
  0
LTYPE
  2
RAND2
 70
    64
  3
ランダム線2
 72
    65
 73
     4
 40
14.0
 49
2.0
 49
-3.0
 49
4.0
 49
-5.0
  0
LTYPE
  2
RAND3
 70
    64
  3
ランダム線3
 72
    65
 73
     4
 40
18.0
 49
3.0
 49
-4.0
 49
5.0
 49
-6.0
  0
LTYPE
  2
RAND4
 70
    64
  3
ランダム線4
 72
    65
 73
     4
 40
22.0
 49
4.0
 49
-5.0
 49
6.0
 49
-7.0
  0
LTYPE
  2
RAND5
 70
    64
  3
ランダム線5
 72
    65
 73
     4
 40
26.0
 49
5.0
 49
-6.0
 49
7.0
 49
-8.0
  0
LTYPE
  2
LONG1
 70
    64
  3
----------  --  ----------  --  
 72
    65
 73
     4
 40
40.0
 49
32.5
 49
-2.5
 49
2.5
 49
-2.5
  0
LTYPE
  2
LONG2
 70
    64
  3
--------  -  -  --------  -  -  
 72
    65
 73
     6
 40
40.0
 49
30.0
 49
-2.5
 49
1.25
 49
-2.5
 49
1.25
 49
-2.5
  0
LTYPE
  2
LONG3
 70
    64
  3
+++++++++++++++..+++++++++++++++
 72
    65
 73
     2
 40
40.0
 49
37.5
 49
-2.5
  0
LTYPE
  2
LONG4
 70
    64
  3
+++++++++++++++..+++++++++++++++
 72
    65
 73
     2
 40
80.0
 49
75.0
 49
-5.0
  0
LTYPE
  2
LONG5
 70
    64
  3
----------  --  ----------  --  
 72
    65
 73
     4
 40
60.0
 49
37.5
 49
-7.5
 49
7.5
 49
-7.5
  0
LTYPE
  2
dashed
 70
   64
  3
-------   -------------   ------
 72
   65
 73
    2
 40
7.5
 49
6
 49
-1.5
  0
LTYPE
  2
dashed_spaced
 70
   64
  3
----        --------        ----
 72
   65
 73
    2
 40
12
 49
6
 49
-6
  0
LTYPE
  2
long_dashed_dotted
 70
   64
  3
------------- --- --------------
 72
   65
 73
    4
 40
15.25
 49
12
 49
-1.5
 49
0.25
 49
-1.5
  0
LTYPE
  2
long_dashed_double-dotted
 70
   64
  3
----------- --- --- ------------
 72
   65
 73
    6
 40
17
 49
12
 49
-1.5
 49
0.25
 49
-1.5
 49
0.25
 49
-1.5
  0
LTYPE
  2
long_dashed_triplicate-dotted
 70
   64
  3
--------- --- --- --- ----------
 72
   65
 73
    8
 40
18.75
 49
12
 49
-1.5
 49
0.25
 49
-1.5
 49
0.25
 49
-1.5
 49
0.25
 49
-1.5
  0
LTYPE
  2
dotted
 70
   64
  3
   -       -       -       -    
 72
   65
 73
    2
 40
1.75
 49
0.25
 49
-1.5
  0
LTYPE
  2
chain
 70
   64
  3
-------------- -- --------------
 72
   65
 73
    4
 40
18.5
 49
12
 49
-1.5
 49
3.5
 49
-1.5
  0
LTYPE
  2
chain_double_dash
 70
   64
  3
------------ -- -- -------------
 72
   65
 73
    6
 40
23.5
 49
12
 49
-1.5
 49
3.5
 49
-1.5
 49
3.5
 49
-1.5
  0
LTYPE
  2
dashed_dotted
 70
   64
  3
-----------     -     ----------
 72
   65
 73
    4
 40
9.25
 49
6
 49
-1.5
 49
0.25
 49
-1.5
  0
LTYPE
  2
double-dashed_dotted
 70
   64
  3
------   -----------   -   -----
 72
   65
 73
    6
 40
16.75
 49
6
 49
-1.5
 49
6
 49
-1.5
 49
0.25
 49
-1.5
  0
LTYPE
  2
dashed_double-dotted
 70
   64
  3
---------    -    -    ---------
 72
   65
 73
    6
 40
11
 49
6
 49
-1.5
 49
0.25
 49
-1.5
 49
0.25
 49
-1.5
  0
LTYPE
  2
double-dashed_double-dotted
 70
   64
  3
-----   ---------   -   -   ----
 72
   65
 73
    8
 40
18.5
 49
6
 49
-1.5
 49
6
 49
-1.5
 49
0.25
 49
-1.5
 49
0.25
 49
-1.5
  0
LTYPE
  2
dashed_triplicate-dotted
 70
   64
  3
-------    -    -    -    ------
 72
   65
 73
    8
 40
12.75
 49
6
 49
-1.5
 49
0.25
 49
-1.5
 49
0.25
 49
-1.5
 49
0.25
 49
-1.5
  0
LTYPE
  2
double-dashed_triplicate-dotted
 70
   64
  3
-----  ---------  -  -  -  -----
 72
   65
 73
   10
 40
20.25
 49
6
 49
-1.5
 49
6
 49
-1.5
 49
0.25
 49
-1.5
 49
0.25
 49
-1.5
 49
0.25
 49
-1.5
  0
LTYPE
  2
undefined
 70
   64
  3
--------------------------------
 72
   65
 73
    0
 40
0
  0
ENDTAB
  0
TABLE
  2
STYLE
  5
3
100
AcDbSymbolTable
 70
     1
  0
STYLE
  5
10
100
AcDbSymbolTableRecord
100
AcDbTextStyleTableRecord
  2
STANDARD
 70
     0
 40
0.0
 41
1.0
 50
0.0
 71
     0
 42
0.2
  3
txt
  4
bigfont.shx
  0
STYLE
  5
26
100
AcDbSymbolTableRecord
100
AcDbTextStyleTableRecord
  2
TATEGAKI
 70
    68
 40
0.0
 41
1.0
 50
0.0
 71
     0
 42
1.0
  3
txt
  4
bigfont.shx
  0
ENDTAB
  0
TABLE
  2
LAYER
 70
   13
  0
LAYER
  2
_0-0_計極細
 70
   64
 62
    7
  6
CONTINUOUS
  0
LAYER
  2
_0-1_計細線
 70
   64
 62
    7
  6
CONTINUOUS
  0
LAYER
  2
_0-5_寸法線
 70
   64
 62
    7
  6
CONTINUOUS
  0
LAYER
  2
_0-7_枠細線
 70
   64
 62
    7
  6
CONTINUOUS
  0
LAYER
  2
_0-8_枠中線
 70
   64
 62
    7
  6
CONTINUOUS
  0
LAYER
  2
_0-a_極細1
 70
   64
 62
    7
  6
CONTINUOUS
  0
LAYER
  2
_0-d_寸法1
 70
   64
 62
    7
  6
CONTINUOUS
  0
LAYER
  2
_0-e_極細4
 70
   64
 62
    7
  6
CONTINUOUS
  0
LAYER
  2
_1-1_寸法4
 70
   64
 62
    7
  6
CONTINUOUS
  0
LAYER
  2
_1-2_極細2
 70
   64
 62
    7
  6
CONTINUOUS
  0
LAYER
  2
_1-3_細線2
 70
   64
 62
    7
  6
CONTINUOUS
  0
LAYER
  2
_1-5_寸法2
 70
   64
 62
    7
  6
CONTINUOUS
  0
LAYER
  2
ADD_LINE
 70
   64
 62
    7
  6
CONTINUOUS
  0
ENDTAB
  0
ENDSEC
  0
SECTION
  2
BLOCKS
  0
ENDSEC
  0
SECTION
  2
ENTITIES
  0
LINE
  8
_0-8_枠中線
  6
CONTINUOUS
 62
    5
 10
96
 20
96
 11
96
 21
1536
  0
LINE
  8
_0-8_枠中線
  6
CONTINUOUS
 62
    5
 10
96
 20
1536
 11
2280
 21
1536
  0
LINE
  8
_0-8_枠中線
  6
CONTINUOUS
 62
    5
 10
2280
 20
1536
 11
2280
 21
96
  0
LINE
  8
_0-8_枠中線
  6
CONTINUOUS
 62
    5
 10
2280
 20
96
 11
96
 21
96
  0
LINE
  8
_0-7_枠細線
  6
CONTINUOUS
 62
    5
 10
1896
 20
288
 11
1896
 21
160
  0
TEXT
  8
_0-7_枠細線
 62
    5
 10
1500
 20
156
 40
28
 41
1
 50
0
  1
備考
  7
TATEGAKI
  0
TEXT
  8
_0-7_枠細線
 62
    5
 10
1500
 20
220
 40
28
 41
1
 50
0
  1
品番
  7
TATEGAKI
  0
TEXT
  8
_0-7_枠細線
 62
    5
 10
1500
 20
284
 40
28
 41
1
 50
0
  1
品名
  7
TATEGAKI
  0
LINE
  8
_0-7_枠細線
  6
CONTINUOUS
 62
    5
 10
1896
 20
224
 11
1480
 21
224
  0
LINE
  8
_0-7_枠細線
  6
CONTINUOUS
 62
    5
 10
1520
 20
288
 11
1520
 21
96
  0
LINE
  8
_0-8_枠中線
  6
CONTINUOUS
 62
    5
 10
2280
 20
288
 11
1480
 21
288
  0
LINE
  8
_0-8_枠中線
  6
CONTINUOUS
 62
    5
 10
1480
 20
288
 11
1480
 21
96
  0
LINE
  8
_0-7_枠細線
  6
CONTINUOUS
 62
    5
 10
1992
 20
288
 11
1992
 21
96
  0
TEXT
  8
_0-7_枠細線
 62
    5
 10
1908
 20
256
 40
24
 41
1
 50
0
  1
縮　尺
  0
LINE
  8
_0-7_枠細線
  6
CONTINUOUS
 62
    5
 10
1896
 20
248
 11
1992
 21
248
  0
LINE
  8
_0-7_枠細線
  6
CONTINUOUS
 62
    5
 10
1992
 20
160
 11
1480
 21
160
  0
LINE
  8
_0-7_枠細線
  6
CONTINUOUS
 62
    5
 10
2280
 20
144
 11
1992
 21
144
  0
LINE
  8
_0-7_枠細線
  6
CONTINUOUS
 62
    5
 10
1992
 20
192
 11
2280
 21
192
  0
LINE
  8
_0-7_枠細線
  6
CONTINUOUS
 62
    5
 10
2280
 20
224
 11
1992
 21
224
  0
TEXT
  8
_0-7_枠細線
 62
    5
 10
2004
 20
96
 40
24
 41
1
 50
0
  1
年月日
  0
TEXT
  8
_0-7_枠細線
 62
    5
 10
2004
 20
120
 40
24
 41
1
 50
0
  1
作　成
  0
TEXT
  8
_0-7_枠細線
 62
    5
 10
2010
 20
196
 40
24
 41
1
 50
0
  1
承 認
  0
LINE
  8
_0-7_枠細線
  6
CONTINUOUS
 62
    5
 10
2088
 20
224
 11
2088
 21
96
  0
TEXT
  8
_0-7_枠細線
 62
    5
 10
2106
 20
196
 40
24
 41
1
 50
0
  1
検 図
  0
LINE
  8
_0-7_枠細線
  6
CONTINUOUS
 62
    5
 10
2184
 20
224
 11
2184
 21
144
  0
TEXT
  8
_0-7_枠細線
 62
    5
 10
2202
 20
196
 40
24
 41
1
 50
0
  1
設 計
  0
LINE
  8
_0-7_枠細線
  6
CONTINUOUS
 62
    5
 10
2280
 20
1508
 11
1424
 21
1508
  0
TEXT
  8
_0-7_枠細線
 62
    5
 10
1432
 20
1511.9999999999993
 40
20
 41
1
 50
0
  1
記号
  0
TEXT
  8
_0-7_枠細線
 62
    5
 10
1595
 20
1512
 40
20
 41
1
 50
0
  1
訂　 正　 記　 事
  0
TEXT
  8
_0-7_枠細線
 62
    5
 10
1890
 20
1512
 40
20
 41
1
 50
0
  1
訂 正 年 月 日
  0
TEXT
  8
_0-7_枠細線
 62
    5
 10
2090
 20
1512
 40
20
 41
1
 50
0
  1
備　　　　　考
  0
LINE
  8
_0-7_枠細線
  6
CONTINUOUS
 62
    5
 10
2280
 20
1480
 11
1424
 21
1480
  0
TEXT
  8
_0-7_枠細線
 62
    5
 10
1910.4000000000001
 20
188
 40
32
 41
0.6999999999999998
 50
0
  1
１：８
  0
LINE
  8
_0-7_枠細線
  6
CONTINUOUS
 62
    5
 10
2040
 20
1480
 11
2040
 21
1535.9999999999991
  0
LINE
  8
_0-7_枠細線
  6
CONTINUOUS
 62
    5
 10
1880
 20
1480
 11
1880
 21
1536
  0
LINE
  8
_0-7_枠細線
  6
CONTINUOUS
 62
    5
 10
1480
 20
1480
 11
1480
 21
1535.9999999999991
  0
LINE
  8
_0-7_枠細線
  6
CONTINUOUS
 62
    5
 10
1424
 20
1480
 11
1424
 21
1535.9999999999991
  0
TEXT
  8
_0-7_枠細線
 62
    5
 10
2200
 20
152
 40
32
 41
1
 50
0
  1
藤戸
  0
TEXT
  8
_0-7_枠細線
 62
    5
 10
2008
 20
152
 40
32
 41
1
 50
0
  1
大野
  0
TEXT
  8
_0-7_枠細線
 62
    5
 10
2104
 20
152
 40
32
 41
1
 50
0
  1
深川
  0
TEXT
  8
_0-7_枠細線
 62
    5
 10
2096
 20
108
 40
24
 41
0.6666666666666666
 50
0
  1
２０１５年０４月０１日
  0
TEXT
  8
_0-7_枠細線
 62
    5
 10
2007.9999999999991
 20
236
 40
40
 41
0.8
 50
0
  1
株式会社シマブン
  0
TEXT
  8
_0-7_枠細線
 62
    5
 10
1544.7999999999995
 20
112
 40
32.000000000000007
 41
0.5999999999999997
 50
0
  1
表面形状については記号表参照のこと
  0
LINE
  8
_0-0_計極細
  6
CONTINUOUS
 62
    2
 10
519.55375798797172
 20
1235.7842583144816
 11
519.55376026894623
 21
1230.284258314482
  0
LINE
  8
_0-0_計極細
  6
CONTINUOUS
 62
    2
 10
526.45375795776795
 20
1235.7842583144816
 11
526.45376026894678
 21
1230.284258314482
  0
LINE
  8
_0-0_計極細
  6
CONTINUOUS
 62
    2
 10
519.55376027819852
 20
1220.284258314482
 11
519.55376027819852
 21
1214.784258314482
  0
LINE
  8
_0-0_計極細
  6
CONTINUOUS
 62
    2
 10
526.45376027832094
 20
1220.284258314482
 11
526.45376027832094
 21
1214.784258314482
  0
LINE
  8
_0-0_計極細
  6
CONTINUOUS
 62
    2
 10
519.55376027819852
 20
1199.2842583144825
 11
519.55376027819852
 21
1204.784258314482
  0
LINE
  8
_0-0_計極細
  6
CONTINUOUS
 62
    2
 10
526.45376027832094
 20
1199.2842583144825
 11
526.45376027832094
 21
1204.784258314482
  0
LINE
  8
_0-0_計極細
  6
CONTINUOUS
 62
    2
 10
519.55376027819852
 20
1183.7842583144829
 11
519.55376027819852
 21
1189.2842583144825
  0
LINE
  8
_0-0_計極細
  6
CONTINUOUS
 62
    2
 10
526.45376027832094
 20
1183.7842583144829
 11
526.45376027832094
 21
1189.2842583144825
  0
LINE
  8
_0-0_計極細
  6
CONTINUOUS
 62
    2
 10
519.55375798797172
 20
1137.2842583144816
 11
519.55376026894623
 21
1142.7842583144811
  0
LINE
  8
_0-0_計極細
  6
CONTINUOUS
 62
    2
 10
526.45375795776795
 20
1137.2842583144816
 11
526.45376026894678
 21
1142.7842583144811
  0
LINE
  8
_0-0_計極細
  6
CONTINUOUS
 62
    2
 10
519.55376027819852
 20
1152.7842583144811
 11
519.55376027819852
 21
1158.2842583144811
  0
LINE
  8
_0-0_計極細
  6
CONTINUOUS
 62
    2
 10
526.45376027832094
 20
1152.7842583144811
 11
526.45376027832094
 21
1158.2842583144811
  0
LINE
  8
_0-0_計極細
  6
CONTINUOUS
 62
    2
 10
519.55376027819852
 20
1173.7842583144807
 11
519.55376027819852
 21
1168.2842583144811
  0
LINE
  8
_0-0_計極細
  6
CONTINUOUS
 62
    2
 10
526.45376027832094
 20
1173.7842583144807
 11
526.45376027832094
 21
1168.2842583144811
  0
LINE
  8
_0-0_計極細
  6
CONTINUOUS
 62
    2
 10
806.05375569189596
 20
1235.7842583144816
 11
806.05375797287047
 21
1230.284258314482
  0
LINE
  8
_0-0_計極細
  6
CONTINUOUS
 62
    2
 10
812.95375566169218
 20
1235.7842583144816
 11
812.95375797287011
 21
1230.284258314482
  0
LINE
  8
_0-0_計極細
  6
CONTINUOUS
 62
    2
 10
806.05375798212185
 20
1220.284258314482
 11
806.05375798212185
 21
1214.784258314482
  0
LINE
  8
_0-0_計極細
  6
CONTINUOUS
 62
    2
 10
812.95375798224427
 20
1220.284258314482
 11
812.95375798224427
 21
1214.784258314482
  0
LINE
  8
_0-0_計極細
  6
CONTINUOUS
 62
    2
 10
806.05375798212185
 20
1199.2842583144825
 11
806.05375798212185
 21
1204.784258314482
  0
LINE
  8
_0-0_計極細
  6
CONTINUOUS
 62
    2
 10
812.95375798224427
 20
1199.2842583144825
 11
812.95375798224427
 21
1204.784258314482
  0
LINE
  8
_0-0_計極細
  6
CONTINUOUS
 62
    2
 10
806.05375798212185
 20
1183.7842583144829
 11
806.05375798212185
 21
1189.2842583144825
  0
LINE
  8
_0-0_計極細
  6
CONTINUOUS
 62
    2
 10
812.95375798224427
 20
1183.7842583144829
 11
812.95375798224427
 21
1189.2842583144825
  0
LINE
  8
_0-0_計極細
  6
CONTINUOUS
 62
    2
 10
806.05375569189596
 20
1137.2842583144816
 11
806.05375797287047
 21
1142.7842583144811
  0
LINE
  8
_0-0_計極細
  6
CONTINUOUS
 62
    2
 10
812.95375566169218
 20
1137.2842583144816
 11
812.95375797287011
 21
1142.7842583144811
  0
LINE
  8
_0-0_計極細
  6
CONTINUOUS
 62
    2
 10
806.05375798212185
 20
1152.7842583144811
 11
806.05375798212185
 21
1158.2842583144811
  0
LINE
  8
_0-0_計極細
  6
CONTINUOUS
 62
    2
 10
812.95375798224427
 20
1152.7842583144811
 11
812.95375798224427
 21
1158.2842583144811
  0
LINE
  8
_0-0_計極細
  6
CONTINUOUS
 62
    2
 10
806.05375798212185
 20
1173.7842583144807
 11
806.05375798212185
 21
1168.2842583144811
  0
LINE
  8
_0-0_計極細
  6
CONTINUOUS
 62
    2
 10
812.95375798224427
 20
1173.7842583144807
 11
812.95375798224427
 21
1168.2842583144811
  0
LINE
  8
_0-0_計極細
  6
CONTINUOUS
 62
    2
 10
1092.553755691896
 20
1235.7842583144816
 11
1092.5537579728705
 21
1230.284258314482
  0
LINE
  8
_0-0_計極細
  6
CONTINUOUS
 62
    2
 10
1099.4537556616922
 20
1235.7842583144816
 11
1099.4537579728701
 21
1230.284258314482
  0
LINE
  8
_0-0_計極細
  6
CONTINUOUS
 62
    2
 10
1092.5537579821219
 20
1220.284258314482
 11
1092.5537579821219
 21
1214.784258314482
  0
LINE
  8
_0-0_計極細
  6
CONTINUOUS
 62
    2
 10
1099.4537579822443
 20
1220.284258314482
 11
1099.4537579822443
 21
1214.784258314482
  0
LINE
  8
_0-0_計極細
  6
CONTINUOUS
 62
    2
 10
1092.5537579821219
 20
1199.2842583144825
 11
1092.5537579821219
 21
1204.784258314482
  0
LINE
  8
_0-0_計極細
  6
CONTINUOUS
 62
    2
 10
1099.4537579822443
 20
1199.2842583144825
 11
1099.4537579822443
 21
1204.784258314482
  0
LINE
  8
_0-0_計極細
  6
CONTINUOUS
 62
    2
 10
1092.5537579821219
 20
1183.7842583144829
 11
1092.5537579821219
 21
1189.2842583144825
  0
LINE
  8
_0-0_計極細
  6
CONTINUOUS
 62
    2
 10
1099.4537579822443
 20
1183.7842583144829
 11
1099.4537579822443
 21
1189.2842583144825
  0
LINE
  8
_0-0_計極細
  6
CONTINUOUS
 62
    2
 10
1092.553755691896
 20
1137.2842583144816
 11
1092.5537579728705
 21
1142.7842583144811
  0
LINE
  8
_0-0_計極細
  6
CONTINUOUS
 62
    2
 10
1099.4537556616922
 20
1137.2842583144816
 11
1099.4537579728701
 21
1142.7842583144811
  0
LINE
  8
_0-0_計極細
  6
CONTINUOUS
 62
    2
 10
1092.5537579821219
 20
1152.7842583144811
 11
1092.5537579821219
 21
1158.2842583144811
  0
LINE
  8
_0-0_計極細
  6
CONTINUOUS
 62
    2
 10
1099.4537579822443
 20
1152.7842583144811
 11
1099.4537579822443
 21
1158.2842583144811
  0
LINE
  8
_0-0_計極細
  6
CONTINUOUS
 62
    2
 10
1092.5537579821219
 20
1173.7842583144807
 11
1092.5537579821219
 21
1168.2842583144811
  0
LINE
  8
_0-0_計極細
  6
CONTINUOUS
 62
    2
 10
1099.4537579822443
 20
1173.7842583144807
 11
1099.4537579822443
 21
1168.2842583144811
  0
ARC
  8
_0-1_計細線
  6
CONTINUOUS
 62
    3
 10
1652.6195190041451
 20
1200.7340632024866
 40
0.501740082747087
 50
330.00000000003996
 51
20.189990999990084
  0
ARC
  8
_0-1_計細線
  6
CONTINUOUS
 62
    3
 10
1652.6195190041451
 20
1172.3344534264775
 40
0.501740082747087
 50
339.81000900000919
 51
29.999999999959307
  0
LINE
  8
_0-1_計細線
  6
CONTINUOUS
 62
    3
 10
1615.3083254779438
 20
1188.7920977182011
 11
1614.0047573825284
 21
1191.0499371219203
  0
LINE
  8
_0-1_計細線
  6
CONTINUOUS
 62
    3
 10
1615.3083254779438
 20
1188.7920977182011
 11
1595.1684341221969
 21
1223.6754094395078
  0
LINE
  8
_0-1_計細線
  6
CONTINUOUS
 62
    3
 10
1615.3083254779438
 20
1188.7920977182011
 11
1617.9154556478704
 21
1188.7920977182011
  0
LINE
  8
_0-1_計細線
  6
CONTINUOUS
 62
    3
 10
1611.3976332335076
 20
1186.5342583144811
 11
1591.2577418777571
 21
1221.41757003579
  0
ARC
  8
_0-1_計細線
  6
CONTINUOUS
 62
    3
 10
1582.3999850189527
 20
1160.1927986044211
 40
0.501740082747087
 50
219.81000899998574
 51
269.99999999999977
  0
LINE
  8
_0-1_計細線
  6
CONTINUOUS
 62
    3
 10
1615.3083254779438
 20
1184.276418910762
 11
1595.1684341221969
 21
1149.3931071894549
  0
LINE
  8
_0-1_計細線
  6
CONTINUOUS
 62
    3
 10
1611.3976332335076
 20
1186.5342583144811
 11
1591.2577418777571
 21
1151.650946593174
  0
ARC
  8
_0-1_計細線
  6
CONTINUOUS
 62
    3
 10
1614.0047573825284
 20
1186.5342583144811
 40
46.4111412917104
 50
89.999999999999915
 51
269.99999999999977
  0
ARC
  8
_0-1_計細線
  6
CONTINUOUS
 62
    3
 10
1614.0047573825284
 20
1186.5342583144811
 40
57.198598227560829
 50
89.999999999999915
 51
269.99999999999977
  0
CIRCLE
  8
_0-1_計細線
  6
CONTINUOUS
 62
    3
 10
1614.0047573825284
 20
1186.5342583144811
 40
58.202084413960065
  0
LINE
  8
_0-1_計細線
  6
CONTINUOUS
 62
    3
 10
1615.3083254779438
 20
1188.7920977182011
 11
1655.5881021685343
 21
1188.7920977182011
  0
LINE
  8
_0-1_計細線
  6
CONTINUOUS
 62
    3
 10
1615.3083254779438
 20
1184.276418910762
 11
1655.5881021685343
 21
1184.276418910762
  0
ARC
  8
_0-1_計細線
  6
CONTINUOUS
 62
    3
 10
1614.0047573825284
 20
1186.5342583144811
 40
46.4111412917104
 50
269.99999999999977
 51
89.999999999999545
  0
ARC
  8
_0-1_計細線
  6
CONTINUOUS
 62
    3
 10
1614.0047573825284
 20
1186.5342583144811
 40
57.198598227560829
 50
269.99999999999977
 51
89.999999999999545
  0
ARC
  8
_0-1_計細線
  6
CONTINUOUS
 62
    3
 10
1614.0047573825284
 20
1186.5342583144811
 40
41.644595453350369
 50
89.999999999999915
 51
116.89207624474167
  0
ARC
  8
_0-1_計細線
  6
CONTINUOUS
 62
    3
 10
1614.0047573825284
 20
1186.5342583144811
 40
41.644595453350369
 50
123.10791868694014
 51
236.89208131305782
  0
ARC
  8
_0-1_計細線
  6
CONTINUOUS
 62
    3
 10
1614.0047573825284
 20
1186.5342583144811
 40
41.644595453350369
 50
243.10792375525659
 51
269.99999999999977
  0
ARC
  8
_0-1_計細線
  6
CONTINUOUS
 62
    3
 10
1614.0047573825284
 20
1186.5342583144811
 40
41.644595453350369
 50
269.99999999999977
 51
356.8920785890931
  0
ARC
  8
_0-1_計細線
  6
CONTINUOUS
 62
    3
 10
1614.0047573825284
 20
1186.5342583144811
 40
41.644595453350369
 50
3.1079214109077964
 51
89.999999999999915
  0
ARC
  8
_0-0_計極細
  6
CONTINUOUS
 62
    2
 10
1614.0047573825284
 20
1186.5342583144811
 40
50.153133796808191
 50
269.99999999999977
 51
89.999999999999545
  0
ARC
  8
_0-0_計極細
  6
CONTINUOUS
 62
    2
 10
1614.0047573825284
 20
1186.5342583144811
 40
50.153133796808191
 50
89.999999999999915
 51
269.99999999999977
  0
ARC
  8
_0-0_計極細
  6
CONTINUOUS
 62
    2
 10
1600.3897563380212
 20
1157.4332160848899
 40
0.501740082747087
 50
149.99997568607938
 51
210.00002243784951
  0
ARC
  8
_0-0_計極細
  6
CONTINUOUS
 62
    2
 10
1614.2944411884771
 20
1180.513353237895
 40
1.0034861863992508
 50
29.999999999951111
 51
149.99999999997101
  0
ARC
  8
_0-0_計極細
  6
CONTINUOUS
 62
    2
 10
1614.2944411884771
 20
1180.513353237895
 40
1.0034861863992508
 50
29.999999999951111
 51
106.77865499997519
  0
ARC
  8
_0-0_計極細
  6
CONTINUOUS
 62
    2
 10
1608.6456641710563
 20
1183.7746788280147
 40
1.0034861863992508
 50
329.99999999995163
 51
89.999999999999545
  0
ARC
  8
_0-0_計極細
  6
CONTINUOUS
 62
    2
 10
1573.5095410824904
 20
1193.8130191135742
 40
0.501740082747087
 50
89.993779916795503
 51
169.8086801233749
  0
ARC
  8
_0-0_計極細
  6
CONTINUOUS
 62
    2
 10
1573.5079753770576
 20
1179.2624957808198
 40
0.501740082747087
 50
190.17882981053808
 51
269.99383436904543
  0
ARC
  8
_0-0_計極細
  6
CONTINUOUS
 62
    2
 10
1573.4562430864514
 20
1189.2973447111153
 40
1.0034861863992508
 50
176.10042624738318
 51
269.99385985774035
  0
ARC
  8
_0-0_計極細
  6
CONTINUOUS
 62
    2
 10
1614.0047573825284
 20
1186.5342583144811
 40
37.630656728658437
 50
317.45760300000074
 51
327.38710799999916
  0
ARC
  8
_0-0_計極細
  6
CONTINUOUS
 62
    2
 10
1614.0047573825284
 20
1186.5342583144811
 40
37.630656728658437
 50
32.612892000001082
 51
42.54239699999939
  0
LINE
  8
_0-0_計極細
  6
CONTINUOUS
 62
    2
 10
1649.1789751535159
 20
1167.2553202592558
 11
1640.2208859325153
 21
1182.7711926416173
  0
LINE
  8
_0-0_計極細
  6
CONTINUOUS
 62
    2
 10
1647.7721485360369
 20
1162.6676254061949
 11
1635.4411482911316
 21
1184.0255458589354
  0
LINE
  8
_0-0_計極細
  6
CONTINUOUS
 62
    2
 10
1643.1502127958054
 20
1158.6312407473774
 11
1629.2130096827166
 21
1182.7711926416173
  0
LINE
  8
_0-0_計極細
  6
CONTINUOUS
 62
    2
 10
1649.1789751535159
 20
1205.8131963697078
 11
1640.2208859325153
 21
1190.2973239873472
  0
LINE
  8
_0-0_計極細
  6
CONTINUOUS
 62
    2
 10
1647.7721485360369
 20
1210.4008912227682
 11
1635.4411482911316
 21
1189.0429707700273
  0
LINE
  8
_0-0_計極細
  6
CONTINUOUS
 62
    2
 10
1643.1502127958054
 20
1214.4372698606817
 11
1629.2130096827166
 21
1190.2973239873472
  0
LINE
  8
_0-0_計極細
  6
CONTINUOUS
 62
    2
 10
1611.997791030635
 20
1159.5146219193098
 11
1611.997791030635
 21
1167.4320338232537
  0
LINE
  8
_0-0_計極細
  6
CONTINUOUS
 62
    2
 10
1612.4995311133823
 20
1159.4820307601299
 11
1612.4995311133823
 21
1166.5629944472148
  0
ARC
  8
_0-0_計極細
  6
CONTINUOUS
 62
    2
 10
1614.0047573825284
 20
1186.5342583144811
 40
37.630656728658437
 50
213.59599499999973
 51
225.50677599999941
  0
LINE
  8
_0-0_計極細
  6
CONTINUOUS
 62
    2
 10
1640.987094270751
 20
1155.3534901282114
 11
1624.4332720413329
 21
1184.0255458589354
  0
LINE
  8
_0-0_計極細
  6
CONTINUOUS
 62
    2
 10
1635.7992416205623
 20
1152.2973027949556
 11
1618.2051334329169
 21
1182.7711926416173
  0
LINE
  8
_0-0_計極細
  6
CONTINUOUS
 62
    2
 10
1617.7901726550388
 20
1145.3575233110118
 11
1605.4591724101335
 21
1166.7154437637528
  0
LINE
  8
_0-0_計極細
  6
CONTINUOUS
 62
    2
 10
1623.5967515736118
 20
1147.3420437287796
 11
1609.659548460522
 21
1171.4819956230185
  0
LINE
  8
_0-0_計極細
  6
CONTINUOUS
 62
    2
 10
1627.5169327644523
 20
1147.5764857306535
 11
1610.9631105350343
 21
1176.2485474822838
  0
LINE
  8
_0-0_計極細
  6
CONTINUOUS
 62
    2
 10
1632.7575887521632
 20
1150.5412094948888
 11
1615.1634865854228
 21
1181.0150933206437
  0
LINE
  8
_0-0_計極細
  6
CONTINUOUS
 62
    2
 10
1582.3999850189527
 20
1159.6910585216742
 11
1595.6100193423242
 21
1159.6910585216742
  0
ARC
  8
_0-0_計極細
  6
CONTINUOUS
 62
    2
 10
1592.1338497963568
 20
1155.1753797142346
 40
1.0034861863992508
 50
329.99999999997061
 51
89.999999999999545
  0
ARC
  8
_0-0_計極細
  6
CONTINUOUS
 62
    2
 10
1614.0047573825284
 20
1186.5342583144811
 40
37.630656728658437
 50
233.77152299999938
 51
236.31964599999873
  0
ARC
  8
_0-0_計極細
  6
CONTINUOUS
 62
    2
 10
1588.1528695060549
 20
1155.1753797142346
 40
1.0034861863992508
 50
89.999999999999915
 51
230.49822999997428
  0
LINE
  8
_0-0_計極細
  6
CONTINUOUS
 62
    2
 10
1588.1528695060549
 20
1156.1788598797289
 11
1592.1338497963568
 21
1156.1788598797289
  0
ARC
  8
_0-0_計極細
  6
CONTINUOUS
 62
    2
 10
1614.0047573825284
 20
1186.5342583144811
 40
37.630656728658437
 50
272.61289199999942
 51
282.54239699999982
  0
ARC
  8
_0-0_計極細
  6
CONTINUOUS
 62
    2
 10
1618.2246953535102
 20
1145.6083963628375
 40
0.501740082747087
 50
210.00000000000426
 51
275.88706199997517
  0
LINE
  8
_0-0_計極細
  6
CONTINUOUS
 62
    2
 10
1613.1136995566237
 20
1146.4330195221282
 11
1604.1556103356231
 21
1161.9488979253938
  0
LINE
  8
_0-0_計極細
  6
CONTINUOUS
 62
    2
 10
1606.560251446919
 20
1145.7421206645913
 11
1599.9552342852346
 21
1157.182346066129
  0
ARC
  8
_0-0_計極細
  6
CONTINUOUS
 62
    2
 10
1614.0047573825284
 20
1186.5342583144811
 40
37.630656728658437
 50
254.49322399999932
 51
266.40400499999907
  0
ARC
  8
_0-0_計極細
  6
CONTINUOUS
 62
    2
 10
1595.6100193423242
 20
1160.1927986044211
 40
0.501740082747087
 50
269.99999999999977
 51
329.99999999989114
  0
ARC
  8
_0-0_計極細
  6
CONTINUOUS
 62
    2
 10
1599.7731199693824
 20
1148.4664236682129
 40
1.0034861863992508
 50
249.50177000005806
 51
29.999999999976708
  0
LINE
  8
_0-0_計極細
  6
CONTINUOUS
 62
    2
 10
1600.6421593454231
 20
1148.9681637509602
 11
1598.6516722107242
 21
1152.4157942068618
  0
ARC
  8
_0-0_計極細
  6
CONTINUOUS
 62
    2
 10
1603.2865649386783
 20
1161.4471518217424
 40
1.0034861863992508
 50
29.999999999977071
 51
149.99999999999699
  0
ARC
  8
_0-0_計極細
  6
CONTINUOUS
 62
    2
 10
1614.0047573825284
 20
1186.5342583144811
 40
27.094072844634088
 50
244.78019200000111
 51
249.77896100000117
  0
ARC
  8
_0-0_計極細
  6
CONTINUOUS
 62
    2
 10
1614.0047573825284
 20
1186.5342583144811
 40
37.630656728658437
 50
243.68035399999945
 51
246.22847699999838
  0
ARC
  8
_0-0_計極細
  6
CONTINUOUS
 62
    2
 10
1597.7826268137794
 20
1151.9140541241168
 40
1.0034861863992508
 50
29.999999999977071
 51
150.00000000002294
  0
ARC
  8
_0-0_計極細
  6
CONTINUOUS
 62
    2
 10
1612.2446601805857
 20
1145.9312794393827
 40
1.0034861863992508
 50
267.5178359999677
 51
30.000000000002665
  0
ARC
  8
_0-0_計極細
  6
CONTINUOUS
 62
    2
 10
1606.9947741453905
 20
1145.992993716417
 40
0.501740082747087
 50
210.00000000010814
 51
260.18999100005101
  0
ARC
  8
_0-0_計極細
  6
CONTINUOUS
 62
    2
 10
1614.0047573825284
 20
1186.5342583144811
 40
27.094072844634088
 50
260.29098299999907
 51
275.37568199999987
  0
ARC
  8
_0-0_計極細
  6
CONTINUOUS
 62
    2
 10
1614.0047573825284
 20
1186.5342583144811
 40
37.630656728658437
 50
288.07291800000053
 51
297.3252259999997
  0
ARC
  8
_0-0_計極細
  6
CONTINUOUS
 62
    2
 10
1614.0047573825284
 20
1186.5342583144811
 40
27.094072844634088
 50
283.31934900000118
 51
296.2837799999993
  0
ARC
  8
_0-0_計極細
  6
CONTINUOUS
 62
    2
 10
1627.951449442018
 20
1147.8273587824797
 40
0.501740082747087
 50
210.00000000010814
 51
289.81487200010849
  0
ARC
  8
_0-0_計極細
  6
CONTINUOUS
 62
    2
 10
1622.7277061766679
 20
1146.8403036460331
 40
1.0034861863992508
 50
282.39403400005705
 51
30.000000000002665
  0
ARC
  8
_0-0_計極細
  6
CONTINUOUS
 62
    2
 10
1614.0047573825284
 20
1186.5342583144811
 40
37.630656728658437
 50
302.67477399999865
 51
311.92708199999919
  0
ARC
  8
_0-0_計極細
  6
CONTINUOUS
 62
    2
 10
1636.6682809966003
 20
1152.7990488986084
 40
1.0034861863992508
 50
210.00000000002515
 51
303.89345000001418
  0
ARC
  8
_0-0_計極細
  6
CONTINUOUS
 62
    2
 10
1640.5525715722786
 20
1155.1026170763857
 40
0.501740082747087
 50
310.18512800003361
 51
29.999999999907399
  0
ARC
  8
_0-0_計極細
  6
CONTINUOUS
 62
    2
 10
1631.8885493761243
 20
1150.039463391236
 40
1.0034861863992508
 50
296.10655000002453
 51
29.999999999999204
  0
LINE
  8
_0-0_計極細
  6
CONTINUOUS
 62
    2
 10
1579.7215974374456
 20
1165.7119635982599
 11
1597.6377879212557
 21
1165.7119635982599
  0
ARC
  8
_0-0_計極細
  6
CONTINUOUS
 62
    2
 10
1592.1338497963568
 20
1217.8931369147294
 40
1.0034861863992508
 50
269.99999999999977
 51
30.000000000051159
  0
LINE
  8
_0-0_計極細
  6
CONTINUOUS
 62
    2
 10
1582.3999850189527
 20
1213.3774581072898
 11
1595.6100193423242
 21
1213.3774581072898
  0
LINE
  8
_0-0_計極細
  6
CONTINUOUS
 62
    2
 10
1579.7215974374456
 20
1207.3565530307033
 11
1597.6377879212557
 21
1207.3565530307033
  0
LINE
  8
_0-0_計極細
  6
CONTINUOUS
 62
    2
 10
1576.4519569774163
 20
1203.8443604096647
 11
1601.1139574672231
 21
1203.8443604096647
  0
LINE
  8
_0-0_計極細
  6
CONTINUOUS
 62
    2
 10
1575.2673137990721
 20
1197.8234553330794
 11
1603.1417260461565
 21
1197.8234553330794
  0
LINE
  8
_0-0_計極細
  6
CONTINUOUS
 62
    2
 10
1573.5102571541918
 20
1194.311262712039
 11
1606.6178955921221
 21
1194.311262712039
  0
LINE
  8
_0-0_計極細
  6
CONTINUOUS
 62
    2
 10
1573.4574477957647
 20
1188.2903576354538
 11
1608.6456641710563
 21
1188.2903576354538
  0
LINE
  8
_0-0_計極細
  6
CONTINUOUS
 62
    2
 10
1576.4519569774163
 20
1169.2241562192994
 11
1601.1139574672231
 21
1169.2241562192994
  0
LINE
  8
_0-0_計極細
  6
CONTINUOUS
 62
    2
 10
1575.2673137990721
 20
1175.2450612958851
 11
1603.1417260461565
 21
1175.2450612958851
  0
LINE
  8
_0-0_計極細
  6
CONTINUOUS
 62
    2
 10
1573.5102571541918
 20
1178.757253916925
 11
1606.6178955921221
 21
1178.757253916925
  0
LINE
  8
_0-0_計極細
  6
CONTINUOUS
 62
    2
 10
1573.4574477957647
 20
1184.7781589935089
 11
1608.6456641710563
 21
1184.7781589935089
  0
ARC
  8
_0-0_計極細
  6
CONTINUOUS
 62
    2
 10
1614.0047573825284
 20
1186.5342583144811
 40
27.094072844634088
 50
140.2909829999995
 51
155.37568200000004
  0
ARC
  8
_0-0_計極細
  6
CONTINUOUS
 62
    2
 10
1614.0047573825284
 20
1186.5342583144811
 40
37.630656728658437
 50
152.61289200000007
 51
162.54239699999968
  0
ARC
  8
_0-0_計極細
  6
CONTINUOUS
 62
    2
 10
1575.2673137990721
 20
1198.82694151948
 40
1.0034861863992508
 50
162.39403400002107
 51
269.99999999999977
  0
ARC
  8
_0-0_計極細
  6
CONTINUOUS
 62
    2
 10
1579.7215974374456
 20
1164.7084774118593
 40
1.0034861863992508
 50
89.999999999999915
 51
212.4821639999854
  0
ARC
  8
_0-0_計極細
  6
CONTINUOUS
 62
    2
 10
1614.0047573825284
 20
1186.5342583144811
 40
37.630656728658437
 50
168.07291799999925
 51
177.32522600000016
  0
ARC
  8
_0-0_計極細
  6
CONTINUOUS
 62
    2
 10
1614.0047573825284
 20
1186.5342583144811
 40
37.630656728658437
 50
182.67477399999882
 51
191.9270819999997
  0
ARC
  8
_0-0_計極細
  6
CONTINUOUS
 62
    2
 10
1614.0047573825284
 20
1186.5342583144811
 40
37.630656728658437
 50
197.4576029999993
 51
207.38710799999896
  0
ARC
  8
_0-0_計極細
  6
CONTINUOUS
 62
    2
 10
1573.4574477957647
 20
1183.7746788280156
 40
1.0034861863992508
 50
89.999999999999915
 51
183.89344999999844
  0
ARC
  8
_0-0_計極細
  6
CONTINUOUS
 62
    2
 10
1575.2673137990721
 20
1174.2415751094859
 40
1.0034861863992508
 50
89.999999999999915
 51
197.60596600000332
  0
ARC
  8
_0-0_計極細
  6
CONTINUOUS
 62
    2
 10
1576.4519569774163
 20
1169.7258963020454
 40
0.501740082747087
 50
204.11293800002809
 51
269.99999999999977
  0
ARC
  8
_0-0_計極細
  6
CONTINUOUS
 62
    2
 10
1614.0047573825284
 20
1186.5342583144811
 40
27.094072844634088
 50
163.31934899999951
 51
176.28377999999955
  0
ARC
  8
_0-0_計極細
  6
CONTINUOUS
 62
    2
 10
1614.0047573825284
 20
1186.5342583144811
 40
27.094072844634088
 50
183.71621999999911
 51
196.68065099999922
  0
ARC
  8
_0-0_計極細
  6
CONTINUOUS
 62
    2
 10
1614.0047573825284
 20
1186.5342583144811
 40
27.094072844634088
 50
204.62431799999874
 51
219.70901699999865
  0
ARC
  8
_0-0_計極細
  6
CONTINUOUS
 62
    2
 10
1576.4519569774163
 20
1203.3426203269187
 40
0.501740082747087
 50
89.999999999999915
 51
155.88706199997156
  0
ARC
  8
_0-0_計極細
  6
CONTINUOUS
 62
    2
 10
1579.7215974374456
 20
1208.3600392171043
 40
1.0034861863992508
 50
147.5178360000142
 51
269.99999999999977
  0
ARC
  8
_0-0_計極細
  6
CONTINUOUS
 62
    2
 10
1614.0047573825284
 20
1186.5342583144811
 40
37.630656728658437
 50
123.68035400000058
 51
126.22847700000025
  0
ARC
  8
_0-0_計極細
  6
CONTINUOUS
 62
    2
 10
1614.0047573825284
 20
1186.5342583144811
 40
37.630656728658437
 50
134.49322399999971
 51
146.40400499999933
  0
ARC
  8
_0-0_計極細
  6
CONTINUOUS
 62
    2
 10
1582.3999850189527
 20
1212.8757180245434
 40
0.501740082747087
 50
89.999999999999915
 51
140.18999100005377
  0
ARC
  8
_0-0_計極細
  6
CONTINUOUS
 62
    2
 10
1588.1528695060549
 20
1217.8931369147294
 40
1.0034861863992508
 50
129.50177000002535
 51
269.99999999999977
  0
LINE
  8
_0-0_計極細
  6
CONTINUOUS
 62
    2
 10
1588.1528695060549
 20
1216.8896567492352
 11
1592.1338497963568
 21
1216.8896567492352
  0
ARC
  8
_0-0_計極細
  6
CONTINUOUS
 62
    2
 10
1614.0047573825284
 20
1186.5342583144811
 40
37.630656728658437
 50
77.457603000000148
 51
87.387108000000282
  0
ARC
  8
_0-0_計極細
  6
CONTINUOUS
 62
    2
 10
1614.0047573825284
 20
1186.5342583144811
 40
37.630656728658437
 50
77.457603000000148
 51
87.387108000000282
  0
ARC
  8
_0-0_計極細
  6
CONTINUOUS
 62
    2
 10
1619.0741788298617
 20
1183.2729327243637
 40
1.0034861863992508
 50
89.999999999999915
 51
209.9999999999992
  0
ARC
  8
_0-0_計極細
  6
CONTINUOUS
 62
    2
 10
1619.0741788298617
 20
1189.7955839046017
 40
1.0034861863992508
 50
150.00000000000043
 51
269.99999999999977
  0
ARC
  8
_0-0_計極細
  6
CONTINUOUS
 62
    2
 10
1618.2246953535102
 20
1227.4601202661238
 40
0.501740082747087
 50
84.112938000024442
 51
150.00000000004033
  0
LINE
  8
_0-0_計極細
  6
CONTINUOUS
 62
    2
 10
1623.5967515736118
 20
1225.7264668792773
 11
1609.659548460522
 21
1201.5865210059455
  0
LINE
  8
_0-0_計極細
  6
CONTINUOUS
 62
    2
 10
1627.5169327644523
 20
1225.492024877406
 11
1610.9631105350343
 21
1196.8199691466803
  0
LINE
  8
_0-0_計極細
  6
CONTINUOUS
 62
    2
 10
1632.7575887521632
 20
1222.5273071340753
 11
1615.1634865854228
 21
1192.0534233083204
  0
LINE
  8
_0-0_計極細
  6
CONTINUOUS
 62
    2
 10
1611.997791030635
 20
1194.5261066678868
 11
1611.997791030635
 21
1198.6120915427255
  0
LINE
  8
_0-0_計極細
  6
CONTINUOUS
 62
    2
 10
1612.4995311133823
 20
1193.6570672918479
 11
1612.4995311133823
 21
1199.4811369396684
  0
ARC
  8
_0-0_計極細
  6
CONTINUOUS
 62
    2
 10
1603.1417260461565
 20
1198.82694151948
 40
1.0034861863992508
 50
269.99999999999977
 51
29.999999999999204
  0
LINE
  8
_0-0_計極細
  6
CONTINUOUS
 62
    2
 10
1615.5099836516754
 20
1192.65358110545
 11
1615.5099836516754
 21
1204.6953912586196
  0
LINE
  8
_0-0_計極細
  6
CONTINUOUS
 62
    2
 10
1616.0117297553268
 20
1193.5226265023925
 11
1616.0117297553268
 21
1205.5644366555648
  0
ARC
  8
_0-0_計極細
  6
CONTINUOUS
 62
    2
 10
1603.1417260461565
 20
1174.2415751094859
 40
1.0034861863992508
 50
329.9999999999776
 51
89.999999999999545
  0
ARC
  8
_0-0_計極細
  6
CONTINUOUS
 62
    2
 10
1601.1139574672231
 20
1169.7258963020454
 40
0.501740082747087
 50
269.99999999999977
 51
329.999999999995
  0
ARC
  8
_0-0_計極細
  6
CONTINUOUS
 62
    2
 10
1614.0047573825284
 20
1186.5342583144811
 40
27.094072844634088
 50
230.22103899999877
 51
235.21980799999864
  0
ARC
  8
_0-0_計極細
  6
CONTINUOUS
 62
    2
 10
1597.6377879212557
 20
1164.7084774118593
 40
1.0034861863992508
 50
330.00000000000011
 51
89.999999999999545
  0
ARC
  8
_0-0_計極細
  6
CONTINUOUS
 62
    2
 10
1605.8936951086059
 20
1166.9663168155798
 40
0.501740082747087
 50
149.9999999999884
 51
210.00000000005619
  0
LINE
  8
_0-0_計極細
  6
CONTINUOUS
 62
    2
 10
1611.997791030635
 20
1174.4564250862386
 11
1611.997791030635
 21
1178.5424099610773
  0
LINE
  8
_0-0_計極細
  6
CONTINUOUS
 62
    2
 10
1612.4995311133823
 20
1173.5873796892938
 11
1612.4995311133823
 21
1179.4114493371158
  0
ARC
  8
_0-0_計極細
  6
CONTINUOUS
 62
    2
 10
1606.6178955921221
 20
1179.2590000205764
 40
0.501740082747087
 50
269.99999999999977
 51
330.00000000003996
  0
ARC
  8
_0-0_計極細
  6
CONTINUOUS
 62
    2
 10
1611.3976332335076
 20
1176.4994145132041
 40
0.501740082747087
 50
150.00000000009922
 51
209.99999999985545
  0
ARC
  8
_0-0_計極細
  6
CONTINUOUS
 62
    2
 10
1608.7905030635773
 20
1170.9802555402712
 40
1.0034861863992508
 50
29.999999999999559
 51
150.00000000000043
  0
ARC
  8
_0-0_計極細
  6
CONTINUOUS
 62
    2
 10
1611.3976332335076
 20
1196.5691021157591
 40
0.501740082747087
 50
150.00000000009922
 51
209.99999999985545
  0
ARC
  8
_0-0_計極細
  6
CONTINUOUS
 62
    2
 10
1614.2944411884771
 20
1192.5551633910677
 40
1.0034861863992508
 50
210.00000000005113
 51
330.00000000002603
  0
ARC
  8
_0-0_計極細
  6
CONTINUOUS
 62
    2
 10
1606.6178955921221
 20
1193.8095166083863
 40
0.501740082747087
 50
29.99999999995967
 51
89.999999999999901
  0
ARC
  8
_0-0_計極細
  6
CONTINUOUS
 62
    2
 10
1608.6456641710563
 20
1189.2938378009485
 40
1.0034861863992508
 50
269.99999999999977
 51
30.000000000002665
  0
LINE
  8
_0-0_計極細
  6
CONTINUOUS
 62
    2
 10
1615.5099836516754
 20
1168.3731253703436
 11
1615.5099836516754
 21
1180.4149355235154
  0
LINE
  8
_0-0_計極細
  6
CONTINUOUS
 62
    2
 10
1616.0117297553268
 20
1167.5040799734006
 11
1616.0117297553268
 21
1179.5458901265706
  0
ARC
  8
_0-0_計極細
  6
CONTINUOUS
 62
    2
 10
1614.2944411884771
 20
1192.5551633910677
 40
1.0034861863992508
 50
253.22134500003193
 51
330.00000000002603
  0
LINE
  8
_0-0_計極細
  6
CONTINUOUS
 62
    2
 10
1613.1136995566237
 20
1226.6354910859309
 11
1604.1556103356231
 21
1211.1196187035698
  0
ARC
  8
_0-0_計極細
  6
CONTINUOUS
 62
    2
 10
1614.0047573825284
 20
1186.5342583144811
 40
37.630656728658437
 50
93.595995000000485
 51
105.50677600000017
  0
LINE
  8
_0-0_計極細
  6
CONTINUOUS
 62
    2
 10
1606.560251446919
 20
1227.326395964375
 11
1599.9552342852346
 21
1215.8861705628346
  0
LINE
  8
_0-0_計極細
  6
CONTINUOUS
 62
    2
 10
1617.7901726550388
 20
1227.7109933179509
 11
1605.4591724101335
 21
1206.3530728652095
  0
ARC
  8
_0-0_計極細
  6
CONTINUOUS
 62
    2
 10
1605.8936951086059
 20
1206.1021998133842
 40
0.501740082747087
 50
149.9999999999884
 51
210.00000000001123
  0
ARC
  8
_0-0_計極細
  6
CONTINUOUS
 62
    2
 10
1614.0047573825284
 20
1186.5342583144811
 40
27.094072844634088
 50
110.2210389999981
 51
115.21980799999808
  0
ARC
  8
_0-0_計極細
  6
CONTINUOUS
 62
    2
 10
1603.2865649386783
 20
1211.621364807223
 40
1.0034861863992508
 50
210.00000000000267
 51
330.00000000002257
  0
ARC
  8
_0-0_計極細
  6
CONTINUOUS
 62
    2
 10
1600.3897569837061
 20
1215.6352975110085
 40
0.501740082747087
 50
149.99999999999537
 51
209.9999999999593
  0
ARC
  8
_0-0_計極細
  6
CONTINUOUS
 62
    2
 10
1614.0047573825284
 20
1186.5342583144811
 40
37.630656728658437
 50
113.77152300000098
 51
116.31964599999986
  0
ARC
  8
_0-0_計極細
  6
CONTINUOUS
 62
    2
 10
1599.7731199693824
 20
1224.6020929607512
 40
1.0034861863992508
 50
330.00000000002257
 51
110.49822999994124
  0
ARC
  8
_0-0_計極細
  6
CONTINUOUS
 62
    2
 10
1597.7826268137794
 20
1221.1544625048464
 40
1.0034861863992508
 50
209.9999999999992
 51
330.00000000000011
  0
LINE
  8
_0-0_計極細
  6
CONTINUOUS
 62
    2
 10
1600.6421593454231
 20
1224.1003528780038
 11
1598.6516722107242
 21
1220.6527224221018
  0
ARC
  8
_0-0_計極細
  6
CONTINUOUS
 62
    2
 10
1614.0047573825284
 20
1186.5342583144811
 40
27.094072844634088
 50
124.78019199999984
 51
129.77896100000024
  0
ARC
  8
_0-0_計極細
  6
CONTINUOUS
 62
    2
 10
1595.6100193423242
 20
1212.8757180245434
 40
0.501740082747087
 50
30.000000000063526
 51
89.999999999999915
  0
ARC
  8
_0-0_計極細
  6
CONTINUOUS
 62
    2
 10
1597.6377879212557
 20
1208.3600392171043
 40
1.0034861863992508
 50
269.99999999999977
 51
29.999999999999204
  0
ARC
  8
_0-0_計極細
  6
CONTINUOUS
 62
    2
 10
1601.1139574672231
 20
1203.3426203269187
 40
0.501740082747087
 50
29.99999999995967
 51
89.999999999999901
  0
LINE
  8
_0-0_計極細
  6
CONTINUOUS
 62
    2
 10
1612.4995311133823
 20
1206.5055221817493
 11
1612.4995311133823
 21
1213.5864858688342
  0
LINE
  8
_0-0_計極細
  6
CONTINUOUS
 62
    2
 10
1611.997791030635
 20
1205.6364828057108
 11
1611.997791030635
 21
1213.5538947096543
  0
ARC
  8
_0-0_計極細
  6
CONTINUOUS
 62
    2
 10
1612.2446601805857
 20
1227.1372371895845
 40
1.0034861863992508
 50
329.99999999997414
 51
92.482164000031602
  0
ARC
  8
_0-0_計極細
  6
CONTINUOUS
 62
    2
 10
1614.0047573825284
 20
1186.5342583144811
 40
27.094072844634088
 50
84.624317999999832
 51
99.709017000000401
  0
ARC
  8
_0-0_計極細
  6
CONTINUOUS
 62
    2
 10
1606.9947741453905
 20
1227.0755229125498
 40
0.501740082747087
 50
99.810008999948636
 51
149.99999999993648
  0
ARC
  8
_0-0_計極細
  6
CONTINUOUS
 62
    2
 10
1608.7905030635773
 20
1202.0882610886915
 40
1.0034861863992508
 50
209.9999999999992
 51
330.00000000000011
  0
ARC
  8
_0-0_計極細
  6
CONTINUOUS
 62
    2
 10
1614.0047573825284
 20
1186.5342583144811
 40
27.094072844634088
 50
84.624317999999832
 51
89.999999999999915
  0
ARC
  8
_0-0_計極細
  6
CONTINUOUS
 62
    2
 10
1614.0047573825284
 20
1186.5342583144811
 40
27.094072844634088
 50
20.290983000001571
 51
35.37568200000068
  0
LINE
  8
_0-0_計極細
  6
CONTINUOUS
 62
    2
 10
1640.987094270751
 20
1217.715026500754
 11
1624.4332720413329
 21
1189.0429707700273
  0
LINE
  8
_0-0_計極細
  6
CONTINUOUS
 62
    2
 10
1635.7992416205623
 20
1220.771213834008
 11
1618.2051334329169
 21
1190.2973239873472
  0
ARC
  8
_0-0_計極細
  6
CONTINUOUS
 62
    2
 10
1614.0047573825284
 20
1186.5342583144811
 40
27.094072844634088
 50
303.71622000000156
 51
316.68065099999922
  0
ARC
  8
_0-0_計極細
  6
CONTINUOUS
 62
    2
 10
1630.0820490587537
 20
1183.2729327243637
 40
1.0034861863992508
 50
89.999999999999915
 51
210.00000000002515
  0
ARC
  8
_0-0_計極細
  6
CONTINUOUS
 62
    2
 10
1623.9987493428614
 20
1183.7746788280156
 40
0.501740082747087
 50
30.0000000001085
 51
89.999999999999915
  0
ARC
  8
_0-0_計極細
  6
CONTINUOUS
 62
    2
 10
1630.0820490587537
 20
1189.7955839046017
 40
1.0034861863992508
 50
149.99999999997448
 51
269.99999999999977
  0
ARC
  8
_0-0_計極細
  6
CONTINUOUS
 62
    2
 10
1623.9987493428614
 20
1189.2938378009485
 40
0.501740082747087
 50
269.99999999999977
 51
329.99999999989114
  0
ARC
  8
_0-0_計極細
  6
CONTINUOUS
 62
    2
 10
1614.0047573825284
 20
1186.5342583144811
 40
27.094072844634088
 50
324.62431799999973
 51
339.7090169999999
  0
ARC
  8
_0-0_計極細
  6
CONTINUOUS
 62
    2
 10
1614.0047573825284
 20
1186.5342583144811
 40
27.094072844634088
 50
350.22103899999934
 51
355.21980800000068
  0
ARC
  8
_0-0_計極細
  6
CONTINUOUS
 62
    2
 10
1614.0047573825284
 20
1186.5342583144811
 40
27.094072844634088
 50
4.7801919999998796
 51
9.778961000001221
  0
ARC
  8
_0-0_計極細
  6
CONTINUOUS
 62
    2
 10
1641.0899253085533
 20
1183.2729327243637
 40
1.0034861863992508
 50
89.999999999999915
 51
210.00000000002515
  0
ARC
  8
_0-0_計極細
  6
CONTINUOUS
 62
    2
 10
1635.0066255926602
 20
1183.7746788280156
 40
0.501740082747087
 50
30.000000000056566
 51
89.999999999999915
  0
ARC
  8
_0-0_計極細
  6
CONTINUOUS
 62
    2
 10
1641.0899253085533
 20
1189.7955839046017
 40
1.0034861863992508
 50
149.99999999997448
 51
269.99999999999977
  0
ARC
  8
_0-0_計極細
  6
CONTINUOUS
 62
    2
 10
1635.0066255926602
 20
1189.2938378009485
 40
0.501740082747087
 50
269.99999999999977
 51
329.9999999999431
  0
ARC
  8
_0-0_計極細
  6
CONTINUOUS
 62
    2
 10
1614.0047573825284
 20
1186.5342583144811
 40
27.094072844634088
 50
43.319349000001104
 51
56.28377999999919
  0
ARC
  8
_0-0_計極細
  6
CONTINUOUS
 62
    2
 10
1614.0047573825284
 20
1186.5342583144811
 40
37.630656728658437
 50
62.674774000000312
 51
71.927081999999317
  0
ARC
  8
_0-0_計極細
  6
CONTINUOUS
 62
    2
 10
1614.0047573825284
 20
1186.5342583144811
 40
27.094072844634088
 50
63.716220000000746
 51
76.680650999998889
  0
ARC
  8
_0-0_計極細
  6
CONTINUOUS
 62
    2
 10
1627.951449442018
 20
1225.2411578464839
 40
0.501740082747087
 50
70.185127999891137
 51
149.99999999993648
  0
ARC
  8
_0-0_計極細
  6
CONTINUOUS
 62
    2
 10
1622.7277061766679
 20
1226.2282129829309
 40
1.0034861863992508
 50
329.99999999999665
 51
77.605965999942228
  0
ARC
  8
_0-0_計極細
  6
CONTINUOUS
 62
    2
 10
1614.0047573825284
 20
1186.5342583144811
 40
37.630656728658437
 50
48.072918000001373
 51
57.325226000001372
  0
ARC
  8
_0-0_計極細
  6
CONTINUOUS
 62
    2
 10
1636.6682809966003
 20
1220.2694677303562
 40
1.0034861863992508
 50
56.106549999971008
 51
149.99999999999699
  0
ARC
  8
_0-0_計極細
  6
CONTINUOUS
 62
    2
 10
1640.5525715722786
 20
1217.9658935316743
 40
0.501740082747087
 50
330.00000000009186
 51
49.814871999965682
  0
ARC
  8
_0-0_計極細
  6
CONTINUOUS
 62
    2
 10
1631.8885493761243
 20
1223.0290532377267
 40
1.0034861863992508
 50
330.00000000000011
 51
63.893449999974756
  0
ARC
  8
_0-0_計極細
  6
CONTINUOUS
 62
    2
 10
1644.0192581927483
 20
1159.1329868510302
 40
1.0034861863992508
 50
210.00000000002515
 51
317.6059660000256
  0
ARC
  8
_0-0_計極細
  6
CONTINUOUS
 62
    2
 10
1647.3376318584685
 20
1162.4167523543692
 40
0.501740082747087
 50
324.11293799996702
 51
29.999999999959307
  0
ARC
  8
_0-0_計極細
  6
CONTINUOUS
 62
    2
 10
1614.0047573825284
 20
1186.5342583144811
 40
37.630656728658437
 50
14.493223999999607
 51
26.404005000000534
  0
LINE
  8
_0-0_計極細
  6
CONTINUOUS
 62
    2
 10
1653.0540417026166
 20
1200.4831961715663
 11
1646.4490245409313
 21
1189.0429707700273
  0
ARC
  8
_0-0_計極細
  6
CONTINUOUS
 62
    2
 10
1654.0882947139578
 20
1179.8253022684594
 40
1.0034861863992508
 50
209.99999999997672
 51
350.4982300000064
  0
ARC
  8
_0-0_計極細
  6
CONTINUOUS
 62
    2
 10
1654.0882947139578
 20
1193.2432143605047
 40
1.0034861863992508
 50
9.5017699999932326
 51
150.00000000000043
  0
ARC
  8
_0-0_計極細
  6
CONTINUOUS
 62
    2
 10
1614.0047573825284
 20
1186.5342583144811
 40
37.630656728658437
 50
3.6803540000001762
 51
6.228477000000372
  0
ARC
  8
_0-0_計極細
  6
CONTINUOUS
 62
    2
 10
1614.0047573825284
 20
1186.5342583144811
 40
37.630656728658437
 50
353.77152300000063
 51
356.31964600000015
  0
ARC
  8
_0-0_計極細
  6
CONTINUOUS
 62
    2
 10
1614.0047573825284
 20
1186.5342583144811
 40
37.630656728658437
 50
333.59599499999973
 51
345.50677600000074
  0
ARC
  8
_0-0_計極細
  6
CONTINUOUS
 62
    2
 10
1650.0480205504607
 20
1167.7570603420027
 40
1.0034861863992508
 50
209.99999999997672
 51
332.48216400001218
  0
ARC
  8
_0-0_計極細
  6
CONTINUOUS
 62
    2
 10
1652.0978015583521
 20
1183.2729327243637
 40
1.0034861863992508
 50
89.999999999999915
 51
210.00000000002515
  0
ARC
  8
_0-0_計極細
  6
CONTINUOUS
 62
    2
 10
1646.0145018424589
 20
1183.7746788280156
 40
0.501740082747087
 50
30.000000000004636
 51
89.999999999999915
  0
LINE
  8
_0-0_計極細
  6
CONTINUOUS
 62
    2
 10
1653.219249317013
 20
1179.3235621857129
 11
1651.2287621823141
 21
1182.7711926416173
  0
LINE
  8
_0-0_計極細
  6
CONTINUOUS
 62
    2
 10
1653.0540417026166
 20
1172.5853204573987
 11
1646.4490245409313
 21
1184.0255458589354
  0
ARC
  8
_0-0_計極細
  6
CONTINUOUS
 62
    2
 10
1652.0978015583521
 20
1189.7955839046017
 40
1.0034861863992508
 50
149.99999999997448
 51
269.99999999999977
  0
ARC
  8
_0-0_計極細
  6
CONTINUOUS
 62
    2
 10
1646.0145018424589
 20
1189.2938378009485
 40
0.501740082747087
 50
269.99999999999977
 51
329.999999999995
  0
LINE
  8
_0-0_計極細
  6
CONTINUOUS
 62
    2
 10
1653.219249317013
 20
1193.7449544432511
 11
1651.2287621823141
 21
1190.2973239873472
  0
ARC
  8
_0-0_計極細
  6
CONTINUOUS
 62
    2
 10
1644.0192581927483
 20
1213.9355297779339
 40
1.0034861863992508
 50
42.394033999974049
 51
149.99999999997448
  0
ARC
  8
_0-0_計極細
  6
CONTINUOUS
 62
    2
 10
1647.3376318584685
 20
1210.6517642745944
 40
0.501740082747087
 50
330.00000000003996
 51
35.887062000032259
  0
ARC
  8
_0-0_計極細
  6
CONTINUOUS
 62
    2
 10
1650.0480205504607
 20
1205.3114562869614
 40
1.0034861863992508
 50
27.517836000010465
 51
150.00000000000043
  0
LINE
  8
_0-0_計極細
  6
CONTINUOUS
 62
    2
 10
1615.5099836516754
 20
1159.4820296227635
 11
1615.5099836516754
 21
1161.3487412728568
  0
LINE
  8
_0-0_計極細
  6
CONTINUOUS
 62
    2
 10
1616.0117297553268
 20
1159.514620174692
 11
1616.0117297553268
 21
1160.4796912412985
  0
LINE
  8
_0-0_計極細
  6
CONTINUOUS
 62
    2
 10
1615.5099836516754
 20
1211.7197728287047
 11
1615.5099836516754
 21
1213.5864870061991
  0
LINE
  8
_0-0_計極細
  6
CONTINUOUS
 62
    2
 10
1616.0117297553268
 20
1212.5888226435072
 11
1616.0117297553268
 21
1213.5538964542707
  0
LINE
  8
_0-0_計極細
  6
CENTER2
 62
    2
 10
488.83230101112053
 20
1186.5342583144811
 11
1703.8610216377526
 21
1186.5342583144811
  0
LINE
  8
_0-1_計細線
  6
CONTINUOUS
 62
    3
 10
498.00376026894605
 20
1258.5342583144816
 11
498.00376026894605
 21
1114.5342583144811
  0
LINE
  8
_0-1_計細線
  6
CONTINUOUS
 62
    3
 10
498.00376026894605
 20
1114.5342583144811
 11
1694.0037602689461
 21
1114.5342583144811
  0
LINE
  8
_0-1_計細線
  6
CONTINUOUS
 62
    3
 10
1694.0037602689461
 20
1114.5342583144811
 11
1694.0037602689461
 21
1258.5342583144816
  0
LINE
  8
_0-1_計細線
  6
CONTINUOUS
 62
    3
 10
1694.0037602689461
 20
1258.5342583144816
 11
498.00376026894605
 21
1258.5342583144816
  0
LINE
  8
_0-1_計細線
  6
CONTINUOUS
 62
    3
 10
509.00376026894605
 20
1247.5342583144816
 11
509.00376026894605
 21
1125.5342583144811
  0
LINE
  8
_0-1_計細線
  6
CONTINUOUS
 62
    3
 10
509.00376026894605
 20
1125.5342583144811
 11
1683.0037602689461
 21
1125.5342583144811
  0
LINE
  8
_0-1_計細線
  6
CONTINUOUS
 62
    3
 10
1683.0037602689461
 20
1125.5342583144811
 11
1683.0037602689461
 21
1247.5342583144816
  0
LINE
  8
_0-1_計細線
  6
CONTINUOUS
 62
    3
 10
1683.0037602689461
 20
1247.5342583144816
 11
509.00376026894605
 21
1247.5342583144816
  0
LINE
  8
_0-0_計極細
  6
CONTINUOUS
 62
    2
 10
1379.053755691896
 20
1235.7842583144816
 11
1379.0537579728705
 21
1230.284258314482
  0
LINE
  8
_0-0_計極細
  6
CONTINUOUS
 62
    2
 10
1385.9537556616922
 20
1235.7842583144816
 11
1385.9537579728701
 21
1230.284258314482
  0
LINE
  8
_0-0_計極細
  6
CONTINUOUS
 62
    2
 10
1379.0537579821219
 20
1220.284258314482
 11
1379.0537579821219
 21
1214.784258314482
  0
LINE
  8
_0-0_計極細
  6
CONTINUOUS
 62
    2
 10
1385.9537579822443
 20
1220.284258314482
 11
1385.9537579822443
 21
1214.784258314482
  0
LINE
  8
_0-0_計極細
  6
CONTINUOUS
 62
    2
 10
1379.0537579821219
 20
1199.2842583144825
 11
1379.0537579821219
 21
1204.784258314482
  0
LINE
  8
_0-0_計極細
  6
CONTINUOUS
 62
    2
 10
1385.9537579822443
 20
1199.2842583144825
 11
1385.9537579822443
 21
1204.784258314482
  0
LINE
  8
_0-0_計極細
  6
CONTINUOUS
 62
    2
 10
1379.0537579821219
 20
1183.7842583144829
 11
1379.0537579821219
 21
1189.2842583144825
  0
LINE
  8
_0-0_計極細
  6
CONTINUOUS
 62
    2
 10
1385.9537579822443
 20
1183.7842583144829
 11
1385.9537579822443
 21
1189.2842583144825
  0
LINE
  8
_0-0_計極細
  6
CONTINUOUS
 62
    2
 10
1379.053755691896
 20
1137.2842583144816
 11
1379.0537579728705
 21
1142.7842583144811
  0
LINE
  8
_0-0_計極細
  6
CONTINUOUS
 62
    2
 10
1385.9537556616922
 20
1137.2842583144816
 11
1385.9537579728701
 21
1142.7842583144811
  0
LINE
  8
_0-0_計極細
  6
CONTINUOUS
 62
    2
 10
1379.0537579821219
 20
1152.7842583144811
 11
1379.0537579821219
 21
1158.2842583144811
  0
LINE
  8
_0-0_計極細
  6
CONTINUOUS
 62
    2
 10
1385.9537579822443
 20
1152.7842583144811
 11
1385.9537579822443
 21
1158.2842583144811
  0
LINE
  8
_0-0_計極細
  6
CONTINUOUS
 62
    2
 10
1379.0537579821219
 20
1173.7842583144807
 11
1379.0537579821219
 21
1168.2842583144811
  0
LINE
  8
_0-0_計極細
  6
CONTINUOUS
 62
    2
 10
1385.9537579822443
 20
1173.7842583144807
 11
1385.9537579822443
 21
1168.2842583144811
  0
ARC
  8
_0-0_計極細
  6
CONTINUOUS
 62
    2
 10
1487.5817283864242
 20
1215.5342583143965
 40
54.312365187078854
 50
327.72737804884258
 51
33.846056193751515
  0
ARC
  8
_0-0_計極細
  6
CONTINUOUS
 62
    2
 10
1579.4257921514761
 20
1157.5342583145725
 40
54.312365187078854
 50
147.72737804884292
 51
213.84605619376094
  0
LINE
  8
_0-1_計細線
  6
CONTINUOUS
 62
    3
 10
510.50376026894605
 20
1245.784258314482
 11
510.50376026894605
 21
1235.7842583144816
  0
LINE
  8
_0-1_計細線
  6
CONTINUOUS
 62
    3
 10
1532.6901589976685
 20
1245.784258314482
 11
510.50376026894605
 21
1245.784258314482
  0
LINE
  8
_0-1_計細線
  6
CONTINUOUS
 62
    3
 10
510.50376026894605
 20
1235.7842583144816
 11
1537.9778642721374
 21
1235.7842583144816
  0
LINE
  8
_0-1_計細線
  6
CONTINUOUS
 62
    3
 10
510.50376026894605
 20
1230.2842583144816
 11
510.50376026894605
 21
1220.2842583144816
  0
LINE
  8
_0-1_計細線
  6
CONTINUOUS
 62
    3
 10
1539.8528534193927
 20
1230.2842583144816
 11
510.50376026894605
 21
1230.2842583144816
  0
LINE
  8
_0-1_計細線
  6
CONTINUOUS
 62
    3
 10
510.50376026894605
 20
1220.2842583144816
 11
1541.6859843392956
 21
1220.2842583144816
  0
LINE
  8
_0-1_計細線
  6
CONTINUOUS
 62
    3
 10
510.50376026894605
 20
1214.7842583144816
 11
510.50376026894605
 21
1204.7842583144816
  0
LINE
  8
_0-1_計細線
  6
CONTINUOUS
 62
    3
 10
1541.8889149478243
 20
1214.7842583144816
 11
510.50376026894605
 21
1214.7842583144816
  0
LINE
  8
_0-1_計細線
  6
CONTINUOUS
 62
    3
 10
510.50376026894605
 20
1204.7842583144816
 11
1540.8195956635461
 21
1204.7842583144816
  0
LINE
  8
_0-1_計細線
  6
CONTINUOUS
 62
    3
 10
510.50376026894605
 20
1199.2842583144816
 11
510.50376026894605
 21
1189.2842583144811
  0
LINE
  8
_0-1_計細線
  6
CONTINUOUS
 62
    3
 10
1539.4061484238671
 20
1199.2842583144816
 11
510.50376026894605
 21
1199.2842583144816
  0
LINE
  8
_0-1_計細線
  6
CONTINUOUS
 62
    3
 10
510.50376026894605
 20
1189.2842583144811
 11
1535.1292889150034
 21
1189.2842583144811
  0
LINE
  8
_0-1_計細線
  6
CONTINUOUS
 62
    3
 10
510.50376026894605
 20
1183.7842583144811
 11
510.50376026894605
 21
1173.7842583144811
  0
LINE
  8
_0-1_計細線
  6
CONTINUOUS
 62
    3
 10
1531.8782316228887
 20
1183.7842583144811
 11
510.50376026894605
 21
1183.7842583144811
  0
LINE
  8
_0-1_計細線
  6
CONTINUOUS
 62
    3
 10
510.50376026894605
 20
1173.7842583144811
 11
1527.6013721140305
 21
1173.7842583144811
  0
LINE
  8
_0-1_計細線
  6
CONTINUOUS
 62
    3
 10
510.50376026894605
 20
1168.2842583144811
 11
510.50376026894605
 21
1158.2842583144807
  0
LINE
  8
_0-1_計細線
  6
CONTINUOUS
 62
    3
 10
1526.1879248743523
 20
1168.2842583144811
 11
510.50376026894605
 21
1168.2842583144811
  0
LINE
  8
_0-1_計細線
  6
CONTINUOUS
 62
    3
 10
510.50376026894605
 20
1158.2842583144807
 11
1525.118605590076
 21
1158.2842583144807
  0
LINE
  8
_0-1_計細線
  6
CONTINUOUS
 62
    3
 10
510.50376026894605
 20
1152.7842583144807
 11
510.50376026894605
 21
1142.7842583144807
  0
LINE
  8
_0-1_計細線
  6
CONTINUOUS
 62
    3
 10
1525.3215361986065
 20
1152.7842583144807
 11
510.50376026894605
 21
1152.7842583144807
  0
LINE
  8
_0-1_計細線
  6
CONTINUOUS
 62
    3
 10
510.50376026894605
 20
1142.7842583144807
 11
1527.1546671185104
 21
1142.7842583144807
  0
LINE
  8
_0-1_計細線
  6
CONTINUOUS
 62
    3
 10
510.50376026894605
 20
1137.2842583144807
 11
510.50376026894605
 21
1127.2842583144802
  0
LINE
  8
_0-1_計細線
  6
CONTINUOUS
 62
    3
 10
1529.0296562657675
 20
1137.2842583144807
 11
510.50376026894605
 21
1137.2842583144807
  0
LINE
  8
_0-1_計細線
  6
CONTINUOUS
 62
    3
 10
510.50376026894605
 20
1127.2842583144802
 11
1534.3173615402363
 21
1127.2842583144802
  0
LINE
  8
_0-5_寸法線
  6
CONTINUOUS
 62
    7
 10
498.00376026894605
 20
1098.5342583144811
 11
498.00376026894605
 21
1026.5342583144811
  0
LINE
  8
_0-5_寸法線
  6
CONTINUOUS
 62
    7
 10
498.00376026894605
 20
1034.5342583144811
 11
513.45857348957111
 21
1038.6753630361216
  0
LINE
  8
_0-5_寸法線
  6
CONTINUOUS
 62
    7
 10
498.00376026894605
 20
1034.5342583144811
 11
513.45857348957111
 21
1030.3931535928407
  0
LINE
  8
_0-5_寸法線
  6
CONTINUOUS
 62
    7
 10
1614.0037602689461
 20
1098.5342583144811
 11
1614.0037602689461
 21
1026.5342583144811
  0
LINE
  8
_0-5_寸法線
  6
CONTINUOUS
 62
    7
 10
1614.0037602689461
 20
1034.5342583144811
 11
1598.548947048321
 21
1030.3931535928409
  0
LINE
  8
_0-5_寸法線
  6
CONTINUOUS
 62
    7
 10
1614.0037602689461
 20
1034.5342583144811
 11
1598.548947048321
 21
1038.6753630361216
  0
LINE
  8
_0-5_寸法線
  6
CONTINUOUS
 62
    7
 10
498.00376026894605
 20
1034.5342583144811
 11
1614.0037602689461
 21
1034.5342583144811
  0
TEXT
  8
_0-5_寸法線
 62
    7
 10
1032.0037602689461
 20
1034.5342583144811
 40
24
 41
1
 50
0
  1
1116
  0
LINE
  8
_0-5_寸法線
  6
CONTINUOUS
 62
    7
 10
1614.0037602689461
 20
1034.5342583144811
 11
1629.4585734895711
 21
1038.6753630361213
  0
LINE
  8
_0-5_寸法線
  6
CONTINUOUS
 62
    7
 10
1614.0037602689461
 20
1034.5342583144811
 11
1629.4585734895711
 21
1030.3931535928407
  0
LINE
  8
_0-5_寸法線
  6
CONTINUOUS
 62
    7
 10
1694.0037602689461
 20
1098.5342583144811
 11
1694.0037602689461
 21
1026.5342583144811
  0
LINE
  8
_0-5_寸法線
  6
CONTINUOUS
 62
    7
 10
1694.0037602689461
 20
1034.5342583144811
 11
1678.548947048321
 21
1030.3931535928409
  0
LINE
  8
_0-5_寸法線
  6
CONTINUOUS
 62
    7
 10
1694.0037602689461
 20
1034.5342583144811
 11
1678.548947048321
 21
1038.6753630361216
  0
LINE
  8
_0-5_寸法線
  6
CONTINUOUS
 62
    7
 10
1614.0037602689461
 20
1034.5342583144811
 11
1694.0037602689461
 21
1034.5342583144811
  0
TEXT
  8
_0-5_寸法線
 62
    7
 10
1642.0037602689451
 20
1034.5342583144811
 40
24
 41
1
 50
0
  1
80
  0
LINE
  8
_0-5_寸法線
  6
CONTINUOUS
 62
    7
 10
482.00376026894605
 20
1114.5342583144811
 11
410.00376026894605
 21
1114.5342583144811
  0
LINE
  8
_0-5_寸法線
  6
CONTINUOUS
 62
    7
 10
418.00376026894605
 20
1114.5342583144811
 11
422.14486499058626
 21
1099.0794450938561
  0
LINE
  8
_0-5_寸法線
  6
CONTINUOUS
 62
    7
 10
418.00376026894605
 20
1114.5342583144811
 11
413.86265554730562
 21
1099.0794450938561
  0
LINE
  8
_0-5_寸法線
  6
CONTINUOUS
 62
    7
 10
482.00376026894605
 20
1125.5342583144811
 11
410.00376026894605
 21
1125.5342583144811
  0
LINE
  8
_0-5_寸法線
  6
CONTINUOUS
 62
    7
 10
418.00376026894605
 20
1065.9534918260433
 11
418.00376026894605
 21
1125.5342583144811
  0
TEXT
  8
_0-5_寸法線
 62
    7
 10
418.00376026894605
 20
1065.9534918260433
 40
24
 41
1
 50
90
  1
11
  0
LINE
  8
_0-5_寸法線
  6
CONTINUOUS
 62
    7
 10
418.00376026894605
 20
1125.5342583144811
 11
413.86265554730574
 21
1140.9890715351062
  0
LINE
  8
_0-5_寸法線
  6
CONTINUOUS
 62
    7
 10
418.00376026894605
 20
1125.5342583144811
 11
422.14486499058648
 21
1140.9890715351062
  0
LINE
  8
_0-5_寸法線
  6
CONTINUOUS
 62
    7
 10
482.00376026894605
 20
1247.5342583144816
 11
410.00376026894605
 21
1247.534258314482
  0
LINE
  8
_0-5_寸法線
  6
CONTINUOUS
 62
    7
 10
418.00376026894605
 20
1247.534258314482
 11
422.14486499058626
 21
1232.079445093857
  0
LINE
  8
_0-5_寸法線
  6
CONTINUOUS
 62
    7
 10
418.00376026894605
 20
1247.534258314482
 11
413.86265554730562
 21
1232.079445093857
  0
LINE
  8
_0-5_寸法線
  6
CONTINUOUS
 62
    7
 10
418.00376026894605
 20
1125.5342583144811
 11
418.00376026894605
 21
1247.534258314482
  0
TEXT
  8
_0-5_寸法線
 62
    7
 10
418.00376026894605
 20
1168.5342583144816
 40
24
 41
1
 50
90
  1
122
  0
LINE
  8
_0-5_寸法線
  6
CONTINUOUS
 62
    7
 10
482.00376026894605
 20
1258.5342583144816
 11
410.00376026894605
 21
1258.534258314482
  0
LINE
  8
_0-5_寸法線
  6
CONTINUOUS
 62
    7
 10
418.00376026894605
 20
1258.534258314482
 11
413.86265554730574
 21
1273.9890715351071
  0
LINE
  8
_0-5_寸法線
  6
CONTINUOUS
 62
    7
 10
418.00376026894605
 20
1258.534258314482
 11
422.14486499058648
 21
1273.9890715351071
  0
LINE
  8
_0-5_寸法線
  6
CONTINUOUS
 62
    7
 10
418.00376026894605
 20
1247.534258314482
 11
418.00376026894605
 21
1301.6519148867872
  0
TEXT
  8
_0-5_寸法線
 62
    7
 10
418.00376026894605
 20
1277.6519148867872
 40
24
 41
1
 50
90
  1
11
  0
LINE
  8
_0-5_寸法線
  6
CONTINUOUS
 62
    7
 10
482.00376026894605
 20
1258.5342583144816
 11
354.00376026894605
 21
1258.5342583144816
  0
LINE
  8
_0-5_寸法線
  6
CONTINUOUS
 62
    7
 10
362.00376026894605
 20
1258.5342583144816
 11
366.14486499058626
 21
1243.0794450938565
  0
LINE
  8
_0-5_寸法線
  6
CONTINUOUS
 62
    7
 10
362.00376026894605
 20
1258.5342583144816
 11
357.86265554730562
 21
1243.0794450938565
  0
LINE
  8
_0-5_寸法線
  6
CONTINUOUS
 62
    7
 10
482.00376026894605
 20
1114.5342583144811
 11
354.00376026894605
 21
1114.5342583144811
  0
LINE
  8
_0-5_寸法線
  6
CONTINUOUS
 62
    7
 10
362.00376026894605
 20
1114.5342583144811
 11
357.86265554730562
 21
1129.9890715351062
  0
LINE
  8
_0-5_寸法線
  6
CONTINUOUS
 62
    7
 10
362.00376026894605
 20
1114.5342583144811
 11
366.14486499058637
 21
1129.9890715351062
  0
LINE
  8
_0-5_寸法線
  6
CONTINUOUS
 62
    7
 10
362.00376026894605
 20
1258.5342583144816
 11
362.00376026894605
 21
1114.5342583144811
  0
TEXT
  8
_0-5_寸法線
 62
    7
 10
362.00376026894605
 20
1168.5342583144811
 40
24
 41
1
 50
90
  1
144
  0
LINE
  8
_0-5_寸法線
  6
CONTINUOUS
 62
    7
 10
1681.5037602689461
 20
1274.5342583144816
 11
1681.5037602689461
 21
1346.5342583144816
  0
LINE
  8
_0-5_寸法線
  6
CONTINUOUS
 62
    7
 10
1681.5037602689461
 20
1338.5342583144816
 11
1666.048947048321
 21
1334.3931535928414
  0
LINE
  8
_0-5_寸法線
  6
CONTINUOUS
 62
    7
 10
1681.5037602689461
 20
1338.5342583144816
 11
1666.048947048321
 21
1342.675363036122
  0
LINE
  8
_0-5_寸法線
  6
CONTINUOUS
 62
    7
 10
510.50376026894617
 20
1274.5342583144813
 11
510.50376026894651
 21
1346.5342583144816
  0
LINE
  8
_0-5_寸法線
  6
CONTINUOUS
 62
    7
 10
510.50376026894651
 20
1338.5342583144816
 11
525.95857348957156
 21
1342.675363036122
  0
LINE
  8
_0-5_寸法線
  6
CONTINUOUS
 62
    7
 10
510.50376026894651
 20
1338.5342583144816
 11
525.95857348957156
 21
1334.3931535928411
  0
LINE
  8
_0-5_寸法線
  6
CONTINUOUS
 62
    7
 10
1681.5037602689461
 20
1338.5342583144816
 11
510.50376026894651
 21
1338.5342583144816
  0
TEXT
  8
_0-5_寸法線
 62
    7
 10
1072.0037602689461
 20
1338.5342583144816
 40
24
 41
1
 50
0
  1
1171
  0
LINE
  8
_0-5_寸法線
  6
CONTINUOUS
 62
    7
 10
498.00376026894605
 20
1274.5342583144816
 11
498.00376026894651
 21
1402.5342583144816
  0
LINE
  8
_0-5_寸法線
  6
CONTINUOUS
 62
    7
 10
498.00376026894651
 20
1394.5342583144816
 11
482.54894704832145
 21
1390.3931535928414
  0
LINE
  8
_0-5_寸法線
  6
CONTINUOUS
 62
    7
 10
498.00376026894651
 20
1394.5342583144816
 11
482.54894704832145
 21
1398.675363036122
  0
LINE
  8
_0-5_寸法線
  6
CONTINUOUS
 62
    7
 10
509.00376026894605
 20
1274.5342583144813
 11
509.00376026894651
 21
1402.5342583144816
  0
LINE
  8
_0-5_寸法線
  6
CONTINUOUS
 62
    7
 10
451.45197405717431
 20
1394.5342583144816
 11
509.00376026894651
 21
1394.5342583144816
  0
TEXT
  8
_0-5_寸法線
 62
    7
 10
451.45197405717431
 20
1394.5342583144816
 40
24
 41
1
 50
0
  1
11
  0
LINE
  8
_0-5_寸法線
  6
CONTINUOUS
 62
    7
 10
509.00376026894651
 20
1394.5342583144816
 11
524.45857348957168
 21
1398.6753630361218
  0
LINE
  8
_0-5_寸法線
  6
CONTINUOUS
 62
    7
 10
509.00376026894651
 20
1394.5342583144816
 11
524.45857348957156
 21
1390.3931535928411
  0
LINE
  8
_0-5_寸法線
  6
CONTINUOUS
 62
    7
 10
1683.0037602689461
 20
1274.5342583144816
 11
1683.0037602689461
 21
1402.5342583144816
  0
LINE
  8
_0-5_寸法線
  6
CONTINUOUS
 62
    7
 10
1683.0037602689461
 20
1394.5342583144816
 11
1667.548947048321
 21
1390.3931535928414
  0
LINE
  8
_0-5_寸法線
  6
CONTINUOUS
 62
    7
 10
1683.0037602689461
 20
1394.5342583144816
 11
1667.548947048321
 21
1398.675363036122
  0
LINE
  8
_0-5_寸法線
  6
CONTINUOUS
 62
    7
 10
509.00376026894651
 20
1394.5342583144816
 11
1683.0037602689461
 21
1394.5342583144816
  0
TEXT
  8
_0-5_寸法線
 62
    7
 10
1072.0037602689461
 20
1394.5342583144816
 40
24
 41
1
 50
0
  1
1174
  0
LINE
  8
_0-5_寸法線
  6
CONTINUOUS
 62
    7
 10
1694.0037602689461
 20
1274.5342583144816
 11
1694.0037602689461
 21
1402.5342583144816
  0
LINE
  8
_0-5_寸法線
  6
CONTINUOUS
 62
    7
 10
1694.0037602689461
 20
1394.5342583144816
 11
1709.4585734895711
 21
1398.6753630361218
  0
LINE
  8
_0-5_寸法線
  6
CONTINUOUS
 62
    7
 10
1694.0037602689461
 20
1394.5342583144816
 11
1709.4585734895711
 21
1390.3931535928411
  0
LINE
  8
_0-5_寸法線
  6
CONTINUOUS
 62
    7
 10
1683.0037602689461
 20
1394.5342583144816
 11
1737.2807477584151
 21
1394.5342583144816
  0
TEXT
  8
_0-5_寸法線
 62
    7
 10
1713.2807477584154
 20
1394.5342583144816
 40
24
 41
1
 50
0
  1
11
  0
LINE
  8
_0-5_寸法線
  6
CONTINUOUS
 62
    7
 10
498.00376026894605
 20
1274.5342583144816
 11
498.00376026894605
 21
1458.5342583144816
  0
LINE
  8
_0-5_寸法線
  6
CONTINUOUS
 62
    7
 10
498.00376026894605
 20
1450.5342583144816
 11
513.45857348957111
 21
1454.675363036122
  0
LINE
  8
_0-5_寸法線
  6
CONTINUOUS
 62
    7
 10
498.00376026894605
 20
1450.5342583144816
 11
513.45857348957111
 21
1446.3931535928411
  0
LINE
  8
_0-5_寸法線
  6
CONTINUOUS
 62
    7
 10
1694.0037602689461
 20
1274.5342583144816
 11
1694.0037602689461
 21
1458.5342583144816
  0
LINE
  8
_0-5_寸法線
  6
CONTINUOUS
 62
    7
 10
1694.0037602689461
 20
1450.5342583144816
 11
1678.548947048321
 21
1446.3931535928414
  0
LINE
  8
_0-5_寸法線
  6
CONTINUOUS
 62
    7
 10
1694.0037602689461
 20
1450.5342583144816
 11
1678.548947048321
 21
1454.675363036122
  0
LINE
  8
_0-5_寸法線
  6
CONTINUOUS
 62
    7
 10
498.00376026894605
 20
1450.5342583144816
 11
1694.0037602689461
 21
1450.5342583144816
  0
TEXT
  8
_0-5_寸法線
 62
    7
 10
1072.0037602689461
 20
1450.5342583144816
 40
24
 41
1
 50
0
  1
1196
  0
LINE
  8
_0-1_計細線
  6
CONTINUOUS
 62
    3
 10
1838.0037602689461
 20
1124.5342583144811
 11
1873.0037602689461
 21
1124.5342583144811
  0
LINE
  8
_0-1_計細線
  6
CONTINUOUS
 62
    3
 10
1873.0037602689461
 20
1124.5342583144811
 11
1873.0037602689461
 21
1123.3342583144822
  0
LINE
  8
_0-1_計細線
  6
CONTINUOUS
 62
    3
 10
1873.0037602689461
 20
1123.3342583144822
 11
1838.0037602689461
 21
1123.3342583144822
  0
LINE
  8
_0-1_計細線
  6
CONTINUOUS
 62
    3
 10
1838.0037602689461
 20
1123.3342583144822
 11
1838.0037602689461
 21
1124.5342583144811
  0
LINE
  8
_0-1_計細線
  6
CONTINUOUS
 62
    3
 10
1840.0037602689461
 20
1123.3342583144822
 11
1840.0037602689461
 21
1124.5342583144811
  0
LINE
  8
_0-1_計細線
  6
CONTINUOUS
 62
    3
 10
1850.0037602689461
 20
1123.3342583144822
 11
1850.0037602689461
 21
1124.5342583144811
  0
LINE
  8
_0-1_計細線
  6
CONTINUOUS
 62
    3
 10
1852.0037602689461
 20
1123.3342583144822
 11
1852.0037602689461
 21
1124.5342583144811
  0
LINE
  8
_0-1_計細線
  6
CONTINUOUS
 62
    3
 10
1854.0037602689461
 20
1123.3342583144822
 11
1854.0037602689461
 21
1124.5342583144811
  0
LINE
  8
_0-1_計細線
  6
CONTINUOUS
 62
    3
 10
1856.0037602689461
 20
1123.3342583144822
 11
1856.0037602689461
 21
1124.5342583144811
  0
LINE
  8
_0-1_計細線
  6
CONTINUOUS
 62
    3
 10
1870.0037602689461
 20
1123.3342583144822
 11
1870.0037602689461
 21
1124.5342583144811
  0
ARC
  8
_0-1_計細線
  6
CONTINUOUS
 62
    3
 10
1849.0037602689461
 20
1247.5342583144811
 40
1
 50
0
 51
89.999999999999915
  0
LINE
  8
_0-1_計細線
  6
CONTINUOUS
 62
    3
 10
1838.0037602689461
 20
1249.7342583144809
 11
1873.0037602689461
 21
1249.7342583144809
  0
LINE
  8
_0-1_計細線
  6
CONTINUOUS
 62
    3
 10
1873.0037602689461
 20
1249.7342583144809
 11
1873.0037602689461
 21
1248.5342583144811
  0
LINE
  8
_0-1_計細線
  6
CONTINUOUS
 62
    3
 10
1873.0037602689461
 20
1248.5342583144811
 11
1838.0037602689461
 21
1248.5342583144811
  0
LINE
  8
_0-1_計細線
  6
CONTINUOUS
 62
    3
 10
1838.0037602689461
 20
1248.5342583144811
 11
1838.0037602689461
 21
1249.7342583144809
  0
LINE
  8
_0-1_計細線
  6
CONTINUOUS
 62
    3
 10
1840.0037602689461
 20
1248.5342583144811
 11
1840.0037602689461
 21
1249.7342583144809
  0
LINE
  8
_0-1_計細線
  6
CONTINUOUS
 62
    3
 10
1850.0037602689461
 20
1248.5342583144811
 11
1850.0037602689461
 21
1249.7342583144809
  0
LINE
  8
_0-1_計細線
  6
CONTINUOUS
 62
    3
 10
1852.0037602689461
 20
1248.5342583144811
 11
1852.0037602689461
 21
1249.7342583144809
  0
LINE
  8
_0-1_計細線
  6
CONTINUOUS
 62
    3
 10
1854.0037602689461
 20
1248.5342583144811
 11
1854.0037602689461
 21
1249.7342583144809
  0
LINE
  8
_0-1_計細線
  6
CONTINUOUS
 62
    3
 10
1856.0037602689461
 20
1248.5342583144811
 11
1856.0037602689461
 21
1249.7342583144809
  0
LINE
  8
_0-1_計細線
  6
CONTINUOUS
 62
    3
 10
1870.0037602689461
 20
1248.5342583144811
 11
1870.0037602689461
 21
1249.7342583144809
  0
LINE
  8
_0-1_計細線
  6
CONTINUOUS
 62
    3
 10
1838.0037602689461
 20
1258.5342583144811
 11
1831.0037602689461
 21
1258.5342583144811
  0
ARC
  8
_0-1_計細線
  6
CONTINUOUS
 62
    3
 10
1831.0037602689461
 20
1257.5342583144811
 40
1
 50
89.999999999999915
 51
179.99999999999983
  0
LINE
  8
_0-1_計細線
  6
CONTINUOUS
 62
    3
 10
1830.0037602689461
 20
1257.5342583144811
 11
1830.0037602689461
 21
1115.5342583144811
  0
ARC
  8
_0-1_計細線
  6
CONTINUOUS
 62
    3
 10
1831.0037602689461
 20
1115.5342583144811
 40
1
 50
179.99999999999983
 51
269.99999999994753
  0
LINE
  8
_0-1_計細線
  6
CONTINUOUS
 62
    3
 10
1838.0037602689461
 20
1114.5342583144811
 11
1838.0037602689461
 21
1258.5342583144811
  0
LINE
  8
_0-1_計細線
  6
CONTINUOUS
 62
    3
 10
1838.0037602689461
 20
1114.5342583144811
 11
1831.0037602689451
 21
1114.5342583144811
  0
LINE
  8
_0-0_計極細
  6
CENTER2
 62
    2
 10
1790.7614538832083
 20
1186.5342583144811
 11
1905.9844754659405
 21
1186.5342583144811
  0
LINE
  8
_0-1_計細線
  6
CONTINUOUS
 62
    3
 10
1850.0037602689461
 20
1247.5342583144811
 11
1850.0037602689461
 21
1125.5342583144811
  0
ARC
  8
_0-1_計細線
  6
CONTINUOUS
 62
    3
 10
1849.0037602689461
 20
1125.5342583144811
 40
1
 50
269.99999999999977
 51
359.99999999999966
  0
ARC
  8
_0-1_計細線
  6
CONTINUOUS
 62
    3
 10
1852.503760268947
 20
1243.5342583144811
 40
1.5
 50
0
 51
89.999999999999915
  0
LINE
  8
_0-1_計細線
  6
CONTINUOUS
 62
    3
 10
1850.503760268947
 20
1245.0342583144811
 11
1852.503760268947
 21
1245.0342583144811
  0
ARC
  8
_0-1_計細線
  6
CONTINUOUS
 62
    3
 10
1850.503760268947
 20
1245.5342583144811
 40
0.5
 50
179.99999999999983
 51
269.99999999999977
  0
LINE
  8
_0-1_計細線
  6
CONTINUOUS
 62
    3
 10
1850.503760268947
 20
1128.0342583144811
 11
1852.503760268947
 21
1128.0342583144811
  0
ARC
  8
_0-1_計細線
  6
CONTINUOUS
 62
    3
 10
1850.503760268947
 20
1127.5342583144811
 40
0.5
 50
89.999999999999915
 51
179.99999999999983
  0
LINE
  8
_0-1_計細線
  6
CONTINUOUS
 62
    3
 10
1854.003760268947
 20
1243.5342583144811
 11
1854.003760268947
 21
1129.5342583144811
  0
ARC
  8
_0-1_計細線
  6
CONTINUOUS
 62
    3
 10
1852.503760268947
 20
1129.5342583144811
 40
1.5
 50
269.99999999999977
 51
359.99999999999966
  0
LINE
  8
_0-5_寸法線
  6
CONTINUOUS
 62
    7
 10
1830.0037602689461
 20
1274.5342583144811
 11
1830.0037602689461
 21
1346.5342583144816
  0
LINE
  8
_0-5_寸法線
  6
CONTINUOUS
 62
    7
 10
1830.0037602689461
 20
1338.5342583144816
 11
1814.548947048321
 21
1334.3931535928414
  0
LINE
  8
_0-5_寸法線
  6
CONTINUOUS
 62
    7
 10
1830.0037602689461
 20
1338.5342583144816
 11
1814.548947048321
 21
1342.675363036122
  0
LINE
  8
_0-5_寸法線
  6
CONTINUOUS
 62
    7
 10
1850.0037602689461
 20
1265.7342583144809
 11
1850.0037602689461
 21
1346.5342583144816
  0
CIRCLE
  8
_0-5_寸法線
  6
CONTINUOUS
 62
    1
 10
1850.0037602689461
 20
1338.5342583144816
 40
2.4000000000000004
  0
LINE
  8
_0-5_寸法線
  6
CONTINUOUS
 62
    7
 10
1787.0421667177484
 20
1338.5342583144816
 11
1850.0037602689461
 21
1338.5342583144816
  0
TEXT
  8
_0-5_寸法線
 62
    7
 10
1787.0421667177486
 20
1338.5342583144816
 40
24
 41
1
 50
0
  1
20
  0
LINE
  8
_0-5_寸法線
  6
CONTINUOUS
 62
    7
 10
1873.0037602689461
 20
1265.7342583144809
 11
1873.0037602689461
 21
1346.5342583144816
  0
LINE
  8
_0-5_寸法線
  6
CONTINUOUS
 62
    7
 10
1873.0037602689461
 20
1338.5342583144816
 11
1888.4585734895711
 21
1342.6753630361218
  0
LINE
  8
_0-5_寸法線
  6
CONTINUOUS
 62
    7
 10
1873.0037602689461
 20
1338.5342583144816
 11
1888.4585734895711
 21
1334.3931535928411
  0
LINE
  8
_0-5_寸法線
  6
CONTINUOUS
 62
    7
 10
1850.0037602689461
 20
1338.5342583144816
 11
1919.344950711034
 21
1338.5342583144816
  0
TEXT
  8
_0-5_寸法線
 62
    7
 10
1895.3449507110342
 20
1338.5342583144816
 40
24
 41
1
 50
0
  1
23
  0
LINE
  8
_0-5_寸法線
  6
CONTINUOUS
 62
    7
 10
1830.0037602689463
 20
1274.534258314482
 11
1830.0037602689479
 21
1402.5342583144816
  0
LINE
  8
_0-5_寸法線
  6
CONTINUOUS
 62
    7
 10
1830.0037602689479
 20
1394.5342583144816
 11
1845.4585734895729
 21
1398.675363036122
  0
LINE
  8
_0-5_寸法線
  6
CONTINUOUS
 62
    7
 10
1830.0037602689479
 20
1394.5342583144816
 11
1845.4585734895729
 21
1390.3931535928411
  0
LINE
  8
_0-5_寸法線
  6
CONTINUOUS
 62
    7
 10
1873.0037602689461
 20
1265.7342583144809
 11
1873.0037602689461
 21
1402.5342583144816
  0
LINE
  8
_0-5_寸法線
  6
CONTINUOUS
 62
    7
 10
1873.0037602689461
 20
1394.5342583144816
 11
1857.548947048321
 21
1390.3931535928414
  0
LINE
  8
_0-5_寸法線
  6
CONTINUOUS
 62
    7
 10
1873.0037602689461
 20
1394.5342583144816
 11
1857.548947048321
 21
1398.675363036122
  0
LINE
  8
_0-5_寸法線
  6
CONTINUOUS
 62
    7
 10
1830.0037602689479
 20
1394.5342583144816
 11
1873.0037602689461
 21
1394.5342583144816
  0
TEXT
  8
_0-5_寸法線
 62
    7
 10
1839.5037602689461
 20
1394.5342583144816
 40
24
 41
1
 50
0
  1
43
  0
ARC
  8
_0-1_計細線
  6
CONTINUOUS
 62
    3
 10
1693.0037602689461
 20
873.53425831448112
 40
1
 50
0
 51
89.999999999999915
  0
LINE
  8
_0-1_計細線
  6
CONTINUOUS
 62
    3
 10
1694.0037602689461
 20
866.53425831448112
 11
1694.0037602689461
 21
873.53425831448112
  0
LINE
  8
_0-1_計細線
  6
CONTINUOUS
 62
    3
 10
1693.003760268947
 20
866.53425831448112
 11
1694.0037602689461
 21
866.53425831448112
  0
ARC
  8
_0-1_計細線
  6
CONTINUOUS
 62
    3
 10
1673.0037602689461
 20
854.03425831448021
 40
1.5
 50
89.999999999999915
 51
179.99999999999983
  0
LINE
  8
_0-1_計細線
  6
CONTINUOUS
 62
    3
 10
1671.5037602689461
 20
854.03425831448021
 11
1671.5037602689461
 21
852.03425831448021
  0
ARC
  8
_0-1_計細線
  6
CONTINUOUS
 62
    3
 10
1671.0037602689461
 20
852.03425831448021
 40
1.5
 50
269.99999999999977
 51
359.99999999999966
  0
LINE
  8
_0-1_計細線
  6
CONTINUOUS
 62
    3
 10
1672.5037602689461
 20
854.03425831448021
 11
1672.5037602689461
 21
852.03425831448021
  0
LINE
  8
_0-1_計細線
  6
CONTINUOUS
 62
    3
 10
1671.0037602689461
 20
850.53425831448021
 11
1665.0037602689461
 21
850.53425831448021
  0
ARC
  8
_0-1_計細線
  6
CONTINUOUS
 62
    3
 10
1673.0037602689461
 20
854.03425831448021
 40
0.5
 50
89.999999999999915
 51
179.99999999999983
  0
ARC
  8
_0-1_計細線
  6
CONTINUOUS
 62
    3
 10
1671.0037602689461
 20
852.03425831448021
 40
0.5
 50
269.99999999999977
 51
359.99999999999966
  0
LINE
  8
_0-1_計細線
  6
CONTINUOUS
 62
    3
 10
1671.0037602689461
 20
851.53425831448021
 11
1665.0037602689461
 21
851.53425831448021
  0
LINE
  8
_0-1_計細線
  6
CONTINUOUS
 62
    3
 10
1665.0037602689461
 20
851.53425831448021
 11
1665.0037602689461
 21
850.53425831448021
  0
LINE
  8
_0-1_計細線
  6
CONTINUOUS
 62
    3
 10
1683.0037602689461
 20
855.53425831448021
 11
1673.0037602689461
 21
855.53425831448021
  0
LINE
  8
_0-1_計細線
  6
CONTINUOUS
 62
    3
 10
1683.0037602689461
 20
873.53425831448112
 11
1683.0037602689461
 21
855.53425831448021
  0
ARC
  8
_0-1_計細線
  6
CONTINUOUS
 62
    3
 10
499.00376026894605
 20
873.53425831448112
 40
1
 50
89.999999999999915
 51
179.99999999999983
  0
LINE
  8
_0-1_計細線
  6
CONTINUOUS
 62
    3
 10
498.00376026894605
 20
866.53425831448112
 11
498.00376026894605
 21
873.53425831448112
  0
LINE
  8
_0-1_計細線
  6
CONTINUOUS
 62
    3
 10
498.00376026894605
 20
866.53425831448294
 11
1614.0037602689461
 21
866.53425831448294
  0
LINE
  8
_0-1_計細線
  6
CONTINUOUS
 62
    3
 10
509.00376026894605
 20
855.53425831448112
 11
509.00376026894605
 21
866.53425831448294
  0
ARC
  8
_0-1_計細線
  6
CONTINUOUS
 62
    3
 10
510.00376026894605
 20
855.53425831448112
 40
1
 50
179.99999999999983
 51
269.99999999999977
  0
LINE
  8
_0-1_計細線
  6
CONTINUOUS
 62
    3
 10
1673.0037602689461
 20
854.53425831448112
 11
1683.0037602689461
 21
854.53425831448112
  0
LINE
  8
_0-1_計細線
  6
CONTINUOUS
 62
    3
 10
1684.0037602689461
 20
866.53425831448112
 11
1693.003760268947
 21
866.53425831448112
  0
LINE
  8
_0-1_計細線
  6
CONTINUOUS
 62
    3
 10
1693.003760268947
 20
866.53425831448112
 11
1693.003760268947
 21
873.53425831448135
  0
LINE
  8
_0-1_計細線
  6
CONTINUOUS
 62
    3
 10
1693.003760268947
 20
873.53425831448135
 11
1684.0037602689461
 21
873.53425831448135
  0
LINE
  8
_0-1_計細線
  6
CONTINUOUS
 62
    3
 10
1684.0037602689461
 20
873.53425831448135
 11
1684.0037602689461
 21
855.53425831448112
  0
ARC
  8
_0-1_計細線
  6
CONTINUOUS
 62
    3
 10
1683.0037602689461
 20
855.53425831448112
 40
1
 50
269.99999999999977
 51
359.99999999999966
  0
LINE
  8
_0-1_計細線
  6
CONTINUOUS
 62
    3
 10
1693.0037602689461
 20
874.53425831448112
 11
1684.0037602689461
 21
874.53425831448112
  0
LINE
  8
_0-1_計細線
  6
CONTINUOUS
 62
    3
 10
1684.0037602689461
 20
874.53425831448112
 11
499.00376026894787
 21
874.53425831448112
  0
ARC
  8
_0-1_計細線
  6
CONTINUOUS
 62
    3
 10
1684.0037602689461
 20
873.53425831448112
 40
1
 50
89.999999999999915
 51
179.99999999999983
  0
LINE
  8
_0-1_計細線
  6
CONTINUOUS
 62
    3
 10
1614.0037602689461
 20
867.53425831448021
 11
1681.5037602689461
 21
867.53425831448021
  0
LINE
  8
_0-1_計細線
  6
CONTINUOUS
 62
    3
 10
1614.0037602689461
 20
873.53425831448112
 11
1681.5037602689461
 21
873.53425831448112
  0
LINE
  8
_0-1_計細線
  6
CONTINUOUS
 62
    3
 10
1614.0037602689461
 20
855.53425831448112
 11
1681.5037602689461
 21
855.53425831448112
  0
LINE
  8
_0-1_計細線
  6
CONTINUOUS
 62
    3
 10
1681.5037602689461
 20
873.53425831448112
 11
1681.5037602689461
 21
855.53425831448112
  0
LINE
  8
_0-0_計極細
  6
CENTER1
 62
    2
 10
533.0037602689456
 20
826.73877774131233
 11
533.0037602689456
 21
871.79247781884987
  0
LINE
  8
_0-1_計細線
  6
CONTINUOUS
 62
    3
 10
527.00376042202629
 20
866.52165946705099
 11
525.00376042202629
 21
864.52165946705099
  0
LINE
  8
_0-1_計細線
  6
CONTINUOUS
 62
    3
 10
525.00376042202629
 20
854.52165946705099
 11
525.00376042202629
 21
864.52165946705099
  0
LINE
  8
_0-1_計細線
  6
CONTINUOUS
 62
    3
 10
541.00376011586491
 20
854.52165946705099
 11
541.00376011586491
 21
864.52165946705099
  0
LINE
  8
_0-1_計細線
  6
CONTINUOUS
 62
    3
 10
527.00376042202629
 20
850.52165946705099
 11
525.00376042202629
 21
848.52165946705099
  0
LINE
  8
_0-1_計細線
  6
CONTINUOUS
 62
    3
 10
527.00376042202629
 20
852.52165946705099
 11
527.00376042202629
 21
850.52165946705099
  0
LINE
  8
_0-1_計細線
  6
CONTINUOUS
 62
    3
 10
525.00376042202629
 20
854.52165946705099
 11
527.00376042202629
 21
852.52165946705099
  0
LINE
  8
_0-1_計細線
  6
CONTINUOUS
 62
    3
 10
539.00376011586491
 20
850.52165946705099
 11
541.00376011586491
 21
848.52165946705099
  0
LINE
  8
_0-1_計細線
  6
CONTINUOUS
 62
    3
 10
539.00376011586491
 20
852.52165946705099
 11
539.00376011586491
 21
850.52165946705099
  0
LINE
  8
_0-1_計細線
  6
CONTINUOUS
 62
    3
 10
541.00376011586491
 20
854.52165946705099
 11
539.00376011586491
 21
852.52165946705099
  0
LINE
  8
_0-1_計細線
  6
CONTINUOUS
 62
    3
 10
525.00376042202629
 20
848.52165946705099
 11
525.00376042202629
 21
834.52165946705099
  0
ARC
  8
_0-1_計細線
  6
CONTINUOUS
 62
    3
 10
528.00376042202629
 20
834.52165946705099
 40
3
 50
179.99999999999983
 51
269.99999999999977
  0
LINE
  8
_0-1_計細線
  6
CONTINUOUS
 62
    3
 10
528.00376042202629
 20
831.52165946705099
 11
538.00376011586491
 21
831.52165946705099
  0
LINE
  8
_0-1_計細線
  6
CONTINUOUS
 62
    3
 10
541.00376011586491
 20
848.52165946705099
 11
541.00376011586491
 21
834.52165946705099
  0
ARC
  8
_0-1_計細線
  6
CONTINUOUS
 62
    3
 10
538.00376011586491
 20
834.52165946705099
 40
3
 50
269.99999999999977
 51
359.99999999999966
  0
LINE
  8
_0-1_計細線
  6
CONTINUOUS
 62
    3
 10
527.00376042202629
 20
866.52165946705099
 11
539.00376011586491
 21
866.52165946705099
  0
LINE
  8
_0-1_計細線
  6
CONTINUOUS
 62
    3
 10
541.00376011586491
 20
864.52165946705099
 11
539.00376011586491
 21
866.52165946705099
  0
LINE
  8
_0-1_計細線
  6
CONTINUOUS
 62
    3
 10
510.00376026894605
 20
854.53425831448112
 11
525.00376042202629
 21
854.53425831448112
  0
LINE
  8
_0-0_計極細
  6
CENTER1
 62
    2
 10
1096.0037602689461
 20
826.73877774131233
 11
1096.0037602689461
 21
871.79247781884987
  0
LINE
  8
_0-1_計細線
  6
CONTINUOUS
 62
    3
 10
1090.0037604220267
 20
866.52165946705099
 11
1088.0037604220267
 21
864.52165946705099
  0
LINE
  8
_0-1_計細線
  6
CONTINUOUS
 62
    3
 10
1088.0037604220267
 20
854.52165946705099
 11
1088.0037604220267
 21
864.52165946705099
  0
LINE
  8
_0-1_計細線
  6
CONTINUOUS
 62
    3
 10
1104.0037601158654
 20
854.52165946705099
 11
1104.0037601158654
 21
864.52165946705099
  0
LINE
  8
_0-1_計細線
  6
CONTINUOUS
 62
    3
 10
1090.0037604220267
 20
850.52165946705099
 11
1088.0037604220267
 21
848.52165946705099
  0
LINE
  8
_0-1_計細線
  6
CONTINUOUS
 62
    3
 10
1090.0037604220267
 20
852.52165946705099
 11
1090.0037604220267
 21
850.52165946705099
  0
LINE
  8
_0-1_計細線
  6
CONTINUOUS
 62
    3
 10
1088.0037604220267
 20
854.52165946705099
 11
1090.0037604220267
 21
852.52165946705099
  0
LINE
  8
_0-1_計細線
  6
CONTINUOUS
 62
    3
 10
1102.0037601158654
 20
850.52165946705099
 11
1104.0037601158654
 21
848.52165946705099
  0
LINE
  8
_0-1_計細線
  6
CONTINUOUS
 62
    3
 10
1102.0037601158654
 20
852.52165946705099
 11
1102.0037601158654
 21
850.52165946705099
  0
LINE
  8
_0-1_計細線
  6
CONTINUOUS
 62
    3
 10
1104.0037601158654
 20
854.52165946705099
 11
1102.0037601158654
 21
852.52165946705099
  0
LINE
  8
_0-1_計細線
  6
CONTINUOUS
 62
    3
 10
1088.0037604220267
 20
848.52165946705099
 11
1088.0037604220267
 21
834.52165946705099
  0
ARC
  8
_0-1_計細線
  6
CONTINUOUS
 62
    3
 10
1091.0037604220267
 20
834.52165946705099
 40
3
 50
179.99999999999983
 51
269.99999999999977
  0
LINE
  8
_0-1_計細線
  6
CONTINUOUS
 62
    3
 10
1091.0037604220267
 20
831.52165946705099
 11
1101.0037601158654
 21
831.52165946705099
  0
LINE
  8
_0-1_計細線
  6
CONTINUOUS
 62
    3
 10
1104.0037601158654
 20
848.52165946705099
 11
1104.0037601158654
 21
834.52165946705099
  0
ARC
  8
_0-1_計細線
  6
CONTINUOUS
 62
    3
 10
1101.0037601158654
 20
834.52165946705099
 40
3
 50
269.99999999999977
 51
359.99999999999966
  0
LINE
  8
_0-1_計細線
  6
CONTINUOUS
 62
    3
 10
1090.0037604220267
 20
866.52165946705099
 11
1102.0037601158654
 21
866.52165946705099
  0
LINE
  8
_0-1_計細線
  6
CONTINUOUS
 62
    3
 10
1104.0037601158654
 20
864.52165946705099
 11
1102.0037601158654
 21
866.52165946705099
  0
LINE
  8
_0-1_計細線
  6
CONTINUOUS
 62
    3
 10
1104.0037601158654
 20
854.53425831448112
 11
1614.0037602689461
 21
854.53425831448112
  0
LINE
  8
_0-1_計細線
  6
CONTINUOUS
 62
    3
 10
541.00376011586491
 20
854.53425831448112
 11
1088.0037604220267
 21
854.53425831448112
  0
LINE
  8
_0-0_計極細
  6
DASHED2
 62
    2
 10
1659.0037602689461
 20
826.73877774131233
 11
1659.0037602689461
 21
871.79247781884987
  0
LINE
  8
_0-1_計細線
  6
DASHED2
 62
    3
 10
1667.0037601158654
 20
864.52165946705099
 11
1665.0037601158654
 21
866.52165946705099
  0
LINE
  8
_0-1_計細線
  6
DASHED2
 62
    3
 10
1653.0037604220267
 20
866.52165946705099
 11
1665.0037601158654
 21
866.52165946705099
  0
ARC
  8
_0-1_計細線
  6
DASHED2
 62
    3
 10
1664.0037601158654
 20
834.52165946705099
 40
3
 50
269.99999999999977
 51
359.99999999999966
  0
LINE
  8
_0-1_計細線
  6
DASHED2
 62
    3
 10
1667.0037601158654
 20
848.52165946705099
 11
1667.0037601158654
 21
834.52165946705099
  0
LINE
  8
_0-1_計細線
  6
DASHED2
 62
    3
 10
1654.0037604220267
 20
831.52165946705099
 11
1664.0037601158654
 21
831.52165946705099
  0
ARC
  8
_0-1_計細線
  6
DASHED2
 62
    3
 10
1654.0037604220267
 20
834.52165946705099
 40
3
 50
179.99999999999983
 51
269.99999999999977
  0
LINE
  8
_0-1_計細線
  6
DASHED2
 62
    3
 10
1651.0037604220267
 20
848.52165946705099
 11
1651.0037604220267
 21
834.52165946705099
  0
LINE
  8
_0-1_計細線
  6
DASHED2
 62
    3
 10
1667.0037601158654
 20
854.52165946705099
 11
1665.0037601158654
 21
852.52165946705099
  0
LINE
  8
_0-1_計細線
  6
DASHED2
 62
    3
 10
1665.0037601158654
 20
852.52165946705099
 11
1665.0037601158654
 21
850.52165946705099
  0
LINE
  8
_0-1_計細線
  6
DASHED2
 62
    3
 10
1665.0037601158654
 20
850.52165946705099
 11
1667.0037601158654
 21
848.52165946705099
  0
LINE
  8
_0-1_計細線
  6
DASHED2
 62
    3
 10
1651.0037604220267
 20
854.52165946705099
 11
1653.0037604220267
 21
852.52165946705099
  0
LINE
  8
_0-1_計細線
  6
DASHED2
 62
    3
 10
1653.0037604220267
 20
852.52165946705099
 11
1653.0037604220267
 21
850.52165946705099
  0
LINE
  8
_0-1_計細線
  6
DASHED2
 62
    3
 10
1653.0037604220267
 20
850.52165946705099
 11
1651.0037604220267
 21
848.52165946705099
  0
LINE
  8
_0-1_計細線
  6
DASHED2
 62
    3
 10
1667.0037601158654
 20
854.52165946705099
 11
1667.0037601158654
 21
864.52165946705099
  0
LINE
  8
_0-1_計細線
  6
DASHED2
 62
    3
 10
1651.0037604220267
 20
854.52165946705099
 11
1651.0037604220267
 21
864.52165946705099
  0
LINE
  8
_0-1_計細線
  6
DASHED2
 62
    3
 10
1653.0037604220267
 20
866.52165946705099
 11
1651.0037604220267
 21
864.52165946705099
  0
LINE
  8
_0-5_寸法線
  6
CONTINUOUS
 62
    7
 10
498.00376026894639
 20
890.53425831448112
 11
498.0037602689481
 21
962.53425831448112
  0
LINE
  8
_0-5_寸法線
  6
CONTINUOUS
 62
    7
 10
498.00376026894787
 20
954.53425831448112
 11
513.45857348957293
 21
958.67536303612144
  0
LINE
  8
_0-5_寸法線
  6
CONTINUOUS
 62
    7
 10
498.00376026894787
 20
954.53425831448112
 11
513.45857348957293
 21
950.3931535928408
  0
LINE
  8
_0-5_寸法線
  6
CONTINUOUS
 62
    7
 10
533.00376026894594
 20
890.53425831448112
 11
533.00376026894764
 21
962.53425831448112
  0
LINE
  8
_0-5_寸法線
  6
CONTINUOUS
 62
    7
 10
533.00376026894742
 20
954.53425831448112
 11
517.54894704832236
 21
950.3931535928408
  0
LINE
  8
_0-5_寸法線
  6
CONTINUOUS
 62
    7
 10
533.00376026894742
 20
954.53425831448112
 11
517.54894704832236
 21
958.67536303612155
  0
LINE
  8
_0-5_寸法線
  6
CONTINUOUS
 62
    7
 10
498.00376026894787
 20
954.53425831448112
 11
533.00376026894742
 21
954.53425831448112
  0
TEXT
  8
_0-5_寸法線
 62
    7
 10
503.50376026894878
 20
954.53425831448112
 40
24
 41
1
 50
0
  1
35
  0
LINE
  8
_0-5_寸法線
  6
CONTINUOUS
 62
    7
 10
533.00376026894742
 20
954.53425831448112
 11
548.45857348957259
 21
958.67536303612133
  0
LINE
  8
_0-5_寸法線
  6
CONTINUOUS
 62
    7
 10
533.00376026894742
 20
954.53425831448112
 11
548.45857348957247
 21
950.39315359284069
  0
LINE
  8
_0-5_寸法線
  6
CONTINUOUS
 62
    7
 10
1659.0037602689465
 20
890.53425831448112
 11
1659.0037602689481
 21
962.53425831448112
  0
LINE
  8
_0-5_寸法線
  6
CONTINUOUS
 62
    7
 10
1659.0037602689479
 20
954.53425831448112
 11
1643.5489470483228
 21
950.3931535928408
  0
LINE
  8
_0-5_寸法線
  6
CONTINUOUS
 62
    7
 10
1659.0037602689479
 20
954.53425831448112
 11
1643.5489470483228
 21
958.67536303612155
  0
LINE
  8
_0-5_寸法線
  6
CONTINUOUS
 62
    7
 10
533.00376026894742
 20
954.53425831448112
 11
1659.0037602689479
 21
954.53425831448112
  0
TEXT
  8
_0-5_寸法線
 62
    7
 10
1036.0037602689497
 20
954.53425831448112
 40
24
 41
1
 50
0
  1
2@563=1126
  0
LINE
  8
_0-5_寸法線
  6
CONTINUOUS
 62
    7
 10
1659.0037602689479
 20
954.53425831448112
 11
1674.4585734895729
 21
958.67536303612133
  0
LINE
  8
_0-5_寸法線
  6
CONTINUOUS
 62
    7
 10
1659.0037602689479
 20
954.53425831448112
 11
1674.4585734895729
 21
950.39315359284069
  0
LINE
  8
_0-5_寸法線
  6
CONTINUOUS
 62
    7
 10
1694.0037602689465
 20
890.53425831448112
 11
1694.0037602689481
 21
962.53425831448112
  0
LINE
  8
_0-5_寸法線
  6
CONTINUOUS
 62
    7
 10
1694.0037602689479
 20
954.53425831448112
 11
1678.5489470483228
 21
950.3931535928408
  0
LINE
  8
_0-5_寸法線
  6
CONTINUOUS
 62
    7
 10
1694.0037602689479
 20
954.53425831448112
 11
1678.5489470483228
 21
958.67536303612155
  0
LINE
  8
_0-5_寸法線
  6
CONTINUOUS
 62
    7
 10
1659.0037602689479
 20
954.53425831448112
 11
1694.0037602689479
 21
954.53425831448112
  0
TEXT
  8
_0-5_寸法線
 62
    7
 10
1664.5037602689488
 20
954.53425831448089
 40
24
 41
1
 50
0
  1
35
  0
LINE
  8
_0-5_寸法線
  6
CONTINUOUS
 62
    7
 10
533.0037602689456
 20
831.52165946705099
 11
541.00376021787383
 21
817.66525297701367
  0
LINE
  8
_0-5_寸法線
  6
CONTINUOUS
 62
    7
 10
533.0037602689456
 20
831.52165946705099
 11
533.00376020997294
 21
815.52165946705099
  0
LINE
  8
_0-5_寸法線
  6
CONTINUOUS
 62
    7
 10
533.0037602689456
 20
831.52165946705099
 11
544.6521178483963
 21
788.04939651489258
  0
LINE
  8
_0-5_寸法線
  6
CONTINUOUS
 62
    7
 10
544.6521178483963
 20
788.04939651489258
 11
621.45211784839626
 21
788.04939651489258
  0
TEXT
  8
_0-5_寸法線
 62
    7
 10
544.6521178483963
 20
788.04939651489258
 40
24
 41
0.8000000000000001
 50
0
  1
アンカー
  0
LINE
  8
_0-5_寸法線
  6
CONTINUOUS
 62
    7
 10
557.21258684975237
 20
1163.6751909255981
 11
565.21258687104182
 21
1149.8187844773386
  0
LINE
  8
_0-5_寸法線
  6
CONTINUOUS
 62
    7
 10
557.21258684975237
 20
1163.6751909255981
 11
557.21258687433533
 21
1147.6751909255981
  0
LINE
  8
_0-5_寸法線
  6
CONTINUOUS
 62
    7
 10
557.21258684975237
 20
1163.6751909255981
 11
581.76508332327398
 21
1072.0440271969019
  0
LINE
  8
_0-5_寸法線
  6
CONTINUOUS
 62
    7
 10
581.76508332327398
 20
1072.0440271969019
 11
639.36508332327412
 21
1072.0440271969019
  0
TEXT
  8
_0-5_寸法線
 62
    7
 10
581.76508332327398
 20
1072.0440271969019
 40
24
 41
0.7999999999999998
 50
0
  1
上フタ
  0
LINE
  8
_0-5_寸法線
  6
CONTINUOUS
 62
    7
 10
685.92867736077653
 20
1120.8095397949219
 11
693.92867735955372
 21
1106.9531333336649
  0
LINE
  8
_0-5_寸法線
  6
CONTINUOUS
 62
    7
 10
685.92867736077653
 20
1120.8095397949219
 11
685.92867735936454
 21
1104.8095397949219
  0
LINE
  8
_0-5_寸法線
  6
CONTINUOUS
 62
    7
 10
685.92867736077653
 20
1120.8095397949219
 11
698.99535707529333
 21
1072.0440271969019
  0
LINE
  8
_0-5_寸法線
  6
CONTINUOUS
 62
    7
 10
698.99535707529333
 20
1072.0440271969019
 11
814.19535707529326
 21
1072.0440271969019
  0
TEXT
  8
_0-5_寸法線
 62
    7
 10
698.99535707529333
 20
1072.0440271969019
 40
24
 41
0.7999999999999998
 50
0
  1
排水ユニット
  0
LINE
  8
_0-7_枠細線
  6
CONTINUOUS
 62
    5
 10
2123.9543257597729
 20
528.51085913780207
 11
2123.9543257597729
 21
360.51085913780253
  0
TEXT
  8
_0-7_枠細線
 62
    5
 10
1978.3543257597744
 20
496.51085913780207
 40
24.000000000000004
 41
0.8
 50
0
  1
ノンスリップ
  0
LINE
  8
_0-7_枠細線
  6
CONTINUOUS
 62
    5
 10
1963.8386591003168
 20
412.11529377818852
 11
2115.6474377518034
 21
412.11529377818852
  0
LINE
  8
_0-7_枠細線
  6
CONTINUOUS
 62
    5
 10
1957.8623497675799
 20
438.78196044218885
 11
2109.6711284190669
 21
438.78196044218885
  0
ARC
  8
_0-7_枠細線
  6
CONTINUOUS
 62
    5
 10
1981.2876590985716
 20
420.11529377738862
 40
5.3333333327999997
 50
51.31781299999917
 51
203.57817800000373
  0
ARC
  8
_0-7_枠細線
  6
CONTINUOUS
 62
    5
 10
1987.9543257645719
 20
428.44195777655614
 40
5.3333333327999997
 50
231.31781300000563
 51
308.68218699999358
  0
LINE
  8
_0-7_枠細線
  6
CONTINUOUS
 62
    5
 10
1976.3995790990616
 20
417.98196044426868
 11
1999.5090724300826
 21
417.98196044426868
  0
ARC
  8
_0-7_枠細線
  6
CONTINUOUS
 62
    5
 10
1994.6209924305722
 20
420.11529377738862
 40
5.3333333327999997
 50
336.42182199999354
 51
128.68218700000429
  0
ARC
  8
_0-7_枠細線
  6
CONTINUOUS
 62
    5
 10
2029.2876590937726
 20
430.78196044298875
 40
5.3333333327999997
 50
156.42182200000036
 51
308.68218699998977
  0
ARC
  8
_0-7_枠細線
  6
CONTINUOUS
 62
    5
 10
2035.9543257597716
 20
422.45529644382123
 40
5.3333333327999997
 50
51.31781299999917
 51
128.68218699999704
  0
ARC
  8
_0-7_枠細線
  6
CONTINUOUS
 62
    5
 10
2042.6209924257728
 20
430.78196044298875
 40
5.3333333327999997
 50
231.31781299999807
 51
23.578178000003184
  0
LINE
  8
_0-7_枠細線
  6
CONTINUOUS
 62
    5
 10
2024.3995790942618
 20
432.91529377610868
 11
2047.5090724252827
 21
432.91529377610868
  0
LINE
  8
_0-7_枠細線
  6
CONTINUOUS
 62
    5
 10
2072.3995790894614
 20
417.98196044426868
 11
2095.5090724204829
 21
417.98196044426868
  0
ARC
  8
_0-7_枠細線
  6
CONTINUOUS
 62
    5
 10
2077.2876590889718
 20
420.11529377738862
 40
5.3333333327999997
 50
51.317813000002985
 51
203.57817800000373
  0
ARC
  8
_0-7_枠細線
  6
CONTINUOUS
 62
    5
 10
2083.9543257549722
 20
428.44195777655614
 40
5.3333333327999997
 50
231.31781300000188
 51
308.68218699999358
  0
ARC
  8
_0-7_枠細線
  6
CONTINUOUS
 62
    5
 10
2090.6209924209716
 20
420.11529377738862
 40
5.3333333327999997
 50
336.42182199999553
 51
128.68218699999667
  0
ARC
  8
_0-7_枠細線
  6
CONTINUOUS
 62
    5
 10
2029.2876590937726
 20
430.78196044298875
 40
9.9466666656720477
 50
151.14636799999636
 51
308.6821870000029
  0
LINE
  8
_0-7_枠細線
  6
CONTINUOUS
 62
    5
 10
1957.2763177676397
 20
435.58196044250872
 11
2020.5758190946422
 21
435.58196044250872
  0
LINE
  8
_0-7_枠細線
  6
CONTINUOUS
 62
    5
 10
2003.3328350963666
 20
415.31529377786865
 11
2068.5758190898441
 21
415.31529377786865
  0
ARC
  8
_0-7_枠細線
  6
CONTINUOUS
 62
    5
 10
1950.7069631016302
 20
416.17383511111575
 40
13.744570665292123
 50
317.56162900000112
 51
42.438371000002093
  0
ARC
  8
_0-7_枠細線
  6
CONTINUOUS
 62
    5
 10
1981.2876590985716
 20
420.11529377738862
 40
9.9466666656720477
 50
51.317812999990608
 51
208.8536319999987
  0
ARC
  8
_0-7_枠細線
  6
CONTINUOUS
 62
    5
 10
1970.9940484329336
 20
434.72341910926116
 40
13.744570665292123
 50
137.56162899999757
 51
222.43837100000209
  0
LINE
  8
_0-7_枠細線
  6
CONTINUOUS
 62
    5
 10
1964.424693766925
 20
415.31529377786865
 11
1972.575819099442
 21
415.31529377786865
  0
ARC
  8
_0-7_枠細線
  6
CONTINUOUS
 62
    5
 10
1987.9543257645719
 20
428.44195777655614
 40
0.7199999999279512
 50
231.31781300003806
 51
308.68218699996123
  0
ARC
  8
_0-7_枠細線
  6
CONTINUOUS
 62
    5
 10
1994.6209924305722
 20
420.11529377738862
 40
9.9466666656720477
 50
331.14636800000056
 51
128.68218700000494
  0
ARC
  8
_0-7_枠細線
  6
CONTINUOUS
 62
    5
 10
2102.5157417531177
 20
416.17383511111575
 40
13.744570665292123
 50
317.56162899999731
 51
42.438371000003364
  0
ARC
  8
_0-7_枠細線
  6
CONTINUOUS
 62
    5
 10
2122.802827084422
 20
434.72341910926116
 40
13.744570665292123
 50
137.56162900000393
 51
222.43837099999826
  0
LINE
  8
_0-7_枠細線
  6
CONTINUOUS
 62
    5
 10
2099.3328350867669
 20
415.31529377786865
 11
2116.233472418412
 21
415.31529377786865
  0
LINE
  8
_0-7_枠細線
  6
CONTINUOUS
 62
    5
 10
2051.3328350915676
 20
435.58196044250872
 11
2109.0850964191268
 21
435.58196044250872
  0
ARC
  8
_0-7_枠細線
  6
CONTINUOUS
 62
    5
 10
2077.2876590889718
 20
420.11529377738862
 40
9.9466666656720477
 50
51.317812999990608
 51
208.85363200000583
  0
ARC
  8
_0-7_枠細線
  6
CONTINUOUS
 62
    5
 10
2035.9543257597716
 20
422.45529644382123
 40
0.7199999999279512
 50
51.317812999959308
 51
128.6821869999842
  0
ARC
  8
_0-7_枠細線
  6
CONTINUOUS
 62
    5
 10
2042.6209924257728
 20
430.78196044298875
 40
9.9466666656720477
 50
231.31781299998616
 51
28.853631999996409
  0
ARC
  8
_0-7_枠細線
  6
CONTINUOUS
 62
    5
 10
2083.9543257549722
 20
428.44195777655614
 40
0.7199999999279512
 50
231.31781299998158
 51
308.68218699996123
  0
ARC
  8
_0-7_枠細線
  6
CONTINUOUS
 62
    5
 10
2090.6209924209716
 20
420.11529377738862
 40
9.9466666656720477
 50
331.14636800000056
 51
128.6821870000029
  0
LINE
  8
_0-7_枠細線
  6
CENTER1
 62
    5
 10
1987.9543257645719
 20
441.02162177529772
 11
1987.9543257645719
 21
410.06458444506052
  0
LINE
  8
_0-7_枠細線
  6
CENTER1
 62
    5
 10
2083.9543257549722
 20
441.02162177529772
 11
2083.9543257549722
 21
410.06458444506052
  0
LINE
  8
_0-7_枠細線
  6
CENTER1
 62
    5
 10
2035.9543257597716
 20
441.02162177529772
 11
2035.9543257597716
 21
410.06458444506052
  0
LINE
  8
_0-7_枠細線
  6
CONTINUOUS
 62
    5
 10
1987.9543257645719
 20
404.11529377818852
 11
1987.9543257645719
 21
364.11529377818852
  0
LINE
  8
_0-7_枠細線
  6
CONTINUOUS
 62
    5
 10
1987.9543257645719
 20
372.11529377818852
 11
2003.4091389851969
 21
376.25639849982883
  0
LINE
  8
_0-7_枠細線
  6
CONTINUOUS
 62
    5
 10
1987.9543257645719
 20
372.11529377818852
 11
2003.4091389851969
 21
367.9741890565482
  0
LINE
  8
_0-7_枠細線
  6
CONTINUOUS
 62
    5
 10
2035.9543257597716
 20
404.11529377818852
 11
2035.9543257597716
 21
364.11529377818852
  0
LINE
  8
_0-7_枠細線
  6
CONTINUOUS
 62
    5
 10
2035.9543257597716
 20
372.11529377818852
 11
2020.4995125391465
 21
367.97418905654825
  0
LINE
  8
_0-7_枠細線
  6
CONTINUOUS
 62
    5
 10
2035.9543257597716
 20
372.11529377818852
 11
2020.4995125391465
 21
376.25639849982889
  0
LINE
  8
_0-7_枠細線
  6
CONTINUOUS
 62
    5
 10
1987.9543257645719
 20
372.11529377818852
 11
2035.9543257597716
 21
372.11529377818852
  0
TEXT
  8
_0-7_枠細線
 62
    5
 10
1999.9543257621722
 20
372.11529377818852
 40
24
 41
1
 50
0
  1
18
  0
LINE
  8
_0-7_枠細線
  6
CONTINUOUS
 62
    5
 10
2035.9543257597716
 20
372.11529377818852
 11
2051.4091389803966
 21
376.25639849982872
  0
LINE
  8
_0-7_枠細線
  6
CONTINUOUS
 62
    5
 10
2035.9543257597716
 20
372.11529377818852
 11
2051.4091389803966
 21
367.97418905654808
  0
LINE
  8
_0-7_枠細線
  6
CONTINUOUS
 62
    5
 10
2083.9543257549722
 20
404.11529377818852
 11
2083.9543257549722
 21
364.11529377818852
  0
LINE
  8
_0-7_枠細線
  6
CONTINUOUS
 62
    5
 10
2083.9543257549722
 20
372.11529377818852
 11
2068.4995125343471
 21
367.97418905654825
  0
LINE
  8
_0-7_枠細線
  6
CONTINUOUS
 62
    5
 10
2083.9543257549722
 20
372.11529377818852
 11
2068.4995125343471
 21
376.25639849982889
  0
LINE
  8
_0-7_枠細線
  6
CONTINUOUS
 62
    5
 10
2035.9543257597716
 20
372.11529377818852
 11
2083.9543257549722
 21
372.11529377818852
  0
TEXT
  8
_0-7_枠細線
 62
    5
 10
2047.9543257573723
 20
372.11529377818852
 40
24
 41
1
 50
0
  1
18
  0
TEXT
  8
_0-7_枠細線
 62
    5
 10
1997.5543257597733
 20
456.51085913780253
 40
24.000000000000004
 41
0.7999999999999997
 50
0
  1
品番－Ｄ
  0
LINE
  8
_0-7_枠細線
  6
CONTINUOUS
 62
    5
 10
1947.9543257597725
 20
528.51085913780207
 11
1947.9543257597725
 21
360.51085913780253
  0
TEXT
  8
_0-7_枠細線
 62
    5
 10
1821.5543257597719
 20
496.51085913780253
 40
24.000000000000004
 41
0.8
 50
0
  1
プレーン
  0
LINE
  8
_0-7_枠細線
  6
CONTINUOUS
 62
    5
 10
1787.038089767063
 20
412.11529377818852
 11
1938.84686841855
 21
412.11529377818852
  0
LINE
  8
_0-7_枠細線
  6
CONTINUOUS
 62
    5
 10
1781.0617804343267
 20
438.78196044218885
 11
1932.8705590858144
 21
438.78196044218885
  0
ARC
  8
_0-7_枠細線
  6
CONTINUOUS
 62
    5
 10
1925.715172419862
 20
416.17383511111575
 40
13.744570665292123
 50
317.56162900000527
 51
42.43837099999547
  0
ARC
  8
_0-7_枠細線
  6
CONTINUOUS
 62
    5
 10
1773.9063937683773
 20
416.17383511111575
 40
13.744570665292276
 50
317.56162899999987
 51
42.438371000002242
  0
LINE
  8
_0-7_枠細線
  6
CONTINUOUS
 62
    5
 10
1780.4757484343863
 20
435.58196044250872
 11
1932.2845270858734
 21
435.58196044250872
  0
LINE
  8
_0-7_枠細線
  6
CONTINUOUS
 62
    5
 10
1787.6241244336716
 20
415.31529377786865
 11
1939.4329030851577
 21
415.31529377786865
  0
ARC
  8
_0-7_枠細線
  6
CONTINUOUS
 62
    5
 10
1794.1934790996829
 20
434.72341910926116
 40
13.744570665292276
 50
137.56162899999882
 51
222.43837100000209
  0
ARC
  8
_0-7_枠細線
  6
CONTINUOUS
 62
    5
 10
1946.0022577511681
 20
434.72341910926116
 40
13.744570665292123
 50
137.5616290000001
 51
222.43837099999953
  0
TEXT
  8
_0-7_枠細線
 62
    5
 10
1821.5543257597737
 20
456.51085913780253
 40
24.000000000000004
 41
0.7999999999999997
 50
0
  1
品番－Ｆ
  0
TEXT
  8
_0-7_枠細線
 62
    5
 10
1693.5543257597726
 20
496.51085913780207
 40
24.000000000000004
 41
0.8
 50
0
  1
タ イ プ
  0
LINE
  8
_0-7_枠細線
  6
CONTINUOUS
 62
    5
 10
1691.9543257597718
 20
448.51085913780253
 11
2123.9543257597729
 21
448.51085913780253
  0
LINE
  8
_0-7_枠細線
  6
CONTINUOUS
 62
    5
 10
1691.9543257597718
 20
488.51085913780207
 11
2123.9543257597729
 21
488.51085913780207
  0
LINE
  8
_0-7_枠細線
  6
CONTINUOUS
 62
    5
 10
1691.9543257597718
 20
528.51085913780207
 11
2123.9543257597729
 21
528.51085913780207
  0
LINE
  8
_0-7_枠細線
  6
CONTINUOUS
 62
    5
 10
1691.9543257597718
 20
360.51085913780253
 11
2123.9543257597729
 21
360.51085913780253
  0
LINE
  8
_0-7_枠細線
  6
CONTINUOUS
 62
    5
 10
1771.9543257597729
 20
528.51085913780207
 11
1771.9543257597729
 21
360.51085913780253
  0
LINE
  8
_0-7_枠細線
  6
CONTINUOUS
 62
    5
 10
1691.9543257597718
 20
528.51085913780207
 11
1691.9543257597718
 21
360.51085913780253
  0
TEXT
  8
_0-7_枠細線
 62
    5
 10
1693.5543257597726
 20
392.51085913780253
 40
24.000000000000004
 41
0.8
 50
0
  1
表面形状
  0
TEXT
  8
_0-7_枠細線
 62
    5
 10
1693.5543257597726
 20
456.51085913780253
 40
24.000000000000004
 41
0.8
 50
0
  1
記　　号
  0
TEXT
  8
_0-7_枠細線
 62
    5
 10
1694.4492070046908
 20
532.51085913780253
 40
28.000000000000007
 41
0.7999999999999996
 50
0
  1
記号表
  0
LINE
  8
_1-2_極細2
  6
CONTINUOUS
 62
    2
 10
1425.9799423924426
 20
368.1340858031142
 11
1401.9799423924428
 21
368.1340858031142
  0
LINE
  8
_1-2_極細2
  6
CONTINUOUS
 62
    2
 10
1047.3132757257761
 20
368.1340858031142
 11
1071.3132757257758
 21
368.1340858031142
  0
LINE
  8
_1-2_極細2
  6
CONTINUOUS
 62
    2
 10
1428.6466090591086
 20
349.46741913644723
 11
1428.6466090591093
 21
370.80075246978072
  0
LINE
  8
_1-2_極細2
  6
CONTINUOUS
 62
    2
 10
1044.6466090591093
 20
349.46741913644769
 11
1044.6466090591093
 21
370.80075246978072
  0
LINE
  8
_1-2_極細2
  6
CONTINUOUS
 62
    2
 10
1044.6466090591093
 20
370.80075246978072
 11
1073.9799423924426
 21
370.80075246978072
  0
LINE
  8
_1-2_極細2
  6
CONTINUOUS
 62
    2
 10
1399.3132757257763
 20
370.80075246978072
 11
1428.6466090591093
 21
370.80075246978072
  0
LINE
  8
_1-2_極細2
  6
CONTINUOUS
 62
    2
 10
1073.9799423924426
 20
320.13408580311375
 11
1073.9799423924426
 21
370.80075246978072
  0
LINE
  8
_1-2_極細2
  6
CONTINUOUS
 62
    2
 10
1047.3132757257761
 20
349.46741913644769
 11
1047.3132757257761
 21
368.1340858031142
  0
LINE
  8
_1-2_極細2
  6
CONTINUOUS
 62
    2
 10
1044.6466090591093
 20
349.46741913644769
 11
1047.3132757257761
 21
349.46741913644769
  0
LINE
  8
_1-2_極細2
  6
CONTINUOUS
 62
    2
 10
1425.9799423924421
 20
349.46741913644723
 11
1425.9799423924426
 21
368.1340858031142
  0
LINE
  8
_1-2_極細2
  6
CONTINUOUS
 62
    2
 10
1425.9799423924421
 20
349.46741913644723
 11
1428.6466090591086
 21
349.46741913644723
  0
LINE
  8
_1-2_極細2
  6
CONTINUOUS
 62
    2
 10
1399.3132757257763
 20
320.13408580311375
 11
1073.9799423924426
 21
320.13408580311375
  0
LINE
  8
_1-2_極細2
  6
CONTINUOUS
 62
    2
 10
1399.3132757257763
 20
320.13408580311375
 11
1399.3132757257763
 21
370.80075246978072
  0
LINE
  8
_1-2_極細2
  6
CONTINUOUS
 62
    2
 10
1401.9799423924428
 20
368.1340858031142
 11
1401.9799423924428
 21
317.46741913644723
  0
LINE
  8
_1-2_極細2
  6
CONTINUOUS
 62
    2
 10
1401.9799423924428
 20
317.46741913644723
 11
1071.3132757257758
 21
317.46741913644723
  0
LINE
  8
_1-2_極細2
  6
CONTINUOUS
 62
    2
 10
1071.3132757257758
 20
368.1340858031142
 11
1071.3132757257758
 21
317.46741913644723
  0
LINE
  8
_1-3_細線2
  6
CONTINUOUS
 62
    4
 10
1371.1799423924426
 20
345.69408617858903
 11
1371.1799423924426
 21
335.10741951192199
  0
LINE
  8
_1-3_細線2
  6
CONTINUOUS
 62
    4
 10
1267.4466090591095
 20
364.93408617858881
 11
1247.1799423924442
 21
364.93408617858881
  0
LINE
  8
_1-3_細線2
  6
CONTINUOUS
 62
    4
 10
1247.1799423924442
 20
364.93408617858881
 11
1247.1799423924442
 21
325.46741951192212
  0
LINE
  8
_1-3_細線2
  6
CONTINUOUS
 62
    4
 10
1371.1799423924426
 20
364.93408617858881
 11
1371.1799423924426
 21
325.46741951192212
  0
LINE
  8
_1-3_細線2
  6
CONTINUOUS
 62
    4
 10
1308.7799423924416
 20
364.93408617858881
 11
1288.5132757257763
 21
364.93408617858881
  0
LINE
  8
_1-3_細線2
  6
CONTINUOUS
 62
    4
 10
1350.1132757257749
 20
364.93408617858881
 11
1329.8466090591085
 21
364.93408617858881
  0
LINE
  8
_1-3_細線2
  6
CONTINUOUS
 62
    4
 10
1391.4466090591086
 20
364.93408617858881
 11
1371.1799423924426
 21
364.93408617858881
  0
LINE
  8
_1-3_細線2
  6
CONTINUOUS
 62
    4
 10
1329.8466090591085
 20
364.93408617858881
 11
1329.8466090591085
 21
325.46741951192212
  0
LINE
  8
_1-3_細線2
  6
CONTINUOUS
 62
    4
 10
1288.5132757257763
 20
364.93408617858881
 11
1288.5132757257763
 21
325.46741951192212
  0
LINE
  8
_1-3_細線2
  6
CONTINUOUS
 62
    4
 10
1205.8466090591098
 20
364.93408617858881
 11
1226.1132757257765
 21
364.93408617858881
  0
LINE
  8
_1-3_細線2
  6
CONTINUOUS
 62
    4
 10
1226.1132757257765
 20
364.93408617858881
 11
1226.1132757257765
 21
325.46741951192212
  0
LINE
  8
_1-3_細線2
  6
CONTINUOUS
 62
    4
 10
1164.513275725777
 20
364.93408617858881
 11
1184.7799423924441
 21
364.93408617858881
  0
LINE
  8
_1-3_細線2
  6
CONTINUOUS
 62
    4
 10
1184.7799423924441
 20
364.93408617858881
 11
1184.7799423924441
 21
325.46741951192212
  0
LINE
  8
_1-3_細線2
  6
CONTINUOUS
 62
    4
 10
1102.1132757257785
 20
364.93408617858881
 11
1102.1132757257785
 21
325.46741951192212
  0
LINE
  8
_1-3_細線2
  6
CONTINUOUS
 62
    4
 10
1123.1799423924442
 20
364.93408617858881
 11
1143.4466090591113
 21
364.93408617858881
  0
LINE
  8
_1-3_細線2
  6
CONTINUOUS
 62
    4
 10
1081.8466090591121
 20
364.93408617858881
 11
1102.1132757257785
 21
364.93408617858881
  0
LINE
  8
_1-3_細線2
  6
CONTINUOUS
 62
    4
 10
1143.4466090591113
 20
364.93408617858881
 11
1143.4466090591113
 21
325.46741951192212
  0
ARC
  8
_1-3_細線2
  6
CONTINUOUS
 62
    4
 10
1391.4466090591095
 20
364.93408617858881
 40
3.1999999999999997
 50
0
 51
89.999999999999915
  0
LINE
  8
_1-3_細線2
  6
CONTINUOUS
 62
    4
 10
1367.9799423924419
 20
364.93408617858881
 11
1367.9799423924419
 21
325.46741951192212
  0
LINE
  8
_1-3_細線2
  6
CONTINUOUS
 62
    4
 10
1391.4466090591095
 20
368.13408617858909
 11
1371.1799423924419
 21
368.13408617858909
  0
ARC
  8
_1-3_細線2
  6
CONTINUOUS
 62
    4
 10
1371.1799423924419
 20
364.93408617858881
 40
3.1999999999999997
 50
89.999999999999915
 51
179.99999999999983
  0
ARC
  8
_1-3_細線2
  6
CONTINUOUS
 62
    4
 10
1350.1132757257756
 20
364.93408617858881
 40
3.1999999999999997
 50
0
 51
89.999999999999915
  0
LINE
  8
_1-3_細線2
  6
CONTINUOUS
 62
    4
 10
1326.6466090591093
 20
364.93408617858881
 11
1326.6466090591093
 21
325.46741951192212
  0
LINE
  8
_1-3_細線2
  6
CONTINUOUS
 62
    4
 10
1350.1132757257756
 20
368.13408617858909
 11
1329.8466090591098
 21
368.13408617858909
  0
ARC
  8
_1-3_細線2
  6
CONTINUOUS
 62
    4
 10
1329.8466090591098
 20
364.93408617858881
 40
3.1999999999999997
 50
89.999999999999915
 51
179.99999999999983
  0
ARC
  8
_1-3_細線2
  6
CONTINUOUS
 62
    4
 10
1308.7799423924423
 20
364.93408617858881
 40
3.1999999999999997
 50
0
 51
89.999999999999915
  0
LINE
  8
_1-3_細線2
  6
CONTINUOUS
 62
    4
 10
1285.3132757257756
 20
364.93408617858881
 11
1285.3132757257756
 21
325.46741951192212
  0
LINE
  8
_1-3_細線2
  6
CONTINUOUS
 62
    4
 10
1308.7799423924423
 20
368.13408617858909
 11
1288.5132757257757
 21
368.13408617858909
  0
ARC
  8
_1-3_細線2
  6
CONTINUOUS
 62
    4
 10
1288.5132757257757
 20
364.93408617858881
 40
3.1999999999999997
 50
89.999999999999915
 51
179.99999999999983
  0
ARC
  8
_1-3_細線2
  6
CONTINUOUS
 62
    4
 10
1267.4466090591102
 20
364.93408617858881
 40
3.1999999999999997
 50
0
 51
89.999999999999915
  0
LINE
  8
_1-3_細線2
  6
CONTINUOUS
 62
    4
 10
1243.9799423924435
 20
364.93408617858881
 11
1243.9799423924435
 21
325.46741951192212
  0
LINE
  8
_1-3_細線2
  6
CONTINUOUS
 62
    4
 10
1267.4466090591102
 20
368.13408617858909
 11
1247.1799423924435
 21
368.13408617858909
  0
ARC
  8
_1-3_細線2
  6
CONTINUOUS
 62
    4
 10
1247.1799423924435
 20
364.93408617858881
 40
3.1999999999999997
 50
89.999999999999915
 51
179.99999999999983
  0
LINE
  8
_1-3_細線2
  6
CONTINUOUS
 62
    4
 10
1229.313275725777
 20
364.93408617858881
 11
1229.313275725777
 21
325.46741951192212
  0
ARC
  8
_1-3_細線2
  6
CONTINUOUS
 62
    4
 10
1226.1132757257765
 20
364.93408617858881
 40
3.1999999999999997
 50
0
 51
89.999999999999915
  0
LINE
  8
_1-3_細線2
  6
CONTINUOUS
 62
    4
 10
1205.8466090591094
 20
368.13408617858909
 11
1226.1132757257765
 21
368.13408617858909
  0
ARC
  8
_1-3_細線2
  6
CONTINUOUS
 62
    4
 10
1205.8466090591094
 20
364.93408617858881
 40
3.1999999999999997
 50
89.999999999999915
 51
179.99999999999983
  0
LINE
  8
_1-3_細線2
  6
CONTINUOUS
 62
    4
 10
1187.9799423924442
 20
364.93408617858881
 11
1187.9799423924442
 21
325.46741951192212
  0
ARC
  8
_1-3_細線2
  6
CONTINUOUS
 62
    4
 10
1184.7799423924441
 20
364.93408617858881
 40
3.1999999999999997
 50
0
 51
89.999999999999915
  0
LINE
  8
_1-3_細線2
  6
CONTINUOUS
 62
    4
 10
1164.5132757257766
 20
368.13408617858909
 11
1184.7799423924441
 21
368.13408617858909
  0
ARC
  8
_1-3_細線2
  6
CONTINUOUS
 62
    4
 10
1164.5132757257768
 20
364.93408617858881
 40
3.1999999999999997
 50
90.000000000004064
 51
179.99999999999983
  0
LINE
  8
_1-3_細線2
  6
CONTINUOUS
 62
    4
 10
1146.6466090591114
 20
364.93408617858881
 11
1146.6466090591114
 21
325.46741951192212
  0
ARC
  8
_1-3_細線2
  6
CONTINUOUS
 62
    4
 10
1143.4466090591113
 20
364.93408617858881
 40
3.1999999999999997
 50
0
 51
89.999999999999915
  0
LINE
  8
_1-3_細線2
  6
CONTINUOUS
 62
    4
 10
1123.179942392444
 20
368.13408617858909
 11
1143.4466090591113
 21
368.13408617858909
  0
ARC
  8
_1-3_細線2
  6
CONTINUOUS
 62
    4
 10
1123.179942392444
 20
364.93408617858881
 40
3.1999999999999997
 50
89.999999999999915
 51
179.99999999999983
  0
LINE
  8
_1-3_細線2
  6
CONTINUOUS
 62
    4
 10
1105.3132757257772
 20
364.93408617858881
 11
1105.3132757257772
 21
325.46741951192212
  0
ARC
  8
_1-3_細線2
  6
CONTINUOUS
 62
    4
 10
1102.1132757257774
 20
364.93408617858881
 40
3.1999999999999997
 50
0
 51
89.999999999999915
  0
LINE
  8
_1-3_細線2
  6
CONTINUOUS
 62
    4
 10
1081.8466090591112
 20
368.13408617858909
 11
1102.1132757257774
 21
368.13408617858909
  0
ARC
  8
_1-3_細線2
  6
CONTINUOUS
 62
    4
 10
1081.8466090591112
 20
364.93408617858881
 40
3.1999999999999997
 50
89.999999999999915
 51
179.99999999999983
  0
LINE
  8
_1-3_細線2
  6
CONTINUOUS
 62
    4
 10
1102.1132757257785
 20
325.46741951192212
 11
1105.3132757257772
 21
325.46741951192212
  0
LINE
  8
_1-3_細線2
  6
CONTINUOUS
 62
    4
 10
1143.4466090591113
 20
325.46741951192212
 11
1146.6466090591114
 21
325.46741951192212
  0
LINE
  8
_1-3_細線2
  6
CONTINUOUS
 62
    4
 10
1184.7799423924441
 20
325.46741951192212
 11
1187.9799423924442
 21
325.46741951192212
  0
LINE
  8
_1-3_細線2
  6
CONTINUOUS
 62
    4
 10
1226.1132757257765
 20
325.46741951192212
 11
1229.313275725777
 21
325.46741951192212
  0
LINE
  8
_1-3_細線2
  6
CONTINUOUS
 62
    4
 10
1243.9799423924435
 20
325.46741951192212
 11
1247.1799423924442
 21
325.46741951192212
  0
LINE
  8
_1-3_細線2
  6
CONTINUOUS
 62
    4
 10
1285.3132757257756
 20
325.46741951192212
 11
1288.5132757257763
 21
325.46741951192212
  0
LINE
  8
_1-3_細線2
  6
CONTINUOUS
 62
    4
 10
1326.6466090591093
 20
325.46741951192212
 11
1329.8466090591085
 21
325.46741951192212
  0
LINE
  8
_1-3_細線2
  6
CONTINUOUS
 62
    4
 10
1367.9799423924419
 20
325.46741951192212
 11
1371.1799423924426
 21
325.46741951192212
  0
LINE
  8
_1-3_細線2
  6
CONTINUOUS
 62
    4
 10
1270.6466090591102
 20
352.13408580311375
 11
1267.4466090591095
 21
352.13408580311375
  0
LINE
  8
_1-3_細線2
  6
CONTINUOUS
 62
    4
 10
1394.6466090591093
 20
352.13408580311375
 11
1391.4466090591086
 21
352.13408580311375
  0
LINE
  8
_1-3_細線2
  6
CONTINUOUS
 62
    4
 10
1353.3132757257756
 20
352.13408580311375
 11
1350.1132757257749
 21
352.13408580311375
  0
LINE
  8
_1-3_細線2
  6
CONTINUOUS
 62
    4
 10
1311.9799423924424
 20
352.13408580311375
 11
1308.7799423924416
 21
352.13408580311375
  0
LINE
  8
_1-3_細線2
  6
CONTINUOUS
 62
    4
 10
1202.6466090591093
 20
352.13408580311375
 11
1205.8466090591101
 21
352.13408580311375
  0
LINE
  8
_1-3_細線2
  6
CONTINUOUS
 62
    4
 10
1161.313275725777
 20
352.13408580311375
 11
1164.5132757257777
 21
352.13408580311375
  0
LINE
  8
_1-3_細線2
  6
CONTINUOUS
 62
    4
 10
1078.6466090591114
 20
352.13408580311375
 11
1081.8466090591121
 21
352.13408580311375
  0
LINE
  8
_1-3_細線2
  6
CONTINUOUS
 62
    4
 10
1119.9799423924442
 20
352.13408580311375
 11
1123.1799423924449
 21
352.13408580311375
  0
LINE
  8
_1-3_細線2
  6
CONTINUOUS
 62
    4
 10
1267.4466090591095
 20
364.93408617858881
 11
1267.4466090591095
 21
352.13408580311375
  0
LINE
  8
_1-3_細線2
  6
CONTINUOUS
 62
    4
 10
1350.1132757257749
 20
364.93408617858881
 11
1350.1132757257749
 21
352.13408580311375
  0
LINE
  8
_1-3_細線2
  6
CONTINUOUS
 62
    4
 10
1391.4466090591086
 20
364.93408617858881
 11
1391.4466090591086
 21
352.13408580311375
  0
LINE
  8
_1-3_細線2
  6
CONTINUOUS
 62
    4
 10
1308.7799423924416
 20
364.93408617858881
 11
1308.7799423924416
 21
352.13408580311375
  0
LINE
  8
_1-3_細線2
  6
CONTINUOUS
 62
    4
 10
1205.8466090591098
 20
364.93408617858881
 11
1205.8466090591101
 21
352.13408580311375
  0
LINE
  8
_1-3_細線2
  6
CONTINUOUS
 62
    4
 10
1164.513275725777
 20
364.93408617858881
 11
1164.5132757257777
 21
352.13408580311375
  0
LINE
  8
_1-3_細線2
  6
CONTINUOUS
 62
    4
 10
1081.8466090591121
 20
364.93408617858881
 11
1081.8466090591121
 21
352.13408580311375
  0
LINE
  8
_1-3_細線2
  6
CONTINUOUS
 62
    4
 10
1123.1799423924442
 20
364.93408617858881
 11
1123.1799423924449
 21
352.13408580311375
  0
LINE
  8
_1-3_細線2
  6
CONTINUOUS
 62
    4
 10
1394.6466090591093
 20
364.93408617858881
 11
1394.6466090591093
 21
352.13408580311375
  0
LINE
  8
_1-3_細線2
  6
CONTINUOUS
 62
    4
 10
1353.3132757257756
 20
364.93408617858881
 11
1353.3132757257756
 21
352.13408580311375
  0
LINE
  8
_1-3_細線2
  6
CONTINUOUS
 62
    4
 10
1311.9799423924424
 20
364.93408617858881
 11
1311.9799423924424
 21
352.13408580311375
  0
LINE
  8
_1-3_細線2
  6
CONTINUOUS
 62
    4
 10
1270.6466090591102
 20
364.93408617858881
 11
1270.6466090591102
 21
352.13408580311375
  0
LINE
  8
_1-3_細線2
  6
CONTINUOUS
 62
    4
 10
1202.6466090591093
 20
364.93408617858881
 11
1202.6466090591093
 21
352.13408580311375
  0
LINE
  8
_1-3_細線2
  6
CONTINUOUS
 62
    4
 10
1161.313275725777
 20
364.93408617858881
 11
1161.313275725777
 21
352.13408580311375
  0
LINE
  8
_1-3_細線2
  6
CONTINUOUS
 62
    4
 10
1119.9799423924442
 20
364.93408617858881
 11
1119.9799423924442
 21
352.13408580311375
  0
LINE
  8
_1-3_細線2
  6
CONTINUOUS
 62
    4
 10
1078.6466090591114
 20
364.93408617858881
 11
1078.6466090591114
 21
352.13408580311375
  0
ARC
  8
_1-3_細線2
  6
CONTINUOUS
 62
    4
 10
1089.321947725778
 20
326.00075246978145
 40
0.5333333333333335
 50
179.99999999999983
 51
269.99999999999977
  0
LINE
  8
_1-3_細線2
  6
CONTINUOUS
 62
    4
 10
1091.446609059112
 20
325.46741913644769
 11
1089.321947725778
 21
325.46741913644769
  0
ARC
  8
_1-3_細線2
  6
CONTINUOUS
 62
    4
 10
1089.321947725778
 20
351.6007524697809
 40
0.5333333333333335
 50
89.999999999999915
 51
179.99999999999983
  0
LINE
  8
_1-3_細線2
  6
CONTINUOUS
 62
    4
 10
1091.446609059112
 20
352.13408580311466
 11
1089.321947725778
 21
352.13408580311466
  0
LINE
  8
_1-3_細線2
  6
CONTINUOUS
 62
    4
 10
1088.7886143924436
 20
337.46741913644769
 11
1088.7886143924436
 21
326.00075246978145
  0
LINE
  8
_1-3_細線2
  6
CONTINUOUS
 62
    4
 10
1088.7886143924436
 20
351.6007524697809
 11
1088.7886143924436
 21
337.46741913644769
  0
ARC
  8
_1-3_細線2
  6
CONTINUOUS
 62
    4
 10
1092.7799423924453
 20
362.80075246978072
 40
1.333333333333333
 50
89.999999999999915
 51
179.99999999999983
  0
LINE
  8
_1-3_細線2
  6
CONTINUOUS
 62
    4
 10
1100.7799423924453
 20
364.13408580311375
 11
1092.7799423924453
 21
364.13408580311375
  0
ARC
  8
_1-3_細線2
  6
CONTINUOUS
 62
    4
 10
1100.7799423924453
 20
362.80075246978072
 40
1.333333333333333
 50
0
 51
89.999999999999915
  0
LINE
  8
_1-3_細線2
  6
CONTINUOUS
 62
    4
 10
1091.446609059112
 20
362.80075246978072
 11
1091.446609059112
 21
321.46741913644723
  0
ARC
  8
_1-3_細線2
  6
CONTINUOUS
 62
    4
 10
1092.7799423924453
 20
321.46741913644723
 40
1.333333333333333
 50
179.99999999999983
 51
269.99999999999977
  0
LINE
  8
_1-3_細線2
  6
CONTINUOUS
 62
    4
 10
1092.7799423924453
 20
320.13408580311375
 11
1100.7799423924453
 21
320.13408580311375
  0
LINE
  8
_1-3_細線2
  6
CONTINUOUS
 62
    4
 10
1102.1132757257785
 20
321.46741913644723
 11
1102.1132757257785
 21
362.80075246978072
  0
ARC
  8
_1-3_細線2
  6
CONTINUOUS
 62
    4
 10
1100.7799423924453
 20
321.46741913644723
 40
1.333333333333333
 50
269.99999999999977
 51
359.99999999999966
  0
LINE
  8
_1-3_細線2
  6
CONTINUOUS
 62
    4
 10
1105.3132757257783
 20
329.60075246978045
 11
1143.4466090591113
 21
329.60075246978045
  0
LINE
  8
_1-3_細線2
  6
CONTINUOUS
 62
    4
 10
1105.3132757257783
 20
348.00075246978054
 11
1143.4466090591113
 21
348.00075246978054
  0
LINE
  8
_1-3_細線2
  6
CONTINUOUS
 62
    4
 10
1146.6466090591123
 20
329.60075246978045
 11
1184.7799423924453
 21
329.60075246978045
  0
LINE
  8
_1-3_細線2
  6
CONTINUOUS
 62
    4
 10
1146.6466090591123
 20
348.00075246978054
 11
1184.7799423924453
 21
348.00075246978054
  0
LINE
  8
_1-3_細線2
  6
CONTINUOUS
 62
    4
 10
1187.9799423924451
 20
329.60075246978045
 11
1226.1132757257778
 21
329.60075246978045
  0
LINE
  8
_1-3_細線2
  6
CONTINUOUS
 62
    4
 10
1187.9799423924451
 20
348.00075246978054
 11
1226.1132757257778
 21
348.00075246978054
  0
LINE
  8
_1-3_細線2
  6
CONTINUOUS
 62
    4
 10
1229.3132757257777
 20
348.00075246978054
 11
1243.9799423924435
 21
348.00075246978054
  0
LINE
  8
_1-3_細線2
  6
CONTINUOUS
 62
    4
 10
1229.3132757257777
 20
329.60075246978045
 11
1243.9799423924435
 21
329.60075246978045
  0
ARC
  8
_1-3_細線2
  6
CONTINUOUS
 62
    4
 10
1383.9712706645755
 20
326.00075246978145
 40
0.5333333333333335
 50
269.99999999999977
 51
359.99999999999966
  0
LINE
  8
_1-3_細線2
  6
CONTINUOUS
 62
    4
 10
1381.8466093312418
 20
325.46741913644769
 11
1383.9712706645755
 21
325.46741913644769
  0
ARC
  8
_1-3_細線2
  6
CONTINUOUS
 62
    4
 10
1383.9712706645755
 20
351.6007524697809
 40
0.5333333333333335
 50
0
 51
89.999999999999915
  0
LINE
  8
_1-3_細線2
  6
CONTINUOUS
 62
    4
 10
1381.8466093312418
 20
352.13408580311466
 11
1383.9712706645755
 21
352.13408580311466
  0
LINE
  8
_1-3_細線2
  6
CONTINUOUS
 62
    4
 10
1384.5046039979097
 20
337.46741913644769
 11
1384.5046039979097
 21
326.00075246978145
  0
LINE
  8
_1-3_細線2
  6
CONTINUOUS
 62
    4
 10
1384.5046039979097
 20
351.6007524697809
 11
1384.5046039979097
 21
337.46741913644769
  0
ARC
  8
_1-3_細線2
  6
CONTINUOUS
 62
    4
 10
1380.5132759979083
 20
362.80075246978072
 40
1.333333333333333
 50
0
 51
89.999999999999915
  0
LINE
  8
_1-3_細線2
  6
CONTINUOUS
 62
    4
 10
1372.5132759979083
 20
364.13408580311375
 11
1380.5132759979083
 21
364.13408580311375
  0
ARC
  8
_1-3_細線2
  6
CONTINUOUS
 62
    4
 10
1372.5132759979083
 20
362.80075246978072
 40
1.333333333333333
 50
89.999999999999915
 51
179.99999999999983
  0
LINE
  8
_1-3_細線2
  6
CONTINUOUS
 62
    4
 10
1381.8466093312418
 20
362.80075246978072
 11
1381.8466093312418
 21
321.46741913644723
  0
ARC
  8
_1-3_細線2
  6
CONTINUOUS
 62
    4
 10
1380.5132759979083
 20
321.46741913644723
 40
1.333333333333333
 50
269.99999999999977
 51
359.99999999999966
  0
LINE
  8
_1-3_細線2
  6
CONTINUOUS
 62
    4
 10
1380.5132759979083
 20
320.13408580311375
 11
1372.5132759979083
 21
320.13408580311375
  0
LINE
  8
_1-3_細線2
  6
CONTINUOUS
 62
    4
 10
1371.179942664575
 20
321.46741913644723
 11
1371.179942664575
 21
362.80075246978072
  0
ARC
  8
_1-3_細線2
  6
CONTINUOUS
 62
    4
 10
1372.5132759979083
 20
321.46741913644723
 40
1.333333333333333
 50
179.99999999999983
 51
269.99999999999977
  0
LINE
  8
_1-3_細線2
  6
CONTINUOUS
 62
    4
 10
1367.979942664575
 20
329.60075246978045
 11
1329.8466093312422
 21
329.60075246978045
  0
LINE
  8
_1-3_細線2
  6
CONTINUOUS
 62
    4
 10
1367.979942664575
 20
348.00075246978054
 11
1329.8466093312422
 21
348.00075246978054
  0
LINE
  8
_1-3_細線2
  6
CONTINUOUS
 62
    4
 10
1326.6466093312411
 20
329.60075246978045
 11
1288.5132759979083
 21
329.60075246978045
  0
LINE
  8
_1-3_細線2
  6
CONTINUOUS
 62
    4
 10
1326.6466093312411
 20
348.00075246978054
 11
1288.5132759979083
 21
348.00075246978054
  0
LINE
  8
_1-3_細線2
  6
CONTINUOUS
 62
    4
 10
1285.3132759979082
 20
329.60075246978045
 11
1247.1799426645757
 21
329.60075246978045
  0
LINE
  8
_1-3_細線2
  6
CONTINUOUS
 62
    4
 10
1285.3132759979082
 20
348.00075246978054
 11
1247.1799426645757
 21
348.00075246978054
  0
LINE
  8
_1-2_極細2
  6
CENTER1
 62
    2
 10
1077.4468560396967
 20
338.80075246978072
 11
1396.8959486174879
 21
338.80075246978072
  0
LINE
  8
_1-2_極細2
  6
CONTINUOUS
 62
    2
 10
1088.7886143924436
 20
338.80075246978072
 11
1080.7765717257766
 21
338.80075246978072
  0
LINE
  8
_1-3_細線2
  6
CONTINUOUS
 62
    4
 10
1088.7886143924436
 20
329.4674191364486
 11
1080.7765397257783
 21
329.4674191364486
  0
ARC
  8
_1-3_細線2
  6
CONTINUOUS
 62
    4
 10
1080.7765397257783
 20
330.00075246978145
 40
0.5333333333333335
 50
179.99999999999983
 51
269.99999999999977
  0
ARC
  8
_1-2_極細2
  6
CONTINUOUS
 62
    2
 10
1100.9311530591106
 20
334.13369646978231
 40
20.687882666666667
 50
166.96197800000505
 51
193.03566999999961
  0
ARC
  8
_1-3_細線2
  6
CONTINUOUS
 62
    4
 10
1080.7765397257783
 20
347.60075246978181
 40
0.5333333333333335
 50
89.999999999999915
 51
179.99999999999983
  0
ARC
  8
_1-2_極細2
  6
CONTINUOUS
 62
    2
 10
1100.9311530591106
 20
343.46780313644763
 40
20.687882666666667
 50
166.96433000000002
 51
193.0380219999995
  0
LINE
  8
_1-3_細線2
  6
CONTINUOUS
 62
    4
 10
1088.7886143924436
 20
348.13408580311466
 11
1080.7765397257783
 21
348.13408580311466
  0
LINE
  8
_1-3_細線2
  6
CONTINUOUS
 62
    4
 10
1080.2432063924439
 20
330.00075246978145
 11
1080.2432063924439
 21
347.60075246978181
  0
LINE
  8
_1-2_極細2
  6
CONTINUOUS
 62
    2
 10
1384.5046039979097
 20
338.80075246978072
 11
1392.5166466645769
 21
338.80075246978072
  0
LINE
  8
_1-3_細線2
  6
CONTINUOUS
 62
    4
 10
1384.5046039979097
 20
329.4674191364486
 11
1392.516678664575
 21
329.4674191364486
  0
ARC
  8
_1-3_細線2
  6
CONTINUOUS
 62
    4
 10
1392.516678664575
 20
330.00075246978145
 40
0.5333333333333335
 50
269.99999999999977
 51
359.99999999999966
  0
ARC
  8
_1-2_極細2
  6
CONTINUOUS
 62
    2
 10
1372.3620653312428
 20
334.13369646978231
 40
20.687882666666667
 50
346.96432999999968
 51
13.038021999994573
  0
ARC
  8
_1-3_細線2
  6
CONTINUOUS
 62
    4
 10
1392.516678664575
 20
347.60075246978181
 40
0.5333333333333335
 50
0
 51
89.999999999999915
  0
ARC
  8
_1-2_極細2
  6
CONTINUOUS
 62
    2
 10
1372.3620653312428
 20
343.46780313644763
 40
20.687882666666667
 50
346.96197799999976
 51
13.035669999999625
  0
LINE
  8
_1-3_細線2
  6
CONTINUOUS
 62
    4
 10
1384.5046039979097
 20
348.13408580311466
 11
1392.516678664575
 21
348.13408580311466
  0
LINE
  8
_1-3_細線2
  6
CONTINUOUS
 62
    4
 10
1393.0500119979095
 20
330.00075246978145
 11
1393.0500119979095
 21
347.60075246978181
  0
LINE
  8
_1-2_極細2
  6
CENTER1
 62
    2
 10
1236.6466090591093
 20
394.92891004983653
 11
1236.6466090591093
 21
300.53576102718557
  0
LINE
  8
_1-5_寸法2
  6
CONTINUOUS
 62
    7
 10
1044.6466090591093
 20
386.80075246978072
 11
1044.6466090591093
 21
570.80075246978072
  0
LINE
  8
_1-5_寸法2
  6
CONTINUOUS
 62
    7
 10
1044.6466090591093
 20
562.80075246978072
 11
1060.1014222797344
 21
566.94185719142104
  0
LINE
  8
_1-5_寸法2
  6
CONTINUOUS
 62
    7
 10
1044.6466090591093
 20
562.80075246978072
 11
1060.1014222797344
 21
558.6596477481404
  0
LINE
  8
_1-5_寸法2
  6
CONTINUOUS
 62
    7
 10
1428.6466090591093
 20
386.80075246978072
 11
1428.6466090591093
 21
570.80075246978072
  0
LINE
  8
_1-5_寸法2
  6
CONTINUOUS
 62
    7
 10
1428.6466090591093
 20
562.80075246978072
 11
1413.1917958384843
 21
558.6596477481404
  0
LINE
  8
_1-5_寸法2
  6
CONTINUOUS
 62
    7
 10
1428.6466090591093
 20
562.80075246978072
 11
1413.1917958384843
 21
566.94185719142115
  0
LINE
  8
_1-5_寸法2
  6
CONTINUOUS
 62
    7
 10
1044.6466090591093
 20
562.80075246978072
 11
1428.6466090591093
 21
562.80075246978072
  0
TEXT
  8
_1-5_寸法2
 62
    7
 10
1218.6466090591093
 20
562.80075246978072
 40
24
 41
1
 50
0
  1
144
  0
LINE
  8
_1-5_寸法2
  6
CONTINUOUS
 62
    7
 10
1399.3132757257763
 20
386.80075246978072
 11
1399.3132757257767
 21
514.80075246978072
  0
LINE
  8
_1-5_寸法2
  6
CONTINUOUS
 62
    7
 10
1399.3132757257767
 20
506.80075246978072
 11
1414.7680889464018
 21
510.94185719142104
  0
LINE
  8
_1-5_寸法2
  6
CONTINUOUS
 62
    7
 10
1399.3132757257767
 20
506.80075246978072
 11
1414.7680889464018
 21
502.6596477481404
  0
LINE
  8
_1-5_寸法2
  6
CONTINUOUS
 62
    7
 10
1428.6466090591093
 20
386.80075246978072
 11
1428.64660905911
 21
514.80075246978072
  0
LINE
  8
_1-5_寸法2
  6
CONTINUOUS
 62
    7
 10
1428.64660905911
 20
506.80075246978072
 11
1413.1917958384849
 21
502.65964774814046
  0
LINE
  8
_1-5_寸法2
  6
CONTINUOUS
 62
    7
 10
1428.64660905911
 20
506.80075246978072
 11
1413.1917958384849
 21
510.94185719142109
  0
LINE
  8
_1-5_寸法2
  6
CONTINUOUS
 62
    7
 10
1399.3132757257767
 20
506.80075246978072
 11
1428.64660905911
 21
506.80075246978072
  0
TEXT
  8
_1-5_寸法2
 62
    7
 10
1401.9799423924435
 20
506.80075246978072
 40
24
 41
1
 50
0
  1
11
  0
LINE
  8
_1-5_寸法2
  6
CONTINUOUS
 62
    7
 10
1078.6466090591114
 20
386.80075246978072
 11
1078.6466090591116
 21
514.80075246978072
  0
LINE
  8
_1-5_寸法2
  6
CONTINUOUS
 62
    7
 10
1078.6466090591116
 20
506.80075246978072
 11
1094.1014222797367
 21
510.94185719142104
  0
LINE
  8
_1-5_寸法2
  6
CONTINUOUS
 62
    7
 10
1078.6466090591116
 20
506.80075246978072
 11
1094.1014222797367
 21
502.6596477481404
  0
LINE
  8
_1-5_寸法2
  6
CONTINUOUS
 62
    7
 10
1394.6466090591093
 20
386.80075246978072
 11
1394.6466090591102
 21
514.80075246978072
  0
LINE
  8
_1-5_寸法2
  6
CONTINUOUS
 62
    7
 10
1394.6466090591102
 20
506.80075246978072
 11
1379.1917958384852
 21
502.65964774814046
  0
LINE
  8
_1-5_寸法2
  6
CONTINUOUS
 62
    7
 10
1394.6466090591102
 20
506.80075246978072
 11
1379.1917958384852
 21
510.94185719142109
  0
LINE
  8
_1-5_寸法2
  6
CONTINUOUS
 62
    7
 10
1078.6466090591116
 20
506.80075246978072
 11
1394.6466090591102
 21
506.80075246978072
  0
TEXT
  8
_1-5_寸法2
 62
    7
 10
1206.6466090591107
 20
506.80075246978072
 40
24
 41
1
 50
0
  1
118.5
  0
LINE
  8
_1-5_寸法2
  6
CONTINUOUS
 62
    7
 10
1044.6466090591093
 20
386.80075246978072
 11
1044.64660905911
 21
514.80075246978072
  0
LINE
  8
_1-5_寸法2
  6
CONTINUOUS
 62
    7
 10
1044.64660905911
 20
506.80075246978072
 11
1060.1014222797351
 21
510.94185719142104
  0
LINE
  8
_1-5_寸法2
  6
CONTINUOUS
 62
    7
 10
1044.64660905911
 20
506.80075246978072
 11
1060.1014222797351
 21
502.6596477481404
  0
LINE
  8
_1-5_寸法2
  6
CONTINUOUS
 62
    7
 10
1073.9799423924426
 20
386.80075246978072
 11
1073.9799423924428
 21
514.80075246978072
  0
LINE
  8
_1-5_寸法2
  6
CONTINUOUS
 62
    7
 10
1073.9799423924428
 20
506.80075246978072
 11
1058.5251291718178
 21
502.65964774814046
  0
LINE
  8
_1-5_寸法2
  6
CONTINUOUS
 62
    7
 10
1073.9799423924428
 20
506.80075246978072
 11
1058.5251291718178
 21
510.94185719142109
  0
LINE
  8
_1-5_寸法2
  6
CONTINUOUS
 62
    7
 10
1044.64660905911
 20
506.80075246978072
 11
1073.9799423924428
 21
506.80075246978072
  0
TEXT
  8
_1-5_寸法2
 62
    7
 10
1047.3132757257767
 20
506.80075246978072
 40
24
 41
1
 50
0
  1
11
  0
LINE
  8
_1-5_寸法2
  6
CONTINUOUS
 62
    7
 10
1187.9799423924442
 20
386.80075246978072
 11
1187.9799423924444
 21
458.80075246978072
  0
LINE
  8
_1-5_寸法2
  6
CONTINUOUS
 62
    7
 10
1187.9799423924444
 20
450.80075246978072
 11
1172.5251291718193
 21
446.65964774814046
  0
LINE
  8
_1-5_寸法2
  6
CONTINUOUS
 62
    7
 10
1187.9799423924444
 20
450.80075246978072
 11
1172.5251291718193
 21
454.94185719142109
  0
LINE
  8
_1-5_寸法2
  6
CONTINUOUS
 62
    7
 10
1202.6466090591096
 20
386.80075246978072
 11
1202.64660905911
 21
458.80075246978072
  0
LINE
  8
_1-5_寸法2
  6
CONTINUOUS
 62
    7
 10
1134.0625320021099
 20
450.80075246978072
 11
1202.64660905911
 21
450.80075246978072
  0
TEXT
  8
_1-5_寸法2
 62
    7
 10
1134.0625320021099
 20
450.80075246978072
 40
24
 41
1
 50
0
  1
5.5
  0
LINE
  8
_1-5_寸法2
  6
CONTINUOUS
 62
    7
 10
1202.64660905911
 20
450.80075246978072
 11
1218.1014222797351
 21
454.94185719142092
  0
LINE
  8
_1-5_寸法2
  6
CONTINUOUS
 62
    7
 10
1202.64660905911
 20
450.80075246978072
 11
1218.1014222797351
 21
446.65964774814029
  0
LINE
  8
_1-5_寸法2
  6
CONTINUOUS
 62
    7
 10
1229.313275725777
 20
386.80075246978072
 11
1229.313275725777
 21
458.80075246978072
  0
LINE
  8
_1-5_寸法2
  6
CONTINUOUS
 62
    7
 10
1229.313275725777
 20
450.80075246978072
 11
1213.8584625051519
 21
446.65964774814046
  0
LINE
  8
_1-5_寸法2
  6
CONTINUOUS
 62
    7
 10
1229.313275725777
 20
450.80075246978072
 11
1213.8584625051519
 21
454.94185719142109
  0
LINE
  8
_1-5_寸法2
  6
CONTINUOUS
 62
    7
 10
1202.64660905911
 20
450.80075246978072
 11
1229.313275725777
 21
450.80075246978072
  0
TEXT
  8
_1-5_寸法2
 62
    7
 10
1203.9799423924439
 20
450.80075246978072
 40
24
 41
1
 50
0
  1
10
  0
LINE
  8
_1-5_寸法2
  6
CONTINUOUS
 62
    7
 10
1028.6466090591093
 20
370.80075246978083
 11
956.64660905910932
 21
370.80075246978123
  0
LINE
  8
_1-5_寸法2
  6
CONTINUOUS
 62
    7
 10
964.64660905910932
 20
370.80075246978117
 11
968.78771378074964
 21
355.34593924915606
  0
LINE
  8
_1-5_寸法2
  6
CONTINUOUS
 62
    7
 10
964.64660905910932
 20
370.80075246978117
 11
960.50550433746901
 21
355.34593924915606
  0
LINE
  8
_1-5_寸法2
  6
CONTINUOUS
 62
    7
 10
1055.3132757257758
 20
317.46741913644723
 11
956.64660905910932
 21
317.46741913644769
  0
LINE
  8
_1-5_寸法2
  6
CONTINUOUS
 62
    7
 10
964.64660905910932
 20
317.46741913644769
 11
960.50550433746901
 21
332.9222323570728
  0
LINE
  8
_1-5_寸法2
  6
CONTINUOUS
 62
    7
 10
964.64660905910932
 20
317.46741913644769
 11
968.78771378074964
 21
332.9222323570728
  0
LINE
  8
_1-5_寸法2
  6
CONTINUOUS
 62
    7
 10
964.64660905910932
 20
370.80075246978117
 11
964.64660905910932
 21
317.46741913644769
  0
TEXT
  8
_1-5_寸法2
 62
    7
 10
964.64660905910932
 20
332.1340858031142
 40
24
 41
1
 50
90
  1
20
  0
LINE
  8
_1-5_寸法2
  6
CONTINUOUS
 62
    7
 10
1444.6466090591086
 20
349.46741913644706
 11
1516.6466090591091
 21
349.46741913644621
  0
LINE
  8
_1-5_寸法2
  6
CONTINUOUS
 62
    7
 10
1508.6466090591091
 20
349.46741913644632
 11
1504.5055043374689
 21
364.92223235707144
  0
LINE
  8
_1-5_寸法2
  6
CONTINUOUS
 62
    7
 10
1508.6466090591091
 20
349.46741913644632
 11
1512.7877137807495
 21
364.92223235707144
  0
LINE
  8
_1-5_寸法2
  6
CONTINUOUS
 62
    7
 10
1444.6466090591086
 20
370.80075246978055
 11
1516.6466090591091
 21
370.8007524697797
  0
LINE
  8
_1-5_寸法2
  6
CONTINUOUS
 62
    7
 10
1508.6466090591091
 20
370.80075246977981
 11
1512.7877137807495
 21
355.3459392491547
  0
LINE
  8
_1-5_寸法2
  6
CONTINUOUS
 62
    7
 10
1508.6466090591091
 20
370.80075246977981
 11
1504.5055043374689
 21
355.3459392491547
  0
LINE
  8
_1-5_寸法2
  6
CONTINUOUS
 62
    7
 10
1508.6466090591091
 20
349.46741913644632
 11
1508.6466090591091
 21
370.80075246977981
  0
TEXT
  8
_1-5_寸法2
 62
    7
 10
1508.6466090591091
 20
354.13408580311329
 40
24
 41
1
 50
90
  1
8
  0
TEXT
  8
_0-7_枠細線
 62
    5
 10
1156.6466090591096
 20
241.7197855124806
 40
40
 41
0.8
 50
0
  1
断面詳細図
  0
TEXT
  8
_0-7_枠細線
 62
    5
 10
1340.5649606577792
 20
244.87652132082178
 40
32
 41
0.6
 50
0
  1
Ｓ＝１：３
  0
TEXT
  8
_0-7_枠細線
 62
    5
 10
1536.8
 20
239.24855752183862
 40
32
 41
0.6
 50
0
  1
排水ユニット ＳＵＳグレーチング 浅型
  0
LINE
  8
_0-0_計極細
  6
CENTER2
 62
    2
 10
1614.0037602689461
 20
1271.7591343356246
 11
1614.0037602689461
 21
696.00860119378581
  0
LINE
  8
_0-5_寸法線
  6
CONTINUOUS
 62
    7
 10
1570.8789673929275
 20
805.45958670532309
 11
1566.8064252853248
 21
789.98656499714332
  0
LINE
  8
_0-5_寸法線
  6
CONTINUOUS
 62
    7
 10
1570.8789673929275
 20
805.45958670532309
 11
1559.6155316156719
 21
794.09582788653267
  0
LINE
  8
_0-5_寸法線
  6
CONTINUOUS
 62
    7
 10
1570.8789673929275
 20
805.45958670532309
 11
1534.8172527336717
 21
742.35436257141282
  0
LINE
  8
_0-5_寸法線
  6
CONTINUOUS
 62
    7
 10
1534.8172527336717
 20
742.35436257141282
 11
1323.6172527336721
 21
742.35436257141282
  0
TEXT
  8
_0-5_寸法線
 62
    7
 10
1323.6172527336719
 20
742.4115119068174
 40
24
 41
0.7999999999999997
 50
0
  1
横引き排水トラップ一式
  0
LINE
  8
_0-5_寸法線
  6
CONTINUOUS
 62
    7
 10
1614.0037602689461
 20
722.5158903144802
 11
1614.0037602689461
 21
648.4636263144821
  0
LINE
  8
_0-5_寸法線
  6
CONTINUOUS
 62
    7
 10
1614.0037602689461
 20
656.4636263144821
 11
1629.4585734895711
 21
660.60473103612242
  0
LINE
  8
_0-5_寸法線
  6
CONTINUOUS
 62
    7
 10
1614.0037602689461
 20
656.4636263144821
 11
1629.4585734895711
 21
652.32252159284178
  0
LINE
  8
_0-5_寸法線
  6
CONTINUOUS
 62
    7
 10
1663.473144268946
 20
722.5158903144802
 11
1663.473144268946
 21
648.4636263144821
  0
LINE
  8
_0-5_寸法線
  6
CONTINUOUS
 62
    7
 10
1663.473144268946
 20
656.4636263144821
 11
1648.018331048321
 21
652.32252159284178
  0
LINE
  8
_0-5_寸法線
  6
CONTINUOUS
 62
    7
 10
1663.473144268946
 20
656.4636263144821
 11
1648.018331048321
 21
660.60473103612253
  0
LINE
  8
_0-5_寸法線
  6
CONTINUOUS
 62
    7
 10
1614.0037602689461
 20
656.4636263144821
 11
1663.473144268946
 21
656.4636263144821
  0
TEXT
  8
_0-5_寸法線
 62
    7
 10
1626.738452268946
 20
656.4636263144821
 40
24
 41
1
 50
0
  1
51
  0
LINE
  8
_0-5_寸法線
  6
CONTINUOUS
 62
    7
 10
1663.473144268946
 20
656.4636263144821
 11
1678.9279574895711
 21
660.6047310361223
  0
LINE
  8
_0-5_寸法線
  6
CONTINUOUS
 62
    7
 10
1663.473144268946
 20
656.4636263144821
 11
1678.9279574895711
 21
652.32252159284167
  0
LINE
  8
_0-5_寸法線
  6
CONTINUOUS
 62
    7
 10
1699.2282482689459
 20
723.39752231448074
 11
1699.2282482689459
 21
648.4636263144821
  0
LINE
  8
_0-5_寸法線
  6
CONTINUOUS
 62
    7
 10
1699.2282482689459
 20
656.4636263144821
 11
1683.7734350483208
 21
652.32252159284178
  0
LINE
  8
_0-5_寸法線
  6
CONTINUOUS
 62
    7
 10
1699.2282482689459
 20
656.4636263144821
 11
1683.7734350483208
 21
660.60473103612253
  0
LINE
  8
_0-5_寸法線
  6
CONTINUOUS
 62
    7
 10
1663.473144268946
 20
656.4636263144821
 11
1699.2282482689459
 21
656.4636263144821
  0
TEXT
  8
_0-5_寸法線
 62
    7
 10
1669.350696268946
 20
656.4636263144821
 40
24
 41
1
 50
0
  1
36
  0
LINE
  8
_0-5_寸法線
  6
CONTINUOUS
 62
    7
 10
1614.0037602689461
 20
722.5158903144802
 11
1614.0037602689451
 21
592.4636263144821
  0
LINE
  8
_0-5_寸法線
  6
CONTINUOUS
 62
    7
 10
1614.0037602689451
 20
600.4636263144821
 11
1629.4585734895702
 21
604.60473103612242
  0
LINE
  8
_0-5_寸法線
  6
CONTINUOUS
 62
    7
 10
1614.0037602689451
 20
600.4636263144821
 11
1629.4585734895702
 21
596.32252159284178
  0
LINE
  8
_0-5_寸法線
  6
CONTINUOUS
 62
    7
 10
1699.2282482689459
 20
722.5158903144802
 11
1699.228248268945
 21
592.4636263144821
  0
LINE
  8
_0-5_寸法線
  6
CONTINUOUS
 62
    7
 10
1699.228248268945
 20
600.4636263144821
 11
1683.7734350483199
 21
596.32252159284178
  0
LINE
  8
_0-5_寸法線
  6
CONTINUOUS
 62
    7
 10
1699.228248268945
 20
600.4636263144821
 11
1683.7734350483199
 21
604.60473103612253
  0
LINE
  8
_0-5_寸法線
  6
CONTINUOUS
 62
    7
 10
1614.0037602689451
 20
600.4636263144821
 11
1699.228248268945
 21
600.4636263144821
  0
TEXT
  8
_0-5_寸法線
 62
    7
 10
1644.6160042689451
 20
600.4636263144821
 40
24
 41
1
 50
0
  1
87
  0
LINE
  8
_0-5_寸法線
  6
CONTINUOUS
 62
    7
 10
1717.0037602689461
 20
738.03425831448112
 11
1845.0037602689461
 21
738.03425831448112
  0
LINE
  8
_0-5_寸法線
  6
CONTINUOUS
 62
    7
 10
1837.0037602689461
 20
738.03425831448112
 11
1832.8626555473058
 21
753.48907153510618
  0
LINE
  8
_0-5_寸法線
  6
CONTINUOUS
 62
    7
 10
1837.0037602689461
 20
738.03425831448112
 11
1841.1448649905865
 21
753.48907153510618
  0
LINE
  8
_0-5_寸法線
  6
CONTINUOUS
 62
    7
 10
1717.0037602689461
 20
793.03425831448112
 11
1845.0037602689461
 21
793.03425831448112
  0
LINE
  8
_0-5_寸法線
  6
CONTINUOUS
 62
    7
 10
1837.0037602689461
 20
793.03425831448112
 11
1841.1448649905865
 21
777.57944509385607
  0
LINE
  8
_0-5_寸法線
  6
CONTINUOUS
 62
    7
 10
1837.0037602689461
 20
793.03425831448112
 11
1832.8626555473058
 21
777.57944509385607
  0
LINE
  8
_0-5_寸法線
  6
CONTINUOUS
 62
    7
 10
1837.0037602689461
 20
738.03425831448112
 11
1837.0037602689461
 21
793.03425831448112
  0
TEXT
  8
_0-5_寸法線
 62
    7
 10
1837.0037602689461
 20
735.53425831448112
 40
24
 41
1
 50
90
  1
VU-50
  0
LINE
  8
_0-5_寸法線
  6
CONTINUOUS
 62
    7
 10
1717.0037602689461
 20
738.03425831448112
 11
1901.0037602689461
 21
738.03425831448112
  0
LINE
  8
_0-5_寸法線
  6
CONTINUOUS
 62
    7
 10
1893.0037602689461
 20
738.03425831448112
 11
1888.8626555473058
 21
753.48907153510618
  0
LINE
  8
_0-5_寸法線
  6
CONTINUOUS
 62
    7
 10
1893.0037602689461
 20
738.03425831448112
 11
1897.1448649905865
 21
753.48907153510618
  0
LINE
  8
_0-5_寸法線
  6
CONTINUOUS
 62
    7
 10
1698.7037602689468
 20
854.53425831448112
 11
1901.0037602689461
 21
854.53425831448112
  0
LINE
  8
_0-5_寸法線
  6
CONTINUOUS
 62
    7
 10
1893.0037602689461
 20
854.53425831448112
 11
1897.1448649905863
 21
839.07944509385607
  0
LINE
  8
_0-5_寸法線
  6
CONTINUOUS
 62
    7
 10
1893.0037602689461
 20
854.53425831448112
 11
1888.8626555473056
 21
839.07944509385607
  0
LINE
  8
_0-5_寸法線
  6
CONTINUOUS
 62
    7
 10
1893.0037602689461
 20
738.03425831448112
 11
1893.0037602689461
 21
854.53425831448112
  0
TEXT
  8
_0-5_寸法線
 62
    7
 10
1893.0037602689461
 20
766.28425831448203
 40
24
 41
1
 50
90
  1
116.5
  0
LINE
  8
_0-5_寸法線
  6
CONTINUOUS
 62
    7
 10
1710.0037602689461
 20
874.53425831448112
 11
1901.0037602689461
 21
874.53425831448112
  0
LINE
  8
_0-5_寸法線
  6
CONTINUOUS
 62
    7
 10
1893.0037602689461
 20
874.53425831448112
 11
1888.8626555473058
 21
889.98907153510618
  0
LINE
  8
_0-5_寸法線
  6
CONTINUOUS
 62
    7
 10
1893.0037602689461
 20
874.53425831448112
 11
1897.1448649905865
 21
889.98907153510618
  0
LINE
  8
_0-5_寸法線
  6
CONTINUOUS
 62
    7
 10
1893.0037602689461
 20
854.53425831448112
 11
1893.0037602689461
 21
914.53425831448112
  0
TEXT
  8
_0-5_寸法線
 62
    7
 10
1893.0037602689461
 20
885.23441478591303
 40
24
 41
1
 50
90
  1
20
  0
LINE
  8
_0-5_寸法線
  6
CONTINUOUS
 62
    7
 10
1717.0037602689461
 20
738.03425831448112
 11
1957.0037602689461
 21
738.03425831448112
  0
LINE
  8
_0-5_寸法線
  6
CONTINUOUS
 62
    7
 10
1949.0037602689461
 20
738.03425831448112
 11
1944.8626555473058
 21
753.48907153510618
  0
LINE
  8
_0-5_寸法線
  6
CONTINUOUS
 62
    7
 10
1949.0037602689461
 20
738.03425831448112
 11
1953.1448649905865
 21
753.48907153510618
  0
LINE
  8
_0-5_寸法線
  6
CONTINUOUS
 62
    7
 10
1710.0037602689461
 20
874.53425831448112
 11
1957.0037602689461
 21
874.53425831448112
  0
LINE
  8
_0-5_寸法線
  6
CONTINUOUS
 62
    7
 10
1949.0037602689461
 20
874.53425831448112
 11
1953.1448649905865
 21
859.07944509385607
  0
LINE
  8
_0-5_寸法線
  6
CONTINUOUS
 62
    7
 10
1949.0037602689461
 20
874.53425831448112
 11
1944.8626555473058
 21
859.07944509385607
  0
LINE
  8
_0-5_寸法線
  6
CONTINUOUS
 62
    7
 10
1949.0037602689461
 20
738.03425831448112
 11
1949.0037602689461
 21
874.53425831448112
  0
TEXT
  8
_0-5_寸法線
 62
    7
 10
1949.0037602689461
 20
776.28425831448203
 40
24
 41
1
 50
90
  1
136.5
  0
LINE
  8
_0-5_寸法線
  6
CONTINUOUS
 62
    7
 10
1717.0037602689461
 20
738.03425831448112
 11
1789.0037602689461
 21
738.03425831448112
  0
LINE
  8
_0-5_寸法線
  6
CONTINUOUS
 62
    7
 10
1781.0037602689461
 20
738.03425831448112
 11
1785.1448649905863
 21
722.57944509385607
  0
LINE
  8
_0-5_寸法線
  6
CONTINUOUS
 62
    7
 10
1781.0037602689461
 20
738.03425831448112
 11
1776.8626555473056
 21
722.57944509385607
  0
LINE
  8
_0-5_寸法線
  6
CONTINUOUS
 62
    7
 10
1717.0037602689461
 20
765.53425831448112
 11
1789.0037602689461
 21
765.53425831448112
  0
LINE
  8
_0-5_寸法線
  6
CONTINUOUS
 62
    7
 10
1781.0037602689461
 20
698.03425831448112
 11
1781.0037602689461
 21
765.53425831448112
  0
TEXT
  8
_0-5_寸法線
 62
    7
 10
1781.0037602689461
 20
695.9526874403291
 40
24
 41
1
 50
90
  1
28
  0
LINE
  8
_0-5_寸法線
  6
CONTINUOUS
 62
    7
 10
1781.0037602689461
 20
765.53425831448112
 11
1776.8626555473058
 21
780.98907153510618
  0
LINE
  8
_0-5_寸法線
  6
CONTINUOUS
 62
    7
 10
1781.0037602689461
 20
765.53425831448112
 11
1785.1448649905865
 21
780.98907153510618
  0
LINE
  8
_0-5_寸法線
  6
CONTINUOUS
 62
    7
 10
1698.7037602689468
 20
854.53425831448112
 11
1789.0037602689461
 21
854.53425831448112
  0
LINE
  8
_0-5_寸法線
  6
CONTINUOUS
 62
    7
 10
1781.0037602689461
 20
854.53425831448112
 11
1785.1448649905863
 21
839.07944509385607
  0
LINE
  8
_0-5_寸法線
  6
CONTINUOUS
 62
    7
 10
1781.0037602689461
 20
854.53425831448112
 11
1776.8626555473056
 21
839.07944509385607
  0
LINE
  8
_0-5_寸法線
  6
CONTINUOUS
 62
    7
 10
1781.0037602689461
 20
765.53425831448112
 11
1781.0037602689461
 21
854.53425831448112
  0
TEXT
  8
_0-5_寸法線
 62
    7
 10
1781.0037602689461
 20
781.48137653376943
 40
24
 41
1
 50
90
  1
88.5
  0
ARC
  8
_0-1_計細線
  6
CONTINUOUS
 62
    3
 10
1557.0037602689461
 20
852.03425831448021
 40
1.5
 50
179.99999999999983
 51
269.99999999999977
  0
LINE
  8
_0-1_計細線
  6
CONTINUOUS
 62
    3
 10
1555.5037602689461
 20
854.03425831448021
 11
1555.5037602689461
 21
852.03425831448021
  0
ARC
  8
_0-1_計細線
  6
CONTINUOUS
 62
    3
 10
1555.0037602689461
 20
854.03425831448021
 40
0.5
 50
0
 51
89.999999999999915
  0
LINE
  8
_0-1_計細線
  6
CONTINUOUS
 62
    3
 10
1557.0037602689461
 20
850.53425831448021
 11
1614.0037602689463
 21
850.53425831448021
  0
LINE
  8
_0-1_計細線
  6
CONTINUOUS
 62
    3
 10
1614.0037602689461
 20
829.55466631448144
 11
1562.0853922689473
 21
829.55466631448144
  0
LINE
  8
_0-1_計細線
  6
CONTINUOUS
 62
    3
 10
1614.0037602689461
 20
825.31290631448246
 11
1564.534368268947
 21
825.31290631448246
  0
ARC
  8
_0-1_計細線
  6
CONTINUOUS
 62
    3
 10
1559.6364082689449
 20
825.31290631448246
 40
4.8979599999999994
 50
0
 51
59.999999999989242
  0
LINE
  8
_0-1_計細線
  6
CONTINUOUS
 62
    3
 10
1562.0853922689473
 20
829.55466631448144
 11
1562.0853922689473
 21
847.18731431448214
  0
LINE
  8
_0-1_計細線
  6
CONTINUOUS
 62
    3
 10
1614.0037602689461
 20
847.18731431448214
 11
1558.2649842689459
 21
847.18731431448214
  0
LINE
  8
_0-1_計細線
  6
CONTINUOUS
 62
    3
 10
1665.9221282689466
 20
837.39140231448255
 11
1669.742536268948
 21
837.39140231448255
  0
ARC
  8
_0-1_計細線
  6
CONTINUOUS
 62
    3
 10
1668.3711042689463
 20
825.31290631448246
 40
4.8979599999999994
 50
119.99999999999233
 51
179.99999999999983
  0
LINE
  8
_0-1_計細線
  6
CONTINUOUS
 62
    3
 10
1665.9221282689466
 20
829.55466631448144
 11
1665.9221282689466
 21
837.39140231448255
  0
LINE
  8
_0-0_計極細
  6
CONTINUOUS
 62
    2
 10
1661.5139602689467
 20
832.49344231448231
 11
1661.5139602689467
 21
835.34117831448202
  0
LINE
  8
_0-0_計極細
  6
CONTINUOUS
 62
    2
 10
1662.9627762689468
 20
831.70977031448092
 11
1661.5139602689467
 21
832.49344231448231
  0
LINE
  8
_0-0_計極細
  6
CONTINUOUS
 62
    2
 10
1614.0037602689461
 20
831.70977031448092
 11
1638.4935442689473
 21
831.70977031448092
  0
LINE
  8
_0-0_計極細
  6
CONTINUOUS
 62
    2
 10
1669.742536268948
 20
851.10568231448087
 11
1662.9627762689468
 21
850.3220103144813
  0
ARC
  8
_0-0_計極細
  6
CONTINUOUS
 62
    2
 10
1651.473144268946
 20
825.63629831448088
 40
0.979592
 50
0
 51
89.999999999999915
  0
ARC
  8
_0-0_計極細
  6
CONTINUOUS
 62
    2
 10
1651.473144268946
 20
825.63629831448088
 40
0.979592
 50
89.999999999999915
 51
179.99999999999983
  0
LINE
  8
_0-0_計極細
  6
CONTINUOUS
 62
    2
 10
1651.473144268946
 20
826.61589031448239
 11
1640.4527362689457
 21
826.61589031448239
  0
LINE
  8
_0-0_計極細
  6
CONTINUOUS
 62
    2
 10
1640.9985282689465
 20
835.34117831448202
 11
1650.7367922689461
 21
835.34117831448202
  0
LINE
  8
_0-0_計極細
  6
CONTINUOUS
 62
    2
 10
1614.0037602689461
 20
852.48403431448241
 11
1662.9627762689468
 21
852.48403431448241
  0
LINE
  8
_0-0_計極細
  6
CONTINUOUS
 62
    2
 10
1653.4323282689454
 20
839.25954631448258
 11
1657.399672268946
 21
839.25954631448258
  0
LINE
  8
_0-0_計極細
  6
CONTINUOUS
 62
    2
 10
1660.2808722689458
 20
850.03505031448185
 11
1659.113960268947
 21
850.03505031448185
  0
LINE
  8
_0-0_計極細
  6
CONTINUOUS
 62
    2
 10
1657.399672268946
 20
837.98607431448181
 11
1657.399672268946
 21
848.32077031448171
  0
ARC
  8
_0-0_計極細
  6
CONTINUOUS
 62
    2
 10
1659.113960268947
 20
848.32077031448171
 40
1.714288
 50
89.999999999999915
 51
179.99999999999983
  0
ARC
  8
_0-0_計極細
  6
CONTINUOUS
 62
    2
 10
1662.9627762689468
 20
850.76974631448138
 40
1.714288
 50
89.999999999999915
 51
175.84901000001699
  0
ARC
  8
_0-0_計極細
  6
CONTINUOUS
 62
    2
 10
1660.2808722689458
 20
851.01464231448153
 40
0.979592
 50
269.99999999999977
 51
356.64911199995925
  0
LINE
  8
_0-0_計極細
  6
CONTINUOUS
 62
    2
 10
1663.0594642689482
 20
851.80517031448107
 11
1669.742536268948
 21
852.75704231448253
  0
ARC
  8
_0-0_計極細
  6
CONTINUOUS
 62
    2
 10
1662.9627762689468
 20
850.76974631448138
 40
1.0285679999999999
 50
89.999999999999915
 51
175.84901000002131
  0
ARC
  8
_0-0_計極細
  6
CONTINUOUS
 62
    2
 10
1660.2808722689458
 20
851.01464231448153
 40
1.6653040000000001
 50
269.99999999999977
 51
356.64911199998164
  0
LINE
  8
_0-0_計極細
  6
CONTINUOUS
 62
    2
 10
1660.2808722689458
 20
849.34933831448143
 11
1659.113960268947
 21
849.34933831448143
  0
ARC
  8
_0-0_計極細
  6
CONTINUOUS
 62
    2
 10
1659.113960268947
 20
848.32077031448171
 40
1.0285679999999999
 50
89.999999999999915
 51
179.99999999999983
  0
LINE
  8
_0-0_計極細
  6
CONTINUOUS
 62
    2
 10
1658.0853922689473
 20
837.30036231448139
 11
1658.0853922689473
 21
848.32077031448171
  0
LINE
  8
_0-0_計極細
  6
CONTINUOUS
 62
    2
 10
1662.9627762689468
 20
836.7899943144821
 11
1662.9627762689468
 21
851.79140231448218
  0
LINE
  8
_0-0_計極細
  6
CONTINUOUS
 62
    2
 10
1662.9627762689468
 20
836.7899943144821
 11
1661.5139602689467
 21
835.34117831448202
  0
LINE
  8
_0-0_計極細
  6
CONTINUOUS
 62
    2
 10
1656.1262082689479
 20
833.38199431448265
 11
1656.1262082689479
 21
839.25954631448258
  0
LINE
  8
_0-0_計極細
  6
CONTINUOUS
 62
    2
 10
1653.9221282689466
 20
835.43989831448198
 11
1653.9221282689466
 21
839.25954631448258
  0
LINE
  8
_0-0_計極細
  6
CONTINUOUS
 62
    2
 10
1656.1262082689479
 20
837.30036231448139
 11
1658.0853922689473
 21
837.30036231448139
  0
LINE
  8
_0-0_計極細
  6
CONTINUOUS
 62
    2
 10
1656.1262082689479
 20
837.98607431448181
 11
1657.399672268946
 21
837.98607431448181
  0
LINE
  8
_0-0_計極細
  6
CONTINUOUS
 62
    2
 10
1655.3129682689466
 20
833.38199431448265
 11
1656.1262082689479
 21
833.38199431448265
  0
LINE
  8
_0-0_計極細
  6
CONTINUOUS
 62
    2
 10
1656.1262082689479
 20
835.34117831448202
 11
1661.5139602689467
 21
835.34117831448202
  0
LINE
  8
_0-0_計極細
  6
CONTINUOUS
 62
    2
 10
1643.1821842689476
 20
833.67587431448192
 11
1648.080144268946
 21
833.67587431448192
  0
LINE
  8
_0-0_計極細
  6
CONTINUOUS
 62
    2
 10
1643.1821842689476
 20
833.67587431448192
 11
1643.1821842689476
 21
835.34117831448202
  0
LINE
  8
_0-0_計極細
  6
CONTINUOUS
 62
    2
 10
1648.080144268946
 20
833.67587431448192
 11
1648.080144268946
 21
835.34117831448202
  0
LINE
  8
_0-0_計極細
  6
CONTINUOUS
 62
    2
 10
1644.6515762689467
 20
833.67587431448192
 11
1644.6515762689467
 21
835.34117831448202
  0
LINE
  8
_0-0_計極細
  6
CONTINUOUS
 62
    2
 10
1657.399672268946
 20
850.03505031448185
 11
1659.3098802689472
 21
850.03505031448185
  0
LINE
  8
_0-0_計極細
  6
CONTINUOUS
 62
    2
 10
1657.399672268946
 20
847.09628231448187
 11
1657.399672268946
 21
850.03505031448185
  0
LINE
  8
_0-0_計極細
  6
CONTINUOUS
 62
    2
 10
1656.3221282689462
 20
846.60648231448249
 11
1656.3221282689462
 21
847.58607431448218
  0
ARC
  8
_0-0_計極細
  6
CONTINUOUS
 62
    2
 10
1656.9098802689457
 20
847.09628231448187
 40
0.489792
 50
269.99999999999977
 51
359.99999999999966
  0
LINE
  8
_0-0_計極細
  6
CONTINUOUS
 62
    2
 10
1614.1996722689471
 20
847.58607431448218
 11
1656.3221282689462
 21
847.58607431448218
  0
LINE
  8
_0-0_計極細
  6
CONTINUOUS
 62
    2
 10
1614.1996722689471
 20
846.60648231448249
 11
1656.9098802689457
 21
846.60648231448249
  0
LINE
  8
_0-0_計極細
  6
CONTINUOUS
 62
    2
 10
1614.0037602689461
 20
845.53491431448128
 11
1657.2527362689468
 21
845.53491431448128
  0
LINE
  8
_0-0_計極細
  6
CONTINUOUS
 62
    2
 10
1652.9425362689469
 20
845.53491431448128
 11
1652.9425362689469
 21
845.04512231448098
  0
LINE
  8
_0-0_計極細
  6
CONTINUOUS
 62
    2
 10
1656.4690642689472
 20
844.06553031448129
 11
1657.2527362689468
 21
845.53491431448128
  0
LINE
  8
_0-0_計極細
  6
CONTINUOUS
 62
    2
 10
1652.4527362689457
 20
842.30226631448204
 11
1652.9425362689469
 21
842.79205831448235
  0
LINE
  8
_0-0_計極細
  6
CONTINUOUS
 62
    2
 10
1652.9425362689469
 20
841.81246631448084
 11
1652.4527362689457
 21
842.30226631448204
  0
LINE
  8
_0-0_計極細
  6
CONTINUOUS
 62
    2
 10
1652.9425362689469
 20
844.06553031448129
 11
1652.4527362689457
 21
844.5553223144816
  0
LINE
  8
_0-0_計極細
  6
CONTINUOUS
 62
    2
 10
1652.4527362689457
 20
844.5553223144816
 11
1652.9425362689469
 21
845.04512231448098
  0
LINE
  8
_0-0_計極細
  6
CONTINUOUS
 62
    2
 10
1614.0037602689461
 20
844.5553223144816
 11
1652.4527362689457
 21
844.5553223144816
  0
LINE
  8
_0-0_計極細
  6
CONTINUOUS
 62
    2
 10
1614.0037602689461
 20
842.30226631448204
 11
1652.4527362689457
 21
842.30226631448204
  0
LINE
  8
_0-0_計極細
  6
CONTINUOUS
 62
    2
 10
1614.0037602689461
 20
841.32267431448236
 11
1656.4690642689472
 21
841.32267431448236
  0
LINE
  8
_0-0_計極細
  6
CONTINUOUS
 62
    2
 10
1656.4690642689472
 20
844.06553031448129
 11
1656.4690642689472
 21
841.32267431448236
  0
LINE
  8
_0-0_計極細
  6
CONTINUOUS
 62
    2
 10
1652.9425362689469
 20
841.81246631448084
 11
1652.9425362689469
 21
841.32267431448236
  0
LINE
  8
_0-0_計極細
  6
CONTINUOUS
 62
    2
 10
1652.9425362689469
 20
844.06553031448129
 11
1652.9425362689469
 21
842.79205831448235
  0
ARC
  8
_0-0_計極細
  6
CONTINUOUS
 62
    2
 10
1646.3302882689475
 20
832.86773031448138
 40
5.8775519999999997
 50
55.166294000021374
 51
179.99999999999983
  0
ARC
  8
_0-0_計極細
  6
CONTINUOUS
 62
    2
 10
1647.7996722689475
 20
835.43989831448198
 40
2.9387759999999998
 50
0
 51
50.029503000032648
  0
LINE
  8
_0-0_計極細
  6
CONTINUOUS
 62
    2
 10
1650.7384482689465
 20
832.50112231448111
 11
1650.7384482689465
 21
835.43989831448198
  0
LINE
  8
_0-0_計極細
  6
CONTINUOUS
 62
    2
 10
1653.6772242689456
 20
832.50112231448111
 11
1650.7384482689465
 21
832.50112231448111
  0
ARC
  8
_0-0_計極細
  6
CONTINUOUS
 62
    2
 10
1653.6772242689456
 20
834.4603063144823
 40
1.959184
 50
269.99999999999977
 51
359.99999999999966
  0
LINE
  8
_0-0_計極細
  6
CONTINUOUS
 62
    2
 10
1655.6364082689468
 20
834.4603063144823
 11
1655.6364082689468
 21
835.43989831448198
  0
LINE
  8
_0-0_計極細
  6
CONTINUOUS
 62
    2
 10
1655.6364082689468
 20
835.43989831448198
 11
1653.4323282689454
 21
835.43989831448198
  0
LINE
  8
_0-0_計極細
  6
CONTINUOUS
 62
    2
 10
1656.6160002689464
 20
839.75010631448095
 11
1614.0037602689461
 21
839.75010631448095
  0
LINE
  8
_0-0_計極細
  6
CONTINUOUS
 62
    2
 10
1656.6160002689464
 20
839.75010631448095
 11
1656.6160002689464
 21
841.21949031448094
  0
LINE
  8
_0-0_計極細
  6
CONTINUOUS
 62
    2
 10
1656.6160002689464
 20
841.21949031448094
 11
1614.0037602689461
 21
841.21949031448094
  0
LINE
  8
_0-0_計極細
  6
CONTINUOUS
 62
    2
 10
1656.6160002689464
 20
845.72561031448095
 11
1614.0037602689461
 21
845.72561031448095
  0
LINE
  8
_0-0_計極細
  6
CONTINUOUS
 62
    2
 10
1656.6160002689464
 20
845.72561031448095
 11
1656.6160002689464
 21
846.60648231448249
  0
LINE
  8
_0-0_計極細
  6
CONTINUOUS
 62
    2
 10
1653.4323282689454
 20
835.43989831448198
 11
1653.4323282689454
 21
839.75010631448095
  0
LINE
  8
_0-0_計極細
  6
CONTINUOUS
 62
    2
 10
1640.4527362689457
 20
832.49344231448231
 11
1661.5139602689467
 21
832.49344231448231
  0
LINE
  8
_0-0_計極細
  6
CONTINUOUS
 62
    2
 10
1640.4527362689457
 20
831.70977031448092
 11
1662.9627762689468
 21
831.70977031448092
  0
LINE
  8
_0-0_計極細
  6
CONTINUOUS
 62
    2
 10
1614.0037602689461
 20
853.4636263144821
 11
1669.742536268948
 21
853.4636263144821
  0
LINE
  8
_0-1_計細線
  6
CONTINUOUS
 62
    3
 10
1669.742536268948
 20
837.39140231448255
 11
1669.742536268948
 21
853.4636263144821
  0
LINE
  8
_0-0_計極細
  6
CONTINUOUS
 62
    2
 10
1662.9627762689468
 20
852.48403431448241
 11
1669.742536268948
 21
853.44967501852989
  0
LINE
  8
_0-0_計極細
  6
CONTINUOUS
 62
    2
 10
1652.4527362689457
 20
768.87019431448061
 11
1652.4527362689457
 21
795.31917031448029
  0
LINE
  8
_0-0_計極細
  6
CONTINUOUS
 62
    2
 10
1640.6976322689459
 20
757.11509031448077
 11
1638.4935522689464
 21
757.11509031448077
  0
ARC
  8
_0-0_計極細
  6
CONTINUOUS
 62
    2
 10
1640.6976322689459
 20
768.87019431448061
 40
11.755103999999999
 50
269.99999999999977
 51
359.99999999999966
  0
LINE
  8
_0-0_計極細
  6
CONTINUOUS
 62
    2
 10
1661.0241682689464
 20
802.24261031448077
 11
1661.0241682689464
 21
831.70977031448092
  0
LINE
  8
_0-0_計極細
  6
CONTINUOUS
 62
    2
 10
1614.0037602689461
 20
757.11509031448077
 11
1640.6976322689459
 21
757.11509031448077
  0
LINE
  8
_0-0_計極細
  6
CONTINUOUS
 62
    2
 10
1652.4527362689457
 20
768.87019431448061
 11
1652.4527362689457
 21
825.63629831448088
  0
LINE
  8
_0-0_計極細
  6
CONTINUOUS
 62
    2
 10
1650.4935522689464
 20
768.87019431448061
 11
1650.4935522689464
 21
825.63629831448088
  0
LINE
  8
_0-0_計極細
  6
CONTINUOUS
 62
    2
 10
1614.0037602689461
 20
759.07427431448014
 11
1640.6976322689459
 21
759.07427431448014
  0
ARC
  8
_0-0_計極細
  6
CONTINUOUS
 62
    2
 10
1640.6976322689459
 20
768.87019431448061
 40
9.7959199999999989
 50
269.99999999999977
 51
359.99999999999966
  0
LINE
  8
_0-0_計極細
  6
CONTINUOUS
 62
    2
 10
1639.473144268946
 20
775.93093831448095
 11
1614.0037602689461
 21
775.93093831448095
  0
ARC
  8
_0-0_計極細
  6
CONTINUOUS
 62
    2
 10
1639.473144268946
 20
776.91053031448064
 40
0.979592
 50
269.99999999999977
 51
359.99999999999966
  0
LINE
  8
_0-0_計極細
  6
CONTINUOUS
 62
    2
 10
1640.4527362689457
 20
776.91053031448064
 11
1640.4527362689457
 21
832.86773031448138
  0
LINE
  8
_0-0_計極細
  6
CONTINUOUS
 62
    2
 10
1638.4935442689473
 20
776.91053031448064
 11
1638.4935442689473
 21
831.70977031448092
  0
ARC
  8
_0-0_計極細
  6
CONTINUOUS
 62
    2
 10
1639.473136268947
 20
776.91053031448064
 40
0.979592
 50
179.99999999999983
 51
269.99999999999977
  0
LINE
  8
_0-0_計極細
  6
CONTINUOUS
 62
    2
 10
1661.0965442689464
 20
802.24261031448077
 11
1655.4638882689467
 21
802.24261031448077
  0
ARC
  8
_0-0_計極細
  6
CONTINUOUS
 62
    2
 10
1655.4638882689467
 20
799.3038343144799
 40
2.9387759999999998
 50
89.999999999999915
 51
179.99999999999983
  0
LINE
  8
_0-0_計極細
  6
CONTINUOUS
 62
    2
 10
1640.4444402689458
 20
776.78340231448055
 11
1640.4444562689475
 21
776.78341031448144
  0
LINE
  8
_0-0_計極細
  6
CENTER1
 62
    2
 10
1589.662941110282
 20
765.53425831448112
 11
1720.0143485176866
 21
765.53425831448112
  0
LINE
  8
_0-1_計細線
  6
CONTINUOUS
 62
    3
 10
1572.534368268947
 20
736.4636263144821
 11
1665.534368268947
 21
736.4636263144821
  0
LINE
  8
_0-1_計細線
  6
CONTINUOUS
 62
    3
 10
1564.534368268947
 20
744.4636263144821
 11
1564.534368268947
 21
825.31290631448246
  0
ARC
  8
_0-1_計細線
  6
CONTINUOUS
 62
    3
 10
1572.534368268947
 20
744.4636263144821
 40
8
 50
179.99999999999983
 51
269.99999999999977
  0
LINE
  8
_0-1_計細線
  6
CONTINUOUS
 62
    3
 10
1665.534368268947
 20
736.4636263144821
 11
1701.0037602689461
 21
738.03425831448112
  0
LINE
  8
_0-0_計極細
  6
CONTINUOUS
 62
    2
 10
1652.5251122689458
 20
792.26984602759694
 11
1701.0037602689461
 21
791.07448347078753
  0
LINE
  8
_0-1_計細線
  6
CONTINUOUS
 62
    3
 10
1701.0037602689461
 20
738.03425831448112
 11
1701.0037602689461
 21
793.03425831448112
  0
LINE
  8
_0-1_計細線
  6
CONTINUOUS
 62
    3
 10
1663.473144268946
 20
793.95967002759789
 11
1701.0037602689461
 21
793.03425831448112
  0
LINE
  8
_0-1_計細線
  6
CONTINUOUS
 62
    3
 10
1663.473144268946
 20
793.95967002759789
 11
1663.473144268946
 21
825.31290631448246
  0
LINE
  8
_0-0_計極細
  6
CONTINUOUS
 62
    2
 10
1663.8621465337799
 20
738.42362631448304
 11
1701.0037602689461
 21
739.99617901848069
  0
LINE
  8
_0-1_計細線
  6
CONTINUOUS
 62
    3
 10
1558.2649842689459
 20
847.18731431448214
 11
1558.2649842689459
 21
850.53425831448044
  0
LINE
  8
_0-a_極細1
  6
CONTINUOUS
 62
    7
 10
699.06013634568831
 20
623.22851346008292
 11
718.26013442568933
 21
623.22851346008292
  0
LINE
  8
_0-a_極細1
  6
CONTINUOUS
 62
    7
 10
699.06013634568831
 20
624.29518002008308
 11
718.26013442568933
 21
624.29518002008308
  0
LINE
  8
_0-a_極細1
  6
CONTINUOUS
 62
    7
 10
698.88826045296105
 20
625.36184658008278
 11
718.26013442568933
 21
625.36184658008278
  0
LINE
  8
_0-a_極細1
  6
CONTINUOUS
 62
    7
 10
697.82159389296089
 20
626.42851314008294
 11
718.26013442568933
 21
626.42851314008294
  0
LINE
  8
_0-a_極細1
  6
CONTINUOUS
 62
    7
 10
696.75492733296073
 20
627.49517970008287
 11
718.26013442568933
 21
627.49517970008287
  0
LINE
  8
_0-a_極細1
  6
CONTINUOUS
 62
    7
 10
697.09867911841525
 20
628.56184626008303
 11
718.26013442568933
 21
628.56184626008303
  0
LINE
  8
_0-a_極細1
  6
CONTINUOUS
 62
    7
 10
698.16534567841541
 20
629.62851282008319
 11
718.26013442568933
 21
629.62851282008319
  0
LINE
  8
_0-a_極細1
  6
CONTINUOUS
 62
    7
 10
699.06013634568831
 20
630.69517938008312
 11
718.26013442568933
 21
630.69517938008312
  0
LINE
  8
_0-a_極細1
  6
CONTINUOUS
 62
    7
 10
699.06013634568831
 20
631.76184594008328
 11
718.26013442568933
 21
631.76184594008328
  0
LINE
  8
_0-a_極細1
  6
CONTINUOUS
 62
    7
 10
699.06013634568831
 20
632.82851250008343
 11
718.26013442568933
 21
632.82851250008343
  0
LINE
  8
_0-a_極細1
  6
CONTINUOUS
 62
    7
 10
699.06013634568831
 20
633.89517906008314
 11
718.26013442568933
 21
633.89517906008314
  0
LINE
  8
_0-a_極細1
  6
CONTINUOUS
 62
    7
 10
699.06013634568831
 20
634.9618456200833
 11
718.26013442568933
 21
634.9618456200833
  0
LINE
  8
_0-a_極細1
  6
CONTINUOUS
 62
    7
 10
699.06013634568831
 20
636.02851218008345
 11
718.26013442568933
 21
636.02851218008345
  0
LINE
  8
_0-a_極細1
  6
CONTINUOUS
 62
    7
 10
699.06013634568831
 20
637.09517874008316
 11
718.26013442568933
 21
637.09517874008316
  0
LINE
  8
_0-a_極細1
  6
CONTINUOUS
 62
    7
 10
698.35492717296006
 20
638.16184530008331
 11
718.63624598447745
 21
638.16184530008331
  0
LINE
  8
_0-a_極細1
  6
CONTINUOUS
 62
    7
 10
697.2882606129599
 20
639.22851186008347
 11
719.20513481647708
 21
639.22851186008347
  0
LINE
  8
_0-a_極細1
  6
CONTINUOUS
 62
    7
 10
696.56534583841608
 20
640.29517842008363
 11
719.77402364847717
 21
640.29517842008363
  0
LINE
  8
_0-a_極細1
  6
CONTINUOUS
 62
    7
 10
697.63201239841624
 20
641.36184498008333
 11
720.34291248047725
 21
641.36184498008333
  0
LINE
  8
_0-a_極細1
  6
CONTINUOUS
 62
    7
 10
698.69867895841594
 20
642.42851154008395
 11
720.91180131247734
 21
642.42851154008395
  0
LINE
  8
_0-a_極細1
  6
CONTINUOUS
 62
    7
 10
699.06013634568831
 20
643.49517810008342
 11
721.48069014447742
 21
643.49517810008342
  0
LINE
  8
_0-a_極細1
  6
CONTINUOUS
 62
    7
 10
699.06013634568831
 20
644.56184466008358
 11
722.0495789764766
 21
644.56184466008358
  0
LINE
  8
_0-a_極細1
  6
CONTINUOUS
 62
    7
 10
752.96982263029736
 20
597.20041182855653
 11
752.96982263029736
 21
679.52011238149089
  0
LINE
  8
_0-a_極細1
  6
CONTINUOUS
 62
    7
 10
751.90315607029765
 20
596.13374526855659
 11
751.90315607029765
 21
679.2893841279456
  0
LINE
  8
_0-a_極細1
  6
CONTINUOUS
 62
    7
 10
750.83648951029795
 20
595.06707870855689
 11
750.83648951029795
 21
678.81958009889036
  0
LINE
  8
_0-a_極細1
  6
CONTINUOUS
 62
    7
 10
749.76982295029779
 20
594.00041214855673
 11
749.76982295029779
 21
678.02876269289891
  0
LINE
  8
_0-a_極細1
  6
CONTINUOUS
 62
    7
 10
748.70315639029764
 20
592.93374558855703
 11
748.70315639029764
 21
676.64731869320303
  0
LINE
  8
_0-a_極細1
  6
CONTINUOUS
 62
    7
 10
747.63648983029748
 20
591.86707902855687
 11
747.63648983029748
 21
672.48973196209135
  0
LINE
  8
_0-a_極細1
  6
CONTINUOUS
 62
    7
 10
746.56982327029732
 20
590.80041246855671
 11
746.56982327029732
 21
670.2803438566998
  0
LINE
  8
_0-a_極細1
  6
CONTINUOUS
 62
    7
 10
745.50315671029716
 20
589.95738754394779
 11
745.50315671029716
 21
668.95931924637239
  0
LINE
  8
_0-a_極細1
  6
CONTINUOUS
 62
    7
 10
744.436490150297
 20
589.95738754394779
 11
744.436490150297
 21
668.02478297231255
  0
LINE
  8
_0-a_極細1
  6
CONTINUOUS
 62
    7
 10
743.36982359029685
 20
589.95738754394779
 11
743.36982359029685
 21
667.33927438526871
  0
LINE
  8
_0-a_極細1
  6
CONTINUOUS
 62
    7
 10
742.30315703029669
 20
589.95738754394779
 11
742.30315703029669
 21
666.84195820576815
  0
LINE
  8
_0-a_極細1
  6
CONTINUOUS
 62
    7
 10
741.23649047029744
 20
589.95738754394779
 11
741.23649047029744
 21
666.50083337642809
  0
LINE
  8
_0-a_極細1
  6
CONTINUOUS
 62
    7
 10
740.16982391029728
 20
589.95738754394779
 11
740.16982391029728
 21
666.29810744106044
  0
LINE
  8
_0-a_極細1
  6
CONTINUOUS
 62
    7
 10
739.10315735029712
 20
589.95738754394779
 11
739.10315735029712
 21
666.2244916034856
  0
LINE
  8
_0-a_極細1
  6
CONTINUOUS
 62
    7
 10
738.03649079029697
 20
589.95738754394779
 11
738.03649079029697
 21
666.22404658394817
  0
LINE
  8
_0-a_極細1
  6
CONTINUOUS
 62
    7
 10
736.96982423029681
 20
589.95738754394779
 11
736.96982423029681
 21
666.22404658394817
  0
LINE
  8
_0-a_極細1
  6
CONTINUOUS
 62
    7
 10
735.90315767029711
 20
589.95738754394779
 11
735.90315767029711
 21
666.22404658394817
  0
LINE
  8
_0-a_極細1
  6
CONTINUOUS
 62
    7
 10
734.83649111029695
 20
589.95738754394779
 11
734.83649111029695
 21
666.22404658394817
  0
LINE
  8
_0-a_極細1
  6
CONTINUOUS
 62
    7
 10
733.76982455029679
 20
589.95738754394779
 11
733.76982455029679
 21
666.22404658394817
  0
LINE
  8
_0-a_極細1
  6
CONTINUOUS
 62
    7
 10
732.70315799029709
 20
589.95738754394779
 11
732.70315799029709
 21
666.22404658394817
  0
LINE
  8
_0-a_極細1
  6
CONTINUOUS
 62
    7
 10
731.63649143029693
 20
589.95738754394779
 11
731.63649143029693
 21
666.12969439872859
  0
LINE
  8
_0-a_極細1
  6
CONTINUOUS
 62
    7
 10
730.56982487029677
 20
589.95738754394779
 11
730.56982487029677
 21
665.8192955221034
  0
LINE
  8
_0-a_極細1
  6
CONTINUOUS
 62
    7
 10
729.50315831029661
 20
589.95738754394779
 11
729.50315831029661
 21
665.24935844449146
  0
LINE
  8
_0-a_極細1
  6
CONTINUOUS
 62
    7
 10
728.43649175029736
 20
589.95738754394779
 11
728.43649175029736
 21
664.30111777730508
  0
LINE
  8
_0-a_極細1
  6
CONTINUOUS
 62
    7
 10
727.3698251902963
 20
589.95738754394779
 11
727.3698251902963
 21
662.46052125430742
  0
LINE
  8
_0-a_極細1
  6
CONTINUOUS
 62
    7
 10
726.30315863029705
 20
589.95738754394779
 11
726.30315863029705
 21
600.62405314394755
  0
LINE
  8
_0-a_極細1
  6
CONTINUOUS
 62
    7
 10
725.23649207029689
 20
589.95738754394779
 11
725.23649207029689
 21
600.62405314394755
  0
LINE
  8
_0-a_極細1
  6
CONTINUOUS
 62
    7
 10
724.16982551029673
 20
589.95738754394779
 11
724.16982551029673
 21
600.62405314394755
  0
LINE
  8
_0-a_極細1
  6
CONTINUOUS
 62
    7
 10
723.10315895029657
 20
589.95738754394779
 11
723.10315895029657
 21
600.62405314394755
  0
LINE
  8
_0-a_極細1
  6
CONTINUOUS
 62
    7
 10
722.03649239029687
 20
589.95738754394779
 11
722.03649239029687
 21
600.62405314394755
  0
LINE
  8
_0-a_極細1
  6
CONTINUOUS
 62
    7
 10
720.96982583029626
 20
589.95738754394779
 11
720.96982583029626
 21
600.62405314394755
  0
LINE
  8
_0-a_極細1
  6
CONTINUOUS
 62
    7
 10
719.90315927029656
 20
589.95738754394779
 11
719.90315927029656
 21
600.62405314394755
  0
LINE
  8
_0-a_極細1
  6
CONTINUOUS
 62
    7
 10
718.83649271029685
 20
589.95738754394779
 11
718.83649271029685
 21
600.62405314394755
  0
LINE
  8
_0-a_極細1
  6
CONTINUOUS
 62
    7
 10
717.76982615029624
 20
589.95738754394779
 11
717.76982615029624
 21
600.62405314394755
  0
LINE
  8
_0-a_極細1
  6
CONTINUOUS
 62
    7
 10
716.70315959029654
 20
589.95738754394779
 11
716.70315959029654
 21
600.62405314394755
  0
LINE
  8
_0-a_極細1
  6
CONTINUOUS
 62
    7
 10
715.63649303029774
 20
579.29072194394712
 11
715.63649303029774
 21
611.29071874394776
  0
LINE
  8
_0-a_極細1
  6
CONTINUOUS
 62
    7
 10
714.56982647029758
 20
579.29072194394712
 11
714.56982647029758
 21
611.29071874394776
  0
LINE
  8
_0-a_極細1
  6
CONTINUOUS
 62
    7
 10
713.50315991029788
 20
579.29072194394712
 11
713.50315991029788
 21
582.98875519557123
  0
LINE
  8
_0-a_極細1
  6
CONTINUOUS
 62
    7
 10
713.50315991029788
 20
590.49487549019887
 11
713.50315991029788
 21
611.29071874394776
  0
LINE
  8
_0-a_極細1
  6
CONTINUOUS
 62
    7
 10
712.43649335029772
 20
579.29072194394712
 11
712.43649335029772
 21
580.07610496634061
  0
LINE
  8
_0-a_極細1
  6
CONTINUOUS
 62
    7
 10
712.43649335029772
 20
590.49487549019887
 11
712.43649335029772
 21
611.29071874394776
  0
LINE
  8
_0-a_極細1
  6
CONTINUOUS
 62
    7
 10
711.36982679029757
 20
590.49487549019887
 11
711.36982679029757
 21
611.29071874394776
  0
LINE
  8
_0-a_極細1
  6
CONTINUOUS
 62
    7
 10
710.30316023029741
 20
590.49487549019887
 11
710.30316023029741
 21
611.29071874394776
  0
LINE
  8
_0-a_極細1
  6
CONTINUOUS
 62
    7
 10
709.23649367029725
 20
590.49487549019887
 11
709.23649367029725
 21
611.29071874394776
  0
LINE
  8
_0-a_極細1
  6
CONTINUOUS
 62
    7
 10
708.16982711029709
 20
590.49487549019887
 11
708.16982711029709
 21
611.29071874394776
  0
LINE
  8
_0-a_極細1
  6
CONTINUOUS
 62
    7
 10
707.10316055029784
 20
590.49487549019887
 11
707.10316055029784
 21
611.29071874394776
  0
LINE
  8
_0-a_極細1
  6
CONTINUOUS
 62
    7
 10
706.03649399029769
 20
590.49487549019887
 11
706.03649399029769
 21
611.29071874394776
  0
LINE
  8
_0-a_極細1
  6
CONTINUOUS
 62
    7
 10
704.96982743029753
 20
590.49487549019887
 11
704.96982743029753
 21
611.29071874394776
  0
LINE
  8
_0-a_極細1
  6
CONTINUOUS
 62
    7
 10
703.90316087029737
 20
590.49487549019887
 11
703.90316087029737
 21
611.29071874394776
  0
LINE
  8
_0-a_極細1
  6
CONTINUOUS
 62
    7
 10
702.83649431029721
 20
590.49487549019887
 11
702.83649431029721
 21
611.29071874394776
  0
LINE
  8
_0-a_極細1
  6
CONTINUOUS
 62
    7
 10
701.76982775029705
 20
590.49487549019887
 11
701.76982775029705
 21
611.29071874394776
  0
LINE
  8
_0-a_極細1
  6
CONTINUOUS
 62
    7
 10
687.06013754568835
 20
574.49487709019922
 11
687.06013754568835
 21
589.95738754394779
  0
ARC
  8
_0-a_極細1
  6
CONTINUOUS
 62
    7
 10
671.06013914568871
 20
590.49487549019887
 40
15.999998399999999
 50
358.07490068720563
 51
50.029499419965092
  0
LINE
  8
_0-a_極細1
  6
CONTINUOUS
 62
    7
 10
753.61479755688856
 20
672.29517522008291
 11
760.32358671165889
 21
672.29517522008291
  0
LINE
  8
_0-a_極細1
  6
CONTINUOUS
 62
    7
 10
753.61479755688856
 20
673.36184178008307
 11
769.5515857888588
 21
673.36184178008307
  0
LINE
  8
_0-a_極細1
  6
CONTINUOUS
 62
    7
 10
753.61479755688856
 20
674.42850834008277
 11
778.77958486605826
 21
674.42850834008277
  0
LINE
  8
_0-a_極細1
  6
CONTINUOUS
 62
    7
 10
753.61479755688856
 20
675.49517490008293
 11
788.00758394325862
 21
675.49517490008293
  0
LINE
  8
_0-a_極細1
  6
CONTINUOUS
 62
    7
 10
753.61479755688856
 20
676.56184146008286
 11
790.52679386568821
 21
676.56184146008286
  0
LINE
  8
_0-a_極細1
  6
CONTINUOUS
 62
    7
 10
753.61479755688856
 20
677.62850802008302
 11
790.52679386568821
 21
677.62850802008302
  0
LINE
  8
_0-a_極細1
  6
CONTINUOUS
 62
    7
 10
753.61479755688856
 20
678.69517458008318
 11
790.52679386568821
 21
678.69517458008318
  0
LINE
  8
_0-a_極細1
  6
CONTINUOUS
 62
    7
 10
755.31486250949388
 20
679.76184114008311
 11
790.52679386568821
 21
679.76184114008311
  0
LINE
  8
_0-a_極細1
  6
CONTINUOUS
 62
    7
 10
762.80392438869444
 20
680.82850770008326
 11
790.52679386568821
 21
680.82850770008326
  0
LINE
  8
_0-a_極細1
  6
CONTINUOUS
 62
    7
 10
770.29298626789409
 20
681.89517426008342
 11
790.52679386568821
 21
681.89517426008342
  0
LINE
  8
_0-a_極細1
  6
CONTINUOUS
 62
    7
 10
777.7820481470942
 20
682.96184082008358
 11
790.52679386568821
 21
682.96184082008358
  0
LINE
  8
_0-a_極細1
  6
CONTINUOUS
 62
    7
 10
785.27111002629385
 20
684.02850738008328
 11
790.52679386568821
 21
684.02850738008328
  0
LINE
  8
_0-a_極細1
  6
CONTINUOUS
 62
    7
 10
790.52679386568821
 20
684.85303672104874
 11
790.52679386568821
 21
688.54808176311872
  0
LINE
  8
_0-a_極細1
  6
CONTINUOUS
 62
    7
 10
753.61479755688856
 20
683.29071154394796
 11
790.52679386568821
 21
688.54808176311872
  0
LINE
  8
_0-a_極細1
  6
CONTINUOUS
 62
    7
 10
719.06013434568808
 20
646.49486989019942
 11
719.06013434568808
 21
651.29071474394777
  0
LINE
  8
_0-a_極細1
  6
CONTINUOUS
 62
    7
 10
719.06013434568808
 20
613.9615398101987
 11
719.06013434568808
 21
621.96153901019852
  0
LINE
  8
_0-a_極細1
  6
CONTINUOUS
 62
    7
 10
699.06013634568831
 20
637.45663612735552
 11
699.06013634568831
 21
630.52330348735586
  0
LINE
  8
_0-a_極細1
  6
CONTINUOUS
 62
    7
 10
699.06013634568831
 20
625.1899706873553
 11
699.06013634568831
 21
622.52330428735604
  0
LINE
  8
_0-a_極細1
  6
CONTINUOUS
 62
    7
 10
718.26013442568933
 20
637.45663612735552
 11
718.26013442568933
 21
622.52330428735604
  0
LINE
  8
_0-a_極細1
  6
CONTINUOUS
 62
    7
 10
696.39346994568837
 20
640.12330252735569
 11
699.06013634568831
 21
642.78996892735586
  0
LINE
  8
_0-a_極細1
  6
CONTINUOUS
 62
    7
 10
699.06013634568831
 20
637.45663612735552
 11
696.39346994568837
 21
640.12330252735569
  0
LINE
  8
_0-a_極細1
  6
CONTINUOUS
 62
    7
 10
699.06013634568831
 20
625.1899706873553
 11
696.39346994568837
 21
627.85663708735569
  0
LINE
  8
_0-a_極細1
  6
CONTINUOUS
 62
    7
 10
696.39346994568837
 20
627.85663708735569
 11
699.06013634568831
 21
630.52330348735586
  0
LINE
  8
_0-a_極細1
  6
CONTINUOUS
 62
    7
 10
718.26013442568933
 20
637.45663612735552
 11
722.5268006656886
 21
645.45663532735534
  0
LINE
  8
_0-a_極細1
  6
CONTINUOUS
 62
    7
 10
699.06013634568831
 20
645.45663532735534
 11
699.06013634568831
 21
642.78996892735586
  0
ARC
  8
_0-a_極細1
  6
CONTINUOUS
 62
    7
 10
732.12679970568865
 20
677.95737874394808
 40
2.6666664000000004
 50
24.054548999993202
 51
89.999999999999929
  0
ARC
  8
_0-a_極細1
  6
CONTINUOUS
 62
    7
 10
733.72679954568889
 20
671.02404610394797
 40
1.0666665599999394
 50
269.99999999999977
 51
359.99999999999966
  0
ARC
  8
_0-a_極細1
  6
CONTINUOUS
 62
    7
 10
732.12679970568865
 20
677.95737874394808
 40
2.6666664000000004
 50
0
 51
24.054548999993202
  0
LINE
  8
_0-a_極細1
  6
CONTINUOUS
 62
    7
 10
723.32680058568826
 20
653.95738114394749
 11
723.32680058569008
 21
669.95737954394781
  0
LINE
  8
_0-a_極細1
  6
CONTINUOUS
 62
    7
 10
723.32680058569008
 20
669.95737954394781
 11
733.72679954568889
 21
669.95737954394781
  0
LINE
  8
_0-a_極細1
  6
CONTINUOUS
 62
    7
 10
734.79346610568859
 20
671.02404610394797
 11
734.79346610568859
 21
677.95737874394808
  0
LINE
  8
_0-a_極細1
  6
CONTINUOUS
 62
    7
 10
716.39346794568814
 20
589.95738754394779
 11
745.72679834568794
 21
589.95738754394779
  0
LINE
  8
_0-a_極細1
  6
CONTINUOUS
 62
    7
 10
711.96582038845304
 20
579.29072194394712
 11
716.39346794568814
 21
579.29072194394712
  0
LINE
  8
_0-a_極細1
  6
CONTINUOUS
 62
    7
 10
716.39346794568814
 20
604.3573861039481
 11
723.32680058568826
 21
604.3573861039481
  0
LINE
  8
_0-a_極細1
  6
CONTINUOUS
 62
    7
 10
716.39346794568814
 20
600.62405314394755
 11
727.0601335456879
 21
600.62405314394755
  0
LINE
  8
_0-a_極細1
  6
CONTINUOUS
 62
    7
 10
716.39346794568814
 20
579.29072194394712
 11
716.39346794568814
 21
611.29071874394776
  0
LINE
  8
_0-a_極細1
  6
CONTINUOUS
 62
    7
 10
753.61479755688856
 20
597.8453867551475
 11
745.72679834568794
 21
589.95738754394779
  0
LINE
  8
_0-a_極細1
  6
CONTINUOUS
 62
    7
 10
727.0601335456879
 20
600.62405314394755
 11
727.06013354568881
 21
660.62404714394734
  0
ARC
  8
_0-a_極細1
  6
CONTINUOUS
 62
    7
 10
732.66013298568828
 20
660.62404714394734
 40
5.5999994400000617
 50
89.999999999999915
 51
179.99999999999983
  0
LINE
  8
_0-a_極細1
  6
CONTINUOUS
 62
    7
 10
739.01332701703654
 20
666.22404658394817
 11
732.66013298568828
 21
666.22404658394817
  0
ARC
  8
_0-a_極細1
  6
CONTINUOUS
 62
    7
 10
739.01332701703654
 20
675.29071234394769
 40
9.066665759999939
 50
269.99999999999977
 51
356.64911199999887
  0
ARC
  8
_0-a_極細1
  6
CONTINUOUS
 62
    7
 10
739.01332701703654
 20
675.29071234394769
 40
5.3333328000000009
 50
269.99999999999977
 51
356.64911199999932
  0
ARC
  8
_0-a_極細1
  6
CONTINUOUS
 62
    7
 10
753.61479755688856
 20
673.95737914394749
 40
9.3333323999999998
 50
89.999999999999915
 51
175.84900999999778
  0
ARC
  8
_0-a_極細1
  6
CONTINUOUS
 62
    7
 10
732.66013298568828
 20
660.62404714394734
 40
9.3333323999999998
 50
89.999999999999915
 51
179.99999999999983
  0
LINE
  8
_0-a_極細1
  6
CONTINUOUS
 62
    7
 10
735.06013274568863
 20
669.95737954394781
 11
735.06013274568863
 21
683.29071154394796
  0
LINE
  8
_0-a_極細1
  6
CONTINUOUS
 62
    7
 10
723.32680058568826
 20
604.3573861039481
 11
723.32680058568826
 21
660.62404714394734
  0
LINE
  8
_0-a_極細1
  6
CONTINUOUS
 62
    7
 10
739.01332701703654
 20
669.95737954394781
 11
732.66013298568828
 21
669.95737954394781
  0
LINE
  8
_0-a_極細1
  6
CONTINUOUS
 62
    7
 10
701.7268027456887
 20
611.29071874394776
 11
723.32680058568826
 21
611.29071874394776
  0
LINE
  8
_0-a_極細1
  6
CONTINUOUS
 62
    7
 10
790.52679386568821
 20
675.78637096104876
 11
753.61479755688856
 21
671.51970472104858
  0
LINE
  8
_0-a_極細1
  6
CONTINUOUS
 62
    7
 10
753.61479755688674
 20
570.18638152104859
 11
745.72679834568794
 21
574.45304776104831
  0
LINE
  8
_0-a_極細1
  6
CONTINUOUS
 62
    7
 10
745.72679834568794
 20
574.45304776104831
 11
745.72679834568794
 21
589.95738754394779
  0
LINE
  8
_0-a_極細1
  6
CONTINUOUS
 62
    7
 10
790.52679386568821
 20
604.08099679825409
 11
790.52679386568821
 21
688.47211902580739
  0
LINE
  8
_0-a_極細1
  6
CONTINUOUS
 62
    7
 10
769.72679594568785
 20
601.11971176104862
 11
790.52679386568821
 21
601.11971176104862
  0
LINE
  8
_0-a_極細1
  6
CONTINUOUS
 62
    7
 10
790.52679386568821
 20
601.11971176104862
 11
790.52679386568821
 21
604.08099679825409
  0
LINE
  8
_0-a_極細1
  6
CONTINUOUS
 62
    7
 10
769.72679594568785
 20
558.45304936104822
 11
769.72679594568785
 21
601.11971176104862
  0
LINE
  8
_0-a_極細1
  6
CONTINUOUS
 62
    7
 10
753.61479755688856
 20
679.51970100771086
 11
790.52679386568821
 21
684.77707406197783
  0
LINE
  8
_0-a_極細1
  6
CONTINUOUS
 62
    7
 10
753.61479755688856
 20
597.8453867551475
 11
753.61479755688856
 21
679.55737858394832
  0
ARC
  8
_0-a_極細1
  6
CONTINUOUS
 62
    7
 10
753.61479755688856
 20
673.95737914394749
 40
5.5999994400000617
 50
89.999999999999915
 51
175.84900999999743
  0
LINE
  8
_0-a_極細1
  6
CONTINUOUS
 62
    7
 10
703.06013594568799
 20
574.49487709019922
 11
687.06013754568835
 21
574.49487709019922
  0
ARC
  8
_0-a_極細1
  6
CONTINUOUS
 62
    7
 10
703.06013594568799
 20
585.16154269019944
 40
10.666665600000002
 50
269.99999999999977
 51
359.99999999999966
  0
LINE
  8
_0-a_極細1
  6
CONTINUOUS
 62
    7
 10
713.72680154568866
 20
585.16154269019944
 11
713.72680154568866
 21
590.49487549019887
  0
LINE
  8
_0-a_極細1
  6
CONTINUOUS
 62
    7
 10
713.72680154568866
 20
590.49487549019887
 11
701.7268027456887
 21
590.49487549019887
  0
LINE
  8
_0-a_極細1
  6
CONTINUOUS
 62
    7
 10
719.06013434568808
 20
613.9615398101987
 11
701.7268027456887
 21
613.9615398101987
  0
LINE
  8
_0-a_極細1
  6
CONTINUOUS
 62
    7
 10
701.7268027456887
 20
590.49487549019887
 11
701.7268027456887
 21
613.96153981019916
  0
LINE
  8
_0-a_極細1
  6
CONTINUOUS
 62
    7
 10
717.46013450568921
 20
651.29071474394777
 11
717.46013450568921
 21
656.62404754394765
  0
ARC
  8
_0-a_極細1
  6
CONTINUOUS
 62
    7
 10
720.66013418568832
 20
653.95738114394749
 40
2.6666664000000004
 50
269.99999999999977
 51
359.99999999999966
  0
CIRCLE
  8
_0-a_極細1
  6
CONTINUOUS
 62
    7
 10
724.52775969820618
 20
637.51012893163397
 40
99.281077021678641
  0
ARC
  8
_0-a_極細1
  6
CONTINUOUS
 62
    7
 10
783.06012794568801
 20
535.35904100378298
 40
26.666664000000004
 50
120.00000000000082
 51
161.13978923390184
  0
LINE
  8
_0-a_極細1
  6
CONTINUOUS
 62
    7
 10
743.060131945688
 20
539.97406671121598
 11
743.060131945688
 21
570.18638152104859
  0
LINE
  8
_0-a_極細1
  6
CONTINUOUS
 62
    7
 10
767.61603184439559
 20
557.09819610472778
 11
769.72679594568876
 21
559.20896020602004
  0
LINE
  8
_0-a_極細1
  6
CONTINUOUS
 62
    7
 10
743.06013194568845
 20
540.08476778442946
 11
769.72679594568876
 21
566.75143178442931
  0
LINE
  8
_0-a_極細1
  6
CONTINUOUS
 62
    7
 10
743.060131945688
 20
543.8560035736341
 11
769.72679594568876
 21
570.52266757363441
  0
LINE
  8
_0-a_極細1
  6
CONTINUOUS
 62
    7
 10
743.060131945688
 20
547.62723936283874
 11
769.72679594568876
 21
574.29390336283882
  0
LINE
  8
_0-a_極細1
  6
CONTINUOUS
 62
    7
 10
743.060131945688
 20
551.39847515204337
 11
769.72679594568876
 21
578.06513915204368
  0
LINE
  8
_0-a_極細1
  6
CONTINUOUS
 62
    7
 10
743.060131945688
 20
555.16971094124801
 11
769.72679594568876
 21
581.83637494124832
  0
LINE
  8
_0-a_極細1
  6
CONTINUOUS
 62
    7
 10
789.01013276548861
 20
601.11971176104862
 11
790.52679386568821
 21
602.63637286124822
  0
LINE
  8
_0-a_極細1
  6
CONTINUOUS
 62
    7
 10
743.060131945688
 20
558.94094673045265
 11
769.72679594568876
 21
585.60761073045296
  0
LINE
  8
_0-a_極細1
  6
CONTINUOUS
 62
    7
 10
785.23889697628442
 20
601.11971176104862
 11
790.52679386568821
 21
606.40760865045286
  0
LINE
  8
_0-a_極細1
  6
CONTINUOUS
 62
    7
 10
743.060131945688
 20
562.71218251965706
 11
750.5343309470793
 21
570.18638152104859
  0
LINE
  8
_0-a_極細1
  6
CONTINUOUS
 62
    7
 10
751.61567069602484
 20
571.26772126999413
 11
769.72679594568876
 21
589.37884651965737
  0
LINE
  8
_0-a_極細1
  6
CONTINUOUS
 62
    7
 10
781.46766118707933
 20
601.11971176104862
 11
790.52679386568821
 21
610.17884443965795
  0
LINE
  8
_0-a_極細1
  6
CONTINUOUS
 62
    7
 10
743.060131945688
 20
566.48341830886193
 11
746.76309515787511
 21
570.18638152104882
  0
LINE
  8
_0-a_極細1
  6
CONTINUOUS
 62
    7
 10
749.16825615796665
 20
572.59154252114104
 11
769.72679594568876
 21
593.15008230886224
  0
LINE
  8
_0-a_極細1
  6
CONTINUOUS
 62
    7
 10
777.69642539787424
 20
601.11971176104817
 11
790.52679386568821
 21
613.95008022886259
  0
LINE
  8
_0-a_極細1
  6
CONTINUOUS
 62
    7
 10
746.72084161990938
 20
573.91536377228795
 11
769.72679594568876
 21
596.92131809806688
  0
LINE
  8
_0-a_極細1
  6
CONTINUOUS
 62
    7
 10
773.92518960866914
 20
601.11971176104817
 11
790.52679386568821
 21
617.72131601806677
  0
LINE
  8
_0-a_極細1
  6
CONTINUOUS
 62
    7
 10
745.72679834568839
 20
576.69255628727115
 11
769.72679594568876
 21
600.69255388727152
  0
LINE
  8
_0-a_極細1
  6
CONTINUOUS
 62
    7
 10
770.15395381946541
 20
601.11971176104817
 11
790.52679386568821
 21
621.49255180727141
  0
LINE
  8
_0-a_極細1
  6
CONTINUOUS
 62
    7
 10
745.72679834568839
 20
580.46379207647578
 11
790.52679386568821
 21
625.26378759647605
  0
LINE
  8
_0-a_極細1
  6
CONTINUOUS
 62
    7
 10
745.72679834568839
 20
584.23502786568042
 11
790.52679386568821
 21
629.03502338568114
  0
LINE
  8
_0-a_極細1
  6
CONTINUOUS
 62
    7
 10
745.72679834568839
 20
588.00626365488506
 11
790.52679386568821
 21
632.80625917488555
  0
LINE
  8
_0-a_極細1
  6
CONTINUOUS
 62
    7
 10
753.61479755688856
 20
599.66549865529078
 11
790.52679386568821
 21
636.57749496409042
  0
LINE
  8
_0-a_極細1
  6
CONTINUOUS
 62
    7
 10
753.61479755688856
 20
603.43673444449496
 11
790.52679386568821
 21
640.3487307532946
  0
LINE
  8
_0-a_極細1
  6
CONTINUOUS
 62
    7
 10
753.61479755688856
 20
607.2079702336996
 11
790.52679386568821
 21
644.11996654249924
  0
LINE
  8
_0-a_極細1
  6
CONTINUOUS
 62
    7
 10
753.61479755688856
 20
610.97920602290424
 11
790.52679386568821
 21
647.89120233170388
  0
LINE
  8
_0-a_極細1
  6
CONTINUOUS
 62
    7
 10
753.61479755688856
 20
614.75044181210933
 11
790.52679386568821
 21
651.66243812090852
  0
LINE
  8
_0-a_極細1
  6
CONTINUOUS
 62
    7
 10
753.61479755688856
 20
618.52167760131397
 11
790.52679386568821
 21
655.43367391011316
  0
LINE
  8
_0-a_極細1
  6
CONTINUOUS
 62
    7
 10
753.61479755688856
 20
622.29291339051815
 11
790.52679386568821
 21
659.20490969931825
  0
LINE
  8
_0-a_極細1
  6
CONTINUOUS
 62
    7
 10
753.61479755688856
 20
626.06414917972302
 11
790.52679386568821
 21
662.97614548852266
  0
LINE
  8
_0-a_極細1
  6
CONTINUOUS
 62
    7
 10
753.61479755688856
 20
629.83538496892788
 11
790.52679386568821
 21
666.74738127772707
  0
LINE
  8
_0-a_極細1
  6
CONTINUOUS
 62
    7
 10
753.61479755688856
 20
633.60662075813252
 11
790.52679386568821
 21
670.51861706693171
  0
LINE
  8
_0-a_極細1
  6
CONTINUOUS
 62
    7
 10
753.61479755688856
 20
637.37785654733648
 11
790.52679386568821
 21
674.28985285613635
  0
LINE
  8
_0-a_極細1
  6
CONTINUOUS
 62
    7
 10
753.61479755688856
 20
641.14909233654134
 11
787.95477604294888
 21
675.48907082260166
  0
LINE
  8
_0-a_極細1
  6
CONTINUOUS
 62
    7
 10
753.61479755688856
 20
644.92032812574598
 11
783.69064879297662
 21
674.99617936183313
  0
LINE
  8
_0-a_極細1
  6
CONTINUOUS
 62
    7
 10
753.61479755688856
 20
648.69156391495062
 11
779.42652154300299
 21
674.5032879010646
  0
LINE
  8
_0-a_極細1
  6
CONTINUOUS
 62
    7
 10
753.61479755688856
 20
652.46279970415526
 11
775.16239429303027
 21
674.01039644029652
  0
LINE
  8
_0-a_極細1
  6
CONTINUOUS
 62
    7
 10
753.61479755688856
 20
656.2340354933599
 11
770.89826704305665
 21
673.51750497952798
  0
LINE
  8
_0-a_極細1
  6
CONTINUOUS
 62
    7
 10
753.61479755688856
 20
660.00527128256454
 11
766.63413979308348
 21
673.02461351875945
  0
LINE
  8
_0-a_極細1
  6
CONTINUOUS
 62
    7
 10
753.61479755688856
 20
663.77650707176917
 11
762.37001254311076
 21
672.53172205799069
  0
LINE
  8
_0-a_極細1
  6
CONTINUOUS
 62
    7
 10
753.61479755688856
 20
667.54774286097359
 11
758.10588529313759
 21
672.03883059722239
  0
LINE
  8
_0-a_極細1
  6
CONTINUOUS
 62
    7
 10
753.61479755688856
 20
671.31897865017845
 11
753.84175804316442
 21
671.54593913645385
  0
LINE
  8
_0-a_極細1
  6
CONTINUOUS
 62
    7
 10
747.72332541008495
 20
540.97672545962178
 11
769.72679594568876
 21
562.98019599522468
  0
LINE
  8
_0-a_極細1
  6
CONTINUOUS
 62
    7
 10
752.88188981991584
 20
542.36405408024757
 11
761.32097284474298
 21
550.80313710507517
  0
LINE
  8
_0-a_極細1
  6
CONTINUOUS
 62
    7
 10
651.56033347814378
 20
570.18638152104859
 11
753.61479755688674
 21
570.18638152104859
  0
LINE
  8
_0-a_極細1
  6
CONTINUOUS
 62
    7
 10
647.84310172263281
 20
574.45304776104831
 11
745.72679834568794
 21
574.45304776104831
  0
LINE
  8
_0-a_極細1
  6
CONTINUOUS
 62
    7
 10
637.3757715332747
 20
589.95738754394779
 11
687.06013754568835
 21
589.95738754394779
  0
LINE
  8
_0-a_極細1
  6
CONTINUOUS
 62
    7
 10
639.36990847263974
 20
688.54808176311872
 11
790.52679386568821
 21
688.54808176311872
  0
LINE
  8
_0-a_極細1
  6
CONTINUOUS
 62
    7
 10
636.43195667523764
 20
683.29071154394819
 11
753.61479755688856
 21
683.29071154394796
  0
LINE
  8
_0-a_極細1
  6
CONTINUOUS
 62
    7
 10
635.09665502303073
 20
680.6240451439478
 11
732.12679970568865
 21
680.62404514394757
  0
LINE
  8
_0-a_極細1
  6
CONTINUOUS
 62
    7
 10
627.10399273209873
 20
656.62404754394788
 11
717.46013450568921
 21
656.62404754394765
  0
LINE
  8
_0-a_極細1
  6
CONTINUOUS
 62
    7
 10
626.20773269834194
 20
651.29071474394777
 11
720.66013418568832
 21
651.29071474394777
  0
LINE
  8
_0-a_極細1
  6
CONTINUOUS
 62
    7
 10
719.06013434568808
 20
646.49486989019942
 11
625.65406914054552
 21
646.49486989019942
  0
LINE
  8
_0-a_極細1
  6
CONTINUOUS
 62
    7
 10
625.56521481031746
 20
645.4566353273558
 11
722.5268006656886
 21
645.45663532735534
  0
LINE
  8
_0-a_極細1
  6
CONTINUOUS
 62
    7
 10
625.2810792582884
 20
640.12330252735569
 11
696.39346994568837
 21
640.12330252735569
  0
LINE
  8
_0-a_極細1
  6
CONTINUOUS
 62
    7
 10
625.71712084895557
 20
627.85663708735569
 11
696.39346994568837
 21
627.85663708735569
  0
LINE
  8
_0-a_極細1
  6
CONTINUOUS
 62
    7
 10
626.38435777191194
 20
622.52330428735604
 11
718.26013442568933
 21
622.52330428735604
  0
LINE
  8
_0-a_極細1
  6
CONTINUOUS
 62
    7
 10
719.06013434568808
 20
621.96153901019852
 11
626.47178789618079
 21
621.96153901019852
  0
LINE
  8
_0-a_極細1
  6
CONTINUOUS
 62
    7
 10
701.7268027456887
 20
613.96153981019916
 11
628.07986596809747
 21
613.96153981019916
  0
LINE
  8
_0-d_寸法1
  6
CONTINUOUS
 62
    7
 10
779.89530789591868
 20
678.45848360882837
 11
786.42637279499525
 21
693.06482439918545
  0
LINE
  8
_0-d_寸法1
  6
CONTINUOUS
 62
    7
 10
779.89530789591868
 20
678.45848360882837
 11
792.85454640746241
 21
687.84241334007231
  0
LINE
  8
_0-d_寸法1
  6
CONTINUOUS
 62
    7
 10
779.89530789591868
 20
678.45848360882837
 11
812.62800831560821
 21
718.74858691953341
  0
LINE
  8
_0-d_寸法1
  6
CONTINUOUS
 62
    7
 10
812.62800831560821
 20
718.74858691953341
 11
883.02800831560808
 21
718.74858691953341
  0
TEXT
  8
_0-d_寸法1
 62
    7
 10
812.62800831560821
 20
718.74858691953341
 40
24
 41
0.7333333333333333
 50
0
  1
パッキン
  0
LINE
  8
_0-a_極細1
  6
CONTINUOUS
 62
    7
 10
671.90316407029809
 20
580.89072178394781
 11
671.90316407029809
 21
589.95738754394779
  0
LINE
  8
_0-a_極細1
  6
CONTINUOUS
 62
    7
 10
670.83649751029793
 20
580.89072178394781
 11
670.83649751029793
 21
589.95738754394779
  0
LINE
  8
_0-a_極細1
  6
CONTINUOUS
 62
    7
 10
669.76983095029777
 20
580.89072178394781
 11
669.76983095029777
 21
589.95738754394779
  0
LINE
  8
_0-a_極細1
  6
CONTINUOUS
 62
    7
 10
668.70316439029762
 20
580.89072178394781
 11
668.70316439029762
 21
589.95738754394779
  0
LINE
  8
_0-a_極細1
  6
CONTINUOUS
 62
    7
 10
667.63649783029746
 20
580.89072178394781
 11
667.63649783029746
 21
589.95738754394779
  0
LINE
  8
_0-a_極細1
  6
CONTINUOUS
 62
    7
 10
666.5698312702973
 20
580.89072178394781
 11
666.5698312702973
 21
589.95738754394779
  0
LINE
  8
_0-a_極細1
  6
CONTINUOUS
 62
    7
 10
665.5031647102976
 20
580.89072178394781
 11
665.5031647102976
 21
589.95738754394779
  0
LINE
  8
_0-a_極細1
  6
CONTINUOUS
 62
    7
 10
664.43649815029789
 20
580.89072178394781
 11
664.43649815029789
 21
589.95738754394779
  0
LINE
  8
_0-a_極細1
  6
CONTINUOUS
 62
    7
 10
663.36983159029774
 20
580.89072178394781
 11
663.36983159029774
 21
589.95738754394779
  0
LINE
  8
_0-a_極細1
  6
CONTINUOUS
 62
    7
 10
662.30316503029758
 20
580.89072178394781
 11
662.30316503029758
 21
589.95738754394779
  0
LINE
  8
_0-a_極細1
  6
CONTINUOUS
 62
    7
 10
661.23649847029742
 20
580.89072178394781
 11
661.23649847029742
 21
589.95738754394779
  0
LINE
  8
_0-a_極細1
  6
CONTINUOUS
 62
    7
 10
660.16983191029726
 20
580.89072178394781
 11
660.16983191029726
 21
589.95738754394779
  0
LINE
  8
_0-a_極細1
  6
CONTINUOUS
 62
    7
 10
659.1031653502971
 20
580.89072178394781
 11
659.1031653502971
 21
589.95738754394779
  0
LINE
  8
_0-a_極細1
  6
CONTINUOUS
 62
    7
 10
658.03649879029695
 20
580.89072178394781
 11
658.03649879029695
 21
589.95738754394779
  0
LINE
  8
_0-a_極細1
  6
CONTINUOUS
 62
    7
 10
656.96983223029679
 20
580.89072178394781
 11
656.96983223029679
 21
589.95738754394779
  0
LINE
  8
_0-a_極細1
  6
CONTINUOUS
 62
    7
 10
655.90316567029754
 20
580.89072178394781
 11
655.90316567029754
 21
589.95738754394779
  0
LINE
  8
_0-a_極細1
  6
CONTINUOUS
 62
    7
 10
654.83649911029738
 20
580.89072178394781
 11
654.83649911029738
 21
589.95738754394779
  0
LINE
  8
_0-a_極細1
  6
CONTINUOUS
 62
    7
 10
653.76983255029722
 20
580.89072178394781
 11
653.76983255029722
 21
589.95738754394779
  0
LINE
  8
_0-a_極細1
  6
CONTINUOUS
 62
    7
 10
652.70316599029707
 20
580.89072178394781
 11
652.70316599029707
 21
589.95738754394779
  0
LINE
  8
_0-a_極細1
  6
CONTINUOUS
 62
    7
 10
651.63649943029691
 20
580.89072178394781
 11
651.63649943029691
 21
589.95738754394779
  0
LINE
  8
_0-a_極細1
  6
CONTINUOUS
 62
    7
 10
650.56983287029675
 20
580.89072178394781
 11
650.56983287029675
 21
589.95738754394779
  0
LINE
  8
_0-a_極細1
  6
CONTINUOUS
 62
    7
 10
649.50316631029705
 20
580.89072178394781
 11
649.50316631029705
 21
589.95738754394779
  0
LINE
  8
_0-a_極細1
  6
CONTINUOUS
 62
    7
 10
648.43649975029734
 20
580.89072178394781
 11
648.43649975029734
 21
589.95738754394779
  0
LINE
  8
_0-a_極細1
  6
CONTINUOUS
 62
    7
 10
647.36983319029673
 20
580.89072178394781
 11
647.36983319029673
 21
589.95738754394779
  0
LINE
  8
_0-a_極細1
  6
CONTINUOUS
 62
    7
 10
646.30316663029703
 20
580.89072178394781
 11
646.30316663029703
 21
589.95738754394779
  0
LINE
  8
_0-a_極細1
  6
CONTINUOUS
 62
    7
 10
672.58714165965489
 20
580.89072178394781
 11
672.58714165965489
 21
589.95738754394779
  0
LINE
  8
_0-a_極細1
  6
CONTINUOUS
 62
    7
 10
645.92047765965458
 20
580.89072178394781
 11
645.92047765965458
 21
589.95738754394779
  0
LINE
  8
_0-a_極細1
  6
CONTINUOUS
 62
    7
 10
645.92047765965458
 20
580.89072178394781
 11
672.58714165965489
 21
580.89072178394781
  0
ARC
  8
_0-a_極細1
  6
CONTINUOUS
 62
    7
 10
663.06013994568843
 20
576.49085555726788
 40
31.999996799999998
 50
55.166292356155729
 51
148.68484545273029
  0
LINE
  8
_0-a_極細1
  6
CONTINUOUS
 62
    7
 10
686.99099788650278
 20
589.95738754394779
 11
686.99099788650278
 21
591.9807047469526
  0
LINE
  8
_0-a_極細1
  6
CONTINUOUS
 62
    7
 10
685.39099788650333
 20
589.95738754394779
 11
685.39099788650333
 21
597.61010117536398
  0
LINE
  8
_0-a_極細1
  6
CONTINUOUS
 62
    7
 10
683.79099788650296
 20
589.95738754394779
 11
683.79099788650296
 21
600.18637612330213
  0
LINE
  8
_0-a_極細1
  6
CONTINUOUS
 62
    7
 10
682.19099788650351
 20
589.95738754394779
 11
682.19099788650351
 21
601.98852297444182
  0
LINE
  8
_0-a_極細1
  6
CONTINUOUS
 62
    7
 10
680.59099788650315
 20
589.95738754394779
 11
680.59099788650315
 21
603.26152635683843
  0
LINE
  8
_0-a_極細1
  6
CONTINUOUS
 62
    7
 10
678.99099788650278
 20
589.95738754394779
 11
678.99099788650278
 21
604.24346913634554
  0
LINE
  8
_0-a_極細1
  6
CONTINUOUS
 62
    7
 10
677.39099788650333
 20
589.95738754394779
 11
677.39099788650333
 21
605.10250189019007
  0
LINE
  8
_0-a_極細1
  6
CONTINUOUS
 62
    7
 10
675.79099788650296
 20
589.95738754394779
 11
675.79099788650296
 21
605.84941565974577
  0
LINE
  8
_0-a_極細1
  6
CONTINUOUS
 62
    7
 10
674.19099788650306
 20
589.95738754394779
 11
674.19099788650306
 21
606.49258545241582
  0
LINE
  8
_0-a_極細1
  6
CONTINUOUS
 62
    7
 10
672.59099788650315
 20
589.95738754394779
 11
672.59099788650315
 21
607.03856483492109
  0
LINE
  8
_0-a_極細1
  6
CONTINUOUS
 62
    7
 10
670.99099788650278
 20
589.95738754394779
 11
670.99099788650278
 21
607.49248918394369
  0
LINE
  8
_0-a_極細1
  6
CONTINUOUS
 62
    7
 10
669.39099788650333
 20
589.95738754394779
 11
669.39099788650333
 21
607.85835518559725
  0
LINE
  8
_0-a_極細1
  6
CONTINUOUS
 62
    7
 10
667.79099788650296
 20
589.95738754394779
 11
667.79099788650296
 21
608.13921694208284
  0
LINE
  8
_0-a_極細1
  6
CONTINUOUS
 62
    7
 10
666.19099788650306
 20
589.95738754394779
 11
666.19099788650306
 21
608.33732355223492
  0
LINE
  8
_0-a_極細1
  6
CONTINUOUS
 62
    7
 10
664.59099788650315
 20
589.95738754394779
 11
664.59099788650315
 21
608.45421378454239
  0
LINE
  8
_0-a_極細1
  6
CONTINUOUS
 62
    7
 10
662.99099788650278
 20
589.95738754394779
 11
662.99099788650278
 21
608.49077765991797
  0
LINE
  8
_0-a_極細1
  6
CONTINUOUS
 62
    7
 10
661.39099788650242
 20
589.95738754394779
 11
661.39099788650242
 21
608.4472909026922
  0
LINE
  8
_0-a_極細1
  6
CONTINUOUS
 62
    7
 10
659.79099788650296
 20
589.95738754394779
 11
659.79099788650296
 21
608.32342544090875
  0
LINE
  8
_0-a_極細1
  6
CONTINUOUS
 62
    7
 10
658.1909978865026
 20
589.95738754394779
 11
658.1909978865026
 21
608.1182369033022
  0
LINE
  8
_0-a_極細1
  6
CONTINUOUS
 62
    7
 10
656.59099788650315
 20
589.95738754394779
 11
656.59099788650315
 21
607.83012798369941
  0
LINE
  8
_0-a_極細1
  6
CONTINUOUS
 62
    7
 10
654.99099788650278
 20
589.95738754394779
 11
654.99099788650278
 21
607.45678427947314
  0
LINE
  8
_0-a_極細1
  6
CONTINUOUS
 62
    7
 10
653.39099788650242
 20
589.95738754394779
 11
653.39099788650242
 21
606.99507636422049
  0
LINE
  8
_0-a_極細1
  6
CONTINUOUS
 62
    7
 10
651.79099788650296
 20
589.95738754394779
 11
651.79099788650296
 21
606.4409178685537
  0
LINE
  8
_0-a_極細1
  6
CONTINUOUS
 62
    7
 10
650.1909978865026
 20
589.95738754394779
 11
650.1909978865026
 21
605.78906331577264
  0
LINE
  8
_0-a_極細1
  6
CONTINUOUS
 62
    7
 10
648.59099788650269
 20
589.95738754394779
 11
648.59099788650269
 21
605.03281980766815
  0
LINE
  8
_0-a_極細1
  6
CONTINUOUS
 62
    7
 10
646.99099788650278
 20
589.95738754394779
 11
646.99099788650278
 21
604.16363042141438
  0
LINE
  8
_0-a_極細1
  6
CONTINUOUS
 62
    7
 10
645.39099788650242
 20
589.95738754394779
 11
645.39099788650242
 21
603.17045851706371
  0
LINE
  8
_0-a_極細1
  6
CONTINUOUS
 62
    7
 10
643.79099788650296
 20
589.95738754394779
 11
643.79099788650296
 21
602.03884881511385
  0
LINE
  8
_0-a_極細1
  6
CONTINUOUS
 62
    7
 10
642.1909978865026
 20
589.95738754394779
 11
642.1909978865026
 21
600.74943558400355
  0
LINE
  8
_0-a_極細1
  6
CONTINUOUS
 62
    7
 10
640.59099788650269
 20
589.95738754394779
 11
640.59099788650269
 21
599.27544355714508
  0
LINE
  8
_0-a_極細1
  6
CONTINUOUS
 62
    7
 10
638.99099788650278
 20
589.95738754394779
 11
638.99099788650278
 21
597.57820237318447
  0
LINE
  8
_0-a_極細1
  6
CONTINUOUS
 62
    7
 10
637.39099788650242
 20
589.95738754394779
 11
637.39099788650242
 21
595.59831329359054
  0
LINE
  8
_0-a_極細1
  6
CONTINUOUS
 62
    7
 10
635.79099788650205
 20
592.98463783094576
 11
635.79099788650205
 21
593.23581559173681
  0
LINE
  8
_0-d_寸法1
  6
CONTINUOUS
 62
    7
 10
711.03629620420656
 20
629.74452357246855
 11
722.34994803435086
 21
618.43075840492725
  0
LINE
  8
_0-d_寸法1
  6
CONTINUOUS
 62
    7
 10
711.03629620420656
 20
629.74452357246855
 11
715.17732351491316
 21
614.28968960985412
  0
LINE
  8
_0-d_寸法1
  6
CONTINUOUS
 62
    7
 10
711.03629620420656
 20
629.74452357246855
 11
775.66117127409962
 21
517.80966172148862
  0
LINE
  8
_0-d_寸法1
  6
CONTINUOUS
 62
    7
 10
775.66117127409962
 20
517.80966172148862
 11
951.66117127409973
 21
517.80966172148862
  0
TEXT
  8
_0-d_寸法1
 62
    7
 10
775.66117127409962
 20
517.80966172148862
 40
24
 41
0.7333333333333333
 50
0
  1
防臭インナーパッキン
  0
LINE
  8
_0-d_寸法1
  6
CONTINUOUS
 62
    7
 10
778.79611212607892
 20
608.72098400144
 11
790.11034554720845
 21
597.40780044895587
  0
LINE
  8
_0-d_寸法1
  6
CONTINUOUS
 62
    7
 10
778.79611212607892
 20
608.72098400144
 11
782.93793391688189
 21
593.26636293674778
  0
LINE
  8
_0-d_寸法1
  6
CONTINUOUS
 62
    7
 10
778.79611212607892
 20
608.72098400144
 11
810.20130761137989
 21
554.3314178936688
  0
LINE
  8
_0-d_寸法1
  6
CONTINUOUS
 62
    7
 10
810.20130761137989
 20
554.3314178936688
 11
933.40130761137982
 21
554.3314178936688
  0
TEXT
  8
_0-d_寸法1
 62
    7
 10
810.20130761137989
 20
554.3314178936688
 40
24
 41
0.7333333333333333
 50
0
  1
ロックフランジ
  0
TEXT
  8
_0-7_枠細線
 62
    5
 10
646.59406418009462
 20
460.93701799466982
 40
40
 41
0.8
 50
0
  1
Ｃ部拡大図
  0
ARC
  8
_0-e_極細4
  6
CONTINUOUS
 62
    6
 10
351.07503941586413
 20
493.48087489717932
 40
1
 50
179.99999999999983
 51
269.99999999999977
  0
LINE
  8
_0-e_極細4
  6
CONTINUOUS
 62
    6
 10
352.27503941586394
 20
492.48087489717932
 11
352.27503941586394
 21
494.48087489717932
  0
ARC
  8
_0-e_極細4
  6
CONTINUOUS
 62
    6
 10
526.27503941586394
 20
493.48087489717932
 40
1
 50
269.99999999999977
 51
359.99999999999966
  0
LINE
  8
_0-e_極細4
  6
CONTINUOUS
 62
    6
 10
525.07503941586413
 20
492.48087489717932
 11
525.07503941586413
 21
494.48087489717932
  0
LINE
  8
_0-e_極細4
  6
CONTINUOUS
 62
    6
 10
384.67503941586449
 20
346.48239945717171
 11
384.67503941586449
 21
464.43092489717924
  0
ARC
  8
_0-e_極細4
  6
CONTINUOUS
 62
    6
 10
386.67503941586358
 20
346.48239945717171
 40
2
 50
179.99999999999983
 51
270.00045836623457
  0
LINE
  8
_0-e_極細4
  6
CONTINUOUS
 62
    6
 10
386.67503941586358
 20
344.48239945717171
 11
438.67503941586449
 21
344.48239945717171
  0
LINE
  8
_0-e_極細4
  6
CONTINUOUS
 62
    6
 10
360.17503941586449
 20
334.06671345717189
 11
360.17503941586449
 21
388.066713457172
  0
LINE
  8
_0-e_極細4
  6
CONTINUOUS
 62
    6
 10
384.17503941586449
 20
310.06671345717189
 11
388.67503941586449
 21
310.06671345717189
  0
ARC
  8
_0-e_極細4
  6
CONTINUOUS
 62
    6
 10
384.17503941586449
 20
334.06671345717189
 40
24
 50
179.99999999999983
 51
269.99999999999977
  0
LINE
  8
_0-e_極細4
  6
CONTINUOUS
 62
    6
 10
342.67503941586449
 20
407.90984745717174
 11
342.67503941586449
 21
462.06674689717943
  0
LINE
  8
_0-e_極細4
  6
CONTINUOUS
 62
    6
 10
438.67503941586449
 20
310.06671345717189
 11
436.81297141586413
 21
310.06671345717189
  0
LINE
  8
_0-e_極細4
  6
CONTINUOUS
 62
    6
 10
436.81297141586413
 20
310.06671345717189
 11
384.17503941586449
 21
310.06671345717189
  0
LINE
  8
_0-e_極細4
  6
CONTINUOUS
 62
    6
 10
360.17503941586449
 20
334.06671345717189
 11
360.17503941586449
 21
449.66674689717934
  0
LINE
  8
_0-e_極細4
  6
CONTINUOUS
 62
    6
 10
364.17503941586449
 20
334.06671345717189
 11
364.17503941586449
 21
449.66674689717934
  0
LINE
  8
_0-e_極細4
  6
CONTINUOUS
 62
    6
 10
438.67503941586449
 20
314.06671345717189
 11
384.17503941586449
 21
314.06671345717189
  0
ARC
  8
_0-e_極細4
  6
CONTINUOUS
 62
    6
 10
384.17503941586449
 20
334.06671345717189
 40
20
 50
179.99999999999983
 51
269.99999999999977
  0
LINE
  8
_0-e_極細4
  6
CONTINUOUS
 62
    6
 10
358.17503941586358
 20
478.48243289717925
 11
438.67503941586449
 21
478.48243289717925
  0
LINE
  8
_0-e_極細4
  6
CONTINUOUS
 62
    6
 10
358.17503941586358
 20
469.68243289717952
 11
358.17503941586358
 21
478.48243289717925
  0
LINE
  8
_0-e_極細4
  6
CONTINUOUS
 62
    6
 10
351.67503941586449
 20
478.48243289717925
 11
358.17503941586358
 21
478.48243289717925
  0
LINE
  8
_0-e_極細4
  6
CONTINUOUS
 62
    6
 10
353.67503941586449
 20
469.68243289717952
 11
358.17503941586358
 21
469.68243289717952
  0
LINE
  8
_0-e_極細4
  6
CONTINUOUS
 62
    6
 10
353.67503941586449
 20
467.68243289717952
 11
353.67503941586449
 21
469.68243289717952
  0
ARC
  8
_0-e_極細4
  6
CONTINUOUS
 62
    6
 10
357.67503941586449
 20
467.68243289717952
 40
4
 50
179.99999999999983
 51
269.99999999999977
  0
LINE
  8
_0-e_極細4
  6
CONTINUOUS
 62
    6
 10
357.67503941586449
 20
463.68243289717952
 11
363.67503941586449
 21
463.68243289717952
  0
ARC
  8
_0-e_極細4
  6
CONTINUOUS
 62
    6
 10
338.71703941586395
 20
500.98087489717932
 40
2.1000000000000227
 50
4.1509900000016975
 51
89.999999999999915
  0
LINE
  8
_0-e_極細4
  6
CONTINUOUS
 62
    6
 10
338.71703941586395
 20
472.4388748971794
 11
338.71703941586395
 21
503.08087489717923
  0
LINE
  8
_0-e_極細4
  6
CONTINUOUS
 62
    6
 10
338.71703941586395
 20
503.06674580467757
 11
324.87503941586431
 21
505.03826089717927
  0
LINE
  8
_0-e_極細4
  6
CONTINUOUS
 62
    6
 10
332.67503941586449
 20
457.66674689717888
 11
332.67503941586449
 21
473.66674689717934
  0
ARC
  8
_0-e_極細4
  6
CONTINUOUS
 62
    6
 10
327.67503941586449
 20
449.00649289717944
 40
10
 50
0
 51
60.000000000000107
  0
LINE
  8
_0-e_極細4
  6
CONTINUOUS
 62
    6
 10
324.87503941586431
 20
473.66674689717934
 11
324.87503941586431
 21
474.77722889717938
  0
LINE
  8
_0-e_極細4
  6
CONTINUOUS
 62
    6
 10
332.67503941586449
 20
473.66674689717934
 11
324.87503941586431
 21
473.66674689717934
  0
LINE
  8
_0-e_極細4
  6
CONTINUOUS
 62
    6
 10
324.87503941586431
 20
474.77722889717938
 11
324.87503941586431
 21
506.42390289717946
  0
LINE
  8
_0-e_極細4
  6
CONTINUOUS
 62
    6
 10
341.67503941586449
 20
463.66674689717888
 11
341.67503941586449
 21
469.48087489717886
  0
LINE
  8
_0-e_極細4
  6
CONTINUOUS
 62
    6
 10
338.71703941586395
 20
462.06674689717943
 11
341.67503941586449
 21
463.66674689717888
  0
LINE
  8
_0-e_極細4
  6
CONTINUOUS
 62
    6
 10
324.87503941586431
 20
501.66674689717934
 11
338.71703941586395
 21
500.06674689717943
  0
ARC
  8
_0-e_極細4
  6
CONTINUOUS
 62
    6
 10
362.17503941586449
 20
449.66674689717934
 40
2
 50
89.999999999999915
 51
179.99999999999983
  0
ARC
  8
_0-e_極細4
  6
CONTINUOUS
 62
    6
 10
362.17503941586449
 20
449.66674689717934
 40
2
 50
0
 51
89.999999999999915
  0
LINE
  8
_0-e_極細4
  6
CONTINUOUS
 62
    6
 10
438.67503941586358
 20
504.48087489717932
 11
338.71703941586395
 21
504.48087489717932
  0
LINE
  8
_0-e_極細4
  6
CONTINUOUS
 62
    6
 10
358.17503941586358
 20
477.48087489717932
 11
350.07503941586413
 21
477.48087489717932
  0
LINE
  8
_0-e_極細4
  6
CONTINUOUS
 62
    6
 10
344.19259141586383
 20
499.48087489717932
 11
346.57503941586413
 21
499.48087489717932
  0
LINE
  8
_0-e_極細4
  6
CONTINUOUS
 62
    6
 10
350.07503941586413
 20
474.88087489717941
 11
350.07503941586413
 21
495.98087489717932
  0
LINE
  8
_0-e_極細4
  6
CONTINUOUS
 62
    6
 10
345.67503941586358
 20
499.48087489717932
 11
345.67503941586358
 21
504.48087489717932
  0
ARC
  8
_0-e_極細4
  6
CONTINUOUS
 62
    6
 10
346.57503941586413
 20
495.98087489717932
 40
3.4999999999999987
 50
0
 51
89.999999999999915
  0
ARC
  8
_0-e_極細4
  6
CONTINUOUS
 62
    6
 10
338.71703941586395
 20
500.98087489717932
 40
3.4999999999999987
 50
4.1509899999967477
 51
89.999999999999915
  0
ARC
  8
_0-e_極細4
  6
CONTINUOUS
 62
    6
 10
344.19259141586383
 20
501.48087489717932
 40
2
 50
183.35088799999644
 51
269.99999999999977
  0
ARC
  8
_0-e_極細4
  6
CONTINUOUS
 62
    6
 10
344.19259141586383
 20
501.48087489717932
 40
3.3999999999999773
 50
183.35088800000065
 51
269.99999999999977
  0
LINE
  8
_0-e_極細4
  6
CONTINUOUS
 62
    6
 10
344.19259141586383
 20
498.08087489717923
 11
346.57503941586413
 21
498.08087489717923
  0
ARC
  8
_0-e_極細4
  6
CONTINUOUS
 62
    6
 10
346.57503941586413
 20
495.98087489717932
 40
2.1000000000000227
 50
0
 51
89.999999999999915
  0
LINE
  8
_0-e_極細4
  6
CONTINUOUS
 62
    6
 10
348.67503941586449
 20
473.48087489717932
 11
348.67503941586358
 21
495.98087489717932
  0
LINE
  8
_0-e_極細4
  6
CONTINUOUS
 62
    6
 10
338.71703941586395
 20
472.4388748971794
 11
341.67503941586449
 21
469.48087489717886
  0
LINE
  8
_0-e_極細4
  6
CONTINUOUS
 62
    6
 10
352.67503941586449
 20
465.48087489717932
 11
352.67503941586449
 21
477.48087489717932
  0
LINE
  8
_0-e_極細4
  6
CONTINUOUS
 62
    6
 10
352.67503941586449
 20
473.48087489717932
 11
348.67503941586449
 21
473.48087489717932
  0
LINE
  8
_0-e_極細4
  6
CONTINUOUS
 62
    6
 10
352.67503941586449
 20
474.88087489717941
 11
350.07503941586413
 21
474.88087489717941
  0
LINE
  8
_0-e_極細4
  6
CONTINUOUS
 62
    6
 10
354.33540741586432
 20
465.48087489717932
 11
352.67503941586449
 21
465.48087489717932
  0
LINE
  8
_0-e_極細4
  6
CONTINUOUS
 62
    6
 10
352.67503941586449
 20
469.48087489717886
 11
341.67503941586449
 21
469.48087489717886
  0
LINE
  8
_0-e_極細4
  6
CONTINUOUS
 62
    6
 10
379.10241341586436
 20
466.08087489717923
 11
369.10241341586436
 21
466.08087489717923
  0
LINE
  8
_0-e_極細4
  6
CONTINUOUS
 62
    6
 10
379.10241341586436
 20
466.08087489717923
 11
379.10241341586436
 21
469.48087489717886
  0
LINE
  8
_0-e_極細4
  6
CONTINUOUS
 62
    6
 10
369.10241341586436
 20
466.08087489717923
 11
369.10241341586436
 21
469.48087489717886
  0
LINE
  8
_0-e_極細4
  6
CONTINUOUS
 62
    6
 10
345.77503941586394
 20
499.88087489717941
 11
345.77503941586394
 21
502.48087489717932
  0
LINE
  8
_0-e_極細4
  6
CONTINUOUS
 62
    6
 10
438.67503941586358
 20
503.48087489717932
 11
346.77503941586394
 21
503.48087489717932
  0
LINE
  8
_0-e_極細4
  6
CONTINUOUS
 62
    6
 10
350.07503941586413
 20
499.48087489717932
 11
346.17503941586358
 21
499.48087489717932
  0
LINE
  8
_0-e_極細4
  6
CONTINUOUS
 62
    6
 10
350.07503941586413
 20
493.48087489717932
 11
350.07503941586413
 21
499.48087489717932
  0
ARC
  8
_0-e_極細4
  6
CONTINUOUS
 62
    6
 10
346.77503941586394
 20
502.48087489717932
 40
1
 50
155.94545099999456
 51
179.99999999999983
  0
ARC
  8
_0-e_極細4
  6
CONTINUOUS
 62
    6
 10
346.17503941586358
 20
499.88087489717941
 40
0.3999999999999772
 50
179.99999999999983
 51
269.99999999999977
  0
ARC
  8
_0-e_極細4
  6
CONTINUOUS
 62
    6
 10
346.77503941586394
 20
502.48087489717932
 40
1
 50
89.999999999999915
 51
155.94545099999456
  0
LINE
  8
_0-e_極細4
  6
CONTINUOUS
 62
    6
 10
438.27503941586394
 20
494.48087489717932
 11
352.27503941586394
 21
494.48087489717932
  0
LINE
  8
_0-e_極細4
  6
CONTINUOUS
 62
    6
 10
438.27503941586394
 20
492.48087489717932
 11
351.07503941586413
 21
492.48087489717932
  0
LINE
  8
_0-e_極細4
  6
CONTINUOUS
 62
    6
 10
438.67503941586449
 20
490.29309489717957
 11
350.37503941586431
 21
490.29309489717912
  0
LINE
  8
_0-e_極細4
  6
CONTINUOUS
 62
    6
 10
359.17503941586449
 20
490.29309489717912
 11
359.17503941586449
 21
489.29309489717912
  0
LINE
  8
_0-e_極細4
  6
CONTINUOUS
 62
    6
 10
351.97503941586376
 20
487.29309489717912
 11
350.37503941586431
 21
490.29309489717912
  0
LINE
  8
_0-e_極細4
  6
CONTINUOUS
 62
    6
 10
360.17503941586449
 20
483.69309489717921
 11
359.17503941586449
 21
484.69309489717921
  0
LINE
  8
_0-e_極細4
  6
CONTINUOUS
 62
    6
 10
359.17503941586449
 20
482.69309489717921
 11
360.17503941586449
 21
483.69309489717921
  0
LINE
  8
_0-e_極細4
  6
CONTINUOUS
 62
    6
 10
359.17503941586449
 20
487.29309489717912
 11
360.17503941586449
 21
488.29309489717912
  0
LINE
  8
_0-e_極細4
  6
CONTINUOUS
 62
    6
 10
360.17503941586449
 20
488.29309489717912
 11
359.17503941586449
 21
489.29309489717912
  0
LINE
  8
_0-e_極細4
  6
CONTINUOUS
 62
    6
 10
438.67503941586449
 20
488.29309489717957
 11
360.17503941586449
 21
488.29309489717912
  0
LINE
  8
_0-e_極細4
  6
CONTINUOUS
 62
    6
 10
438.67503941586449
 20
483.69309489717921
 11
360.17503941586449
 21
483.69309489717921
  0
LINE
  8
_0-e_極細4
  6
CONTINUOUS
 62
    6
 10
438.67503941586449
 20
481.69309489717921
 11
351.97503941586376
 21
481.69309489717921
  0
LINE
  8
_0-e_極細4
  6
CONTINUOUS
 62
    6
 10
351.97503941586376
 20
487.29309489717912
 11
351.97503941586376
 21
481.69309489717921
  0
LINE
  8
_0-e_極細4
  6
CONTINUOUS
 62
    6
 10
359.17503941586449
 20
482.69309489717921
 11
359.17503941586449
 21
481.69309489717921
  0
LINE
  8
_0-e_極細4
  6
CONTINUOUS
 62
    6
 10
359.17503941586449
 20
487.29309489717912
 11
359.17503941586449
 21
484.69309489717921
  0
LINE
  8
_0-e_極細4
  6
CONTINUOUS
 62
    6
 10
351.67503941586449
 20
478.48243289717925
 11
351.67503941586449
 21
481.48243289717925
  0
LINE
  8
_0-e_極細4
  6
CONTINUOUS
 62
    6
 10
351.67503941586449
 20
481.48243289717925
 11
438.67503941586449
 21
481.48243289717925
  0
LINE
  8
_0-e_極細4
  6
CONTINUOUS
 62
    6
 10
351.67503941586449
 20
490.68243289717952
 11
438.67503941586449
 21
490.68243289717952
  0
LINE
  8
_0-e_極細4
  6
CONTINUOUS
 62
    6
 10
351.67503941586449
 20
490.68243289717952
 11
351.67503941586449
 21
492.48087489717932
  0
LINE
  8
_0-e_極細4
  6
CONTINUOUS
 62
    6
 10
384.67503941586449
 20
463.66674689717888
 11
341.67503941586449
 21
463.66674689717888
  0
LINE
  8
_0-e_極細4
  6
CONTINUOUS
 62
    6
 10
384.67503941586449
 20
461.47541889717945
 11
384.67503941586449
 21
464.43092489717924
  0
LINE
  8
_0-e_極細4
  6
CONTINUOUS
 62
    6
 10
338.71703941586395
 20
504.48087489717932
 11
324.87503941586431
 21
506.45238892651992
  0
LINE
  8
_0-e_極細4
  6
CONTINUOUS
 62
    6
 10
362.17503941586449
 20
451.66674689717888
 11
384.67503941586449
 21
451.66674689717888
  0
LINE
  8
_0-e_極細4
  6
CONTINUOUS
 62
    6
 10
384.67503941586449
 20
462.06674689717943
 11
338.71703941586395
 21
462.06674689717943
  0
LINE
  8
_0-e_極細4
  6
CONTINUOUS
 62
    6
 10
324.87503941586431
 20
505.06674689717943
 11
324.87503941586431
 21
506.45238892651992
  0
LINE
  8
_0-e_極細4
  6
CONTINUOUS
 62
    6
 10
532.92503942343239
 20
405.92553397482675
 11
517.17503941586358
 21
405.92553397482675
  0
LINE
  8
_0-e_極細4
  6
CONTINUOUS
 62
    6
 10
492.67503941586358
 20
346.48239945717171
 11
492.67503941586358
 21
464.43092489717924
  0
ARC
  8
_0-e_極細4
  6
CONTINUOUS
 62
    6
 10
490.67503941586358
 20
346.48239945717171
 40
2
 50
269.99954163376469
 51
359.99999999999966
  0
LINE
  8
_0-e_極細4
  6
CONTINUOUS
 62
    6
 10
490.67503941586358
 20
344.48239945717171
 11
438.67503941586358
 21
344.48239945717171
  0
LINE
  8
_0-e_極細4
  6
CONTINUOUS
 62
    6
 10
517.17503941586358
 20
334.06671345717189
 11
517.17503941586358
 21
388.066713457172
  0
LINE
  8
_0-e_極細4
  6
CONTINUOUS
 62
    6
 10
493.17503941586358
 20
310.06671345717189
 11
488.67503941586358
 21
310.06671345717189
  0
ARC
  8
_0-e_極細4
  6
CONTINUOUS
 62
    6
 10
493.17503941586358
 20
334.06671345717189
 40
24
 50
269.99999999999977
 51
359.99999999999966
  0
LINE
  8
_0-e_極細4
  6
CONTINUOUS
 62
    6
 10
438.67503941586358
 20
310.06671345717189
 11
440.53710741586394
 21
310.06671345717189
  0
LINE
  8
_0-e_極細4
  6
CONTINUOUS
 62
    6
 10
440.53710741586394
 20
310.06671345717189
 11
493.17503941586358
 21
310.06671345717189
  0
LINE
  8
_0-e_極細4
  6
CONTINUOUS
 62
    6
 10
517.17503941586358
 20
334.06671345717189
 11
517.17503941586358
 21
449.66674689717934
  0
LINE
  8
_0-e_極細4
  6
CONTINUOUS
 62
    6
 10
513.17503941586449
 20
334.06671345717189
 11
513.17503941586449
 21
449.66674689717934
  0
LINE
  8
_0-e_極細4
  6
CONTINUOUS
 62
    6
 10
438.67503941586358
 20
314.06671345717189
 11
493.17503941586358
 21
314.06671345717189
  0
ARC
  8
_0-e_極細4
  6
CONTINUOUS
 62
    6
 10
493.17503941586358
 20
334.06671345717189
 40
20
 50
269.99999999999977
 51
359.99999999999966
  0
LINE
  8
_0-e_極細4
  6
CONTINUOUS
 62
    6
 10
519.17503941586449
 20
478.48243289717925
 11
438.67503941586358
 21
478.48243289717925
  0
LINE
  8
_0-e_極細4
  6
CONTINUOUS
 62
    6
 10
519.17503941586449
 20
469.68243289717952
 11
519.17503941586449
 21
478.48243289717925
  0
LINE
  8
_0-e_極細4
  6
CONTINUOUS
 62
    6
 10
525.67503941586449
 20
478.48243289717925
 11
519.17503941586449
 21
478.48243289717925
  0
LINE
  8
_0-e_極細4
  6
CONTINUOUS
 62
    6
 10
523.67503941586449
 20
469.68243289717952
 11
519.17503941586449
 21
469.68243289717952
  0
LINE
  8
_0-e_極細4
  6
CONTINUOUS
 62
    6
 10
523.67503941586449
 20
467.68243289717952
 11
523.67503941586449
 21
469.68243289717952
  0
ARC
  8
_0-e_極細4
  6
CONTINUOUS
 62
    6
 10
519.67503941586449
 20
467.68243289717952
 40
4
 50
269.99999999999977
 51
359.99999999999966
  0
LINE
  8
_0-e_極細4
  6
CONTINUOUS
 62
    6
 10
519.67503941586449
 20
463.68243289717952
 11
513.67503941586449
 21
463.68243289717952
  0
ARC
  8
_0-e_極細4
  6
CONTINUOUS
 62
    6
 10
538.63303941586412
 20
500.98087489717932
 40
2.1000000000000227
 50
89.999999999999915
 51
175.84900999999832
  0
LINE
  8
_0-e_極細4
  6
CONTINUOUS
 62
    6
 10
538.63303941586412
 20
472.4388748971794
 11
538.63303941586412
 21
503.08087489717923
  0
LINE
  8
_0-e_極細4
  6
CONTINUOUS
 62
    6
 10
538.63303941586412
 20
503.06674580467757
 11
552.47503941586376
 21
505.03826089717927
  0
LINE
  8
_0-e_極細4
  6
CONTINUOUS
 62
    6
 10
544.67503941586358
 20
457.66674689717888
 11
544.67503941586358
 21
473.66674689717934
  0
ARC
  8
_0-e_極細4
  6
CONTINUOUS
 62
    6
 10
549.67503941586358
 20
449.00649289717944
 40
10
 50
119.99999999999989
 51
179.99999999999983
  0
LINE
  8
_0-e_極細4
  6
CONTINUOUS
 62
    6
 10
552.47503941586376
 20
473.66674689717934
 11
552.47503941586376
 21
474.77722889717938
  0
LINE
  8
_0-e_極細4
  6
CONTINUOUS
 62
    6
 10
544.67503941586358
 20
473.66674689717934
 11
552.47503941586376
 21
473.66674689717934
  0
LINE
  8
_0-e_極細4
  6
CONTINUOUS
 62
    6
 10
552.47503941586376
 20
474.77722889717938
 11
552.47503941586376
 21
506.42390289717946
  0
LINE
  8
_0-e_極細4
  6
CONTINUOUS
 62
    6
 10
535.67503941586449
 20
463.66674689717888
 11
535.67503941586449
 21
469.48087489717886
  0
LINE
  8
_0-e_極細4
  6
CONTINUOUS
 62
    6
 10
538.63303941586321
 20
462.06674689717943
 11
535.67503941586449
 21
463.66674689717888
  0
LINE
  8
_0-e_極細4
  6
CONTINUOUS
 62
    6
 10
552.47503941586376
 20
501.66674689717934
 11
538.63303941586412
 21
500.06674689717943
  0
ARC
  8
_0-e_極細4
  6
CONTINUOUS
 62
    6
 10
515.17503941586449
 20
449.66674689717934
 40
2
 50
0
 51
89.999999999999915
  0
ARC
  8
_0-e_極細4
  6
CONTINUOUS
 62
    6
 10
515.17503941586449
 20
449.66674689717934
 40
2
 50
89.999999999999915
 51
179.99999999999983
  0
LINE
  8
_0-e_極細4
  6
CONTINUOUS
 62
    6
 10
438.67503941586358
 20
504.48087489717932
 11
538.63303941586412
 21
504.48087489717932
  0
LINE
  8
_0-e_極細4
  6
CONTINUOUS
 62
    6
 10
519.17503941586449
 20
477.48087489717932
 11
527.27503941586394
 21
477.48087489717932
  0
LINE
  8
_0-e_極細4
  6
CONTINUOUS
 62
    6
 10
533.15748741586424
 20
499.48087489717932
 11
530.77503941586394
 21
499.48087489717932
  0
LINE
  8
_0-e_極細4
  6
CONTINUOUS
 62
    6
 10
527.27503941586394
 20
474.88087489717941
 11
527.27503941586394
 21
495.98087489717932
  0
LINE
  8
_0-e_極細4
  6
CONTINUOUS
 62
    6
 10
531.67503941586449
 20
499.48087489717932
 11
531.67503941586449
 21
504.48087489717932
  0
ARC
  8
_0-e_極細4
  6
CONTINUOUS
 62
    6
 10
530.77503941586394
 20
495.98087489717932
 40
3.4999999999999987
 50
89.999999999999915
 51
179.99999999999983
  0
ARC
  8
_0-e_極細4
  6
CONTINUOUS
 62
    6
 10
538.63303941586412
 20
500.98087489717932
 40
3.4999999999999987
 50
89.999999999999915
 51
175.84901000000218
  0
ARC
  8
_0-e_極細4
  6
CONTINUOUS
 62
    6
 10
533.15748741586424
 20
501.48087489717932
 40
2
 50
269.99999999999977
 51
356.64911200000284
  0
ARC
  8
_0-e_極細4
  6
CONTINUOUS
 62
    6
 10
533.15748741586424
 20
501.48087489717932
 40
3.3999999999999773
 50
269.99999999999977
 51
356.64911199999864
  0
LINE
  8
_0-e_極細4
  6
CONTINUOUS
 62
    6
 10
533.15748741586424
 20
498.08087489717923
 11
530.77503941586394
 21
498.08087489717923
  0
ARC
  8
_0-e_極細4
  6
CONTINUOUS
 62
    6
 10
530.77503941586394
 20
495.98087489717932
 40
2.1000000000000227
 50
89.999999999999915
 51
179.99999999999983
  0
LINE
  8
_0-e_極細4
  6
CONTINUOUS
 62
    6
 10
528.67503941586449
 20
473.48087489717932
 11
528.67503941586449
 21
495.98087489717932
  0
LINE
  8
_0-e_極細4
  6
CONTINUOUS
 62
    6
 10
538.63303941586412
 20
472.4388748971794
 11
535.67503941586449
 21
469.48087489717886
  0
LINE
  8
_0-e_極細4
  6
CONTINUOUS
 62
    6
 10
524.67503941586358
 20
465.48087489717932
 11
524.67503941586358
 21
477.48087489717932
  0
LINE
  8
_0-e_極細4
  6
CONTINUOUS
 62
    6
 10
524.67503941586358
 20
473.48087489717932
 11
528.67503941586449
 21
473.48087489717932
  0
LINE
  8
_0-e_極細4
  6
CONTINUOUS
 62
    6
 10
524.67503941586358
 20
474.88087489717941
 11
527.27503941586394
 21
474.88087489717941
  0
LINE
  8
_0-e_極細4
  6
CONTINUOUS
 62
    6
 10
523.01467141586375
 20
465.48087489717932
 11
524.67503941586358
 21
465.48087489717932
  0
LINE
  8
_0-e_極細4
  6
CONTINUOUS
 62
    6
 10
524.67503941586358
 20
469.48087489717886
 11
535.67503941586449
 21
469.48087489717886
  0
LINE
  8
_0-e_極細4
  6
CONTINUOUS
 62
    6
 10
498.24766541586371
 20
466.08087489717923
 11
508.24766541586371
 21
466.08087489717923
  0
LINE
  8
_0-e_極細4
  6
CONTINUOUS
 62
    6
 10
498.24766541586371
 20
466.08087489717923
 11
498.24766541586371
 21
469.48087489717886
  0
LINE
  8
_0-e_極細4
  6
CONTINUOUS
 62
    6
 10
508.24766541586371
 20
466.08087489717923
 11
508.24766541586371
 21
469.48087489717886
  0
LINE
  8
_0-e_極細4
  6
CONTINUOUS
 62
    6
 10
531.57503941586413
 20
499.88087489717941
 11
531.57503941586413
 21
502.48087489717932
  0
LINE
  8
_0-e_極細4
  6
CONTINUOUS
 62
    6
 10
438.67503941586358
 20
503.48087489717932
 11
530.57503941586413
 21
503.48087489717932
  0
LINE
  8
_0-e_極細4
  6
CONTINUOUS
 62
    6
 10
527.27503941586394
 20
499.48087489717932
 11
531.17503941586449
 21
499.48087489717932
  0
LINE
  8
_0-e_極細4
  6
CONTINUOUS
 62
    6
 10
527.27503941586394
 20
493.48087489717932
 11
527.27503941586394
 21
499.48087489717932
  0
ARC
  8
_0-e_極細4
  6
CONTINUOUS
 62
    6
 10
530.57503941586413
 20
502.48087489717932
 40
1
 50
0
 51
24.05454900000543
  0
ARC
  8
_0-e_極細4
  6
CONTINUOUS
 62
    6
 10
531.17503941586449
 20
499.88087489717941
 40
0.3999999999999772
 50
269.99999999999977
 51
359.99999999999966
  0
ARC
  8
_0-e_極細4
  6
CONTINUOUS
 62
    6
 10
530.57503941586413
 20
502.48087489717932
 40
1
 50
24.05454900000543
 51
89.999999999999901
  0
LINE
  8
_0-e_極細4
  6
CONTINUOUS
 62
    6
 10
439.07503941586413
 20
494.48087489717932
 11
525.07503941586413
 21
494.48087489717932
  0
LINE
  8
_0-e_極細4
  6
CONTINUOUS
 62
    6
 10
439.07503941586413
 20
492.48087489717932
 11
526.27503941586394
 21
492.48087489717932
  0
LINE
  8
_0-e_極細4
  6
CONTINUOUS
 62
    6
 10
438.67503941586358
 20
490.29309489717957
 11
526.97503941586376
 21
490.29309489717912
  0
LINE
  8
_0-e_極細4
  6
CONTINUOUS
 62
    6
 10
518.17503941586449
 20
490.29309489717912
 11
518.17503941586449
 21
489.29309489717912
  0
LINE
  8
_0-e_極細4
  6
CONTINUOUS
 62
    6
 10
525.37503941586431
 20
487.29309489717912
 11
526.97503941586376
 21
490.29309489717912
  0
LINE
  8
_0-e_極細4
  6
CONTINUOUS
 62
    6
 10
517.17503941586358
 20
483.69309489717921
 11
518.17503941586449
 21
484.69309489717921
  0
LINE
  8
_0-e_極細4
  6
CONTINUOUS
 62
    6
 10
518.17503941586449
 20
482.69309489717921
 11
517.17503941586358
 21
483.69309489717921
  0
LINE
  8
_0-e_極細4
  6
CONTINUOUS
 62
    6
 10
518.17503941586449
 20
487.29309489717912
 11
517.17503941586358
 21
488.29309489717912
  0
LINE
  8
_0-e_極細4
  6
CONTINUOUS
 62
    6
 10
517.17503941586358
 20
488.29309489717912
 11
518.17503941586449
 21
489.29309489717912
  0
LINE
  8
_0-e_極細4
  6
CONTINUOUS
 62
    6
 10
438.67503941586358
 20
488.29309489717957
 11
517.17503941586358
 21
488.29309489717912
  0
LINE
  8
_0-e_極細4
  6
CONTINUOUS
 62
    6
 10
438.67503941586358
 20
483.69309489717921
 11
517.17503941586358
 21
483.69309489717921
  0
LINE
  8
_0-e_極細4
  6
CONTINUOUS
 62
    6
 10
438.67503941586358
 20
481.69309489717921
 11
525.37503941586431
 21
481.69309489717921
  0
LINE
  8
_0-e_極細4
  6
CONTINUOUS
 62
    6
 10
525.37503941586431
 20
487.29309489717912
 11
525.37503941586431
 21
481.69309489717921
  0
LINE
  8
_0-e_極細4
  6
CONTINUOUS
 62
    6
 10
518.17503941586449
 20
482.69309489717921
 11
518.17503941586449
 21
481.69309489717921
  0
LINE
  8
_0-e_極細4
  6
CONTINUOUS
 62
    6
 10
518.17503941586449
 20
487.29309489717912
 11
518.17503941586449
 21
484.69309489717921
  0
LINE
  8
_0-e_極細4
  6
CONTINUOUS
 62
    6
 10
525.67503941586449
 20
478.48243289717925
 11
525.67503941586449
 21
481.48243289717925
  0
LINE
  8
_0-e_極細4
  6
CONTINUOUS
 62
    6
 10
525.67503941586449
 20
481.48243289717925
 11
438.67503941586358
 21
481.48243289717925
  0
LINE
  8
_0-e_極細4
  6
CONTINUOUS
 62
    6
 10
525.67503941586449
 20
490.68243289717952
 11
438.67503941586358
 21
490.68243289717952
  0
LINE
  8
_0-e_極細4
  6
CONTINUOUS
 62
    6
 10
525.67503941586449
 20
490.68243289717952
 11
525.67503941586449
 21
492.48087489717932
  0
LINE
  8
_0-e_極細4
  6
CONTINUOUS
 62
    6
 10
492.67503941586358
 20
463.66674689717888
 11
535.67503941586449
 21
463.66674689717888
  0
LINE
  8
_0-e_極細4
  6
CONTINUOUS
 62
    6
 10
492.67503941586358
 20
461.47541889717945
 11
492.67503941586358
 21
464.43092489717924
  0
LINE
  8
_0-e_極細4
  6
CONTINUOUS
 62
    6
 10
538.63303941586412
 20
504.48087489717932
 11
552.47503941586376
 21
506.45238892651992
  0
LINE
  8
_0-e_極細4
  6
CONTINUOUS
 62
    6
 10
515.17503941586449
 20
451.66674689717888
 11
492.67503941586358
 21
451.66674689717888
  0
LINE
  8
_0-e_極細4
  6
CONTINUOUS
 62
    6
 10
492.67503941586358
 20
462.06674689717943
 11
538.63303941586321
 21
462.06674689717943
  0
LINE
  8
_0-e_極細4
  6
CONTINUOUS
 62
    6
 10
552.47503941586376
 20
505.06674689717943
 11
552.47503941586376
 21
506.45238892651992
  0
LINE
  8
_0-e_極細4
  6
CONTINUOUS
 62
    6
 10
324.87503941586431
 20
506.45238892651992
 11
552.47503941586376
 21
506.45238892651992
  0
LINE
  8
_0-e_極細4
  6
CONTINUOUS
 62
    6
 10
538.63303941586412
 20
500.54780901298659
 11
542.79482804524207
 21
500.54780901298659
  0
LINE
  8
_0-e_極細4
  6
CONTINUOUS
 62
    6
 10
538.63303941586412
 20
501.74780901298686
 11
552.47503941586376
 21
501.74780901298686
  0
LINE
  8
_0-e_極細4
  6
CONTINUOUS
 62
    6
 10
538.63303941586412
 20
502.94780901298668
 11
552.47503941586376
 21
502.94780901298668
  0
LINE
  8
_0-e_極細4
  6
CONTINUOUS
 62
    6
 10
546.22318010833362
 20
504.1478090129865
 11
552.47503941586376
 21
504.1478090129865
  0
LINE
  8
_0-e_極細4
  6
CONTINUOUS
 62
    6
 10
334.555250786486
 20
500.54780901298659
 11
338.71703941586395
 21
500.54780901298659
  0
LINE
  8
_0-e_極細4
  6
CONTINUOUS
 62
    6
 10
324.87503941586431
 20
501.74780901298686
 11
338.71703941586395
 21
501.74780901298686
  0
LINE
  8
_0-e_極細4
  6
CONTINUOUS
 62
    6
 10
324.87503941586431
 20
502.94780901298668
 11
338.71703941586395
 21
502.94780901298668
  0
LINE
  8
_0-e_極細4
  6
CONTINUOUS
 62
    6
 10
324.87503941586431
 20
504.1478090129865
 11
331.12689872339445
 21
504.1478090129865
  0
ARC
  8
_0-e_極細4
  6
CONTINUOUS
 62
    6
 10
504.67503941586449
 20
464.43092489717924
 40
12
 50
155.11305268293316
 51
179.99999999999983
  0
ARC
  8
_0-e_極細4
  6
CONTINUOUS
 62
    6
 10
504.67503941586449
 20
464.43092489717924
 40
12
 50
55.166292356156568
 51
155.11305268293316
  0
ARC
  8
_0-e_極細4
  6
CONTINUOUS
 62
    6
 10
507.67503941586449
 20
469.68243289717952
 40
6
 50
358.07490068719875
 51
50.029499419963869
  0
LINE
  8
_0-e_極細4
  6
CONTINUOUS
 62
    6
 10
493.78936052121037
 20
469.48087489717886
 11
513.67503941586449
 21
469.48087489717886
  0
LINE
  8
_0-e_極細4
  6
CONTINUOUS
 62
    6
 10
513.67503941586449
 20
463.68243289717952
 11
513.67503941586449
 21
469.48087489717886
  0
LINE
  8
_0-e_極細4
  6
CONTINUOUS
 62
    6
 10
512.49668895653406
 20
469.48087489717886
 11
512.49668895653406
 21
473.25338455002452
  0
LINE
  8
_0-e_極細4
  6
CONTINUOUS
 62
    6
 10
511.29668895653333
 20
469.48087489717886
 11
511.29668895653333
 21
474.43860981231069
  0
LINE
  8
_0-e_極細4
  6
CONTINUOUS
 62
    6
 10
510.09668895653351
 20
469.48087489717886
 11
510.09668895653351
 21
475.13633083334776
  0
LINE
  8
_0-e_極細4
  6
CONTINUOUS
 62
    6
 10
508.8966889565346
 20
469.48087489717886
 11
508.8966889565346
 21
475.66380854990916
  0
LINE
  8
_0-e_極細4
  6
CONTINUOUS
 62
    6
 10
507.69668895653388
 20
469.48087489717886
 11
507.69668895653388
 21
476.04426352366249
  0
LINE
  8
_0-e_極細4
  6
CONTINUOUS
 62
    6
 10
506.49668895653315
 20
469.48087489717886
 11
506.49668895653315
 21
476.29185205111548
  0
LINE
  8
_0-e_極細4
  6
CONTINUOUS
 62
    6
 10
505.29668895653333
 20
469.48087489717886
 11
505.29668895653333
 21
476.41481207324136
  0
LINE
  8
_0-e_極細4
  6
CONTINUOUS
 62
    6
 10
504.09668895653351
 20
469.48087489717886
 11
504.09668895653351
 21
476.41697974213116
  0
LINE
  8
_0-e_極細4
  6
CONTINUOUS
 62
    6
 10
502.89668895653369
 20
469.48087489717886
 11
502.89668895653369
 21
476.29842124829725
  0
LINE
  8
_0-e_極細4
  6
CONTINUOUS
 62
    6
 10
501.69668895653388
 20
469.48087489717886
 11
501.69668895653388
 21
476.055443319093
  0
LINE
  8
_0-e_極細4
  6
CONTINUOUS
 62
    6
 10
500.49668895653315
 20
469.48087489717886
 11
500.49668895653315
 21
475.67998652200026
  0
LINE
  8
_0-e_極細4
  6
CONTINUOUS
 62
    6
 10
499.29668895653333
 20
469.48087489717886
 11
499.29668895653333
 21
475.15814943741429
  0
LINE
  8
_0-e_極細4
  6
CONTINUOUS
 62
    6
 10
498.09668895653351
 20
469.48087489717886
 11
498.09668895653351
 21
474.46712463782956
  0
LINE
  8
_0-e_極細4
  6
CONTINUOUS
 62
    6
 10
496.89668895653278
 20
469.48087489717886
 11
496.89668895653278
 21
473.56860863715588
  0
LINE
  8
_0-e_極細4
  6
CONTINUOUS
 62
    6
 10
495.69668895653388
 20
469.48087489717886
 11
495.69668895653388
 21
472.39265982302527
  0
LINE
  8
_0-e_極細4
  6
CONTINUOUS
 62
    6
 10
494.49668895653315
 20
469.48087489717886
 11
494.49668895653315
 21
470.78711730514237
  0
ARC
  8
_0-e_極細4
  6
CONTINUOUS
 62
    6
 10
369.67503941586449
 20
469.68243289717952
 40
6
 50
129.97050058004243
 51
181.92509931280023
  0
LINE
  8
_0-e_極細4
  6
CONTINUOUS
 62
    6
 10
363.67503941586449
 20
463.68243289717952
 11
363.67503941586449
 21
469.48087489717886
  0
ARC
  8
_0-e_極細4
  6
CONTINUOUS
 62
    6
 10
372.67503941586449
 20
464.43092489717924
 40
12
 50
24.886947317068667
 51
124.83370764384701
  0
LINE
  8
_0-e_極細4
  6
CONTINUOUS
 62
    6
 10
383.5607183105177
 20
469.48087489717886
 11
363.67503941586449
 21
469.48087489717886
  0
ARC
  8
_0-e_極細4
  6
CONTINUOUS
 62
    6
 10
372.67503941586449
 20
464.43092489717924
 40
12
 50
0
 51
24.886947317068667
  0
LINE
  8
_0-e_極細4
  6
CONTINUOUS
 62
    6
 10
382.89668895653369
 20
469.48087489717886
 11
382.89668895653369
 21
470.71724979076612
  0
LINE
  8
_0-e_極細4
  6
CONTINUOUS
 62
    6
 10
381.69668895653388
 20
469.48087489717886
 11
381.69668895653388
 21
472.34356286219077
  0
LINE
  8
_0-e_極細4
  6
CONTINUOUS
 62
    6
 10
380.49668895653406
 20
469.48087489717886
 11
380.49668895653406
 21
473.53157314128498
  0
LINE
  8
_0-e_極細4
  6
CONTINUOUS
 62
    6
 10
379.29668895653333
 20
469.48087489717886
 11
379.29668895653333
 21
474.43860981231114
  0
LINE
  8
_0-e_極細4
  6
CONTINUOUS
 62
    6
 10
378.09668895653351
 20
469.48087489717886
 11
378.09668895653351
 21
475.13633083334821
  0
LINE
  8
_0-e_極細4
  6
CONTINUOUS
 62
    6
 10
376.89668895653369
 20
469.48087489717886
 11
376.89668895653369
 21
475.66380854990916
  0
LINE
  8
_0-e_極細4
  6
CONTINUOUS
 62
    6
 10
375.69668895653388
 20
469.48087489717886
 11
375.69668895653388
 21
476.04426352366295
  0
LINE
  8
_0-e_極細4
  6
CONTINUOUS
 62
    6
 10
374.49668895653315
 20
469.48087489717886
 11
374.49668895653315
 21
476.29185205111548
  0
LINE
  8
_0-e_極細4
  6
CONTINUOUS
 62
    6
 10
373.29668895653333
 20
469.48087489717886
 11
373.29668895653333
 21
476.41481207324136
  0
LINE
  8
_0-e_極細4
  6
CONTINUOUS
 62
    6
 10
372.09668895653351
 20
469.48087489717886
 11
372.09668895653351
 21
476.41697974213116
  0
LINE
  8
_0-e_極細4
  6
CONTINUOUS
 62
    6
 10
370.89668895653369
 20
469.48087489717886
 11
370.89668895653369
 21
476.29842124829725
  0
LINE
  8
_0-e_極細4
  6
CONTINUOUS
 62
    6
 10
369.69668895653297
 20
469.48087489717886
 11
369.69668895653297
 21
476.05544331909255
  0
LINE
  8
_0-e_極細4
  6
CONTINUOUS
 62
    6
 10
368.49668895653315
 20
469.48087489717886
 11
368.49668895653315
 21
475.67998652199981
  0
LINE
  8
_0-e_極細4
  6
CONTINUOUS
 62
    6
 10
367.29668895653333
 20
469.48087489717886
 11
367.29668895653333
 21
475.15814943741429
  0
LINE
  8
_0-e_極細4
  6
CONTINUOUS
 62
    6
 10
366.09668895653351
 20
469.48087489717886
 11
366.09668895653351
 21
474.4671246378291
  0
LINE
  8
_0-e_極細4
  6
CONTINUOUS
 62
    6
 10
364.89668895653278
 20
469.48087489717886
 11
364.89668895653278
 21
473.31111955874326
  0
LINE
  8
_0-e_極細4
  6
CONTINUOUS
 62
    6
 10
363.69668895653297
 20
469.48087489717886
 11
363.69668895653297
 21
470.19167329759443
  0
LINE
  8
_0-e_極細4
  6
CONTINUOUS
 62
    6
 10
507.69668895653388
 20
466.08087489717923
 11
507.69668895653388
 21
469.48087489717886
  0
LINE
  8
_0-e_極細4
  6
CONTINUOUS
 62
    6
 10
506.49668895653406
 20
466.08087489717923
 11
506.49668895653406
 21
469.48087489717886
  0
LINE
  8
_0-e_極細4
  6
CONTINUOUS
 62
    6
 10
505.29668895653333
 20
466.08087489717923
 11
505.29668895653333
 21
469.48087489717886
  0
LINE
  8
_0-e_極細4
  6
CONTINUOUS
 62
    6
 10
504.09668895653351
 20
466.08087489717923
 11
504.09668895653351
 21
469.48087489717886
  0
LINE
  8
_0-e_極細4
  6
CONTINUOUS
 62
    6
 10
502.8966889565346
 20
466.08087489717923
 11
502.8966889565346
 21
469.48087489717886
  0
LINE
  8
_0-e_極細4
  6
CONTINUOUS
 62
    6
 10
501.69668895653388
 20
466.08087489717923
 11
501.69668895653388
 21
469.48087489717886
  0
LINE
  8
_0-e_極細4
  6
CONTINUOUS
 62
    6
 10
500.49668895653315
 20
466.08087489717923
 11
500.49668895653315
 21
469.48087489717886
  0
LINE
  8
_0-e_極細4
  6
CONTINUOUS
 62
    6
 10
499.29668895653333
 20
466.08087489717923
 11
499.29668895653333
 21
469.48087489717886
  0
LINE
  8
_0-e_極細4
  6
CONTINUOUS
 62
    6
 10
378.09668895653351
 20
466.08087489717923
 11
378.09668895653351
 21
469.48087489717886
  0
LINE
  8
_0-e_極細4
  6
CONTINUOUS
 62
    6
 10
376.89668895653369
 20
466.08087489717923
 11
376.89668895653369
 21
469.48087489717886
  0
LINE
  8
_0-e_極細4
  6
CONTINUOUS
 62
    6
 10
375.69668895653388
 20
466.08087489717923
 11
375.69668895653388
 21
469.48087489717886
  0
LINE
  8
_0-e_極細4
  6
CONTINUOUS
 62
    6
 10
374.49668895653406
 20
466.08087489717923
 11
374.49668895653406
 21
469.48087489717886
  0
LINE
  8
_0-e_極細4
  6
CONTINUOUS
 62
    6
 10
373.29668895653333
 20
466.08087489717923
 11
373.29668895653333
 21
469.48087489717886
  0
LINE
  8
_0-e_極細4
  6
CONTINUOUS
 62
    6
 10
372.09668895653351
 20
466.08087489717923
 11
372.09668895653351
 21
469.48087489717886
  0
LINE
  8
_0-e_極細4
  6
CONTINUOUS
 62
    6
 10
370.89668895653369
 20
466.08087489717923
 11
370.89668895653369
 21
469.48087489717886
  0
LINE
  8
_0-e_極細4
  6
CONTINUOUS
 62
    6
 10
369.69668895653388
 20
466.08087489717923
 11
369.69668895653388
 21
469.48087489717886
  0
LINE
  8
_0-e_極細4
  6
CONTINUOUS
 62
    6
 10
357.69668895653388
 20
469.68243289717952
 11
357.69668895653388
 21
477.48087489717932
  0
LINE
  8
_0-e_極細4
  6
CONTINUOUS
 62
    6
 10
356.49668895653406
 20
469.68243289717952
 11
356.49668895653406
 21
477.48087489717932
  0
LINE
  8
_0-e_極細4
  6
CONTINUOUS
 62
    6
 10
355.29668895653333
 20
469.68243289717952
 11
355.29668895653333
 21
477.48087489717932
  0
LINE
  8
_0-e_極細4
  6
CONTINUOUS
 62
    6
 10
354.09668895653351
 20
465.48087489717932
 11
354.09668895653351
 21
465.89486248172466
  0
LINE
  8
_0-e_極細4
  6
CONTINUOUS
 62
    6
 10
354.09668895653351
 20
469.68243289717952
 11
354.09668895653351
 21
477.48087489717932
  0
LINE
  8
_0-e_極細4
  6
CONTINUOUS
 62
    6
 10
352.89668895653369
 20
465.48087489717932
 11
352.89668895653369
 21
477.48087489717932
  0
LINE
  8
_0-e_極細4
  6
CONTINUOUS
 62
    6
 10
524.49668895653406
 20
465.48087489717932
 11
524.49668895653406
 21
477.48087489717932
  0
LINE
  8
_0-e_極細4
  6
CONTINUOUS
 62
    6
 10
523.29668895653333
 20
465.48087489717932
 11
523.29668895653333
 21
465.98430021550689
  0
LINE
  8
_0-e_極細4
  6
CONTINUOUS
 62
    6
 10
523.29668895653333
 20
469.68243289717952
 11
523.29668895653333
 21
477.48087489717932
  0
LINE
  8
_0-e_極細4
  6
CONTINUOUS
 62
    6
 10
522.09668895653351
 20
469.68243289717952
 11
522.09668895653351
 21
477.48087489717932
  0
LINE
  8
_0-e_極細4
  6
CONTINUOUS
 62
    6
 10
520.8966889565346
 20
469.68243289717952
 11
520.8966889565346
 21
477.48087489717932
  0
LINE
  8
_0-e_極細4
  6
CONTINUOUS
 62
    6
 10
519.69668895653388
 20
469.68243289717952
 11
519.69668895653388
 21
477.48087489717932
  0
LINE
  8
_0-e_極細4
  6
CONTINUOUS
 62
    6
 10
537.69668895653388
 20
471.50252443784916
 11
537.69668895653388
 21
502.86056844063592
  0
LINE
  8
_0-e_極細4
  6
CONTINUOUS
 62
    6
 10
536.49668895653406
 20
470.30252443784934
 11
536.49668895653406
 21
500.84077094406825
  0
LINE
  8
_0-e_極細4
  6
CONTINUOUS
 62
    6
 10
535.29668895653333
 20
469.48087489717886
 11
535.29668895653333
 21
498.83818369910182
  0
LINE
  8
_0-e_極細4
  6
CONTINUOUS
 62
    6
 10
534.09668895653351
 20
469.48087489717886
 11
534.09668895653351
 21
498.21316920877894
  0
LINE
  8
_0-e_極細4
  6
CONTINUOUS
 62
    6
 10
532.8966889565346
 20
469.48087489717886
 11
532.8966889565346
 21
498.08087489717923
  0
LINE
  8
_0-e_極細4
  6
CONTINUOUS
 62
    6
 10
531.69668895653388
 20
469.48087489717886
 11
531.69668895653388
 21
498.08087489717923
  0
LINE
  8
_0-e_極細4
  6
CONTINUOUS
 62
    6
 10
530.49668895653315
 20
469.48087489717886
 11
530.49668895653315
 21
498.06234577657938
  0
LINE
  8
_0-e_極細4
  6
CONTINUOUS
 62
    6
 10
529.29668895653333
 20
469.48087489717886
 11
529.29668895653333
 21
497.47234394459451
  0
LINE
  8
_0-e_極細4
  6
CONTINUOUS
 62
    6
 10
528.09668895653351
 20
469.48087489717886
 11
528.09668895653351
 21
473.48087489717932
  0
LINE
  8
_0-e_極細4
  6
CONTINUOUS
 62
    6
 10
526.89668895653369
 20
469.48087489717886
 11
526.89668895653369
 21
473.48087489717932
  0
LINE
  8
_0-e_極細4
  6
CONTINUOUS
 62
    6
 10
525.69668895653388
 20
469.48087489717886
 11
525.69668895653388
 21
473.48087489717932
  0
LINE
  8
_0-e_極細4
  6
CONTINUOUS
 62
    6
 10
351.69668895653388
 20
469.48087489717886
 11
351.69668895653388
 21
473.48087489717932
  0
LINE
  8
_0-e_極細4
  6
CONTINUOUS
 62
    6
 10
350.49668895653406
 20
469.48087489717886
 11
350.49668895653406
 21
473.48087489717932
  0
LINE
  8
_0-e_極細4
  6
CONTINUOUS
 62
    6
 10
349.29668895653333
 20
469.48087489717886
 11
349.29668895653333
 21
473.48087489717932
  0
LINE
  8
_0-e_極細4
  6
CONTINUOUS
 62
    6
 10
348.09668895653351
 20
469.48087489717886
 11
348.09668895653351
 21
497.42814221021467
  0
LINE
  8
_0-e_極細4
  6
CONTINUOUS
 62
    6
 10
346.89668895653369
 20
469.48087489717886
 11
346.89668895653369
 21
498.05609574638697
  0
LINE
  8
_0-e_極細4
  6
CONTINUOUS
 62
    6
 10
345.69668895653388
 20
469.48087489717886
 11
345.69668895653388
 21
498.08087489717923
  0
LINE
  8
_0-e_極細4
  6
CONTINUOUS
 62
    6
 10
344.49668895653315
 20
469.48087489717886
 11
344.49668895653315
 21
498.08087489717923
  0
LINE
  8
_0-e_極細4
  6
CONTINUOUS
 62
    6
 10
343.29668895653333
 20
469.48087489717886
 11
343.29668895653333
 21
498.20103362306759
  0
LINE
  8
_0-e_極細4
  6
CONTINUOUS
 62
    6
 10
342.09668895653351
 20
469.48087489717886
 11
342.09668895653351
 21
498.80371354959993
  0
LINE
  8
_0-e_極細4
  6
CONTINUOUS
 62
    6
 10
340.89668895653369
 20
470.25922535651011
 11
340.89668895653369
 21
500.64599348130128
  0
LINE
  8
_0-e_極細4
  6
CONTINUOUS
 62
    6
 10
339.69668895653297
 20
471.45922535650993
 11
339.69668895653297
 21
502.83836965557452
  0
LINE
  8
_0-e_極細4
  6
CONTINUOUS
 62
    6
 10
518.17503941586449
 20
482.54780901298659
 11
525.37503941586431
 21
482.54780901298659
  0
LINE
  8
_0-e_極細4
  6
CONTINUOUS
 62
    6
 10
517.22975353167124
 20
483.74780901298686
 11
525.37503941586431
 21
483.74780901298686
  0
LINE
  8
_0-e_極細4
  6
CONTINUOUS
 62
    6
 10
518.17503941586449
 20
484.94780901298668
 11
525.37503941586431
 21
484.94780901298668
  0
LINE
  8
_0-e_極細4
  6
CONTINUOUS
 62
    6
 10
518.17503941586449
 20
486.1478090129865
 11
525.37503941586431
 21
486.1478090129865
  0
LINE
  8
_0-e_極細4
  6
CONTINUOUS
 62
    6
 10
518.12032530005592
 20
487.34780901298677
 11
525.40422027762827
 21
487.34780901298677
  0
LINE
  8
_0-e_極細4
  6
CONTINUOUS
 62
    6
 10
517.42975353167105
 20
488.54780901298659
 11
526.0442202776286
 21
488.54780901298659
  0
LINE
  8
_0-e_極細4
  6
CONTINUOUS
 62
    6
 10
518.17503941586449
 20
489.74780901298641
 11
526.68422027762801
 21
489.74780901298641
  0
LINE
  8
_0-e_極細4
  6
CONTINUOUS
 62
    6
 10
351.97503941586376
 20
482.54780901298659
 11
359.17503941586449
 21
482.54780901298659
  0
LINE
  8
_0-e_極細4
  6
CONTINUOUS
 62
    6
 10
351.97503941586376
 20
483.74780901298686
 11
360.12032530005683
 21
483.74780901298686
  0
LINE
  8
_0-e_極細4
  6
CONTINUOUS
 62
    6
 10
351.97503941586376
 20
484.94780901298668
 11
359.17503941586449
 21
484.94780901298668
  0
LINE
  8
_0-e_極細4
  6
CONTINUOUS
 62
    6
 10
351.97503941586376
 20
486.1478090129865
 11
359.17503941586449
 21
486.1478090129865
  0
LINE
  8
_0-e_極細4
  6
CONTINUOUS
 62
    6
 10
351.9458585540998
 20
487.34780901298677
 11
359.22975353167124
 21
487.34780901298677
  0
LINE
  8
_0-e_極細4
  6
CONTINUOUS
 62
    6
 10
351.30585855410038
 20
488.54780901298659
 11
359.92032530005702
 21
488.54780901298659
  0
LINE
  8
_0-e_極細4
  6
CONTINUOUS
 62
    6
 10
350.66585855410005
 20
489.74780901298641
 11
359.17503941586449
 21
489.74780901298641
  0
CIRCLE
  8
_1-1_寸法4
  6
CONTINUOUS
 62
    7
 10
527.27503941586394
 20
486.16418747062767
 40
40
  0
LINE
  8
_0-e_極細4
  6
CONTINUOUS
 62
    6
 10
539.93625541586346
 20
277.77445889717649
 11
611.44646341586315
 21
279.53772289717756
  0
LINE
  8
_0-e_極細4
  6
CONTINUOUS
 62
    6
 10
611.44646341586315
 20
279.53772289717756
 11
611.44646341586315
 21
387.29282689717752
  0
LINE
  8
_0-e_極細4
  6
CONTINUOUS
 62
    6
 10
539.67503941586358
 20
389.06253183452031
 11
611.44646341586315
 21
387.29282689717752
  0
LINE
  8
_0-e_極細4
  6
CONTINUOUS
 62
    6
 10
539.67503941586358
 20
389.06253183452031
 11
539.67503941586358
 21
449.00649289717944
  0
LINE
  8
_0-e_極細4
  6
CONTINUOUS
 62
    6
 10
337.67503941586449
 20
293.77445889717649
 11
337.67503941586449
 21
449.00649289717944
  0
LINE
  8
_0-e_極細4
  6
CONTINUOUS
 62
    6
 10
353.67503941586449
 20
277.77445889717649
 11
539.93625541586346
 21
277.77445889717649
  0
ARC
  8
_0-e_極細4
  6
CONTINUOUS
 62
    6
 10
353.67503941586449
 20
293.77445889717649
 40
16
 50
179.99999999999983
 51
269.99999999999977
  0
LINE
  8
_0-e_極細4
  6
CONTINUOUS
 62
    6
 10
354.67503941586449
 20
281.69282689717886
 11
539.93625541586346
 21
281.69282689717886
  0
LINE
  8
_0-e_極細4
  6
CONTINUOUS
 62
    6
 10
342.67503941586449
 20
293.69282689717886
 11
342.67503941586449
 21
407.90984745717174
  0
ARC
  8
_0-e_極細4
  6
CONTINUOUS
 62
    6
 10
354.67503941586449
 20
293.69282689717886
 40
12
 50
179.99999999999983
 51
269.99999999999977
  0
LINE
  8
_0-e_極細4
  6
CENTER2
 62
    6
 10
438.67503941586358
 20
528.57917486841279
 11
438.67503941586358
 21
238.80445150708294
  0
LINE
  8
_0-e_極細4
  6
CONTINUOUS
 62
    6
 10
534.67503941586449
 20
407.90984745717174
 11
534.67503941586449
 21
462.06674689717943
  0
ARC
  8
_0-e_極細4
  6
CONTINUOUS
 62
    6
 10
532.67503941586449
 20
407.90984745717174
 40
2
 50
277.18075599997627
 51
359.99999999999966
  0
LINE
  8
_0-e_極細4
  6
CONTINUOUS
 62
    6
 10
435.19442477610039
 20
277.77445889717649
 11
438.67503941586449
 21
281.25507353694013
  0
LINE
  8
_0-e_極細4
  6
CONTINUOUS
 62
    6
 10
430.9517840889813
 20
277.77445889717649
 11
434.87015208898367
 21
281.69282689717886
  0
LINE
  8
_0-e_極細4
  6
CONTINUOUS
 62
    6
 10
426.70914340186221
 20
277.77445889717649
 11
430.62751140186458
 21
281.69282689717886
  0
LINE
  8
_0-e_極細4
  6
CONTINUOUS
 62
    6
 10
422.46650271474221
 20
277.77445889717649
 11
426.38487071474458
 21
281.69282689717886
  0
LINE
  8
_0-e_極細4
  6
CONTINUOUS
 62
    6
 10
418.22386202762311
 20
277.77445889717649
 11
422.14223002762549
 21
281.69282689717886
  0
LINE
  8
_0-e_極細4
  6
CONTINUOUS
 62
    6
 10
413.98122134050402
 20
277.77445889717649
 11
417.8995893405064
 21
281.69282689717886
  0
LINE
  8
_0-e_極細4
  6
CONTINUOUS
 62
    6
 10
409.73858065338493
 20
277.77445889717649
 11
413.6569486533873
 21
281.69282689717886
  0
LINE
  8
_0-e_極細4
  6
CONTINUOUS
 62
    6
 10
405.49593996626584
 20
277.77445889717649
 11
409.41430796626821
 21
281.69282689717886
  0
LINE
  8
_0-e_極細4
  6
CONTINUOUS
 62
    6
 10
401.25329927914584
 20
277.77445889717649
 11
405.17166727914821
 21
281.69282689717886
  0
LINE
  8
_0-e_極細4
  6
CONTINUOUS
 62
    6
 10
397.01065859202674
 20
277.77445889717649
 11
400.92902659202912
 21
281.69282689717886
  0
LINE
  8
_0-e_極細4
  6
CONTINUOUS
 62
    6
 10
392.76801790490765
 20
277.77445889717649
 11
396.68638590491003
 21
281.69282689717886
  0
LINE
  8
_0-e_極細4
  6
CONTINUOUS
 62
    6
 10
388.52537721778856
 20
277.77445889717649
 11
392.44374521779093
 21
281.69282689717886
  0
LINE
  8
_0-e_極細4
  6
CONTINUOUS
 62
    6
 10
384.28273653066856
 20
277.77445889717649
 11
388.20110453067184
 21
281.69282689717886
  0
LINE
  8
_0-e_極細4
  6
CONTINUOUS
 62
    6
 10
380.04009584354947
 20
277.77445889717649
 11
383.95846384355184
 21
281.69282689717886
  0
LINE
  8
_0-e_極細4
  6
CONTINUOUS
 62
    6
 10
375.79745515643037
 20
277.77445889717649
 11
379.71582315643275
 21
281.69282689717886
  0
LINE
  8
_0-e_極細4
  6
CONTINUOUS
 62
    6
 10
371.55481446931128
 20
277.77445889717649
 11
375.47318246931366
 21
281.69282689717886
  0
LINE
  8
_0-e_極細4
  6
CONTINUOUS
 62
    6
 10
367.31217378219219
 20
277.77445889717649
 11
371.23054178219456
 21
281.69282689717886
  0
LINE
  8
_0-e_極細4
  6
CONTINUOUS
 62
    6
 10
363.06953309507219
 20
277.77445889717649
 11
366.98790109507547
 21
281.69282689717886
  0
LINE
  8
_0-e_極細4
  6
CONTINUOUS
 62
    6
 10
358.8268924079531
 20
277.77445889717649
 11
362.74526040795547
 21
281.69282689717886
  0
LINE
  8
_0-e_極細4
  6
CONTINUOUS
 62
    6
 10
354.584251720834
 20
277.77445889717649
 11
358.50261972083638
 21
281.69282689717886
  0
LINE
  8
_0-e_極細4
  6
CONTINUOUS
 62
    6
 10
350.63338571232009
 20
278.06623357578167
 11
354.26692106618168
 21
281.69976892964394
  0
LINE
  8
_0-e_極細4
  6
CONTINUOUS
 62
    6
 10
347.38655979930274
 20
279.06204834988387
 11
350.69617831895459
 21
282.37166686953594
  0
LINE
  8
_0-e_極細4
  6
CONTINUOUS
 62
    6
 10
344.64681755516369
 20
280.56494679286436
 11
347.8823251788873
 21
283.80045441658751
  0
LINE
  8
_0-e_極細4
  6
CONTINUOUS
 62
    6
 10
342.33069728055955
 20
282.49146720537976
 11
345.63753391444891
 21
285.79830383926844
  0
LINE
  8
_0-e_極細4
  6
CONTINUOUS
 62
    6
 10
340.41588782000611
 20
284.81929843194496
 11
343.93556606607774
 21
288.33897667801659
  0
LINE
  8
_0-e_極細4
  6
CONTINUOUS
 62
    6
 10
338.92609602492769
 20
287.57214732398563
 11
342.87348065843264
 21
291.51953195749059
  0
LINE
  8
_0-e_極細4
  6
CONTINUOUS
 62
    6
 10
337.94720289776353
 20
290.83589488394102
 11
342.67503941586449
 21
295.56373140204198
  0
LINE
  8
_0-e_極細4
  6
CONTINUOUS
 62
    6
 10
337.67503941586449
 20
294.8063720891613
 11
342.67503941586449
 21
299.8063720891613
  0
LINE
  8
_0-e_極細4
  6
CONTINUOUS
 62
    6
 10
337.67503941586449
 20
299.04901277628062
 11
342.67503941586449
 21
304.04901277628062
  0
LINE
  8
_0-e_極細4
  6
CONTINUOUS
 62
    6
 10
337.67503941586449
 20
303.29165346339971
 11
342.67503941586449
 21
308.29165346339971
  0
LINE
  8
_0-e_極細4
  6
CONTINUOUS
 62
    6
 10
337.67503941586449
 20
307.53429415051926
 11
342.67503941586449
 21
312.53429415051926
  0
LINE
  8
_0-e_極細4
  6
CONTINUOUS
 62
    6
 10
337.67503941586449
 20
311.77693483763858
 11
342.67503941586449
 21
316.77693483763835
  0
LINE
  8
_0-e_極細4
  6
CONTINUOUS
 62
    6
 10
337.67503941586449
 20
316.0195755247579
 11
342.67503941586449
 21
321.0195755247579
  0
LINE
  8
_0-e_極細4
  6
CONTINUOUS
 62
    6
 10
337.67503941586449
 20
320.26221621187699
 11
342.67503941586449
 21
325.26221621187699
  0
LINE
  8
_0-e_極細4
  6
CONTINUOUS
 62
    6
 10
337.67503941586449
 20
324.50485689899654
 11
342.67503941586449
 21
329.50485689899654
  0
LINE
  8
_0-e_極細4
  6
CONTINUOUS
 62
    6
 10
337.67503941586449
 20
328.74749758611563
 11
342.67503941586449
 21
333.74749758611563
  0
LINE
  8
_0-e_極細4
  6
CONTINUOUS
 62
    6
 10
337.67503941586449
 20
332.99013827323495
 11
342.67503941586449
 21
337.99013827323495
  0
LINE
  8
_0-e_極細4
  6
CONTINUOUS
 62
    6
 10
337.67503941586449
 20
337.23277896035427
 11
342.67503941586449
 21
342.23277896035427
  0
LINE
  8
_0-e_極細4
  6
CONTINUOUS
 62
    6
 10
337.67503941586449
 20
341.47541964747336
 11
342.67503941586449
 21
346.47541964747336
  0
LINE
  8
_0-e_極細4
  6
CONTINUOUS
 62
    6
 10
337.67503941586449
 20
345.71806033459291
 11
342.67503941586449
 21
350.71806033459291
  0
LINE
  8
_0-e_極細4
  6
CONTINUOUS
 62
    6
 10
337.67503941586449
 20
349.960701021712
 11
342.67503941586449
 21
354.960701021712
  0
LINE
  8
_0-e_極細4
  6
CONTINUOUS
 62
    6
 10
337.67503941586449
 20
354.20334170883132
 11
342.67503941586449
 21
359.20334170883132
  0
LINE
  8
_0-e_極細4
  6
CONTINUOUS
 62
    6
 10
337.67503941586449
 20
358.44598239595064
 11
342.67503941586449
 21
363.44598239595064
  0
LINE
  8
_0-e_極細4
  6
CONTINUOUS
 62
    6
 10
337.67503941586449
 20
362.68862308306973
 11
342.67503941586449
 21
367.68862308306973
  0
LINE
  8
_0-e_極細4
  6
CONTINUOUS
 62
    6
 10
337.67503941586449
 20
366.93126377018928
 11
342.67503941586449
 21
371.93126377018928
  0
LINE
  8
_0-e_極細4
  6
CONTINUOUS
 62
    6
 10
337.67503941586449
 20
371.17390445730859
 11
342.67503941586449
 21
376.17390445730848
  0
LINE
  8
_0-e_極細4
  6
CONTINUOUS
 62
    6
 10
337.67503941586449
 20
375.41654514442757
 11
342.67503941586449
 21
380.41654514442757
  0
LINE
  8
_0-e_極細4
  6
CONTINUOUS
 62
    6
 10
337.67503941586449
 20
379.65918583154712
 11
342.67503941586449
 21
384.65918583154712
  0
LINE
  8
_0-e_極細4
  6
CONTINUOUS
 62
    6
 10
337.67503941586449
 20
383.90182651866667
 11
342.67503941586449
 21
388.90182651866621
  0
LINE
  8
_0-e_極細4
  6
CONTINUOUS
 62
    6
 10
337.67503941586449
 20
388.14446720578576
 11
342.67503941586449
 21
393.14446720578576
  0
LINE
  8
_0-e_極細4
  6
CONTINUOUS
 62
    6
 10
337.67503941586449
 20
392.38710789290485
 11
342.67503941586449
 21
397.38710789290485
  0
LINE
  8
_0-e_極細4
  6
CONTINUOUS
 62
    6
 10
337.67503941586449
 20
396.6297485800244
 11
342.67503941586449
 21
401.62974858002394
  0
LINE
  8
_0-e_極細4
  6
CONTINUOUS
 62
    6
 10
337.67503941586449
 20
400.87238926714349
 11
342.67503941586449
 21
405.87238926714349
  0
LINE
  8
_0-e_極細4
  6
CONTINUOUS
 62
    6
 10
337.67503941586449
 20
405.11502995426304
 11
342.67503941586449
 21
410.11502995426258
  0
LINE
  8
_0-e_極細4
  6
CONTINUOUS
 62
    6
 10
337.67503941586449
 20
409.35767064138213
 11
342.67503941586449
 21
414.35767064138213
  0
LINE
  8
_0-e_極細4
  6
CONTINUOUS
 62
    6
 10
337.67503941586449
 20
413.60031132850168
 11
342.67503941586449
 21
418.60031132850122
  0
LINE
  8
_0-e_極細4
  6
CONTINUOUS
 62
    6
 10
337.67503941586449
 20
417.84295201562077
 11
342.67503941586449
 21
422.84295201562077
  0
LINE
  8
_0-e_極細4
  6
CONTINUOUS
 62
    6
 10
337.67503941586449
 20
422.08559270273986
 11
342.67503941586449
 21
427.08559270273986
  0
LINE
  8
_0-e_極細4
  6
CONTINUOUS
 62
    6
 10
337.67503941586449
 20
426.32823338985941
 11
342.67503941586449
 21
431.32823338985941
  0
LINE
  8
_0-e_極細4
  6
CONTINUOUS
 62
    6
 10
337.67503941586449
 20
430.5708740769785
 11
342.67503941586449
 21
435.5708740769785
  0
LINE
  8
_0-e_極細4
  6
CONTINUOUS
 62
    6
 10
337.67503941586449
 20
434.81351476409804
 11
342.67503941586449
 21
439.81351476409759
  0
LINE
  8
_0-e_極細4
  6
CONTINUOUS
 62
    6
 10
337.67503941586449
 20
439.05615545121714
 11
342.67503941586449
 21
444.05615545121714
  0
LINE
  8
_0-e_極細4
  6
CONTINUOUS
 62
    6
 10
337.67503941586449
 20
443.29879613833623
 11
342.67503941586449
 21
448.29879613833623
  0
LINE
  8
_0-e_極細4
  6
CONTINUOUS
 62
    6
 10
337.67503941586449
 20
447.54143682545578
 11
342.67503941586449
 21
452.54143682545578
  0
LINE
  8
_0-e_極細4
  6
CONTINUOUS
 62
    6
 10
337.36565324717878
 20
451.47469134388916
 11
342.67503941586449
 21
456.78407751257487
  0
LINE
  8
_0-e_極細4
  6
CONTINUOUS
 62
    6
 10
336.07725167653473
 20
454.4289304603642
 11
342.67503941586449
 21
461.02671819969396
  0
LINE
  8
_0-e_極細4
  6
CONTINUOUS
 62
    6
 10
334.08642491743478
 20
456.6807443883838
 11
339.47242742622996
 21
462.06674689717943
  0
LINE
  8
_0-e_極細4
  6
CONTINUOUS
 62
    6
 10
340.36242802754452
 20
462.956747498494
 11
341.67503941586449
 21
464.26935888681351
  0
LINE
  8
_0-e_極細4
  6
CONTINUOUS
 62
    6
 10
332.67503941586449
 20
459.5119995739326
 11
341.67503941586449
 21
468.5119995739326
  0
LINE
  8
_0-e_極細4
  6
CONTINUOUS
 62
    6
 10
332.67503941586449
 20
463.75464026105215
 11
340.0381567339283
 21
471.1177575791155
  0
LINE
  8
_0-e_極細4
  6
CONTINUOUS
 62
    6
 10
332.67503941586449
 20
467.99728094817124
 11
338.71703941586395
 21
474.03928094817115
  0
LINE
  8
_0-e_極細4
  6
CONTINUOUS
 62
    6
 10
332.67503941586449
 20
472.23992163529078
 11
338.71703941586395
 21
478.28192163529025
  0
LINE
  8
_0-e_極細4
  6
CONTINUOUS
 62
    6
 10
329.85922399063395
 20
473.66674689717934
 11
338.71703941586395
 21
482.52456232240979
  0
LINE
  8
_0-e_極細4
  6
CONTINUOUS
 62
    6
 10
325.61658330351486
 20
473.66674689717934
 11
338.71703941586395
 21
486.76720300952888
  0
LINE
  8
_0-e_極細4
  6
CONTINUOUS
 62
    6
 10
324.87503941586431
 20
477.16784369664833
 11
338.71703941586395
 21
491.00984369664843
  0
LINE
  8
_0-e_極細4
  6
CONTINUOUS
 62
    6
 10
324.87503941586431
 20
481.41048438376743
 11
338.71703941586395
 21
495.25248438376752
  0
LINE
  8
_0-e_極細4
  6
CONTINUOUS
 62
    6
 10
324.87503941586431
 20
485.65312507088652
 11
338.71703941586395
 21
499.49512507088707
  0
LINE
  8
_0-e_極細4
  6
CONTINUOUS
 62
    6
 10
324.87503941586431
 20
489.89576575800606
 11
335.42638774693762
 21
500.44711408907938
  0
LINE
  8
_0-e_極細4
  6
CONTINUOUS
 62
    6
 10
324.87503941586431
 20
494.13840644512561
 11
331.62334200214366
 21
500.88670903140496
  0
LINE
  8
_0-e_極細4
  6
CONTINUOUS
 62
    6
 10
324.87503941586431
 20
498.3810471322447
 11
327.82029625735061
 21
501.32630397373055
  0
LINE
  8
_0-e_極細4
  6
CONTINUOUS
 62
    6
 10
539.83966341586358
 20
281.69164289717821
 11
611.44646341586315
 21
283.45728861582904
  0
LINE
  8
_0-e_極細4
  6
CONTINUOUS
 62
    6
 10
517.17503941586358
 20
385.69777538785888
 11
611.44646341586315
 21
383.37327717935227
  0
LINE
  8
_0-e_極細4
  6
CONTINUOUS
 62
    6
 10
610.89229246978095
 20
279.52405841896677
 11
611.44646341586315
 21
280.07822936504874
  0
LINE
  8
_0-e_極細4
  6
CONTINUOUS
 62
    6
 10
606.54239409996637
 20
279.41680073627128
 11
610.56104988236814
 21
283.43545651867282
  0
LINE
  8
_0-e_極細4
  6
CONTINUOUS
 62
    6
 10
602.19249573015179
 20
279.30954305357557
 11
606.21115151255356
 21
283.32819883597733
  0
LINE
  8
_0-e_極細4
  6
CONTINUOUS
 62
    6
 10
597.84259736033721
 20
279.20228537088008
 11
601.86125314273897
 21
283.22094115328184
  0
LINE
  8
_0-e_極細4
  6
CONTINUOUS
 62
    6
 10
593.49269899052172
 20
279.09502768818459
 11
597.51135477292439
 21
283.11368347058658
  0
LINE
  8
_0-e_極細4
  6
CONTINUOUS
 62
    6
 10
589.14280062070713
 20
278.9877700054891
 11
593.16145640310981
 21
283.00642578789132
  0
LINE
  8
_0-e_極細4
  6
CONTINUOUS
 62
    6
 10
584.79290225089255
 20
278.88051232279315
 11
588.81155803329523
 21
282.89916810519583
  0
LINE
  8
_0-e_極細4
  6
CONTINUOUS
 62
    6
 10
580.44300388107706
 20
278.77325464009766
 11
584.46165966348065
 21
282.79191042250034
  0
LINE
  8
_0-e_極細4
  6
CONTINUOUS
 62
    6
 10
576.09310551126248
 20
278.66599695740217
 11
580.11176129366515
 21
282.6846527398053
  0
LINE
  8
_0-e_極細4
  6
CONTINUOUS
 62
    6
 10
571.7432071414479
 20
278.55873927470668
 11
575.76186292385057
 21
282.57739505710981
  0
LINE
  8
_0-e_極細4
  6
CONTINUOUS
 62
    6
 10
567.39330877163241
 20
278.45148159201119
 11
571.41196455403599
 21
282.47013737441455
  0
LINE
  8
_0-e_極細4
  6
CONTINUOUS
 62
    6
 10
563.04341040181782
 20
278.34422390931547
 11
567.06206618422141
 21
282.36287969171929
  0
LINE
  8
_0-e_極細4
  6
CONTINUOUS
 62
    6
 10
558.69351203200324
 20
278.23696622661998
 11
562.71216781440683
 21
282.2556220090238
  0
LINE
  8
_0-e_極細4
  6
CONTINUOUS
 62
    6
 10
554.34361366218866
 20
278.12970854392427
 11
558.36226944459224
 21
282.14836432632831
  0
LINE
  8
_0-e_極細4
  6
CONTINUOUS
 62
    6
 10
549.99371529237408
 20
278.02245086122878
 11
554.01237107477766
 21
282.04110664363327
  0
LINE
  8
_0-e_極細4
  6
CONTINUOUS
 62
    6
 10
545.64381692255859
 20
277.91519317853329
 11
549.66247270496308
 21
281.93384896093778
  0
LINE
  8
_0-e_極細4
  6
CONTINUOUS
 62
    6
 10
541.293918552744
 20
277.80793549583734
 11
545.3125743351485
 21
281.82659127824252
  0
LINE
  8
_0-e_極細4
  6
CONTINUOUS
 62
    6
 10
537.01780126696315
 20
277.77445889717649
 11
540.96267596533391
 21
281.71933359554703
  0
LINE
  8
_0-e_極細4
  6
CONTINUOUS
 62
    6
 10
532.77516057984406
 20
277.77445889717649
 11
536.69352857984643
 21
281.69282689717886
  0
LINE
  8
_0-e_極細4
  6
CONTINUOUS
 62
    6
 10
528.53251989272496
 20
277.77445889717649
 11
532.45088789272734
 21
281.69282689717886
  0
LINE
  8
_0-e_極細4
  6
CONTINUOUS
 62
    6
 10
524.28987920560587
 20
277.77445889717649
 11
528.20824720560825
 21
281.69282689717886
  0
LINE
  8
_0-e_極細4
  6
CONTINUOUS
 62
    6
 10
520.04723851848587
 20
277.77445889717649
 11
523.96560651848824
 21
281.69282689717886
  0
LINE
  8
_0-e_極細4
  6
CONTINUOUS
 62
    6
 10
515.80459783136678
 20
277.77445889717649
 11
519.72296583136915
 21
281.69282689717886
  0
LINE
  8
_0-e_極細4
  6
CONTINUOUS
 62
    6
 10
511.56195714424769
 20
277.77445889717649
 11
515.48032514425006
 21
281.69282689717886
  0
LINE
  8
_0-e_極細4
  6
CONTINUOUS
 62
    6
 10
507.31931645712859
 20
277.77445889717649
 11
511.23768445713097
 21
281.69282689717886
  0
LINE
  8
_0-e_極細4
  6
CONTINUOUS
 62
    6
 10
503.0766757700095
 20
277.77445889717649
 11
506.99504377001188
 21
281.69282689717886
  0
LINE
  8
_0-e_極細4
  6
CONTINUOUS
 62
    6
 10
498.8340350828895
 20
277.77445889717649
 11
502.75240308289187
 21
281.69282689717886
  0
LINE
  8
_0-e_極細4
  6
CONTINUOUS
 62
    6
 10
494.59139439577041
 20
277.77445889717649
 11
498.50976239577278
 21
281.69282689717886
  0
LINE
  8
_0-e_極細4
  6
CONTINUOUS
 62
    6
 10
490.34875370865132
 20
277.77445889717649
 11
494.26712170865369
 21
281.69282689717886
  0
LINE
  8
_0-e_極細4
  6
CONTINUOUS
 62
    6
 10
486.10611302153222
 20
277.77445889717649
 11
490.0244810215346
 21
281.69282689717886
  0
LINE
  8
_0-e_極細4
  6
CONTINUOUS
 62
    6
 10
481.86347233441222
 20
277.77445889717649
 11
485.7818403344146
 21
281.69282689717886
  0
LINE
  8
_0-e_極細4
  6
CONTINUOUS
 62
    6
 10
477.62083164729313
 20
277.77445889717649
 11
481.5391996472955
 21
281.69282689717886
  0
LINE
  8
_0-e_極細4
  6
CONTINUOUS
 62
    6
 10
473.37819096017404
 20
277.77445889717649
 11
477.29655896017641
 21
281.69282689717886
  0
LINE
  8
_0-e_極細4
  6
CONTINUOUS
 62
    6
 10
469.13555027305495
 20
277.77445889717649
 11
473.05391827305732
 21
281.69282689717886
  0
LINE
  8
_0-e_極細4
  6
CONTINUOUS
 62
    6
 10
464.89290958593585
 20
277.77445889717649
 11
468.81127758593823
 21
281.69282689717886
  0
LINE
  8
_0-e_極細4
  6
CONTINUOUS
 62
    6
 10
460.65026889881585
 20
277.77445889717649
 11
464.56863689881823
 21
281.69282689717886
  0
LINE
  8
_0-e_極細4
  6
CONTINUOUS
 62
    6
 10
456.40762821169676
 20
277.77445889717649
 11
460.32599621169913
 21
281.69282689717886
  0
LINE
  8
_0-e_極細4
  6
CONTINUOUS
 62
    6
 10
452.16498752457767
 20
277.77445889717649
 11
456.08335552458004
 21
281.69282689717886
  0
LINE
  8
_0-e_極細4
  6
CONTINUOUS
 62
    6
 10
447.92234683745858
 20
277.77445889717649
 11
451.84071483746095
 21
281.69282689717886
  0
LINE
  8
_0-e_極細4
  6
CONTINUOUS
 62
    6
 10
443.67970615033857
 20
277.77445889717649
 11
447.59807415034095
 21
281.69282689717886
  0
LINE
  8
_0-e_極細4
  6
CONTINUOUS
 62
    6
 10
439.43706546321948
 20
277.77445889717649
 11
443.35543346322186
 21
281.69282689717886
  0
LINE
  8
_0-e_極細4
  6
CONTINUOUS
 62
    6
 10
438.67503941586449
 20
281.25507353694013
 11
439.11279277610276
 21
281.69282689717886
  0
LINE
  8
_0-e_極細4
  6
CONTINUOUS
 62
    6
 10
608.74217505873651
 20
383.43995818590406
 11
611.44646341586315
 21
386.14424654303116
  0
LINE
  8
_0-e_極細4
  6
CONTINUOUS
 62
    6
 10
604.60162988922377
 20
383.54205370351087
 11
608.42685902240112
 21
387.36728283668776
  0
LINE
  8
_0-e_極細4
  6
CONTINUOUS
 62
    6
 10
600.46108471971104
 20
383.64414922111723
 11
604.28631388752376
 21
387.46937838892995
  0
LINE
  8
_0-e_極細4
  6
CONTINUOUS
 62
    6
 10
596.3205395501983
 20
383.74624473872359
 11
600.14576875264731
 21
387.57147394117214
  0
LINE
  8
_0-e_極細4
  6
CONTINUOUS
 62
    6
 10
592.17999438068557
 20
383.84834025632995
 11
596.00522361776996
 21
387.67356949341433
  0
LINE
  8
_0-e_極細4
  6
CONTINUOUS
 62
    6
 10
588.03944921117284
 20
383.95043577393631
 11
591.8646784828926
 21
387.77566504565652
  0
LINE
  8
_0-e_極細4
  6
CONTINUOUS
 62
    6
 10
583.8989040416601
 20
384.05253129154266
 11
587.72413334801524
 21
387.87776059789871
  0
LINE
  8
_0-e_極細4
  6
CONTINUOUS
 62
    6
 10
579.75835887214646
 20
384.15462680914902
 11
583.58358821313789
 21
387.9798561501409
  0
LINE
  8
_0-e_極細4
  6
CONTINUOUS
 62
    6
 10
575.61781370263373
 20
384.25672232675583
 11
579.44304307826144
 21
388.08195170238264
  0
LINE
  8
_0-e_極細4
  6
CONTINUOUS
 62
    6
 10
571.47726853312099
 20
384.35881784436219
 11
575.30249794338408
 21
388.18404725462483
  0
LINE
  8
_0-e_極細4
  6
CONTINUOUS
 62
    6
 10
567.33672336360826
 20
384.46091336196855
 11
571.16195280850673
 21
388.28614280686702
  0
LINE
  8
_0-e_極細4
  6
CONTINUOUS
 62
    6
 10
563.19617819409552
 20
384.56300887957491
 11
567.02140767362937
 21
388.38823835910921
  0
LINE
  8
_0-e_極細4
  6
CONTINUOUS
 62
    6
 10
559.05563302458279
 20
384.66510439718127
 11
562.88086253875201
 21
388.4903339113514
  0
LINE
  8
_0-e_極細4
  6
CONTINUOUS
 62
    6
 10
554.91508785506915
 20
384.76719991478762
 11
558.74031740387557
 21
388.59242946359313
  0
LINE
  8
_0-e_極細4
  6
CONTINUOUS
 62
    6
 10
550.77454268555641
 20
384.86929543239398
 11
554.59977226899821
 21
388.69452501583532
  0
LINE
  8
_0-e_極細4
  6
CONTINUOUS
 62
    6
 10
546.63399751604368
 20
384.97139095000034
 11
550.45922713412085
 21
388.79662056807751
  0
LINE
  8
_0-e_極細4
  6
CONTINUOUS
 62
    6
 10
542.49345234653094
 20
385.07348646760715
 11
546.31868199924349
 21
388.8987161203197
  0
LINE
  8
_0-e_極細4
  6
CONTINUOUS
 62
    6
 10
538.35290717701821
 20
385.17558198521306
 11
542.17813686436614
 21
389.00081167256189
  0
LINE
  8
_0-e_極細4
  6
CONTINUOUS
 62
    6
 10
534.21236200750548
 20
385.27767750281987
 11
539.67503941586358
 21
390.74035491117843
  0
LINE
  8
_0-e_極細4
  6
CONTINUOUS
 62
    6
 10
530.07181683799183
 20
385.37977302042623
 11
539.67503941586358
 21
394.98299559829752
  0
LINE
  8
_0-e_極細4
  6
CONTINUOUS
 62
    6
 10
525.93127166848001
 20
385.48186853803259
 11
539.67503941586358
 21
399.22563628541661
  0
LINE
  8
_0-e_極細4
  6
CONTINUOUS
 62
    6
 10
521.79072649896636
 20
385.58396405563894
 11
539.67503941586358
 21
403.46827697253616
  0
LINE
  8
_0-e_極細4
  6
CONTINUOUS
 62
    6
 10
517.65018132945363
 20
385.6860595732453
 11
539.67503941586358
 21
407.71091765965525
  0
LINE
  8
_0-e_極細4
  6
CONTINUOUS
 62
    6
 10
517.17503941586358
 20
389.4535583467748
 11
539.67503941586358
 21
411.9535583467748
  0
LINE
  8
_0-e_極細4
  6
CONTINUOUS
 62
    6
 10
517.17503941586358
 20
393.69619903389389
 11
529.40437435679644
 21
405.92553397482675
  0
LINE
  8
_0-e_極細4
  6
CONTINUOUS
 62
    6
 10
534.67503941586449
 20
411.19619903389435
 11
539.67503941586358
 21
416.19619903389389
  0
LINE
  8
_0-e_極細4
  6
CONTINUOUS
 62
    6
 10
517.17503941586358
 20
397.93883972101298
 11
525.16173366967735
 21
405.92553397482675
  0
LINE
  8
_0-e_極細4
  6
CONTINUOUS
 62
    6
 10
534.67503941586449
 20
415.43883972101344
 11
539.67503941586358
 21
420.43883972101298
  0
LINE
  8
_0-e_極細4
  6
CONTINUOUS
 62
    6
 10
517.17503941586358
 20
402.18148040813253
 11
520.91909298255825
 21
405.92553397482675
  0
LINE
  8
_0-e_極細4
  6
CONTINUOUS
 62
    6
 10
534.67503941586449
 20
419.68148040813298
 11
539.67503941586358
 21
424.68148040813253
  0
LINE
  8
_0-e_極細4
  6
CONTINUOUS
 62
    6
 10
534.67503941586449
 20
423.92412109525208
 11
539.67503941586358
 21
428.92412109525162
  0
LINE
  8
_0-e_極細4
  6
CONTINUOUS
 62
    6
 10
534.67503941586449
 20
428.16676178237117
 11
539.67503941586358
 21
433.16676178237117
  0
LINE
  8
_0-e_極細4
  6
CONTINUOUS
 62
    6
 10
534.67503941586449
 20
432.40940246949071
 11
539.67503941586358
 21
437.40940246949026
  0
LINE
  8
_0-e_極細4
  6
CONTINUOUS
 62
    6
 10
534.67503941586449
 20
436.65204315661026
 11
539.67503941586358
 21
441.65204315660981
  0
LINE
  8
_0-e_極細4
  6
CONTINUOUS
 62
    6
 10
534.67503941586449
 20
440.89468384372935
 11
539.67503941586358
 21
445.8946838437289
  0
LINE
  8
_0-e_極細4
  6
CONTINUOUS
 62
    6
 10
534.67503941586449
 20
445.13732453084845
 11
536.86965641764539
 21
447.3319415326298
  0
LINE
  8
_0-e_極細4
  6
CONTINUOUS
 62
    6
 10
536.86965641764539
 20
447.3319415326298
 11
539.74772644461075
 21
450.21001155959516
  0
LINE
  8
_0-e_極細4
  6
CONTINUOUS
 62
    6
 10
534.67503941586449
 20
449.37996521796799
 11
544.67503941586358
 21
459.37996521796754
  0
LINE
  8
_0-e_極細4
  6
CONTINUOUS
 62
    6
 10
534.67503941586449
 20
453.62260590508708
 11
544.67503941586358
 21
463.62260590508708
  0
LINE
  8
_0-e_極細4
  6
CONTINUOUS
 62
    6
 10
534.67503941586449
 20
457.86524659220663
 11
544.67503941586358
 21
467.86524659220618
  0
LINE
  8
_0-e_極細4
  6
CONTINUOUS
 62
    6
 10
550.47653972083674
 20
473.66674689717934
 11
552.47503941586467
 21
475.66524659220681
  0
LINE
  8
_0-e_極細4
  6
CONTINUOUS
 62
    6
 10
536.03772189712993
 20
463.47056976059162
 11
544.67503941586358
 21
472.10788727932572
  0
LINE
  8
_0-e_極細4
  6
CONTINUOUS
 62
    6
 10
546.23389903371765
 20
473.66674689717934
 11
552.47503941586467
 21
479.90788727932591
  0
LINE
  8
_0-e_極細4
  6
CONTINUOUS
 62
    6
 10
535.67503941586449
 20
467.35052796644527
 11
552.47503941586467
 21
484.150527966445
  0
LINE
  8
_0-e_極細4
  6
CONTINUOUS
 62
    6
 10
538.63303941586412
 20
474.55116865356445
 11
552.47503941586467
 21
488.39316865356454
  0
LINE
  8
_0-e_極細4
  6
CONTINUOUS
 62
    6
 10
538.63303941586412
 20
478.79380934068354
 11
552.47503941586467
 21
492.63580934068364
  0
LINE
  8
_0-e_極細4
  6
CONTINUOUS
 62
    6
 10
538.63303941586412
 20
483.03645002780263
 11
552.47503941586467
 21
496.87845002780318
  0
LINE
  8
_0-e_極細4
  6
CONTINUOUS
 62
    6
 10
538.63303941586412
 20
487.27909071492218
 11
552.47503941586467
 21
501.12109071492227
  0
LINE
  8
_0-e_極細4
  6
CONTINUOUS
 62
    6
 10
538.63303941586412
 20
491.52173140204172
 11
548.29486791477768
 21
501.18355990095483
  0
LINE
  8
_0-e_極細4
  6
CONTINUOUS
 62
    6
 10
538.63303941586412
 20
495.76437208916082
 11
543.49772427884375
 21
500.62905695213999
  0
LINE
  8
_0-e_極細4
  6
CONTINUOUS
 62
    6
 10
538.63303941586412
 20
500.00701277627991
 11
538.70058064290981
 21
500.07455400332515
  0
TEXT
  8
_0-7_枠細線
 62
    5
 10
343.99113812326664
 20
185.46328425287209
 40
40
 41
0.8
 50
0
  1
排水部詳細図
  0
TEXT
  8
_0-7_枠細線
 62
    5
 10
560.92098451217612
 20
188.46157571620358
 40
32
 41
0.6000000000000002
 50
0
  1
Ｓ＝１：４
  0
LINE
  8
_1-1_寸法4
  6
CONTINUOUS
 62
    7
 10
348.41989196845509
 20
305.51757044453018
 11
338.71183075561657
 21
292.79933363718226
  0
LINE
  8
_1-1_寸法4
  6
CONTINUOUS
 62
    7
 10
348.41989196845509
 20
305.51757044453018
 11
333.65334593296859
 21
299.35728488443988
  0
LINE
  8
_1-1_寸法4
  6
CONTINUOUS
 62
    7
 10
348.41989196845509
 20
305.51757044453018
 11
313.8215160369873
 21
278.83006501197815
  0
LINE
  8
_1-1_寸法4
  6
CONTINUOUS
 62
    7
 10
313.8215160369873
 20
278.83006501197815
 11
198.62151603698737
 21
278.83006501197815
  0
TEXT
  8
_1-1_寸法4
 62
    7
 10
198.62151603698737
 20
278.83006501197849
 40
24
 41
0.7999999999999998
 50
-0.0000000000001696
  1
トラップ本体
  0
LINE
  8
_1-1_寸法4
  6
CONTINUOUS
 62
    7
 10
408.00213739927142
 20
393.77859191456878
 11
398.37851476811989
 21
380.99634299455516
  0
LINE
  8
_1-1_寸法4
  6
CONTINUOUS
 62
    7
 10
408.00213739927142
 20
393.77859191456878
 11
393.27671126425253
 21
387.52065094791658
  0
LINE
  8
_1-1_寸法4
  6
CONTINUOUS
 62
    7
 10
408.00213739927142
 20
393.77859191456878
 11
313.8215160369873
 21
320.1323098112
  0
LINE
  8
_1-1_寸法4
  6
CONTINUOUS
 62
    7
 10
313.8215160369873
 20
320.1323098112
 11
160.2215160369874
 21
320.1323098112
  0
TEXT
  8
_1-1_寸法4
 62
    7
 10
160.2215160369874
 20
320.13230981120046
 40
24
 41
0.7999999999999998
 50
-0.0000000000001696
  1
防臭インナー１号
  0
LINE
  8
_1-1_寸法4
  6
CONTINUOUS
 62
    7
 10
371.44861259508991
 20
425.53620410158533
 11
361.83153589339736
 21
412.74902944438435
  0
LINE
  8
_1-1_寸法4
  6
CONTINUOUS
 62
    7
 10
371.44861259508991
 20
425.53620410158533
 11
356.72639253268017
 21
419.27072435666696
  0
LINE
  8
_1-1_寸法4
  6
CONTINUOUS
 62
    7
 10
371.44861259508991
 20
425.53620410158533
 11
313.8215160369873
 21
380.42606120959999
  0
LINE
  8
_1-1_寸法4
  6
CONTINUOUS
 62
    7
 10
313.8215160369873
 20
380.42606120959999
 11
160.2215160369874
 21
380.42606120959999
  0
TEXT
  8
_1-1_寸法4
 62
    7
 10
160.2215160369874
 20
380.42606120959999
 40
24
 41
0.7999999999999998
 50
-0.0000000000001696
  1
防臭インナー２号
  0
LINE
  8
_1-1_寸法4
  6
CONTINUOUS
 62
    7
 10
392.66272224732268
 20
498.14562060088724
 11
380.08026012534128
 21
508.02902320064516
  0
LINE
  8
_1-1_寸法4
  6
CONTINUOUS
 62
    7
 10
392.66272224732268
 20
498.14562060088724
 11
386.70769170741028
 21
512.99612938909752
  0
LINE
  8
_1-1_寸法4
  6
CONTINUOUS
 62
    7
 10
392.66272224732268
 20
498.14562060088724
 11
367.11718034744263
 21
532.23012065887451
  0
LINE
  8
_1-1_寸法4
  6
CONTINUOUS
 62
    7
 10
367.11718034744263
 20
532.23012065887451
 11
251.9171803474427
 21
532.23012065887451
  0
TEXT
  8
_1-1_寸法4
 62
    7
 10
251.9171803474427
 20
532.23012065887485
 40
24
 41
0.7999999999999998
 50
-0.0000000000001696
  1
ストレーナー
  0
TEXT
  8
_1-1_寸法4
 62
    7
 10
545.84398787662224
 20
524.74505924783114
 40
24
 41
0.8000000000000001
 50
0
  1
Ｃ部
  0
TEXT
  8
_0-7_枠細線
 62
    5
 10
1544.7999999999997
 20
176
 40
32
 41
0.6
 50
0
  1
ＨＳＡＹ－１５Ｌ１２００
  0
LINE
  8
_0-0_計極細
  6
CONTINUOUS
 62
    2
 10
1614.0037602689461
 20
738.42362631448214
 11
1663.862146533779
 21
738.42362631448214
  0
ENDSEC
  0
EOF
