  0
SECTION
  2
HEADER
  9
$ACADVER
  1
AC1009
  9
$INSBASE
 10
0
 20
0
 30
0
  9
$EXTMIN
 10
0
 20
0
  9
$EXTMAX
 10
2376
 20
1680
  9
$LIMMIN
 10
0
 20
0
  9
$LIMMAX
 10
2376
 20
1680
  9
$LTSCALE
 40
8
  0
ENDSEC
  0
SECTION
  2
TABLES
  0
TABLE
  2
LTYPE
 70
     9
  0
LTYPE
  2
CONTINUOUS
 70
    64
  3
実線
 72
    65
 73
     0
 40
0.0
  0
LTYPE
  2
DASHED1
 70
    64
  3
--  --  --  --  --  --  --  --  
 72
    65
 73
     2
 40
2.5
 49
1.25
 49
-1.25
  0
LTYPE
  2
DASHED2
 70
    64
  3
----    ----    ----    ----    
 72
    65
 73
     2
 40
5.0
 49
2.5
 49
-2.5
  0
LTYPE
  2
DASHED3
 70
    64
  3
------  ------  ------  ------  
 72
    65
 73
     2
 40
5.0
 49
3.75
 49
-1.25
  0
LTYPE
  2
CENTER1
 70
    64
  3
----- - ----- - ----- - ----- - 
 72
    65
 73
     4
 40
10.0
 49
6.25
 49
-1.25
 49
1.25
 49
-1.25
  0
LTYPE
  2
CENTER2
 70
    64
  3
----------  --  ----------  --  
 72
    65
 73
     4
 40
20.0
 49
12.5
 49
-2.5
 49
2.5
 49
-2.5
  0
LTYPE
  2
PHANTOM1
 70
    64
  3
--- - - --- - - --- - - --- - - 
 72
    65
 73
     6
 40
10.0
 49
3.25
 49
-1.25
 49
1.25
 49
-1.25
 49
1.25
 49
-1.25
  0
LTYPE
  2
PHANTOM2
 70
    64
  3
--------  -  -  --------  -  -  
 72
    65
 73
     6
 40
20.0
 49
10.0
 49
-2.5
 49
1.25
 49
-2.5
 49
1.25
 49
-2.5
  0
LTYPE
  2
DOT
 70
    64
  3
-   -   -   -   -   -   -   -   
 72
    65
 73
     2
 40
2.5
 49
0.625
 49
-1.875
  0
LTYPE
  2
DUMMY
 70
    64
  3
ダミー
 72
    65
 73
     0
 40
0.0
  0
LTYPE
  2
RAND1
 70
    64
  3
ランダム線1
 72
    65
 73
     4
 40
10.0
 49
1.0
 49
-2.0
 49
3.0
 49
-4.0
  0
LTYPE
  2
RAND2
 70
    64
  3
ランダム線2
 72
    65
 73
     4
 40
14.0
 49
2.0
 49
-3.0
 49
4.0
 49
-5.0
  0
LTYPE
  2
RAND3
 70
    64
  3
ランダム線3
 72
    65
 73
     4
 40
18.0
 49
3.0
 49
-4.0
 49
5.0
 49
-6.0
  0
LTYPE
  2
RAND4
 70
    64
  3
ランダム線4
 72
    65
 73
     4
 40
22.0
 49
4.0
 49
-5.0
 49
6.0
 49
-7.0
  0
LTYPE
  2
RAND5
 70
    64
  3
ランダム線5
 72
    65
 73
     4
 40
26.0
 49
5.0
 49
-6.0
 49
7.0
 49
-8.0
  0
LTYPE
  2
LONG1
 70
    64
  3
----------  --  ----------  --  
 72
    65
 73
     4
 40
40.0
 49
32.5
 49
-2.5
 49
2.5
 49
-2.5
  0
LTYPE
  2
LONG2
 70
    64
  3
--------  -  -  --------  -  -  
 72
    65
 73
     6
 40
40.0
 49
30.0
 49
-2.5
 49
1.25
 49
-2.5
 49
1.25
 49
-2.5
  0
LTYPE
  2
LONG3
 70
    64
  3
+++++++++++++++..+++++++++++++++
 72
    65
 73
     2
 40
40.0
 49
37.5
 49
-2.5
  0
LTYPE
  2
LONG4
 70
    64
  3
+++++++++++++++..+++++++++++++++
 72
    65
 73
     2
 40
80.0
 49
75.0
 49
-5.0
  0
LTYPE
  2
LONG5
 70
    64
  3
----------  --  ----------  --  
 72
    65
 73
     4
 40
60.0
 49
37.5
 49
-7.5
 49
7.5
 49
-7.5
  0
LTYPE
  2
dashed
 70
   64
  3
-------   -------------   ------
 72
   65
 73
    2
 40
7.5
 49
6
 49
-1.5
  0
LTYPE
  2
dashed_spaced
 70
   64
  3
----        --------        ----
 72
   65
 73
    2
 40
12
 49
6
 49
-6
  0
LTYPE
  2
long_dashed_dotted
 70
   64
  3
------------- --- --------------
 72
   65
 73
    4
 40
15.25
 49
12
 49
-1.5
 49
0.25
 49
-1.5
  0
LTYPE
  2
long_dashed_double-dotted
 70
   64
  3
----------- --- --- ------------
 72
   65
 73
    6
 40
17
 49
12
 49
-1.5
 49
0.25
 49
-1.5
 49
0.25
 49
-1.5
  0
LTYPE
  2
long_dashed_triplicate-dotted
 70
   64
  3
--------- --- --- --- ----------
 72
   65
 73
    8
 40
18.75
 49
12
 49
-1.5
 49
0.25
 49
-1.5
 49
0.25
 49
-1.5
 49
0.25
 49
-1.5
  0
LTYPE
  2
dotted
 70
   64
  3
   -       -       -       -    
 72
   65
 73
    2
 40
1.75
 49
0.25
 49
-1.5
  0
LTYPE
  2
chain
 70
   64
  3
-------------- -- --------------
 72
   65
 73
    4
 40
18.5
 49
12
 49
-1.5
 49
3.5
 49
-1.5
  0
LTYPE
  2
chain_double_dash
 70
   64
  3
------------ -- -- -------------
 72
   65
 73
    6
 40
23.5
 49
12
 49
-1.5
 49
3.5
 49
-1.5
 49
3.5
 49
-1.5
  0
LTYPE
  2
dashed_dotted
 70
   64
  3
-----------     -     ----------
 72
   65
 73
    4
 40
9.25
 49
6
 49
-1.5
 49
0.25
 49
-1.5
  0
LTYPE
  2
double-dashed_dotted
 70
   64
  3
------   -----------   -   -----
 72
   65
 73
    6
 40
16.75
 49
6
 49
-1.5
 49
6
 49
-1.5
 49
0.25
 49
-1.5
  0
LTYPE
  2
dashed_double-dotted
 70
   64
  3
---------    -    -    ---------
 72
   65
 73
    6
 40
11
 49
6
 49
-1.5
 49
0.25
 49
-1.5
 49
0.25
 49
-1.5
  0
LTYPE
  2
double-dashed_double-dotted
 70
   64
  3
-----   ---------   -   -   ----
 72
   65
 73
    8
 40
18.5
 49
6
 49
-1.5
 49
6
 49
-1.5
 49
0.25
 49
-1.5
 49
0.25
 49
-1.5
  0
LTYPE
  2
dashed_triplicate-dotted
 70
   64
  3
-------    -    -    -    ------
 72
   65
 73
    8
 40
12.75
 49
6
 49
-1.5
 49
0.25
 49
-1.5
 49
0.25
 49
-1.5
 49
0.25
 49
-1.5
  0
LTYPE
  2
double-dashed_triplicate-dotted
 70
   64
  3
-----  ---------  -  -  -  -----
 72
   65
 73
   10
 40
20.25
 49
6
 49
-1.5
 49
6
 49
-1.5
 49
0.25
 49
-1.5
 49
0.25
 49
-1.5
 49
0.25
 49
-1.5
  0
LTYPE
  2
undefined
 70
   64
  3
--------------------------------
 72
   65
 73
    0
 40
0
  0
ENDTAB
  0
TABLE
  2
STYLE
  5
3
100
AcDbSymbolTable
 70
     1
  0
STYLE
  5
10
100
AcDbSymbolTableRecord
100
AcDbTextStyleTableRecord
  2
STANDARD
 70
     0
 40
0.0
 41
1.0
 50
0.0
 71
     0
 42
0.2
  3
txt
  4
bigfont.shx
  0
STYLE
  5
26
100
AcDbSymbolTableRecord
100
AcDbTextStyleTableRecord
  2
TATEGAKI
 70
    68
 40
0.0
 41
1.0
 50
0.0
 71
     0
 42
1.0
  3
txt
  4
bigfont.shx
  0
ENDTAB
  0
TABLE
  2
LAYER
 70
   13
  0
LAYER
  2
_0-0_計極細
 70
   64
 62
    7
  6
CONTINUOUS
  0
LAYER
  2
_0-1_計細線
 70
   64
 62
    7
  6
CONTINUOUS
  0
LAYER
  2
_0-5_寸法線
 70
   64
 62
    7
  6
CONTINUOUS
  0
LAYER
  2
_0-7_枠細線
 70
   64
 62
    7
  6
CONTINUOUS
  0
LAYER
  2
_0-8_枠中線
 70
   64
 62
    7
  6
CONTINUOUS
  0
LAYER
  2
_0-a_極細1
 70
   64
 62
    7
  6
CONTINUOUS
  0
LAYER
  2
_0-d_寸法1
 70
   64
 62
    7
  6
CONTINUOUS
  0
LAYER
  2
_0-e_極細4
 70
   64
 62
    7
  6
CONTINUOUS
  0
LAYER
  2
_1-1_寸法4
 70
   64
 62
    7
  6
CONTINUOUS
  0
LAYER
  2
_1-2_極細2
 70
   64
 62
    7
  6
CONTINUOUS
  0
LAYER
  2
_1-3_細線2
 70
   64
 62
    7
  6
CONTINUOUS
  0
LAYER
  2
_1-5_寸法2
 70
   64
 62
    7
  6
CONTINUOUS
  0
LAYER
  2
ADD_LINE
 70
   64
 62
    7
  6
CONTINUOUS
  0
ENDTAB
  0
ENDSEC
  0
SECTION
  2
BLOCKS
  0
ENDSEC
  0
SECTION
  2
ENTITIES
  0
LINE
  8
_0-8_枠中線
  6
CONTINUOUS
 62
    5
 10
96
 20
96
 11
96
 21
1536
  0
LINE
  8
_0-8_枠中線
  6
CONTINUOUS
 62
    5
 10
96
 20
1536
 11
2280
 21
1536
  0
LINE
  8
_0-8_枠中線
  6
CONTINUOUS
 62
    5
 10
2280
 20
1536
 11
2280
 21
96
  0
LINE
  8
_0-8_枠中線
  6
CONTINUOUS
 62
    5
 10
2280
 20
96
 11
96
 21
96
  0
LINE
  8
_0-7_枠細線
  6
CONTINUOUS
 62
    5
 10
1896
 20
288
 11
1896
 21
160
  0
TEXT
  8
_0-7_枠細線
 62
    5
 10
1500
 20
156
 40
28
 41
1
 50
0
  1
備考
  7
TATEGAKI
  0
TEXT
  8
_0-7_枠細線
 62
    5
 10
1500
 20
220
 40
28
 41
1
 50
0
  1
品番
  7
TATEGAKI
  0
TEXT
  8
_0-7_枠細線
 62
    5
 10
1500
 20
284
 40
28
 41
1
 50
0
  1
品名
  7
TATEGAKI
  0
LINE
  8
_0-7_枠細線
  6
CONTINUOUS
 62
    5
 10
1896
 20
224
 11
1480
 21
224
  0
LINE
  8
_0-7_枠細線
  6
CONTINUOUS
 62
    5
 10
1520
 20
288
 11
1520
 21
96
  0
LINE
  8
_0-8_枠中線
  6
CONTINUOUS
 62
    5
 10
2280
 20
288
 11
1480
 21
288
  0
LINE
  8
_0-8_枠中線
  6
CONTINUOUS
 62
    5
 10
1480
 20
288
 11
1480
 21
96
  0
LINE
  8
_0-7_枠細線
  6
CONTINUOUS
 62
    5
 10
1992
 20
288
 11
1992
 21
96
  0
TEXT
  8
_0-7_枠細線
 62
    5
 10
1908
 20
256
 40
24
 41
1
 50
0
  1
縮　尺
  0
LINE
  8
_0-7_枠細線
  6
CONTINUOUS
 62
    5
 10
1896
 20
248
 11
1992
 21
248
  0
LINE
  8
_0-7_枠細線
  6
CONTINUOUS
 62
    5
 10
1992
 20
160
 11
1480
 21
160
  0
LINE
  8
_0-7_枠細線
  6
CONTINUOUS
 62
    5
 10
2280
 20
144
 11
1992
 21
144
  0
LINE
  8
_0-7_枠細線
  6
CONTINUOUS
 62
    5
 10
1992
 20
192
 11
2280
 21
192
  0
LINE
  8
_0-7_枠細線
  6
CONTINUOUS
 62
    5
 10
2280
 20
224
 11
1992
 21
224
  0
TEXT
  8
_0-7_枠細線
 62
    5
 10
2004
 20
96
 40
24
 41
1
 50
0
  1
年月日
  0
TEXT
  8
_0-7_枠細線
 62
    5
 10
2004
 20
120
 40
24
 41
1
 50
0
  1
作　成
  0
TEXT
  8
_0-7_枠細線
 62
    5
 10
2010
 20
196
 40
24
 41
1
 50
0
  1
承 認
  0
LINE
  8
_0-7_枠細線
  6
CONTINUOUS
 62
    5
 10
2088
 20
224
 11
2088
 21
96
  0
TEXT
  8
_0-7_枠細線
 62
    5
 10
2106
 20
196
 40
24
 41
1
 50
0
  1
検 図
  0
LINE
  8
_0-7_枠細線
  6
CONTINUOUS
 62
    5
 10
2184
 20
224
 11
2184
 21
144
  0
TEXT
  8
_0-7_枠細線
 62
    5
 10
2202
 20
196
 40
24
 41
1
 50
0
  1
設 計
  0
LINE
  8
_0-7_枠細線
  6
CONTINUOUS
 62
    5
 10
2280
 20
1508
 11
1424
 21
1508
  0
TEXT
  8
_0-7_枠細線
 62
    5
 10
1432
 20
1511.9999999999991
 40
20
 41
1
 50
0
  1
記号
  0
TEXT
  8
_0-7_枠細線
 62
    5
 10
1595
 20
1512
 40
20
 41
1
 50
0
  1
訂　 正　 記　 事
  0
TEXT
  8
_0-7_枠細線
 62
    5
 10
1890
 20
1512
 40
20
 41
1
 50
0
  1
訂 正 年 月 日
  0
TEXT
  8
_0-7_枠細線
 62
    5
 10
2090
 20
1512
 40
20
 41
1
 50
0
  1
備　　　　　考
  0
LINE
  8
_0-7_枠細線
  6
CONTINUOUS
 62
    5
 10
2280
 20
1480
 11
1424
 21
1480
  0
TEXT
  8
_0-7_枠細線
 62
    5
 10
1910.4000000000001
 20
188
 40
32
 41
0.6999999999999998
 50
0
  1
１：８
  0
LINE
  8
_0-7_枠細線
  6
CONTINUOUS
 62
    5
 10
2040
 20
1480
 11
2040
 21
1535.9999999999991
  0
LINE
  8
_0-7_枠細線
  6
CONTINUOUS
 62
    5
 10
1880
 20
1480
 11
1880
 21
1536
  0
LINE
  8
_0-7_枠細線
  6
CONTINUOUS
 62
    5
 10
1480
 20
1480
 11
1480
 21
1535.9999999999991
  0
LINE
  8
_0-7_枠細線
  6
CONTINUOUS
 62
    5
 10
1424
 20
1480
 11
1424
 21
1535.9999999999991
  0
TEXT
  8
_0-7_枠細線
 62
    5
 10
2200
 20
152
 40
32
 41
1
 50
0
  1
藤戸
  0
TEXT
  8
_0-7_枠細線
 62
    5
 10
2008
 20
152
 40
32
 41
1
 50
0
  1
大野
  0
TEXT
  8
_0-7_枠細線
 62
    5
 10
2104
 20
152
 40
32
 41
1
 50
0
  1
深川
  0
TEXT
  8
_0-7_枠細線
 62
    5
 10
2096
 20
108
 40
24
 41
0.6666666666666666
 50
0
  1
２０１５年０４月０１日
  0
TEXT
  8
_0-7_枠細線
 62
    5
 10
2007.9999999999991
 20
236
 40
40
 41
0.8
 50
0
  1
株式会社シマブン
  0
TEXT
  8
_0-7_枠細線
 62
    5
 10
1544.7999999999995
 20
112
 40
32.000000000000007
 41
0.5999999999999997
 50
0
  1
表面形状については記号表参照のこと
  0
LINE
  8
_0-0_計極細
  6
CENTER1
 62
    2
 10
1096.0037602689461
 20
826.73877774131233
 11
1096.0037602689461
 21
871.79247781884987
  0
LINE
  8
_0-1_計細線
  6
CONTINUOUS
 62
    3
 10
1090.0037604220267
 20
866.52165946705099
 11
1088.0037604220267
 21
864.52165946705099
  0
LINE
  8
_0-1_計細線
  6
CONTINUOUS
 62
    3
 10
1088.0037604220267
 20
854.52165946705099
 11
1088.0037604220267
 21
864.52165946705099
  0
LINE
  8
_0-1_計細線
  6
CONTINUOUS
 62
    3
 10
1104.0037601158654
 20
854.52165946705099
 11
1104.0037601158654
 21
864.52165946705099
  0
LINE
  8
_0-1_計細線
  6
CONTINUOUS
 62
    3
 10
1090.0037604220267
 20
850.52165946705099
 11
1088.0037604220267
 21
848.52165946705099
  0
LINE
  8
_0-1_計細線
  6
CONTINUOUS
 62
    3
 10
1090.0037604220267
 20
852.52165946705099
 11
1090.0037604220267
 21
850.52165946705099
  0
LINE
  8
_0-1_計細線
  6
CONTINUOUS
 62
    3
 10
1088.0037604220267
 20
854.52165946705099
 11
1090.0037604220267
 21
852.52165946705099
  0
LINE
  8
_0-1_計細線
  6
CONTINUOUS
 62
    3
 10
1102.0037601158654
 20
850.52165946705099
 11
1104.0037601158654
 21
848.52165946705099
  0
LINE
  8
_0-1_計細線
  6
CONTINUOUS
 62
    3
 10
1102.0037601158654
 20
852.52165946705099
 11
1102.0037601158654
 21
850.52165946705099
  0
LINE
  8
_0-1_計細線
  6
CONTINUOUS
 62
    3
 10
1104.0037601158654
 20
854.52165946705099
 11
1102.0037601158654
 21
852.52165946705099
  0
LINE
  8
_0-1_計細線
  6
CONTINUOUS
 62
    3
 10
1088.0037604220267
 20
848.52165946705099
 11
1088.0037604220267
 21
834.52165946705099
  0
ARC
  8
_0-1_計細線
  6
CONTINUOUS
 62
    3
 10
1091.0037604220267
 20
834.52165946705099
 40
3
 50
179.99999999999983
 51
269.99999999999977
  0
LINE
  8
_0-1_計細線
  6
CONTINUOUS
 62
    3
 10
1091.0037604220267
 20
831.52165946705099
 11
1101.0037601158654
 21
831.52165946705099
  0
LINE
  8
_0-1_計細線
  6
CONTINUOUS
 62
    3
 10
1104.0037601158654
 20
848.52165946705099
 11
1104.0037601158654
 21
834.52165946705099
  0
ARC
  8
_0-1_計細線
  6
CONTINUOUS
 62
    3
 10
1101.0037601158654
 20
834.52165946705099
 40
3
 50
269.99999999999977
 51
359.99999999999966
  0
LINE
  8
_0-1_計細線
  6
CONTINUOUS
 62
    3
 10
1090.0037604220267
 20
866.52165946705099
 11
1102.0037601158654
 21
866.52165946705099
  0
LINE
  8
_0-1_計細線
  6
CONTINUOUS
 62
    3
 10
1104.0037601158654
 20
864.52165946705099
 11
1102.0037601158654
 21
866.52165946705099
  0
ARC
  8
_0-1_計細線
  6
CONTINUOUS
 62
    3
 10
1502.6195190041451
 20
1200.7340632024866
 40
0.501740082747087
 50
330.00000000003996
 51
20.189990999990084
  0
ARC
  8
_0-1_計細線
  6
CONTINUOUS
 62
    3
 10
1502.6195190041451
 20
1172.3344534264775
 40
0.501740082747087
 50
339.81000900000919
 51
29.999999999959307
  0
LINE
  8
_0-1_計細線
  6
CONTINUOUS
 62
    3
 10
1465.3083254779438
 20
1188.7920977182011
 11
1464.0047573825284
 21
1191.0499371219203
  0
LINE
  8
_0-1_計細線
  6
CONTINUOUS
 62
    3
 10
1465.3083254779438
 20
1188.7920977182011
 11
1445.1684341221969
 21
1223.6754094395078
  0
LINE
  8
_0-1_計細線
  6
CONTINUOUS
 62
    3
 10
1465.3083254779438
 20
1188.7920977182011
 11
1467.9154556478704
 21
1188.7920977182011
  0
LINE
  8
_0-1_計細線
  6
CONTINUOUS
 62
    3
 10
1461.3976332335076
 20
1186.5342583144811
 11
1441.2577418777571
 21
1221.41757003579
  0
ARC
  8
_0-1_計細線
  6
CONTINUOUS
 62
    3
 10
1432.3999850189527
 20
1160.1927986044211
 40
0.501740082747087
 50
219.81000899998574
 51
269.99999999999977
  0
LINE
  8
_0-1_計細線
  6
CONTINUOUS
 62
    3
 10
1465.3083254779438
 20
1184.276418910762
 11
1445.1684341221969
 21
1149.3931071894549
  0
LINE
  8
_0-1_計細線
  6
CONTINUOUS
 62
    3
 10
1461.3976332335076
 20
1186.5342583144811
 11
1441.2577418777571
 21
1151.650946593174
  0
ARC
  8
_0-1_計細線
  6
CONTINUOUS
 62
    3
 10
1464.0047573825284
 20
1186.5342583144811
 40
46.4111412917104
 50
89.999999999999915
 51
269.99999999999977
  0
ARC
  8
_0-1_計細線
  6
CONTINUOUS
 62
    3
 10
1464.0047573825284
 20
1186.5342583144811
 40
57.198598227560829
 50
89.999999999999915
 51
269.99999999999977
  0
CIRCLE
  8
_0-1_計細線
  6
CONTINUOUS
 62
    3
 10
1464.0047573825284
 20
1186.5342583144811
 40
58.202084413960065
  0
LINE
  8
_0-1_計細線
  6
CONTINUOUS
 62
    3
 10
1465.3083254779438
 20
1188.7920977182011
 11
1505.5881021685343
 21
1188.7920977182011
  0
LINE
  8
_0-1_計細線
  6
CONTINUOUS
 62
    3
 10
1465.3083254779438
 20
1184.276418910762
 11
1505.5881021685343
 21
1184.276418910762
  0
ARC
  8
_0-1_計細線
  6
CONTINUOUS
 62
    3
 10
1464.0047573825284
 20
1186.5342583144811
 40
46.4111412917104
 50
269.99999999999977
 51
89.999999999999545
  0
ARC
  8
_0-1_計細線
  6
CONTINUOUS
 62
    3
 10
1464.0047573825284
 20
1186.5342583144811
 40
57.198598227560829
 50
269.99999999999977
 51
89.999999999999545
  0
ARC
  8
_0-1_計細線
  6
CONTINUOUS
 62
    3
 10
1464.0047573825284
 20
1186.5342583144811
 40
41.644595453350369
 50
89.999999999999915
 51
116.89207624474167
  0
ARC
  8
_0-1_計細線
  6
CONTINUOUS
 62
    3
 10
1464.0047573825284
 20
1186.5342583144811
 40
41.644595453350369
 50
123.10791868694014
 51
236.89208131305782
  0
ARC
  8
_0-1_計細線
  6
CONTINUOUS
 62
    3
 10
1464.0047573825284
 20
1186.5342583144811
 40
41.644595453350369
 50
243.10792375525659
 51
269.99999999999977
  0
ARC
  8
_0-1_計細線
  6
CONTINUOUS
 62
    3
 10
1464.0047573825284
 20
1186.5342583144811
 40
41.644595453350369
 50
269.99999999999977
 51
356.8920785890931
  0
ARC
  8
_0-1_計細線
  6
CONTINUOUS
 62
    3
 10
1464.0047573825284
 20
1186.5342583144811
 40
41.644595453350369
 50
3.1079214109077964
 51
89.999999999999915
  0
ARC
  8
_0-0_計極細
  6
CONTINUOUS
 62
    2
 10
1464.0047573825284
 20
1186.5342583144811
 40
50.153133796808191
 50
269.99999999999977
 51
89.999999999999545
  0
ARC
  8
_0-0_計極細
  6
CONTINUOUS
 62
    2
 10
1464.0047573825284
 20
1186.5342583144811
 40
50.153133796808191
 50
89.999999999999915
 51
269.99999999999977
  0
ARC
  8
_0-0_計極細
  6
CONTINUOUS
 62
    2
 10
1450.3897563380212
 20
1157.4332160848899
 40
0.501740082747087
 50
149.99997568607938
 51
210.00002243784951
  0
ARC
  8
_0-0_計極細
  6
CONTINUOUS
 62
    2
 10
1464.2944411884771
 20
1180.513353237895
 40
1.0034861863992508
 50
29.999999999951111
 51
149.99999999997101
  0
ARC
  8
_0-0_計極細
  6
CONTINUOUS
 62
    2
 10
1464.2944411884771
 20
1180.513353237895
 40
1.0034861863992508
 50
29.999999999951111
 51
106.77865499997519
  0
ARC
  8
_0-0_計極細
  6
CONTINUOUS
 62
    2
 10
1458.6456641710563
 20
1183.7746788280147
 40
1.0034861863992508
 50
329.99999999995163
 51
89.999999999999545
  0
ARC
  8
_0-0_計極細
  6
CONTINUOUS
 62
    2
 10
1423.5095410824904
 20
1193.8130191135742
 40
0.501740082747087
 50
89.993779916795503
 51
169.8086801233749
  0
ARC
  8
_0-0_計極細
  6
CONTINUOUS
 62
    2
 10
1423.5079753770576
 20
1179.2624957808198
 40
0.501740082747087
 50
190.17882981053808
 51
269.99383436904543
  0
ARC
  8
_0-0_計極細
  6
CONTINUOUS
 62
    2
 10
1423.4562430864514
 20
1189.2973447111153
 40
1.0034861863992508
 50
176.10042624738318
 51
269.99385985774035
  0
ARC
  8
_0-0_計極細
  6
CONTINUOUS
 62
    2
 10
1464.0047573825284
 20
1186.5342583144811
 40
37.630656728658437
 50
317.45760300000074
 51
327.38710799999916
  0
ARC
  8
_0-0_計極細
  6
CONTINUOUS
 62
    2
 10
1464.0047573825284
 20
1186.5342583144811
 40
37.630656728658437
 50
32.612892000001082
 51
42.54239699999939
  0
LINE
  8
_0-0_計極細
  6
CONTINUOUS
 62
    2
 10
1499.1789751535159
 20
1167.2553202592558
 11
1490.2208859325153
 21
1182.7711926416173
  0
LINE
  8
_0-0_計極細
  6
CONTINUOUS
 62
    2
 10
1497.7721485360369
 20
1162.6676254061949
 11
1485.4411482911316
 21
1184.0255458589354
  0
LINE
  8
_0-0_計極細
  6
CONTINUOUS
 62
    2
 10
1493.1502127958054
 20
1158.6312407473774
 11
1479.2130096827166
 21
1182.7711926416173
  0
LINE
  8
_0-0_計極細
  6
CONTINUOUS
 62
    2
 10
1499.1789751535159
 20
1205.8131963697078
 11
1490.2208859325153
 21
1190.2973239873472
  0
LINE
  8
_0-0_計極細
  6
CONTINUOUS
 62
    2
 10
1497.7721485360369
 20
1210.4008912227682
 11
1485.4411482911316
 21
1189.0429707700273
  0
LINE
  8
_0-0_計極細
  6
CONTINUOUS
 62
    2
 10
1493.1502127958054
 20
1214.4372698606817
 11
1479.2130096827166
 21
1190.2973239873472
  0
LINE
  8
_0-0_計極細
  6
CONTINUOUS
 62
    2
 10
1461.997791030635
 20
1159.5146219193098
 11
1461.997791030635
 21
1167.4320338232537
  0
LINE
  8
_0-0_計極細
  6
CONTINUOUS
 62
    2
 10
1462.4995311133823
 20
1159.4820307601299
 11
1462.4995311133823
 21
1166.5629944472148
  0
ARC
  8
_0-0_計極細
  6
CONTINUOUS
 62
    2
 10
1464.0047573825284
 20
1186.5342583144811
 40
37.630656728658437
 50
213.59599499999973
 51
225.50677599999941
  0
LINE
  8
_0-0_計極細
  6
CONTINUOUS
 62
    2
 10
1490.987094270751
 20
1155.3534901282114
 11
1474.4332720413329
 21
1184.0255458589354
  0
LINE
  8
_0-0_計極細
  6
CONTINUOUS
 62
    2
 10
1485.7992416205623
 20
1152.2973027949556
 11
1468.2051334329169
 21
1182.7711926416173
  0
LINE
  8
_0-0_計極細
  6
CONTINUOUS
 62
    2
 10
1467.7901726550388
 20
1145.3575233110118
 11
1455.4591724101335
 21
1166.7154437637528
  0
LINE
  8
_0-0_計極細
  6
CONTINUOUS
 62
    2
 10
1473.5967515736118
 20
1147.3420437287796
 11
1459.659548460522
 21
1171.4819956230185
  0
LINE
  8
_0-0_計極細
  6
CONTINUOUS
 62
    2
 10
1477.5169327644523
 20
1147.5764857306535
 11
1460.9631105350343
 21
1176.2485474822838
  0
LINE
  8
_0-0_計極細
  6
CONTINUOUS
 62
    2
 10
1482.7575887521632
 20
1150.5412094948888
 11
1465.1634865854228
 21
1181.0150933206437
  0
LINE
  8
_0-0_計極細
  6
CONTINUOUS
 62
    2
 10
1432.3999850189527
 20
1159.6910585216742
 11
1445.6100193423242
 21
1159.6910585216742
  0
ARC
  8
_0-0_計極細
  6
CONTINUOUS
 62
    2
 10
1442.1338497963568
 20
1155.1753797142346
 40
1.0034861863992508
 50
329.99999999997061
 51
89.999999999999545
  0
ARC
  8
_0-0_計極細
  6
CONTINUOUS
 62
    2
 10
1464.0047573825284
 20
1186.5342583144811
 40
37.630656728658437
 50
233.77152299999938
 51
236.31964599999873
  0
ARC
  8
_0-0_計極細
  6
CONTINUOUS
 62
    2
 10
1438.1528695060549
 20
1155.1753797142346
 40
1.0034861863992508
 50
89.999999999999915
 51
230.49822999997428
  0
LINE
  8
_0-0_計極細
  6
CONTINUOUS
 62
    2
 10
1438.1528695060549
 20
1156.1788598797289
 11
1442.1338497963568
 21
1156.1788598797289
  0
ARC
  8
_0-0_計極細
  6
CONTINUOUS
 62
    2
 10
1464.0047573825284
 20
1186.5342583144811
 40
37.630656728658437
 50
272.61289199999942
 51
282.54239699999982
  0
ARC
  8
_0-0_計極細
  6
CONTINUOUS
 62
    2
 10
1468.2246953535102
 20
1145.6083963628375
 40
0.501740082747087
 50
210.00000000000426
 51
275.88706199997517
  0
LINE
  8
_0-0_計極細
  6
CONTINUOUS
 62
    2
 10
1463.1136995566237
 20
1146.4330195221282
 11
1454.1556103356231
 21
1161.9488979253938
  0
LINE
  8
_0-0_計極細
  6
CONTINUOUS
 62
    2
 10
1456.560251446919
 20
1145.7421206645913
 11
1449.9552342852346
 21
1157.182346066129
  0
ARC
  8
_0-0_計極細
  6
CONTINUOUS
 62
    2
 10
1464.0047573825284
 20
1186.5342583144811
 40
37.630656728658437
 50
254.49322399999932
 51
266.40400499999907
  0
ARC
  8
_0-0_計極細
  6
CONTINUOUS
 62
    2
 10
1445.6100193423242
 20
1160.1927986044211
 40
0.501740082747087
 50
269.99999999999977
 51
329.99999999989114
  0
ARC
  8
_0-0_計極細
  6
CONTINUOUS
 62
    2
 10
1449.7731199693824
 20
1148.4664236682129
 40
1.0034861863992508
 50
249.50177000005806
 51
29.999999999976708
  0
LINE
  8
_0-0_計極細
  6
CONTINUOUS
 62
    2
 10
1450.6421593454231
 20
1148.9681637509602
 11
1448.6516722107242
 21
1152.4157942068618
  0
ARC
  8
_0-0_計極細
  6
CONTINUOUS
 62
    2
 10
1453.2865649386783
 20
1161.4471518217424
 40
1.0034861863992508
 50
29.999999999977071
 51
149.99999999999699
  0
ARC
  8
_0-0_計極細
  6
CONTINUOUS
 62
    2
 10
1464.0047573825284
 20
1186.5342583144811
 40
27.094072844634088
 50
244.78019200000111
 51
249.77896100000117
  0
ARC
  8
_0-0_計極細
  6
CONTINUOUS
 62
    2
 10
1464.0047573825284
 20
1186.5342583144811
 40
37.630656728658437
 50
243.68035399999945
 51
246.22847699999838
  0
ARC
  8
_0-0_計極細
  6
CONTINUOUS
 62
    2
 10
1447.7826268137794
 20
1151.9140541241168
 40
1.0034861863992508
 50
29.999999999977071
 51
150.00000000002294
  0
ARC
  8
_0-0_計極細
  6
CONTINUOUS
 62
    2
 10
1462.2446601805857
 20
1145.9312794393827
 40
1.0034861863992508
 50
267.5178359999677
 51
30.000000000002665
  0
ARC
  8
_0-0_計極細
  6
CONTINUOUS
 62
    2
 10
1456.9947741453905
 20
1145.992993716417
 40
0.501740082747087
 50
210.00000000010814
 51
260.18999100005101
  0
ARC
  8
_0-0_計極細
  6
CONTINUOUS
 62
    2
 10
1464.0047573825284
 20
1186.5342583144811
 40
27.094072844634088
 50
260.29098299999907
 51
275.37568199999987
  0
ARC
  8
_0-0_計極細
  6
CONTINUOUS
 62
    2
 10
1464.0047573825284
 20
1186.5342583144811
 40
37.630656728658437
 50
288.07291800000053
 51
297.3252259999997
  0
ARC
  8
_0-0_計極細
  6
CONTINUOUS
 62
    2
 10
1464.0047573825284
 20
1186.5342583144811
 40
27.094072844634088
 50
283.31934900000118
 51
296.2837799999993
  0
ARC
  8
_0-0_計極細
  6
CONTINUOUS
 62
    2
 10
1477.951449442018
 20
1147.8273587824797
 40
0.501740082747087
 50
210.00000000010814
 51
289.81487200010849
  0
ARC
  8
_0-0_計極細
  6
CONTINUOUS
 62
    2
 10
1472.7277061766679
 20
1146.8403036460331
 40
1.0034861863992508
 50
282.39403400005705
 51
30.000000000002665
  0
ARC
  8
_0-0_計極細
  6
CONTINUOUS
 62
    2
 10
1464.0047573825284
 20
1186.5342583144811
 40
37.630656728658437
 50
302.67477399999865
 51
311.92708199999919
  0
ARC
  8
_0-0_計極細
  6
CONTINUOUS
 62
    2
 10
1486.6682809966003
 20
1152.7990488986084
 40
1.0034861863992508
 50
210.00000000002515
 51
303.89345000001418
  0
ARC
  8
_0-0_計極細
  6
CONTINUOUS
 62
    2
 10
1490.5525715722786
 20
1155.1026170763857
 40
0.501740082747087
 50
310.18512800003361
 51
29.999999999907399
  0
ARC
  8
_0-0_計極細
  6
CONTINUOUS
 62
    2
 10
1481.8885493761243
 20
1150.039463391236
 40
1.0034861863992508
 50
296.10655000002453
 51
29.999999999999204
  0
LINE
  8
_0-0_計極細
  6
CONTINUOUS
 62
    2
 10
1429.7215974374456
 20
1165.7119635982599
 11
1447.6377879212557
 21
1165.7119635982599
  0
ARC
  8
_0-0_計極細
  6
CONTINUOUS
 62
    2
 10
1442.1338497963568
 20
1217.8931369147294
 40
1.0034861863992508
 50
269.99999999999977
 51
30.000000000051159
  0
LINE
  8
_0-0_計極細
  6
CONTINUOUS
 62
    2
 10
1432.3999850189527
 20
1213.3774581072898
 11
1445.6100193423242
 21
1213.3774581072898
  0
LINE
  8
_0-0_計極細
  6
CONTINUOUS
 62
    2
 10
1429.7215974374456
 20
1207.3565530307033
 11
1447.6377879212557
 21
1207.3565530307033
  0
LINE
  8
_0-0_計極細
  6
CONTINUOUS
 62
    2
 10
1426.4519569774163
 20
1203.8443604096647
 11
1451.1139574672231
 21
1203.8443604096647
  0
LINE
  8
_0-0_計極細
  6
CONTINUOUS
 62
    2
 10
1425.2673137990721
 20
1197.8234553330794
 11
1453.1417260461565
 21
1197.8234553330794
  0
LINE
  8
_0-0_計極細
  6
CONTINUOUS
 62
    2
 10
1423.5102571541918
 20
1194.311262712039
 11
1456.6178955921221
 21
1194.311262712039
  0
LINE
  8
_0-0_計極細
  6
CONTINUOUS
 62
    2
 10
1423.4574477957647
 20
1188.2903576354538
 11
1458.6456641710563
 21
1188.2903576354538
  0
LINE
  8
_0-0_計極細
  6
CONTINUOUS
 62
    2
 10
1426.4519569774163
 20
1169.2241562192994
 11
1451.1139574672231
 21
1169.2241562192994
  0
LINE
  8
_0-0_計極細
  6
CONTINUOUS
 62
    2
 10
1425.2673137990721
 20
1175.2450612958851
 11
1453.1417260461565
 21
1175.2450612958851
  0
LINE
  8
_0-0_計極細
  6
CONTINUOUS
 62
    2
 10
1423.5102571541918
 20
1178.757253916925
 11
1456.6178955921221
 21
1178.757253916925
  0
LINE
  8
_0-0_計極細
  6
CONTINUOUS
 62
    2
 10
1423.4574477957647
 20
1184.7781589935089
 11
1458.6456641710563
 21
1184.7781589935089
  0
ARC
  8
_0-0_計極細
  6
CONTINUOUS
 62
    2
 10
1464.0047573825284
 20
1186.5342583144811
 40
27.094072844634088
 50
140.2909829999995
 51
155.37568200000004
  0
ARC
  8
_0-0_計極細
  6
CONTINUOUS
 62
    2
 10
1464.0047573825284
 20
1186.5342583144811
 40
37.630656728658437
 50
152.61289200000007
 51
162.54239699999968
  0
ARC
  8
_0-0_計極細
  6
CONTINUOUS
 62
    2
 10
1425.2673137990721
 20
1198.82694151948
 40
1.0034861863992508
 50
162.39403400002107
 51
269.99999999999977
  0
ARC
  8
_0-0_計極細
  6
CONTINUOUS
 62
    2
 10
1429.7215974374456
 20
1164.7084774118593
 40
1.0034861863992508
 50
89.999999999999915
 51
212.4821639999854
  0
ARC
  8
_0-0_計極細
  6
CONTINUOUS
 62
    2
 10
1464.0047573825284
 20
1186.5342583144811
 40
37.630656728658437
 50
168.07291799999925
 51
177.32522600000016
  0
ARC
  8
_0-0_計極細
  6
CONTINUOUS
 62
    2
 10
1464.0047573825284
 20
1186.5342583144811
 40
37.630656728658437
 50
182.67477399999882
 51
191.9270819999997
  0
ARC
  8
_0-0_計極細
  6
CONTINUOUS
 62
    2
 10
1464.0047573825284
 20
1186.5342583144811
 40
37.630656728658437
 50
197.4576029999993
 51
207.38710799999896
  0
ARC
  8
_0-0_計極細
  6
CONTINUOUS
 62
    2
 10
1423.4574477957647
 20
1183.7746788280156
 40
1.0034861863992508
 50
89.999999999999915
 51
183.89344999999844
  0
ARC
  8
_0-0_計極細
  6
CONTINUOUS
 62
    2
 10
1425.2673137990721
 20
1174.2415751094859
 40
1.0034861863992508
 50
89.999999999999915
 51
197.60596600000332
  0
ARC
  8
_0-0_計極細
  6
CONTINUOUS
 62
    2
 10
1426.4519569774163
 20
1169.7258963020454
 40
0.501740082747087
 50
204.11293800002809
 51
269.99999999999977
  0
ARC
  8
_0-0_計極細
  6
CONTINUOUS
 62
    2
 10
1464.0047573825284
 20
1186.5342583144811
 40
27.094072844634088
 50
163.31934899999951
 51
176.28377999999955
  0
ARC
  8
_0-0_計極細
  6
CONTINUOUS
 62
    2
 10
1464.0047573825284
 20
1186.5342583144811
 40
27.094072844634088
 50
183.71621999999911
 51
196.68065099999922
  0
ARC
  8
_0-0_計極細
  6
CONTINUOUS
 62
    2
 10
1464.0047573825284
 20
1186.5342583144811
 40
27.094072844634088
 50
204.62431799999874
 51
219.70901699999865
  0
ARC
  8
_0-0_計極細
  6
CONTINUOUS
 62
    2
 10
1426.4519569774163
 20
1203.3426203269187
 40
0.501740082747087
 50
89.999999999999915
 51
155.88706199997156
  0
ARC
  8
_0-0_計極細
  6
CONTINUOUS
 62
    2
 10
1429.7215974374456
 20
1208.3600392171043
 40
1.0034861863992508
 50
147.5178360000142
 51
269.99999999999977
  0
ARC
  8
_0-0_計極細
  6
CONTINUOUS
 62
    2
 10
1464.0047573825284
 20
1186.5342583144811
 40
37.630656728658437
 50
123.68035400000058
 51
126.22847700000025
  0
ARC
  8
_0-0_計極細
  6
CONTINUOUS
 62
    2
 10
1464.0047573825284
 20
1186.5342583144811
 40
37.630656728658437
 50
134.49322399999971
 51
146.40400499999933
  0
ARC
  8
_0-0_計極細
  6
CONTINUOUS
 62
    2
 10
1432.3999850189527
 20
1212.8757180245434
 40
0.501740082747087
 50
89.999999999999915
 51
140.18999100005377
  0
ARC
  8
_0-0_計極細
  6
CONTINUOUS
 62
    2
 10
1438.1528695060549
 20
1217.8931369147294
 40
1.0034861863992508
 50
129.50177000002535
 51
269.99999999999977
  0
LINE
  8
_0-0_計極細
  6
CONTINUOUS
 62
    2
 10
1438.1528695060549
 20
1216.8896567492352
 11
1442.1338497963568
 21
1216.8896567492352
  0
ARC
  8
_0-0_計極細
  6
CONTINUOUS
 62
    2
 10
1464.0047573825284
 20
1186.5342583144811
 40
37.630656728658437
 50
77.457603000000148
 51
87.387108000000282
  0
ARC
  8
_0-0_計極細
  6
CONTINUOUS
 62
    2
 10
1464.0047573825284
 20
1186.5342583144811
 40
37.630656728658437
 50
77.457603000000148
 51
87.387108000000282
  0
ARC
  8
_0-0_計極細
  6
CONTINUOUS
 62
    2
 10
1469.0741788298617
 20
1183.2729327243637
 40
1.0034861863992508
 50
89.999999999999915
 51
209.9999999999992
  0
ARC
  8
_0-0_計極細
  6
CONTINUOUS
 62
    2
 10
1469.0741788298617
 20
1189.7955839046017
 40
1.0034861863992508
 50
150.00000000000043
 51
269.99999999999977
  0
ARC
  8
_0-0_計極細
  6
CONTINUOUS
 62
    2
 10
1468.2246953535102
 20
1227.4601202661238
 40
0.501740082747087
 50
84.112938000024442
 51
150.00000000004033
  0
LINE
  8
_0-0_計極細
  6
CONTINUOUS
 62
    2
 10
1473.5967515736118
 20
1225.7264668792773
 11
1459.659548460522
 21
1201.5865210059455
  0
LINE
  8
_0-0_計極細
  6
CONTINUOUS
 62
    2
 10
1477.5169327644523
 20
1225.492024877406
 11
1460.9631105350343
 21
1196.8199691466803
  0
LINE
  8
_0-0_計極細
  6
CONTINUOUS
 62
    2
 10
1482.7575887521632
 20
1222.5273071340753
 11
1465.1634865854228
 21
1192.0534233083204
  0
LINE
  8
_0-0_計極細
  6
CONTINUOUS
 62
    2
 10
1461.997791030635
 20
1194.5261066678868
 11
1461.997791030635
 21
1198.6120915427255
  0
LINE
  8
_0-0_計極細
  6
CONTINUOUS
 62
    2
 10
1462.4995311133823
 20
1193.6570672918479
 11
1462.4995311133823
 21
1199.4811369396684
  0
ARC
  8
_0-0_計極細
  6
CONTINUOUS
 62
    2
 10
1453.1417260461565
 20
1198.82694151948
 40
1.0034861863992508
 50
269.99999999999977
 51
29.999999999999204
  0
LINE
  8
_0-0_計極細
  6
CONTINUOUS
 62
    2
 10
1465.5099836516754
 20
1192.65358110545
 11
1465.5099836516754
 21
1204.6953912586196
  0
LINE
  8
_0-0_計極細
  6
CONTINUOUS
 62
    2
 10
1466.0117297553268
 20
1193.5226265023925
 11
1466.0117297553268
 21
1205.5644366555648
  0
ARC
  8
_0-0_計極細
  6
CONTINUOUS
 62
    2
 10
1453.1417260461565
 20
1174.2415751094859
 40
1.0034861863992508
 50
329.9999999999776
 51
89.999999999999545
  0
ARC
  8
_0-0_計極細
  6
CONTINUOUS
 62
    2
 10
1451.1139574672231
 20
1169.7258963020454
 40
0.501740082747087
 50
269.99999999999977
 51
329.999999999995
  0
ARC
  8
_0-0_計極細
  6
CONTINUOUS
 62
    2
 10
1464.0047573825284
 20
1186.5342583144811
 40
27.094072844634088
 50
230.22103899999877
 51
235.21980799999864
  0
ARC
  8
_0-0_計極細
  6
CONTINUOUS
 62
    2
 10
1447.6377879212557
 20
1164.7084774118593
 40
1.0034861863992508
 50
330.00000000000011
 51
89.999999999999545
  0
ARC
  8
_0-0_計極細
  6
CONTINUOUS
 62
    2
 10
1455.8936951086059
 20
1166.9663168155798
 40
0.501740082747087
 50
149.9999999999884
 51
210.00000000005619
  0
LINE
  8
_0-0_計極細
  6
CONTINUOUS
 62
    2
 10
1461.997791030635
 20
1174.4564250862386
 11
1461.997791030635
 21
1178.5424099610773
  0
LINE
  8
_0-0_計極細
  6
CONTINUOUS
 62
    2
 10
1462.4995311133823
 20
1173.5873796892938
 11
1462.4995311133823
 21
1179.4114493371158
  0
ARC
  8
_0-0_計極細
  6
CONTINUOUS
 62
    2
 10
1456.6178955921221
 20
1179.2590000205764
 40
0.501740082747087
 50
269.99999999999977
 51
330.00000000003996
  0
ARC
  8
_0-0_計極細
  6
CONTINUOUS
 62
    2
 10
1461.3976332335076
 20
1176.4994145132041
 40
0.501740082747087
 50
150.00000000009922
 51
209.99999999985545
  0
ARC
  8
_0-0_計極細
  6
CONTINUOUS
 62
    2
 10
1458.7905030635773
 20
1170.9802555402712
 40
1.0034861863992508
 50
29.999999999999559
 51
150.00000000000043
  0
ARC
  8
_0-0_計極細
  6
CONTINUOUS
 62
    2
 10
1461.3976332335076
 20
1196.5691021157591
 40
0.501740082747087
 50
150.00000000009922
 51
209.99999999985545
  0
ARC
  8
_0-0_計極細
  6
CONTINUOUS
 62
    2
 10
1464.2944411884771
 20
1192.5551633910677
 40
1.0034861863992508
 50
210.00000000005113
 51
330.00000000002603
  0
ARC
  8
_0-0_計極細
  6
CONTINUOUS
 62
    2
 10
1456.6178955921221
 20
1193.8095166083863
 40
0.501740082747087
 50
29.99999999995967
 51
89.999999999999901
  0
ARC
  8
_0-0_計極細
  6
CONTINUOUS
 62
    2
 10
1458.6456641710563
 20
1189.2938378009485
 40
1.0034861863992508
 50
269.99999999999977
 51
30.000000000002665
  0
LINE
  8
_0-0_計極細
  6
CONTINUOUS
 62
    2
 10
1465.5099836516754
 20
1168.3731253703436
 11
1465.5099836516754
 21
1180.4149355235154
  0
LINE
  8
_0-0_計極細
  6
CONTINUOUS
 62
    2
 10
1466.0117297553268
 20
1167.5040799734006
 11
1466.0117297553268
 21
1179.5458901265706
  0
ARC
  8
_0-0_計極細
  6
CONTINUOUS
 62
    2
 10
1464.2944411884771
 20
1192.5551633910677
 40
1.0034861863992508
 50
253.22134500003193
 51
330.00000000002603
  0
LINE
  8
_0-0_計極細
  6
CONTINUOUS
 62
    2
 10
1463.1136995566237
 20
1226.6354910859309
 11
1454.1556103356231
 21
1211.1196187035698
  0
ARC
  8
_0-0_計極細
  6
CONTINUOUS
 62
    2
 10
1464.0047573825284
 20
1186.5342583144811
 40
37.630656728658437
 50
93.595995000000485
 51
105.50677600000017
  0
LINE
  8
_0-0_計極細
  6
CONTINUOUS
 62
    2
 10
1456.560251446919
 20
1227.326395964375
 11
1449.9552342852346
 21
1215.8861705628346
  0
LINE
  8
_0-0_計極細
  6
CONTINUOUS
 62
    2
 10
1467.7901726550388
 20
1227.7109933179509
 11
1455.4591724101335
 21
1206.3530728652095
  0
ARC
  8
_0-0_計極細
  6
CONTINUOUS
 62
    2
 10
1455.8936951086059
 20
1206.1021998133842
 40
0.501740082747087
 50
149.9999999999884
 51
210.00000000001123
  0
ARC
  8
_0-0_計極細
  6
CONTINUOUS
 62
    2
 10
1464.0047573825284
 20
1186.5342583144811
 40
27.094072844634088
 50
110.2210389999981
 51
115.21980799999808
  0
ARC
  8
_0-0_計極細
  6
CONTINUOUS
 62
    2
 10
1453.2865649386783
 20
1211.621364807223
 40
1.0034861863992508
 50
210.00000000000267
 51
330.00000000002257
  0
ARC
  8
_0-0_計極細
  6
CONTINUOUS
 62
    2
 10
1450.3897569837061
 20
1215.6352975110085
 40
0.501740082747087
 50
149.99999999999537
 51
209.9999999999593
  0
ARC
  8
_0-0_計極細
  6
CONTINUOUS
 62
    2
 10
1464.0047573825284
 20
1186.5342583144811
 40
37.630656728658437
 50
113.77152300000098
 51
116.31964599999986
  0
ARC
  8
_0-0_計極細
  6
CONTINUOUS
 62
    2
 10
1449.7731199693824
 20
1224.6020929607512
 40
1.0034861863992508
 50
330.00000000002257
 51
110.49822999994124
  0
ARC
  8
_0-0_計極細
  6
CONTINUOUS
 62
    2
 10
1447.7826268137794
 20
1221.1544625048464
 40
1.0034861863992508
 50
209.9999999999992
 51
330.00000000000011
  0
LINE
  8
_0-0_計極細
  6
CONTINUOUS
 62
    2
 10
1450.6421593454231
 20
1224.1003528780038
 11
1448.6516722107242
 21
1220.6527224221018
  0
ARC
  8
_0-0_計極細
  6
CONTINUOUS
 62
    2
 10
1464.0047573825284
 20
1186.5342583144811
 40
27.094072844634088
 50
124.78019199999984
 51
129.77896100000024
  0
ARC
  8
_0-0_計極細
  6
CONTINUOUS
 62
    2
 10
1445.6100193423242
 20
1212.8757180245434
 40
0.501740082747087
 50
30.000000000063526
 51
89.999999999999915
  0
ARC
  8
_0-0_計極細
  6
CONTINUOUS
 62
    2
 10
1447.6377879212557
 20
1208.3600392171043
 40
1.0034861863992508
 50
269.99999999999977
 51
29.999999999999204
  0
ARC
  8
_0-0_計極細
  6
CONTINUOUS
 62
    2
 10
1451.1139574672231
 20
1203.3426203269187
 40
0.501740082747087
 50
29.99999999995967
 51
89.999999999999901
  0
LINE
  8
_0-0_計極細
  6
CONTINUOUS
 62
    2
 10
1462.4995311133823
 20
1206.5055221817493
 11
1462.4995311133823
 21
1213.5864858688342
  0
LINE
  8
_0-0_計極細
  6
CONTINUOUS
 62
    2
 10
1461.997791030635
 20
1205.6364828057108
 11
1461.997791030635
 21
1213.5538947096543
  0
ARC
  8
_0-0_計極細
  6
CONTINUOUS
 62
    2
 10
1462.2446601805857
 20
1227.1372371895845
 40
1.0034861863992508
 50
329.99999999997414
 51
92.482164000031602
  0
ARC
  8
_0-0_計極細
  6
CONTINUOUS
 62
    2
 10
1464.0047573825284
 20
1186.5342583144811
 40
27.094072844634088
 50
84.624317999999832
 51
99.709017000000401
  0
ARC
  8
_0-0_計極細
  6
CONTINUOUS
 62
    2
 10
1456.9947741453905
 20
1227.0755229125498
 40
0.501740082747087
 50
99.810008999948636
 51
149.99999999993648
  0
ARC
  8
_0-0_計極細
  6
CONTINUOUS
 62
    2
 10
1458.7905030635773
 20
1202.0882610886915
 40
1.0034861863992508
 50
209.9999999999992
 51
330.00000000000011
  0
ARC
  8
_0-0_計極細
  6
CONTINUOUS
 62
    2
 10
1464.0047573825284
 20
1186.5342583144811
 40
27.094072844634088
 50
84.624317999999832
 51
89.999999999999915
  0
ARC
  8
_0-0_計極細
  6
CONTINUOUS
 62
    2
 10
1464.0047573825284
 20
1186.5342583144811
 40
27.094072844634088
 50
20.290983000001571
 51
35.37568200000068
  0
LINE
  8
_0-0_計極細
  6
CONTINUOUS
 62
    2
 10
1490.987094270751
 20
1217.715026500754
 11
1474.4332720413329
 21
1189.0429707700273
  0
LINE
  8
_0-0_計極細
  6
CONTINUOUS
 62
    2
 10
1485.7992416205623
 20
1220.771213834008
 11
1468.2051334329169
 21
1190.2973239873472
  0
ARC
  8
_0-0_計極細
  6
CONTINUOUS
 62
    2
 10
1464.0047573825284
 20
1186.5342583144811
 40
27.094072844634088
 50
303.71622000000156
 51
316.68065099999922
  0
ARC
  8
_0-0_計極細
  6
CONTINUOUS
 62
    2
 10
1480.0820490587537
 20
1183.2729327243637
 40
1.0034861863992508
 50
89.999999999999915
 51
210.00000000002515
  0
ARC
  8
_0-0_計極細
  6
CONTINUOUS
 62
    2
 10
1473.9987493428614
 20
1183.7746788280156
 40
0.501740082747087
 50
30.0000000001085
 51
89.999999999999915
  0
ARC
  8
_0-0_計極細
  6
CONTINUOUS
 62
    2
 10
1480.0820490587537
 20
1189.7955839046017
 40
1.0034861863992508
 50
149.99999999997448
 51
269.99999999999977
  0
ARC
  8
_0-0_計極細
  6
CONTINUOUS
 62
    2
 10
1473.9987493428614
 20
1189.2938378009485
 40
0.501740082747087
 50
269.99999999999977
 51
329.99999999989114
  0
ARC
  8
_0-0_計極細
  6
CONTINUOUS
 62
    2
 10
1464.0047573825284
 20
1186.5342583144811
 40
27.094072844634088
 50
324.62431799999973
 51
339.7090169999999
  0
ARC
  8
_0-0_計極細
  6
CONTINUOUS
 62
    2
 10
1464.0047573825284
 20
1186.5342583144811
 40
27.094072844634088
 50
350.22103899999934
 51
355.21980800000068
  0
ARC
  8
_0-0_計極細
  6
CONTINUOUS
 62
    2
 10
1464.0047573825284
 20
1186.5342583144811
 40
27.094072844634088
 50
4.7801919999998796
 51
9.778961000001221
  0
ARC
  8
_0-0_計極細
  6
CONTINUOUS
 62
    2
 10
1491.0899253085533
 20
1183.2729327243637
 40
1.0034861863992508
 50
89.999999999999915
 51
210.00000000002515
  0
ARC
  8
_0-0_計極細
  6
CONTINUOUS
 62
    2
 10
1485.0066255926602
 20
1183.7746788280156
 40
0.501740082747087
 50
30.000000000056566
 51
89.999999999999915
  0
ARC
  8
_0-0_計極細
  6
CONTINUOUS
 62
    2
 10
1491.0899253085533
 20
1189.7955839046017
 40
1.0034861863992508
 50
149.99999999997448
 51
269.99999999999977
  0
ARC
  8
_0-0_計極細
  6
CONTINUOUS
 62
    2
 10
1485.0066255926602
 20
1189.2938378009485
 40
0.501740082747087
 50
269.99999999999977
 51
329.9999999999431
  0
ARC
  8
_0-0_計極細
  6
CONTINUOUS
 62
    2
 10
1464.0047573825284
 20
1186.5342583144811
 40
27.094072844634088
 50
43.319349000001104
 51
56.28377999999919
  0
ARC
  8
_0-0_計極細
  6
CONTINUOUS
 62
    2
 10
1464.0047573825284
 20
1186.5342583144811
 40
37.630656728658437
 50
62.674774000000312
 51
71.927081999999317
  0
ARC
  8
_0-0_計極細
  6
CONTINUOUS
 62
    2
 10
1464.0047573825284
 20
1186.5342583144811
 40
27.094072844634088
 50
63.716220000000746
 51
76.680650999998889
  0
ARC
  8
_0-0_計極細
  6
CONTINUOUS
 62
    2
 10
1477.951449442018
 20
1225.2411578464839
 40
0.501740082747087
 50
70.185127999891137
 51
149.99999999993648
  0
ARC
  8
_0-0_計極細
  6
CONTINUOUS
 62
    2
 10
1472.7277061766679
 20
1226.2282129829309
 40
1.0034861863992508
 50
329.99999999999665
 51
77.605965999942228
  0
ARC
  8
_0-0_計極細
  6
CONTINUOUS
 62
    2
 10
1464.0047573825284
 20
1186.5342583144811
 40
37.630656728658437
 50
48.072918000001373
 51
57.325226000001372
  0
ARC
  8
_0-0_計極細
  6
CONTINUOUS
 62
    2
 10
1486.6682809966003
 20
1220.2694677303562
 40
1.0034861863992508
 50
56.106549999971008
 51
149.99999999999699
  0
ARC
  8
_0-0_計極細
  6
CONTINUOUS
 62
    2
 10
1490.5525715722786
 20
1217.9658935316743
 40
0.501740082747087
 50
330.00000000009186
 51
49.814871999965682
  0
ARC
  8
_0-0_計極細
  6
CONTINUOUS
 62
    2
 10
1481.8885493761243
 20
1223.0290532377267
 40
1.0034861863992508
 50
330.00000000000011
 51
63.893449999974756
  0
ARC
  8
_0-0_計極細
  6
CONTINUOUS
 62
    2
 10
1494.0192581927483
 20
1159.1329868510302
 40
1.0034861863992508
 50
210.00000000002515
 51
317.6059660000256
  0
ARC
  8
_0-0_計極細
  6
CONTINUOUS
 62
    2
 10
1497.3376318584685
 20
1162.4167523543692
 40
0.501740082747087
 50
324.11293799996702
 51
29.999999999959307
  0
ARC
  8
_0-0_計極細
  6
CONTINUOUS
 62
    2
 10
1464.0047573825284
 20
1186.5342583144811
 40
37.630656728658437
 50
14.493223999999607
 51
26.404005000000534
  0
LINE
  8
_0-0_計極細
  6
CONTINUOUS
 62
    2
 10
1503.0540417026166
 20
1200.4831961715663
 11
1496.4490245409313
 21
1189.0429707700273
  0
ARC
  8
_0-0_計極細
  6
CONTINUOUS
 62
    2
 10
1504.0882947139578
 20
1179.8253022684594
 40
1.0034861863992508
 50
209.99999999997672
 51
350.4982300000064
  0
ARC
  8
_0-0_計極細
  6
CONTINUOUS
 62
    2
 10
1504.0882947139578
 20
1193.2432143605047
 40
1.0034861863992508
 50
9.5017699999932326
 51
150.00000000000043
  0
ARC
  8
_0-0_計極細
  6
CONTINUOUS
 62
    2
 10
1464.0047573825284
 20
1186.5342583144811
 40
37.630656728658437
 50
3.6803540000001762
 51
6.228477000000372
  0
ARC
  8
_0-0_計極細
  6
CONTINUOUS
 62
    2
 10
1464.0047573825284
 20
1186.5342583144811
 40
37.630656728658437
 50
353.77152300000063
 51
356.31964600000015
  0
ARC
  8
_0-0_計極細
  6
CONTINUOUS
 62
    2
 10
1464.0047573825284
 20
1186.5342583144811
 40
37.630656728658437
 50
333.59599499999973
 51
345.50677600000074
  0
ARC
  8
_0-0_計極細
  6
CONTINUOUS
 62
    2
 10
1500.0480205504607
 20
1167.7570603420027
 40
1.0034861863992508
 50
209.99999999997672
 51
332.48216400001218
  0
ARC
  8
_0-0_計極細
  6
CONTINUOUS
 62
    2
 10
1502.0978015583521
 20
1183.2729327243637
 40
1.0034861863992508
 50
89.999999999999915
 51
210.00000000002515
  0
ARC
  8
_0-0_計極細
  6
CONTINUOUS
 62
    2
 10
1496.0145018424589
 20
1183.7746788280156
 40
0.501740082747087
 50
30.000000000004636
 51
89.999999999999915
  0
LINE
  8
_0-0_計極細
  6
CONTINUOUS
 62
    2
 10
1503.219249317013
 20
1179.3235621857129
 11
1501.2287621823141
 21
1182.7711926416173
  0
LINE
  8
_0-0_計極細
  6
CONTINUOUS
 62
    2
 10
1503.0540417026166
 20
1172.5853204573987
 11
1496.4490245409313
 21
1184.0255458589354
  0
ARC
  8
_0-0_計極細
  6
CONTINUOUS
 62
    2
 10
1502.0978015583521
 20
1189.7955839046017
 40
1.0034861863992508
 50
149.99999999997448
 51
269.99999999999977
  0
ARC
  8
_0-0_計極細
  6
CONTINUOUS
 62
    2
 10
1496.0145018424589
 20
1189.2938378009485
 40
0.501740082747087
 50
269.99999999999977
 51
329.999999999995
  0
LINE
  8
_0-0_計極細
  6
CONTINUOUS
 62
    2
 10
1503.219249317013
 20
1193.7449544432511
 11
1501.2287621823141
 21
1190.2973239873472
  0
ARC
  8
_0-0_計極細
  6
CONTINUOUS
 62
    2
 10
1494.0192581927483
 20
1213.9355297779339
 40
1.0034861863992508
 50
42.394033999974049
 51
149.99999999997448
  0
ARC
  8
_0-0_計極細
  6
CONTINUOUS
 62
    2
 10
1497.3376318584685
 20
1210.6517642745944
 40
0.501740082747087
 50
330.00000000003996
 51
35.887062000032259
  0
ARC
  8
_0-0_計極細
  6
CONTINUOUS
 62
    2
 10
1500.0480205504607
 20
1205.3114562869614
 40
1.0034861863992508
 50
27.517836000010465
 51
150.00000000000043
  0
LINE
  8
_0-0_計極細
  6
CONTINUOUS
 62
    2
 10
1465.5099836516754
 20
1159.4820296227635
 11
1465.5099836516754
 21
1161.3487412728568
  0
LINE
  8
_0-0_計極細
  6
CONTINUOUS
 62
    2
 10
1466.0117297553268
 20
1159.514620174692
 11
1466.0117297553268
 21
1160.4796912412985
  0
LINE
  8
_0-0_計極細
  6
CONTINUOUS
 62
    2
 10
1465.5099836516754
 20
1211.7197728287047
 11
1465.5099836516754
 21
1213.5864870061991
  0
LINE
  8
_0-0_計極細
  6
CONTINUOUS
 62
    2
 10
1466.0117297553268
 20
1212.5888226435072
 11
1466.0117297553268
 21
1213.5538964542707
  0
LINE
  8
_0-0_計極細
  6
CENTER2
 62
    2
 10
638.83230101112053
 20
1186.5342583144811
 11
1553.8610216377526
 21
1186.5342583144811
  0
LINE
  8
_0-1_計細線
  6
CONTINUOUS
 62
    3
 10
648.00376026894605
 20
1258.5342583144816
 11
648.00376026894605
 21
1114.5342583144811
  0
LINE
  8
_0-1_計細線
  6
CONTINUOUS
 62
    3
 10
648.00376026894605
 20
1114.5342583144811
 11
1544.0037602689461
 21
1114.5342583144811
  0
LINE
  8
_0-1_計細線
  6
CONTINUOUS
 62
    3
 10
1544.0037602689461
 20
1114.5342583144811
 11
1544.0037602689461
 21
1258.5342583144816
  0
LINE
  8
_0-1_計細線
  6
CONTINUOUS
 62
    3
 10
1544.0037602689461
 20
1258.5342583144816
 11
648.00376026894605
 21
1258.5342583144816
  0
LINE
  8
_0-1_計細線
  6
CONTINUOUS
 62
    3
 10
659.00376026894605
 20
1247.5342583144816
 11
659.00376026894605
 21
1125.5342583144811
  0
LINE
  8
_0-1_計細線
  6
CONTINUOUS
 62
    3
 10
659.00376026894605
 20
1125.5342583144811
 11
1533.0037602689461
 21
1125.5342583144811
  0
LINE
  8
_0-1_計細線
  6
CONTINUOUS
 62
    3
 10
1533.0037602689461
 20
1125.5342583144811
 11
1533.0037602689461
 21
1247.5342583144816
  0
LINE
  8
_0-1_計細線
  6
CONTINUOUS
 62
    3
 10
1533.0037602689461
 20
1247.5342583144816
 11
659.00376026894605
 21
1247.5342583144816
  0
LINE
  8
_0-5_寸法線
  6
CONTINUOUS
 62
    7
 10
648.00376026894605
 20
1098.5342583144811
 11
648.00376026894605
 21
1026.5342583144811
  0
LINE
  8
_0-5_寸法線
  6
CONTINUOUS
 62
    7
 10
648.00376026894605
 20
1034.5342583144811
 11
663.45857348957111
 21
1038.6753630361216
  0
LINE
  8
_0-5_寸法線
  6
CONTINUOUS
 62
    7
 10
648.00376026894605
 20
1034.5342583144811
 11
663.45857348957111
 21
1030.3931535928407
  0
LINE
  8
_0-5_寸法線
  6
CONTINUOUS
 62
    7
 10
1464.0037602689461
 20
1098.5342583144811
 11
1464.0037602689461
 21
1026.5342583144811
  0
LINE
  8
_0-5_寸法線
  6
CONTINUOUS
 62
    7
 10
1464.0037602689461
 20
1034.5342583144811
 11
1448.548947048321
 21
1030.3931535928409
  0
LINE
  8
_0-5_寸法線
  6
CONTINUOUS
 62
    7
 10
1464.0037602689461
 20
1034.5342583144811
 11
1448.548947048321
 21
1038.6753630361216
  0
LINE
  8
_0-5_寸法線
  6
CONTINUOUS
 62
    7
 10
648.00376026894605
 20
1034.5342583144811
 11
1464.0037602689461
 21
1034.5342583144811
  0
TEXT
  8
_0-5_寸法線
 62
    7
 10
1038.0037602689461
 20
1034.5342583144811
 40
24
 41
1
 50
0
  1
816
  0
LINE
  8
_0-5_寸法線
  6
CONTINUOUS
 62
    7
 10
1464.0037602689461
 20
1034.5342583144811
 11
1479.4585734895711
 21
1038.6753630361213
  0
LINE
  8
_0-5_寸法線
  6
CONTINUOUS
 62
    7
 10
1464.0037602689461
 20
1034.5342583144811
 11
1479.4585734895711
 21
1030.3931535928407
  0
LINE
  8
_0-5_寸法線
  6
CONTINUOUS
 62
    7
 10
1544.0037602689461
 20
1098.5342583144811
 11
1544.0037602689461
 21
1026.5342583144811
  0
LINE
  8
_0-5_寸法線
  6
CONTINUOUS
 62
    7
 10
1544.0037602689461
 20
1034.5342583144811
 11
1528.548947048321
 21
1030.3931535928409
  0
LINE
  8
_0-5_寸法線
  6
CONTINUOUS
 62
    7
 10
1544.0037602689461
 20
1034.5342583144811
 11
1528.548947048321
 21
1038.6753630361216
  0
LINE
  8
_0-5_寸法線
  6
CONTINUOUS
 62
    7
 10
1464.0037602689461
 20
1034.5342583144811
 11
1544.0037602689461
 21
1034.5342583144811
  0
TEXT
  8
_0-5_寸法線
 62
    7
 10
1492.0037602689451
 20
1034.5342583144811
 40
24
 41
1
 50
0
  1
80
  0
LINE
  8
_0-5_寸法線
  6
CONTINUOUS
 62
    7
 10
632.00376026894605
 20
1114.5342583144811
 11
560.00376026894605
 21
1114.5342583144811
  0
LINE
  8
_0-5_寸法線
  6
CONTINUOUS
 62
    7
 10
568.00376026894605
 20
1114.5342583144811
 11
572.14486499058626
 21
1099.0794450938561
  0
LINE
  8
_0-5_寸法線
  6
CONTINUOUS
 62
    7
 10
568.00376026894605
 20
1114.5342583144811
 11
563.86265554730562
 21
1099.0794450938561
  0
LINE
  8
_0-5_寸法線
  6
CONTINUOUS
 62
    7
 10
632.00376026894605
 20
1125.5342583144811
 11
560.00376026894605
 21
1125.5342583144811
  0
LINE
  8
_0-5_寸法線
  6
CONTINUOUS
 62
    7
 10
568.00376026894605
 20
1065.9534918260433
 11
568.00376026894605
 21
1125.5342583144811
  0
TEXT
  8
_0-5_寸法線
 62
    7
 10
568.00376026894605
 20
1065.9534918260433
 40
24
 41
1
 50
90
  1
11
  0
LINE
  8
_0-5_寸法線
  6
CONTINUOUS
 62
    7
 10
568.00376026894605
 20
1125.5342583144811
 11
563.86265554730574
 21
1140.9890715351062
  0
LINE
  8
_0-5_寸法線
  6
CONTINUOUS
 62
    7
 10
568.00376026894605
 20
1125.5342583144811
 11
572.14486499058637
 21
1140.9890715351062
  0
LINE
  8
_0-5_寸法線
  6
CONTINUOUS
 62
    7
 10
632.00376026894605
 20
1247.5342583144816
 11
560.00376026894605
 21
1247.534258314482
  0
LINE
  8
_0-5_寸法線
  6
CONTINUOUS
 62
    7
 10
568.00376026894605
 20
1247.534258314482
 11
572.14486499058626
 21
1232.079445093857
  0
LINE
  8
_0-5_寸法線
  6
CONTINUOUS
 62
    7
 10
568.00376026894605
 20
1247.534258314482
 11
563.86265554730562
 21
1232.079445093857
  0
LINE
  8
_0-5_寸法線
  6
CONTINUOUS
 62
    7
 10
568.00376026894605
 20
1125.5342583144811
 11
568.00376026894605
 21
1247.534258314482
  0
TEXT
  8
_0-5_寸法線
 62
    7
 10
568.00376026894605
 20
1168.5342583144816
 40
24
 41
1
 50
90
  1
122
  0
LINE
  8
_0-5_寸法線
  6
CONTINUOUS
 62
    7
 10
632.00376026894605
 20
1258.5342583144816
 11
560.00376026894605
 21
1258.534258314482
  0
LINE
  8
_0-5_寸法線
  6
CONTINUOUS
 62
    7
 10
568.00376026894605
 20
1258.534258314482
 11
563.86265554730574
 21
1273.9890715351071
  0
LINE
  8
_0-5_寸法線
  6
CONTINUOUS
 62
    7
 10
568.00376026894605
 20
1258.534258314482
 11
572.14486499058637
 21
1273.9890715351071
  0
LINE
  8
_0-5_寸法線
  6
CONTINUOUS
 62
    7
 10
568.00376026894605
 20
1247.534258314482
 11
568.00376026894605
 21
1301.6519148867874
  0
TEXT
  8
_0-5_寸法線
 62
    7
 10
568.00376026894605
 20
1277.6519148867874
 40
24
 41
1
 50
90
  1
11
  0
LINE
  8
_0-5_寸法線
  6
CONTINUOUS
 62
    7
 10
632.00376026894605
 20
1258.5342583144816
 11
504.00376026894605
 21
1258.5342583144816
  0
LINE
  8
_0-5_寸法線
  6
CONTINUOUS
 62
    7
 10
512.00376026894605
 20
1258.5342583144816
 11
516.14486499058626
 21
1243.0794450938565
  0
LINE
  8
_0-5_寸法線
  6
CONTINUOUS
 62
    7
 10
512.00376026894605
 20
1258.5342583144816
 11
507.86265554730562
 21
1243.0794450938565
  0
LINE
  8
_0-5_寸法線
  6
CONTINUOUS
 62
    7
 10
632.00376026894605
 20
1114.5342583144811
 11
504.00376026894605
 21
1114.5342583144811
  0
LINE
  8
_0-5_寸法線
  6
CONTINUOUS
 62
    7
 10
512.00376026894605
 20
1114.5342583144811
 11
507.86265554730562
 21
1129.9890715351062
  0
LINE
  8
_0-5_寸法線
  6
CONTINUOUS
 62
    7
 10
512.00376026894605
 20
1114.5342583144811
 11
516.14486499058637
 21
1129.9890715351062
  0
LINE
  8
_0-5_寸法線
  6
CONTINUOUS
 62
    7
 10
512.00376026894605
 20
1258.5342583144816
 11
512.00376026894605
 21
1114.5342583144811
  0
TEXT
  8
_0-5_寸法線
 62
    7
 10
512.00376026894605
 20
1168.5342583144811
 40
24
 41
1
 50
90
  1
144
  0
LINE
  8
_0-5_寸法線
  6
CONTINUOUS
 62
    7
 10
1531.5037602689461
 20
1274.5342583144816
 11
1531.5037602689461
 21
1346.5342583144816
  0
LINE
  8
_0-5_寸法線
  6
CONTINUOUS
 62
    7
 10
1531.5037602689461
 20
1338.5342583144816
 11
1516.048947048321
 21
1334.3931535928414
  0
LINE
  8
_0-5_寸法線
  6
CONTINUOUS
 62
    7
 10
1531.5037602689461
 20
1338.5342583144816
 11
1516.048947048321
 21
1342.675363036122
  0
LINE
  8
_0-5_寸法線
  6
CONTINUOUS
 62
    7
 10
660.50376026894617
 20
1274.5342583144811
 11
660.50376026894651
 21
1346.5342583144816
  0
LINE
  8
_0-5_寸法線
  6
CONTINUOUS
 62
    7
 10
660.50376026894651
 20
1338.5342583144816
 11
675.95857348957156
 21
1342.675363036122
  0
LINE
  8
_0-5_寸法線
  6
CONTINUOUS
 62
    7
 10
660.50376026894651
 20
1338.5342583144816
 11
675.95857348957156
 21
1334.3931535928411
  0
LINE
  8
_0-5_寸法線
  6
CONTINUOUS
 62
    7
 10
1531.5037602689461
 20
1338.5342583144816
 11
660.50376026894651
 21
1338.5342583144816
  0
TEXT
  8
_0-5_寸法線
 62
    7
 10
1078.0037602689461
 20
1338.5342583144816
 40
24
 41
1
 50
0
  1
871
  0
LINE
  8
_0-5_寸法線
  6
CONTINUOUS
 62
    7
 10
648.00376026894605
 20
1274.5342583144816
 11
648.00376026894651
 21
1402.5342583144816
  0
LINE
  8
_0-5_寸法線
  6
CONTINUOUS
 62
    7
 10
648.00376026894651
 20
1394.5342583144816
 11
632.54894704832145
 21
1390.3931535928414
  0
LINE
  8
_0-5_寸法線
  6
CONTINUOUS
 62
    7
 10
648.00376026894651
 20
1394.5342583144816
 11
632.54894704832145
 21
1398.675363036122
  0
LINE
  8
_0-5_寸法線
  6
CONTINUOUS
 62
    7
 10
659.00376026894605
 20
1274.5342583144811
 11
659.00376026894651
 21
1402.5342583144816
  0
LINE
  8
_0-5_寸法線
  6
CONTINUOUS
 62
    7
 10
601.45197405717431
 20
1394.5342583144816
 11
659.00376026894651
 21
1394.5342583144816
  0
TEXT
  8
_0-5_寸法線
 62
    7
 10
601.45197405717431
 20
1394.5342583144816
 40
24
 41
1
 50
0
  1
11
  0
LINE
  8
_0-5_寸法線
  6
CONTINUOUS
 62
    7
 10
659.00376026894651
 20
1394.5342583144816
 11
674.45857348957168
 21
1398.6753630361218
  0
LINE
  8
_0-5_寸法線
  6
CONTINUOUS
 62
    7
 10
659.00376026894651
 20
1394.5342583144816
 11
674.45857348957156
 21
1390.3931535928411
  0
LINE
  8
_0-5_寸法線
  6
CONTINUOUS
 62
    7
 10
1533.0037602689461
 20
1274.5342583144816
 11
1533.0037602689461
 21
1402.5342583144816
  0
LINE
  8
_0-5_寸法線
  6
CONTINUOUS
 62
    7
 10
1533.0037602689461
 20
1394.5342583144816
 11
1517.548947048321
 21
1390.3931535928414
  0
LINE
  8
_0-5_寸法線
  6
CONTINUOUS
 62
    7
 10
1533.0037602689461
 20
1394.5342583144816
 11
1517.548947048321
 21
1398.675363036122
  0
LINE
  8
_0-5_寸法線
  6
CONTINUOUS
 62
    7
 10
659.00376026894651
 20
1394.5342583144816
 11
1533.0037602689461
 21
1394.5342583144816
  0
TEXT
  8
_0-5_寸法線
 62
    7
 10
1078.0037602689461
 20
1394.5342583144816
 40
24
 41
1
 50
0
  1
874
  0
LINE
  8
_0-5_寸法線
  6
CONTINUOUS
 62
    7
 10
1544.0037602689461
 20
1274.5342583144816
 11
1544.0037602689461
 21
1402.5342583144816
  0
LINE
  8
_0-5_寸法線
  6
CONTINUOUS
 62
    7
 10
1544.0037602689461
 20
1394.5342583144816
 11
1559.4585734895711
 21
1398.6753630361218
  0
LINE
  8
_0-5_寸法線
  6
CONTINUOUS
 62
    7
 10
1544.0037602689461
 20
1394.5342583144816
 11
1559.4585734895711
 21
1390.3931535928411
  0
LINE
  8
_0-5_寸法線
  6
CONTINUOUS
 62
    7
 10
1533.0037602689461
 20
1394.5342583144816
 11
1587.2807477584151
 21
1394.5342583144816
  0
TEXT
  8
_0-5_寸法線
 62
    7
 10
1563.2807477584154
 20
1394.5342583144816
 40
24
 41
1
 50
0
  1
11
  0
LINE
  8
_0-5_寸法線
  6
CONTINUOUS
 62
    7
 10
648.00376026894605
 20
1274.5342583144816
 11
648.00376026894605
 21
1458.5342583144816
  0
LINE
  8
_0-5_寸法線
  6
CONTINUOUS
 62
    7
 10
648.00376026894605
 20
1450.5342583144816
 11
663.45857348957111
 21
1454.675363036122
  0
LINE
  8
_0-5_寸法線
  6
CONTINUOUS
 62
    7
 10
648.00376026894605
 20
1450.5342583144816
 11
663.45857348957111
 21
1446.3931535928411
  0
LINE
  8
_0-5_寸法線
  6
CONTINUOUS
 62
    7
 10
1544.0037602689461
 20
1274.5342583144816
 11
1544.0037602689461
 21
1458.5342583144816
  0
LINE
  8
_0-5_寸法線
  6
CONTINUOUS
 62
    7
 10
1544.0037602689461
 20
1450.5342583144816
 11
1528.548947048321
 21
1446.3931535928414
  0
LINE
  8
_0-5_寸法線
  6
CONTINUOUS
 62
    7
 10
1544.0037602689461
 20
1450.5342583144816
 11
1528.548947048321
 21
1454.675363036122
  0
LINE
  8
_0-5_寸法線
  6
CONTINUOUS
 62
    7
 10
648.00376026894605
 20
1450.5342583144816
 11
1544.0037602689461
 21
1450.5342583144816
  0
TEXT
  8
_0-5_寸法線
 62
    7
 10
1078.0037602689461
 20
1450.5342583144816
 40
24
 41
1
 50
0
  1
896
  0
LINE
  8
_0-1_計細線
  6
CONTINUOUS
 62
    3
 10
1688.0037602689461
 20
1124.5342583144811
 11
1723.0037602689461
 21
1124.5342583144811
  0
LINE
  8
_0-1_計細線
  6
CONTINUOUS
 62
    3
 10
1723.0037602689461
 20
1124.5342583144811
 11
1723.0037602689461
 21
1123.3342583144822
  0
LINE
  8
_0-1_計細線
  6
CONTINUOUS
 62
    3
 10
1723.0037602689461
 20
1123.3342583144822
 11
1688.0037602689461
 21
1123.3342583144822
  0
LINE
  8
_0-1_計細線
  6
CONTINUOUS
 62
    3
 10
1688.0037602689461
 20
1123.3342583144822
 11
1688.0037602689461
 21
1124.5342583144811
  0
LINE
  8
_0-1_計細線
  6
CONTINUOUS
 62
    3
 10
1690.0037602689461
 20
1123.3342583144822
 11
1690.0037602689461
 21
1124.5342583144811
  0
LINE
  8
_0-1_計細線
  6
CONTINUOUS
 62
    3
 10
1700.0037602689461
 20
1123.3342583144822
 11
1700.0037602689461
 21
1124.5342583144811
  0
LINE
  8
_0-1_計細線
  6
CONTINUOUS
 62
    3
 10
1702.0037602689461
 20
1123.3342583144822
 11
1702.0037602689461
 21
1124.5342583144811
  0
LINE
  8
_0-1_計細線
  6
CONTINUOUS
 62
    3
 10
1704.0037602689461
 20
1123.3342583144822
 11
1704.0037602689461
 21
1124.5342583144811
  0
LINE
  8
_0-1_計細線
  6
CONTINUOUS
 62
    3
 10
1706.0037602689461
 20
1123.3342583144822
 11
1706.0037602689461
 21
1124.5342583144811
  0
LINE
  8
_0-1_計細線
  6
CONTINUOUS
 62
    3
 10
1720.0037602689461
 20
1123.3342583144822
 11
1720.0037602689461
 21
1124.5342583144811
  0
ARC
  8
_0-1_計細線
  6
CONTINUOUS
 62
    3
 10
1699.0037602689461
 20
1247.5342583144811
 40
1
 50
0
 51
89.999999999999915
  0
LINE
  8
_0-1_計細線
  6
CONTINUOUS
 62
    3
 10
1688.0037602689461
 20
1249.7342583144809
 11
1723.0037602689461
 21
1249.7342583144809
  0
LINE
  8
_0-1_計細線
  6
CONTINUOUS
 62
    3
 10
1723.0037602689461
 20
1249.7342583144809
 11
1723.0037602689461
 21
1248.5342583144811
  0
LINE
  8
_0-1_計細線
  6
CONTINUOUS
 62
    3
 10
1723.0037602689461
 20
1248.5342583144811
 11
1688.0037602689461
 21
1248.5342583144811
  0
LINE
  8
_0-1_計細線
  6
CONTINUOUS
 62
    3
 10
1688.0037602689461
 20
1248.5342583144811
 11
1688.0037602689461
 21
1249.7342583144809
  0
LINE
  8
_0-1_計細線
  6
CONTINUOUS
 62
    3
 10
1690.0037602689461
 20
1248.5342583144811
 11
1690.0037602689461
 21
1249.7342583144809
  0
LINE
  8
_0-1_計細線
  6
CONTINUOUS
 62
    3
 10
1700.0037602689461
 20
1248.5342583144811
 11
1700.0037602689461
 21
1249.7342583144809
  0
LINE
  8
_0-1_計細線
  6
CONTINUOUS
 62
    3
 10
1702.0037602689461
 20
1248.5342583144811
 11
1702.0037602689461
 21
1249.7342583144809
  0
LINE
  8
_0-1_計細線
  6
CONTINUOUS
 62
    3
 10
1704.0037602689461
 20
1248.5342583144811
 11
1704.0037602689461
 21
1249.7342583144809
  0
LINE
  8
_0-1_計細線
  6
CONTINUOUS
 62
    3
 10
1706.0037602689461
 20
1248.5342583144811
 11
1706.0037602689461
 21
1249.7342583144809
  0
LINE
  8
_0-1_計細線
  6
CONTINUOUS
 62
    3
 10
1720.0037602689461
 20
1248.5342583144811
 11
1720.0037602689461
 21
1249.7342583144809
  0
LINE
  8
_0-1_計細線
  6
CONTINUOUS
 62
    3
 10
1688.0037602689461
 20
1258.5342583144811
 11
1681.0037602689461
 21
1258.5342583144811
  0
ARC
  8
_0-1_計細線
  6
CONTINUOUS
 62
    3
 10
1681.0037602689461
 20
1257.5342583144811
 40
1
 50
89.999999999999915
 51
179.99999999999983
  0
LINE
  8
_0-1_計細線
  6
CONTINUOUS
 62
    3
 10
1680.0037602689461
 20
1257.5342583144811
 11
1680.0037602689461
 21
1115.5342583144811
  0
ARC
  8
_0-1_計細線
  6
CONTINUOUS
 62
    3
 10
1681.0037602689461
 20
1115.5342583144811
 40
1
 50
179.99999999999983
 51
269.99999999994753
  0
LINE
  8
_0-1_計細線
  6
CONTINUOUS
 62
    3
 10
1688.0037602689461
 20
1114.5342583144811
 11
1688.0037602689461
 21
1258.5342583144811
  0
LINE
  8
_0-1_計細線
  6
CONTINUOUS
 62
    3
 10
1688.0037602689461
 20
1114.5342583144811
 11
1681.0037602689451
 21
1114.5342583144811
  0
LINE
  8
_0-0_計極細
  6
CENTER2
 62
    2
 10
1640.7614538832083
 20
1186.5342583144811
 11
1755.9844754659405
 21
1186.5342583144811
  0
LINE
  8
_0-1_計細線
  6
CONTINUOUS
 62
    3
 10
1700.0037602689461
 20
1247.5342583144811
 11
1700.0037602689461
 21
1125.5342583144811
  0
ARC
  8
_0-1_計細線
  6
CONTINUOUS
 62
    3
 10
1699.0037602689461
 20
1125.5342583144811
 40
1
 50
269.99999999999977
 51
359.99999999999966
  0
ARC
  8
_0-1_計細線
  6
CONTINUOUS
 62
    3
 10
1702.503760268947
 20
1243.5342583144811
 40
1.5
 50
0
 51
89.999999999999915
  0
LINE
  8
_0-1_計細線
  6
CONTINUOUS
 62
    3
 10
1700.503760268947
 20
1245.0342583144811
 11
1702.503760268947
 21
1245.0342583144811
  0
ARC
  8
_0-1_計細線
  6
CONTINUOUS
 62
    3
 10
1700.503760268947
 20
1245.5342583144811
 40
0.5
 50
179.99999999999983
 51
269.99999999999977
  0
LINE
  8
_0-1_計細線
  6
CONTINUOUS
 62
    3
 10
1700.503760268947
 20
1128.0342583144811
 11
1702.503760268947
 21
1128.0342583144811
  0
ARC
  8
_0-1_計細線
  6
CONTINUOUS
 62
    3
 10
1700.503760268947
 20
1127.5342583144811
 40
0.5
 50
89.999999999999915
 51
179.99999999999983
  0
LINE
  8
_0-1_計細線
  6
CONTINUOUS
 62
    3
 10
1704.003760268947
 20
1243.5342583144811
 11
1704.003760268947
 21
1129.5342583144811
  0
ARC
  8
_0-1_計細線
  6
CONTINUOUS
 62
    3
 10
1702.503760268947
 20
1129.5342583144811
 40
1.5
 50
269.99999999999977
 51
359.99999999999966
  0
LINE
  8
_0-5_寸法線
  6
CONTINUOUS
 62
    7
 10
1680.0037602689461
 20
1274.5342583144811
 11
1680.0037602689461
 21
1346.5342583144816
  0
LINE
  8
_0-5_寸法線
  6
CONTINUOUS
 62
    7
 10
1680.0037602689461
 20
1338.5342583144816
 11
1664.548947048321
 21
1334.3931535928414
  0
LINE
  8
_0-5_寸法線
  6
CONTINUOUS
 62
    7
 10
1680.0037602689461
 20
1338.5342583144816
 11
1664.548947048321
 21
1342.675363036122
  0
LINE
  8
_0-5_寸法線
  6
CONTINUOUS
 62
    7
 10
1700.0037602689461
 20
1265.7342583144809
 11
1700.0037602689461
 21
1346.5342583144816
  0
CIRCLE
  8
_0-5_寸法線
  6
CONTINUOUS
 62
    1
 10
1700.0037602689461
 20
1338.5342583144816
 40
2.4000000000000004
  0
LINE
  8
_0-5_寸法線
  6
CONTINUOUS
 62
    7
 10
1637.0421667177484
 20
1338.5342583144816
 11
1700.0037602689461
 21
1338.5342583144816
  0
TEXT
  8
_0-5_寸法線
 62
    7
 10
1637.0421667177486
 20
1338.5342583144816
 40
24
 41
1
 50
0
  1
20
  0
LINE
  8
_0-5_寸法線
  6
CONTINUOUS
 62
    7
 10
1723.0037602689461
 20
1265.7342583144809
 11
1723.0037602689461
 21
1346.5342583144816
  0
LINE
  8
_0-5_寸法線
  6
CONTINUOUS
 62
    7
 10
1723.0037602689461
 20
1338.5342583144816
 11
1738.4585734895711
 21
1342.6753630361218
  0
LINE
  8
_0-5_寸法線
  6
CONTINUOUS
 62
    7
 10
1723.0037602689461
 20
1338.5342583144816
 11
1738.4585734895711
 21
1334.3931535928411
  0
LINE
  8
_0-5_寸法線
  6
CONTINUOUS
 62
    7
 10
1700.0037602689461
 20
1338.5342583144816
 11
1769.344950711034
 21
1338.5342583144816
  0
TEXT
  8
_0-5_寸法線
 62
    7
 10
1745.3449507110342
 20
1338.5342583144816
 40
24
 41
1
 50
0
  1
23
  0
LINE
  8
_0-5_寸法線
  6
CONTINUOUS
 62
    7
 10
1680.0037602689463
 20
1274.534258314482
 11
1680.0037602689479
 21
1402.5342583144816
  0
LINE
  8
_0-5_寸法線
  6
CONTINUOUS
 62
    7
 10
1680.0037602689479
 20
1394.5342583144816
 11
1695.4585734895729
 21
1398.675363036122
  0
LINE
  8
_0-5_寸法線
  6
CONTINUOUS
 62
    7
 10
1680.0037602689479
 20
1394.5342583144816
 11
1695.4585734895729
 21
1390.3931535928411
  0
LINE
  8
_0-5_寸法線
  6
CONTINUOUS
 62
    7
 10
1723.0037602689461
 20
1265.7342583144809
 11
1723.0037602689461
 21
1402.5342583144816
  0
LINE
  8
_0-5_寸法線
  6
CONTINUOUS
 62
    7
 10
1723.0037602689461
 20
1394.5342583144816
 11
1707.548947048321
 21
1390.3931535928414
  0
LINE
  8
_0-5_寸法線
  6
CONTINUOUS
 62
    7
 10
1723.0037602689461
 20
1394.5342583144816
 11
1707.548947048321
 21
1398.675363036122
  0
LINE
  8
_0-5_寸法線
  6
CONTINUOUS
 62
    7
 10
1680.0037602689479
 20
1394.5342583144816
 11
1723.0037602689461
 21
1394.5342583144816
  0
TEXT
  8
_0-5_寸法線
 62
    7
 10
1689.5037602689461
 20
1394.5342583144816
 40
24
 41
1
 50
0
  1
43
  0
ARC
  8
_0-1_計細線
  6
CONTINUOUS
 62
    3
 10
1543.0037602689461
 20
873.53425831448112
 40
1
 50
0
 51
89.999999999999915
  0
LINE
  8
_0-1_計細線
  6
CONTINUOUS
 62
    3
 10
1544.0037602689461
 20
866.53425831448112
 11
1544.0037602689461
 21
873.53425831448112
  0
LINE
  8
_0-1_計細線
  6
CONTINUOUS
 62
    3
 10
1543.003760268947
 20
866.53425831448112
 11
1544.0037602689461
 21
866.53425831448112
  0
ARC
  8
_0-1_計細線
  6
CONTINUOUS
 62
    3
 10
1523.0037602689461
 20
854.03425831448021
 40
1.5
 50
89.999999999999915
 51
179.99999999999983
  0
LINE
  8
_0-1_計細線
  6
CONTINUOUS
 62
    3
 10
1521.5037602689461
 20
854.03425831448021
 11
1521.5037602689461
 21
852.03425831448021
  0
ARC
  8
_0-1_計細線
  6
CONTINUOUS
 62
    3
 10
1521.0037602689461
 20
852.03425831448021
 40
1.5
 50
269.99999999999977
 51
359.99999999999966
  0
LINE
  8
_0-1_計細線
  6
CONTINUOUS
 62
    3
 10
1522.5037602689461
 20
854.03425831448021
 11
1522.5037602689461
 21
852.03425831448021
  0
LINE
  8
_0-1_計細線
  6
CONTINUOUS
 62
    3
 10
1521.0037602689461
 20
850.53425831448021
 11
1515.0037602689461
 21
850.53425831448021
  0
ARC
  8
_0-1_計細線
  6
CONTINUOUS
 62
    3
 10
1523.0037602689461
 20
854.03425831448021
 40
0.5
 50
89.999999999999915
 51
179.99999999999983
  0
ARC
  8
_0-1_計細線
  6
CONTINUOUS
 62
    3
 10
1521.0037602689461
 20
852.03425831448021
 40
0.5
 50
269.99999999999977
 51
359.99999999999966
  0
LINE
  8
_0-1_計細線
  6
CONTINUOUS
 62
    3
 10
1521.0037602689461
 20
851.53425831448021
 11
1515.0037602689461
 21
851.53425831448021
  0
LINE
  8
_0-1_計細線
  6
CONTINUOUS
 62
    3
 10
1515.0037602689461
 20
851.53425831448021
 11
1515.0037602689461
 21
850.53425831448021
  0
LINE
  8
_0-1_計細線
  6
CONTINUOUS
 62
    3
 10
1533.0037602689461
 20
855.53425831448021
 11
1523.0037602689461
 21
855.53425831448021
  0
LINE
  8
_0-1_計細線
  6
CONTINUOUS
 62
    3
 10
1533.0037602689461
 20
873.53425831448112
 11
1533.0037602689461
 21
855.53425831448021
  0
ARC
  8
_0-1_計細線
  6
CONTINUOUS
 62
    3
 10
649.00376026894605
 20
873.53425831448112
 40
1
 50
89.999999999999915
 51
179.99999999999983
  0
LINE
  8
_0-1_計細線
  6
CONTINUOUS
 62
    3
 10
648.00376026894605
 20
866.53425831448112
 11
648.00376026894605
 21
873.53425831448112
  0
LINE
  8
_0-1_計細線
  6
CONTINUOUS
 62
    3
 10
648.00376026894605
 20
866.53425831448294
 11
1464.0037602689461
 21
866.53425831448294
  0
LINE
  8
_0-1_計細線
  6
CONTINUOUS
 62
    3
 10
659.00376026894605
 20
855.53425831448112
 11
659.00376026894605
 21
866.53425831448294
  0
ARC
  8
_0-1_計細線
  6
CONTINUOUS
 62
    3
 10
660.00376026894605
 20
855.53425831448112
 40
1
 50
179.99999999999983
 51
269.99999999999977
  0
LINE
  8
_0-1_計細線
  6
CONTINUOUS
 62
    3
 10
1523.0037602689461
 20
854.53425831448112
 11
1533.0037602689461
 21
854.53425831448112
  0
LINE
  8
_0-1_計細線
  6
CONTINUOUS
 62
    3
 10
1534.0037602689461
 20
866.53425831448112
 11
1543.003760268947
 21
866.53425831448112
  0
LINE
  8
_0-1_計細線
  6
CONTINUOUS
 62
    3
 10
1543.003760268947
 20
866.53425831448112
 11
1543.003760268947
 21
873.53425831448112
  0
LINE
  8
_0-1_計細線
  6
CONTINUOUS
 62
    3
 10
1543.003760268947
 20
873.53425831448112
 11
1534.0037602689461
 21
873.53425831448112
  0
LINE
  8
_0-1_計細線
  6
CONTINUOUS
 62
    3
 10
1534.0037602689461
 20
873.53425831448112
 11
1534.0037602689461
 21
855.53425831448112
  0
ARC
  8
_0-1_計細線
  6
CONTINUOUS
 62
    3
 10
1533.0037602689461
 20
855.53425831448112
 40
1
 50
269.99999999999977
 51
359.99999999999966
  0
LINE
  8
_0-1_計細線
  6
CONTINUOUS
 62
    3
 10
1543.0037602689461
 20
874.53425831448112
 11
1534.0037602689461
 21
874.53425831448112
  0
LINE
  8
_0-1_計細線
  6
CONTINUOUS
 62
    3
 10
1534.0037602689461
 20
874.53425831448112
 11
649.00376026894787
 21
874.53425831448112
  0
ARC
  8
_0-1_計細線
  6
CONTINUOUS
 62
    3
 10
1534.0037602689461
 20
873.53425831448112
 40
1
 50
89.999999999999915
 51
179.99999999999983
  0
LINE
  8
_0-0_計極細
  6
CENTER1
 62
    2
 10
683.0037602689456
 20
826.73877774131233
 11
683.0037602689456
 21
871.79247781884987
  0
LINE
  8
_0-1_計細線
  6
CONTINUOUS
 62
    3
 10
677.00376042202629
 20
866.52165946705099
 11
675.00376042202629
 21
864.52165946705099
  0
LINE
  8
_0-1_計細線
  6
CONTINUOUS
 62
    3
 10
675.00376042202629
 20
854.52165946705099
 11
675.00376042202629
 21
864.52165946705099
  0
LINE
  8
_0-1_計細線
  6
CONTINUOUS
 62
    3
 10
691.00376011586491
 20
854.52165946705099
 11
691.00376011586491
 21
864.52165946705099
  0
LINE
  8
_0-1_計細線
  6
CONTINUOUS
 62
    3
 10
677.00376042202629
 20
850.52165946705099
 11
675.00376042202629
 21
848.52165946705099
  0
LINE
  8
_0-1_計細線
  6
CONTINUOUS
 62
    3
 10
677.00376042202629
 20
852.52165946705099
 11
677.00376042202629
 21
850.52165946705099
  0
LINE
  8
_0-1_計細線
  6
CONTINUOUS
 62
    3
 10
675.00376042202629
 20
854.52165946705099
 11
677.00376042202629
 21
852.52165946705099
  0
LINE
  8
_0-1_計細線
  6
CONTINUOUS
 62
    3
 10
689.00376011586491
 20
850.52165946705099
 11
691.00376011586491
 21
848.52165946705099
  0
LINE
  8
_0-1_計細線
  6
CONTINUOUS
 62
    3
 10
689.00376011586491
 20
852.52165946705099
 11
689.00376011586491
 21
850.52165946705099
  0
LINE
  8
_0-1_計細線
  6
CONTINUOUS
 62
    3
 10
691.00376011586491
 20
854.52165946705099
 11
689.00376011586491
 21
852.52165946705099
  0
LINE
  8
_0-1_計細線
  6
CONTINUOUS
 62
    3
 10
675.00376042202629
 20
848.52165946705099
 11
675.00376042202629
 21
834.52165946705099
  0
ARC
  8
_0-1_計細線
  6
CONTINUOUS
 62
    3
 10
678.00376042202629
 20
834.52165946705099
 40
3
 50
179.99999999999983
 51
269.99999999999977
  0
LINE
  8
_0-1_計細線
  6
CONTINUOUS
 62
    3
 10
678.00376042202629
 20
831.52165946705099
 11
688.00376011586491
 21
831.52165946705099
  0
LINE
  8
_0-1_計細線
  6
CONTINUOUS
 62
    3
 10
691.00376011586491
 20
848.52165946705099
 11
691.00376011586491
 21
834.52165946705099
  0
ARC
  8
_0-1_計細線
  6
CONTINUOUS
 62
    3
 10
688.00376011586491
 20
834.52165946705099
 40
3
 50
269.99999999999977
 51
359.99999999999966
  0
LINE
  8
_0-1_計細線
  6
CONTINUOUS
 62
    3
 10
677.00376042202629
 20
866.52165946705099
 11
689.00376011586491
 21
866.52165946705099
  0
LINE
  8
_0-1_計細線
  6
CONTINUOUS
 62
    3
 10
691.00376011586491
 20
864.52165946705099
 11
689.00376011586491
 21
866.52165946705099
  0
LINE
  8
_0-1_計細線
  6
CONTINUOUS
 62
    3
 10
660.00376026894605
 20
854.53425831448112
 11
675.00376042202629
 21
854.53425831448112
  0
LINE
  8
_0-1_計細線
  6
CONTINUOUS
 62
    3
 10
1104.0037601158654
 20
854.53425831448112
 11
1464.0037602689461
 21
854.53425831448112
  0
LINE
  8
_0-1_計細線
  6
CONTINUOUS
 62
    3
 10
691.00376011586491
 20
854.53425831448112
 11
1088.0037604220267
 21
854.53425831448112
  0
LINE
  8
_0-0_計極細
  6
DASHED2
 62
    2
 10
1509.0037602689461
 20
826.73877774131233
 11
1509.0037602689461
 21
871.79247781884987
  0
LINE
  8
_0-1_計細線
  6
DASHED2
 62
    3
 10
1517.0037601158654
 20
864.52165946705099
 11
1515.0037601158654
 21
866.52165946705099
  0
LINE
  8
_0-1_計細線
  6
DASHED2
 62
    3
 10
1503.0037604220267
 20
866.52165946705099
 11
1515.0037601158654
 21
866.52165946705099
  0
ARC
  8
_0-1_計細線
  6
DASHED2
 62
    3
 10
1514.0037601158654
 20
834.52165946705099
 40
3
 50
269.99999999999977
 51
359.99999999999966
  0
LINE
  8
_0-1_計細線
  6
DASHED2
 62
    3
 10
1517.0037601158654
 20
848.52165946705099
 11
1517.0037601158654
 21
834.52165946705099
  0
LINE
  8
_0-1_計細線
  6
DASHED2
 62
    3
 10
1504.0037604220267
 20
831.52165946705099
 11
1514.0037601158654
 21
831.52165946705099
  0
ARC
  8
_0-1_計細線
  6
DASHED2
 62
    3
 10
1504.0037604220267
 20
834.52165946705099
 40
3
 50
179.99999999999983
 51
269.99999999999977
  0
LINE
  8
_0-1_計細線
  6
DASHED2
 62
    3
 10
1501.0037604220267
 20
848.52165946705099
 11
1501.0037604220267
 21
834.52165946705099
  0
LINE
  8
_0-1_計細線
  6
DASHED2
 62
    3
 10
1517.0037601158654
 20
854.52165946705099
 11
1515.0037601158654
 21
852.52165946705099
  0
LINE
  8
_0-1_計細線
  6
DASHED2
 62
    3
 10
1515.0037601158654
 20
852.52165946705099
 11
1515.0037601158654
 21
850.52165946705099
  0
LINE
  8
_0-1_計細線
  6
DASHED2
 62
    3
 10
1515.0037601158654
 20
850.52165946705099
 11
1517.0037601158654
 21
848.52165946705099
  0
LINE
  8
_0-1_計細線
  6
DASHED2
 62
    3
 10
1501.0037604220267
 20
854.52165946705099
 11
1503.0037604220267
 21
852.52165946705099
  0
LINE
  8
_0-1_計細線
  6
DASHED2
 62
    3
 10
1503.0037604220267
 20
852.52165946705099
 11
1503.0037604220267
 21
850.52165946705099
  0
LINE
  8
_0-1_計細線
  6
DASHED2
 62
    3
 10
1503.0037604220267
 20
850.52165946705099
 11
1501.0037604220267
 21
848.52165946705099
  0
LINE
  8
_0-1_計細線
  6
DASHED2
 62
    3
 10
1517.0037601158654
 20
854.52165946705099
 11
1517.0037601158654
 21
864.52165946705099
  0
LINE
  8
_0-1_計細線
  6
DASHED2
 62
    3
 10
1501.0037604220267
 20
854.52165946705099
 11
1501.0037604220267
 21
864.52165946705099
  0
LINE
  8
_0-1_計細線
  6
DASHED2
 62
    3
 10
1503.0037604220267
 20
866.52165946705099
 11
1501.0037604220267
 21
864.52165946705099
  0
LINE
  8
_0-5_寸法線
  6
CONTINUOUS
 62
    7
 10
648.00376026894639
 20
890.53425831448112
 11
648.0037602689481
 21
962.53425831448112
  0
LINE
  8
_0-5_寸法線
  6
CONTINUOUS
 62
    7
 10
648.00376026894787
 20
954.53425831448112
 11
663.45857348957293
 21
958.67536303612144
  0
LINE
  8
_0-5_寸法線
  6
CONTINUOUS
 62
    7
 10
648.00376026894787
 20
954.53425831448112
 11
663.45857348957293
 21
950.3931535928408
  0
LINE
  8
_0-5_寸法線
  6
CONTINUOUS
 62
    7
 10
683.00376026894594
 20
890.53425831448112
 11
683.00376026894764
 21
962.53425831448112
  0
LINE
  8
_0-5_寸法線
  6
CONTINUOUS
 62
    7
 10
683.00376026894742
 20
954.53425831448112
 11
667.54894704832236
 21
950.3931535928408
  0
LINE
  8
_0-5_寸法線
  6
CONTINUOUS
 62
    7
 10
683.00376026894742
 20
954.53425831448112
 11
667.54894704832236
 21
958.67536303612155
  0
LINE
  8
_0-5_寸法線
  6
CONTINUOUS
 62
    7
 10
648.00376026894787
 20
954.53425831448112
 11
683.00376026894742
 21
954.53425831448112
  0
TEXT
  8
_0-5_寸法線
 62
    7
 10
653.50376026894901
 20
954.53425831448112
 40
24
 41
1
 50
0
  1
35
  0
LINE
  8
_0-5_寸法線
  6
CONTINUOUS
 62
    7
 10
683.00376026894742
 20
954.53425831448112
 11
698.45857348957259
 21
958.67536303612133
  0
LINE
  8
_0-5_寸法線
  6
CONTINUOUS
 62
    7
 10
683.00376026894742
 20
954.53425831448112
 11
698.45857348957247
 21
950.39315359284069
  0
LINE
  8
_0-5_寸法線
  6
CONTINUOUS
 62
    7
 10
1509.0037602689465
 20
890.53425831448112
 11
1509.0037602689481
 21
962.53425831448112
  0
LINE
  8
_0-5_寸法線
  6
CONTINUOUS
 62
    7
 10
1509.0037602689479
 20
954.53425831448112
 11
1493.5489470483228
 21
950.3931535928408
  0
LINE
  8
_0-5_寸法線
  6
CONTINUOUS
 62
    7
 10
1509.0037602689479
 20
954.53425831448112
 11
1493.5489470483228
 21
958.67536303612155
  0
LINE
  8
_0-5_寸法線
  6
CONTINUOUS
 62
    7
 10
683.00376026894742
 20
954.53425831448112
 11
1509.0037602689479
 21
954.53425831448112
  0
TEXT
  8
_0-5_寸法線
 62
    7
 10
1042.0037602689499
 20
954.53425831448112
 40
24
 41
1
 50
0
  1
2@413=826
  0
LINE
  8
_0-5_寸法線
  6
CONTINUOUS
 62
    7
 10
1509.0037602689479
 20
954.53425831448112
 11
1524.4585734895729
 21
958.67536303612133
  0
LINE
  8
_0-5_寸法線
  6
CONTINUOUS
 62
    7
 10
1509.0037602689479
 20
954.53425831448112
 11
1524.4585734895729
 21
950.39315359284069
  0
LINE
  8
_0-5_寸法線
  6
CONTINUOUS
 62
    7
 10
1544.0037602689465
 20
890.53425831448112
 11
1544.0037602689481
 21
962.53425831448112
  0
LINE
  8
_0-5_寸法線
  6
CONTINUOUS
 62
    7
 10
1544.0037602689479
 20
954.53425831448112
 11
1528.5489470483228
 21
950.3931535928408
  0
LINE
  8
_0-5_寸法線
  6
CONTINUOUS
 62
    7
 10
1544.0037602689479
 20
954.53425831448112
 11
1528.5489470483228
 21
958.67536303612155
  0
LINE
  8
_0-5_寸法線
  6
CONTINUOUS
 62
    7
 10
1509.0037602689479
 20
954.53425831448112
 11
1544.0037602689479
 21
954.53425831448112
  0
TEXT
  8
_0-5_寸法線
 62
    7
 10
1514.503760268949
 20
954.53425831448112
 40
24
 41
1
 50
0
  1
35
  0
LINE
  8
_0-5_寸法線
  6
CONTINUOUS
 62
    7
 10
683.0037602689456
 20
831.52165946705099
 11
691.00376021787383
 21
817.66525297701367
  0
LINE
  8
_0-5_寸法線
  6
CONTINUOUS
 62
    7
 10
683.0037602689456
 20
831.52165946705099
 11
683.00376020997294
 21
815.52165946705099
  0
LINE
  8
_0-5_寸法線
  6
CONTINUOUS
 62
    7
 10
683.0037602689456
 20
831.52165946705099
 11
694.6521178483963
 21
788.04939651489258
  0
LINE
  8
_0-5_寸法線
  6
CONTINUOUS
 62
    7
 10
694.6521178483963
 20
788.04939651489258
 11
771.45211784839626
 21
788.04939651489258
  0
TEXT
  8
_0-5_寸法線
 62
    7
 10
694.6521178483963
 20
788.04939651489258
 40
24
 41
0.8000000000000001
 50
0
  1
アンカー
  0
TEXT
  8
_0-7_枠細線
 62
    5
 10
1536.8
 20
239.24855752183862
 40
32
 41
0.6
 50
0
  1
排水ユニット ＳＵＳグレーチング 浅型
  0
LINE
  8
_0-0_計極細
  6
CENTER2
 62
    2
 10
1464.0037602689461
 20
1278.9690800122003
 11
1464.0037602689461
 21
694.67154038991475
  0
CIRCLE
  8
_0-5_寸法線
  6
CONTINUOUS
 62
    7
 10
679.50982005453648
 20
1178.7842597545205
 40
35.999998559961114
  0
LINE
  8
_0-0_計極細
  6
CONTINUOUS
 62
    2
 10
707.5037583888959
 20
1168.284260174531
 11
707.5037583888959
 21
1173.7842599545256
  0
LINE
  8
_0-0_計極細
  6
CONTINUOUS
 62
    2
 10
707.5037583888959
 20
1189.2842593345099
 11
707.5037583888959
 21
1183.7842595545153
  0
LINE
  8
_0-0_計極細
  6
CONTINUOUS
 62
    2
 10
696.55376099423324
 20
1189.2842583144834
 11
696.55376099423324
 21
1187.6842593985202
  0
LINE
  8
_0-0_計極細
  6
CONTINUOUS
 62
    2
 10
696.55376099423324
 20
1186.6842594385198
 11
696.55376099423324
 21
1183.7842583144834
  0
LINE
  8
_0-0_計極細
  6
CONTINUOUS
 62
    2
 10
703.45376099435566
 20
1189.2842583144834
 11
703.45376099435566
 21
1187.6842593985202
  0
LINE
  8
_0-0_計極細
  6
CONTINUOUS
 62
    2
 10
703.45376099435566
 20
1186.6842594385198
 11
703.45376099435566
 21
1183.7842583144834
  0
LINE
  8
_0-0_計極細
  6
CONTINUOUS
 62
    2
 10
696.55376099423324
 20
1168.2842583144834
 11
696.55376099423324
 21
1169.8842601105207
  0
LINE
  8
_0-0_計極細
  6
CONTINUOUS
 62
    2
 10
696.55376099423324
 20
1170.8842600705207
 11
696.55376099423324
 21
1173.7842583144834
  0
LINE
  8
_0-0_計極細
  6
CONTINUOUS
 62
    2
 10
703.45376099435566
 20
1168.2842583144834
 11
703.45376099435566
 21
1169.8842601105207
  0
LINE
  8
_0-0_計極細
  6
CONTINUOUS
 62
    2
 10
703.45376099435566
 20
1170.8842600705207
 11
703.45376099435566
 21
1173.7842583144834
  0
LINE
  8
_0-0_計極細
  6
CONTINUOUS
 62
    2
 10
664.00376014890367
 20
1168.8842601505203
 11
673.00375978890474
 21
1168.8842601505203
  0
LINE
  8
_0-0_計極細
  6
CONTINUOUS
 62
    2
 10
664.00376014890367
 20
1168.8842601505203
 11
664.00376014890367
 21
1169.8842601105207
  0
LINE
  8
_0-0_計極細
  6
CONTINUOUS
 62
    2
 10
673.00375978890474
 20
1168.8842601505203
 11
673.00375978890474
 21
1169.8842601105207
  0
LINE
  8
_0-0_計極細
  6
CONTINUOUS
 62
    2
 10
664.00376014890367
 20
1188.6842593585202
 11
673.00375978890474
 21
1188.6842593585202
  0
LINE
  8
_0-0_計極細
  6
CONTINUOUS
 62
    2
 10
664.00376014890367
 20
1188.6842593585202
 11
664.00376014890367
 21
1187.6842593985202
  0
LINE
  8
_0-0_計極細
  6
CONTINUOUS
 62
    2
 10
673.00375978890474
 20
1188.6842593585202
 11
673.00375978890474
 21
1187.6842593985202
  0
LINE
  8
_0-1_計細線
  6
CONTINUOUS
 62
    3
 10
705.00375850890418
 20
1186.6842594385198
 11
705.00375850890418
 21
1187.6842593985202
  0
LINE
  8
_0-1_計細線
  6
CONTINUOUS
 62
    3
 10
692.20375902090495
 20
1186.6842594385198
 11
705.00375850890418
 21
1186.6842594385198
  0
LINE
  8
_0-1_計細線
  6
CONTINUOUS
 62
    3
 10
705.00375850890418
 20
1187.6842593985202
 11
663.00376018890415
 21
1187.6842593985202
  0
LINE
  8
_0-1_計細線
  6
CONTINUOUS
 62
    3
 10
663.00376018890415
 20
1169.8842601105207
 11
705.00375850890418
 21
1169.8842601105207
  0
LINE
  8
_0-1_計細線
  6
CONTINUOUS
 62
    3
 10
705.00375850890418
 20
1170.8842600705207
 11
692.20375902090495
 21
1170.8842600705207
  0
LINE
  8
_0-1_計細線
  6
CONTINUOUS
 62
    3
 10
705.00375850890418
 20
1169.8842601105207
 11
705.00375850890418
 21
1170.8842600705207
  0
LINE
  8
_0-1_計細線
  6
CONTINUOUS
 62
    3
 10
692.20375902090495
 20
1169.8842601105207
 11
692.20375902090495
 21
1187.6842593985202
  0
LINE
  8
_0-1_計細線
  6
CONTINUOUS
 62
    3
 10
663.00376018890415
 20
1187.6842593985202
 11
663.00376018890415
 21
1169.8842601105207
  0
LINE
  8
_0-1_計細線
  6
CONTINUOUS
 62
    3
 10
694.50375890890496
 20
1183.7842595545153
 11
694.50375890890496
 21
1173.7842599545256
  0
LINE
  8
_0-0_計極細
  6
CONTINUOUS
 62
    2
 10
667.50375998890445
 20
1189.2842593345099
 11
667.50375998890445
 21
1188.6842593585202
  0
LINE
  8
_0-0_計極細
  6
CONTINUOUS
 62
    2
 10
667.50375998890445
 20
1168.8842601505203
 11
667.50375998890445
 21
1168.284260174531
  0
LINE
  8
_0-0_計極細
  6
CONTINUOUS
 62
    2
 10
707.5037583888959
 20
1204.7842587144933
 11
707.5037583888959
 21
1199.2842589344996
  0
LINE
  8
_0-0_計極細
  6
CONTINUOUS
 62
    2
 10
667.50375998890445
 20
1204.7842587144933
 11
667.50375998890445
 21
1199.2842589344996
  0
LINE
  8
_0-0_計極細
  6
CONTINUOUS
 62
    2
 10
703.45375867380335
 20
1204.7842583144825
 11
703.4537609849815
 21
1199.2842583144834
  0
LINE
  8
_0-0_計極細
  6
CONTINUOUS
 62
    2
 10
696.55375870400667
 20
1204.7842583144825
 11
696.55376098498164
 21
1199.2842583144834
  0
LINE
  8
_0-0_計極細
  6
CONTINUOUS
 62
    2
 10
707.5037583888959
 20
1220.2842587144933
 11
707.5037583888959
 21
1214.7842589344996
  0
LINE
  8
_0-0_計極細
  6
CONTINUOUS
 62
    2
 10
667.50375998890445
 20
1220.2842587144933
 11
667.50375998890445
 21
1214.7842589344996
  0
LINE
  8
_0-0_計極細
  6
CONTINUOUS
 62
    2
 10
703.45375867380335
 20
1220.2842583144825
 11
703.4537609849815
 21
1214.7842583144834
  0
LINE
  8
_0-0_計極細
  6
CONTINUOUS
 62
    2
 10
696.55375870400667
 20
1220.2842583144825
 11
696.55376098498164
 21
1214.7842583144834
  0
LINE
  8
_0-0_計極細
  6
CONTINUOUS
 62
    2
 10
707.5037583888959
 20
1235.7842587144928
 11
707.5037583888959
 21
1230.2842589344991
  0
LINE
  8
_0-0_計極細
  6
CONTINUOUS
 62
    2
 10
667.50375998890445
 20
1235.7842587144928
 11
667.50375998890445
 21
1230.2842589344991
  0
LINE
  8
_0-0_計極細
  6
CONTINUOUS
 62
    2
 10
703.45375867380335
 20
1235.7842583144825
 11
703.4537609849815
 21
1230.2842583144825
  0
LINE
  8
_0-0_計極細
  6
CONTINUOUS
 62
    2
 10
696.55375870400667
 20
1235.7842583144825
 11
696.55376098498164
 21
1230.2842583144825
  0
LINE
  8
_0-0_計極細
  6
CONTINUOUS
 62
    2
 10
707.5037583888959
 20
1158.2842587144946
 11
707.5037583888959
 21
1152.7842589345009
  0
LINE
  8
_0-0_計極細
  6
CONTINUOUS
 62
    2
 10
667.50375998890445
 20
1158.2842587144946
 11
667.50375998890445
 21
1152.7842589345009
  0
LINE
  8
_0-0_計極細
  6
CONTINUOUS
 62
    2
 10
703.45375867380335
 20
1158.2842583144843
 11
703.4537609849815
 21
1152.7842583144843
  0
LINE
  8
_0-0_計極細
  6
CONTINUOUS
 62
    2
 10
696.55375870400667
 20
1158.2842583144843
 11
696.55376098498164
 21
1152.7842583144843
  0
LINE
  8
_0-0_計極細
  6
CONTINUOUS
 62
    2
 10
707.5037583888959
 20
1142.7842587144951
 11
707.5037583888959
 21
1137.2842589345014
  0
LINE
  8
_0-0_計極細
  6
CONTINUOUS
 62
    2
 10
667.50375998890445
 20
1142.7842587144951
 11
667.50375998890445
 21
1137.2842589345014
  0
LINE
  8
_0-0_計極細
  6
CONTINUOUS
 62
    2
 10
703.45375867380335
 20
1142.7842583144843
 11
703.4537609849815
 21
1137.2842583144852
  0
LINE
  8
_0-0_計極細
  6
CONTINUOUS
 62
    2
 10
696.55375870400667
 20
1142.7842583144843
 11
696.55376098498164
 21
1137.2842583144852
  0
ARC
  8
_0-0_計極細
  6
CONTINUOUS
 62
    2
 10
1337.5817283864242
 20
1215.5342583143954
 40
54.312365187078854
 50
327.72737804884275
 51
33.846056193751458
  0
ARC
  8
_0-0_計極細
  6
CONTINUOUS
 62
    2
 10
1429.4257921514761
 20
1157.5342583145716
 40
54.312365187078854
 50
147.72737804884292
 51
213.84605619376094
  0
LINE
  8
_0-1_計細線
  6
CONTINUOUS
 62
    3
 10
660.50376026894605
 20
1245.7842583144825
 11
660.50376026894605
 21
1235.7842583144816
  0
LINE
  8
_0-1_計細線
  6
CONTINUOUS
 62
    3
 10
1382.690158997669
 20
1245.7842583144825
 11
660.50376026894605
 21
1245.7842583144825
  0
LINE
  8
_0-1_計細線
  6
CONTINUOUS
 62
    3
 10
660.50376026894605
 20
1235.7842583144816
 11
1387.977864272136
 21
1235.7842583144816
  0
LINE
  8
_0-1_計細線
  6
CONTINUOUS
 62
    3
 10
660.50376026894605
 20
1230.2842583144816
 11
660.50376026894605
 21
1220.2842583144816
  0
LINE
  8
_0-1_計細線
  6
CONTINUOUS
 62
    3
 10
1389.8528534193917
 20
1230.2842583144816
 11
660.50376026894605
 21
1230.2842583144816
  0
LINE
  8
_0-1_計細線
  6
CONTINUOUS
 62
    3
 10
660.50376026894605
 20
1220.2842583144816
 11
1391.6859843392956
 21
1220.2842583144816
  0
LINE
  8
_0-1_計細線
  6
CONTINUOUS
 62
    3
 10
660.50376026894605
 20
1214.7842583144816
 11
660.50376026894605
 21
1204.7842583144816
  0
LINE
  8
_0-1_計細線
  6
CONTINUOUS
 62
    3
 10
1391.8889149478248
 20
1214.7842583144816
 11
660.50376026894605
 21
1214.7842583144816
  0
LINE
  8
_0-1_計細線
  6
CONTINUOUS
 62
    3
 10
660.50376026894605
 20
1204.7842583144816
 11
1390.8195956635461
 21
1204.7842583144816
  0
LINE
  8
_0-1_計細線
  6
CONTINUOUS
 62
    3
 10
660.50376026894605
 20
1199.2842583144816
 11
660.50376026894605
 21
1189.2842583144816
  0
LINE
  8
_0-1_計細線
  6
CONTINUOUS
 62
    3
 10
1389.406148423868
 20
1199.2842583144816
 11
660.50376026894605
 21
1199.2842583144816
  0
LINE
  8
_0-1_計細線
  6
CONTINUOUS
 62
    3
 10
660.50376026894605
 20
1189.2842583144816
 11
1385.1292889150061
 21
1189.2842583144816
  0
LINE
  8
_0-1_計細線
  6
CONTINUOUS
 62
    3
 10
1381.8782316228924
 20
1183.7842583144816
 11
694.50375890890496
 21
1183.7842583144816
  0
LINE
  8
_0-1_計細線
  6
CONTINUOUS
 62
    3
 10
694.50375890890496
 20
1173.7842583144816
 11
1377.6013721140309
 21
1173.7842583144816
  0
LINE
  8
_0-1_計細線
  6
CONTINUOUS
 62
    3
 10
660.50376026894605
 20
1168.2842583144816
 11
660.50376026894605
 21
1158.2842583144807
  0
LINE
  8
_0-1_計細線
  6
CONTINUOUS
 62
    3
 10
1376.1879248743533
 20
1168.2842583144816
 11
660.50376026894605
 21
1168.2842583144816
  0
LINE
  8
_0-1_計細線
  6
CONTINUOUS
 62
    3
 10
660.50376026894605
 20
1158.2842583144807
 11
1375.118605590076
 21
1158.2842583144807
  0
LINE
  8
_0-1_計細線
  6
CONTINUOUS
 62
    3
 10
660.50376026894605
 20
1152.7842583144807
 11
660.50376026894605
 21
1142.7842583144807
  0
LINE
  8
_0-1_計細線
  6
CONTINUOUS
 62
    3
 10
1375.3215361986056
 20
1152.7842583144807
 11
660.50376026894605
 21
1152.7842583144807
  0
LINE
  8
_0-1_計細線
  6
CONTINUOUS
 62
    3
 10
660.50376026894605
 20
1142.7842583144807
 11
1377.1546671185104
 21
1142.7842583144807
  0
LINE
  8
_0-1_計細線
  6
CONTINUOUS
 62
    3
 10
660.50376026894605
 20
1137.2842583144807
 11
660.50376026894605
 21
1127.2842583144807
  0
LINE
  8
_0-1_計細線
  6
CONTINUOUS
 62
    3
 10
1379.0296562657666
 20
1137.2842583144807
 11
660.50376026894605
 21
1137.2842583144807
  0
LINE
  8
_0-1_計細線
  6
CONTINUOUS
 62
    3
 10
660.50376026894605
 20
1127.2842583144807
 11
1384.3173615402363
 21
1127.2842583144807
  0
LINE
  8
_0-0_計極細
  6
CONTINUOUS
 62
    2
 10
967.45375637772668
 20
1235.7842583144816
 11
967.45375868890505
 21
1230.2842583144825
  0
LINE
  8
_0-0_計極細
  6
CONTINUOUS
 62
    2
 10
960.55375640793022
 20
1235.7842583144816
 11
960.55375868890496
 21
1230.2842583144825
  0
LINE
  8
_0-0_計極細
  6
CONTINUOUS
 62
    2
 10
971.50375838889727
 20
1235.7842572744553
 11
971.50375838889727
 21
1230.2842574944611
  0
LINE
  8
_0-0_計極細
  6
CONTINUOUS
 62
    2
 10
956.50375898891275
 20
1235.7842572744553
 11
956.50375898891275
 21
1230.2842574944611
  0
LINE
  8
_0-0_計極細
  6
CONTINUOUS
 62
    2
 10
967.45375637772668
 20
1220.2842583144825
 11
967.45375868890505
 21
1214.7842583144825
  0
LINE
  8
_0-0_計極細
  6
CONTINUOUS
 62
    2
 10
960.55375640793022
 20
1220.2842583144825
 11
960.55375868890496
 21
1214.7842583144825
  0
LINE
  8
_0-0_計極細
  6
CONTINUOUS
 62
    2
 10
971.50375838889727
 20
1220.2842572744557
 11
971.50375838889727
 21
1214.7842574944621
  0
LINE
  8
_0-0_計極細
  6
CONTINUOUS
 62
    2
 10
956.50375898891275
 20
1220.2842572744557
 11
956.50375898891275
 21
1214.7842574944621
  0
LINE
  8
_0-0_計極細
  6
CONTINUOUS
 62
    2
 10
967.45375637772668
 20
1204.7842583144825
 11
967.45375868890505
 21
1199.2842583144825
  0
LINE
  8
_0-0_計極細
  6
CONTINUOUS
 62
    2
 10
960.55375640793022
 20
1204.7842583144825
 11
960.55375868890496
 21
1199.2842583144825
  0
LINE
  8
_0-0_計極細
  6
CONTINUOUS
 62
    2
 10
971.50375838889727
 20
1204.7842572744557
 11
971.50375838889727
 21
1199.2842574944621
  0
LINE
  8
_0-0_計極細
  6
CONTINUOUS
 62
    2
 10
956.50375898891275
 20
1204.7842572744557
 11
956.50375898891275
 21
1199.2842574944621
  0
LINE
  8
_0-0_計極細
  6
CONTINUOUS
 62
    2
 10
967.45375637772668
 20
1189.2842583144825
 11
967.45375868890505
 21
1183.7842583144834
  0
LINE
  8
_0-0_計極細
  6
CONTINUOUS
 62
    2
 10
960.55375640793022
 20
1189.2842583144825
 11
960.55375868890496
 21
1183.7842583144834
  0
LINE
  8
_0-0_計極細
  6
CONTINUOUS
 62
    2
 10
971.50375838889727
 20
1189.2842572744562
 11
971.50375838889727
 21
1183.7842574944621
  0
LINE
  8
_0-0_計極細
  6
CONTINUOUS
 62
    2
 10
956.50375898891275
 20
1189.2842572744562
 11
956.50375898891275
 21
1183.7842574944621
  0
LINE
  8
_0-0_計極細
  6
CONTINUOUS
 62
    2
 10
967.45375637772668
 20
1173.7842583144834
 11
967.45375868890505
 21
1168.2842583144834
  0
LINE
  8
_0-0_計極細
  6
CONTINUOUS
 62
    2
 10
960.55375640793022
 20
1173.7842583144834
 11
960.55375868890496
 21
1168.2842583144834
  0
LINE
  8
_0-0_計極細
  6
CONTINUOUS
 62
    2
 10
971.50375838889727
 20
1173.7842572744566
 11
971.50375838889727
 21
1168.284257494463
  0
LINE
  8
_0-0_計極細
  6
CONTINUOUS
 62
    2
 10
956.50375898891275
 20
1173.7842572744566
 11
956.50375898891275
 21
1168.284257494463
  0
LINE
  8
_0-0_計極細
  6
CONTINUOUS
 62
    2
 10
967.45375637772668
 20
1158.2842583144834
 11
967.45375868890505
 21
1152.7842583144843
  0
LINE
  8
_0-0_計極細
  6
CONTINUOUS
 62
    2
 10
960.55375640793022
 20
1158.2842583144834
 11
960.55375868890496
 21
1152.7842583144843
  0
LINE
  8
_0-0_計極細
  6
CONTINUOUS
 62
    2
 10
971.50375838889727
 20
1158.2842572744571
 11
971.50375838889727
 21
1152.784257494463
  0
LINE
  8
_0-0_計極細
  6
CONTINUOUS
 62
    2
 10
956.50375898891275
 20
1158.2842572744571
 11
956.50375898891275
 21
1152.784257494463
  0
LINE
  8
_0-0_計極細
  6
CONTINUOUS
 62
    2
 10
967.45375637772668
 20
1142.7842583144843
 11
967.45375868890505
 21
1137.2842583144843
  0
LINE
  8
_0-0_計極細
  6
CONTINUOUS
 62
    2
 10
960.55375640793022
 20
1142.7842583144843
 11
960.55375868890496
 21
1137.2842583144843
  0
LINE
  8
_0-0_計極細
  6
CONTINUOUS
 62
    2
 10
971.50375838889727
 20
1142.7842572744576
 11
971.50375838889727
 21
1137.2842574944639
  0
LINE
  8
_0-0_計極細
  6
CONTINUOUS
 62
    2
 10
956.50375898891275
 20
1142.7842572744576
 11
956.50375898891275
 21
1137.2842574944639
  0
LINE
  8
_0-0_計極細
  6
CONTINUOUS
 62
    2
 10
1231.4537586738033
 20
1235.7842583144816
 11
1231.4537609849817
 21
1230.2842583144825
  0
LINE
  8
_0-0_計極細
  6
CONTINUOUS
 62
    2
 10
1224.5537587040067
 20
1235.7842583144816
 11
1224.5537609849816
 21
1230.2842583144825
  0
LINE
  8
_0-0_計極細
  6
CONTINUOUS
 62
    2
 10
1235.5037606849737
 20
1235.7842572744553
 11
1235.5037606849737
 21
1230.2842574944611
  0
LINE
  8
_0-0_計極細
  6
CONTINUOUS
 62
    2
 10
1220.5037612849892
 20
1235.7842572744553
 11
1220.5037612849892
 21
1230.2842574944611
  0
LINE
  8
_0-0_計極細
  6
CONTINUOUS
 62
    2
 10
1231.4537586738033
 20
1220.2842583144825
 11
1231.4537609849817
 21
1214.7842583144825
  0
LINE
  8
_0-0_計極細
  6
CONTINUOUS
 62
    2
 10
1224.5537587040067
 20
1220.2842583144825
 11
1224.5537609849816
 21
1214.7842583144825
  0
LINE
  8
_0-0_計極細
  6
CONTINUOUS
 62
    2
 10
1235.5037606849737
 20
1220.2842572744557
 11
1235.5037606849737
 21
1214.7842574944621
  0
LINE
  8
_0-0_計極細
  6
CONTINUOUS
 62
    2
 10
1220.5037612849892
 20
1220.2842572744557
 11
1220.5037612849892
 21
1214.7842574944621
  0
LINE
  8
_0-0_計極細
  6
CONTINUOUS
 62
    2
 10
1231.4537586738033
 20
1204.7842583144825
 11
1231.4537609849817
 21
1199.2842583144825
  0
LINE
  8
_0-0_計極細
  6
CONTINUOUS
 62
    2
 10
1224.5537587040067
 20
1204.7842583144825
 11
1224.5537609849816
 21
1199.2842583144825
  0
LINE
  8
_0-0_計極細
  6
CONTINUOUS
 62
    2
 10
1235.5037606849737
 20
1204.7842572744557
 11
1235.5037606849737
 21
1199.2842574944621
  0
LINE
  8
_0-0_計極細
  6
CONTINUOUS
 62
    2
 10
1220.5037612849892
 20
1204.7842572744557
 11
1220.5037612849892
 21
1199.2842574944621
  0
LINE
  8
_0-0_計極細
  6
CONTINUOUS
 62
    2
 10
1231.4537586738033
 20
1189.2842583144825
 11
1231.4537609849817
 21
1183.7842583144834
  0
LINE
  8
_0-0_計極細
  6
CONTINUOUS
 62
    2
 10
1224.5537587040067
 20
1189.2842583144825
 11
1224.5537609849816
 21
1183.7842583144834
  0
LINE
  8
_0-0_計極細
  6
CONTINUOUS
 62
    2
 10
1235.5037606849737
 20
1189.2842572744562
 11
1235.5037606849737
 21
1183.7842574944621
  0
LINE
  8
_0-0_計極細
  6
CONTINUOUS
 62
    2
 10
1220.5037612849892
 20
1189.2842572744562
 11
1220.5037612849892
 21
1183.7842574944621
  0
LINE
  8
_0-0_計極細
  6
CONTINUOUS
 62
    2
 10
1231.4537586738033
 20
1173.7842583144834
 11
1231.4537609849817
 21
1168.2842583144834
  0
LINE
  8
_0-0_計極細
  6
CONTINUOUS
 62
    2
 10
1224.5537587040067
 20
1173.7842583144834
 11
1224.5537609849816
 21
1168.2842583144834
  0
LINE
  8
_0-0_計極細
  6
CONTINUOUS
 62
    2
 10
1235.5037606849737
 20
1173.7842572744566
 11
1235.5037606849737
 21
1168.284257494463
  0
LINE
  8
_0-0_計極細
  6
CONTINUOUS
 62
    2
 10
1220.5037612849892
 20
1173.7842572744566
 11
1220.5037612849892
 21
1168.284257494463
  0
LINE
  8
_0-0_計極細
  6
CONTINUOUS
 62
    2
 10
1231.4537586738033
 20
1158.2842583144834
 11
1231.4537609849817
 21
1152.7842583144843
  0
LINE
  8
_0-0_計極細
  6
CONTINUOUS
 62
    2
 10
1224.5537587040067
 20
1158.2842583144834
 11
1224.5537609849816
 21
1152.7842583144843
  0
LINE
  8
_0-0_計極細
  6
CONTINUOUS
 62
    2
 10
1235.5037606849737
 20
1158.2842572744571
 11
1235.5037606849737
 21
1152.784257494463
  0
LINE
  8
_0-0_計極細
  6
CONTINUOUS
 62
    2
 10
1220.5037612849892
 20
1158.2842572744571
 11
1220.5037612849892
 21
1152.784257494463
  0
LINE
  8
_0-0_計極細
  6
CONTINUOUS
 62
    2
 10
1231.4537586738033
 20
1142.7842583144843
 11
1231.4537609849817
 21
1137.2842583144843
  0
LINE
  8
_0-0_計極細
  6
CONTINUOUS
 62
    2
 10
1224.5537587040067
 20
1142.7842583144843
 11
1224.5537609849816
 21
1137.2842583144843
  0
LINE
  8
_0-0_計極細
  6
CONTINUOUS
 62
    2
 10
1235.5037606849737
 20
1142.7842572744576
 11
1235.5037606849737
 21
1137.2842574944639
  0
LINE
  8
_0-0_計極細
  6
CONTINUOUS
 62
    2
 10
1220.5037612849892
 20
1142.7842572744576
 11
1220.5037612849892
 21
1137.2842574944639
  0
LINE
  8
_0-5_寸法線
  6
CONTINUOUS
 62
    7
 10
846.64132008166405
 20
1163.6751909255981
 11
854.6413201029535
 21
1149.8187844773386
  0
LINE
  8
_0-5_寸法線
  6
CONTINUOUS
 62
    7
 10
846.64132008166405
 20
1163.6751909255981
 11
846.64132010624701
 21
1147.6751909255981
  0
LINE
  8
_0-5_寸法線
  6
CONTINUOUS
 62
    7
 10
846.64132008166405
 20
1163.6751909255981
 11
871.19381655518566
 21
1072.0440271969019
  0
LINE
  8
_0-5_寸法線
  6
CONTINUOUS
 62
    7
 10
871.19381655518566
 20
1072.0440271969019
 11
928.79381655518569
 21
1072.0440271969019
  0
TEXT
  8
_0-5_寸法線
 62
    7
 10
871.19381655518566
 20
1072.0440271969019
 40
24
 41
0.7999999999999998
 50
0
  1
上フタ
  0
LINE
  8
_0-5_寸法線
  6
CONTINUOUS
 62
    7
 10
975.35741059268821
 20
1120.8095397949219
 11
983.3574105914654
 21
1106.9531333336649
  0
LINE
  8
_0-5_寸法線
  6
CONTINUOUS
 62
    7
 10
975.35741059268821
 20
1120.8095397949219
 11
975.35741059127622
 21
1104.8095397949219
  0
LINE
  8
_0-5_寸法線
  6
CONTINUOUS
 62
    7
 10
975.35741059268821
 20
1120.8095397949219
 11
988.42409030720501
 21
1072.0440271969019
  0
LINE
  8
_0-5_寸法線
  6
CONTINUOUS
 62
    7
 10
988.42409030720501
 20
1072.0440271969019
 11
1103.6240903072048
 21
1072.0440271969019
  0
TEXT
  8
_0-5_寸法線
 62
    7
 10
988.42409030720501
 20
1072.0440271969019
 40
24
 41
0.7999999999999998
 50
0
  1
排水ユニット
  0
LINE
  8
_0-5_寸法線
  6
CONTINUOUS
 62
    7
 10
679.50982005453648
 20
1178.7842597545205
 11
687.50982007450409
 21
1164.9278533054978
  0
LINE
  8
_0-5_寸法線
  6
CONTINUOUS
 62
    7
 10
679.50982005453648
 20
1178.7842597545205
 11
679.50982007759319
 21
1162.7842597545205
  0
LINE
  8
_0-5_寸法線
  6
CONTINUOUS
 62
    7
 10
679.50982005453648
 20
1178.7842597545205
 11
708.1107793331214
 21
1072.0440271969019
  0
LINE
  8
_0-5_寸法線
  6
CONTINUOUS
 62
    7
 10
708.1107793331214
 20
1072.0440271969019
 11
784.91077933312135
 21
1072.0440271969019
  0
TEXT
  8
_0-5_寸法線
 62
    7
 10
708.1107793331214
 20
1072.0440271969019
 40
24
 41
0.7999999999999998
 50
0
  1
取外し具
  0
TEXT
  8
_0-5_寸法線
 62
    7
 10
588.14521663219227
 20
1156.2593672979838
 40
24
 41
1
 50
0
  1
Ａ部
  0
LINE
  8
_0-1_計細線
  6
CONTINUOUS
 62
    3
 10
1464.0037602689461
 20
866.63425831448023
 11
1531.5037602689461
 21
866.63425831448023
  0
LINE
  8
_0-1_計細線
  6
CONTINUOUS
 62
    3
 10
1464.0037602689461
 20
872.63425831448114
 11
1531.5037602689461
 21
872.63425831448114
  0
LINE
  8
_0-1_計細線
  6
CONTINUOUS
 62
    3
 10
1464.0037602689461
 20
855.53425831448112
 11
1531.5037602689461
 21
855.53425831448112
  0
LINE
  8
_0-1_計細線
  6
CONTINUOUS
 62
    3
 10
1531.5037602689461
 20
872.63425831448114
 11
1531.5037602689461
 21
855.53425831448112
  0
LINE
  8
_0-5_寸法線
  6
CONTINUOUS
 62
    7
 10
1420.8789673929275
 20
805.45958670532309
 11
1416.8064252853248
 21
789.98656499714332
  0
LINE
  8
_0-5_寸法線
  6
CONTINUOUS
 62
    7
 10
1420.8789673929275
 20
805.45958670532309
 11
1409.6155316156719
 21
794.09582788653267
  0
LINE
  8
_0-5_寸法線
  6
CONTINUOUS
 62
    7
 10
1420.8789673929275
 20
805.45958670532309
 11
1384.8172527336717
 21
742.35436257141282
  0
LINE
  8
_0-5_寸法線
  6
CONTINUOUS
 62
    7
 10
1384.8172527336717
 20
742.35436257141282
 11
1173.6172527336719
 21
742.35436257141282
  0
TEXT
  8
_0-5_寸法線
 62
    7
 10
1173.6172527336719
 20
742.4115119068174
 40
24
 41
0.7999999999999997
 50
0
  1
横引き排水トラップ一式
  0
LINE
  8
_0-5_寸法線
  6
CONTINUOUS
 62
    7
 10
1464.0037602689461
 20
722.5158903144802
 11
1464.0037602689461
 21
648.4636263144821
  0
LINE
  8
_0-5_寸法線
  6
CONTINUOUS
 62
    7
 10
1464.0037602689461
 20
656.4636263144821
 11
1479.4585734895711
 21
660.60473103612242
  0
LINE
  8
_0-5_寸法線
  6
CONTINUOUS
 62
    7
 10
1464.0037602689461
 20
656.4636263144821
 11
1479.4585734895711
 21
652.32252159284178
  0
LINE
  8
_0-5_寸法線
  6
CONTINUOUS
 62
    7
 10
1513.473144268946
 20
722.5158903144802
 11
1513.473144268946
 21
648.4636263144821
  0
LINE
  8
_0-5_寸法線
  6
CONTINUOUS
 62
    7
 10
1513.473144268946
 20
656.4636263144821
 11
1498.018331048321
 21
652.32252159284178
  0
LINE
  8
_0-5_寸法線
  6
CONTINUOUS
 62
    7
 10
1513.473144268946
 20
656.4636263144821
 11
1498.018331048321
 21
660.60473103612253
  0
LINE
  8
_0-5_寸法線
  6
CONTINUOUS
 62
    7
 10
1464.0037602689461
 20
656.4636263144821
 11
1513.473144268946
 21
656.4636263144821
  0
TEXT
  8
_0-5_寸法線
 62
    7
 10
1476.738452268946
 20
656.4636263144821
 40
24
 41
1
 50
0
  1
51
  0
LINE
  8
_0-5_寸法線
  6
CONTINUOUS
 62
    7
 10
1513.473144268946
 20
656.4636263144821
 11
1528.9279574895711
 21
660.6047310361223
  0
LINE
  8
_0-5_寸法線
  6
CONTINUOUS
 62
    7
 10
1513.473144268946
 20
656.4636263144821
 11
1528.9279574895711
 21
652.32252159284167
  0
LINE
  8
_0-5_寸法線
  6
CONTINUOUS
 62
    7
 10
1549.2282482689459
 20
723.39752231448074
 11
1549.2282482689459
 21
648.4636263144821
  0
LINE
  8
_0-5_寸法線
  6
CONTINUOUS
 62
    7
 10
1549.2282482689459
 20
656.4636263144821
 11
1533.7734350483208
 21
652.32252159284178
  0
LINE
  8
_0-5_寸法線
  6
CONTINUOUS
 62
    7
 10
1549.2282482689459
 20
656.4636263144821
 11
1533.7734350483208
 21
660.60473103612253
  0
LINE
  8
_0-5_寸法線
  6
CONTINUOUS
 62
    7
 10
1513.473144268946
 20
656.4636263144821
 11
1549.2282482689459
 21
656.4636263144821
  0
TEXT
  8
_0-5_寸法線
 62
    7
 10
1519.350696268946
 20
656.4636263144821
 40
24
 41
1
 50
0
  1
36
  0
LINE
  8
_0-5_寸法線
  6
CONTINUOUS
 62
    7
 10
1464.0037602689461
 20
722.5158903144802
 11
1464.0037602689451
 21
592.4636263144821
  0
LINE
  8
_0-5_寸法線
  6
CONTINUOUS
 62
    7
 10
1464.0037602689451
 20
600.4636263144821
 11
1479.4585734895702
 21
604.60473103612242
  0
LINE
  8
_0-5_寸法線
  6
CONTINUOUS
 62
    7
 10
1464.0037602689451
 20
600.4636263144821
 11
1479.4585734895702
 21
596.32252159284178
  0
LINE
  8
_0-5_寸法線
  6
CONTINUOUS
 62
    7
 10
1549.2282482689459
 20
722.5158903144802
 11
1549.228248268945
 21
592.4636263144821
  0
LINE
  8
_0-5_寸法線
  6
CONTINUOUS
 62
    7
 10
1549.228248268945
 20
600.4636263144821
 11
1533.7734350483199
 21
596.32252159284178
  0
LINE
  8
_0-5_寸法線
  6
CONTINUOUS
 62
    7
 10
1549.228248268945
 20
600.4636263144821
 11
1533.7734350483199
 21
604.60473103612253
  0
LINE
  8
_0-5_寸法線
  6
CONTINUOUS
 62
    7
 10
1464.0037602689451
 20
600.4636263144821
 11
1549.228248268945
 21
600.4636263144821
  0
TEXT
  8
_0-5_寸法線
 62
    7
 10
1494.6160042689451
 20
600.4636263144821
 40
24
 41
1
 50
0
  1
87
  0
LINE
  8
_0-5_寸法線
  6
CONTINUOUS
 62
    7
 10
1567.0037602689461
 20
738.03425831448112
 11
1695.0037602689461
 21
738.03425831448112
  0
LINE
  8
_0-5_寸法線
  6
CONTINUOUS
 62
    7
 10
1687.0037602689461
 20
738.03425831448112
 11
1682.8626555473058
 21
753.48907153510618
  0
LINE
  8
_0-5_寸法線
  6
CONTINUOUS
 62
    7
 10
1687.0037602689461
 20
738.03425831448112
 11
1691.1448649905865
 21
753.48907153510618
  0
LINE
  8
_0-5_寸法線
  6
CONTINUOUS
 62
    7
 10
1567.0037602689461
 20
793.03425831448112
 11
1695.0037602689461
 21
793.03425831448112
  0
LINE
  8
_0-5_寸法線
  6
CONTINUOUS
 62
    7
 10
1687.0037602689461
 20
793.03425831448112
 11
1691.1448649905865
 21
777.57944509385607
  0
LINE
  8
_0-5_寸法線
  6
CONTINUOUS
 62
    7
 10
1687.0037602689461
 20
793.03425831448112
 11
1682.8626555473058
 21
777.57944509385607
  0
LINE
  8
_0-5_寸法線
  6
CONTINUOUS
 62
    7
 10
1687.0037602689461
 20
738.03425831448112
 11
1687.0037602689461
 21
793.03425831448112
  0
TEXT
  8
_0-5_寸法線
 62
    7
 10
1687.0037602689461
 20
735.53425831448112
 40
24
 41
1
 50
90
  1
VU-50
  0
LINE
  8
_0-5_寸法線
  6
CONTINUOUS
 62
    7
 10
1567.0037602689461
 20
738.03425831448112
 11
1751.0037602689461
 21
738.03425831448112
  0
LINE
  8
_0-5_寸法線
  6
CONTINUOUS
 62
    7
 10
1743.0037602689461
 20
738.03425831448112
 11
1738.8626555473058
 21
753.48907153510618
  0
LINE
  8
_0-5_寸法線
  6
CONTINUOUS
 62
    7
 10
1743.0037602689461
 20
738.03425831448112
 11
1747.1448649905865
 21
753.48907153510618
  0
LINE
  8
_0-5_寸法線
  6
CONTINUOUS
 62
    7
 10
1548.7037602689468
 20
854.53425831448112
 11
1751.0037602689461
 21
854.53425831448112
  0
LINE
  8
_0-5_寸法線
  6
CONTINUOUS
 62
    7
 10
1743.0037602689461
 20
854.53425831448112
 11
1747.1448649905863
 21
839.07944509385607
  0
LINE
  8
_0-5_寸法線
  6
CONTINUOUS
 62
    7
 10
1743.0037602689461
 20
854.53425831448112
 11
1738.8626555473056
 21
839.07944509385607
  0
LINE
  8
_0-5_寸法線
  6
CONTINUOUS
 62
    7
 10
1743.0037602689461
 20
738.03425831448112
 11
1743.0037602689461
 21
854.53425831448112
  0
TEXT
  8
_0-5_寸法線
 62
    7
 10
1743.0037602689461
 20
766.28425831448203
 40
24
 41
1
 50
90
  1
116.5
  0
LINE
  8
_0-5_寸法線
  6
CONTINUOUS
 62
    7
 10
1560.0037602689461
 20
874.53425831448112
 11
1751.0037602689461
 21
874.53425831448112
  0
LINE
  8
_0-5_寸法線
  6
CONTINUOUS
 62
    7
 10
1743.0037602689461
 20
874.53425831448112
 11
1738.8626555473058
 21
889.98907153510618
  0
LINE
  8
_0-5_寸法線
  6
CONTINUOUS
 62
    7
 10
1743.0037602689461
 20
874.53425831448112
 11
1747.1448649905865
 21
889.98907153510618
  0
LINE
  8
_0-5_寸法線
  6
CONTINUOUS
 62
    7
 10
1743.0037602689461
 20
854.53425831448112
 11
1743.0037602689461
 21
914.53425831448112
  0
TEXT
  8
_0-5_寸法線
 62
    7
 10
1743.0037602689461
 20
885.23441478591303
 40
24
 41
1
 50
90
  1
20
  0
LINE
  8
_0-5_寸法線
  6
CONTINUOUS
 62
    7
 10
1567.0037602689461
 20
738.03425831448112
 11
1807.0037602689461
 21
738.03425831448112
  0
LINE
  8
_0-5_寸法線
  6
CONTINUOUS
 62
    7
 10
1799.0037602689461
 20
738.03425831448112
 11
1794.8626555473058
 21
753.48907153510618
  0
LINE
  8
_0-5_寸法線
  6
CONTINUOUS
 62
    7
 10
1799.0037602689461
 20
738.03425831448112
 11
1803.1448649905865
 21
753.48907153510618
  0
LINE
  8
_0-5_寸法線
  6
CONTINUOUS
 62
    7
 10
1560.0037602689461
 20
874.53425831448112
 11
1807.0037602689461
 21
874.53425831448112
  0
LINE
  8
_0-5_寸法線
  6
CONTINUOUS
 62
    7
 10
1799.0037602689461
 20
874.53425831448112
 11
1803.1448649905865
 21
859.07944509385607
  0
LINE
  8
_0-5_寸法線
  6
CONTINUOUS
 62
    7
 10
1799.0037602689461
 20
874.53425831448112
 11
1794.8626555473058
 21
859.07944509385607
  0
LINE
  8
_0-5_寸法線
  6
CONTINUOUS
 62
    7
 10
1799.0037602689461
 20
738.03425831448112
 11
1799.0037602689461
 21
874.53425831448112
  0
TEXT
  8
_0-5_寸法線
 62
    7
 10
1799.0037602689461
 20
776.28425831448203
 40
24
 41
1
 50
90
  1
136.5
  0
LINE
  8
_0-5_寸法線
  6
CONTINUOUS
 62
    7
 10
1567.0037602689461
 20
738.03425831448112
 11
1639.0037602689461
 21
738.03425831448112
  0
LINE
  8
_0-5_寸法線
  6
CONTINUOUS
 62
    7
 10
1631.0037602689461
 20
738.03425831448112
 11
1635.1448649905863
 21
722.57944509385607
  0
LINE
  8
_0-5_寸法線
  6
CONTINUOUS
 62
    7
 10
1631.0037602689461
 20
738.03425831448112
 11
1626.8626555473056
 21
722.57944509385607
  0
LINE
  8
_0-5_寸法線
  6
CONTINUOUS
 62
    7
 10
1567.0037602689461
 20
765.53425831448112
 11
1639.0037602689461
 21
765.53425831448112
  0
LINE
  8
_0-5_寸法線
  6
CONTINUOUS
 62
    7
 10
1631.0037602689461
 20
698.03425831448112
 11
1631.0037602689461
 21
765.53425831448112
  0
TEXT
  8
_0-5_寸法線
 62
    7
 10
1631.0037602689461
 20
695.9526874403291
 40
24
 41
1
 50
90
  1
28
  0
LINE
  8
_0-5_寸法線
  6
CONTINUOUS
 62
    7
 10
1631.0037602689461
 20
765.53425831448112
 11
1626.8626555473058
 21
780.98907153510618
  0
LINE
  8
_0-5_寸法線
  6
CONTINUOUS
 62
    7
 10
1631.0037602689461
 20
765.53425831448112
 11
1635.1448649905865
 21
780.98907153510618
  0
LINE
  8
_0-5_寸法線
  6
CONTINUOUS
 62
    7
 10
1548.7037602689468
 20
854.53425831448112
 11
1639.0037602689461
 21
854.53425831448112
  0
LINE
  8
_0-5_寸法線
  6
CONTINUOUS
 62
    7
 10
1631.0037602689461
 20
854.53425831448112
 11
1635.1448649905863
 21
839.07944509385607
  0
LINE
  8
_0-5_寸法線
  6
CONTINUOUS
 62
    7
 10
1631.0037602689461
 20
854.53425831448112
 11
1626.8626555473056
 21
839.07944509385607
  0
LINE
  8
_0-5_寸法線
  6
CONTINUOUS
 62
    7
 10
1631.0037602689461
 20
765.53425831448112
 11
1631.0037602689461
 21
854.53425831448112
  0
TEXT
  8
_0-5_寸法線
 62
    7
 10
1631.0037602689461
 20
781.48137653376943
 40
24
 41
1
 50
90
  1
88.5
  0
ARC
  8
_0-1_計細線
  6
CONTINUOUS
 62
    3
 10
1407.0037602689461
 20
852.03425831448021
 40
1.5
 50
179.99999999999983
 51
269.99999999999977
  0
LINE
  8
_0-1_計細線
  6
CONTINUOUS
 62
    3
 10
1405.5037602689461
 20
854.03425831448021
 11
1405.5037602689461
 21
852.03425831448021
  0
ARC
  8
_0-1_計細線
  6
CONTINUOUS
 62
    3
 10
1405.0037602689461
 20
854.03425831448021
 40
0.5
 50
0
 51
89.999999999999915
  0
LINE
  8
_0-1_計細線
  6
CONTINUOUS
 62
    3
 10
1407.0037602689461
 20
850.53425831448021
 11
1464.0037602689463
 21
850.53425831448021
  0
LINE
  8
_0-1_計細線
  6
CONTINUOUS
 62
    3
 10
1464.0037602689461
 20
829.55466631448144
 11
1412.0853922689473
 21
829.55466631448144
  0
LINE
  8
_0-1_計細線
  6
CONTINUOUS
 62
    3
 10
1464.0037602689461
 20
825.31290631448246
 11
1414.534368268947
 21
825.31290631448246
  0
ARC
  8
_0-1_計細線
  6
CONTINUOUS
 62
    3
 10
1409.6364082689449
 20
825.31290631448246
 40
4.8979599999999994
 50
0
 51
59.999999999989242
  0
LINE
  8
_0-1_計細線
  6
CONTINUOUS
 62
    3
 10
1412.0853922689473
 20
829.55466631448144
 11
1412.0853922689473
 21
847.18731431448214
  0
LINE
  8
_0-1_計細線
  6
CONTINUOUS
 62
    3
 10
1464.0037602689461
 20
847.18731431448214
 11
1408.2649842689459
 21
847.18731431448214
  0
LINE
  8
_0-1_計細線
  6
CONTINUOUS
 62
    3
 10
1515.9221282689466
 20
837.39140231448255
 11
1519.742536268948
 21
837.39140231448255
  0
ARC
  8
_0-1_計細線
  6
CONTINUOUS
 62
    3
 10
1518.3711042689463
 20
825.31290631448246
 40
4.8979599999999994
 50
119.99999999999233
 51
179.99999999999983
  0
LINE
  8
_0-1_計細線
  6
CONTINUOUS
 62
    3
 10
1515.9221282689466
 20
829.55466631448144
 11
1515.9221282689466
 21
837.39140231448255
  0
LINE
  8
_0-0_計極細
  6
CONTINUOUS
 62
    2
 10
1511.5139602689467
 20
832.49344231448231
 11
1511.5139602689467
 21
835.34117831448202
  0
LINE
  8
_0-0_計極細
  6
CONTINUOUS
 62
    2
 10
1512.9627762689468
 20
831.70977031448092
 11
1511.5139602689467
 21
832.49344231448231
  0
LINE
  8
_0-0_計極細
  6
CONTINUOUS
 62
    2
 10
1464.0037602689461
 20
831.70977031448092
 11
1488.4935442689473
 21
831.70977031448092
  0
LINE
  8
_0-0_計極細
  6
CONTINUOUS
 62
    2
 10
1519.742536268948
 20
851.10568231448087
 11
1512.9627762689468
 21
850.3220103144813
  0
ARC
  8
_0-0_計極細
  6
CONTINUOUS
 62
    2
 10
1501.473144268946
 20
825.63629831448088
 40
0.979592
 50
0
 51
89.999999999999915
  0
ARC
  8
_0-0_計極細
  6
CONTINUOUS
 62
    2
 10
1501.473144268946
 20
825.63629831448088
 40
0.979592
 50
89.999999999999915
 51
179.99999999999983
  0
LINE
  8
_0-0_計極細
  6
CONTINUOUS
 62
    2
 10
1501.473144268946
 20
826.61589031448239
 11
1490.4527362689457
 21
826.61589031448239
  0
LINE
  8
_0-0_計極細
  6
CONTINUOUS
 62
    2
 10
1490.9985282689465
 20
835.34117831448202
 11
1500.7367922689461
 21
835.34117831448202
  0
LINE
  8
_0-0_計極細
  6
CONTINUOUS
 62
    2
 10
1464.0037602689461
 20
852.48403431448241
 11
1512.9627762689468
 21
852.48403431448241
  0
LINE
  8
_0-0_計極細
  6
CONTINUOUS
 62
    2
 10
1503.4323282689454
 20
839.25954631448258
 11
1507.399672268946
 21
839.25954631448258
  0
LINE
  8
_0-0_計極細
  6
CONTINUOUS
 62
    2
 10
1510.2808722689458
 20
850.03505031448185
 11
1509.113960268947
 21
850.03505031448185
  0
LINE
  8
_0-0_計極細
  6
CONTINUOUS
 62
    2
 10
1507.399672268946
 20
837.98607431448181
 11
1507.399672268946
 21
848.32077031448171
  0
ARC
  8
_0-0_計極細
  6
CONTINUOUS
 62
    2
 10
1509.113960268947
 20
848.32077031448171
 40
1.714288
 50
89.999999999999915
 51
179.99999999999983
  0
ARC
  8
_0-0_計極細
  6
CONTINUOUS
 62
    2
 10
1512.9627762689468
 20
850.76974631448138
 40
1.714288
 50
89.999999999999915
 51
175.84901000001699
  0
ARC
  8
_0-0_計極細
  6
CONTINUOUS
 62
    2
 10
1510.2808722689458
 20
851.01464231448153
 40
0.979592
 50
269.99999999999977
 51
356.64911199995925
  0
LINE
  8
_0-0_計極細
  6
CONTINUOUS
 62
    2
 10
1513.0594642689482
 20
851.80517031448107
 11
1519.742536268948
 21
852.75704231448253
  0
ARC
  8
_0-0_計極細
  6
CONTINUOUS
 62
    2
 10
1512.9627762689468
 20
850.76974631448138
 40
1.0285679999999999
 50
89.999999999999915
 51
175.84901000002131
  0
ARC
  8
_0-0_計極細
  6
CONTINUOUS
 62
    2
 10
1510.2808722689458
 20
851.01464231448153
 40
1.6653040000000001
 50
269.99999999999977
 51
356.64911199998164
  0
LINE
  8
_0-0_計極細
  6
CONTINUOUS
 62
    2
 10
1510.2808722689458
 20
849.34933831448143
 11
1509.113960268947
 21
849.34933831448143
  0
ARC
  8
_0-0_計極細
  6
CONTINUOUS
 62
    2
 10
1509.113960268947
 20
848.32077031448171
 40
1.0285679999999999
 50
89.999999999999915
 51
179.99999999999983
  0
LINE
  8
_0-0_計極細
  6
CONTINUOUS
 62
    2
 10
1508.0853922689473
 20
837.30036231448139
 11
1508.0853922689473
 21
848.32077031448171
  0
LINE
  8
_0-0_計極細
  6
CONTINUOUS
 62
    2
 10
1512.9627762689468
 20
836.7899943144821
 11
1512.9627762689468
 21
851.79140231448218
  0
LINE
  8
_0-0_計極細
  6
CONTINUOUS
 62
    2
 10
1512.9627762689468
 20
836.7899943144821
 11
1511.5139602689467
 21
835.34117831448202
  0
LINE
  8
_0-0_計極細
  6
CONTINUOUS
 62
    2
 10
1506.1262082689479
 20
833.38199431448265
 11
1506.1262082689479
 21
839.25954631448258
  0
LINE
  8
_0-0_計極細
  6
CONTINUOUS
 62
    2
 10
1503.9221282689466
 20
835.43989831448198
 11
1503.9221282689466
 21
839.25954631448258
  0
LINE
  8
_0-0_計極細
  6
CONTINUOUS
 62
    2
 10
1506.1262082689479
 20
837.30036231448139
 11
1508.0853922689473
 21
837.30036231448139
  0
LINE
  8
_0-0_計極細
  6
CONTINUOUS
 62
    2
 10
1506.1262082689479
 20
837.98607431448181
 11
1507.399672268946
 21
837.98607431448181
  0
LINE
  8
_0-0_計極細
  6
CONTINUOUS
 62
    2
 10
1505.3129682689466
 20
833.38199431448265
 11
1506.1262082689479
 21
833.38199431448265
  0
LINE
  8
_0-0_計極細
  6
CONTINUOUS
 62
    2
 10
1506.1262082689479
 20
835.34117831448202
 11
1511.5139602689467
 21
835.34117831448202
  0
LINE
  8
_0-0_計極細
  6
CONTINUOUS
 62
    2
 10
1493.1821842689476
 20
833.67587431448192
 11
1498.080144268946
 21
833.67587431448192
  0
LINE
  8
_0-0_計極細
  6
CONTINUOUS
 62
    2
 10
1493.1821842689476
 20
833.67587431448192
 11
1493.1821842689476
 21
835.34117831448202
  0
LINE
  8
_0-0_計極細
  6
CONTINUOUS
 62
    2
 10
1498.080144268946
 20
833.67587431448192
 11
1498.080144268946
 21
835.34117831448202
  0
LINE
  8
_0-0_計極細
  6
CONTINUOUS
 62
    2
 10
1494.6515762689467
 20
833.67587431448192
 11
1494.6515762689467
 21
835.34117831448202
  0
LINE
  8
_0-0_計極細
  6
CONTINUOUS
 62
    2
 10
1507.399672268946
 20
850.03505031448185
 11
1509.3098802689472
 21
850.03505031448185
  0
LINE
  8
_0-0_計極細
  6
CONTINUOUS
 62
    2
 10
1507.399672268946
 20
847.09628231448187
 11
1507.399672268946
 21
850.03505031448185
  0
LINE
  8
_0-0_計極細
  6
CONTINUOUS
 62
    2
 10
1506.3221282689462
 20
846.60648231448249
 11
1506.3221282689462
 21
847.58607431448218
  0
ARC
  8
_0-0_計極細
  6
CONTINUOUS
 62
    2
 10
1506.9098802689457
 20
847.09628231448187
 40
0.489792
 50
269.99999999999977
 51
359.99999999999966
  0
LINE
  8
_0-0_計極細
  6
CONTINUOUS
 62
    2
 10
1464.1996722689471
 20
847.58607431448218
 11
1506.3221282689462
 21
847.58607431448218
  0
LINE
  8
_0-0_計極細
  6
CONTINUOUS
 62
    2
 10
1464.1996722689471
 20
846.60648231448249
 11
1506.9098802689457
 21
846.60648231448249
  0
LINE
  8
_0-0_計極細
  6
CONTINUOUS
 62
    2
 10
1464.0037602689461
 20
845.53491431448128
 11
1507.2527362689468
 21
845.53491431448128
  0
LINE
  8
_0-0_計極細
  6
CONTINUOUS
 62
    2
 10
1502.9425362689469
 20
845.53491431448128
 11
1502.9425362689469
 21
845.04512231448098
  0
LINE
  8
_0-0_計極細
  6
CONTINUOUS
 62
    2
 10
1506.4690642689472
 20
844.06553031448129
 11
1507.2527362689468
 21
845.53491431448128
  0
LINE
  8
_0-0_計極細
  6
CONTINUOUS
 62
    2
 10
1502.4527362689457
 20
842.30226631448204
 11
1502.9425362689469
 21
842.79205831448235
  0
LINE
  8
_0-0_計極細
  6
CONTINUOUS
 62
    2
 10
1502.9425362689469
 20
841.81246631448084
 11
1502.4527362689457
 21
842.30226631448204
  0
LINE
  8
_0-0_計極細
  6
CONTINUOUS
 62
    2
 10
1502.9425362689469
 20
844.06553031448129
 11
1502.4527362689457
 21
844.5553223144816
  0
LINE
  8
_0-0_計極細
  6
CONTINUOUS
 62
    2
 10
1502.4527362689457
 20
844.5553223144816
 11
1502.9425362689469
 21
845.04512231448098
  0
LINE
  8
_0-0_計極細
  6
CONTINUOUS
 62
    2
 10
1464.0037602689461
 20
844.5553223144816
 11
1502.4527362689457
 21
844.5553223144816
  0
LINE
  8
_0-0_計極細
  6
CONTINUOUS
 62
    2
 10
1464.0037602689461
 20
842.30226631448204
 11
1502.4527362689457
 21
842.30226631448204
  0
LINE
  8
_0-0_計極細
  6
CONTINUOUS
 62
    2
 10
1464.0037602689461
 20
841.32267431448236
 11
1506.4690642689472
 21
841.32267431448236
  0
LINE
  8
_0-0_計極細
  6
CONTINUOUS
 62
    2
 10
1506.4690642689472
 20
844.06553031448129
 11
1506.4690642689472
 21
841.32267431448236
  0
LINE
  8
_0-0_計極細
  6
CONTINUOUS
 62
    2
 10
1502.9425362689469
 20
841.81246631448084
 11
1502.9425362689469
 21
841.32267431448236
  0
LINE
  8
_0-0_計極細
  6
CONTINUOUS
 62
    2
 10
1502.9425362689469
 20
844.06553031448129
 11
1502.9425362689469
 21
842.79205831448235
  0
ARC
  8
_0-0_計極細
  6
CONTINUOUS
 62
    2
 10
1496.3302882689475
 20
832.86773031448138
 40
5.8775519999999997
 50
55.166294000021374
 51
179.99999999999983
  0
ARC
  8
_0-0_計極細
  6
CONTINUOUS
 62
    2
 10
1497.7996722689475
 20
835.43989831448198
 40
2.9387759999999998
 50
0
 51
50.029503000032648
  0
LINE
  8
_0-0_計極細
  6
CONTINUOUS
 62
    2
 10
1500.7384482689465
 20
832.50112231448111
 11
1500.7384482689465
 21
835.43989831448198
  0
LINE
  8
_0-0_計極細
  6
CONTINUOUS
 62
    2
 10
1503.6772242689456
 20
832.50112231448111
 11
1500.7384482689465
 21
832.50112231448111
  0
ARC
  8
_0-0_計極細
  6
CONTINUOUS
 62
    2
 10
1503.6772242689456
 20
834.4603063144823
 40
1.959184
 50
269.99999999999977
 51
359.99999999999966
  0
LINE
  8
_0-0_計極細
  6
CONTINUOUS
 62
    2
 10
1505.6364082689468
 20
834.4603063144823
 11
1505.6364082689468
 21
835.43989831448198
  0
LINE
  8
_0-0_計極細
  6
CONTINUOUS
 62
    2
 10
1505.6364082689468
 20
835.43989831448198
 11
1503.4323282689454
 21
835.43989831448198
  0
LINE
  8
_0-0_計極細
  6
CONTINUOUS
 62
    2
 10
1506.6160002689464
 20
839.75010631448095
 11
1464.0037602689461
 21
839.75010631448095
  0
LINE
  8
_0-0_計極細
  6
CONTINUOUS
 62
    2
 10
1506.6160002689464
 20
839.75010631448095
 11
1506.6160002689464
 21
841.21949031448094
  0
LINE
  8
_0-0_計極細
  6
CONTINUOUS
 62
    2
 10
1506.6160002689464
 20
841.21949031448094
 11
1464.0037602689461
 21
841.21949031448094
  0
LINE
  8
_0-0_計極細
  6
CONTINUOUS
 62
    2
 10
1506.6160002689464
 20
845.72561031448095
 11
1464.0037602689461
 21
845.72561031448095
  0
LINE
  8
_0-0_計極細
  6
CONTINUOUS
 62
    2
 10
1506.6160002689464
 20
845.72561031448095
 11
1506.6160002689464
 21
846.60648231448249
  0
LINE
  8
_0-0_計極細
  6
CONTINUOUS
 62
    2
 10
1503.4323282689454
 20
835.43989831448198
 11
1503.4323282689454
 21
839.75010631448095
  0
LINE
  8
_0-0_計極細
  6
CONTINUOUS
 62
    2
 10
1490.4527362689457
 20
832.49344231448231
 11
1511.5139602689467
 21
832.49344231448231
  0
LINE
  8
_0-0_計極細
  6
CONTINUOUS
 62
    2
 10
1490.4527362689457
 20
831.70977031448092
 11
1512.9627762689468
 21
831.70977031448092
  0
LINE
  8
_0-0_計極細
  6
CONTINUOUS
 62
    2
 10
1464.0037602689461
 20
853.4636263144821
 11
1519.742536268948
 21
853.4636263144821
  0
LINE
  8
_0-1_計細線
  6
CONTINUOUS
 62
    3
 10
1519.742536268948
 20
837.39140231448255
 11
1519.742536268948
 21
853.4636263144821
  0
LINE
  8
_0-0_計極細
  6
CONTINUOUS
 62
    2
 10
1512.9627762689468
 20
852.48403431448241
 11
1519.742536268948
 21
853.44967501852989
  0
LINE
  8
_0-0_計極細
  6
CONTINUOUS
 62
    2
 10
1502.4527362689457
 20
768.87019431448061
 11
1502.4527362689457
 21
795.31917031448029
  0
LINE
  8
_0-0_計極細
  6
CONTINUOUS
 62
    2
 10
1490.6976322689459
 20
757.11509031448077
 11
1488.4935522689464
 21
757.11509031448077
  0
ARC
  8
_0-0_計極細
  6
CONTINUOUS
 62
    2
 10
1490.6976322689459
 20
768.87019431448061
 40
11.755103999999999
 50
269.99999999999977
 51
359.99999999999966
  0
LINE
  8
_0-0_計極細
  6
CONTINUOUS
 62
    2
 10
1511.0241682689464
 20
802.24261031448077
 11
1511.0241682689464
 21
831.70977031448092
  0
LINE
  8
_0-0_計極細
  6
CONTINUOUS
 62
    2
 10
1464.0037602689461
 20
757.11509031448077
 11
1490.6976322689459
 21
757.11509031448077
  0
LINE
  8
_0-0_計極細
  6
CONTINUOUS
 62
    2
 10
1502.4527362689457
 20
768.87019431448061
 11
1502.4527362689457
 21
825.63629831448088
  0
LINE
  8
_0-0_計極細
  6
CONTINUOUS
 62
    2
 10
1500.4935522689464
 20
768.87019431448061
 11
1500.4935522689464
 21
825.63629831448088
  0
LINE
  8
_0-0_計極細
  6
CONTINUOUS
 62
    2
 10
1464.0037602689461
 20
759.07427431448014
 11
1490.6976322689459
 21
759.07427431448014
  0
ARC
  8
_0-0_計極細
  6
CONTINUOUS
 62
    2
 10
1490.6976322689459
 20
768.87019431448061
 40
9.7959199999999989
 50
269.99999999999977
 51
359.99999999999966
  0
LINE
  8
_0-0_計極細
  6
CONTINUOUS
 62
    2
 10
1489.473144268946
 20
775.93093831448095
 11
1464.0037602689461
 21
775.93093831448095
  0
ARC
  8
_0-0_計極細
  6
CONTINUOUS
 62
    2
 10
1489.473144268946
 20
776.91053031448064
 40
0.979592
 50
269.99999999999977
 51
359.99999999999966
  0
LINE
  8
_0-0_計極細
  6
CONTINUOUS
 62
    2
 10
1490.4527362689457
 20
776.91053031448064
 11
1490.4527362689457
 21
832.86773031448138
  0
LINE
  8
_0-0_計極細
  6
CONTINUOUS
 62
    2
 10
1488.4935442689473
 20
776.91053031448064
 11
1488.4935442689473
 21
831.70977031448092
  0
ARC
  8
_0-0_計極細
  6
CONTINUOUS
 62
    2
 10
1489.473136268947
 20
776.91053031448064
 40
0.979592
 50
179.99999999999983
 51
269.99999999999977
  0
LINE
  8
_0-0_計極細
  6
CONTINUOUS
 62
    2
 10
1511.0965442689464
 20
802.24261031448077
 11
1505.4638882689467
 21
802.24261031448077
  0
ARC
  8
_0-0_計極細
  6
CONTINUOUS
 62
    2
 10
1505.4638882689467
 20
799.3038343144799
 40
2.9387759999999998
 50
89.999999999999915
 51
179.99999999999983
  0
LINE
  8
_0-0_計極細
  6
CONTINUOUS
 62
    2
 10
1490.4444402689458
 20
776.78340231448055
 11
1490.4444562689475
 21
776.78341031448144
  0
LINE
  8
_0-0_計極細
  6
CENTER1
 62
    2
 10
1439.662941110282
 20
765.53425831448112
 11
1570.0143485176866
 21
765.53425831448112
  0
LINE
  8
_0-1_計細線
  6
CONTINUOUS
 62
    3
 10
1422.534368268947
 20
736.4636263144821
 11
1515.534368268947
 21
736.4636263144821
  0
LINE
  8
_0-1_計細線
  6
CONTINUOUS
 62
    3
 10
1414.534368268947
 20
744.4636263144821
 11
1414.534368268947
 21
825.31290631448246
  0
ARC
  8
_0-1_計細線
  6
CONTINUOUS
 62
    3
 10
1422.534368268947
 20
744.4636263144821
 40
8
 50
179.99999999999983
 51
269.99999999999977
  0
LINE
  8
_0-1_計細線
  6
CONTINUOUS
 62
    3
 10
1515.534368268947
 20
736.4636263144821
 11
1551.0037602689461
 21
738.03425831448112
  0
LINE
  8
_0-0_計極細
  6
CONTINUOUS
 62
    2
 10
1502.5251122689458
 20
792.26984602759694
 11
1551.0037602689461
 21
791.07448347078753
  0
LINE
  8
_0-1_計細線
  6
CONTINUOUS
 62
    3
 10
1551.0037602689461
 20
738.03425831448112
 11
1551.0037602689461
 21
793.03425831448112
  0
LINE
  8
_0-1_計細線
  6
CONTINUOUS
 62
    3
 10
1513.473144268946
 20
793.95967002759789
 11
1551.0037602689461
 21
793.03425831448112
  0
LINE
  8
_0-1_計細線
  6
CONTINUOUS
 62
    3
 10
1513.473144268946
 20
793.95967002759789
 11
1513.473144268946
 21
825.31290631448246
  0
LINE
  8
_0-0_計極細
  6
CONTINUOUS
 62
    2
 10
1513.8621465337799
 20
738.42362631448304
 11
1551.0037602689461
 21
739.99617901848069
  0
LINE
  8
_0-1_計細線
  6
CONTINUOUS
 62
    3
 10
1408.2649842689459
 20
847.18731431448214
 11
1408.2649842689459
 21
850.53425831448044
  0
LINE
  8
_0-7_枠細線
  6
CONTINUOUS
 62
    5
 10
2159.4889908596556
 20
528.51085913780207
 11
2159.4889908596556
 21
360.51085913780253
  0
TEXT
  8
_0-7_枠細線
 62
    5
 10
2013.888990859657
 20
496.51085913780207
 40
24.000000000000004
 41
0.8
 50
0
  1
ノンスリップ
  0
LINE
  8
_0-7_枠細線
  6
CONTINUOUS
 62
    5
 10
1999.3733242001995
 20
412.11529377818852
 11
2151.1821028516861
 21
412.11529377818852
  0
LINE
  8
_0-7_枠細線
  6
CONTINUOUS
 62
    5
 10
1993.3970148674625
 20
438.78196044218885
 11
2145.2057935189496
 21
438.78196044218885
  0
ARC
  8
_0-7_枠細線
  6
CONTINUOUS
 62
    5
 10
2016.8223241984542
 20
420.11529377738862
 40
5.3333333327999997
 50
51.31781299999917
 51
203.57817800000373
  0
ARC
  8
_0-7_枠細線
  6
CONTINUOUS
 62
    5
 10
2023.4889908644545
 20
428.44195777655614
 40
5.3333333327999997
 50
231.31781300000563
 51
308.68218699999358
  0
LINE
  8
_0-7_枠細線
  6
CONTINUOUS
 62
    5
 10
2011.9342441989443
 20
417.98196044426868
 11
2035.0437375299653
 21
417.98196044426868
  0
ARC
  8
_0-7_枠細線
  6
CONTINUOUS
 62
    5
 10
2030.1556575304548
 20
420.11529377738862
 40
5.3333333327999997
 50
336.42182199999354
 51
128.68218700000429
  0
ARC
  8
_0-7_枠細線
  6
CONTINUOUS
 62
    5
 10
2064.8223241936553
 20
430.78196044298875
 40
5.3333333327999997
 50
156.42182200000036
 51
308.68218699998977
  0
ARC
  8
_0-7_枠細線
  6
CONTINUOUS
 62
    5
 10
2071.4889908596542
 20
422.45529644382123
 40
5.3333333327999997
 50
51.31781299999917
 51
128.68218699999704
  0
ARC
  8
_0-7_枠細線
  6
CONTINUOUS
 62
    5
 10
2078.1556575256554
 20
430.78196044298875
 40
5.3333333327999997
 50
231.31781299999807
 51
23.578178000003184
  0
LINE
  8
_0-7_枠細線
  6
CONTINUOUS
 62
    5
 10
2059.9342441941444
 20
432.91529377610868
 11
2083.0437375251654
 21
432.91529377610868
  0
LINE
  8
_0-7_枠細線
  6
CONTINUOUS
 62
    5
 10
2107.9342441893441
 20
417.98196044426868
 11
2131.0437375203655
 21
417.98196044426868
  0
ARC
  8
_0-7_枠細線
  6
CONTINUOUS
 62
    5
 10
2112.8223241888545
 20
420.11529377738862
 40
5.3333333327999997
 50
51.317813000002985
 51
203.57817800000373
  0
ARC
  8
_0-7_枠細線
  6
CONTINUOUS
 62
    5
 10
2119.4889908548548
 20
428.44195777655614
 40
5.3333333327999997
 50
231.31781300000188
 51
308.68218699999358
  0
ARC
  8
_0-7_枠細線
  6
CONTINUOUS
 62
    5
 10
2126.1556575208542
 20
420.11529377738862
 40
5.3333333327999997
 50
336.42182199999553
 51
128.68218699999667
  0
ARC
  8
_0-7_枠細線
  6
CONTINUOUS
 62
    5
 10
2064.8223241936553
 20
430.78196044298875
 40
9.9466666656720477
 50
151.14636799999636
 51
308.6821870000029
  0
LINE
  8
_0-7_枠細線
  6
CONTINUOUS
 62
    5
 10
1992.8109828675224
 20
435.58196044250872
 11
2056.1104841945248
 21
435.58196044250872
  0
LINE
  8
_0-7_枠細線
  6
CONTINUOUS
 62
    5
 10
2038.8675001962492
 20
415.31529377786865
 11
2104.1104841897268
 21
415.31529377786865
  0
ARC
  8
_0-7_枠細線
  6
CONTINUOUS
 62
    5
 10
1986.2416282015129
 20
416.17383511111575
 40
13.744570665292123
 50
317.56162900000112
 51
42.438371000002093
  0
ARC
  8
_0-7_枠細線
  6
CONTINUOUS
 62
    5
 10
2016.8223241984542
 20
420.11529377738862
 40
9.9466666656720477
 50
51.317812999990608
 51
208.8536319999987
  0
ARC
  8
_0-7_枠細線
  6
CONTINUOUS
 62
    5
 10
2006.5287135328163
 20
434.72341910926116
 40
13.744570665292123
 50
137.56162899999757
 51
222.43837100000209
  0
LINE
  8
_0-7_枠細線
  6
CONTINUOUS
 62
    5
 10
1999.9593588668076
 20
415.31529377786865
 11
2008.1104841993247
 21
415.31529377786865
  0
ARC
  8
_0-7_枠細線
  6
CONTINUOUS
 62
    5
 10
2023.4889908644545
 20
428.44195777655614
 40
0.7199999999279512
 50
231.31781300003806
 51
308.68218699996123
  0
ARC
  8
_0-7_枠細線
  6
CONTINUOUS
 62
    5
 10
2030.1556575304548
 20
420.11529377738862
 40
9.9466666656720477
 50
331.14636800000056
 51
128.68218700000494
  0
ARC
  8
_0-7_枠細線
  6
CONTINUOUS
 62
    5
 10
2138.0504068530004
 20
416.17383511111575
 40
13.744570665292123
 50
317.56162899999731
 51
42.438371000003364
  0
ARC
  8
_0-7_枠細線
  6
CONTINUOUS
 62
    5
 10
2158.3374921843047
 20
434.72341910926116
 40
13.744570665292123
 50
137.56162900000393
 51
222.43837099999826
  0
LINE
  8
_0-7_枠細線
  6
CONTINUOUS
 62
    5
 10
2134.8675001866495
 20
415.31529377786865
 11
2151.7681375182947
 21
415.31529377786865
  0
LINE
  8
_0-7_枠細線
  6
CONTINUOUS
 62
    5
 10
2086.8675001914503
 20
435.58196044250872
 11
2144.6197615190094
 21
435.58196044250872
  0
ARC
  8
_0-7_枠細線
  6
CONTINUOUS
 62
    5
 10
2112.8223241888545
 20
420.11529377738862
 40
9.9466666656720477
 50
51.317812999990608
 51
208.85363200000583
  0
ARC
  8
_0-7_枠細線
  6
CONTINUOUS
 62
    5
 10
2071.4889908596542
 20
422.45529644382123
 40
0.7199999999279512
 50
51.317812999959308
 51
128.6821869999842
  0
ARC
  8
_0-7_枠細線
  6
CONTINUOUS
 62
    5
 10
2078.1556575256554
 20
430.78196044298875
 40
9.9466666656720477
 50
231.31781299998616
 51
28.853631999996409
  0
ARC
  8
_0-7_枠細線
  6
CONTINUOUS
 62
    5
 10
2119.4889908548548
 20
428.44195777655614
 40
0.7199999999279512
 50
231.31781299998158
 51
308.68218699996123
  0
ARC
  8
_0-7_枠細線
  6
CONTINUOUS
 62
    5
 10
2126.1556575208542
 20
420.11529377738862
 40
9.9466666656720477
 50
331.14636800000056
 51
128.6821870000029
  0
LINE
  8
_0-7_枠細線
  6
CENTER1
 62
    5
 10
2023.4889908644545
 20
441.02162177529772
 11
2023.4889908644545
 21
410.06458444506052
  0
LINE
  8
_0-7_枠細線
  6
CENTER1
 62
    5
 10
2119.4889908548548
 20
441.02162177529772
 11
2119.4889908548548
 21
410.06458444506052
  0
LINE
  8
_0-7_枠細線
  6
CENTER1
 62
    5
 10
2071.4889908596542
 20
441.02162177529772
 11
2071.4889908596542
 21
410.06458444506052
  0
LINE
  8
_0-7_枠細線
  6
CONTINUOUS
 62
    5
 10
2023.4889908644545
 20
404.11529377818852
 11
2023.4889908644545
 21
364.11529377818852
  0
LINE
  8
_0-7_枠細線
  6
CONTINUOUS
 62
    5
 10
2023.4889908644545
 20
372.11529377818852
 11
2038.9438040850796
 21
376.25639849982883
  0
LINE
  8
_0-7_枠細線
  6
CONTINUOUS
 62
    5
 10
2023.4889908644545
 20
372.11529377818852
 11
2038.9438040850796
 21
367.9741890565482
  0
LINE
  8
_0-7_枠細線
  6
CONTINUOUS
 62
    5
 10
2071.4889908596542
 20
404.11529377818852
 11
2071.4889908596542
 21
364.11529377818852
  0
LINE
  8
_0-7_枠細線
  6
CONTINUOUS
 62
    5
 10
2071.4889908596542
 20
372.11529377818852
 11
2056.0341776390292
 21
367.97418905654825
  0
LINE
  8
_0-7_枠細線
  6
CONTINUOUS
 62
    5
 10
2071.4889908596542
 20
372.11529377818852
 11
2056.0341776390292
 21
376.25639849982889
  0
LINE
  8
_0-7_枠細線
  6
CONTINUOUS
 62
    5
 10
2023.4889908644545
 20
372.11529377818852
 11
2071.4889908596542
 21
372.11529377818852
  0
TEXT
  8
_0-7_枠細線
 62
    5
 10
2035.4889908620548
 20
372.11529377818852
 40
24
 41
1
 50
0
  1
18
  0
LINE
  8
_0-7_枠細線
  6
CONTINUOUS
 62
    5
 10
2071.4889908596542
 20
372.11529377818852
 11
2086.9438040802793
 21
376.25639849982872
  0
LINE
  8
_0-7_枠細線
  6
CONTINUOUS
 62
    5
 10
2071.4889908596542
 20
372.11529377818852
 11
2086.9438040802793
 21
367.97418905654808
  0
LINE
  8
_0-7_枠細線
  6
CONTINUOUS
 62
    5
 10
2119.4889908548548
 20
404.11529377818852
 11
2119.4889908548548
 21
364.11529377818852
  0
LINE
  8
_0-7_枠細線
  6
CONTINUOUS
 62
    5
 10
2119.4889908548548
 20
372.11529377818852
 11
2104.0341776342298
 21
367.97418905654825
  0
LINE
  8
_0-7_枠細線
  6
CONTINUOUS
 62
    5
 10
2119.4889908548548
 20
372.11529377818852
 11
2104.0341776342298
 21
376.25639849982889
  0
LINE
  8
_0-7_枠細線
  6
CONTINUOUS
 62
    5
 10
2071.4889908596542
 20
372.11529377818852
 11
2119.4889908548548
 21
372.11529377818852
  0
TEXT
  8
_0-7_枠細線
 62
    5
 10
2083.488990857255
 20
372.11529377818852
 40
24
 41
1
 50
0
  1
18
  0
TEXT
  8
_0-7_枠細線
 62
    5
 10
2033.088990859656
 20
456.51085913780253
 40
24.000000000000004
 41
0.7999999999999997
 50
0
  1
品番－Ｄ
  0
LINE
  8
_0-7_枠細線
  6
CONTINUOUS
 62
    5
 10
1983.4889908596551
 20
528.51085913780207
 11
1983.4889908596551
 21
360.51085913780253
  0
TEXT
  8
_0-7_枠細線
 62
    5
 10
1857.0889908596546
 20
496.51085913780253
 40
24.000000000000004
 41
0.8
 50
0
  1
プレーン
  0
LINE
  8
_0-7_枠細線
  6
CONTINUOUS
 62
    5
 10
1822.5727548669456
 20
412.11529377818852
 11
1974.3815335184327
 21
412.11529377818852
  0
LINE
  8
_0-7_枠細線
  6
CONTINUOUS
 62
    5
 10
1816.5964455342094
 20
438.78196044218885
 11
1968.4052241856971
 21
438.78196044218885
  0
ARC
  8
_0-7_枠細線
  6
CONTINUOUS
 62
    5
 10
1961.2498375197447
 20
416.17383511111575
 40
13.744570665292123
 50
317.56162900000527
 51
42.43837099999547
  0
ARC
  8
_0-7_枠細線
  6
CONTINUOUS
 62
    5
 10
1809.4410588682599
 20
416.17383511111575
 40
13.744570665292276
 50
317.56162899999987
 51
42.438371000002242
  0
LINE
  8
_0-7_枠細線
  6
CONTINUOUS
 62
    5
 10
1816.010413534269
 20
435.58196044250872
 11
1967.819192185756
 21
435.58196044250872
  0
LINE
  8
_0-7_枠細線
  6
CONTINUOUS
 62
    5
 10
1823.1587895335542
 20
415.31529377786865
 11
1974.9675681850404
 21
415.31529377786865
  0
ARC
  8
_0-7_枠細線
  6
CONTINUOUS
 62
    5
 10
1829.7281441995656
 20
434.72341910926116
 40
13.744570665292276
 50
137.56162899999882
 51
222.43837100000209
  0
ARC
  8
_0-7_枠細線
  6
CONTINUOUS
 62
    5
 10
1981.5369228510508
 20
434.72341910926116
 40
13.744570665292123
 50
137.5616290000001
 51
222.43837099999953
  0
TEXT
  8
_0-7_枠細線
 62
    5
 10
1857.0889908596564
 20
456.51085913780253
 40
24.000000000000004
 41
0.7999999999999997
 50
0
  1
品番－Ｆ
  0
TEXT
  8
_0-7_枠細線
 62
    5
 10
1729.0889908596553
 20
496.51085913780207
 40
24.000000000000004
 41
0.8
 50
0
  1
タ イ プ
  0
LINE
  8
_0-7_枠細線
  6
CONTINUOUS
 62
    5
 10
1727.4889908596545
 20
448.51085913780253
 11
2159.4889908596556
 21
448.51085913780253
  0
LINE
  8
_0-7_枠細線
  6
CONTINUOUS
 62
    5
 10
1727.4889908596545
 20
488.51085913780207
 11
2159.4889908596556
 21
488.51085913780207
  0
LINE
  8
_0-7_枠細線
  6
CONTINUOUS
 62
    5
 10
1727.4889908596545
 20
528.51085913780207
 11
2159.4889908596556
 21
528.51085913780207
  0
LINE
  8
_0-7_枠細線
  6
CONTINUOUS
 62
    5
 10
1727.4889908596545
 20
360.51085913780253
 11
2159.4889908596556
 21
360.51085913780253
  0
LINE
  8
_0-7_枠細線
  6
CONTINUOUS
 62
    5
 10
1807.4889908596556
 20
528.51085913780207
 11
1807.4889908596556
 21
360.51085913780253
  0
LINE
  8
_0-7_枠細線
  6
CONTINUOUS
 62
    5
 10
1727.4889908596545
 20
528.51085913780207
 11
1727.4889908596545
 21
360.51085913780253
  0
TEXT
  8
_0-7_枠細線
 62
    5
 10
1729.0889908596553
 20
392.51085913780253
 40
24.000000000000004
 41
0.8
 50
0
  1
表面形状
  0
TEXT
  8
_0-7_枠細線
 62
    5
 10
1729.0889908596553
 20
456.51085913780253
 40
24.000000000000004
 41
0.8
 50
0
  1
記　　号
  0
TEXT
  8
_0-7_枠細線
 62
    5
 10
1729.9838721045735
 20
532.51085913780253
 40
28.000000000000007
 41
0.7999999999999996
 50
0
  1
記号表
  0
ARC
  8
_0-e_極細4
  6
CONTINUOUS
 62
    6
 10
343.1784471714459
 20
600.08487019682684
 40
1
 50
179.99999999999983
 51
269.99999999999977
  0
LINE
  8
_0-e_極細4
  6
CONTINUOUS
 62
    6
 10
344.37844717144571
 20
599.08487019682684
 11
344.37844717144571
 21
601.08487019682684
  0
ARC
  8
_0-e_極細4
  6
CONTINUOUS
 62
    6
 10
518.37844717144571
 20
600.08487019682684
 40
1
 50
269.99999999999977
 51
359.99999999999966
  0
LINE
  8
_0-e_極細4
  6
CONTINUOUS
 62
    6
 10
517.1784471714459
 20
599.08487019682684
 11
517.1784471714459
 21
601.08487019682684
  0
LINE
  8
_0-e_極細4
  6
CONTINUOUS
 62
    6
 10
376.77844717144626
 20
453.08639475681929
 11
376.77844717144626
 21
571.03492019682676
  0
ARC
  8
_0-e_極細4
  6
CONTINUOUS
 62
    6
 10
378.77844717144535
 20
453.08639475681929
 40
2
 50
179.99999999999983
 51
270.00045836623457
  0
LINE
  8
_0-e_極細4
  6
CONTINUOUS
 62
    6
 10
378.77844717144535
 20
451.08639475681929
 11
430.77844717144626
 21
451.08639475681929
  0
LINE
  8
_0-e_極細4
  6
CONTINUOUS
 62
    6
 10
352.27844717144626
 20
440.67070875681947
 11
352.27844717144626
 21
494.67070875681958
  0
LINE
  8
_0-e_極細4
  6
CONTINUOUS
 62
    6
 10
376.27844717144626
 20
416.67070875681947
 11
380.77844717144626
 21
416.67070875681947
  0
ARC
  8
_0-e_極細4
  6
CONTINUOUS
 62
    6
 10
376.27844717144626
 20
440.67070875681947
 40
24
 50
179.99999999999983
 51
269.99999999999977
  0
LINE
  8
_0-e_極細4
  6
CONTINUOUS
 62
    6
 10
334.77844717144626
 20
514.51384275681926
 11
334.77844717144626
 21
568.67074219682695
  0
LINE
  8
_0-e_極細4
  6
CONTINUOUS
 62
    6
 10
430.77844717144626
 20
416.67070875681947
 11
428.9163791714459
 21
416.67070875681947
  0
LINE
  8
_0-e_極細4
  6
CONTINUOUS
 62
    6
 10
428.9163791714459
 20
416.67070875681947
 11
376.27844717144626
 21
416.67070875681947
  0
LINE
  8
_0-e_極細4
  6
CONTINUOUS
 62
    6
 10
352.27844717144626
 20
440.67070875681947
 11
352.27844717144626
 21
556.27074219682686
  0
LINE
  8
_0-e_極細4
  6
CONTINUOUS
 62
    6
 10
356.27844717144626
 20
440.67070875681947
 11
356.27844717144626
 21
556.27074219682686
  0
LINE
  8
_0-e_極細4
  6
CONTINUOUS
 62
    6
 10
430.77844717144626
 20
420.67070875681947
 11
376.27844717144626
 21
420.67070875681947
  0
ARC
  8
_0-e_極細4
  6
CONTINUOUS
 62
    6
 10
376.27844717144626
 20
440.67070875681947
 40
20
 50
179.99999999999983
 51
269.99999999999977
  0
LINE
  8
_0-e_極細4
  6
CONTINUOUS
 62
    6
 10
350.27844717144535
 20
585.08642819682677
 11
430.77844717144626
 21
585.08642819682677
  0
LINE
  8
_0-e_極細4
  6
CONTINUOUS
 62
    6
 10
350.27844717144535
 20
576.28642819682705
 11
350.27844717144535
 21
585.08642819682677
  0
LINE
  8
_0-e_極細4
  6
CONTINUOUS
 62
    6
 10
343.77844717144626
 20
585.08642819682677
 11
350.27844717144535
 21
585.08642819682677
  0
LINE
  8
_0-e_極細4
  6
CONTINUOUS
 62
    6
 10
345.77844717144626
 20
576.28642819682705
 11
350.27844717144535
 21
576.28642819682705
  0
LINE
  8
_0-e_極細4
  6
CONTINUOUS
 62
    6
 10
345.77844717144626
 20
574.28642819682705
 11
345.77844717144626
 21
576.28642819682705
  0
ARC
  8
_0-e_極細4
  6
CONTINUOUS
 62
    6
 10
349.77844717144626
 20
574.28642819682705
 40
4
 50
179.99999999999983
 51
269.99999999999977
  0
LINE
  8
_0-e_極細4
  6
CONTINUOUS
 62
    6
 10
349.77844717144626
 20
570.28642819682705
 11
355.77844717144626
 21
570.28642819682705
  0
ARC
  8
_0-e_極細4
  6
CONTINUOUS
 62
    6
 10
330.82044717144572
 20
607.58487019682684
 40
2.1000000000000227
 50
4.1509900000016975
 51
89.999999999999915
  0
LINE
  8
_0-e_極細4
  6
CONTINUOUS
 62
    6
 10
330.82044717144572
 20
579.04287019682693
 11
330.82044717144572
 21
609.68487019682675
  0
LINE
  8
_0-e_極細4
  6
CONTINUOUS
 62
    6
 10
330.82044717144572
 20
609.67074110432509
 11
316.97844717144608
 21
611.64225619682679
  0
LINE
  8
_0-e_極細4
  6
CONTINUOUS
 62
    6
 10
324.77844717144626
 20
564.2707421968264
 11
324.77844717144626
 21
580.27074219682686
  0
ARC
  8
_0-e_極細4
  6
CONTINUOUS
 62
    6
 10
319.77844717144626
 20
555.61048819682696
 40
10
 50
0
 51
60.000000000000107
  0
LINE
  8
_0-e_極細4
  6
CONTINUOUS
 62
    6
 10
316.97844717144608
 20
580.27074219682686
 11
316.97844717144608
 21
581.38122419682691
  0
LINE
  8
_0-e_極細4
  6
CONTINUOUS
 62
    6
 10
324.77844717144626
 20
580.27074219682686
 11
316.97844717144608
 21
580.27074219682686
  0
LINE
  8
_0-e_極細4
  6
CONTINUOUS
 62
    6
 10
316.97844717144608
 20
581.38122419682691
 11
316.97844717144608
 21
613.02789819682698
  0
LINE
  8
_0-e_極細4
  6
CONTINUOUS
 62
    6
 10
333.77844717144626
 20
570.2707421968264
 11
333.77844717144626
 21
576.08487019682639
  0
LINE
  8
_0-e_極細4
  6
CONTINUOUS
 62
    6
 10
330.82044717144572
 20
568.67074219682695
 11
333.77844717144626
 21
570.2707421968264
  0
LINE
  8
_0-e_極細4
  6
CONTINUOUS
 62
    6
 10
316.97844717144608
 20
608.27074219682686
 11
330.82044717144572
 21
606.67074219682695
  0
ARC
  8
_0-e_極細4
  6
CONTINUOUS
 62
    6
 10
354.27844717144626
 20
556.27074219682686
 40
2
 50
89.999999999999915
 51
179.99999999999983
  0
ARC
  8
_0-e_極細4
  6
CONTINUOUS
 62
    6
 10
354.27844717144626
 20
556.27074219682686
 40
2
 50
0
 51
89.999999999999915
  0
LINE
  8
_0-e_極細4
  6
CONTINUOUS
 62
    6
 10
430.77844717144535
 20
611.08487019682684
 11
330.82044717144572
 21
611.08487019682684
  0
LINE
  8
_0-e_極細4
  6
CONTINUOUS
 62
    6
 10
350.27844717144535
 20
584.08487019682684
 11
342.1784471714459
 21
584.08487019682684
  0
LINE
  8
_0-e_極細4
  6
CONTINUOUS
 62
    6
 10
336.2959991714456
 20
606.08487019682684
 11
338.6784471714459
 21
606.08487019682684
  0
LINE
  8
_0-e_極細4
  6
CONTINUOUS
 62
    6
 10
342.1784471714459
 20
581.48487019682693
 11
342.1784471714459
 21
602.58487019682684
  0
LINE
  8
_0-e_極細4
  6
CONTINUOUS
 62
    6
 10
337.77844717144535
 20
606.08487019682684
 11
337.77844717144535
 21
611.08487019682684
  0
ARC
  8
_0-e_極細4
  6
CONTINUOUS
 62
    6
 10
338.6784471714459
 20
602.58487019682684
 40
3.4999999999999987
 50
0
 51
89.999999999999915
  0
ARC
  8
_0-e_極細4
  6
CONTINUOUS
 62
    6
 10
330.82044717144572
 20
607.58487019682684
 40
3.4999999999999987
 50
4.1509899999967477
 51
89.999999999999915
  0
ARC
  8
_0-e_極細4
  6
CONTINUOUS
 62
    6
 10
336.2959991714456
 20
608.08487019682684
 40
2
 50
183.35088799999644
 51
269.99999999999977
  0
ARC
  8
_0-e_極細4
  6
CONTINUOUS
 62
    6
 10
336.2959991714456
 20
608.08487019682684
 40
3.3999999999999773
 50
183.35088800000065
 51
269.99999999999977
  0
LINE
  8
_0-e_極細4
  6
CONTINUOUS
 62
    6
 10
336.2959991714456
 20
604.68487019682675
 11
338.6784471714459
 21
604.68487019682675
  0
ARC
  8
_0-e_極細4
  6
CONTINUOUS
 62
    6
 10
338.6784471714459
 20
602.58487019682684
 40
2.1000000000000227
 50
0
 51
89.999999999999915
  0
LINE
  8
_0-e_極細4
  6
CONTINUOUS
 62
    6
 10
340.77844717144626
 20
580.08487019682684
 11
340.77844717144535
 21
602.58487019682684
  0
LINE
  8
_0-e_極細4
  6
CONTINUOUS
 62
    6
 10
330.82044717144572
 20
579.04287019682693
 11
333.77844717144626
 21
576.08487019682639
  0
LINE
  8
_0-e_極細4
  6
CONTINUOUS
 62
    6
 10
344.77844717144626
 20
572.08487019682684
 11
344.77844717144626
 21
584.08487019682684
  0
LINE
  8
_0-e_極細4
  6
CONTINUOUS
 62
    6
 10
344.77844717144626
 20
580.08487019682684
 11
340.77844717144626
 21
580.08487019682684
  0
LINE
  8
_0-e_極細4
  6
CONTINUOUS
 62
    6
 10
344.77844717144626
 20
581.48487019682693
 11
342.1784471714459
 21
581.48487019682693
  0
LINE
  8
_0-e_極細4
  6
CONTINUOUS
 62
    6
 10
346.43881517144609
 20
572.08487019682684
 11
344.77844717144626
 21
572.08487019682684
  0
LINE
  8
_0-e_極細4
  6
CONTINUOUS
 62
    6
 10
344.77844717144626
 20
576.08487019682639
 11
333.77844717144626
 21
576.08487019682639
  0
LINE
  8
_0-e_極細4
  6
CONTINUOUS
 62
    6
 10
371.20582117144613
 20
572.68487019682675
 11
361.20582117144613
 21
572.68487019682675
  0
LINE
  8
_0-e_極細4
  6
CONTINUOUS
 62
    6
 10
371.20582117144613
 20
572.68487019682675
 11
371.20582117144613
 21
576.08487019682639
  0
LINE
  8
_0-e_極細4
  6
CONTINUOUS
 62
    6
 10
361.20582117144613
 20
572.68487019682675
 11
361.20582117144613
 21
576.08487019682639
  0
LINE
  8
_0-e_極細4
  6
CONTINUOUS
 62
    6
 10
337.87844717144571
 20
606.48487019682693
 11
337.87844717144571
 21
609.08487019682684
  0
LINE
  8
_0-e_極細4
  6
CONTINUOUS
 62
    6
 10
430.77844717144535
 20
610.08487019682684
 11
338.87844717144571
 21
610.08487019682684
  0
LINE
  8
_0-e_極細4
  6
CONTINUOUS
 62
    6
 10
342.1784471714459
 20
606.08487019682684
 11
338.27844717144535
 21
606.08487019682684
  0
LINE
  8
_0-e_極細4
  6
CONTINUOUS
 62
    6
 10
342.1784471714459
 20
600.08487019682684
 11
342.1784471714459
 21
606.08487019682684
  0
ARC
  8
_0-e_極細4
  6
CONTINUOUS
 62
    6
 10
338.87844717144571
 20
609.08487019682684
 40
1
 50
155.94545099999456
 51
179.99999999999983
  0
ARC
  8
_0-e_極細4
  6
CONTINUOUS
 62
    6
 10
338.27844717144535
 20
606.48487019682693
 40
0.3999999999999772
 50
179.99999999999983
 51
269.99999999999977
  0
ARC
  8
_0-e_極細4
  6
CONTINUOUS
 62
    6
 10
338.87844717144571
 20
609.08487019682684
 40
1
 50
89.999999999999915
 51
155.94545099999456
  0
LINE
  8
_0-e_極細4
  6
CONTINUOUS
 62
    6
 10
430.37844717144571
 20
601.08487019682684
 11
344.37844717144571
 21
601.08487019682684
  0
LINE
  8
_0-e_極細4
  6
CONTINUOUS
 62
    6
 10
430.37844717144571
 20
599.08487019682684
 11
343.1784471714459
 21
599.08487019682684
  0
LINE
  8
_0-e_極細4
  6
CONTINUOUS
 62
    6
 10
430.77844717144626
 20
596.89709019682709
 11
342.47844717144608
 21
596.89709019682664
  0
LINE
  8
_0-e_極細4
  6
CONTINUOUS
 62
    6
 10
351.27844717144626
 20
596.89709019682664
 11
351.27844717144626
 21
595.89709019682664
  0
LINE
  8
_0-e_極細4
  6
CONTINUOUS
 62
    6
 10
344.07844717144553
 20
593.89709019682664
 11
342.47844717144608
 21
596.89709019682664
  0
LINE
  8
_0-e_極細4
  6
CONTINUOUS
 62
    6
 10
352.27844717144626
 20
590.29709019682673
 11
351.27844717144626
 21
591.29709019682673
  0
LINE
  8
_0-e_極細4
  6
CONTINUOUS
 62
    6
 10
351.27844717144626
 20
589.29709019682673
 11
352.27844717144626
 21
590.29709019682673
  0
LINE
  8
_0-e_極細4
  6
CONTINUOUS
 62
    6
 10
351.27844717144626
 20
593.89709019682664
 11
352.27844717144626
 21
594.89709019682664
  0
LINE
  8
_0-e_極細4
  6
CONTINUOUS
 62
    6
 10
352.27844717144626
 20
594.89709019682664
 11
351.27844717144626
 21
595.89709019682664
  0
LINE
  8
_0-e_極細4
  6
CONTINUOUS
 62
    6
 10
430.77844717144626
 20
594.89709019682709
 11
352.27844717144626
 21
594.89709019682664
  0
LINE
  8
_0-e_極細4
  6
CONTINUOUS
 62
    6
 10
430.77844717144626
 20
590.29709019682673
 11
352.27844717144626
 21
590.29709019682673
  0
LINE
  8
_0-e_極細4
  6
CONTINUOUS
 62
    6
 10
430.77844717144626
 20
588.29709019682673
 11
344.07844717144553
 21
588.29709019682673
  0
LINE
  8
_0-e_極細4
  6
CONTINUOUS
 62
    6
 10
344.07844717144553
 20
593.89709019682664
 11
344.07844717144553
 21
588.29709019682673
  0
LINE
  8
_0-e_極細4
  6
CONTINUOUS
 62
    6
 10
351.27844717144626
 20
589.29709019682673
 11
351.27844717144626
 21
588.29709019682673
  0
LINE
  8
_0-e_極細4
  6
CONTINUOUS
 62
    6
 10
351.27844717144626
 20
593.89709019682664
 11
351.27844717144626
 21
591.29709019682673
  0
LINE
  8
_0-e_極細4
  6
CONTINUOUS
 62
    6
 10
343.77844717144626
 20
585.08642819682677
 11
343.77844717144626
 21
588.08642819682677
  0
LINE
  8
_0-e_極細4
  6
CONTINUOUS
 62
    6
 10
343.77844717144626
 20
588.08642819682677
 11
430.77844717144626
 21
588.08642819682677
  0
LINE
  8
_0-e_極細4
  6
CONTINUOUS
 62
    6
 10
343.77844717144626
 20
597.28642819682705
 11
430.77844717144626
 21
597.28642819682705
  0
LINE
  8
_0-e_極細4
  6
CONTINUOUS
 62
    6
 10
343.77844717144626
 20
597.28642819682705
 11
343.77844717144626
 21
599.08487019682684
  0
LINE
  8
_0-e_極細4
  6
CONTINUOUS
 62
    6
 10
376.77844717144626
 20
570.2707421968264
 11
333.77844717144626
 21
570.2707421968264
  0
LINE
  8
_0-e_極細4
  6
CONTINUOUS
 62
    6
 10
376.77844717144626
 20
568.07941419682697
 11
376.77844717144626
 21
571.03492019682676
  0
LINE
  8
_0-e_極細4
  6
CONTINUOUS
 62
    6
 10
330.82044717144572
 20
611.08487019682684
 11
316.97844717144608
 21
613.05638422616744
  0
LINE
  8
_0-e_極細4
  6
CONTINUOUS
 62
    6
 10
354.27844717144626
 20
558.2707421968264
 11
376.77844717144626
 21
558.2707421968264
  0
LINE
  8
_0-e_極細4
  6
CONTINUOUS
 62
    6
 10
376.77844717144626
 20
568.67074219682695
 11
330.82044717144572
 21
568.67074219682695
  0
LINE
  8
_0-e_極細4
  6
CONTINUOUS
 62
    6
 10
316.97844717144608
 20
611.67074219682695
 11
316.97844717144608
 21
613.05638422616744
  0
LINE
  8
_0-e_極細4
  6
CONTINUOUS
 62
    6
 10
525.02844717901417
 20
512.52952927447427
 11
509.27844717144535
 21
512.52952927447427
  0
LINE
  8
_0-e_極細4
  6
CONTINUOUS
 62
    6
 10
484.77844717144535
 20
453.08639475681929
 11
484.77844717144535
 21
571.03492019682676
  0
ARC
  8
_0-e_極細4
  6
CONTINUOUS
 62
    6
 10
482.77844717144535
 20
453.08639475681929
 40
2
 50
269.99954163376469
 51
359.99999999999966
  0
LINE
  8
_0-e_極細4
  6
CONTINUOUS
 62
    6
 10
482.77844717144535
 20
451.08639475681929
 11
430.77844717144535
 21
451.08639475681929
  0
LINE
  8
_0-e_極細4
  6
CONTINUOUS
 62
    6
 10
509.27844717144535
 20
440.67070875681947
 11
509.27844717144535
 21
494.67070875681958
  0
LINE
  8
_0-e_極細4
  6
CONTINUOUS
 62
    6
 10
485.27844717144535
 20
416.67070875681947
 11
480.77844717144535
 21
416.67070875681947
  0
ARC
  8
_0-e_極細4
  6
CONTINUOUS
 62
    6
 10
485.27844717144535
 20
440.67070875681947
 40
24
 50
269.99999999999977
 51
359.99999999999966
  0
LINE
  8
_0-e_極細4
  6
CONTINUOUS
 62
    6
 10
430.77844717144535
 20
416.67070875681947
 11
432.64051517144571
 21
416.67070875681947
  0
LINE
  8
_0-e_極細4
  6
CONTINUOUS
 62
    6
 10
432.64051517144571
 20
416.67070875681947
 11
485.27844717144535
 21
416.67070875681947
  0
LINE
  8
_0-e_極細4
  6
CONTINUOUS
 62
    6
 10
509.27844717144535
 20
440.67070875681947
 11
509.27844717144535
 21
556.27074219682686
  0
LINE
  8
_0-e_極細4
  6
CONTINUOUS
 62
    6
 10
505.27844717144626
 20
440.67070875681947
 11
505.27844717144626
 21
556.27074219682686
  0
LINE
  8
_0-e_極細4
  6
CONTINUOUS
 62
    6
 10
430.77844717144535
 20
420.67070875681947
 11
485.27844717144535
 21
420.67070875681947
  0
ARC
  8
_0-e_極細4
  6
CONTINUOUS
 62
    6
 10
485.27844717144535
 20
440.67070875681947
 40
20
 50
269.99999999999977
 51
359.99999999999966
  0
LINE
  8
_0-e_極細4
  6
CONTINUOUS
 62
    6
 10
511.27844717144626
 20
585.08642819682677
 11
430.77844717144535
 21
585.08642819682677
  0
LINE
  8
_0-e_極細4
  6
CONTINUOUS
 62
    6
 10
511.27844717144626
 20
576.28642819682705
 11
511.27844717144626
 21
585.08642819682677
  0
LINE
  8
_0-e_極細4
  6
CONTINUOUS
 62
    6
 10
517.77844717144626
 20
585.08642819682677
 11
511.27844717144626
 21
585.08642819682677
  0
LINE
  8
_0-e_極細4
  6
CONTINUOUS
 62
    6
 10
515.77844717144626
 20
576.28642819682705
 11
511.27844717144626
 21
576.28642819682705
  0
LINE
  8
_0-e_極細4
  6
CONTINUOUS
 62
    6
 10
515.77844717144626
 20
574.28642819682705
 11
515.77844717144626
 21
576.28642819682705
  0
ARC
  8
_0-e_極細4
  6
CONTINUOUS
 62
    6
 10
511.77844717144626
 20
574.28642819682705
 40
4
 50
269.99999999999977
 51
359.99999999999966
  0
LINE
  8
_0-e_極細4
  6
CONTINUOUS
 62
    6
 10
511.77844717144626
 20
570.28642819682705
 11
505.77844717144626
 21
570.28642819682705
  0
ARC
  8
_0-e_極細4
  6
CONTINUOUS
 62
    6
 10
530.73644717144589
 20
607.58487019682684
 40
2.1000000000000227
 50
89.999999999999915
 51
175.84900999999832
  0
LINE
  8
_0-e_極細4
  6
CONTINUOUS
 62
    6
 10
530.73644717144589
 20
579.04287019682693
 11
530.73644717144589
 21
609.68487019682675
  0
LINE
  8
_0-e_極細4
  6
CONTINUOUS
 62
    6
 10
530.73644717144589
 20
609.67074110432509
 11
544.57844717144553
 21
611.64225619682679
  0
LINE
  8
_0-e_極細4
  6
CONTINUOUS
 62
    6
 10
536.77844717144535
 20
564.2707421968264
 11
536.77844717144535
 21
580.27074219682686
  0
ARC
  8
_0-e_極細4
  6
CONTINUOUS
 62
    6
 10
541.77844717144535
 20
555.61048819682696
 40
10
 50
119.99999999999989
 51
179.99999999999983
  0
LINE
  8
_0-e_極細4
  6
CONTINUOUS
 62
    6
 10
544.57844717144553
 20
580.27074219682686
 11
544.57844717144553
 21
581.38122419682691
  0
LINE
  8
_0-e_極細4
  6
CONTINUOUS
 62
    6
 10
536.77844717144535
 20
580.27074219682686
 11
544.57844717144553
 21
580.27074219682686
  0
LINE
  8
_0-e_極細4
  6
CONTINUOUS
 62
    6
 10
544.57844717144553
 20
581.38122419682691
 11
544.57844717144553
 21
613.02789819682698
  0
LINE
  8
_0-e_極細4
  6
CONTINUOUS
 62
    6
 10
527.77844717144626
 20
570.2707421968264
 11
527.77844717144626
 21
576.08487019682639
  0
LINE
  8
_0-e_極細4
  6
CONTINUOUS
 62
    6
 10
530.73644717144498
 20
568.67074219682695
 11
527.77844717144626
 21
570.2707421968264
  0
LINE
  8
_0-e_極細4
  6
CONTINUOUS
 62
    6
 10
544.57844717144553
 20
608.27074219682686
 11
530.73644717144589
 21
606.67074219682695
  0
ARC
  8
_0-e_極細4
  6
CONTINUOUS
 62
    6
 10
507.27844717144626
 20
556.27074219682686
 40
2
 50
0
 51
89.999999999999915
  0
ARC
  8
_0-e_極細4
  6
CONTINUOUS
 62
    6
 10
507.27844717144626
 20
556.27074219682686
 40
2
 50
89.999999999999915
 51
179.99999999999983
  0
LINE
  8
_0-e_極細4
  6
CONTINUOUS
 62
    6
 10
430.77844717144535
 20
611.08487019682684
 11
530.73644717144589
 21
611.08487019682684
  0
LINE
  8
_0-e_極細4
  6
CONTINUOUS
 62
    6
 10
511.27844717144626
 20
584.08487019682684
 11
519.37844717144571
 21
584.08487019682684
  0
LINE
  8
_0-e_極細4
  6
CONTINUOUS
 62
    6
 10
525.26089517144601
 20
606.08487019682684
 11
522.87844717144571
 21
606.08487019682684
  0
LINE
  8
_0-e_極細4
  6
CONTINUOUS
 62
    6
 10
519.37844717144571
 20
581.48487019682693
 11
519.37844717144571
 21
602.58487019682684
  0
LINE
  8
_0-e_極細4
  6
CONTINUOUS
 62
    6
 10
523.77844717144626
 20
606.08487019682684
 11
523.77844717144626
 21
611.08487019682684
  0
ARC
  8
_0-e_極細4
  6
CONTINUOUS
 62
    6
 10
522.87844717144571
 20
602.58487019682684
 40
3.4999999999999987
 50
89.999999999999915
 51
179.99999999999983
  0
ARC
  8
_0-e_極細4
  6
CONTINUOUS
 62
    6
 10
530.73644717144589
 20
607.58487019682684
 40
3.4999999999999987
 50
89.999999999999915
 51
175.84901000000218
  0
ARC
  8
_0-e_極細4
  6
CONTINUOUS
 62
    6
 10
525.26089517144601
 20
608.08487019682684
 40
2
 50
269.99999999999977
 51
356.64911200000284
  0
ARC
  8
_0-e_極細4
  6
CONTINUOUS
 62
    6
 10
525.26089517144601
 20
608.08487019682684
 40
3.3999999999999773
 50
269.99999999999977
 51
356.64911199999864
  0
LINE
  8
_0-e_極細4
  6
CONTINUOUS
 62
    6
 10
525.26089517144601
 20
604.68487019682675
 11
522.87844717144571
 21
604.68487019682675
  0
ARC
  8
_0-e_極細4
  6
CONTINUOUS
 62
    6
 10
522.87844717144571
 20
602.58487019682684
 40
2.1000000000000227
 50
89.999999999999915
 51
179.99999999999983
  0
LINE
  8
_0-e_極細4
  6
CONTINUOUS
 62
    6
 10
520.77844717144626
 20
580.08487019682684
 11
520.77844717144626
 21
602.58487019682684
  0
LINE
  8
_0-e_極細4
  6
CONTINUOUS
 62
    6
 10
530.73644717144589
 20
579.04287019682693
 11
527.77844717144626
 21
576.08487019682639
  0
LINE
  8
_0-e_極細4
  6
CONTINUOUS
 62
    6
 10
516.77844717144535
 20
572.08487019682684
 11
516.77844717144535
 21
584.08487019682684
  0
LINE
  8
_0-e_極細4
  6
CONTINUOUS
 62
    6
 10
516.77844717144535
 20
580.08487019682684
 11
520.77844717144626
 21
580.08487019682684
  0
LINE
  8
_0-e_極細4
  6
CONTINUOUS
 62
    6
 10
516.77844717144535
 20
581.48487019682693
 11
519.37844717144571
 21
581.48487019682693
  0
LINE
  8
_0-e_極細4
  6
CONTINUOUS
 62
    6
 10
515.11807917144552
 20
572.08487019682684
 11
516.77844717144535
 21
572.08487019682684
  0
LINE
  8
_0-e_極細4
  6
CONTINUOUS
 62
    6
 10
516.77844717144535
 20
576.08487019682639
 11
527.77844717144626
 21
576.08487019682639
  0
LINE
  8
_0-e_極細4
  6
CONTINUOUS
 62
    6
 10
490.35107317144548
 20
572.68487019682675
 11
500.35107317144548
 21
572.68487019682675
  0
LINE
  8
_0-e_極細4
  6
CONTINUOUS
 62
    6
 10
490.35107317144548
 20
572.68487019682675
 11
490.35107317144548
 21
576.08487019682639
  0
LINE
  8
_0-e_極細4
  6
CONTINUOUS
 62
    6
 10
500.35107317144548
 20
572.68487019682675
 11
500.35107317144548
 21
576.08487019682639
  0
LINE
  8
_0-e_極細4
  6
CONTINUOUS
 62
    6
 10
523.6784471714459
 20
606.48487019682693
 11
523.6784471714459
 21
609.08487019682684
  0
LINE
  8
_0-e_極細4
  6
CONTINUOUS
 62
    6
 10
430.77844717144535
 20
610.08487019682684
 11
522.6784471714459
 21
610.08487019682684
  0
LINE
  8
_0-e_極細4
  6
CONTINUOUS
 62
    6
 10
519.37844717144571
 20
606.08487019682684
 11
523.27844717144626
 21
606.08487019682684
  0
LINE
  8
_0-e_極細4
  6
CONTINUOUS
 62
    6
 10
519.37844717144571
 20
600.08487019682684
 11
519.37844717144571
 21
606.08487019682684
  0
ARC
  8
_0-e_極細4
  6
CONTINUOUS
 62
    6
 10
522.6784471714459
 20
609.08487019682684
 40
1
 50
0
 51
24.05454900000543
  0
ARC
  8
_0-e_極細4
  6
CONTINUOUS
 62
    6
 10
523.27844717144626
 20
606.48487019682693
 40
0.3999999999999772
 50
269.99999999999977
 51
359.99999999999966
  0
ARC
  8
_0-e_極細4
  6
CONTINUOUS
 62
    6
 10
522.6784471714459
 20
609.08487019682684
 40
1
 50
24.05454900000543
 51
89.999999999999901
  0
LINE
  8
_0-e_極細4
  6
CONTINUOUS
 62
    6
 10
431.1784471714459
 20
601.08487019682684
 11
517.1784471714459
 21
601.08487019682684
  0
LINE
  8
_0-e_極細4
  6
CONTINUOUS
 62
    6
 10
431.1784471714459
 20
599.08487019682684
 11
518.37844717144571
 21
599.08487019682684
  0
LINE
  8
_0-e_極細4
  6
CONTINUOUS
 62
    6
 10
430.77844717144535
 20
596.89709019682709
 11
519.07844717144553
 21
596.89709019682664
  0
LINE
  8
_0-e_極細4
  6
CONTINUOUS
 62
    6
 10
510.27844717144626
 20
596.89709019682664
 11
510.27844717144626
 21
595.89709019682664
  0
LINE
  8
_0-e_極細4
  6
CONTINUOUS
 62
    6
 10
517.47844717144608
 20
593.89709019682664
 11
519.07844717144553
 21
596.89709019682664
  0
LINE
  8
_0-e_極細4
  6
CONTINUOUS
 62
    6
 10
509.27844717144535
 20
590.29709019682673
 11
510.27844717144626
 21
591.29709019682673
  0
LINE
  8
_0-e_極細4
  6
CONTINUOUS
 62
    6
 10
510.27844717144626
 20
589.29709019682673
 11
509.27844717144535
 21
590.29709019682673
  0
LINE
  8
_0-e_極細4
  6
CONTINUOUS
 62
    6
 10
510.27844717144626
 20
593.89709019682664
 11
509.27844717144535
 21
594.89709019682664
  0
LINE
  8
_0-e_極細4
  6
CONTINUOUS
 62
    6
 10
509.27844717144535
 20
594.89709019682664
 11
510.27844717144626
 21
595.89709019682664
  0
LINE
  8
_0-e_極細4
  6
CONTINUOUS
 62
    6
 10
430.77844717144535
 20
594.89709019682709
 11
509.27844717144535
 21
594.89709019682664
  0
LINE
  8
_0-e_極細4
  6
CONTINUOUS
 62
    6
 10
430.77844717144535
 20
590.29709019682673
 11
509.27844717144535
 21
590.29709019682673
  0
LINE
  8
_0-e_極細4
  6
CONTINUOUS
 62
    6
 10
430.77844717144535
 20
588.29709019682673
 11
517.47844717144608
 21
588.29709019682673
  0
LINE
  8
_0-e_極細4
  6
CONTINUOUS
 62
    6
 10
517.47844717144608
 20
593.89709019682664
 11
517.47844717144608
 21
588.29709019682673
  0
LINE
  8
_0-e_極細4
  6
CONTINUOUS
 62
    6
 10
510.27844717144626
 20
589.29709019682673
 11
510.27844717144626
 21
588.29709019682673
  0
LINE
  8
_0-e_極細4
  6
CONTINUOUS
 62
    6
 10
510.27844717144626
 20
593.89709019682664
 11
510.27844717144626
 21
591.29709019682673
  0
LINE
  8
_0-e_極細4
  6
CONTINUOUS
 62
    6
 10
517.77844717144626
 20
585.08642819682677
 11
517.77844717144626
 21
588.08642819682677
  0
LINE
  8
_0-e_極細4
  6
CONTINUOUS
 62
    6
 10
517.77844717144626
 20
588.08642819682677
 11
430.77844717144535
 21
588.08642819682677
  0
LINE
  8
_0-e_極細4
  6
CONTINUOUS
 62
    6
 10
517.77844717144626
 20
597.28642819682705
 11
430.77844717144535
 21
597.28642819682705
  0
LINE
  8
_0-e_極細4
  6
CONTINUOUS
 62
    6
 10
517.77844717144626
 20
597.28642819682705
 11
517.77844717144626
 21
599.08487019682684
  0
LINE
  8
_0-e_極細4
  6
CONTINUOUS
 62
    6
 10
484.77844717144535
 20
570.2707421968264
 11
527.77844717144626
 21
570.2707421968264
  0
LINE
  8
_0-e_極細4
  6
CONTINUOUS
 62
    6
 10
484.77844717144535
 20
568.07941419682697
 11
484.77844717144535
 21
571.03492019682676
  0
LINE
  8
_0-e_極細4
  6
CONTINUOUS
 62
    6
 10
530.73644717144589
 20
611.08487019682684
 11
544.57844717144553
 21
613.05638422616744
  0
LINE
  8
_0-e_極細4
  6
CONTINUOUS
 62
    6
 10
507.27844717144626
 20
558.2707421968264
 11
484.77844717144535
 21
558.2707421968264
  0
LINE
  8
_0-e_極細4
  6
CONTINUOUS
 62
    6
 10
484.77844717144535
 20
568.67074219682695
 11
530.73644717144498
 21
568.67074219682695
  0
LINE
  8
_0-e_極細4
  6
CONTINUOUS
 62
    6
 10
544.57844717144553
 20
611.67074219682695
 11
544.57844717144553
 21
613.05638422616744
  0
LINE
  8
_0-e_極細4
  6
CONTINUOUS
 62
    6
 10
316.97844717144608
 20
613.05638422616744
 11
544.57844717144553
 21
613.05638422616744
  0
LINE
  8
_0-e_極細4
  6
CONTINUOUS
 62
    6
 10
530.73644717144589
 20
607.15180431263411
 11
534.89823580082384
 21
607.15180431263411
  0
LINE
  8
_0-e_極細4
  6
CONTINUOUS
 62
    6
 10
530.73644717144589
 20
608.35180431263439
 11
544.57844717144553
 21
608.35180431263439
  0
LINE
  8
_0-e_極細4
  6
CONTINUOUS
 62
    6
 10
530.73644717144589
 20
609.5518043126342
 11
544.57844717144553
 21
609.5518043126342
  0
LINE
  8
_0-e_極細4
  6
CONTINUOUS
 62
    6
 10
538.32658786391539
 20
610.75180431263402
 11
544.57844717144553
 21
610.75180431263402
  0
LINE
  8
_0-e_極細4
  6
CONTINUOUS
 62
    6
 10
326.65865854206777
 20
607.15180431263411
 11
330.82044717144572
 21
607.15180431263411
  0
LINE
  8
_0-e_極細4
  6
CONTINUOUS
 62
    6
 10
316.97844717144608
 20
608.35180431263439
 11
330.82044717144572
 21
608.35180431263439
  0
LINE
  8
_0-e_極細4
  6
CONTINUOUS
 62
    6
 10
316.97844717144608
 20
609.5518043126342
 11
330.82044717144572
 21
609.5518043126342
  0
LINE
  8
_0-e_極細4
  6
CONTINUOUS
 62
    6
 10
316.97844717144608
 20
610.75180431263402
 11
323.23030647897622
 21
610.75180431263402
  0
ARC
  8
_0-e_極細4
  6
CONTINUOUS
 62
    6
 10
496.77844717144626
 20
571.03492019682676
 40
12
 50
155.11305268293316
 51
179.99999999999983
  0
ARC
  8
_0-e_極細4
  6
CONTINUOUS
 62
    6
 10
496.77844717144626
 20
571.03492019682676
 40
12
 50
55.166292356156568
 51
155.11305268293316
  0
ARC
  8
_0-e_極細4
  6
CONTINUOUS
 62
    6
 10
499.77844717144626
 20
576.28642819682705
 40
6
 50
358.07490068719875
 51
50.029499419963869
  0
LINE
  8
_0-e_極細4
  6
CONTINUOUS
 62
    6
 10
485.89276827679214
 20
576.08487019682639
 11
505.77844717144626
 21
576.08487019682639
  0
LINE
  8
_0-e_極細4
  6
CONTINUOUS
 62
    6
 10
505.77844717144626
 20
570.28642819682705
 11
505.77844717144626
 21
576.08487019682639
  0
LINE
  8
_0-e_極細4
  6
CONTINUOUS
 62
    6
 10
504.60009671211583
 20
576.08487019682639
 11
504.60009671211583
 21
579.85737984967204
  0
LINE
  8
_0-e_極細4
  6
CONTINUOUS
 62
    6
 10
503.4000967121151
 20
576.08487019682639
 11
503.4000967121151
 21
581.04260511195821
  0
LINE
  8
_0-e_極細4
  6
CONTINUOUS
 62
    6
 10
502.20009671211528
 20
576.08487019682639
 11
502.20009671211528
 21
581.74032613299528
  0
LINE
  8
_0-e_極細4
  6
CONTINUOUS
 62
    6
 10
501.00009671211637
 20
576.08487019682639
 11
501.00009671211637
 21
582.26780384955669
  0
LINE
  8
_0-e_極細4
  6
CONTINUOUS
 62
    6
 10
499.80009671211565
 20
576.08487019682639
 11
499.80009671211565
 21
582.64825882331002
  0
LINE
  8
_0-e_極細4
  6
CONTINUOUS
 62
    6
 10
498.60009671211492
 20
576.08487019682639
 11
498.60009671211492
 21
582.89584735076301
  0
LINE
  8
_0-e_極細4
  6
CONTINUOUS
 62
    6
 10
497.4000967121151
 20
576.08487019682639
 11
497.4000967121151
 21
583.01880737288889
  0
LINE
  8
_0-e_極細4
  6
CONTINUOUS
 62
    6
 10
496.20009671211528
 20
576.08487019682639
 11
496.20009671211528
 21
583.02097504177868
  0
LINE
  8
_0-e_極細4
  6
CONTINUOUS
 62
    6
 10
495.00009671211546
 20
576.08487019682639
 11
495.00009671211546
 21
582.90241654794477
  0
LINE
  8
_0-e_極細4
  6
CONTINUOUS
 62
    6
 10
493.80009671211565
 20
576.08487019682639
 11
493.80009671211565
 21
582.65943861874052
  0
LINE
  8
_0-e_極細4
  6
CONTINUOUS
 62
    6
 10
492.60009671211492
 20
576.08487019682639
 11
492.60009671211492
 21
582.28398182164779
  0
LINE
  8
_0-e_極細4
  6
CONTINUOUS
 62
    6
 10
491.4000967121151
 20
576.08487019682639
 11
491.4000967121151
 21
581.76214473706182
  0
LINE
  8
_0-e_極細4
  6
CONTINUOUS
 62
    6
 10
490.20009671211528
 20
576.08487019682639
 11
490.20009671211528
 21
581.07111993747708
  0
LINE
  8
_0-e_極細4
  6
CONTINUOUS
 62
    6
 10
489.00009671211455
 20
576.08487019682639
 11
489.00009671211455
 21
580.1726039368034
  0
LINE
  8
_0-e_極細4
  6
CONTINUOUS
 62
    6
 10
487.80009671211565
 20
576.08487019682639
 11
487.80009671211565
 21
578.99665512267279
  0
LINE
  8
_0-e_極細4
  6
CONTINUOUS
 62
    6
 10
486.60009671211492
 20
576.08487019682639
 11
486.60009671211492
 21
577.3911126047899
  0
ARC
  8
_0-e_極細4
  6
CONTINUOUS
 62
    6
 10
361.77844717144626
 20
576.28642819682705
 40
6
 50
129.97050058004243
 51
181.92509931280023
  0
LINE
  8
_0-e_極細4
  6
CONTINUOUS
 62
    6
 10
355.77844717144626
 20
570.28642819682705
 11
355.77844717144626
 21
576.08487019682639
  0
ARC
  8
_0-e_極細4
  6
CONTINUOUS
 62
    6
 10
364.77844717144626
 20
571.03492019682676
 40
12
 50
24.886947317068667
 51
124.83370764384701
  0
LINE
  8
_0-e_極細4
  6
CONTINUOUS
 62
    6
 10
375.66412606609947
 20
576.08487019682639
 11
355.77844717144626
 21
576.08487019682639
  0
ARC
  8
_0-e_極細4
  6
CONTINUOUS
 62
    6
 10
364.77844717144626
 20
571.03492019682676
 40
12
 50
0
 51
24.886947317068667
  0
LINE
  8
_0-e_極細4
  6
CONTINUOUS
 62
    6
 10
375.00009671211546
 20
576.08487019682639
 11
375.00009671211546
 21
577.32124509041364
  0
LINE
  8
_0-e_極細4
  6
CONTINUOUS
 62
    6
 10
373.80009671211565
 20
576.08487019682639
 11
373.80009671211565
 21
578.94755816183829
  0
LINE
  8
_0-e_極細4
  6
CONTINUOUS
 62
    6
 10
372.60009671211583
 20
576.08487019682639
 11
372.60009671211583
 21
580.1355684409325
  0
LINE
  8
_0-e_極細4
  6
CONTINUOUS
 62
    6
 10
371.4000967121151
 20
576.08487019682639
 11
371.4000967121151
 21
581.04260511195866
  0
LINE
  8
_0-e_極細4
  6
CONTINUOUS
 62
    6
 10
370.20009671211528
 20
576.08487019682639
 11
370.20009671211528
 21
581.74032613299573
  0
LINE
  8
_0-e_極細4
  6
CONTINUOUS
 62
    6
 10
369.00009671211546
 20
576.08487019682639
 11
369.00009671211546
 21
582.26780384955669
  0
LINE
  8
_0-e_極細4
  6
CONTINUOUS
 62
    6
 10
367.80009671211565
 20
576.08487019682639
 11
367.80009671211565
 21
582.64825882331047
  0
LINE
  8
_0-e_極細4
  6
CONTINUOUS
 62
    6
 10
366.60009671211492
 20
576.08487019682639
 11
366.60009671211492
 21
582.89584735076301
  0
LINE
  8
_0-e_極細4
  6
CONTINUOUS
 62
    6
 10
365.4000967121151
 20
576.08487019682639
 11
365.4000967121151
 21
583.01880737288889
  0
LINE
  8
_0-e_極細4
  6
CONTINUOUS
 62
    6
 10
364.20009671211528
 20
576.08487019682639
 11
364.20009671211528
 21
583.02097504177868
  0
LINE
  8
_0-e_極細4
  6
CONTINUOUS
 62
    6
 10
363.00009671211546
 20
576.08487019682639
 11
363.00009671211546
 21
582.90241654794477
  0
LINE
  8
_0-e_極細4
  6
CONTINUOUS
 62
    6
 10
361.80009671211474
 20
576.08487019682639
 11
361.80009671211474
 21
582.65943861874007
  0
LINE
  8
_0-e_極細4
  6
CONTINUOUS
 62
    6
 10
360.60009671211492
 20
576.08487019682639
 11
360.60009671211492
 21
582.28398182164733
  0
LINE
  8
_0-e_極細4
  6
CONTINUOUS
 62
    6
 10
359.4000967121151
 20
576.08487019682639
 11
359.4000967121151
 21
581.76214473706182
  0
LINE
  8
_0-e_極細4
  6
CONTINUOUS
 62
    6
 10
358.20009671211528
 20
576.08487019682639
 11
358.20009671211528
 21
581.07111993747662
  0
LINE
  8
_0-e_極細4
  6
CONTINUOUS
 62
    6
 10
357.00009671211455
 20
576.08487019682639
 11
357.00009671211455
 21
579.91511485839078
  0
LINE
  8
_0-e_極細4
  6
CONTINUOUS
 62
    6
 10
355.80009671211474
 20
576.08487019682639
 11
355.80009671211474
 21
576.79566859724196
  0
LINE
  8
_0-e_極細4
  6
CONTINUOUS
 62
    6
 10
499.80009671211565
 20
572.68487019682675
 11
499.80009671211565
 21
576.08487019682639
  0
LINE
  8
_0-e_極細4
  6
CONTINUOUS
 62
    6
 10
498.60009671211583
 20
572.68487019682675
 11
498.60009671211583
 21
576.08487019682639
  0
LINE
  8
_0-e_極細4
  6
CONTINUOUS
 62
    6
 10
497.4000967121151
 20
572.68487019682675
 11
497.4000967121151
 21
576.08487019682639
  0
LINE
  8
_0-e_極細4
  6
CONTINUOUS
 62
    6
 10
496.20009671211528
 20
572.68487019682675
 11
496.20009671211528
 21
576.08487019682639
  0
LINE
  8
_0-e_極細4
  6
CONTINUOUS
 62
    6
 10
495.00009671211637
 20
572.68487019682675
 11
495.00009671211637
 21
576.08487019682639
  0
LINE
  8
_0-e_極細4
  6
CONTINUOUS
 62
    6
 10
493.80009671211565
 20
572.68487019682675
 11
493.80009671211565
 21
576.08487019682639
  0
LINE
  8
_0-e_極細4
  6
CONTINUOUS
 62
    6
 10
492.60009671211492
 20
572.68487019682675
 11
492.60009671211492
 21
576.08487019682639
  0
LINE
  8
_0-e_極細4
  6
CONTINUOUS
 62
    6
 10
491.4000967121151
 20
572.68487019682675
 11
491.4000967121151
 21
576.08487019682639
  0
LINE
  8
_0-e_極細4
  6
CONTINUOUS
 62
    6
 10
370.20009671211528
 20
572.68487019682675
 11
370.20009671211528
 21
576.08487019682639
  0
LINE
  8
_0-e_極細4
  6
CONTINUOUS
 62
    6
 10
369.00009671211546
 20
572.68487019682675
 11
369.00009671211546
 21
576.08487019682639
  0
LINE
  8
_0-e_極細4
  6
CONTINUOUS
 62
    6
 10
367.80009671211565
 20
572.68487019682675
 11
367.80009671211565
 21
576.08487019682639
  0
LINE
  8
_0-e_極細4
  6
CONTINUOUS
 62
    6
 10
366.60009671211583
 20
572.68487019682675
 11
366.60009671211583
 21
576.08487019682639
  0
LINE
  8
_0-e_極細4
  6
CONTINUOUS
 62
    6
 10
365.4000967121151
 20
572.68487019682675
 11
365.4000967121151
 21
576.08487019682639
  0
LINE
  8
_0-e_極細4
  6
CONTINUOUS
 62
    6
 10
364.20009671211528
 20
572.68487019682675
 11
364.20009671211528
 21
576.08487019682639
  0
LINE
  8
_0-e_極細4
  6
CONTINUOUS
 62
    6
 10
363.00009671211546
 20
572.68487019682675
 11
363.00009671211546
 21
576.08487019682639
  0
LINE
  8
_0-e_極細4
  6
CONTINUOUS
 62
    6
 10
361.80009671211565
 20
572.68487019682675
 11
361.80009671211565
 21
576.08487019682639
  0
LINE
  8
_0-e_極細4
  6
CONTINUOUS
 62
    6
 10
349.80009671211565
 20
576.28642819682705
 11
349.80009671211565
 21
584.08487019682684
  0
LINE
  8
_0-e_極細4
  6
CONTINUOUS
 62
    6
 10
348.60009671211583
 20
576.28642819682705
 11
348.60009671211583
 21
584.08487019682684
  0
LINE
  8
_0-e_極細4
  6
CONTINUOUS
 62
    6
 10
347.4000967121151
 20
576.28642819682705
 11
347.4000967121151
 21
584.08487019682684
  0
LINE
  8
_0-e_極細4
  6
CONTINUOUS
 62
    6
 10
346.20009671211528
 20
572.08487019682684
 11
346.20009671211528
 21
572.49885778137218
  0
LINE
  8
_0-e_極細4
  6
CONTINUOUS
 62
    6
 10
346.20009671211528
 20
576.28642819682705
 11
346.20009671211528
 21
584.08487019682684
  0
LINE
  8
_0-e_極細4
  6
CONTINUOUS
 62
    6
 10
345.00009671211546
 20
572.08487019682684
 11
345.00009671211546
 21
584.08487019682684
  0
LINE
  8
_0-e_極細4
  6
CONTINUOUS
 62
    6
 10
516.60009671211583
 20
572.08487019682684
 11
516.60009671211583
 21
584.08487019682684
  0
LINE
  8
_0-e_極細4
  6
CONTINUOUS
 62
    6
 10
515.4000967121151
 20
572.08487019682684
 11
515.4000967121151
 21
572.58829551515441
  0
LINE
  8
_0-e_極細4
  6
CONTINUOUS
 62
    6
 10
515.4000967121151
 20
576.28642819682705
 11
515.4000967121151
 21
584.08487019682684
  0
LINE
  8
_0-e_極細4
  6
CONTINUOUS
 62
    6
 10
514.20009671211528
 20
576.28642819682705
 11
514.20009671211528
 21
584.08487019682684
  0
LINE
  8
_0-e_極細4
  6
CONTINUOUS
 62
    6
 10
513.00009671211637
 20
576.28642819682705
 11
513.00009671211637
 21
584.08487019682684
  0
LINE
  8
_0-e_極細4
  6
CONTINUOUS
 62
    6
 10
511.80009671211565
 20
576.28642819682705
 11
511.80009671211565
 21
584.08487019682684
  0
LINE
  8
_0-e_極細4
  6
CONTINUOUS
 62
    6
 10
529.80009671211565
 20
578.10651973749668
 11
529.80009671211565
 21
609.46456374028344
  0
LINE
  8
_0-e_極細4
  6
CONTINUOUS
 62
    6
 10
528.60009671211583
 20
576.90651973749686
 11
528.60009671211583
 21
607.44476624371578
  0
LINE
  8
_0-e_極細4
  6
CONTINUOUS
 62
    6
 10
527.4000967121151
 20
576.08487019682639
 11
527.4000967121151
 21
605.44217899874934
  0
LINE
  8
_0-e_極細4
  6
CONTINUOUS
 62
    6
 10
526.20009671211528
 20
576.08487019682639
 11
526.20009671211528
 21
604.81716450842646
  0
LINE
  8
_0-e_極細4
  6
CONTINUOUS
 62
    6
 10
525.00009671211637
 20
576.08487019682639
 11
525.00009671211637
 21
604.68487019682675
  0
LINE
  8
_0-e_極細4
  6
CONTINUOUS
 62
    6
 10
523.80009671211565
 20
576.08487019682639
 11
523.80009671211565
 21
604.68487019682675
  0
LINE
  8
_0-e_極細4
  6
CONTINUOUS
 62
    6
 10
522.60009671211492
 20
576.08487019682639
 11
522.60009671211492
 21
604.6663410762269
  0
LINE
  8
_0-e_極細4
  6
CONTINUOUS
 62
    6
 10
521.4000967121151
 20
576.08487019682639
 11
521.4000967121151
 21
604.07633924424204
  0
LINE
  8
_0-e_極細4
  6
CONTINUOUS
 62
    6
 10
520.20009671211528
 20
576.08487019682639
 11
520.20009671211528
 21
580.08487019682684
  0
LINE
  8
_0-e_極細4
  6
CONTINUOUS
 62
    6
 10
519.00009671211546
 20
576.08487019682639
 11
519.00009671211546
 21
580.08487019682684
  0
LINE
  8
_0-e_極細4
  6
CONTINUOUS
 62
    6
 10
517.80009671211565
 20
576.08487019682639
 11
517.80009671211565
 21
580.08487019682684
  0
LINE
  8
_0-e_極細4
  6
CONTINUOUS
 62
    6
 10
343.80009671211565
 20
576.08487019682639
 11
343.80009671211565
 21
580.08487019682684
  0
LINE
  8
_0-e_極細4
  6
CONTINUOUS
 62
    6
 10
342.60009671211583
 20
576.08487019682639
 11
342.60009671211583
 21
580.08487019682684
  0
LINE
  8
_0-e_極細4
  6
CONTINUOUS
 62
    6
 10
341.4000967121151
 20
576.08487019682639
 11
341.4000967121151
 21
580.08487019682684
  0
LINE
  8
_0-e_極細4
  6
CONTINUOUS
 62
    6
 10
340.20009671211528
 20
576.08487019682639
 11
340.20009671211528
 21
604.0321375098622
  0
LINE
  8
_0-e_極細4
  6
CONTINUOUS
 62
    6
 10
339.00009671211546
 20
576.08487019682639
 11
339.00009671211546
 21
604.66009104603449
  0
LINE
  8
_0-e_極細4
  6
CONTINUOUS
 62
    6
 10
337.80009671211565
 20
576.08487019682639
 11
337.80009671211565
 21
604.68487019682675
  0
LINE
  8
_0-e_極細4
  6
CONTINUOUS
 62
    6
 10
336.60009671211492
 20
576.08487019682639
 11
336.60009671211492
 21
604.68487019682675
  0
LINE
  8
_0-e_極細4
  6
CONTINUOUS
 62
    6
 10
335.4000967121151
 20
576.08487019682639
 11
335.4000967121151
 21
604.80502892271511
  0
LINE
  8
_0-e_極細4
  6
CONTINUOUS
 62
    6
 10
334.20009671211528
 20
576.08487019682639
 11
334.20009671211528
 21
605.40770884924746
  0
LINE
  8
_0-e_極細4
  6
CONTINUOUS
 62
    6
 10
333.00009671211546
 20
576.86322065615764
 11
333.00009671211546
 21
607.2499887809488
  0
LINE
  8
_0-e_極細4
  6
CONTINUOUS
 62
    6
 10
331.80009671211474
 20
578.06322065615745
 11
331.80009671211474
 21
609.44236495522205
  0
LINE
  8
_0-e_極細4
  6
CONTINUOUS
 62
    6
 10
510.27844717144626
 20
589.15180431263411
 11
517.47844717144608
 21
589.15180431263411
  0
LINE
  8
_0-e_極細4
  6
CONTINUOUS
 62
    6
 10
509.33316128725301
 20
590.35180431263439
 11
517.47844717144608
 21
590.35180431263439
  0
LINE
  8
_0-e_極細4
  6
CONTINUOUS
 62
    6
 10
510.27844717144626
 20
591.5518043126342
 11
517.47844717144608
 21
591.5518043126342
  0
LINE
  8
_0-e_極細4
  6
CONTINUOUS
 62
    6
 10
510.27844717144626
 20
592.75180431263402
 11
517.47844717144608
 21
592.75180431263402
  0
LINE
  8
_0-e_極細4
  6
CONTINUOUS
 62
    6
 10
510.22373305563769
 20
593.95180431263429
 11
517.50762803321004
 21
593.95180431263429
  0
LINE
  8
_0-e_極細4
  6
CONTINUOUS
 62
    6
 10
509.53316128725282
 20
595.15180431263411
 11
518.14762803321037
 21
595.15180431263411
  0
LINE
  8
_0-e_極細4
  6
CONTINUOUS
 62
    6
 10
510.27844717144626
 20
596.35180431263393
 11
518.78762803320978
 21
596.35180431263393
  0
LINE
  8
_0-e_極細4
  6
CONTINUOUS
 62
    6
 10
344.07844717144553
 20
589.15180431263411
 11
351.27844717144626
 21
589.15180431263411
  0
LINE
  8
_0-e_極細4
  6
CONTINUOUS
 62
    6
 10
344.07844717144553
 20
590.35180431263439
 11
352.2237330556386
 21
590.35180431263439
  0
LINE
  8
_0-e_極細4
  6
CONTINUOUS
 62
    6
 10
344.07844717144553
 20
591.5518043126342
 11
351.27844717144626
 21
591.5518043126342
  0
LINE
  8
_0-e_極細4
  6
CONTINUOUS
 62
    6
 10
344.07844717144553
 20
592.75180431263402
 11
351.27844717144626
 21
592.75180431263402
  0
LINE
  8
_0-e_極細4
  6
CONTINUOUS
 62
    6
 10
344.04926630968157
 20
593.95180431263429
 11
351.33316128725301
 21
593.95180431263429
  0
LINE
  8
_0-e_極細4
  6
CONTINUOUS
 62
    6
 10
343.40926630968215
 20
595.15180431263411
 11
352.02373305563879
 21
595.15180431263411
  0
LINE
  8
_0-e_極細4
  6
CONTINUOUS
 62
    6
 10
342.76926630968183
 20
596.35180431263393
 11
351.27844717144626
 21
596.35180431263393
  0
CIRCLE
  8
_1-1_寸法4
  6
CONTINUOUS
 62
    7
 10
519.37844717144571
 20
592.76818277027519
 40
40
  0
LINE
  8
_0-e_極細4
  6
CONTINUOUS
 62
    6
 10
532.03966317144523
 20
384.37845419682407
 11
603.54987117144492
 21
386.14171819682514
  0
LINE
  8
_0-e_極細4
  6
CONTINUOUS
 62
    6
 10
603.54987117144492
 20
386.14171819682514
 11
603.54987117144492
 21
493.8968221968251
  0
LINE
  8
_0-e_極細4
  6
CONTINUOUS
 62
    6
 10
531.77844717144535
 20
495.66652713416789
 11
603.54987117144492
 21
493.8968221968251
  0
LINE
  8
_0-e_極細4
  6
CONTINUOUS
 62
    6
 10
531.77844717144535
 20
495.66652713416789
 11
531.77844717144535
 21
555.61048819682696
  0
LINE
  8
_0-e_極細4
  6
CONTINUOUS
 62
    6
 10
329.77844717144626
 20
400.37845419682407
 11
329.77844717144626
 21
555.61048819682696
  0
LINE
  8
_0-e_極細4
  6
CONTINUOUS
 62
    6
 10
345.77844717144626
 20
384.37845419682407
 11
532.03966317144523
 21
384.37845419682407
  0
ARC
  8
_0-e_極細4
  6
CONTINUOUS
 62
    6
 10
345.77844717144626
 20
400.37845419682407
 40
16
 50
179.99999999999983
 51
269.99999999999977
  0
LINE
  8
_0-e_極細4
  6
CONTINUOUS
 62
    6
 10
346.77844717144626
 20
388.29682219682644
 11
532.03966317144523
 21
388.29682219682644
  0
LINE
  8
_0-e_極細4
  6
CONTINUOUS
 62
    6
 10
334.77844717144626
 20
400.29682219682644
 11
334.77844717144626
 21
514.51384275681926
  0
ARC
  8
_0-e_極細4
  6
CONTINUOUS
 62
    6
 10
346.77844717144626
 20
400.29682219682644
 40
12
 50
179.99999999999983
 51
269.99999999999977
  0
LINE
  8
_0-e_極細4
  6
CENTER2
 62
    6
 10
430.77844717144535
 20
635.18317016806031
 11
430.77844717144535
 21
345.40844680673052
  0
LINE
  8
_0-e_極細4
  6
CONTINUOUS
 62
    6
 10
526.77844717144626
 20
514.51384275681926
 11
526.77844717144626
 21
568.67074219682695
  0
ARC
  8
_0-e_極細4
  6
CONTINUOUS
 62
    6
 10
524.77844717144626
 20
514.51384275681926
 40
2
 50
277.18075599997627
 51
359.99999999999966
  0
LINE
  8
_0-e_極細4
  6
CONTINUOUS
 62
    6
 10
427.29783253168216
 20
384.37845419682407
 11
430.77844717144626
 21
387.85906883658771
  0
LINE
  8
_0-e_極細4
  6
CONTINUOUS
 62
    6
 10
423.05519184456307
 20
384.37845419682407
 11
426.97355984456544
 21
388.29682219682644
  0
LINE
  8
_0-e_極細4
  6
CONTINUOUS
 62
    6
 10
418.81255115744398
 20
384.37845419682407
 11
422.73091915744635
 21
388.29682219682644
  0
LINE
  8
_0-e_極細4
  6
CONTINUOUS
 62
    6
 10
414.56991047032398
 20
384.37845419682407
 11
418.48827847032635
 21
388.29682219682644
  0
LINE
  8
_0-e_極細4
  6
CONTINUOUS
 62
    6
 10
410.32726978320488
 20
384.37845419682407
 11
414.24563778320726
 21
388.29682219682644
  0
LINE
  8
_0-e_極細4
  6
CONTINUOUS
 62
    6
 10
406.08462909608579
 20
384.37845419682407
 11
410.00299709608817
 21
388.29682219682644
  0
LINE
  8
_0-e_極細4
  6
CONTINUOUS
 62
    6
 10
401.8419884089667
 20
384.37845419682407
 11
405.76035640896907
 21
388.29682219682644
  0
LINE
  8
_0-e_極細4
  6
CONTINUOUS
 62
    6
 10
397.59934772184761
 20
384.37845419682407
 11
401.51771572184998
 21
388.29682219682644
  0
LINE
  8
_0-e_極細4
  6
CONTINUOUS
 62
    6
 10
393.35670703472761
 20
384.37845419682407
 11
397.27507503472998
 21
388.29682219682644
  0
LINE
  8
_0-e_極細4
  6
CONTINUOUS
 62
    6
 10
389.11406634760851
 20
384.37845419682407
 11
393.03243434761089
 21
388.29682219682644
  0
LINE
  8
_0-e_極細4
  6
CONTINUOUS
 62
    6
 10
384.87142566048942
 20
384.37845419682407
 11
388.7897936604918
 21
388.29682219682644
  0
LINE
  8
_0-e_極細4
  6
CONTINUOUS
 62
    6
 10
380.62878497337033
 20
384.37845419682407
 11
384.5471529733727
 21
388.29682219682644
  0
LINE
  8
_0-e_極細4
  6
CONTINUOUS
 62
    6
 10
376.38614428625033
 20
384.37845419682407
 11
380.30451228625361
 21
388.29682219682644
  0
LINE
  8
_0-e_極細4
  6
CONTINUOUS
 62
    6
 10
372.14350359913124
 20
384.37845419682407
 11
376.06187159913361
 21
388.29682219682644
  0
LINE
  8
_0-e_極細4
  6
CONTINUOUS
 62
    6
 10
367.90086291201214
 20
384.37845419682407
 11
371.81923091201452
 21
388.29682219682644
  0
LINE
  8
_0-e_極細4
  6
CONTINUOUS
 62
    6
 10
363.65822222489305
 20
384.37845419682407
 11
367.57659022489543
 21
388.29682219682644
  0
LINE
  8
_0-e_極細4
  6
CONTINUOUS
 62
    6
 10
359.41558153777396
 20
384.37845419682407
 11
363.33394953777633
 21
388.29682219682644
  0
LINE
  8
_0-e_極細4
  6
CONTINUOUS
 62
    6
 10
355.17294085065396
 20
384.37845419682407
 11
359.09130885065724
 21
388.29682219682644
  0
LINE
  8
_0-e_極細4
  6
CONTINUOUS
 62
    6
 10
350.93030016353487
 20
384.37845419682407
 11
354.84866816353724
 21
388.29682219682644
  0
LINE
  8
_0-e_極細4
  6
CONTINUOUS
 62
    6
 10
346.68765947641577
 20
384.37845419682407
 11
350.60602747641815
 21
388.29682219682644
  0
LINE
  8
_0-e_極細4
  6
CONTINUOUS
 62
    6
 10
342.73679346790186
 20
384.67022887542925
 11
346.37032882176345
 21
388.30376422929152
  0
LINE
  8
_0-e_極細4
  6
CONTINUOUS
 62
    6
 10
339.48996755488452
 20
385.66604364953145
 11
342.79958607453636
 21
388.97566216918352
  0
LINE
  8
_0-e_極細4
  6
CONTINUOUS
 62
    6
 10
336.75022531074546
 20
387.16894209251194
 11
339.98573293446907
 21
390.40444971623509
  0
LINE
  8
_0-e_極細4
  6
CONTINUOUS
 62
    6
 10
334.43410503614132
 20
389.09546250502734
 11
337.74094167003068
 21
392.40229913891602
  0
LINE
  8
_0-e_極細4
  6
CONTINUOUS
 62
    6
 10
332.51929557558788
 20
391.42329373159254
 11
336.03897382165951
 21
394.94297197766417
  0
LINE
  8
_0-e_極細4
  6
CONTINUOUS
 62
    6
 10
331.02950378050946
 20
394.17614262363321
 11
334.97688841401441
 21
398.12352725713816
  0
LINE
  8
_0-e_極細4
  6
CONTINUOUS
 62
    6
 10
330.0506106533453
 20
397.4398901835886
 11
334.77844717144626
 21
402.16772670168956
  0
LINE
  8
_0-e_極細4
  6
CONTINUOUS
 62
    6
 10
329.77844717144626
 20
401.41036738880888
 11
334.77844717144626
 21
406.41036738880888
  0
LINE
  8
_0-e_極細4
  6
CONTINUOUS
 62
    6
 10
329.77844717144626
 20
405.6530080759282
 11
334.77844717144626
 21
410.6530080759282
  0
LINE
  8
_0-e_極細4
  6
CONTINUOUS
 62
    6
 10
329.77844717144626
 20
409.89564876304729
 11
334.77844717144626
 21
414.89564876304729
  0
LINE
  8
_0-e_極細4
  6
CONTINUOUS
 62
    6
 10
329.77844717144626
 20
414.13828945016684
 11
334.77844717144626
 21
419.13828945016684
  0
LINE
  8
_0-e_極細4
  6
CONTINUOUS
 62
    6
 10
329.77844717144626
 20
418.38093013728616
 11
334.77844717144626
 21
423.38093013728593
  0
LINE
  8
_0-e_極細4
  6
CONTINUOUS
 62
    6
 10
329.77844717144626
 20
422.62357082440548
 11
334.77844717144626
 21
427.62357082440548
  0
LINE
  8
_0-e_極細4
  6
CONTINUOUS
 62
    6
 10
329.77844717144626
 20
426.86621151152457
 11
334.77844717144626
 21
431.86621151152457
  0
LINE
  8
_0-e_極細4
  6
CONTINUOUS
 62
    6
 10
329.77844717144626
 20
431.10885219864412
 11
334.77844717144626
 21
436.10885219864412
  0
LINE
  8
_0-e_極細4
  6
CONTINUOUS
 62
    6
 10
329.77844717144626
 20
435.35149288576321
 11
334.77844717144626
 21
440.35149288576321
  0
LINE
  8
_0-e_極細4
  6
CONTINUOUS
 62
    6
 10
329.77844717144626
 20
439.59413357288253
 11
334.77844717144626
 21
444.59413357288253
  0
LINE
  8
_0-e_極細4
  6
CONTINUOUS
 62
    6
 10
329.77844717144626
 20
443.83677426000185
 11
334.77844717144626
 21
448.83677426000185
  0
LINE
  8
_0-e_極細4
  6
CONTINUOUS
 62
    6
 10
329.77844717144626
 20
448.07941494712094
 11
334.77844717144626
 21
453.07941494712094
  0
LINE
  8
_0-e_極細4
  6
CONTINUOUS
 62
    6
 10
329.77844717144626
 20
452.32205563424048
 11
334.77844717144626
 21
457.32205563424048
  0
LINE
  8
_0-e_極細4
  6
CONTINUOUS
 62
    6
 10
329.77844717144626
 20
456.56469632135958
 11
334.77844717144626
 21
461.56469632135958
  0
LINE
  8
_0-e_極細4
  6
CONTINUOUS
 62
    6
 10
329.77844717144626
 20
460.8073370084789
 11
334.77844717144626
 21
465.8073370084789
  0
LINE
  8
_0-e_極細4
  6
CONTINUOUS
 62
    6
 10
329.77844717144626
 20
465.04997769559822
 11
334.77844717144626
 21
470.04997769559822
  0
LINE
  8
_0-e_極細4
  6
CONTINUOUS
 62
    6
 10
329.77844717144626
 20
469.29261838271731
 11
334.77844717144626
 21
474.29261838271731
  0
LINE
  8
_0-e_極細4
  6
CONTINUOUS
 62
    6
 10
329.77844717144626
 20
473.53525906983685
 11
334.77844717144626
 21
478.53525906983685
  0
LINE
  8
_0-e_極細4
  6
CONTINUOUS
 62
    6
 10
329.77844717144626
 20
477.77789975695617
 11
334.77844717144626
 21
482.77789975695606
  0
LINE
  8
_0-e_極細4
  6
CONTINUOUS
 62
    6
 10
329.77844717144626
 20
482.02054044407515
 11
334.77844717144626
 21
487.02054044407515
  0
LINE
  8
_0-e_極細4
  6
CONTINUOUS
 62
    6
 10
329.77844717144626
 20
486.2631811311947
 11
334.77844717144626
 21
491.2631811311947
  0
LINE
  8
_0-e_極細4
  6
CONTINUOUS
 62
    6
 10
329.77844717144626
 20
490.50582181831425
 11
334.77844717144626
 21
495.50582181831379
  0
LINE
  8
_0-e_極細4
  6
CONTINUOUS
 62
    6
 10
329.77844717144626
 20
494.74846250543334
 11
334.77844717144626
 21
499.74846250543334
  0
LINE
  8
_0-e_極細4
  6
CONTINUOUS
 62
    6
 10
329.77844717144626
 20
498.99110319255243
 11
334.77844717144626
 21
503.99110319255243
  0
LINE
  8
_0-e_極細4
  6
CONTINUOUS
 62
    6
 10
329.77844717144626
 20
503.23374387967198
 11
334.77844717144626
 21
508.23374387967152
  0
LINE
  8
_0-e_極細4
  6
CONTINUOUS
 62
    6
 10
329.77844717144626
 20
507.47638456679107
 11
334.77844717144626
 21
512.47638456679101
  0
LINE
  8
_0-e_極細4
  6
CONTINUOUS
 62
    6
 10
329.77844717144626
 20
511.71902525391062
 11
334.77844717144626
 21
516.7190252539101
  0
LINE
  8
_0-e_極細4
  6
CONTINUOUS
 62
    6
 10
329.77844717144626
 20
515.96166594102965
 11
334.77844717144626
 21
520.96166594102965
  0
LINE
  8
_0-e_極細4
  6
CONTINUOUS
 62
    6
 10
329.77844717144626
 20
520.2043066281492
 11
334.77844717144626
 21
525.20430662814874
  0
LINE
  8
_0-e_極細4
  6
CONTINUOUS
 62
    6
 10
329.77844717144626
 20
524.44694731526829
 11
334.77844717144626
 21
529.44694731526829
  0
LINE
  8
_0-e_極細4
  6
CONTINUOUS
 62
    6
 10
329.77844717144626
 20
528.68958800238738
 11
334.77844717144626
 21
533.68958800238738
  0
LINE
  8
_0-e_極細4
  6
CONTINUOUS
 62
    6
 10
329.77844717144626
 20
532.93222868950693
 11
334.77844717144626
 21
537.93222868950693
  0
LINE
  8
_0-e_極細4
  6
CONTINUOUS
 62
    6
 10
329.77844717144626
 20
537.17486937662602
 11
334.77844717144626
 21
542.17486937662602
  0
LINE
  8
_0-e_極細4
  6
CONTINUOUS
 62
    6
 10
329.77844717144626
 20
541.41751006374557
 11
334.77844717144626
 21
546.41751006374511
  0
LINE
  8
_0-e_極細4
  6
CONTINUOUS
 62
    6
 10
329.77844717144626
 20
545.66015075086466
 11
334.77844717144626
 21
550.66015075086466
  0
LINE
  8
_0-e_極細4
  6
CONTINUOUS
 62
    6
 10
329.77844717144626
 20
549.90279143798375
 11
334.77844717144626
 21
554.90279143798375
  0
LINE
  8
_0-e_極細4
  6
CONTINUOUS
 62
    6
 10
329.77844717144626
 20
554.1454321251033
 11
334.77844717144626
 21
559.1454321251033
  0
LINE
  8
_0-e_極細4
  6
CONTINUOUS
 62
    6
 10
329.46906100276055
 20
558.07868664353668
 11
334.77844717144626
 21
563.38807281222239
  0
LINE
  8
_0-e_極細4
  6
CONTINUOUS
 62
    6
 10
328.1806594321165
 20
561.03292576001172
 11
334.77844717144626
 21
567.63071349934148
  0
LINE
  8
_0-e_極細4
  6
CONTINUOUS
 62
    6
 10
326.18983267301655
 20
563.28473968803132
 11
331.57583518181173
 21
568.67074219682695
  0
LINE
  8
_0-e_極細4
  6
CONTINUOUS
 62
    6
 10
332.46583578312629
 20
569.56074279814152
 11
333.77844717144626
 21
570.87335418646103
  0
LINE
  8
_0-e_極細4
  6
CONTINUOUS
 62
    6
 10
324.77844717144626
 20
566.11599487358012
 11
333.77844717144626
 21
575.11599487358012
  0
LINE
  8
_0-e_極細4
  6
CONTINUOUS
 62
    6
 10
324.77844717144626
 20
570.35863556069967
 11
332.14156448951007
 21
577.72175287876303
  0
LINE
  8
_0-e_極細4
  6
CONTINUOUS
 62
    6
 10
324.77844717144626
 20
574.60127624781876
 11
330.82044717144572
 21
580.64327624781868
  0
LINE
  8
_0-e_極細4
  6
CONTINUOUS
 62
    6
 10
324.77844717144626
 20
578.84391693493831
 11
330.82044717144572
 21
584.88591693493777
  0
LINE
  8
_0-e_極細4
  6
CONTINUOUS
 62
    6
 10
321.96263174621572
 20
580.27074219682686
 11
330.82044717144572
 21
589.12855762205731
  0
LINE
  8
_0-e_極細4
  6
CONTINUOUS
 62
    6
 10
317.71999105909663
 20
580.27074219682686
 11
330.82044717144572
 21
593.37119830917641
  0
LINE
  8
_0-e_極細4
  6
CONTINUOUS
 62
    6
 10
316.97844717144608
 20
583.77183899629586
 11
330.82044717144572
 21
597.61383899629595
  0
LINE
  8
_0-e_極細4
  6
CONTINUOUS
 62
    6
 10
316.97844717144608
 20
588.01447968341495
 11
330.82044717144572
 21
601.85647968341505
  0
LINE
  8
_0-e_極細4
  6
CONTINUOUS
 62
    6
 10
316.97844717144608
 20
592.25712037053404
 11
330.82044717144572
 21
606.09912037053459
  0
LINE
  8
_0-e_極細4
  6
CONTINUOUS
 62
    6
 10
316.97844717144608
 20
596.49976105765359
 11
327.52979550251939
 21
607.0511093887269
  0
LINE
  8
_0-e_極細4
  6
CONTINUOUS
 62
    6
 10
316.97844717144608
 20
600.74240174477313
 11
323.72674975772543
 21
607.49070433105248
  0
LINE
  8
_0-e_極細4
  6
CONTINUOUS
 62
    6
 10
316.97844717144608
 20
604.98504243189223
 11
319.92370401293238
 21
607.93029927337807
  0
LINE
  8
_0-e_極細4
  6
CONTINUOUS
 62
    6
 10
531.94307117144535
 20
388.29563819682579
 11
603.54987117144492
 21
390.06128391547662
  0
LINE
  8
_0-e_極細4
  6
CONTINUOUS
 62
    6
 10
509.27844717144535
 20
492.30177068750646
 11
603.54987117144492
 21
489.97727247899985
  0
LINE
  8
_0-e_極細4
  6
CONTINUOUS
 62
    6
 10
602.99570022536273
 20
386.12805371861435
 11
603.54987117144492
 21
386.68222466469632
  0
LINE
  8
_0-e_極細4
  6
CONTINUOUS
 62
    6
 10
598.64580185554814
 20
386.02079603591886
 11
602.66445763794991
 21
390.0394518183204
  0
LINE
  8
_0-e_極細4
  6
CONTINUOUS
 62
    6
 10
594.29590348573356
 20
385.91353835322315
 11
598.31455926813533
 21
389.93219413562491
  0
LINE
  8
_0-e_極細4
  6
CONTINUOUS
 62
    6
 10
589.94600511591898
 20
385.80628067052766
 11
593.96466089832074
 21
389.82493645292942
  0
LINE
  8
_0-e_極細4
  6
CONTINUOUS
 62
    6
 10
585.59610674610349
 20
385.69902298783217
 11
589.61476252850616
 21
389.71767877023416
  0
LINE
  8
_0-e_極細4
  6
CONTINUOUS
 62
    6
 10
581.24620837628891
 20
385.59176530513668
 11
585.26486415869158
 21
389.6104210875389
  0
LINE
  8
_0-e_極細4
  6
CONTINUOUS
 62
    6
 10
576.89631000647432
 20
385.48450762244073
 11
580.914965788877
 21
389.50316340484341
  0
LINE
  8
_0-e_極細4
  6
CONTINUOUS
 62
    6
 10
572.54641163665883
 20
385.37724993974524
 11
576.56506741906242
 21
389.39590572214792
  0
LINE
  8
_0-e_極細4
  6
CONTINUOUS
 62
    6
 10
568.19651326684425
 20
385.26999225704975
 11
572.21516904924692
 21
389.28864803945288
  0
LINE
  8
_0-e_極細4
  6
CONTINUOUS
 62
    6
 10
563.84661489702967
 20
385.16273457435426
 11
567.86527067943234
 21
389.18139035675739
  0
LINE
  8
_0-e_極細4
  6
CONTINUOUS
 62
    6
 10
559.49671652721418
 20
385.05547689165877
 11
563.51537230961776
 21
389.07413267406213
  0
LINE
  8
_0-e_極細4
  6
CONTINUOUS
 62
    6
 10
555.14681815739959
 20
384.94821920896305
 11
559.16547393980318
 21
388.96687499136686
  0
LINE
  8
_0-e_極細4
  6
CONTINUOUS
 62
    6
 10
550.79691978758501
 20
384.84096152626756
 11
554.8155755699886
 21
388.85961730867137
  0
LINE
  8
_0-e_極細4
  6
CONTINUOUS
 62
    6
 10
546.44702141777043
 20
384.73370384357185
 11
550.46567720017401
 21
388.75235962597588
  0
LINE
  8
_0-e_極細4
  6
CONTINUOUS
 62
    6
 10
542.09712304795585
 20
384.62644616087636
 11
546.11577883035943
 21
388.64510194328085
  0
LINE
  8
_0-e_極細4
  6
CONTINUOUS
 62
    6
 10
537.74722467814036
 20
384.51918847818087
 11
541.76588046054485
 21
388.53784426058536
  0
LINE
  8
_0-e_極細4
  6
CONTINUOUS
 62
    6
 10
533.39732630832577
 20
384.41193079548492
 11
537.41598209073027
 21
388.4305865778901
  0
LINE
  8
_0-e_極細4
  6
CONTINUOUS
 62
    6
 10
529.12120902254492
 20
384.37845419682407
 11
533.06608372091569
 21
388.32332889519461
  0
LINE
  8
_0-e_極細4
  6
CONTINUOUS
 62
    6
 10
524.87856833542583
 20
384.37845419682407
 11
528.7969363354282
 21
388.29682219682644
  0
LINE
  8
_0-e_極細4
  6
CONTINUOUS
 62
    6
 10
520.63592764830673
 20
384.37845419682407
 11
524.55429564830911
 21
388.29682219682644
  0
LINE
  8
_0-e_極細4
  6
CONTINUOUS
 62
    6
 10
516.39328696118764
 20
384.37845419682407
 11
520.31165496119002
 21
388.29682219682644
  0
LINE
  8
_0-e_極細4
  6
CONTINUOUS
 62
    6
 10
512.15064627406764
 20
384.37845419682407
 11
516.06901427407001
 21
388.29682219682644
  0
LINE
  8
_0-e_極細4
  6
CONTINUOUS
 62
    6
 10
507.90800558694855
 20
384.37845419682407
 11
511.82637358695092
 21
388.29682219682644
  0
LINE
  8
_0-e_極細4
  6
CONTINUOUS
 62
    6
 10
503.66536489982946
 20
384.37845419682407
 11
507.58373289983183
 21
388.29682219682644
  0
LINE
  8
_0-e_極細4
  6
CONTINUOUS
 62
    6
 10
499.42272421271036
 20
384.37845419682407
 11
503.34109221271274
 21
388.29682219682644
  0
LINE
  8
_0-e_極細4
  6
CONTINUOUS
 62
    6
 10
495.18008352559127
 20
384.37845419682407
 11
499.09845152559365
 21
388.29682219682644
  0
LINE
  8
_0-e_極細4
  6
CONTINUOUS
 62
    6
 10
490.93744283847127
 20
384.37845419682407
 11
494.85581083847364
 21
388.29682219682644
  0
LINE
  8
_0-e_極細4
  6
CONTINUOUS
 62
    6
 10
486.69480215135218
 20
384.37845419682407
 11
490.61317015135455
 21
388.29682219682644
  0
LINE
  8
_0-e_極細4
  6
CONTINUOUS
 62
    6
 10
482.45216146423309
 20
384.37845419682407
 11
486.37052946423546
 21
388.29682219682644
  0
LINE
  8
_0-e_極細4
  6
CONTINUOUS
 62
    6
 10
478.20952077711399
 20
384.37845419682407
 11
482.12788877711637
 21
388.29682219682644
  0
LINE
  8
_0-e_極細4
  6
CONTINUOUS
 62
    6
 10
473.96688008999399
 20
384.37845419682407
 11
477.88524808999637
 21
388.29682219682644
  0
LINE
  8
_0-e_極細4
  6
CONTINUOUS
 62
    6
 10
469.7242394028749
 20
384.37845419682407
 11
473.64260740287727
 21
388.29682219682644
  0
LINE
  8
_0-e_極細4
  6
CONTINUOUS
 62
    6
 10
465.48159871575581
 20
384.37845419682407
 11
469.39996671575818
 21
388.29682219682644
  0
LINE
  8
_0-e_極細4
  6
CONTINUOUS
 62
    6
 10
461.23895802863672
 20
384.37845419682407
 11
465.15732602863909
 21
388.29682219682644
  0
LINE
  8
_0-e_極細4
  6
CONTINUOUS
 62
    6
 10
456.99631734151762
 20
384.37845419682407
 11
460.91468534152
 21
388.29682219682644
  0
LINE
  8
_0-e_極細4
  6
CONTINUOUS
 62
    6
 10
452.75367665439762
 20
384.37845419682407
 11
456.6720446544
 21
388.29682219682644
  0
LINE
  8
_0-e_極細4
  6
CONTINUOUS
 62
    6
 10
448.51103596727853
 20
384.37845419682407
 11
452.4294039672809
 21
388.29682219682644
  0
LINE
  8
_0-e_極細4
  6
CONTINUOUS
 62
    6
 10
444.26839528015944
 20
384.37845419682407
 11
448.18676328016181
 21
388.29682219682644
  0
LINE
  8
_0-e_極細4
  6
CONTINUOUS
 62
    6
 10
440.02575459304035
 20
384.37845419682407
 11
443.94412259304272
 21
388.29682219682644
  0
LINE
  8
_0-e_極細4
  6
CONTINUOUS
 62
    6
 10
435.78311390592035
 20
384.37845419682407
 11
439.70148190592272
 21
388.29682219682644
  0
LINE
  8
_0-e_極細4
  6
CONTINUOUS
 62
    6
 10
431.54047321880125
 20
384.37845419682407
 11
435.45884121880363
 21
388.29682219682644
  0
LINE
  8
_0-e_極細4
  6
CONTINUOUS
 62
    6
 10
430.77844717144626
 20
387.85906883658771
 11
431.21620053168454
 21
388.29682219682644
  0
LINE
  8
_0-e_極細4
  6
CONTINUOUS
 62
    6
 10
600.84558281431828
 20
490.04395348555164
 11
603.54987117144492
 21
492.74824184267874
  0
LINE
  8
_0-e_極細4
  6
CONTINUOUS
 62
    6
 10
596.70503764480554
 20
490.14604900315845
 11
600.53026677798289
 21
493.97127813633534
  0
LINE
  8
_0-e_極細4
  6
CONTINUOUS
 62
    6
 10
592.56449247529281
 20
490.24814452076481
 11
596.38972164310553
 21
494.07337368857753
  0
LINE
  8
_0-e_極細4
  6
CONTINUOUS
 62
    6
 10
588.42394730578008
 20
490.35024003837117
 11
592.24917650822908
 21
494.17546924081972
  0
LINE
  8
_0-e_極細4
  6
CONTINUOUS
 62
    6
 10
584.28340213626734
 20
490.45233555597753
 11
588.10863137335173
 21
494.27756479306191
  0
LINE
  8
_0-e_極細4
  6
CONTINUOUS
 62
    6
 10
580.14285696675461
 20
490.55443107358388
 11
583.96808623847437
 21
494.3796603453041
  0
LINE
  8
_0-e_極細4
  6
CONTINUOUS
 62
    6
 10
576.00231179724187
 20
490.65652659119024
 11
579.82754110359701
 21
494.48175589754629
  0
LINE
  8
_0-e_極細4
  6
CONTINUOUS
 62
    6
 10
571.86176662772823
 20
490.7586221087966
 11
575.68699596871966
 21
494.58385144978848
  0
LINE
  8
_0-e_極細4
  6
CONTINUOUS
 62
    6
 10
567.7212214582155
 20
490.86071762640341
 11
571.54645083384321
 21
494.68594700203022
  0
LINE
  8
_0-e_極細4
  6
CONTINUOUS
 62
    6
 10
563.58067628870276
 20
490.96281314400977
 11
567.40590569896585
 21
494.78804255427241
  0
LINE
  8
_0-e_極細4
  6
CONTINUOUS
 62
    6
 10
559.44013111919003
 20
491.06490866161613
 11
563.2653605640885
 21
494.8901381065146
  0
LINE
  8
_0-e_極細4
  6
CONTINUOUS
 62
    6
 10
555.29958594967729
 20
491.16700417922249
 11
559.12481542921114
 21
494.99223365875679
  0
LINE
  8
_0-e_極細4
  6
CONTINUOUS
 62
    6
 10
551.15904078016456
 20
491.26909969682885
 11
554.98427029433378
 21
495.09432921099898
  0
LINE
  8
_0-e_極細4
  6
CONTINUOUS
 62
    6
 10
547.01849561065092
 20
491.3711952144352
 11
550.84372515945734
 21
495.19642476324071
  0
LINE
  8
_0-e_極細4
  6
CONTINUOUS
 62
    6
 10
542.87795044113818
 20
491.47329073204156
 11
546.70318002457998
 21
495.2985203154829
  0
LINE
  8
_0-e_極細4
  6
CONTINUOUS
 62
    6
 10
538.73740527162545
 20
491.57538624964792
 11
542.56263488970262
 21
495.40061586772509
  0
LINE
  8
_0-e_極細4
  6
CONTINUOUS
 62
    6
 10
534.59686010211271
 20
491.67748176725473
 11
538.42208975482527
 21
495.50271141996728
  0
LINE
  8
_0-e_極細4
  6
CONTINUOUS
 62
    6
 10
530.45631493259998
 20
491.77957728486064
 11
534.28154461994791
 21
495.60480697220947
  0
LINE
  8
_0-e_極細4
  6
CONTINUOUS
 62
    6
 10
526.31576976308725
 20
491.88167280246745
 11
531.77844717144535
 21
497.34435021082601
  0
LINE
  8
_0-e_極細4
  6
CONTINUOUS
 62
    6
 10
522.1752245935736
 20
491.98376832007381
 11
531.77844717144535
 21
501.5869908979451
  0
LINE
  8
_0-e_極細4
  6
CONTINUOUS
 62
    6
 10
518.03467942406178
 20
492.08586383768017
 11
531.77844717144535
 21
505.82963158506419
  0
LINE
  8
_0-e_極細4
  6
CONTINUOUS
 62
    6
 10
513.89413425454813
 20
492.18795935528652
 11
531.77844717144535
 21
510.07227227218374
  0
LINE
  8
_0-e_極細4
  6
CONTINUOUS
 62
    6
 10
509.7535890850354
 20
492.29005487289288
 11
531.77844717144535
 21
514.31491295930277
  0
LINE
  8
_0-e_極細4
  6
CONTINUOUS
 62
    6
 10
509.27844717144535
 20
496.05755364642238
 11
531.77844717144535
 21
518.55755364642232
  0
LINE
  8
_0-e_極細4
  6
CONTINUOUS
 62
    6
 10
509.27844717144535
 20
500.30019433354147
 11
521.50778211237821
 21
512.52952927447427
  0
LINE
  8
_0-e_極細4
  6
CONTINUOUS
 62
    6
 10
526.77844717144626
 20
517.80019433354187
 11
531.77844717144535
 21
522.80019433354141
  0
LINE
  8
_0-e_極細4
  6
CONTINUOUS
 62
    6
 10
509.27844717144535
 20
504.54283502066056
 11
517.26514142525912
 21
512.52952927447427
  0
LINE
  8
_0-e_極細4
  6
CONTINUOUS
 62
    6
 10
526.77844717144626
 20
522.04283502066096
 11
531.77844717144535
 21
527.0428350206605
  0
LINE
  8
_0-e_極細4
  6
CONTINUOUS
 62
    6
 10
509.27844717144535
 20
508.78547570778011
 11
513.02250073814002
 21
512.52952927447427
  0
LINE
  8
_0-e_極細4
  6
CONTINUOUS
 62
    6
 10
526.77844717144626
 20
526.28547570778051
 11
531.77844717144535
 21
531.28547570778005
  0
LINE
  8
_0-e_極細4
  6
CONTINUOUS
 62
    6
 10
526.77844717144626
 20
530.5281163948996
 11
531.77844717144535
 21
535.52811639489914
  0
LINE
  8
_0-e_極細4
  6
CONTINUOUS
 62
    6
 10
526.77844717144626
 20
534.77075708201869
 11
531.77844717144535
 21
539.77075708201869
  0
LINE
  8
_0-e_極細4
  6
CONTINUOUS
 62
    6
 10
526.77844717144626
 20
539.01339776913824
 11
531.77844717144535
 21
544.01339776913778
  0
LINE
  8
_0-e_極細4
  6
CONTINUOUS
 62
    6
 10
526.77844717144626
 20
543.25603845625778
 11
531.77844717144535
 21
548.25603845625733
  0
LINE
  8
_0-e_極細4
  6
CONTINUOUS
 62
    6
 10
526.77844717144626
 20
547.49867914337688
 11
531.77844717144535
 21
552.49867914337642
  0
LINE
  8
_0-e_極細4
  6
CONTINUOUS
 62
    6
 10
526.77844717144626
 20
551.74131983049597
 11
528.97306417322716
 21
553.93593683227732
  0
LINE
  8
_0-e_極細4
  6
CONTINUOUS
 62
    6
 10
528.97306417322716
 20
553.93593683227732
 11
531.85113420019252
 21
556.81400685924268
  0
LINE
  8
_0-e_極細4
  6
CONTINUOUS
 62
    6
 10
526.77844717144626
 20
555.98396051761551
 11
536.77844717144535
 21
565.98396051761506
  0
LINE
  8
_0-e_極細4
  6
CONTINUOUS
 62
    6
 10
526.77844717144626
 20
560.22660120473461
 11
536.77844717144535
 21
570.22660120473461
  0
LINE
  8
_0-e_極細4
  6
CONTINUOUS
 62
    6
 10
526.77844717144626
 20
564.46924189185415
 11
536.77844717144535
 21
574.4692418918537
  0
LINE
  8
_0-e_極細4
  6
CONTINUOUS
 62
    6
 10
542.57994747641851
 20
580.27074219682686
 11
544.57844717144644
 21
582.26924189185434
  0
LINE
  8
_0-e_極細4
  6
CONTINUOUS
 62
    6
 10
528.1411296527117
 20
570.07456506023914
 11
536.77844717144535
 21
578.71188257897325
  0
LINE
  8
_0-e_極細4
  6
CONTINUOUS
 62
    6
 10
538.33730678929942
 20
580.27074219682686
 11
544.57844717144644
 21
586.51188257897343
  0
LINE
  8
_0-e_極細4
  6
CONTINUOUS
 62
    6
 10
527.77844717144626
 20
573.95452326609279
 11
544.57844717144644
 21
590.75452326609252
  0
LINE
  8
_0-e_極細4
  6
CONTINUOUS
 62
    6
 10
530.73644717144589
 20
581.15516395321197
 11
544.57844717144644
 21
594.99716395321207
  0
LINE
  8
_0-e_極細4
  6
CONTINUOUS
 62
    6
 10
530.73644717144589
 20
585.39780464033106
 11
544.57844717144644
 21
599.23980464033116
  0
LINE
  8
_0-e_極細4
  6
CONTINUOUS
 62
    6
 10
530.73644717144589
 20
589.64044532745015
 11
544.57844717144644
 21
603.48244532745071
  0
LINE
  8
_0-e_極細4
  6
CONTINUOUS
 62
    6
 10
530.73644717144589
 20
593.8830860145697
 11
544.57844717144644
 21
607.7250860145698
  0
LINE
  8
_0-e_極細4
  6
CONTINUOUS
 62
    6
 10
530.73644717144589
 20
598.12572670168925
 11
540.39827567035945
 21
607.78755520060236
  0
LINE
  8
_0-e_極細4
  6
CONTINUOUS
 62
    6
 10
530.73644717144589
 20
602.36836738880834
 11
535.60113203442552
 21
607.23305225178751
  0
LINE
  8
_0-e_極細4
  6
CONTINUOUS
 62
    6
 10
530.73644717144589
 20
606.61100807592743
 11
530.80398839849158
 21
606.67854930297267
  0
TEXT
  8
_0-7_枠細線
 62
    5
 10
336.09454587884841
 20
292.06727955251961
 40
40
 41
0.8
 50
0
  1
排水部詳細図
  0
TEXT
  8
_0-7_枠細線
 62
    5
 10
553.02439226775789
 20
295.06557101585122
 40
32
 41
0.6000000000000002
 50
0
  1
Ｓ＝１：４
  0
LINE
  8
_1-1_寸法4
  6
CONTINUOUS
 62
    7
 10
340.52329972403686
 20
412.12156574417776
 11
330.81523851119823
 21
399.40332893682984
  0
LINE
  8
_1-1_寸法4
  6
CONTINUOUS
 62
    7
 10
340.52329972403686
 20
412.12156574417776
 11
325.75675368855036
 21
405.9612801840874
  0
LINE
  8
_1-1_寸法4
  6
CONTINUOUS
 62
    7
 10
340.52329972403686
 20
412.12156574417776
 11
305.92492379256907
 21
385.43406031162573
  0
LINE
  8
_1-1_寸法4
  6
CONTINUOUS
 62
    7
 10
305.92492379256907
 20
385.43406031162573
 11
190.72492379256914
 21
385.43406031162573
  0
TEXT
  8
_1-1_寸法4
 62
    7
 10
190.72492379256914
 20
385.43406031162607
 40
24
 41
0.7999999999999998
 50
-0.0000000000001696
  1
トラップ本体
  0
LINE
  8
_1-1_寸法4
  6
CONTINUOUS
 62
    7
 10
400.10554515485319
 20
500.38258721421636
 11
390.48192252370166
 21
487.60033829420274
  0
LINE
  8
_1-1_寸法4
  6
CONTINUOUS
 62
    7
 10
400.10554515485319
 20
500.38258721421636
 11
385.38011901983441
 21
494.1246462475641
  0
LINE
  8
_1-1_寸法4
  6
CONTINUOUS
 62
    7
 10
400.10554515485319
 20
500.38258721421636
 11
305.92492379256907
 21
426.73630511084758
  0
LINE
  8
_1-1_寸法4
  6
CONTINUOUS
 62
    7
 10
305.92492379256907
 20
426.73630511084758
 11
152.32492379256905
 21
426.73630511084758
  0
TEXT
  8
_1-1_寸法4
 62
    7
 10
152.32492379256905
 20
426.73630511084804
 40
24
 41
0.7999999999999998
 50
-0.0000000000001696
  1
防臭インナー１号
  0
LINE
  8
_1-1_寸法4
  6
CONTINUOUS
 62
    7
 10
363.55202035067168
 20
532.14019940123285
 11
353.93494364897913
 21
519.35302474403193
  0
LINE
  8
_1-1_寸法4
  6
CONTINUOUS
 62
    7
 10
363.55202035067168
 20
532.14019940123285
 11
348.82980028826205
 21
525.87471965631448
  0
LINE
  8
_1-1_寸法4
  6
CONTINUOUS
 62
    7
 10
363.55202035067168
 20
532.14019940123285
 11
305.92492379256907
 21
487.03005650924757
  0
LINE
  8
_1-1_寸法4
  6
CONTINUOUS
 62
    7
 10
305.92492379256907
 20
487.03005650924757
 11
152.32492379256905
 21
487.03005650924757
  0
TEXT
  8
_1-1_寸法4
 62
    7
 10
152.32492379256905
 20
487.03005650924757
 40
24
 41
0.7999999999999998
 50
-0.0000000000001696
  1
防臭インナー２号
  0
LINE
  8
_1-1_寸法4
  6
CONTINUOUS
 62
    7
 10
384.76613000290445
 20
604.74961590053476
 11
372.18366788092294
 21
614.63301850029268
  0
LINE
  8
_1-1_寸法4
  6
CONTINUOUS
 62
    7
 10
384.76613000290445
 20
604.74961590053476
 11
378.81109946299193
 21
619.60012468874504
  0
LINE
  8
_1-1_寸法4
  6
CONTINUOUS
 62
    7
 10
384.76613000290445
 20
604.74961590053476
 11
359.2205881030244
 21
638.83411595852203
  0
LINE
  8
_1-1_寸法4
  6
CONTINUOUS
 62
    7
 10
359.2205881030244
 20
638.83411595852203
 11
244.02058810302447
 21
638.83411595852203
  0
TEXT
  8
_1-1_寸法4
 62
    7
 10
244.02058810302447
 20
638.83411595852237
 40
24
 41
0.7999999999999998
 50
-0.0000000000001696
  1
ストレーナー
  0
TEXT
  8
_1-1_寸法4
 62
    7
 10
537.94739563220401
 20
631.34905454747877
 40
24
 41
0.8000000000000001
 50
0
  1
Ｃ部
  0
LINE
  8
_1-2_極細2
  6
CONTINUOUS
 62
    2
 10
1178.0919172966792
 20
426.89956285674646
 11
1154.091917296679
 21
426.89956285674646
  0
LINE
  8
_1-2_極細2
  6
CONTINUOUS
 62
    2
 10
799.42525063001199
 20
426.89956285674646
 11
823.42525063001199
 21
426.89956285674646
  0
LINE
  8
_1-2_極細2
  6
CENTER1
 62
    2
 10
988.75858396334547
 20
445.87586831004666
 11
988.75858396334547
 21
357.24277478486658
  0
LINE
  8
_1-2_極細2
  6
CONTINUOUS
 62
    2
 10
796.75858396334547
 20
408.23289619007994
 11
796.75858396334547
 21
429.56622952341314
  0
LINE
  8
_1-2_極細2
  6
CONTINUOUS
 62
    2
 10
796.75858396334547
 20
429.56622952341314
 11
826.09191729667896
 21
429.56622952341314
  0
LINE
  8
_1-2_極細2
  6
CONTINUOUS
 62
    2
 10
1180.758583963345
 20
408.23289619007966
 11
1180.7585839633459
 21
429.56622952341314
  0
LINE
  8
_1-2_極細2
  6
CONTINUOUS
 62
    2
 10
1151.4252506300124
 20
429.56622952341314
 11
1180.7585839633459
 21
429.56622952341314
  0
LINE
  8
_1-5_寸法2
  6
CONTINUOUS
 62
    7
 10
796.75858396334547
 20
445.56622952341314
 11
796.75858396334547
 21
629.5662295234132
  0
LINE
  8
_1-5_寸法2
  6
CONTINUOUS
 62
    7
 10
796.75858396334547
 20
621.5662295234132
 11
812.21339718397053
 21
625.70733424505352
  0
LINE
  8
_1-5_寸法2
  6
CONTINUOUS
 62
    7
 10
796.75858396334547
 20
621.5662295234132
 11
812.21339718397053
 21
617.42512480177288
  0
LINE
  8
_1-5_寸法2
  6
CONTINUOUS
 62
    7
 10
1180.7585839633455
 20
445.56622952341314
 11
1180.7585839633455
 21
629.5662295234132
  0
LINE
  8
_1-5_寸法2
  6
CONTINUOUS
 62
    7
 10
1180.7585839633455
 20
621.5662295234132
 11
1165.3037707427204
 21
617.42512480177288
  0
LINE
  8
_1-5_寸法2
  6
CONTINUOUS
 62
    7
 10
1180.7585839633455
 20
621.5662295234132
 11
1165.3037707427204
 21
625.70733424505363
  0
LINE
  8
_1-5_寸法2
  6
CONTINUOUS
 62
    7
 10
796.75858396334547
 20
621.5662295234132
 11
1180.7585839633455
 21
621.5662295234132
  0
TEXT
  8
_1-5_寸法2
 62
    7
 10
970.7585839633457
 20
621.5662295234132
 40
24
 41
1
 50
0
  1
144
  0
LINE
  8
_1-5_寸法2
  6
CONTINUOUS
 62
    7
 10
1151.4252506300124
 20
445.56622952341314
 11
1151.4252506300127
 21
573.5662295234132
  0
LINE
  8
_1-5_寸法2
  6
CONTINUOUS
 62
    7
 10
1151.4252506300127
 20
565.5662295234132
 11
1166.8800638506377
 21
569.70733424505352
  0
LINE
  8
_1-5_寸法2
  6
CONTINUOUS
 62
    7
 10
1151.4252506300127
 20
565.5662295234132
 11
1166.8800638506377
 21
561.42512480177288
  0
LINE
  8
_1-5_寸法2
  6
CONTINUOUS
 62
    7
 10
1180.7585839633455
 20
445.56622952341314
 11
1180.7585839633464
 21
573.5662295234132
  0
LINE
  8
_1-5_寸法2
  6
CONTINUOUS
 62
    7
 10
1180.7585839633464
 20
565.5662295234132
 11
1165.3037707427213
 21
561.42512480177288
  0
LINE
  8
_1-5_寸法2
  6
CONTINUOUS
 62
    7
 10
1180.7585839633464
 20
565.5662295234132
 11
1165.3037707427213
 21
569.70733424505363
  0
LINE
  8
_1-5_寸法2
  6
CONTINUOUS
 62
    7
 10
1151.4252506300127
 20
565.5662295234132
 11
1180.7585839633464
 21
565.5662295234132
  0
TEXT
  8
_1-5_寸法2
 62
    7
 10
1154.0919172966794
 20
565.5662295234132
 40
24
 41
1
 50
0
  1
11
  0
LINE
  8
_1-5_寸法2
  6
CONTINUOUS
 62
    7
 10
830.75858396334729
 20
445.56622952341314
 11
830.75858396334775
 21
573.5662295234132
  0
LINE
  8
_1-5_寸法2
  6
CONTINUOUS
 62
    7
 10
830.75858396334775
 20
565.5662295234132
 11
846.2133971839728
 21
569.70733424505352
  0
LINE
  8
_1-5_寸法2
  6
CONTINUOUS
 62
    7
 10
830.75858396334775
 20
565.5662295234132
 11
846.2133971839728
 21
561.42512480177288
  0
LINE
  8
_1-5_寸法2
  6
CONTINUOUS
 62
    7
 10
1146.7585839633455
 20
445.56622952341314
 11
1146.7585839633464
 21
573.5662295234132
  0
LINE
  8
_1-5_寸法2
  6
CONTINUOUS
 62
    7
 10
1146.7585839633464
 20
565.5662295234132
 11
1131.3037707427213
 21
561.42512480177288
  0
LINE
  8
_1-5_寸法2
  6
CONTINUOUS
 62
    7
 10
1146.7585839633464
 20
565.5662295234132
 11
1131.3037707427213
 21
569.70733424505363
  0
LINE
  8
_1-5_寸法2
  6
CONTINUOUS
 62
    7
 10
830.75858396334775
 20
565.5662295234132
 11
1146.7585839633464
 21
565.5662295234132
  0
TEXT
  8
_1-5_寸法2
 62
    7
 10
958.75858396334684
 20
565.5662295234132
 40
24
 41
1
 50
0
  1
118.5
  0
LINE
  8
_1-5_寸法2
  6
CONTINUOUS
 62
    7
 10
796.75858396334559
 20
445.56622952341314
 11
796.75858396334615
 21
573.5662295234132
  0
LINE
  8
_1-5_寸法2
  6
CONTINUOUS
 62
    7
 10
796.75858396334615
 20
565.5662295234132
 11
812.21339718397121
 21
569.70733424505352
  0
LINE
  8
_1-5_寸法2
  6
CONTINUOUS
 62
    7
 10
796.75858396334615
 20
565.5662295234132
 11
812.21339718397121
 21
561.42512480177288
  0
LINE
  8
_1-5_寸法2
  6
CONTINUOUS
 62
    7
 10
826.09191729667896
 20
445.56622952341314
 11
826.09191729667896
 21
573.5662295234132
  0
LINE
  8
_1-5_寸法2
  6
CONTINUOUS
 62
    7
 10
826.09191729667896
 20
565.5662295234132
 11
810.6371040760539
 21
561.42512480177288
  0
LINE
  8
_1-5_寸法2
  6
CONTINUOUS
 62
    7
 10
826.09191729667896
 20
565.5662295234132
 11
810.6371040760539
 21
569.70733424505363
  0
LINE
  8
_1-5_寸法2
  6
CONTINUOUS
 62
    7
 10
796.75858396334615
 20
565.5662295234132
 11
826.09191729667896
 21
565.5662295234132
  0
TEXT
  8
_1-5_寸法2
 62
    7
 10
799.4252506300129
 20
565.5662295234132
 40
24
 41
1
 50
0
  1
11
  0
LINE
  8
_1-5_寸法2
  6
CONTINUOUS
 62
    7
 10
780.75858396334547
 20
429.56622952341326
 11
708.75858396334547
 21
429.56622952341365
  0
LINE
  8
_1-5_寸法2
  6
CONTINUOUS
 62
    7
 10
716.75858396334547
 20
429.5662295234136
 11
720.89968868498579
 21
414.11141630278848
  0
LINE
  8
_1-5_寸法2
  6
CONTINUOUS
 62
    7
 10
716.75858396334547
 20
429.5662295234136
 11
712.61747924170515
 21
414.11141630278848
  0
LINE
  8
_1-5_寸法2
  6
CONTINUOUS
 62
    7
 10
807.42525063001199
 20
376.23289619007971
 11
708.75858396334547
 21
376.23289619008017
  0
LINE
  8
_1-5_寸法2
  6
CONTINUOUS
 62
    7
 10
716.75858396334547
 20
376.23289619008011
 11
712.61747924170515
 21
391.68770941070522
  0
LINE
  8
_1-5_寸法2
  6
CONTINUOUS
 62
    7
 10
716.75858396334547
 20
376.23289619008011
 11
720.89968868498579
 21
391.68770941070522
  0
LINE
  8
_1-5_寸法2
  6
CONTINUOUS
 62
    7
 10
716.75858396334547
 20
429.5662295234136
 11
716.75858396334547
 21
376.23289619008011
  0
TEXT
  8
_1-5_寸法2
 62
    7
 10
716.75858396334547
 20
390.89956285674663
 40
24
 41
1
 50
90
  1
20
  0
LINE
  8
_1-5_寸法2
  6
CONTINUOUS
 62
    7
 10
1196.7585839633448
 20
408.23289619007949
 11
1268.7585839633452
 21
408.23289619007863
  0
LINE
  8
_1-5_寸法2
  6
CONTINUOUS
 62
    7
 10
1260.7585839633452
 20
408.23289619007875
 11
1256.617479241705
 21
423.68770941070386
  0
LINE
  8
_1-5_寸法2
  6
CONTINUOUS
 62
    7
 10
1260.7585839633452
 20
408.23289619007875
 11
1264.8996886849857
 21
423.68770941070386
  0
LINE
  8
_1-5_寸法2
  6
CONTINUOUS
 62
    7
 10
1196.7585839633448
 20
429.56622952341297
 11
1268.7585839633452
 21
429.56622952341212
  0
LINE
  8
_1-5_寸法2
  6
CONTINUOUS
 62
    7
 10
1260.7585839633452
 20
429.56622952341223
 11
1264.8996886849857
 21
414.11141630278712
  0
LINE
  8
_1-5_寸法2
  6
CONTINUOUS
 62
    7
 10
1260.7585839633452
 20
429.56622952341223
 11
1256.617479241705
 21
414.11141630278712
  0
LINE
  8
_1-5_寸法2
  6
CONTINUOUS
 62
    7
 10
1260.7585839633452
 20
408.23289619007875
 11
1260.7585839633452
 21
429.56622952341223
  0
TEXT
  8
_1-5_寸法2
 62
    7
 10
1260.7585839633452
 20
412.89956285674572
 40
24
 41
1
 50
90
  1
8
  0
LINE
  8
_1-2_極細2
  6
CONTINUOUS
 62
    2
 10
799.42525063001199
 20
408.23289619007994
 11
799.42525063001199
 21
426.89956285674646
  0
LINE
  8
_1-2_極細2
  6
CONTINUOUS
 62
    2
 10
796.75858396334547
 20
408.23289619007994
 11
799.42525063001199
 21
408.23289619007994
  0
LINE
  8
_1-2_極細2
  6
CONTINUOUS
 62
    2
 10
823.42525063001199
 20
426.89956285674646
 11
823.42525063001199
 21
376.23289619007966
  0
LINE
  8
_1-2_極細2
  6
CONTINUOUS
 62
    2
 10
1178.0919172966785
 20
408.23289619007966
 11
1180.758583963345
 21
408.23289619007966
  0
LINE
  8
_1-2_極細2
  6
CONTINUOUS
 62
    2
 10
1178.0919172966785
 20
408.23289619007966
 11
1178.0919172966792
 21
426.89956285674646
  0
LINE
  8
_1-2_極細2
  6
CONTINUOUS
 62
    2
 10
1154.091917296679
 20
376.23289619007966
 11
823.42525063001199
 21
376.23289619007966
  0
LINE
  8
_1-2_極細2
  6
CONTINUOUS
 62
    2
 10
1154.091917296679
 20
426.89956285674646
 11
1154.091917296679
 21
376.23289619007966
  0
LINE
  8
_1-2_極細2
  6
CONTINUOUS
 62
    2
 10
1151.4252506300124
 20
378.89956285674634
 11
1151.4252506300124
 21
429.56622952341314
  0
LINE
  8
_1-2_極細2
  6
CONTINUOUS
 62
    2
 10
1151.4252506300124
 20
378.89956285674634
 11
826.09191729667896
 21
378.89956285674634
  0
LINE
  8
_1-2_極細2
  6
CONTINUOUS
 62
    2
 10
826.09191729667896
 20
378.89956285674634
 11
826.09191729667896
 21
429.56622952341314
  0
LINE
  8
_1-3_細線2
  6
CONTINUOUS
 62
    4
 10
875.29191729667809
 20
421.29956285674592
 11
895.5585839633452
 21
421.29956285674592
  0
LINE
  8
_1-3_細線2
  6
CONTINUOUS
 62
    4
 10
895.5585839633452
 20
421.29956285674592
 11
895.5585839633452
 21
381.83289619007974
  0
LINE
  8
_1-3_細線2
  6
CONTINUOUS
 62
    4
 10
898.75858396334525
 20
421.29956285674626
 11
898.75858396334525
 21
381.83289619007974
  0
ARC
  8
_1-3_細線2
  6
CONTINUOUS
 62
    4
 10
895.5585839633452
 20
421.29956285674626
 40
3.1999999999999997
 50
0
 51
89.999999999999915
  0
LINE
  8
_1-3_細線2
  6
CONTINUOUS
 62
    4
 10
875.29191729667787
 20
424.49956285674637
 11
895.5585839633452
 21
424.49956285674637
  0
ARC
  8
_1-3_細線2
  6
CONTINUOUS
 62
    4
 10
875.29191729667787
 20
421.29956285674626
 40
3.1999999999999997
 50
89.999999999999915
 51
179.99999999999983
  0
LINE
  8
_1-3_細線2
  6
CONTINUOUS
 62
    4
 10
895.5585839633452
 20
381.83289619007974
 11
898.75858396334525
 21
381.83289619007974
  0
LINE
  8
_1-3_細線2
  6
CONTINUOUS
 62
    4
 10
872.09191729667805
 20
408.4995624812712
 11
875.29191729667878
 21
408.49956248127103
  0
LINE
  8
_1-3_細線2
  6
CONTINUOUS
 62
    4
 10
875.29191729667809
 20
421.29956285674592
 11
875.29191729667878
 21
408.4995624812712
  0
LINE
  8
_1-3_細線2
  6
CONTINUOUS
 62
    4
 10
872.09191729667805
 20
421.29956285674626
 11
872.09191729667805
 21
408.4995624812712
  0
LINE
  8
_1-3_細線2
  6
CONTINUOUS
 62
    4
 10
857.42525063001381
 20
385.9662291479379
 11
895.55858396334634
 21
385.9662291479379
  0
LINE
  8
_1-3_細線2
  6
CONTINUOUS
 62
    4
 10
857.42525063001381
 20
404.36622914793799
 11
895.55858396334634
 21
404.36622914793799
  0
LINE
  8
_1-3_細線2
  6
CONTINUOUS
 62
    4
 10
854.2252506300149
 20
421.29956285674592
 11
854.2252506300149
 21
381.83289619007974
  0
LINE
  8
_1-3_細線2
  6
CONTINUOUS
 62
    4
 10
833.95858396334847
 20
421.29956285674592
 11
854.2252506300149
 21
421.29956285674592
  0
LINE
  8
_1-3_細線2
  6
CONTINUOUS
 62
    4
 10
857.42525063001381
 20
421.29956285674626
 11
857.42525063001381
 21
381.83289619007974
  0
ARC
  8
_1-3_細線2
  6
CONTINUOUS
 62
    4
 10
854.22525063001353
 20
421.29956285674626
 40
3.1999999999999997
 50
0
 51
89.999999999999915
  0
LINE
  8
_1-3_細線2
  6
CONTINUOUS
 62
    4
 10
833.95858396334756
 20
424.49956285674637
 11
854.22525063001353
 21
424.49956285674637
  0
ARC
  8
_1-3_細線2
  6
CONTINUOUS
 62
    4
 10
833.95858396334756
 20
421.29956285674626
 40
3.1999999999999997
 50
89.999999999999915
 51
179.99999999999983
  0
LINE
  8
_1-3_細線2
  6
CONTINUOUS
 62
    4
 10
854.2252506300149
 20
381.83289619007974
 11
857.42525063001381
 21
381.83289619007974
  0
LINE
  8
_1-3_細線2
  6
CONTINUOUS
 62
    4
 10
830.75858396334775
 20
408.4995624812712
 11
833.95858396334847
 21
408.49956248127103
  0
LINE
  8
_1-3_細線2
  6
CONTINUOUS
 62
    4
 10
833.95858396334847
 20
421.29956285674592
 11
833.95858396334847
 21
408.4995624812712
  0
LINE
  8
_1-3_細線2
  6
CONTINUOUS
 62
    4
 10
830.75858396334775
 20
421.29956285674626
 11
830.75858396334775
 21
408.4995624812712
  0
LINE
  8
_1-2_極細2
  6
CONTINUOUS
 62
    2
 10
879.42525063001244
 20
381.83289619007974
 11
879.42525063001244
 21
380.23289619007966
  0
LINE
  8
_1-2_極細2
  6
CONTINUOUS
 62
    2
 10
880.75858396334593
 20
381.83289619007974
 11
880.75858396334593
 21
380.23289619007966
  0
LINE
  8
_1-2_極細2
  6
CONTINUOUS
 62
    2
 10
879.42525063001267
 20
380.80000000000007
 11
880.7585839633457
 21
380.80000000000007
  0
LINE
  8
_1-2_極細2
  6
CONTINUOUS
 62
    2
 10
879.42525063001267
 20
381.60000000000008
 11
880.7585839633457
 21
381.60000000000008
  0
LINE
  8
_1-2_極細2
  6
CONTINUOUS
 62
    2
 10
882.75858396334547
 20
380.23289619007966
 11
882.75858396334547
 21
378.89956285674634
  0
LINE
  8
_1-2_極細2
  6
CONTINUOUS
 62
    2
 10
882.75858396334593
 20
383.16622952341305
 11
882.75858396334547
 21
381.83289619007957
  0
LINE
  8
_1-2_極細2
  6
CONTINUOUS
 62
    2
 10
864.09191729667941
 20
380.23289619007966
 11
864.09191729667896
 21
378.89956285674634
  0
LINE
  8
_1-2_極細2
  6
CONTINUOUS
 62
    2
 10
864.09191729667918
 20
383.16622952341305
 11
864.09191729667941
 21
381.83289619007974
  0
LINE
  8
_1-2_極細2
  6
CONTINUOUS
 62
    2
 10
866.09191729667918
 20
381.83289619007974
 11
866.09191729667918
 21
380.23289619007966
  0
LINE
  8
_1-2_極細2
  6
CONTINUOUS
 62
    2
 10
867.42525063001244
 20
381.83289619007974
 11
867.42525063001244
 21
380.23289619007966
  0
LINE
  8
_1-2_極細2
  6
CONTINUOUS
 62
    2
 10
866.09191729667918
 20
380.80000000000007
 11
867.4252506300129
 21
380.80000000000007
  0
LINE
  8
_1-2_極細2
  6
CONTINUOUS
 62
    2
 10
866.09191729667918
 20
381.60000000000008
 11
867.4252506300129
 21
381.60000000000008
  0
LINE
  8
_1-2_極細2
  6
CONTINUOUS
 62
    2
 10
864.09191729667918
 20
378.89956285674634
 11
882.75858396334547
 21
378.89956285674634
  0
LINE
  8
_1-2_極細2
  6
CONTINUOUS
 62
    2
 10
864.09191729667918
 20
379.20000000000005
 11
882.75858396334547
 21
379.20000000000005
  0
LINE
  8
_1-2_極細2
  6
CONTINUOUS
 62
    2
 10
864.09191729667918
 20
380.00000000000006
 11
882.75858396334547
 21
380.00000000000006
  0
LINE
  8
_1-2_極細2
  6
CONTINUOUS
 62
    2
 10
864.09191729667941
 20
382.40000000000003
 11
882.7585839633457
 21
382.40000000000003
  0
LINE
  8
_1-2_極細2
  6
CONTINUOUS
 62
    2
 10
864.09191729667941
 20
383.16622952341305
 11
882.75858396334547
 21
383.16622952341305
  0
LINE
  8
_1-2_極細2
  6
CONTINUOUS
 62
    2
 10
852.62525063001203
 20
418.36622952341287
 11
854.22525063001217
 21
418.36622952341287
  0
LINE
  8
_1-2_極細2
  6
CONTINUOUS
 62
    2
 10
852.62525063001203
 20
418.36622952341287
 11
852.62525063001203
 21
380.23289619007966
  0
ARC
  8
_1-3_細線2
  6
CONTINUOUS
 62
    4
 10
850.50058929667807
 20
382.36622877246339
 40
0.5333333333333335
 50
179.99999999999983
 51
269.99999999999977
  0
LINE
  8
_1-3_細線2
  6
CONTINUOUS
 62
    4
 10
852.62525063001203
 20
381.83289543912997
 11
850.50058929667807
 21
381.83289543912997
  0
ARC
  8
_1-3_細線2
  6
CONTINUOUS
 62
    4
 10
850.50058929667807
 20
407.96622877246273
 40
0.5333333333333335
 50
89.999999999999915
 51
179.99999999999983
  0
LINE
  8
_1-3_細線2
  6
CONTINUOUS
 62
    4
 10
852.62525063001203
 20
408.49956210579705
 11
850.50058929667807
 21
408.49956210579705
  0
LINE
  8
_1-3_細線2
  6
CONTINUOUS
 62
    4
 10
849.96725596334386
 20
393.83289543912997
 11
849.96725596334386
 21
382.36622877246339
  0
LINE
  8
_1-3_細線2
  6
CONTINUOUS
 62
    4
 10
849.96725596334386
 20
407.96622877246273
 11
849.96725596334386
 21
393.83289543912997
  0
LINE
  8
_1-2_極細2
  6
CONTINUOUS
 62
    2
 10
849.96725596334386
 20
395.16622877246266
 11
841.95521329667713
 21
395.16622877246266
  0
LINE
  8
_1-3_細線2
  6
CONTINUOUS
 62
    4
 10
849.96725596334386
 20
385.83289543913054
 11
841.95518129667857
 21
385.83289543913054
  0
ARC
  8
_1-3_細線2
  6
CONTINUOUS
 62
    4
 10
841.95518129667857
 20
386.36622877246339
 40
0.5333333333333335
 50
179.99999999999983
 51
269.99999999999977
  0
ARC
  8
_1-2_極細2
  6
CONTINUOUS
 62
    2
 10
862.10979463001081
 20
390.49917277246425
 40
20.687882666666667
 50
166.96197800000505
 51
193.03566999999961
  0
ARC
  8
_1-3_細線2
  6
CONTINUOUS
 62
    4
 10
841.95518129667857
 20
403.96622877246421
 40
0.5333333333333335
 50
89.999999999999915
 51
179.99999999999983
  0
ARC
  8
_1-2_極細2
  6
CONTINUOUS
 62
    2
 10
862.10979463001081
 20
399.83327943912957
 40
20.687882666666667
 50
166.96433000000002
 51
193.03802199999825
  0
LINE
  8
_1-3_細線2
  6
CONTINUOUS
 62
    4
 10
849.96725596334386
 20
404.49956210579705
 11
841.95518129667857
 21
404.49956210579705
  0
LINE
  8
_1-3_細線2
  6
CONTINUOUS
 62
    4
 10
841.42184796334436
 20
386.36622877246339
 11
841.42184796334436
 21
403.96622877246421
  0
LINE
  8
_1-3_細線2
  6
CONTINUOUS
 62
    4
 10
1060.8919170245465
 20
421.29956285674592
 11
1040.6252503578814
 21
421.29956285674592
  0
LINE
  8
_1-3_細線2
  6
CONTINUOUS
 62
    4
 10
1040.6252503578814
 20
421.29956285674592
 11
1040.6252503578814
 21
381.83289619007974
  0
ARC
  8
_1-3_細線2
  6
CONTINUOUS
 62
    4
 10
1060.8919170245474
 20
421.29956285674626
 40
3.1999999999999997
 50
0
 51
89.999999999999915
  0
LINE
  8
_1-3_細線2
  6
CONTINUOUS
 62
    4
 10
1037.4252503578807
 20
421.29956285674626
 11
1037.4252503578807
 21
381.83289619007974
  0
LINE
  8
_1-3_細線2
  6
CONTINUOUS
 62
    4
 10
1060.8919170245474
 20
424.49956285674637
 11
1040.625250357881
 21
424.49956285674637
  0
ARC
  8
_1-3_細線2
  6
CONTINUOUS
 62
    4
 10
1040.625250357881
 20
421.29956285674626
 40
3.1999999999999997
 50
89.999999999999915
 51
179.99999999999983
  0
LINE
  8
_1-3_細線2
  6
CONTINUOUS
 62
    4
 10
1037.4252503578807
 20
381.83289619007974
 11
1040.6252503578814
 21
381.83289619007974
  0
LINE
  8
_1-3_細線2
  6
CONTINUOUS
 62
    4
 10
1064.0919170245472
 20
408.4995624812712
 11
1060.8919170245465
 21
408.49956248127103
  0
LINE
  8
_1-3_細線2
  6
CONTINUOUS
 62
    4
 10
1060.8919170245465
 20
421.29956285674592
 11
1060.8919170245465
 21
408.4995624812712
  0
LINE
  8
_1-3_細線2
  6
CONTINUOUS
 62
    4
 10
1064.0919170245472
 20
421.29956285674626
 11
1064.0919170245472
 21
408.4995624812712
  0
LINE
  8
_1-3_細線2
  6
CONTINUOUS
 62
    4
 10
1078.7585839633455
 20
385.9662291479379
 11
1040.6252506300129
 21
385.9662291479379
  0
LINE
  8
_1-3_細線2
  6
CONTINUOUS
 62
    4
 10
1078.7585839633455
 20
404.36622914793799
 11
1040.6252506300129
 21
404.36622914793799
  0
LINE
  8
_1-3_細線2
  6
CONTINUOUS
 62
    4
 10
1123.291917296679
 20
402.05956285674631
 11
1123.291917296679
 21
391.47289619007961
  0
LINE
  8
_1-3_細線2
  6
CONTINUOUS
 62
    4
 10
1123.291917296679
 20
421.29956285674592
 11
1123.291917296679
 21
381.83289619007974
  0
LINE
  8
_1-3_細線2
  6
CONTINUOUS
 62
    4
 10
1102.225250630011
 20
421.29956285674592
 11
1081.9585839633448
 21
421.29956285674592
  0
LINE
  8
_1-3_細線2
  6
CONTINUOUS
 62
    4
 10
1143.558583963345
 20
421.29956285674592
 11
1123.291917296679
 21
421.29956285674592
  0
LINE
  8
_1-3_細線2
  6
CONTINUOUS
 62
    4
 10
1081.9585839633448
 20
421.29956285674592
 11
1081.9585839633448
 21
381.83289619007974
  0
ARC
  8
_1-3_細線2
  6
CONTINUOUS
 62
    4
 10
1143.5585839633457
 20
421.29956285674626
 40
3.1999999999999997
 50
0
 51
89.999999999999915
  0
LINE
  8
_1-3_細線2
  6
CONTINUOUS
 62
    4
 10
1120.091917296678
 20
421.29956285674626
 11
1120.091917296678
 21
381.83289619007974
  0
LINE
  8
_1-3_細線2
  6
CONTINUOUS
 62
    4
 10
1143.5585839633457
 20
424.49956285674637
 11
1123.2919172966781
 21
424.49956285674637
  0
ARC
  8
_1-3_細線2
  6
CONTINUOUS
 62
    4
 10
1123.2919172966781
 20
421.29956285674626
 40
3.1999999999999997
 50
89.999999999999915
 51
179.99999999999983
  0
ARC
  8
_1-3_細線2
  6
CONTINUOUS
 62
    4
 10
1102.2252506300117
 20
421.29956285674626
 40
3.1999999999999997
 50
0
 51
89.999999999999915
  0
LINE
  8
_1-3_細線2
  6
CONTINUOUS
 62
    4
 10
1078.7585839633455
 20
421.29956285674626
 11
1078.7585839633455
 21
381.83289619007974
  0
LINE
  8
_1-3_細線2
  6
CONTINUOUS
 62
    4
 10
1102.2252506300117
 20
424.49956285674637
 11
1081.9585839633457
 21
424.49956285674637
  0
ARC
  8
_1-3_細線2
  6
CONTINUOUS
 62
    4
 10
1081.9585839633457
 20
421.29956285674626
 40
3.1999999999999997
 50
89.999999999999915
 51
179.99999999999983
  0
LINE
  8
_1-3_細線2
  6
CONTINUOUS
 62
    4
 10
1078.7585839633455
 20
381.83289619007974
 11
1081.9585839633448
 21
381.83289619007974
  0
LINE
  8
_1-3_細線2
  6
CONTINUOUS
 62
    4
 10
1120.091917296678
 20
381.83289619007974
 11
1123.291917296679
 21
381.83289619007974
  0
LINE
  8
_1-3_細線2
  6
CONTINUOUS
 62
    4
 10
1146.7585839633457
 20
408.4995624812712
 11
1143.558583963345
 21
408.4995624812712
  0
LINE
  8
_1-3_細線2
  6
CONTINUOUS
 62
    4
 10
1105.4252506300118
 20
408.4995624812712
 11
1102.225250630011
 21
408.4995624812712
  0
LINE
  8
_1-3_細線2
  6
CONTINUOUS
 62
    4
 10
1102.225250630011
 20
421.29956285674592
 11
1102.225250630011
 21
408.4995624812712
  0
LINE
  8
_1-3_細線2
  6
CONTINUOUS
 62
    4
 10
1143.558583963345
 20
421.29956285674592
 11
1143.558583963345
 21
408.4995624812712
  0
LINE
  8
_1-3_細線2
  6
CONTINUOUS
 62
    4
 10
1146.7585839633457
 20
421.29956285674626
 11
1146.7585839633457
 21
408.4995624812712
  0
LINE
  8
_1-3_細線2
  6
CONTINUOUS
 62
    4
 10
1105.4252506300118
 20
421.29956285674626
 11
1105.4252506300118
 21
408.4995624812712
  0
LINE
  8
_1-3_細線2
  6
CONTINUOUS
 62
    4
 10
1120.0919175688109
 20
385.9662291479379
 11
1081.9585842354784
 21
385.9662291479379
  0
LINE
  8
_1-3_細線2
  6
CONTINUOUS
 62
    4
 10
1120.0919175688109
 20
404.36622914793799
 11
1081.9585842354784
 21
404.36622914793799
  0
LINE
  8
_1-2_極細2
  6
CONTINUOUS
 62
    2
 10
1113.4252503578807
 20
383.16622952341305
 11
1113.4252503578807
 21
381.83289619007957
  0
LINE
  8
_1-2_極細2
  6
CONTINUOUS
 62
    2
 10
1113.4252503578807
 20
380.23289619007966
 11
1113.4252503578807
 21
378.89956285674634
  0
LINE
  8
_1-2_極細2
  6
CONTINUOUS
 62
    2
 10
1110.0919170245475
 20
381.83289619007974
 11
1110.0919170245475
 21
380.23289619007966
  0
LINE
  8
_1-2_極細2
  6
CONTINUOUS
 62
    2
 10
1111.4252503578807
 20
381.83289619007974
 11
1111.4252503578807
 21
380.23289619007966
  0
LINE
  8
_1-2_極細2
  6
CONTINUOUS
 62
    2
 10
1110.0919170245475
 20
380.80000000000007
 11
1111.4252503578807
 21
380.80000000000007
  0
LINE
  8
_1-2_極細2
  6
CONTINUOUS
 62
    2
 10
1110.0919170245475
 20
381.60000000000008
 11
1111.4252503578807
 21
381.60000000000008
  0
LINE
  8
_1-2_極細2
  6
CONTINUOUS
 62
    2
 10
1094.7585836912142
 20
383.16622952341305
 11
1094.7585836912147
 21
381.83289619007974
  0
LINE
  8
_1-2_極細2
  6
CONTINUOUS
 62
    2
 10
1094.7585836912147
 20
380.23289619007966
 11
1094.7585836912142
 21
378.89956285674634
  0
LINE
  8
_1-2_極細2
  6
CONTINUOUS
 62
    2
 10
1096.7585836912142
 20
381.83289619007974
 11
1096.7585836912142
 21
380.23289619007966
  0
LINE
  8
_1-2_極細2
  6
CONTINUOUS
 62
    2
 10
1098.0919170245475
 20
381.83289619007974
 11
1098.0919170245475
 21
380.23289619007966
  0
LINE
  8
_1-2_極細2
  6
CONTINUOUS
 62
    2
 10
1096.7585836912142
 20
380.80000000000007
 11
1098.0919170245475
 21
380.80000000000007
  0
LINE
  8
_1-2_極細2
  6
CONTINUOUS
 62
    2
 10
1096.7585836912142
 20
381.60000000000008
 11
1098.0919170245475
 21
381.60000000000008
  0
LINE
  8
_1-2_極細2
  6
CONTINUOUS
 62
    2
 10
1094.7585836912147
 20
383.16622952341305
 11
1113.4252503578807
 21
383.16622952341305
  0
LINE
  8
_1-2_極細2
  6
CONTINUOUS
 62
    2
 10
1094.7585836912147
 20
382.40000000000003
 11
1113.4252503578807
 21
382.40000000000003
  0
LINE
  8
_1-2_極細2
  6
CONTINUOUS
 62
    2
 10
1094.7585836912142
 20
379.20000000000005
 11
1113.4252503578807
 21
379.20000000000005
  0
LINE
  8
_1-2_極細2
  6
CONTINUOUS
 62
    2
 10
1094.7585836912142
 20
380.00000000000006
 11
1113.4252503578807
 21
380.00000000000006
  0
LINE
  8
_1-2_極細2
  6
CONTINUOUS
 62
    2
 10
1094.7585836912142
 20
378.89956285674634
 11
1113.4252503578807
 21
378.89956285674634
  0
LINE
  8
_1-2_極細2
  6
CONTINUOUS
 62
    2
 10
1124.8919170245479
 20
418.36622952341287
 11
1123.2919170245475
 21
418.36622952341287
  0
LINE
  8
_1-2_極細2
  6
CONTINUOUS
 62
    2
 10
1124.8919170245479
 20
418.36622952341287
 11
1124.8919170245479
 21
380.23289619007966
  0
LINE
  8
_1-2_極細2
  6
CONTINUOUS
 62
    2
 10
1127.5499116912158
 20
395.16622914793788
 11
1135.5619543578828
 21
395.16622914793788
  0
LINE
  8
_1-3_細線2
  6
CONTINUOUS
 62
    4
 10
1127.5499116912158
 20
385.83289581460576
 11
1135.5619863578811
 21
385.83289581460576
  0
ARC
  8
_1-3_細線2
  6
CONTINUOUS
 62
    4
 10
1135.5619863578811
 20
386.36622914793861
 40
0.5333333333333335
 50
269.99999999999977
 51
359.99999999999966
  0
ARC
  8
_1-2_極細2
  6
CONTINUOUS
 62
    2
 10
1115.4073730245489
 20
390.49917314793947
 40
20.687882666666667
 50
346.96432999999968
 51
13.038021999994573
  0
ARC
  8
_1-3_細線2
  6
CONTINUOUS
 62
    4
 10
1135.5619863578811
 20
403.96622914793943
 40
0.5333333333333335
 50
0
 51
89.999999999999915
  0
ARC
  8
_1-2_極細2
  6
CONTINUOUS
 62
    2
 10
1115.4073730245489
 20
399.83327981460479
 40
20.687882666666667
 50
346.96197800000101
 51
13.035669999999625
  0
LINE
  8
_1-3_細線2
  6
CONTINUOUS
 62
    4
 10
1127.5499116912158
 20
404.49956248127228
 11
1135.5619863578811
 21
404.49956248127228
  0
LINE
  8
_1-3_細線2
  6
CONTINUOUS
 62
    4
 10
1136.0953196912155
 20
386.36622914793861
 11
1136.0953196912155
 21
403.96622914793943
  0
ARC
  8
_1-3_細線2
  6
CONTINUOUS
 62
    4
 10
1127.0165783578816
 20
382.36622914793861
 40
0.5333333333333335
 50
269.99999999999977
 51
359.99999999999966
  0
LINE
  8
_1-3_細線2
  6
CONTINUOUS
 62
    4
 10
1124.8919170245479
 20
381.83289581460514
 11
1127.0165783578816
 21
381.83289581460514
  0
ARC
  8
_1-3_細線2
  6
CONTINUOUS
 62
    4
 10
1127.0165783578816
 20
407.9662291479379
 40
0.5333333333333335
 50
0
 51
89.999999999999915
  0
LINE
  8
_1-3_細線2
  6
CONTINUOUS
 62
    4
 10
1124.8919170245479
 20
408.49956248127228
 11
1127.0165783578816
 21
408.49956248127228
  0
LINE
  8
_1-3_細線2
  6
CONTINUOUS
 62
    4
 10
1127.5499116912158
 20
407.9662291479379
 11
1127.5499116912158
 21
382.36622914793861
  0
LINE
  8
_1-2_極細2
  6
CONTINUOUS
 62
    2
 10
854.22525063001217
 20
381.83289619007974
 11
1123.2919170245475
 21
381.83289619007974
  0
LINE
  8
_1-2_極細2
  6
CONTINUOUS
 62
    2
 10
852.62525063001203
 20
380.23289619007966
 11
1124.8919170245479
 21
380.23289619007966
  0
LINE
  8
_1-2_極細2
  6
CENTER1
 62
    2
 10
837.79035619469983
 20
395.16622914793788
 11
1140.5884729844727
 21
395.16622914793788
  0
LINE
  8
_1-3_細線2
  6
CONTINUOUS
 62
    4
 10
1019.558583419082
 20
421.29956285674592
 11
999.29191675241668
 21
421.29956285674592
  0
LINE
  8
_1-3_細線2
  6
CONTINUOUS
 62
    4
 10
999.29191675241668
 20
421.29956285674592
 11
999.29191675241668
 21
381.83289619007974
  0
ARC
  8
_1-3_細線2
  6
CONTINUOUS
 62
    4
 10
1019.5585834190827
 20
421.29956285674626
 40
3.1999999999999997
 50
0
 51
89.999999999999915
  0
LINE
  8
_1-3_細線2
  6
CONTINUOUS
 62
    4
 10
996.09191675241595
 20
421.29956285674626
 11
996.09191675241595
 21
381.83289619007974
  0
LINE
  8
_1-3_細線2
  6
CONTINUOUS
 62
    4
 10
1019.5585834190827
 20
424.49956285674637
 11
999.29191675241577
 21
424.49956285674637
  0
ARC
  8
_1-3_細線2
  6
CONTINUOUS
 62
    4
 10
999.29191675241577
 20
421.29956285674626
 40
3.1999999999999997
 50
89.999999999999915
 51
179.99999999999983
  0
LINE
  8
_1-3_細線2
  6
CONTINUOUS
 62
    4
 10
996.09191675241595
 20
381.83289619007974
 11
999.29191675241668
 21
381.83289619007974
  0
LINE
  8
_1-3_細線2
  6
CONTINUOUS
 62
    4
 10
1022.7585834190827
 20
408.4995624812712
 11
1019.558583419082
 21
408.49956248127103
  0
LINE
  8
_1-3_細線2
  6
CONTINUOUS
 62
    4
 10
1019.558583419082
 20
421.29956285674592
 11
1019.558583419082
 21
408.4995624812712
  0
LINE
  8
_1-3_細線2
  6
CONTINUOUS
 62
    4
 10
1022.7585834190827
 20
421.29956285674626
 11
1022.7585834190827
 21
408.4995624812712
  0
LINE
  8
_1-3_細線2
  6
CONTINUOUS
 62
    4
 10
1037.4252503578807
 20
385.9662291479379
 11
999.29191702454796
 21
385.9662291479379
  0
LINE
  8
_1-3_細線2
  6
CONTINUOUS
 62
    4
 10
1037.4252503578807
 20
404.36622914793799
 11
999.29191702454796
 21
404.36622914793799
  0
LINE
  8
_1-3_細線2
  6
CONTINUOUS
 62
    4
 10
916.62525090214467
 20
421.29956285674592
 11
936.89191756880996
 21
421.29956285674592
  0
LINE
  8
_1-3_細線2
  6
CONTINUOUS
 62
    4
 10
936.89191756880996
 20
421.29956285674592
 11
936.89191756880996
 21
381.83289619007974
  0
ARC
  8
_1-3_細線2
  6
CONTINUOUS
 62
    4
 10
916.62525090214376
 20
421.29956285674626
 40
3.1999999999999997
 50
89.999999999999915
 51
179.99999999999983
  0
LINE
  8
_1-3_細線2
  6
CONTINUOUS
 62
    4
 10
940.09191756881069
 20
421.29956285674626
 11
940.09191756881069
 21
381.83289619007974
  0
LINE
  8
_1-3_細線2
  6
CONTINUOUS
 62
    4
 10
916.62525090214376
 20
424.49956285674637
 11
936.89191756881041
 21
424.49956285674637
  0
ARC
  8
_1-3_細線2
  6
CONTINUOUS
 62
    4
 10
936.89191756881041
 20
421.29956285674626
 40
3.1999999999999997
 50
0
 51
89.999999999999915
  0
LINE
  8
_1-3_細線2
  6
CONTINUOUS
 62
    4
 10
940.09191756881069
 20
381.83289619007974
 11
936.89191756880996
 21
381.83289619007974
  0
LINE
  8
_1-3_細線2
  6
CONTINUOUS
 62
    4
 10
913.42525090214394
 20
408.4995624812712
 11
916.62525090214467
 21
408.49956248127103
  0
LINE
  8
_1-3_細線2
  6
CONTINUOUS
 62
    4
 10
916.62525090214467
 20
421.29956285674592
 11
916.62525090214467
 21
408.4995624812712
  0
LINE
  8
_1-3_細線2
  6
CONTINUOUS
 62
    4
 10
913.42525090214394
 20
421.29956285674626
 11
913.42525090214394
 21
408.4995624812712
  0
LINE
  8
_1-3_細線2
  6
CONTINUOUS
 62
    4
 10
898.75858396334547
 20
385.9662291479379
 11
936.89191729667823
 21
385.9662291479379
  0
LINE
  8
_1-3_細線2
  6
CONTINUOUS
 62
    4
 10
898.75858396334547
 20
404.36622914793799
 11
936.89191729667823
 21
404.36622914793799
  0
LINE
  8
_1-3_細線2
  6
CONTINUOUS
 62
    4
 10
957.9585845076092
 20
421.29956285674592
 11
978.22525117427472
 21
421.29956285674592
  0
LINE
  8
_1-3_細線2
  6
CONTINUOUS
 62
    4
 10
978.22525117427472
 20
421.29956285674592
 11
978.22525117427472
 21
381.83289619007974
  0
ARC
  8
_1-3_細線2
  6
CONTINUOUS
 62
    4
 10
957.95858450760875
 20
421.29956285674626
 40
3.1999999999999997
 50
89.999999999999915
 51
179.99999999999983
  0
LINE
  8
_1-3_細線2
  6
CONTINUOUS
 62
    4
 10
981.42525117427545
 20
421.29956285674626
 11
981.42525117427545
 21
381.83289619007974
  0
LINE
  8
_1-3_細線2
  6
CONTINUOUS
 62
    4
 10
957.95858450760875
 20
424.49956285674637
 11
978.22525117427517
 21
424.49956285674637
  0
ARC
  8
_1-3_細線2
  6
CONTINUOUS
 62
    4
 10
978.22525117427517
 20
421.29956285674626
 40
3.1999999999999997
 50
0
 51
89.999999999999915
  0
LINE
  8
_1-3_細線2
  6
CONTINUOUS
 62
    4
 10
981.42525117427545
 20
381.83289619007974
 11
978.22525117427472
 21
381.83289619007974
  0
LINE
  8
_1-3_細線2
  6
CONTINUOUS
 62
    4
 10
954.75858450760848
 20
408.4995624812712
 11
957.9585845076092
 21
408.49956248127103
  0
LINE
  8
_1-3_細線2
  6
CONTINUOUS
 62
    4
 10
957.9585845076092
 20
421.29956285674592
 11
957.9585845076092
 21
408.4995624812712
  0
LINE
  8
_1-3_細線2
  6
CONTINUOUS
 62
    4
 10
954.75858450760848
 20
421.29956285674626
 11
954.75858450760848
 21
408.4995624812712
  0
LINE
  8
_1-3_細線2
  6
CONTINUOUS
 62
    4
 10
940.09191756881069
 20
385.9662291479379
 11
978.22525090214322
 21
385.9662291479379
  0
LINE
  8
_1-3_細線2
  6
CONTINUOUS
 62
    4
 10
940.09191756881069
 20
404.36622914793799
 11
978.22525090214322
 21
404.36622914793799
  0
LINE
  8
_1-3_細線2
  6
CONTINUOUS
 62
    4
 10
996.09191675241595
 20
404.36622914793799
 11
981.42525117427545
 21
404.36622914793799
  0
LINE
  8
_1-3_細線2
  6
CONTINUOUS
 62
    4
 10
996.09191675241595
 20
385.9662291479379
 11
981.42525117427545
 21
385.9662291479379
  0
LINE
  8
_1-5_寸法2
  6
CONTINUOUS
 62
    7
 10
940.09191756881069
 20
440.49956285674637
 11
940.09191756881069
 21
517.56622952341309
  0
LINE
  8
_1-5_寸法2
  6
CONTINUOUS
 62
    7
 10
940.09191756881069
 20
509.56622952341309
 11
924.63710434818563
 21
505.42512480177282
  0
LINE
  8
_1-5_寸法2
  6
CONTINUOUS
 62
    7
 10
940.09191756881069
 20
509.56622952341309
 11
924.63710434818563
 21
513.70733424505352
  0
LINE
  8
_1-5_寸法2
  6
CONTINUOUS
 62
    7
 10
954.75858450760848
 20
440.49956285674637
 11
954.7585845076087
 21
517.56622952341309
  0
LINE
  8
_1-5_寸法2
  6
CONTINUOUS
 62
    7
 10
886.17450717847623
 20
509.56622952341309
 11
954.7585845076087
 21
509.56622952341309
  0
TEXT
  8
_1-5_寸法2
 62
    7
 10
886.17450717847623
 20
509.56622952341309
 40
24
 41
1
 50
0
  1
5.5
  0
LINE
  8
_1-5_寸法2
  6
CONTINUOUS
 62
    7
 10
954.7585845076087
 20
509.56622952341309
 11
970.21339772823387
 21
513.70733424505329
  0
LINE
  8
_1-5_寸法2
  6
CONTINUOUS
 62
    7
 10
954.7585845076087
 20
509.56622952341309
 11
970.21339772823376
 21
505.42512480177265
  0
LINE
  8
_1-5_寸法2
  6
CONTINUOUS
 62
    7
 10
981.42525117427545
 20
440.49956285674637
 11
981.42525117427545
 21
517.56622952341309
  0
LINE
  8
_1-5_寸法2
  6
CONTINUOUS
 62
    7
 10
981.42525117427545
 20
509.56622952341309
 11
965.97043795365039
 21
505.42512480177282
  0
LINE
  8
_1-5_寸法2
  6
CONTINUOUS
 62
    7
 10
981.42525117427545
 20
509.56622952341309
 11
965.97043795365039
 21
513.70733424505352
  0
LINE
  8
_1-5_寸法2
  6
CONTINUOUS
 62
    7
 10
954.7585845076087
 20
509.56622952341309
 11
981.42525117427545
 21
509.56622952341309
  0
TEXT
  8
_1-5_寸法2
 62
    7
 10
956.09191784094241
 20
509.56622952341309
 40
24
 41
1
 50
0
  1
10
  0
TEXT
  8
_0-7_枠細線
 62
    5
 10
908.75858396334547
 20
301.36266170438194
 40
40
 41
0.8
 50
0
  1
断面詳細図
  0
TEXT
  8
_0-7_枠細線
 62
    5
 10
1092.6769355620152
 20
304.51939751272312
 40
32
 41
0.6
 50
0
  1
Ｓ＝１：３
  0
LINE
  8
_1-2_極細2
  6
CONTINUOUS
 62
    2
 10
1318.6338280309337
 20
426.89956285674691
 11
1339.9671610975997
 21
426.89956285674651
  0
LINE
  8
_1-2_極細2
  6
CONTINUOUS
 62
    2
 10
1315.967161364267
 20
429.56622952341314
 11
1342.6338277642665
 21
429.56622952341314
  0
LINE
  8
_1-2_極細2
  6
CONTINUOUS
 62
    2
 10
1315.967161364267
 20
408.23289640341375
 11
1315.967161364267
 21
429.5662295234136
  0
LINE
  8
_1-2_極細2
  6
CONTINUOUS
 62
    2
 10
1315.967161364267
 20
408.23289640341375
 11
1318.6338280309337
 21
408.23289640341375
  0
LINE
  8
_1-2_極細2
  6
CONTINUOUS
 62
    2
 10
1318.6338280309337
 20
408.23289640341375
 11
1318.6338280309337
 21
426.89956285674691
  0
LINE
  8
_1-2_極細2
  6
CONTINUOUS
 62
    2
 10
1339.9671610975997
 20
426.89956285674651
 11
1339.9671610975997
 21
376.232896723414
  0
LINE
  8
_1-2_極細2
  6
CONTINUOUS
 62
    2
 10
1339.9671610975997
 20
376.232896723414
 11
1528.2003024874657
 21
376.232896723414
  0
LINE
  8
_1-2_極細2
  6
CONTINUOUS
 62
    2
 10
1342.6338277642665
 20
378.89956339008069
 11
1528.2003024874657
 21
378.89956339008069
  0
LINE
  8
_1-2_極細2
  6
CONTINUOUS
 62
    2
 10
1342.6338277642665
 20
429.5662295234136
 11
1342.6338277642665
 21
378.89956339008069
  0
LINE
  8
_1-2_極細2
  6
CENTER1
 62
    2
 10
1419.1008341025322
 20
493.62683111577763
 11
1432.3236584161141
 21
462.47580917375302
  0
CIRCLE
  8
_1-2_極細2
  6
DASHED2
 62
    2
 10
1426.5678490590058
 20
476.0356462649284
 40
7.9999999999999991
  0
LINE
  8
_1-2_極細2
  6
CENTER1
 62
    2
 10
1441.2886558947343
 20
482.28425804098111
 11
1413.8269306483076
 21
470.62744726420556
  0
LINE
  8
_1-2_極細2
  6
CONTINUOUS
 62
    2
 10
1436.589027056435
 20
489.00543477330615
 11
1444.1314993890912
 21
496.54790710596274
  0
LINE
  8
_1-2_極細2
  6
DASHED2
 62
    2
 10
1437.4062132033077
 20
496.56954442837093
 11
1467.8311437416714
 21
424.89289983954063
  0
LINE
  8
_1-2_極細2
  6
CONTINUOUS
 62
    2
 10
1436.589027056435
 20
489.00543477330615
 11
1439.3497635375288
 21
499.30864358705605
  0
LINE
  8
_1-2_極細2
  6
CONTINUOUS
 62
    2
 10
1365.2658632935027
 20
380.23289619007971
 11
1471.9325287068359
 21
380.23289619007971
  0
LINE
  8
_1-5_寸法2
  6
CONTINUOUS
 62
    7
 10
1408.0584183389192
 20
444.3666613809271
 11
1398.4806941571669
 21
439.67145347540924
  0
ARC
  8
_1-5_寸法2
  6
CONTINUOUS
 62
    7
 10
1451.9325299601689
 20
394.0995623234129
 40
66.72120291340525
 50
131.11509464913749
 51
160.19528028383266
  0
LINE
  8
_1-5_寸法2
  6
CONTINUOUS
 62
    7
 10
1389.1576952186015
 20
416.70573496233396
 11
1390.0511344584513
 21
427.33491856703625
  0
LINE
  8
_1-5_寸法2
  6
CONTINUOUS
 62
    7
 10
1389.1576952186015
 20
416.70573496233396
 11
1395.2460280994003
 21
425.46415836557003
  0
LINE
  8
_1-5_寸法2
  6
CONTINUOUS
 62
    7
 10
1408.0584183389192
 20
444.3666613809271
 11
1402.1114698398399
 21
435.51162996782256
  0
LINE
  8
_1-3_細線2
  6
CONTINUOUS
 62
    4
 10
1472.2763318004384
 20
404.18347437377292
 11
1464.1491243278624
 21
423.32997532558352
  0
LINE
  8
_1-3_細線2
  6
CONTINUOUS
 62
    4
 10
1406.5021324116844
 20
470.41521588535636
 11
1440.8864717187398
 21
389.41078878154156
  0
ARC
  8
_1-3_細線2
  6
CONTINUOUS
 62
    4
 10
1451.9325299601689
 20
394.0995623234129
 40
11.999999999999998
 50
202.9999999999994
 51
292.99999999999994
  0
LINE
  8
_1-3_細線2
  6
CONTINUOUS
 62
    4
 10
1456.6213035020403
 20
383.05350408198342
 11
1465.2126821342631
 21
386.70032794788335
  0
ARC
  8
_1-3_細線2
  6
CONTINUOUS
 62
    4
 10
1460.0029337544061
 20
398.97372599391588
 40
13.33333333333333
 50
292.99999999999989
 51
22.999999999998519
  0
LINE
  8
_1-3_細線2
  6
CONTINUOUS
 62
    4
 10
1470.2858233508787
 20
425.93484951551204
 11
1439.8608928125134
 21
497.61149410434234
  0
LINE
  8
_1-3_細線2
  6
CONTINUOUS
 62
    4
 10
1464.1491243278624
 20
423.32997532558352
 11
1470.2858233508787
 21
425.93484951551204
  0
LINE
  8
_1-3_細線2
  6
CONTINUOUS
 62
    4
 10
1439.8608928125134
 20
497.61149410434234
 11
1412.8594171112411
 21
486.15004766865684
  0
CIRCLE
  8
_1-3_細線2
  6
CONTINUOUS
 62
    4
 10
1426.5678490590058
 20
476.0356462649284
 40
4.6666666666666652
  0
ARC
  8
_1-3_細線2
  6
CONTINUOUS
 62
    4
 10
1417.5481906531124
 20
475.1039894272277
 40
11.999999999999998
 50
113.00000000000011
 51
202.99999999999969
  0
CIRCLE
  8
_1-3_細線2
  6
CONTINUOUS
 62
    4
 10
1426.5678490590058
 20
476.0356462649284
 40
11.999999999999998
  0
LINE
  8
_1-2_極細2
  6
CONTINUOUS
 62
    2
 10
1519.7666608859663
 20
438.20575250847673
 11
1519.6702686417987
 21
438.03553360874582
  0
LINE
  8
_1-2_極細2
  6
CONTINUOUS
 62
    2
 10
1519.6702686417987
 20
438.03553360874582
 11
1519.383858930478
 21
437.52951630176051
  0
LINE
  8
_1-2_極細2
  6
CONTINUOUS
 62
    2
 10
1519.383858930478
 20
437.52951630176051
 11
1518.9164322961471
 21
436.70147118865339
  0
LINE
  8
_1-2_極細2
  6
CONTINUOUS
 62
    2
 10
1518.9164322961471
 20
436.70147118865339
 11
1518.2850277867358
 21
435.57386882256446
  0
LINE
  8
_1-2_極細2
  6
CONTINUOUS
 62
    2
 10
1518.2850277867358
 20
435.57386882256446
 11
1517.5168366873725
 21
434.17719681423438
  0
LINE
  8
_1-2_極細2
  6
CONTINUOUS
 62
    2
 10
1517.5168366873725
 20
434.17719681423438
 11
1516.650554337074
 21
432.54907141116558
  0
LINE
  8
_1-2_極細2
  6
CONTINUOUS
 62
    2
 10
1516.650554337074
 20
432.54907141116558
 11
1515.7359412521275
 21
430.73319469495698
  0
LINE
  8
_1-2_極細2
  6
CONTINUOUS
 62
    2
 10
1515.7359412521275
 20
430.73319469495698
 11
1514.8309266366834
 21
428.77820426035555
  0
LINE
  8
_1-2_極細2
  6
CONTINUOUS
 62
    2
 10
1514.8309266366834
 20
428.77820426035555
 11
1513.9961885192215
 21
426.73645068148267
  0
LINE
  8
_1-2_極細2
  6
CONTINUOUS
 62
    2
 10
1513.9961885192215
 20
426.73645068148267
 11
1513.287838496158
 21
424.66272308628561
  0
LINE
  8
_1-2_極細2
  6
CONTINUOUS
 62
    2
 10
1513.287838496158
 20
424.66272308628561
 11
1512.7494482065542
 21
422.61292945212858
  0
LINE
  8
_1-2_極細2
  6
CONTINUOUS
 62
    2
 10
1512.7494482065542
 20
422.61292945212858
 11
1512.4050153613653
 21
420.64273017170348
  0
LINE
  8
_1-2_極細2
  6
CONTINUOUS
 62
    2
 10
1512.4050153613653
 20
420.64273017170348
 11
1512.2544702559419
 21
418.80612393356483
  0
LINE
  8
_1-2_極細2
  6
CONTINUOUS
 62
    2
 10
1512.2544702559419
 20
418.80612393356483
 11
1512.2729434731184
 21
417.15399469781465
  0
LINE
  8
_1-2_極細2
  6
CONTINUOUS
 62
    2
 10
1512.2729434731184
 20
417.15399469781465
 11
1512.4143185350486
 21
415.73264573377901
  0
LINE
  8
_1-2_極細2
  6
CONTINUOUS
 62
    2
 10
1512.4143185350486
 20
415.73264573377901
 11
1512.6187251737983
 21
414.58236742001424
  0
LINE
  8
_1-2_極細2
  6
CONTINUOUS
 62
    2
 10
1512.6187251737983
 20
414.58236742001424
 11
1512.8227815676494
 21
413.7361046580445
  0
LINE
  8
_1-2_極細2
  6
CONTINUOUS
 62
    2
 10
1512.8227815676494
 20
413.7361046580445
 11
1512.9707611592924
 21
413.21830216594122
  0
LINE
  8
_1-2_極細2
  6
CONTINUOUS
 62
    2
 10
1512.9707611592924
 20
413.21830216594122
 11
1513.0245916716515
 21
413.04400765250926
  0
LINE
  8
_1-2_極細2
  6
CONTINUOUS
 62
    2
 10
1513.0245916716515
 20
413.04400765250926
 11
1513.0804780038134
 21
412.86965715077577
  0
LINE
  8
_1-2_極細2
  6
CONTINUOUS
 62
    2
 10
1513.0804780038134
 20
412.86965715077577
 11
1513.2585151374499
 21
412.35102604465521
  0
LINE
  8
_1-2_極細2
  6
CONTINUOUS
 62
    2
 10
1513.2585151374499
 20
412.35102604465521
 11
1513.5866657256913
 21
411.50126294032134
  0
LINE
  8
_1-2_極細2
  6
CONTINUOUS
 62
    2
 10
1513.5866657256913
 20
411.50126294032134
 11
1514.1017466169089
 21
410.34191592058619
  0
LINE
  8
_1-2_極細2
  6
CONTINUOUS
 62
    2
 10
1514.1017466169089
 20
410.34191592058619
 11
1514.83730483357
 21
408.90241226148441
  0
LINE
  8
_1-2_極細2
  6
CONTINUOUS
 62
    2
 10
1514.83730483357
 20
408.90241226148441
 11
1515.8111204645365
 21
407.21937981578918
  0
LINE
  8
_1-2_極細2
  6
CONTINUOUS
 62
    2
 10
1515.8111204645365
 20
407.21937981578918
 11
1517.0154810095476
 21
405.33584259895639
  0
LINE
  8
_1-2_極細2
  6
CONTINUOUS
 62
    2
 10
1517.0154810095476
 20
405.33584259895639
 11
1518.4127327620356
 21
403.30031339940592
  0
LINE
  8
_1-2_極細2
  6
CONTINUOUS
 62
    2
 10
1518.4127327620356
 20
403.30031339940592
 11
1519.9373661008924
 21
401.16579050572057
  0
LINE
  8
_1-2_極細2
  6
CONTINUOUS
 62
    2
 10
1519.9373661008924
 20
401.16579050572057
 11
1521.5043334907343
 21
398.98864893735623
  0
LINE
  8
_1-2_極細2
  6
CONTINUOUS
 62
    2
 10
1521.5043334907343
 20
398.98864893735623
 11
1523.021806862703
 21
396.82740468346174
  0
LINE
  8
_1-2_極細2
  6
CONTINUOUS
 62
    2
 10
1523.021806862703
 20
396.82740468346174
 11
1524.4055145749246
 21
394.74132843749589
  0
LINE
  8
_1-2_極細2
  6
CONTINUOUS
 62
    2
 10
1524.4055145749246
 20
394.74132843749589
 11
1525.5914147132119
 21
392.78889604483908
  0
LINE
  8
_1-2_極細2
  6
CONTINUOUS
 62
    2
 10
1525.5914147132119
 20
392.78889604483908
 11
1526.5438540425077
 21
391.02608615523059
  0
LINE
  8
_1-2_極細2
  6
CONTINUOUS
 62
    2
 10
1526.5438540425077
 20
391.02608615523059
 11
1527.2574365165246
 21
389.50456790804901
  0
LINE
  8
_1-2_極細2
  6
CONTINUOUS
 62
    2
 10
1527.2574365165246
 20
389.50456790804901
 11
1527.7523236368297
 21
388.26985670927274
  0
LINE
  8
_1-2_極細2
  6
CONTINUOUS
 62
    2
 10
1527.7523236368297
 20
388.26985670927274
 11
1528.0642507343066
 21
387.35954671313209
  0
LINE
  8
_1-2_極細2
  6
CONTINUOUS
 62
    2
 10
1528.0642507343066
 20
387.35954671313209
 11
1528.2317927242868
 21
386.80174719764796
  0
LINE
  8
_1-2_極細2
  6
CONTINUOUS
 62
    2
 10
1528.2317927242868
 20
386.80174719764796
 11
1528.2840495715602
 21
386.61385127390855
  0
LINE
  8
_1-2_極細2
  6
CONTINUOUS
 62
    2
 10
1528.2840495715602
 20
386.61385127390855
 11
1528.3342008143502
 21
386.42582553951229
  0
LINE
  8
_1-2_極細2
  6
CONTINUOUS
 62
    2
 10
1528.3342008143502
 20
386.42582553951229
 11
1528.4709519767866
 21
385.86611797911769
  0
LINE
  8
_1-2_極細2
  6
CONTINUOUS
 62
    2
 10
1528.4709519767866
 20
385.86611797911769
 11
1528.6557147362785
 21
384.94785039345766
  0
LINE
  8
_1-2_極細2
  6
CONTINUOUS
 62
    2
 10
1528.6557147362785
 20
384.94785039345766
 11
1528.8320769051381
 21
383.69290869318826
  0
LINE
  8
_1-2_極細2
  6
CONTINUOUS
 62
    2
 10
1528.8320769051381
 20
383.69290869318826
 11
1528.9360250056291
 21
382.13188040749179
  0
LINE
  8
_1-2_極細2
  6
CONTINUOUS
 62
    2
 10
1528.9360250056291
 20
382.13188040749179
 11
1528.9073563449012
 21
380.3038152882396
  0
LINE
  8
_1-2_極細2
  6
CONTINUOUS
 62
    2
 10
1528.9073563449012
 20
380.3038152882396
 11
1528.7001383214949
 21
378.25570284077389
  0
LINE
  8
_1-2_極細2
  6
CONTINUOUS
 62
    2
 10
1528.7001383214949
 20
378.25570284077389
 11
1528.2903473301978
 21
376.0415836383844
  0
LINE
  8
_1-2_極細2
  6
CONTINUOUS
 62
    2
 10
1528.2903473301978
 20
376.0415836383844
 11
1527.6794677868902
 21
373.72125642640458
  0
LINE
  8
_1-2_極細2
  6
CONTINUOUS
 62
    2
 10
1527.6794677868902
 20
373.72125642640458
 11
1526.8936997005449
 21
371.35860068561021
  0
LINE
  8
_1-2_極細2
  6
CONTINUOUS
 62
    2
 10
1526.8936997005449
 20
371.35860068561021
 11
1525.9793123624906
 21
369.01959216870551
  0
LINE
  8
_1-2_極細2
  6
CONTINUOUS
 62
    2
 10
1525.9793123624906
 20
369.01959216870551
 11
1524.9953955606718
 21
366.77013476572472
  0
LINE
  8
_1-2_極細2
  6
CONTINUOUS
 62
    2
 10
1524.9953955606718
 20
366.77013476572472
 11
1524.0056491510179
 21
364.67385666436445
  0
LINE
  8
_1-2_極細2
  6
CONTINUOUS
 62
    2
 10
1524.0056491510179
 20
364.67385666436445
 11
1523.0708486211452
 21
362.79001793388039
  0
LINE
  8
_1-2_極細2
  6
CONTINUOUS
 62
    2
 10
1523.0708486211452
 20
362.79001793388039
 11
1522.2432548176978
 21
361.17165201580997
  0
LINE
  8
_1-2_極細2
  6
CONTINUOUS
 62
    2
 10
1522.2432548176978
 20
361.17165201580997
 11
1521.5636120674835
 21
359.86402208417553
  0
LINE
  8
_1-2_極細2
  6
CONTINUOUS
 62
    2
 10
1521.5636120674835
 20
359.86402208417553
 11
1521.0606683080305
 21
358.90342525557071
  0
LINE
  8
_1-2_極細2
  6
CONTINUOUS
 62
    2
 10
1521.0606683080305
 20
358.90342525557071
 11
1520.752535023845
 21
358.31633447093077
  0
LINE
  8
_1-2_極細2
  6
CONTINUOUS
 62
    2
 10
1520.752535023845
 20
358.31633447093077
 11
1520.648834025221
 21
358.11883892822959
  0
LINE
  8
_1-5_寸法2
  6
CONTINUOUS
 62
    7
 10
1478.7134199848986
 20
392.4310511657265
 11
1536.3983909821009
 21
416.91686862782791
  0
LINE
  8
_1-5_寸法2
  6
CONTINUOUS
 62
    7
 10
1532.7163715682914
 20
415.3539441138704
 11
1525.3284338643834
 21
424.81007315715101
  0
LINE
  8
_1-5_寸法2
  6
CONTINUOUS
 62
    7
 10
1532.7163715682914
 20
415.3539441138704
 11
1531.0462943567704
 21
427.23716093876925
  0
LINE
  8
_1-5_寸法2
  6
CONTINUOUS
 62
    7
 10
1453.3616306631498
 20
503.34221732218549
 11
1492.6365045913021
 21
520.01341221449854
  0
LINE
  8
_1-5_寸法2
  6
CONTINUOUS
 62
    7
 10
1488.9544851774926
 20
518.45048770054109
 11
1496.3424228814006
 21
508.99435865726048
  0
LINE
  8
_1-5_寸法2
  6
CONTINUOUS
 62
    7
 10
1488.9544851774926
 20
518.45048770054109
 11
1490.6245623890136
 21
506.56727087564224
  0
LINE
  8
_1-5_寸法2
  6
CONTINUOUS
 62
    7
 10
1532.7163715682914
 20
415.3539441138704
 11
1488.9544851774926
 21
518.45048770054109
  0
TEXT
  8
_1-5_寸法2
 62
    7
 10
1506.1466548310209
 20
477.94827414863499
 40
24
 41
1
 50
-66.999999999999687
  1
42
  0
LINE
  8
_1-5_寸法2
  6
CONTINUOUS
 62
    7
 10
1400.7714091938421
 20
483.91595373599262
 11
1379.411440807409
 21
534.23688579310954
  0
LINE
  8
_1-5_寸法2
  6
CONTINUOUS
 62
    7
 10
1380.9743653213657
 20
530.5548663792996
 11
1390.4304943646462
 21
537.94280408320753
  0
LINE
  8
_1-5_寸法2
  6
CONTINUOUS
 62
    7
 10
1380.9743653213657
 20
530.5548663792996
 11
1392.8575821462646
 21
532.22494359082054
  0
LINE
  8
_1-5_寸法2
  6
CONTINUOUS
 62
    7
 10
1434.1301695946711
 20
511.11223195497831
 11
1417.4589747501082
 21
550.38710577066593
  0
LINE
  8
_1-5_寸法2
  6
CONTINUOUS
 62
    7
 10
1419.0218992640648
 20
546.70508635685599
 11
1409.5657702207843
 21
539.31714865294805
  0
LINE
  8
_1-5_寸法2
  6
CONTINUOUS
 62
    7
 10
1419.0218992640648
 20
546.70508635685599
 11
1407.1386824391659
 21
545.03500914533504
  0
LINE
  8
_1-5_寸法2
  6
CONTINUOUS
 62
    7
 10
1380.9743653213657
 20
530.5548663792996
 11
1419.0218992640648
 21
546.70508635685599
  0
TEXT
  8
_1-5_寸法2
 62
    7
 10
1377.9060158098569
 20
529.25242928433488
 40
24
 41
1
 50
23.000000000000313
  1
15.5
  0
LINE
  8
_1-2_極細2
  6
CENTER1
 62
    2
 10
1439.1456007479057
 20
395.84787711407432
 11
1464.6855123468515
 21
395.84787711407432
  0
LINE
  8
_1-2_極細2
  6
CENTER1
 62
    2
 10
1452.6388949407451
 20
382.51235031601078
 11
1452.6388949407451
 21
408.79031742817756
  0
CIRCLE
  8
_1-2_極細2
  6
CONTINUOUS
 62
    2
 10
1452.6388949407451
 20
395.84787719787698
 40
9.1999999999999993
  0
CIRCLE
  8
_1-3_細線2
  6
CONTINUOUS
 62
    4
 10
1452.6388949407451
 20
395.84787719787698
 40
9.5999999999999996
  0
LINE
  8
_1-5_寸法2
  6
CONTINUOUS
 62
    7
 10
1436.589027056435
 20
489.00543477330615
 11
1440.7301317780755
 21
504.4602479939312
  0
LINE
  8
_1-5_寸法2
  6
CONTINUOUS
 62
    7
 10
1436.589027056435
 20
489.00543477330615
 11
1447.9027355554199
 21
500.31914327229089
  0
LINE
  8
_1-5_寸法2
  6
CONTINUOUS
 62
    7
 10
1436.589027056435
 20
489.00543477330615
 11
1460.3201242807793
 21
530.10890088522672
  0
LINE
  8
_1-5_寸法2
  6
CONTINUOUS
 62
    7
 10
1460.3201242807793
 20
530.10890088522672
 11
1537.1201242807792
 21
530.10890088522672
  0
TEXT
  8
_1-5_寸法2
 62
    7
 10
1460.3201242807793
 20
530.10890088522672
 40
24
 41
0.7999999999999998
 50
0
  1
取外し具
  0
LINE
  8
_1-2_極細2
  6
CONTINUOUS
 62
    2
 10
1471.9325299601689
 20
380.23289619007971
 11
1471.9325299601689
 21
381.83289619007974
  0
LINE
  8
_1-2_極細2
  6
CONTINUOUS
 62
    2
 10
1365.2658632935027
 20
381.83289619007974
 11
1365.2658632935027
 21
380.23289619007971
  0
LINE
  8
_1-2_極細2
  6
CONTINUOUS
 62
    2
 10
1437.300494430933
 20
397.94040770585804
 11
1437.300494430933
 21
381.83289565674596
  0
LINE
  8
_1-2_極細2
  6
CONTINUOUS
 62
    2
 10
1437.300494430933
 20
381.83289565674596
 11
1528.9355181767542
 21
381.83289565674596
  0
LINE
  8
_1-2_極細2
  6
CONTINUOUS
 62
    2
 10
1365.2658632935027
 20
381.83289619007974
 11
1437.300494430933
 21
381.83289619007974
  0
LINE
  8
_1-2_極細2
  6
DASHED2
 62
    2
 10
1437.300494430933
 20
424.49956285674637
 11
1437.300494430933
 21
397.94040770585804
  0
LINE
  8
_1-2_極細2
  6
DASHED2
 62
    2
 10
1466.9044998801903
 20
424.49956285674637
 11
1437.300494430933
 21
424.49956285674637
  0
LINE
  8
_1-2_極細2
  6
CONTINUOUS
 62
    2
 10
1513.4142831407828
 20
424.49956285674637
 11
1466.9044998801903
 21
424.49956285674637
  0
TEXT
  8
_0-7_枠細線
 62
    5
 10
1538.834397371651
 20
304.51939751272312
 40
32
 41
0.6
 50
0
  1
Ｓ＝１：３
  0
TEXT
  8
_0-7_枠細線
 62
    5
 10
1354.9160457729813
 20
301.36266170438194
 40
40
 41
0.8
 50
0
  1
Ａ部詳細図
  0
LINE
  8
_0-a_極細1
  6
CONTINUOUS
 62
    7
 10
271.8435525885975
 20
880.34845781395961
 11
291.04355066859853
 21
880.34845781395961
  0
LINE
  8
_0-a_極細1
  6
CONTINUOUS
 62
    7
 10
271.8435525885975
 20
881.41512437395977
 11
291.04355066859853
 21
881.41512437395977
  0
LINE
  8
_0-a_極細1
  6
CONTINUOUS
 62
    7
 10
271.67167669587025
 20
882.48179093395947
 11
291.04355066859853
 21
882.48179093395947
  0
LINE
  8
_0-a_極細1
  6
CONTINUOUS
 62
    7
 10
270.60501013587009
 20
883.54845749395963
 11
291.04355066859853
 21
883.54845749395963
  0
LINE
  8
_0-a_極細1
  6
CONTINUOUS
 62
    7
 10
269.53834357586993
 20
884.61512405395956
 11
291.04355066859853
 21
884.61512405395956
  0
LINE
  8
_0-a_極細1
  6
CONTINUOUS
 62
    7
 10
269.88209536132445
 20
885.68179061395972
 11
291.04355066859853
 21
885.68179061395972
  0
LINE
  8
_0-a_極細1
  6
CONTINUOUS
 62
    7
 10
270.9487619213246
 20
886.74845717395988
 11
291.04355066859853
 21
886.74845717395988
  0
LINE
  8
_0-a_極細1
  6
CONTINUOUS
 62
    7
 10
271.8435525885975
 20
887.81512373395981
 11
291.04355066859853
 21
887.81512373395981
  0
LINE
  8
_0-a_極細1
  6
CONTINUOUS
 62
    7
 10
271.8435525885975
 20
888.88179029395997
 11
291.04355066859853
 21
888.88179029395997
  0
LINE
  8
_0-a_極細1
  6
CONTINUOUS
 62
    7
 10
271.8435525885975
 20
889.94845685396012
 11
291.04355066859853
 21
889.94845685396012
  0
LINE
  8
_0-a_極細1
  6
CONTINUOUS
 62
    7
 10
271.8435525885975
 20
891.01512341395983
 11
291.04355066859853
 21
891.01512341395983
  0
LINE
  8
_0-a_極細1
  6
CONTINUOUS
 62
    7
 10
271.8435525885975
 20
892.08178997395999
 11
291.04355066859853
 21
892.08178997395999
  0
LINE
  8
_0-a_極細1
  6
CONTINUOUS
 62
    7
 10
271.8435525885975
 20
893.14845653396014
 11
291.04355066859853
 21
893.14845653396014
  0
LINE
  8
_0-a_極細1
  6
CONTINUOUS
 62
    7
 10
271.8435525885975
 20
894.21512309395985
 11
291.04355066859853
 21
894.21512309395985
  0
LINE
  8
_0-a_極細1
  6
CONTINUOUS
 62
    7
 10
271.13834341586926
 20
895.28178965396
 11
291.41966222738665
 21
895.28178965396
  0
LINE
  8
_0-a_極細1
  6
CONTINUOUS
 62
    7
 10
270.0716768558691
 20
896.34845621396016
 11
291.98855105938628
 21
896.34845621396016
  0
LINE
  8
_0-a_極細1
  6
CONTINUOUS
 62
    7
 10
269.34876208132528
 20
897.41512277396032
 11
292.55743989138637
 21
897.41512277396032
  0
LINE
  8
_0-a_極細1
  6
CONTINUOUS
 62
    7
 10
270.41542864132543
 20
898.48178933396002
 11
293.12632872338645
 21
898.48178933396002
  0
LINE
  8
_0-a_極細1
  6
CONTINUOUS
 62
    7
 10
271.48209520132514
 20
899.54845589396064
 11
293.69521755538653
 21
899.54845589396064
  0
LINE
  8
_0-a_極細1
  6
CONTINUOUS
 62
    7
 10
271.8435525885975
 20
900.61512245396011
 11
294.26410638738662
 21
900.61512245396011
  0
LINE
  8
_0-a_極細1
  6
CONTINUOUS
 62
    7
 10
271.8435525885975
 20
901.68178901396027
 11
294.83299521938579
 21
901.68178901396027
  0
LINE
  8
_0-a_極細1
  6
CONTINUOUS
 62
    7
 10
325.75323887320656
 20
854.32035618243322
 11
325.75323887320656
 21
936.64005673536758
  0
LINE
  8
_0-a_極細1
  6
CONTINUOUS
 62
    7
 10
324.68657231320685
 20
853.25368962243328
 11
324.68657231320685
 21
936.40932848182229
  0
LINE
  8
_0-a_極細1
  6
CONTINUOUS
 62
    7
 10
323.61990575320715
 20
852.18702306243358
 11
323.61990575320715
 21
935.93952445276705
  0
LINE
  8
_0-a_極細1
  6
CONTINUOUS
 62
    7
 10
322.55323919320699
 20
851.12035650243342
 11
322.55323919320699
 21
935.1487070467756
  0
LINE
  8
_0-a_極細1
  6
CONTINUOUS
 62
    7
 10
321.48657263320683
 20
850.05368994243372
 11
321.48657263320683
 21
933.76726304707972
  0
LINE
  8
_0-a_極細1
  6
CONTINUOUS
 62
    7
 10
320.41990607320668
 20
848.98702338243356
 11
320.41990607320668
 21
929.60967631596804
  0
LINE
  8
_0-a_極細1
  6
CONTINUOUS
 62
    7
 10
319.35323951320652
 20
847.9203568224334
 11
319.35323951320652
 21
927.40028821057649
  0
LINE
  8
_0-a_極細1
  6
CONTINUOUS
 62
    7
 10
318.28657295320636
 20
847.07733189782448
 11
318.28657295320636
 21
926.07926360024908
  0
LINE
  8
_0-a_極細1
  6
CONTINUOUS
 62
    7
 10
317.2199063932062
 20
847.07733189782448
 11
317.2199063932062
 21
925.14472732618924
  0
LINE
  8
_0-a_極細1
  6
CONTINUOUS
 62
    7
 10
316.15323983320604
 20
847.07733189782448
 11
316.15323983320604
 21
924.4592187391454
  0
LINE
  8
_0-a_極細1
  6
CONTINUOUS
 62
    7
 10
315.08657327320589
 20
847.07733189782448
 11
315.08657327320589
 21
923.96190255964484
  0
LINE
  8
_0-a_極細1
  6
CONTINUOUS
 62
    7
 10
314.01990671320664
 20
847.07733189782448
 11
314.01990671320664
 21
923.62077773030478
  0
LINE
  8
_0-a_極細1
  6
CONTINUOUS
 62
    7
 10
312.95324015320648
 20
847.07733189782448
 11
312.95324015320648
 21
923.41805179493713
  0
LINE
  8
_0-a_極細1
  6
CONTINUOUS
 62
    7
 10
311.88657359320632
 20
847.07733189782448
 11
311.88657359320632
 21
923.34443595736229
  0
LINE
  8
_0-a_極細1
  6
CONTINUOUS
 62
    7
 10
310.81990703320616
 20
847.07733189782448
 11
310.81990703320616
 21
923.34399093782486
  0
LINE
  8
_0-a_極細1
  6
CONTINUOUS
 62
    7
 10
309.75324047320601
 20
847.07733189782448
 11
309.75324047320601
 21
923.34399093782486
  0
LINE
  8
_0-a_極細1
  6
CONTINUOUS
 62
    7
 10
308.6865739132063
 20
847.07733189782448
 11
308.6865739132063
 21
923.34399093782486
  0
LINE
  8
_0-a_極細1
  6
CONTINUOUS
 62
    7
 10
307.61990735320614
 20
847.07733189782448
 11
307.61990735320614
 21
923.34399093782486
  0
LINE
  8
_0-a_極細1
  6
CONTINUOUS
 62
    7
 10
306.55324079320599
 20
847.07733189782448
 11
306.55324079320599
 21
923.34399093782486
  0
LINE
  8
_0-a_極細1
  6
CONTINUOUS
 62
    7
 10
305.48657423320628
 20
847.07733189782448
 11
305.48657423320628
 21
923.34399093782486
  0
LINE
  8
_0-a_極細1
  6
CONTINUOUS
 62
    7
 10
304.41990767320613
 20
847.07733189782448
 11
304.41990767320613
 21
923.24963875260528
  0
LINE
  8
_0-a_極細1
  6
CONTINUOUS
 62
    7
 10
303.35324111320597
 20
847.07733189782448
 11
303.35324111320597
 21
922.93923987598009
  0
LINE
  8
_0-a_極細1
  6
CONTINUOUS
 62
    7
 10
302.28657455320581
 20
847.07733189782448
 11
302.28657455320581
 21
922.36930279836815
  0
LINE
  8
_0-a_極細1
  6
CONTINUOUS
 62
    7
 10
301.21990799320656
 20
847.07733189782448
 11
301.21990799320656
 21
921.42106213118177
  0
LINE
  8
_0-a_極細1
  6
CONTINUOUS
 62
    7
 10
300.15324143320549
 20
847.07733189782448
 11
300.15324143320549
 21
919.58046560818411
  0
LINE
  8
_0-a_極細1
  6
CONTINUOUS
 62
    7
 10
299.08657487320625
 20
847.07733189782448
 11
299.08657487320625
 21
857.74399749782424
  0
LINE
  8
_0-a_極細1
  6
CONTINUOUS
 62
    7
 10
298.01990831320609
 20
847.07733189782448
 11
298.01990831320609
 21
857.74399749782424
  0
LINE
  8
_0-a_極細1
  6
CONTINUOUS
 62
    7
 10
296.95324175320593
 20
847.07733189782448
 11
296.95324175320593
 21
857.74399749782424
  0
LINE
  8
_0-a_極細1
  6
CONTINUOUS
 62
    7
 10
295.88657519320577
 20
847.07733189782448
 11
295.88657519320577
 21
857.74399749782424
  0
LINE
  8
_0-a_極細1
  6
CONTINUOUS
 62
    7
 10
294.81990863320607
 20
847.07733189782448
 11
294.81990863320607
 21
857.74399749782424
  0
LINE
  8
_0-a_極細1
  6
CONTINUOUS
 62
    7
 10
293.75324207320546
 20
847.07733189782448
 11
293.75324207320546
 21
857.74399749782424
  0
LINE
  8
_0-a_極細1
  6
CONTINUOUS
 62
    7
 10
292.68657551320575
 20
847.07733189782448
 11
292.68657551320575
 21
857.74399749782424
  0
LINE
  8
_0-a_極細1
  6
CONTINUOUS
 62
    7
 10
291.61990895320605
 20
847.07733189782448
 11
291.61990895320605
 21
857.74399749782424
  0
LINE
  8
_0-a_極細1
  6
CONTINUOUS
 62
    7
 10
290.55324239320544
 20
847.07733189782448
 11
290.55324239320544
 21
857.74399749782424
  0
LINE
  8
_0-a_極細1
  6
CONTINUOUS
 62
    7
 10
289.48657583320573
 20
847.07733189782448
 11
289.48657583320573
 21
857.74399749782424
  0
LINE
  8
_0-a_極細1
  6
CONTINUOUS
 62
    7
 10
288.41990927320694
 20
836.41066629782381
 11
288.41990927320694
 21
868.41066309782445
  0
LINE
  8
_0-a_極細1
  6
CONTINUOUS
 62
    7
 10
287.35324271320678
 20
836.41066629782381
 11
287.35324271320678
 21
868.41066309782445
  0
LINE
  8
_0-a_極細1
  6
CONTINUOUS
 62
    7
 10
286.28657615320708
 20
836.41066629782381
 11
286.28657615320708
 21
840.10869954944792
  0
LINE
  8
_0-a_極細1
  6
CONTINUOUS
 62
    7
 10
286.28657615320708
 20
847.61481984407556
 11
286.28657615320708
 21
868.41066309782445
  0
LINE
  8
_0-a_極細1
  6
CONTINUOUS
 62
    7
 10
285.21990959320692
 20
836.41066629782381
 11
285.21990959320692
 21
837.1960493202173
  0
LINE
  8
_0-a_極細1
  6
CONTINUOUS
 62
    7
 10
285.21990959320692
 20
847.61481984407556
 11
285.21990959320692
 21
868.41066309782445
  0
LINE
  8
_0-a_極細1
  6
CONTINUOUS
 62
    7
 10
284.15324303320676
 20
847.61481984407556
 11
284.15324303320676
 21
868.41066309782445
  0
LINE
  8
_0-a_極細1
  6
CONTINUOUS
 62
    7
 10
283.08657647320661
 20
847.61481984407556
 11
283.08657647320661
 21
868.41066309782445
  0
LINE
  8
_0-a_極細1
  6
CONTINUOUS
 62
    7
 10
282.01990991320645
 20
847.61481984407556
 11
282.01990991320645
 21
868.41066309782445
  0
LINE
  8
_0-a_極細1
  6
CONTINUOUS
 62
    7
 10
280.95324335320629
 20
847.61481984407556
 11
280.95324335320629
 21
868.41066309782445
  0
LINE
  8
_0-a_極細1
  6
CONTINUOUS
 62
    7
 10
279.88657679320704
 20
847.61481984407556
 11
279.88657679320704
 21
868.41066309782445
  0
LINE
  8
_0-a_極細1
  6
CONTINUOUS
 62
    7
 10
278.81991023320688
 20
847.61481984407556
 11
278.81991023320688
 21
868.41066309782445
  0
LINE
  8
_0-a_極細1
  6
CONTINUOUS
 62
    7
 10
277.75324367320673
 20
847.61481984407556
 11
277.75324367320673
 21
868.41066309782445
  0
LINE
  8
_0-a_極細1
  6
CONTINUOUS
 62
    7
 10
276.68657711320657
 20
847.61481984407556
 11
276.68657711320657
 21
868.41066309782445
  0
LINE
  8
_0-a_極細1
  6
CONTINUOUS
 62
    7
 10
275.61991055320641
 20
847.61481984407556
 11
275.61991055320641
 21
868.41066309782445
  0
LINE
  8
_0-a_極細1
  6
CONTINUOUS
 62
    7
 10
274.55324399320625
 20
847.61481984407556
 11
274.55324399320625
 21
868.41066309782445
  0
LINE
  8
_0-a_極細1
  6
CONTINUOUS
 62
    7
 10
259.84355378859755
 20
831.61482144407591
 11
259.84355378859755
 21
847.07733189782448
  0
ARC
  8
_0-a_極細1
  6
CONTINUOUS
 62
    7
 10
243.84355538859791
 20
847.61481984407556
 40
15.999998399999999
 50
358.07490068720563
 51
50.029499419965092
  0
LINE
  8
_0-a_極細1
  6
CONTINUOUS
 62
    7
 10
326.39821379979776
 20
929.4151195739596
 11
333.10700295456809
 21
929.4151195739596
  0
LINE
  8
_0-a_極細1
  6
CONTINUOUS
 62
    7
 10
326.39821379979776
 20
930.48178613395976
 11
342.335002031768
 21
930.48178613395976
  0
LINE
  8
_0-a_極細1
  6
CONTINUOUS
 62
    7
 10
326.39821379979776
 20
931.54845269395946
 11
351.56300110896746
 21
931.54845269395946
  0
LINE
  8
_0-a_極細1
  6
CONTINUOUS
 62
    7
 10
326.39821379979776
 20
932.61511925395962
 11
360.79100018616782
 21
932.61511925395962
  0
LINE
  8
_0-a_極細1
  6
CONTINUOUS
 62
    7
 10
326.39821379979776
 20
933.68178581395955
 11
363.3102101085974
 21
933.68178581395955
  0
LINE
  8
_0-a_極細1
  6
CONTINUOUS
 62
    7
 10
326.39821379979776
 20
934.74845237395971
 11
363.3102101085974
 21
934.74845237395971
  0
LINE
  8
_0-a_極細1
  6
CONTINUOUS
 62
    7
 10
326.39821379979776
 20
935.81511893395987
 11
363.3102101085974
 21
935.81511893395987
  0
LINE
  8
_0-a_極細1
  6
CONTINUOUS
 62
    7
 10
328.09827875240308
 20
936.8817854939598
 11
363.3102101085974
 21
936.8817854939598
  0
LINE
  8
_0-a_極細1
  6
CONTINUOUS
 62
    7
 10
335.58734063160364
 20
937.94845205395995
 11
363.3102101085974
 21
937.94845205395995
  0
LINE
  8
_0-a_極細1
  6
CONTINUOUS
 62
    7
 10
343.07640251080329
 20
939.01511861396011
 11
363.3102101085974
 21
939.01511861396011
  0
LINE
  8
_0-a_極細1
  6
CONTINUOUS
 62
    7
 10
350.5654643900034
 20
940.08178517396027
 11
363.3102101085974
 21
940.08178517396027
  0
LINE
  8
_0-a_極細1
  6
CONTINUOUS
 62
    7
 10
358.05452626920305
 20
941.14845173395997
 11
363.3102101085974
 21
941.14845173395997
  0
LINE
  8
_0-a_極細1
  6
CONTINUOUS
 62
    7
 10
363.3102101085974
 20
941.97298107492543
 11
363.3102101085974
 21
945.66802611699541
  0
LINE
  8
_0-a_極細1
  6
CONTINUOUS
 62
    7
 10
326.39821379979776
 20
940.41065589782465
 11
363.3102101085974
 21
945.66802611699541
  0
LINE
  8
_0-a_極細1
  6
CONTINUOUS
 62
    7
 10
291.84355058859728
 20
903.61481424407611
 11
291.84355058859728
 21
908.41065909782446
  0
LINE
  8
_0-a_極細1
  6
CONTINUOUS
 62
    7
 10
291.84355058859728
 20
871.08148416407539
 11
291.84355058859728
 21
879.08148336407521
  0
LINE
  8
_0-a_極細1
  6
CONTINUOUS
 62
    7
 10
271.8435525885975
 20
894.57658048123221
 11
271.8435525885975
 21
887.64324784123255
  0
LINE
  8
_0-a_極細1
  6
CONTINUOUS
 62
    7
 10
271.8435525885975
 20
882.30991504123199
 11
271.8435525885975
 21
879.64324864123273
  0
LINE
  8
_0-a_極細1
  6
CONTINUOUS
 62
    7
 10
291.04355066859853
 20
894.57658048123221
 11
291.04355066859853
 21
879.64324864123273
  0
LINE
  8
_0-a_極細1
  6
CONTINUOUS
 62
    7
 10
269.17688618859756
 20
897.24324688123238
 11
271.8435525885975
 21
899.90991328123255
  0
LINE
  8
_0-a_極細1
  6
CONTINUOUS
 62
    7
 10
271.8435525885975
 20
894.57658048123221
 11
269.17688618859756
 21
897.24324688123238
  0
LINE
  8
_0-a_極細1
  6
CONTINUOUS
 62
    7
 10
271.8435525885975
 20
882.30991504123199
 11
269.17688618859756
 21
884.97658144123238
  0
LINE
  8
_0-a_極細1
  6
CONTINUOUS
 62
    7
 10
269.17688618859756
 20
884.97658144123238
 11
271.8435525885975
 21
887.64324784123255
  0
LINE
  8
_0-a_極細1
  6
CONTINUOUS
 62
    7
 10
291.04355066859853
 20
894.57658048123221
 11
295.31021690859779
 21
902.57657968123203
  0
LINE
  8
_0-a_極細1
  6
CONTINUOUS
 62
    7
 10
271.8435525885975
 20
902.57657968123203
 11
271.8435525885975
 21
899.90991328123255
  0
ARC
  8
_0-a_極細1
  6
CONTINUOUS
 62
    7
 10
304.91021594859785
 20
935.07732309782477
 40
2.6666664000000004
 50
24.054548999993202
 51
89.999999999999929
  0
ARC
  8
_0-a_極細1
  6
CONTINUOUS
 62
    7
 10
306.51021578859809
 20
928.14399045782466
 40
1.0666665599999394
 50
269.99999999999977
 51
359.99999999999966
  0
ARC
  8
_0-a_極細1
  6
CONTINUOUS
 62
    7
 10
304.91021594859785
 20
935.07732309782477
 40
2.6666664000000004
 50
0
 51
24.054548999993202
  0
LINE
  8
_0-a_極細1
  6
CONTINUOUS
 62
    7
 10
296.11021682859746
 20
911.07732549782418
 11
296.11021682859928
 21
927.0773238978245
  0
LINE
  8
_0-a_極細1
  6
CONTINUOUS
 62
    7
 10
296.11021682859928
 20
927.0773238978245
 11
306.51021578859809
 21
927.0773238978245
  0
LINE
  8
_0-a_極細1
  6
CONTINUOUS
 62
    7
 10
307.57688234859779
 20
928.14399045782466
 11
307.57688234859779
 21
935.07732309782477
  0
LINE
  8
_0-a_極細1
  6
CONTINUOUS
 62
    7
 10
289.17688418859734
 20
847.07733189782448
 11
318.51021458859714
 21
847.07733189782448
  0
LINE
  8
_0-a_極細1
  6
CONTINUOUS
 62
    7
 10
284.74923663136224
 20
836.41066629782381
 11
289.17688418859734
 21
836.41066629782381
  0
LINE
  8
_0-a_極細1
  6
CONTINUOUS
 62
    7
 10
289.17688418859734
 20
861.47733045782479
 11
296.11021682859746
 21
861.47733045782479
  0
LINE
  8
_0-a_極細1
  6
CONTINUOUS
 62
    7
 10
289.17688418859734
 20
857.74399749782424
 11
299.8435497885971
 21
857.74399749782424
  0
LINE
  8
_0-a_極細1
  6
CONTINUOUS
 62
    7
 10
289.17688418859734
 20
836.41066629782381
 11
289.17688418859734
 21
868.41066309782445
  0
LINE
  8
_0-a_極細1
  6
CONTINUOUS
 62
    7
 10
326.39821379979776
 20
854.96533110902419
 11
318.51021458859714
 21
847.07733189782448
  0
LINE
  8
_0-a_極細1
  6
CONTINUOUS
 62
    7
 10
299.8435497885971
 20
857.74399749782424
 11
299.84354978859801
 21
917.74399149782403
  0
ARC
  8
_0-a_極細1
  6
CONTINUOUS
 62
    7
 10
305.44354922859748
 20
917.74399149782403
 40
5.5999994400000617
 50
89.999999999999915
 51
179.99999999999983
  0
LINE
  8
_0-a_極細1
  6
CONTINUOUS
 62
    7
 10
311.79674325994574
 20
923.34399093782486
 11
305.44354922859748
 21
923.34399093782486
  0
ARC
  8
_0-a_極細1
  6
CONTINUOUS
 62
    7
 10
311.79674325994574
 20
932.41065669782438
 40
9.066665759999939
 50
269.99999999999977
 51
356.64911199999887
  0
ARC
  8
_0-a_極細1
  6
CONTINUOUS
 62
    7
 10
311.79674325994574
 20
932.41065669782438
 40
5.3333328000000009
 50
269.99999999999977
 51
356.64911199999932
  0
ARC
  8
_0-a_極細1
  6
CONTINUOUS
 62
    7
 10
326.39821379979776
 20
931.07732349782418
 40
9.3333323999999998
 50
89.999999999999915
 51
175.84900999999778
  0
ARC
  8
_0-a_極細1
  6
CONTINUOUS
 62
    7
 10
305.44354922859748
 20
917.74399149782403
 40
9.3333323999999998
 50
89.999999999999915
 51
179.99999999999983
  0
LINE
  8
_0-a_極細1
  6
CONTINUOUS
 62
    7
 10
307.84354898859783
 20
927.0773238978245
 11
307.84354898859783
 21
940.41065589782465
  0
LINE
  8
_0-a_極細1
  6
CONTINUOUS
 62
    7
 10
296.11021682859746
 20
861.47733045782479
 11
296.11021682859746
 21
917.74399149782403
  0
LINE
  8
_0-a_極細1
  6
CONTINUOUS
 62
    7
 10
311.79674325994574
 20
927.0773238978245
 11
305.44354922859748
 21
927.0773238978245
  0
LINE
  8
_0-a_極細1
  6
CONTINUOUS
 62
    7
 10
274.5102189885979
 20
868.41066309782445
 11
296.11021682859746
 21
868.41066309782445
  0
LINE
  8
_0-a_極細1
  6
CONTINUOUS
 62
    7
 10
363.3102101085974
 20
932.90631531492545
 11
326.39821379979776
 21
928.63964907492527
  0
LINE
  8
_0-a_極細1
  6
CONTINUOUS
 62
    7
 10
326.39821379979594
 20
827.30632587492528
 11
318.51021458859714
 21
831.572992114925
  0
LINE
  8
_0-a_極細1
  6
CONTINUOUS
 62
    7
 10
318.51021458859714
 20
831.572992114925
 11
318.51021458859714
 21
847.07733189782448
  0
LINE
  8
_0-a_極細1
  6
CONTINUOUS
 62
    7
 10
363.3102101085974
 20
861.20094115213078
 11
363.3102101085974
 21
945.59206337968408
  0
LINE
  8
_0-a_極細1
  6
CONTINUOUS
 62
    7
 10
342.51021218859705
 20
858.23965611492531
 11
363.3102101085974
 21
858.23965611492531
  0
LINE
  8
_0-a_極細1
  6
CONTINUOUS
 62
    7
 10
363.3102101085974
 20
858.23965611492531
 11
363.3102101085974
 21
861.20094115213078
  0
LINE
  8
_0-a_極細1
  6
CONTINUOUS
 62
    7
 10
342.51021218859705
 20
815.57299371492491
 11
342.51021218859705
 21
858.23965611492531
  0
LINE
  8
_0-a_極細1
  6
CONTINUOUS
 62
    7
 10
326.39821379979776
 20
936.63964536158755
 11
363.3102101085974
 21
941.89701841585452
  0
LINE
  8
_0-a_極細1
  6
CONTINUOUS
 62
    7
 10
326.39821379979776
 20
854.96533110902419
 11
326.39821379979776
 21
936.67732293782501
  0
ARC
  8
_0-a_極細1
  6
CONTINUOUS
 62
    7
 10
326.39821379979776
 20
931.07732349782418
 40
5.5999994400000617
 50
89.999999999999915
 51
175.84900999999743
  0
LINE
  8
_0-a_極細1
  6
CONTINUOUS
 62
    7
 10
275.84355218859719
 20
831.61482144407591
 11
259.84355378859755
 21
831.61482144407591
  0
ARC
  8
_0-a_極細1
  6
CONTINUOUS
 62
    7
 10
275.84355218859719
 20
842.28148704407613
 40
10.666665600000002
 50
269.99999999999977
 51
359.99999999999966
  0
LINE
  8
_0-a_極細1
  6
CONTINUOUS
 62
    7
 10
286.51021778859786
 20
842.28148704407613
 11
286.51021778859786
 21
847.61481984407556
  0
LINE
  8
_0-a_極細1
  6
CONTINUOUS
 62
    7
 10
286.51021778859786
 20
847.61481984407556
 11
274.5102189885979
 21
847.61481984407556
  0
LINE
  8
_0-a_極細1
  6
CONTINUOUS
 62
    7
 10
291.84355058859728
 20
871.08148416407539
 11
274.5102189885979
 21
871.08148416407539
  0
LINE
  8
_0-a_極細1
  6
CONTINUOUS
 62
    7
 10
274.5102189885979
 20
847.61481984407556
 11
274.5102189885979
 21
871.08148416407585
  0
LINE
  8
_0-a_極細1
  6
CONTINUOUS
 62
    7
 10
290.24355074859841
 20
908.41065909782446
 11
290.24355074859841
 21
913.74399189782434
  0
ARC
  8
_0-a_極細1
  6
CONTINUOUS
 62
    7
 10
293.44355042859752
 20
911.07732549782418
 40
2.6666664000000004
 50
269.99999999999977
 51
359.99999999999966
  0
CIRCLE
  8
_0-a_極細1
  6
CONTINUOUS
 62
    7
 10
297.31117594111538
 20
894.63007328551066
 40
99.281077021678641
  0
ARC
  8
_0-a_極細1
  6
CONTINUOUS
 62
    7
 10
355.84354418859721
 20
792.47898535765967
 40
26.666664000000004
 50
120.00000000000082
 51
161.13978923390184
  0
LINE
  8
_0-a_極細1
  6
CONTINUOUS
 62
    7
 10
315.8435481885972
 20
797.09401106509267
 11
315.8435481885972
 21
827.30632587492528
  0
LINE
  8
_0-a_極細1
  6
CONTINUOUS
 62
    7
 10
340.39944808730479
 20
814.21814045860447
 11
342.51021218859796
 21
816.32890455989673
  0
LINE
  8
_0-a_極細1
  6
CONTINUOUS
 62
    7
 10
315.84354818859765
 20
797.20471213830615
 11
342.51021218859796
 21
823.871376138306
  0
LINE
  8
_0-a_極細1
  6
CONTINUOUS
 62
    7
 10
315.8435481885972
 20
800.97594792751079
 11
342.51021218859796
 21
827.6426119275111
  0
LINE
  8
_0-a_極細1
  6
CONTINUOUS
 62
    7
 10
315.8435481885972
 20
804.74718371671543
 11
342.51021218859796
 21
831.41384771671551
  0
LINE
  8
_0-a_極細1
  6
CONTINUOUS
 62
    7
 10
315.8435481885972
 20
808.51841950592006
 11
342.51021218859796
 21
835.18508350592037
  0
LINE
  8
_0-a_極細1
  6
CONTINUOUS
 62
    7
 10
315.8435481885972
 20
812.2896552951247
 11
342.51021218859796
 21
838.95631929512501
  0
LINE
  8
_0-a_極細1
  6
CONTINUOUS
 62
    7
 10
361.7935490083978
 20
858.23965611492531
 11
363.3102101085974
 21
859.75631721512491
  0
LINE
  8
_0-a_極細1
  6
CONTINUOUS
 62
    7
 10
315.8435481885972
 20
816.06089108432934
 11
342.51021218859796
 21
842.72755508432965
  0
LINE
  8
_0-a_極細1
  6
CONTINUOUS
 62
    7
 10
358.02231321919362
 20
858.23965611492531
 11
363.3102101085974
 21
863.52755300432955
  0
LINE
  8
_0-a_極細1
  6
CONTINUOUS
 62
    7
 10
315.8435481885972
 20
819.83212687353375
 11
323.31774718998849
 21
827.30632587492528
  0
LINE
  8
_0-a_極細1
  6
CONTINUOUS
 62
    7
 10
324.39908693893403
 20
828.38766562387082
 11
342.51021218859796
 21
846.49879087353406
  0
LINE
  8
_0-a_極細1
  6
CONTINUOUS
 62
    7
 10
354.25107742998853
 20
858.23965611492531
 11
363.3102101085974
 21
867.29878879353464
  0
LINE
  8
_0-a_極細1
  6
CONTINUOUS
 62
    7
 10
315.8435481885972
 20
823.60336266273862
 11
319.54651140078431
 21
827.30632587492551
  0
LINE
  8
_0-a_極細1
  6
CONTINUOUS
 62
    7
 10
321.95167240087585
 20
829.71148687501773
 11
342.51021218859796
 21
850.27002666273893
  0
LINE
  8
_0-a_極細1
  6
CONTINUOUS
 62
    7
 10
350.47984164078343
 20
858.23965611492486
 11
363.3102101085974
 21
871.07002458273928
  0
LINE
  8
_0-a_極細1
  6
CONTINUOUS
 62
    7
 10
319.50425786281858
 20
831.03530812616464
 11
342.51021218859796
 21
854.04126245194357
  0
LINE
  8
_0-a_極細1
  6
CONTINUOUS
 62
    7
 10
346.70860585157834
 20
858.23965611492486
 11
363.3102101085974
 21
874.84126037194346
  0
LINE
  8
_0-a_極細1
  6
CONTINUOUS
 62
    7
 10
318.51021458859759
 20
833.81250064114784
 11
342.51021218859796
 21
857.81249824114821
  0
LINE
  8
_0-a_極細1
  6
CONTINUOUS
 62
    7
 10
342.93737006237461
 20
858.23965611492486
 11
363.3102101085974
 21
878.6124961611481
  0
LINE
  8
_0-a_極細1
  6
CONTINUOUS
 62
    7
 10
318.51021458859759
 20
837.58373643035247
 11
363.3102101085974
 21
882.38373195035274
  0
LINE
  8
_0-a_極細1
  6
CONTINUOUS
 62
    7
 10
318.51021458859759
 20
841.35497221955711
 11
363.3102101085974
 21
886.15496773955783
  0
LINE
  8
_0-a_極細1
  6
CONTINUOUS
 62
    7
 10
318.51021458859759
 20
845.12620800876175
 11
363.3102101085974
 21
889.92620352876224
  0
LINE
  8
_0-a_極細1
  6
CONTINUOUS
 62
    7
 10
326.39821379979776
 20
856.78544300916747
 11
363.3102101085974
 21
893.69743931796711
  0
LINE
  8
_0-a_極細1
  6
CONTINUOUS
 62
    7
 10
326.39821379979776
 20
860.55667879837165
 11
363.3102101085974
 21
897.46867510717129
  0
LINE
  8
_0-a_極細1
  6
CONTINUOUS
 62
    7
 10
326.39821379979776
 20
864.32791458757629
 11
363.3102101085974
 21
901.23991089637593
  0
LINE
  8
_0-a_極細1
  6
CONTINUOUS
 62
    7
 10
326.39821379979776
 20
868.09915037678093
 11
363.3102101085974
 21
905.01114668558057
  0
LINE
  8
_0-a_極細1
  6
CONTINUOUS
 62
    7
 10
326.39821379979776
 20
871.87038616598602
 11
363.3102101085974
 21
908.78238247478521
  0
LINE
  8
_0-a_極細1
  6
CONTINUOUS
 62
    7
 10
326.39821379979776
 20
875.64162195519066
 11
363.3102101085974
 21
912.55361826398985
  0
LINE
  8
_0-a_極細1
  6
CONTINUOUS
 62
    7
 10
326.39821379979776
 20
879.41285774439484
 11
363.3102101085974
 21
916.32485405319494
  0
LINE
  8
_0-a_極細1
  6
CONTINUOUS
 62
    7
 10
326.39821379979776
 20
883.18409353359971
 11
363.3102101085974
 21
920.09608984239935
  0
LINE
  8
_0-a_極細1
  6
CONTINUOUS
 62
    7
 10
326.39821379979776
 20
886.95532932280457
 11
363.3102101085974
 21
923.86732563160376
  0
LINE
  8
_0-a_極細1
  6
CONTINUOUS
 62
    7
 10
326.39821379979776
 20
890.72656511200921
 11
363.3102101085974
 21
927.6385614208084
  0
LINE
  8
_0-a_極細1
  6
CONTINUOUS
 62
    7
 10
326.39821379979776
 20
894.49780090121317
 11
363.3102101085974
 21
931.40979721001304
  0
LINE
  8
_0-a_極細1
  6
CONTINUOUS
 62
    7
 10
326.39821379979776
 20
898.26903669041803
 11
360.73819228585808
 21
932.60901517647835
  0
LINE
  8
_0-a_極細1
  6
CONTINUOUS
 62
    7
 10
326.39821379979776
 20
902.04027247962267
 11
356.47406503588581
 21
932.11612371570982
  0
LINE
  8
_0-a_極細1
  6
CONTINUOUS
 62
    7
 10
326.39821379979776
 20
905.81150826882731
 11
352.20993778591219
 21
931.62323225494129
  0
LINE
  8
_0-a_極細1
  6
CONTINUOUS
 62
    7
 10
326.39821379979776
 20
909.58274405803195
 11
347.94581053593947
 21
931.13034079417321
  0
LINE
  8
_0-a_極細1
  6
CONTINUOUS
 62
    7
 10
326.39821379979776
 20
913.35397984723659
 11
343.68168328596585
 21
930.63744933340467
  0
LINE
  8
_0-a_極細1
  6
CONTINUOUS
 62
    7
 10
326.39821379979776
 20
917.12521563644123
 11
339.41755603599267
 21
930.14455787263614
  0
LINE
  8
_0-a_極細1
  6
CONTINUOUS
 62
    7
 10
326.39821379979776
 20
920.89645142564586
 11
335.15342878601996
 21
929.65166641186738
  0
LINE
  8
_0-a_極細1
  6
CONTINUOUS
 62
    7
 10
326.39821379979776
 20
924.66768721485028
 11
330.88930153604679
 21
929.15877495109908
  0
LINE
  8
_0-a_極細1
  6
CONTINUOUS
 62
    7
 10
326.39821379979776
 20
928.43892300405514
 11
326.62517428607362
 21
928.66588349033054
  0
LINE
  8
_0-a_極細1
  6
CONTINUOUS
 62
    7
 10
320.50674165299415
 20
798.09666981349847
 11
342.51021218859796
 21
820.10014034910137
  0
LINE
  8
_0-a_極細1
  6
CONTINUOUS
 62
    7
 10
325.66530606282504
 20
799.48399843412426
 11
334.10438908765218
 21
807.92308145895186
  0
LINE
  8
_0-a_極細1
  6
CONTINUOUS
 62
    7
 10
224.34374972105297
 20
827.30632587492528
 11
326.39821379979594
 21
827.30632587492528
  0
LINE
  8
_0-a_極細1
  6
CONTINUOUS
 62
    7
 10
220.62651796554201
 20
831.572992114925
 11
318.51021458859714
 21
831.572992114925
  0
LINE
  8
_0-a_極細1
  6
CONTINUOUS
 62
    7
 10
210.1591877761839
 20
847.07733189782448
 11
259.84355378859755
 21
847.07733189782448
  0
LINE
  8
_0-a_極細1
  6
CONTINUOUS
 62
    7
 10
212.15332471554893
 20
945.66802611699541
 11
363.3102101085974
 21
945.66802611699541
  0
LINE
  8
_0-a_極細1
  6
CONTINUOUS
 62
    7
 10
209.21537291814684
 20
940.41065589782488
 11
326.39821379979776
 21
940.41065589782465
  0
LINE
  8
_0-a_極細1
  6
CONTINUOUS
 62
    7
 10
207.88007126593993
 20
937.74398949782449
 11
304.91021594859785
 21
937.74398949782426
  0
LINE
  8
_0-a_極細1
  6
CONTINUOUS
 62
    7
 10
199.88740897500793
 20
913.74399189782457
 11
290.24355074859841
 21
913.74399189782434
  0
LINE
  8
_0-a_極細1
  6
CONTINUOUS
 62
    7
 10
198.99114894125114
 20
908.41065909782446
 11
293.44355042859752
 21
908.41065909782446
  0
LINE
  8
_0-a_極細1
  6
CONTINUOUS
 62
    7
 10
291.84355058859728
 20
903.61481424407611
 11
198.43748538345471
 21
903.61481424407611
  0
LINE
  8
_0-a_極細1
  6
CONTINUOUS
 62
    7
 10
198.34863105322665
 20
902.57657968123249
 11
295.31021690859779
 21
902.57657968123203
  0
LINE
  8
_0-a_極細1
  6
CONTINUOUS
 62
    7
 10
198.0644955011976
 20
897.24324688123238
 11
269.17688618859756
 21
897.24324688123238
  0
LINE
  8
_0-a_極細1
  6
CONTINUOUS
 62
    7
 10
198.50053709186477
 20
884.97658144123238
 11
269.17688618859756
 21
884.97658144123238
  0
LINE
  8
_0-a_極細1
  6
CONTINUOUS
 62
    7
 10
199.16777401482113
 20
879.64324864123273
 11
291.04355066859853
 21
879.64324864123273
  0
LINE
  8
_0-a_極細1
  6
CONTINUOUS
 62
    7
 10
291.84355058859728
 20
879.08148336407521
 11
199.25520413908998
 21
879.08148336407521
  0
LINE
  8
_0-a_極細1
  6
CONTINUOUS
 62
    7
 10
274.5102189885979
 20
871.08148416407585
 11
200.86328221100666
 21
871.08148416407585
  0
LINE
  8
_0-d_寸法1
  6
CONTINUOUS
 62
    7
 10
352.67872413882787
 20
935.57842796270506
 11
359.20978903790433
 21
950.18476875306214
  0
LINE
  8
_0-d_寸法1
  6
CONTINUOUS
 62
    7
 10
352.67872413882787
 20
935.57842796270506
 11
365.63796265037149
 21
944.962357693949
  0
LINE
  8
_0-d_寸法1
  6
CONTINUOUS
 62
    7
 10
352.67872413882787
 20
935.57842796270506
 11
385.41142455851741
 21
975.8685312734101
  0
LINE
  8
_0-d_寸法1
  6
CONTINUOUS
 62
    7
 10
385.41142455851741
 20
975.8685312734101
 11
455.8114245585175
 21
975.8685312734101
  0
TEXT
  8
_0-d_寸法1
 62
    7
 10
385.41142455851741
 20
975.8685312734101
 40
24
 41
0.7333333333333333
 50
0
  1
パッキン
  0
LINE
  8
_0-a_極細1
  6
CONTINUOUS
 62
    7
 10
244.68658031320729
 20
838.0106661378245
 11
244.68658031320729
 21
847.07733189782448
  0
LINE
  8
_0-a_極細1
  6
CONTINUOUS
 62
    7
 10
243.61991375320713
 20
838.0106661378245
 11
243.61991375320713
 21
847.07733189782448
  0
LINE
  8
_0-a_極細1
  6
CONTINUOUS
 62
    7
 10
242.55324719320697
 20
838.0106661378245
 11
242.55324719320697
 21
847.07733189782448
  0
LINE
  8
_0-a_極細1
  6
CONTINUOUS
 62
    7
 10
241.48658063320681
 20
838.0106661378245
 11
241.48658063320681
 21
847.07733189782448
  0
LINE
  8
_0-a_極細1
  6
CONTINUOUS
 62
    7
 10
240.41991407320666
 20
838.0106661378245
 11
240.41991407320666
 21
847.07733189782448
  0
LINE
  8
_0-a_極細1
  6
CONTINUOUS
 62
    7
 10
239.3532475132065
 20
838.0106661378245
 11
239.3532475132065
 21
847.07733189782448
  0
LINE
  8
_0-a_極細1
  6
CONTINUOUS
 62
    7
 10
238.28658095320679
 20
838.0106661378245
 11
238.28658095320679
 21
847.07733189782448
  0
LINE
  8
_0-a_極細1
  6
CONTINUOUS
 62
    7
 10
237.21991439320709
 20
838.0106661378245
 11
237.21991439320709
 21
847.07733189782448
  0
LINE
  8
_0-a_極細1
  6
CONTINUOUS
 62
    7
 10
236.15324783320693
 20
838.0106661378245
 11
236.15324783320693
 21
847.07733189782448
  0
LINE
  8
_0-a_極細1
  6
CONTINUOUS
 62
    7
 10
235.08658127320678
 20
838.0106661378245
 11
235.08658127320678
 21
847.07733189782448
  0
LINE
  8
_0-a_極細1
  6
CONTINUOUS
 62
    7
 10
234.01991471320662
 20
838.0106661378245
 11
234.01991471320662
 21
847.07733189782448
  0
LINE
  8
_0-a_極細1
  6
CONTINUOUS
 62
    7
 10
232.95324815320646
 20
838.0106661378245
 11
232.95324815320646
 21
847.07733189782448
  0
LINE
  8
_0-a_極細1
  6
CONTINUOUS
 62
    7
 10
231.8865815932063
 20
838.0106661378245
 11
231.8865815932063
 21
847.07733189782448
  0
LINE
  8
_0-a_極細1
  6
CONTINUOUS
 62
    7
 10
230.81991503320614
 20
838.0106661378245
 11
230.81991503320614
 21
847.07733189782448
  0
LINE
  8
_0-a_極細1
  6
CONTINUOUS
 62
    7
 10
229.75324847320599
 20
838.0106661378245
 11
229.75324847320599
 21
847.07733189782448
  0
LINE
  8
_0-a_極細1
  6
CONTINUOUS
 62
    7
 10
228.68658191320674
 20
838.0106661378245
 11
228.68658191320674
 21
847.07733189782448
  0
LINE
  8
_0-a_極細1
  6
CONTINUOUS
 62
    7
 10
227.61991535320658
 20
838.0106661378245
 11
227.61991535320658
 21
847.07733189782448
  0
LINE
  8
_0-a_極細1
  6
CONTINUOUS
 62
    7
 10
226.55324879320642
 20
838.0106661378245
 11
226.55324879320642
 21
847.07733189782448
  0
LINE
  8
_0-a_極細1
  6
CONTINUOUS
 62
    7
 10
225.48658223320626
 20
838.0106661378245
 11
225.48658223320626
 21
847.07733189782448
  0
LINE
  8
_0-a_極細1
  6
CONTINUOUS
 62
    7
 10
224.41991567320611
 20
838.0106661378245
 11
224.41991567320611
 21
847.07733189782448
  0
LINE
  8
_0-a_極細1
  6
CONTINUOUS
 62
    7
 10
223.35324911320595
 20
838.0106661378245
 11
223.35324911320595
 21
847.07733189782448
  0
LINE
  8
_0-a_極細1
  6
CONTINUOUS
 62
    7
 10
222.28658255320624
 20
838.0106661378245
 11
222.28658255320624
 21
847.07733189782448
  0
LINE
  8
_0-a_極細1
  6
CONTINUOUS
 62
    7
 10
221.21991599320654
 20
838.0106661378245
 11
221.21991599320654
 21
847.07733189782448
  0
LINE
  8
_0-a_極細1
  6
CONTINUOUS
 62
    7
 10
220.15324943320593
 20
838.0106661378245
 11
220.15324943320593
 21
847.07733189782448
  0
LINE
  8
_0-a_極細1
  6
CONTINUOUS
 62
    7
 10
219.08658287320623
 20
838.0106661378245
 11
219.08658287320623
 21
847.07733189782448
  0
LINE
  8
_0-a_極細1
  6
CONTINUOUS
 62
    7
 10
245.37055790256409
 20
838.0106661378245
 11
245.37055790256409
 21
847.07733189782448
  0
LINE
  8
_0-a_極細1
  6
CONTINUOUS
 62
    7
 10
218.70389390256378
 20
838.0106661378245
 11
218.70389390256378
 21
847.07733189782448
  0
LINE
  8
_0-a_極細1
  6
CONTINUOUS
 62
    7
 10
218.70389390256378
 20
838.0106661378245
 11
245.37055790256409
 21
838.0106661378245
  0
ARC
  8
_0-a_極細1
  6
CONTINUOUS
 62
    7
 10
235.84355618859763
 20
833.61079991114457
 40
31.999996799999998
 50
55.166292356155729
 51
148.68484545273029
  0
LINE
  8
_0-a_極細1
  6
CONTINUOUS
 62
    7
 10
259.77441412941198
 20
847.07733189782448
 11
259.77441412941198
 21
849.10064910082929
  0
LINE
  8
_0-a_極細1
  6
CONTINUOUS
 62
    7
 10
258.17441412941253
 20
847.07733189782448
 11
258.17441412941253
 21
854.73004552924067
  0
LINE
  8
_0-a_極細1
  6
CONTINUOUS
 62
    7
 10
256.57441412941216
 20
847.07733189782448
 11
256.57441412941216
 21
857.30632047717882
  0
LINE
  8
_0-a_極細1
  6
CONTINUOUS
 62
    7
 10
254.97441412941271
 20
847.07733189782448
 11
254.97441412941271
 21
859.10846732831851
  0
LINE
  8
_0-a_極細1
  6
CONTINUOUS
 62
    7
 10
253.37441412941234
 20
847.07733189782448
 11
253.37441412941234
 21
860.38147071071512
  0
LINE
  8
_0-a_極細1
  6
CONTINUOUS
 62
    7
 10
251.77441412941198
 20
847.07733189782448
 11
251.77441412941198
 21
861.36341349022223
  0
LINE
  8
_0-a_極細1
  6
CONTINUOUS
 62
    7
 10
250.17441412941253
 20
847.07733189782448
 11
250.17441412941253
 21
862.22244624406676
  0
LINE
  8
_0-a_極細1
  6
CONTINUOUS
 62
    7
 10
248.57441412941216
 20
847.07733189782448
 11
248.57441412941216
 21
862.96936001362246
  0
LINE
  8
_0-a_極細1
  6
CONTINUOUS
 62
    7
 10
246.97441412941225
 20
847.07733189782448
 11
246.97441412941225
 21
863.61252980629251
  0
LINE
  8
_0-a_極細1
  6
CONTINUOUS
 62
    7
 10
245.37441412941234
 20
847.07733189782448
 11
245.37441412941234
 21
864.15850918879778
  0
LINE
  8
_0-a_極細1
  6
CONTINUOUS
 62
    7
 10
243.77441412941198
 20
847.07733189782448
 11
243.77441412941198
 21
864.61243353782038
  0
LINE
  8
_0-a_極細1
  6
CONTINUOUS
 62
    7
 10
242.17441412941253
 20
847.07733189782448
 11
242.17441412941253
 21
864.97829953947394
  0
LINE
  8
_0-a_極細1
  6
CONTINUOUS
 62
    7
 10
240.57441412941216
 20
847.07733189782448
 11
240.57441412941216
 21
865.25916129595953
  0
LINE
  8
_0-a_極細1
  6
CONTINUOUS
 62
    7
 10
238.97441412941225
 20
847.07733189782448
 11
238.97441412941225
 21
865.45726790611161
  0
LINE
  8
_0-a_極細1
  6
CONTINUOUS
 62
    7
 10
237.37441412941234
 20
847.07733189782448
 11
237.37441412941234
 21
865.57415813841908
  0
LINE
  8
_0-a_極細1
  6
CONTINUOUS
 62
    7
 10
235.77441412941198
 20
847.07733189782448
 11
235.77441412941198
 21
865.61072201379466
  0
LINE
  8
_0-a_極細1
  6
CONTINUOUS
 62
    7
 10
234.17441412941162
 20
847.07733189782448
 11
234.17441412941162
 21
865.56723525656889
  0
LINE
  8
_0-a_極細1
  6
CONTINUOUS
 62
    7
 10
232.57441412941216
 20
847.07733189782448
 11
232.57441412941216
 21
865.44336979478544
  0
LINE
  8
_0-a_極細1
  6
CONTINUOUS
 62
    7
 10
230.9744141294118
 20
847.07733189782448
 11
230.9744141294118
 21
865.23818125717889
  0
LINE
  8
_0-a_極細1
  6
CONTINUOUS
 62
    7
 10
229.37441412941234
 20
847.07733189782448
 11
229.37441412941234
 21
864.9500723375761
  0
LINE
  8
_0-a_極細1
  6
CONTINUOUS
 62
    7
 10
227.77441412941198
 20
847.07733189782448
 11
227.77441412941198
 21
864.57672863334983
  0
LINE
  8
_0-a_極細1
  6
CONTINUOUS
 62
    7
 10
226.17441412941162
 20
847.07733189782448
 11
226.17441412941162
 21
864.11502071809718
  0
LINE
  8
_0-a_極細1
  6
CONTINUOUS
 62
    7
 10
224.57441412941216
 20
847.07733189782448
 11
224.57441412941216
 21
863.56086222243039
  0
LINE
  8
_0-a_極細1
  6
CONTINUOUS
 62
    7
 10
222.9744141294118
 20
847.07733189782448
 11
222.9744141294118
 21
862.90900766964933
  0
LINE
  8
_0-a_極細1
  6
CONTINUOUS
 62
    7
 10
221.37441412941189
 20
847.07733189782448
 11
221.37441412941189
 21
862.15276416154484
  0
LINE
  8
_0-a_極細1
  6
CONTINUOUS
 62
    7
 10
219.77441412941198
 20
847.07733189782448
 11
219.77441412941198
 21
861.28357477529107
  0
LINE
  8
_0-a_極細1
  6
CONTINUOUS
 62
    7
 10
218.17441412941162
 20
847.07733189782448
 11
218.17441412941162
 21
860.2904028709404
  0
LINE
  8
_0-a_極細1
  6
CONTINUOUS
 62
    7
 10
216.57441412941216
 20
847.07733189782448
 11
216.57441412941216
 21
859.15879316899054
  0
LINE
  8
_0-a_極細1
  6
CONTINUOUS
 62
    7
 10
214.9744141294118
 20
847.07733189782448
 11
214.9744141294118
 21
857.86937993788024
  0
LINE
  8
_0-a_極細1
  6
CONTINUOUS
 62
    7
 10
213.37441412941189
 20
847.07733189782448
 11
213.37441412941189
 21
856.39538791102177
  0
LINE
  8
_0-a_極細1
  6
CONTINUOUS
 62
    7
 10
211.77441412941198
 20
847.07733189782448
 11
211.77441412941198
 21
854.69814672706116
  0
LINE
  8
_0-a_極細1
  6
CONTINUOUS
 62
    7
 10
210.17441412941162
 20
847.07733189782448
 11
210.17441412941162
 21
852.71825764746723
  0
LINE
  8
_0-a_極細1
  6
CONTINUOUS
 62
    7
 10
208.57441412941125
 20
850.10458218482245
 11
208.57441412941125
 21
850.3557599456135
  0
LINE
  8
_0-d_寸法1
  6
CONTINUOUS
 62
    7
 10
283.81971244711576
 20
886.86446792634524
 11
295.13336427726006
 21
875.55070275880394
  0
LINE
  8
_0-d_寸法1
  6
CONTINUOUS
 62
    7
 10
283.81971244711576
 20
886.86446792634524
 11
287.96073975782235
 21
871.40963396373081
  0
LINE
  8
_0-d_寸法1
  6
CONTINUOUS
 62
    7
 10
283.81971244711576
 20
886.86446792634524
 11
348.44458751700881
 21
774.92960607536531
  0
LINE
  8
_0-d_寸法1
  6
CONTINUOUS
 62
    7
 10
348.44458751700881
 20
774.92960607536531
 11
524.4445875170087
 21
774.92960607536531
  0
TEXT
  8
_0-d_寸法1
 62
    7
 10
348.44458751700881
 20
774.92960607536531
 40
24
 41
0.7333333333333333
 50
0
  1
防臭インナーパッキン
  0
LINE
  8
_0-d_寸法1
  6
CONTINUOUS
 62
    7
 10
351.57952836898812
 20
865.84092835531669
 11
362.89376179011765
 21
854.52774480283256
  0
LINE
  8
_0-d_寸法1
  6
CONTINUOUS
 62
    7
 10
351.57952836898812
 20
865.84092835531669
 11
355.7213501597912
 21
850.38630729062447
  0
LINE
  8
_0-d_寸法1
  6
CONTINUOUS
 62
    7
 10
351.57952836898812
 20
865.84092835531669
 11
382.98472385428909
 21
811.45136224754549
  0
LINE
  8
_0-d_寸法1
  6
CONTINUOUS
 62
    7
 10
382.98472385428909
 20
811.45136224754549
 11
506.18472385428902
 21
811.45136224754549
  0
TEXT
  8
_0-d_寸法1
 62
    7
 10
382.98472385428909
 20
811.45136224754549
 40
24
 41
0.7333333333333333
 50
0
  1
ロックフランジ
  0
TEXT
  8
_0-7_枠細線
 62
    5
 10
219.37748042300382
 20
718.05696234854645
 40
40
 41
0.8
 50
0
  1
Ｃ部拡大図
  0
TEXT
  8
_0-7_枠細線
 62
    5
 10
1544.7999999999997
 20
176
 40
32
 41
0.6
 50
0
  1
ＨＳＡＹ－１５Ｌ９００Ｔ
  0
LINE
  8
_0-0_計極細
  6
CONTINUOUS
 62
    2
 10
1464.0037602689461
 20
738.42362631448214
 11
1513.862146533779
 21
738.42362631448214
  0
ENDSEC
  0
EOF
