  0
SECTION
  2
HEADER
  9
$ACADVER
  1
AC1009
  9
$INSBASE
 10
0
 20
0
 30
0
  9
$EXTMIN
 10
0
 20
0
  9
$EXTMAX
 10
2376
 20
1680
  9
$LIMMIN
 10
0
 20
0
  9
$LIMMAX
 10
2376
 20
1680
  9
$LTSCALE
 40
8
  0
ENDSEC
  0
SECTION
  2
TABLES
  0
TABLE
  2
LTYPE
 70
     9
  0
LTYPE
  2
CONTINUOUS
 70
    64
  3
実線
 72
    65
 73
     0
 40
0.0
  0
LTYPE
  2
DASHED1
 70
    64
  3
--  --  --  --  --  --  --  --  
 72
    65
 73
     2
 40
2.5
 49
1.25
 49
-1.25
  0
LTYPE
  2
DASHED2
 70
    64
  3
----    ----    ----    ----    
 72
    65
 73
     2
 40
5.0
 49
2.5
 49
-2.5
  0
LTYPE
  2
DASHED3
 70
    64
  3
------  ------  ------  ------  
 72
    65
 73
     2
 40
5.0
 49
3.75
 49
-1.25
  0
LTYPE
  2
CENTER1
 70
    64
  3
----- - ----- - ----- - ----- - 
 72
    65
 73
     4
 40
10.0
 49
6.25
 49
-1.25
 49
1.25
 49
-1.25
  0
LTYPE
  2
CENTER2
 70
    64
  3
----------  --  ----------  --  
 72
    65
 73
     4
 40
20.0
 49
12.5
 49
-2.5
 49
2.5
 49
-2.5
  0
LTYPE
  2
PHANTOM1
 70
    64
  3
--- - - --- - - --- - - --- - - 
 72
    65
 73
     6
 40
10.0
 49
3.25
 49
-1.25
 49
1.25
 49
-1.25
 49
1.25
 49
-1.25
  0
LTYPE
  2
PHANTOM2
 70
    64
  3
--------  -  -  --------  -  -  
 72
    65
 73
     6
 40
20.0
 49
10.0
 49
-2.5
 49
1.25
 49
-2.5
 49
1.25
 49
-2.5
  0
LTYPE
  2
DOT
 70
    64
  3
-   -   -   -   -   -   -   -   
 72
    65
 73
     2
 40
2.5
 49
0.625
 49
-1.875
  0
LTYPE
  2
DUMMY
 70
    64
  3
ダミー
 72
    65
 73
     0
 40
0.0
  0
LTYPE
  2
RAND1
 70
    64
  3
ランダム線1
 72
    65
 73
     4
 40
10.0
 49
1.0
 49
-2.0
 49
3.0
 49
-4.0
  0
LTYPE
  2
RAND2
 70
    64
  3
ランダム線2
 72
    65
 73
     4
 40
14.0
 49
2.0
 49
-3.0
 49
4.0
 49
-5.0
  0
LTYPE
  2
RAND3
 70
    64
  3
ランダム線3
 72
    65
 73
     4
 40
18.0
 49
3.0
 49
-4.0
 49
5.0
 49
-6.0
  0
LTYPE
  2
RAND4
 70
    64
  3
ランダム線4
 72
    65
 73
     4
 40
22.0
 49
4.0
 49
-5.0
 49
6.0
 49
-7.0
  0
LTYPE
  2
RAND5
 70
    64
  3
ランダム線5
 72
    65
 73
     4
 40
26.0
 49
5.0
 49
-6.0
 49
7.0
 49
-8.0
  0
LTYPE
  2
LONG1
 70
    64
  3
----------  --  ----------  --  
 72
    65
 73
     4
 40
40.0
 49
32.5
 49
-2.5
 49
2.5
 49
-2.5
  0
LTYPE
  2
LONG2
 70
    64
  3
--------  -  -  --------  -  -  
 72
    65
 73
     6
 40
40.0
 49
30.0
 49
-2.5
 49
1.25
 49
-2.5
 49
1.25
 49
-2.5
  0
LTYPE
  2
LONG3
 70
    64
  3
+++++++++++++++..+++++++++++++++
 72
    65
 73
     2
 40
40.0
 49
37.5
 49
-2.5
  0
LTYPE
  2
LONG4
 70
    64
  3
+++++++++++++++..+++++++++++++++
 72
    65
 73
     2
 40
80.0
 49
75.0
 49
-5.0
  0
LTYPE
  2
LONG5
 70
    64
  3
----------  --  ----------  --  
 72
    65
 73
     4
 40
60.0
 49
37.5
 49
-7.5
 49
7.5
 49
-7.5
  0
LTYPE
  2
dashed
 70
   64
  3
-------   -------------   ------
 72
   65
 73
    2
 40
7.5
 49
6
 49
-1.5
  0
LTYPE
  2
dashed_spaced
 70
   64
  3
----        --------        ----
 72
   65
 73
    2
 40
12
 49
6
 49
-6
  0
LTYPE
  2
long_dashed_dotted
 70
   64
  3
------------- --- --------------
 72
   65
 73
    4
 40
15.25
 49
12
 49
-1.5
 49
0.25
 49
-1.5
  0
LTYPE
  2
long_dashed_double-dotted
 70
   64
  3
----------- --- --- ------------
 72
   65
 73
    6
 40
17
 49
12
 49
-1.5
 49
0.25
 49
-1.5
 49
0.25
 49
-1.5
  0
LTYPE
  2
long_dashed_triplicate-dotted
 70
   64
  3
--------- --- --- --- ----------
 72
   65
 73
    8
 40
18.75
 49
12
 49
-1.5
 49
0.25
 49
-1.5
 49
0.25
 49
-1.5
 49
0.25
 49
-1.5
  0
LTYPE
  2
dotted
 70
   64
  3
   -       -       -       -    
 72
   65
 73
    2
 40
1.75
 49
0.25
 49
-1.5
  0
LTYPE
  2
chain
 70
   64
  3
-------------- -- --------------
 72
   65
 73
    4
 40
18.5
 49
12
 49
-1.5
 49
3.5
 49
-1.5
  0
LTYPE
  2
chain_double_dash
 70
   64
  3
------------ -- -- -------------
 72
   65
 73
    6
 40
23.5
 49
12
 49
-1.5
 49
3.5
 49
-1.5
 49
3.5
 49
-1.5
  0
LTYPE
  2
dashed_dotted
 70
   64
  3
-----------     -     ----------
 72
   65
 73
    4
 40
9.25
 49
6
 49
-1.5
 49
0.25
 49
-1.5
  0
LTYPE
  2
double-dashed_dotted
 70
   64
  3
------   -----------   -   -----
 72
   65
 73
    6
 40
16.75
 49
6
 49
-1.5
 49
6
 49
-1.5
 49
0.25
 49
-1.5
  0
LTYPE
  2
dashed_double-dotted
 70
   64
  3
---------    -    -    ---------
 72
   65
 73
    6
 40
11
 49
6
 49
-1.5
 49
0.25
 49
-1.5
 49
0.25
 49
-1.5
  0
LTYPE
  2
double-dashed_double-dotted
 70
   64
  3
-----   ---------   -   -   ----
 72
   65
 73
    8
 40
18.5
 49
6
 49
-1.5
 49
6
 49
-1.5
 49
0.25
 49
-1.5
 49
0.25
 49
-1.5
  0
LTYPE
  2
dashed_triplicate-dotted
 70
   64
  3
-------    -    -    -    ------
 72
   65
 73
    8
 40
12.75
 49
6
 49
-1.5
 49
0.25
 49
-1.5
 49
0.25
 49
-1.5
 49
0.25
 49
-1.5
  0
LTYPE
  2
double-dashed_triplicate-dotted
 70
   64
  3
-----  ---------  -  -  -  -----
 72
   65
 73
   10
 40
20.25
 49
6
 49
-1.5
 49
6
 49
-1.5
 49
0.25
 49
-1.5
 49
0.25
 49
-1.5
 49
0.25
 49
-1.5
  0
LTYPE
  2
undefined
 70
   64
  3
--------------------------------
 72
   65
 73
    0
 40
0
  0
ENDTAB
  0
TABLE
  2
STYLE
  5
3
100
AcDbSymbolTable
 70
     1
  0
STYLE
  5
10
100
AcDbSymbolTableRecord
100
AcDbTextStyleTableRecord
  2
STANDARD
 70
     0
 40
0.0
 41
1.0
 50
0.0
 71
     0
 42
0.2
  3
txt
  4
bigfont.shx
  0
STYLE
  5
26
100
AcDbSymbolTableRecord
100
AcDbTextStyleTableRecord
  2
TATEGAKI
 70
    68
 40
0.0
 41
1.0
 50
0.0
 71
     0
 42
1.0
  3
txt
  4
bigfont.shx
  0
ENDTAB
  0
TABLE
  2
LAYER
 70
   13
  0
LAYER
  2
_0-0_計極細
 70
   64
 62
    7
  6
CONTINUOUS
  0
LAYER
  2
_0-1_計細線
 70
   64
 62
    7
  6
CONTINUOUS
  0
LAYER
  2
_0-5_寸法線
 70
   64
 62
    7
  6
CONTINUOUS
  0
LAYER
  2
_0-7_枠細線
 70
   64
 62
    7
  6
CONTINUOUS
  0
LAYER
  2
_0-8_枠中線
 70
   64
 62
    7
  6
CONTINUOUS
  0
LAYER
  2
_0-a_極細1
 70
   64
 62
    7
  6
CONTINUOUS
  0
LAYER
  2
_0-d_寸法1
 70
   64
 62
    7
  6
CONTINUOUS
  0
LAYER
  2
_0-e_極細4
 70
   64
 62
    7
  6
CONTINUOUS
  0
LAYER
  2
_1-1_寸法4
 70
   64
 62
    7
  6
CONTINUOUS
  0
LAYER
  2
_1-2_極細2
 70
   64
 62
    7
  6
CONTINUOUS
  0
LAYER
  2
_1-3_細線2
 70
   64
 62
    7
  6
CONTINUOUS
  0
LAYER
  2
_1-5_寸法2
 70
   64
 62
    7
  6
CONTINUOUS
  0
LAYER
  2
ADD_LINE
 70
   64
 62
    7
  6
CONTINUOUS
  0
ENDTAB
  0
ENDSEC
  0
SECTION
  2
BLOCKS
  0
ENDSEC
  0
SECTION
  2
ENTITIES
  0
LINE
  8
_0-8_枠中線
  6
CONTINUOUS
 62
    5
 10
96
 20
96
 11
96
 21
1536
  0
LINE
  8
_0-8_枠中線
  6
CONTINUOUS
 62
    5
 10
96
 20
1536
 11
2280
 21
1536
  0
LINE
  8
_0-8_枠中線
  6
CONTINUOUS
 62
    5
 10
2280
 20
1536
 11
2280
 21
96
  0
LINE
  8
_0-8_枠中線
  6
CONTINUOUS
 62
    5
 10
2280
 20
96
 11
96
 21
96
  0
LINE
  8
_0-7_枠細線
  6
CONTINUOUS
 62
    5
 10
1896
 20
288
 11
1896
 21
160
  0
TEXT
  8
_0-7_枠細線
 62
    5
 10
1500
 20
156
 40
28
 41
1
 50
0
  1
備考
  7
TATEGAKI
  0
TEXT
  8
_0-7_枠細線
 62
    5
 10
1500
 20
220
 40
28
 41
1
 50
0
  1
品番
  7
TATEGAKI
  0
TEXT
  8
_0-7_枠細線
 62
    5
 10
1500
 20
284
 40
28
 41
1
 50
0
  1
品名
  7
TATEGAKI
  0
LINE
  8
_0-7_枠細線
  6
CONTINUOUS
 62
    5
 10
1896
 20
224
 11
1480
 21
224
  0
LINE
  8
_0-7_枠細線
  6
CONTINUOUS
 62
    5
 10
1520
 20
288
 11
1520
 21
96
  0
LINE
  8
_0-8_枠中線
  6
CONTINUOUS
 62
    5
 10
2280
 20
288
 11
1480
 21
288
  0
LINE
  8
_0-8_枠中線
  6
CONTINUOUS
 62
    5
 10
1480
 20
288
 11
1480
 21
96
  0
LINE
  8
_0-7_枠細線
  6
CONTINUOUS
 62
    5
 10
1992
 20
288
 11
1992
 21
96
  0
TEXT
  8
_0-7_枠細線
 62
    5
 10
1908
 20
256
 40
24
 41
1
 50
0
  1
縮　尺
  0
LINE
  8
_0-7_枠細線
  6
CONTINUOUS
 62
    5
 10
1896
 20
248
 11
1992
 21
248
  0
LINE
  8
_0-7_枠細線
  6
CONTINUOUS
 62
    5
 10
1992
 20
160
 11
1480
 21
160
  0
LINE
  8
_0-7_枠細線
  6
CONTINUOUS
 62
    5
 10
2280
 20
144
 11
1992
 21
144
  0
LINE
  8
_0-7_枠細線
  6
CONTINUOUS
 62
    5
 10
1992
 20
192
 11
2280
 21
192
  0
LINE
  8
_0-7_枠細線
  6
CONTINUOUS
 62
    5
 10
2280
 20
224
 11
1992
 21
224
  0
TEXT
  8
_0-7_枠細線
 62
    5
 10
2004
 20
96
 40
24
 41
1
 50
0
  1
年月日
  0
TEXT
  8
_0-7_枠細線
 62
    5
 10
2004
 20
120
 40
24
 41
1
 50
0
  1
作　成
  0
TEXT
  8
_0-7_枠細線
 62
    5
 10
2010
 20
196
 40
24
 41
1
 50
0
  1
承 認
  0
LINE
  8
_0-7_枠細線
  6
CONTINUOUS
 62
    5
 10
2088
 20
224
 11
2088
 21
96
  0
TEXT
  8
_0-7_枠細線
 62
    5
 10
2106
 20
196
 40
24
 41
1
 50
0
  1
検 図
  0
LINE
  8
_0-7_枠細線
  6
CONTINUOUS
 62
    5
 10
2184
 20
224
 11
2184
 21
144
  0
TEXT
  8
_0-7_枠細線
 62
    5
 10
2202
 20
196
 40
24
 41
1
 50
0
  1
設 計
  0
LINE
  8
_0-7_枠細線
  6
CONTINUOUS
 62
    5
 10
2280
 20
1508
 11
1424
 21
1508
  0
TEXT
  8
_0-7_枠細線
 62
    5
 10
1432
 20
1511.9999999999991
 40
20
 41
1
 50
0
  1
記号
  0
TEXT
  8
_0-7_枠細線
 62
    5
 10
1595
 20
1512
 40
20
 41
1
 50
0
  1
訂　 正　 記　 事
  0
TEXT
  8
_0-7_枠細線
 62
    5
 10
1890
 20
1512
 40
20
 41
1
 50
0
  1
訂 正 年 月 日
  0
TEXT
  8
_0-7_枠細線
 62
    5
 10
2090
 20
1512
 40
20
 41
1
 50
0
  1
備　　　　　考
  0
LINE
  8
_0-7_枠細線
  6
CONTINUOUS
 62
    5
 10
2280
 20
1480
 11
1424
 21
1480
  0
TEXT
  8
_0-7_枠細線
 62
    5
 10
1910.4000000000001
 20
188
 40
32
 41
0.6999999999999998
 50
0
  1
１：８
  0
LINE
  8
_0-7_枠細線
  6
CONTINUOUS
 62
    5
 10
2040
 20
1480
 11
2040
 21
1535.9999999999991
  0
LINE
  8
_0-7_枠細線
  6
CONTINUOUS
 62
    5
 10
1880
 20
1480
 11
1880
 21
1536
  0
LINE
  8
_0-7_枠細線
  6
CONTINUOUS
 62
    5
 10
1480
 20
1480
 11
1480
 21
1535.9999999999991
  0
LINE
  8
_0-7_枠細線
  6
CONTINUOUS
 62
    5
 10
1424
 20
1480
 11
1424
 21
1535.9999999999991
  0
TEXT
  8
_0-7_枠細線
 62
    5
 10
2200
 20
152
 40
32
 41
1
 50
0
  1
藤戸
  0
TEXT
  8
_0-7_枠細線
 62
    5
 10
2008
 20
152
 40
32
 41
1
 50
0
  1
大野
  0
TEXT
  8
_0-7_枠細線
 62
    5
 10
2104
 20
152
 40
32
 41
1
 50
0
  1
深川
  0
TEXT
  8
_0-7_枠細線
 62
    5
 10
2096
 20
108
 40
24
 41
0.6666666666666666
 50
0
  1
２０１５年０４月０１日
  0
TEXT
  8
_0-7_枠細線
 62
    5
 10
2007.9999999999991
 20
236
 40
40
 41
0.8
 50
0
  1
株式会社シマブン
  0
TEXT
  8
_0-7_枠細線
 62
    5
 10
1544.7999999999995
 20
112
 40
32.000000000000007
 41
0.5999999999999997
 50
0
  1
表面形状については記号表参照のこと
  0
ARC
  8
_0-1_計細線
  6
CONTINUOUS
 62
    3
 10
1352.6195190041451
 20
1200.7340632024861
 40
0.501740082747087
 50
330.00000000008498
 51
20.189991000038834
  0
ARC
  8
_0-1_計細線
  6
CONTINUOUS
 62
    3
 10
1352.6195190041451
 20
1172.3344534264779
 40
0.501740082747087
 50
339.81000899996047
 51
29.999999999914319
  0
LINE
  8
_0-1_計細線
  6
CONTINUOUS
 62
    3
 10
1315.3083254779438
 20
1188.7920977182011
 11
1314.0047573825284
 21
1191.0499371219203
  0
LINE
  8
_0-1_計細線
  6
CONTINUOUS
 62
    3
 10
1315.3083254779438
 20
1188.7920977182011
 11
1295.1684341221969
 21
1223.6754094395073
  0
LINE
  8
_0-1_計細線
  6
CONTINUOUS
 62
    3
 10
1315.3083254779438
 20
1188.7920977182011
 11
1317.9154556478704
 21
1188.7920977182011
  0
LINE
  8
_0-1_計細線
  6
CONTINUOUS
 62
    3
 10
1311.3976332335076
 20
1186.5342583144811
 11
1291.2577418777571
 21
1221.41757003579
  0
ARC
  8
_0-1_計細線
  6
CONTINUOUS
 62
    3
 10
1282.3999850189527
 20
1160.1927986044211
 40
0.501740082747087
 50
219.81000899998574
 51
269.99999999999977
  0
LINE
  8
_0-1_計細線
  6
CONTINUOUS
 62
    3
 10
1315.3083254779438
 20
1184.276418910762
 11
1295.1684341221969
 21
1149.3931071894549
  0
LINE
  8
_0-1_計細線
  6
CONTINUOUS
 62
    3
 10
1311.3976332335076
 20
1186.5342583144811
 11
1291.2577418777571
 21
1151.650946593174
  0
ARC
  8
_0-1_計細線
  6
CONTINUOUS
 62
    3
 10
1314.0047573825284
 20
1186.5342583144811
 40
46.4111412917104
 50
89.999999999999915
 51
269.99999999999977
  0
ARC
  8
_0-1_計細線
  6
CONTINUOUS
 62
    3
 10
1314.0047573825284
 20
1186.5342583144811
 40
57.198598227560829
 50
89.999999999999915
 51
269.99999999999977
  0
CIRCLE
  8
_0-1_計細線
  6
CONTINUOUS
 62
    3
 10
1314.0047573825284
 20
1186.5342583144811
 40
58.202084413960065
  0
LINE
  8
_0-1_計細線
  6
CONTINUOUS
 62
    3
 10
1315.3083254779438
 20
1188.7920977182011
 11
1355.5881021685343
 21
1188.7920977182011
  0
LINE
  8
_0-1_計細線
  6
CONTINUOUS
 62
    3
 10
1315.3083254779438
 20
1184.276418910762
 11
1355.5881021685343
 21
1184.276418910762
  0
ARC
  8
_0-1_計細線
  6
CONTINUOUS
 62
    3
 10
1314.0047573825284
 20
1186.5342583144811
 40
46.4111412917104
 50
269.99999999999977
 51
89.999999999999545
  0
ARC
  8
_0-1_計細線
  6
CONTINUOUS
 62
    3
 10
1314.0047573825284
 20
1186.5342583144811
 40
57.198598227560829
 50
269.99999999999977
 51
89.999999999999545
  0
ARC
  8
_0-1_計細線
  6
CONTINUOUS
 62
    3
 10
1314.0047573825284
 20
1186.5342583144811
 40
41.644595453350369
 50
89.999999999999915
 51
116.89207624474167
  0
ARC
  8
_0-1_計細線
  6
CONTINUOUS
 62
    3
 10
1314.0047573825284
 20
1186.5342583144811
 40
41.644595453350369
 50
123.10791868694047
 51
236.8920813130581
  0
ARC
  8
_0-1_計細線
  6
CONTINUOUS
 62
    3
 10
1314.0047573825284
 20
1186.5342583144811
 40
41.644595453350369
 50
243.10792375525685
 51
269.99999999999977
  0
ARC
  8
_0-1_計細線
  6
CONTINUOUS
 62
    3
 10
1314.0047573825284
 20
1186.5342583144811
 40
41.644595453350369
 50
269.99999999999977
 51
356.8920785890931
  0
ARC
  8
_0-1_計細線
  6
CONTINUOUS
 62
    3
 10
1314.0047573825284
 20
1186.5342583144811
 40
41.644595453350369
 50
3.1079214109077964
 51
89.999999999999915
  0
ARC
  8
_0-0_計極細
  6
CONTINUOUS
 62
    2
 10
1314.0047573825284
 20
1186.5342583144811
 40
50.153133796808191
 50
269.99999999999977
 51
89.999999999999545
  0
ARC
  8
_0-0_計極細
  6
CONTINUOUS
 62
    2
 10
1314.0047573825284
 20
1186.5342583144811
 40
50.153133796808191
 50
89.999999999999915
 51
269.99999999999977
  0
ARC
  8
_0-0_計極細
  6
CONTINUOUS
 62
    2
 10
1300.3897563380212
 20
1157.4332160848899
 40
0.501740082747087
 50
149.99997568607938
 51
210.00002243784951
  0
ARC
  8
_0-0_計極細
  6
CONTINUOUS
 62
    2
 10
1314.2944411884771
 20
1180.513353237895
 40
1.0034861863992508
 50
29.999999999951111
 51
149.99999999997101
  0
ARC
  8
_0-0_計極細
  6
CONTINUOUS
 62
    2
 10
1314.2944411884771
 20
1180.513353237895
 40
1.0034861863992508
 50
29.999999999951111
 51
106.7786549999677
  0
ARC
  8
_0-0_計極細
  6
CONTINUOUS
 62
    2
 10
1308.6456641710563
 20
1183.7746788280147
 40
1.0034861863992508
 50
329.99999999995163
 51
89.999999999999545
  0
ARC
  8
_0-0_計極細
  6
CONTINUOUS
 62
    2
 10
1273.5095410824904
 20
1193.8130191135742
 40
0.501740082747087
 50
89.993779916795503
 51
169.8086801233238
  0
ARC
  8
_0-0_計極細
  6
CONTINUOUS
 62
    2
 10
1273.5079753770576
 20
1179.2624957808202
 40
0.501740082747087
 50
190.17882981064031
 51
269.99383436904543
  0
ARC
  8
_0-0_計極細
  6
CONTINUOUS
 62
    2
 10
1273.4562430864514
 20
1189.2973447111153
 40
1.0034861863992508
 50
176.10042624740908
 51
269.99385985774035
  0
ARC
  8
_0-0_計極細
  6
CONTINUOUS
 62
    2
 10
1314.0047573825284
 20
1186.5342583144811
 40
37.630656728658437
 50
317.45760300000074
 51
327.38710799999916
  0
ARC
  8
_0-0_計極細
  6
CONTINUOUS
 62
    2
 10
1314.0047573825284
 20
1186.5342583144811
 40
37.630656728658437
 50
32.612892000000492
 51
42.542396999998878
  0
LINE
  8
_0-0_計極細
  6
CONTINUOUS
 62
    2
 10
1349.1789751535159
 20
1167.2553202592553
 11
1340.2208859325153
 21
1182.7711926416177
  0
LINE
  8
_0-0_計極細
  6
CONTINUOUS
 62
    2
 10
1347.7721485360369
 20
1162.6676254061949
 11
1335.4411482911316
 21
1184.0255458589354
  0
LINE
  8
_0-0_計極細
  6
CONTINUOUS
 62
    2
 10
1343.1502127958054
 20
1158.6312407473779
 11
1329.2130096827166
 21
1182.7711926416177
  0
LINE
  8
_0-0_計極細
  6
CONTINUOUS
 62
    2
 10
1349.1789751535159
 20
1205.8131963697078
 11
1340.2208859325153
 21
1190.2973239873472
  0
LINE
  8
_0-0_計極細
  6
CONTINUOUS
 62
    2
 10
1347.7721485360369
 20
1210.4008912227682
 11
1335.4411482911316
 21
1189.0429707700278
  0
LINE
  8
_0-0_計極細
  6
CONTINUOUS
 62
    2
 10
1343.1502127958054
 20
1214.4372698606821
 11
1329.2130096827166
 21
1190.2973239873472
  0
LINE
  8
_0-0_計極細
  6
CONTINUOUS
 62
    2
 10
1311.997791030635
 20
1159.5146219193102
 11
1311.997791030635
 21
1167.4320338232537
  0
LINE
  8
_0-0_計極細
  6
CONTINUOUS
 62
    2
 10
1312.4995311133823
 20
1159.4820307601294
 11
1312.4995311133823
 21
1166.5629944472148
  0
ARC
  8
_0-0_計極細
  6
CONTINUOUS
 62
    2
 10
1314.0047573825284
 20
1186.5342583144811
 40
37.630656728658437
 50
213.59599500000033
 51
225.50677599999892
  0
LINE
  8
_0-0_計極細
  6
CONTINUOUS
 62
    2
 10
1340.987094270751
 20
1155.353490128211
 11
1324.4332720413329
 21
1184.0255458589354
  0
LINE
  8
_0-0_計極細
  6
CONTINUOUS
 62
    2
 10
1335.7992416205623
 20
1152.2973027949556
 11
1318.2051334329169
 21
1182.7711926416177
  0
LINE
  8
_0-0_計極細
  6
CONTINUOUS
 62
    2
 10
1317.7901726550388
 20
1145.3575233110114
 11
1305.4591724101335
 21
1166.7154437637528
  0
LINE
  8
_0-0_計極細
  6
CONTINUOUS
 62
    2
 10
1323.5967515736118
 20
1147.3420437287796
 11
1309.659548460522
 21
1171.4819956230185
  0
LINE
  8
_0-0_計極細
  6
CONTINUOUS
 62
    2
 10
1327.5169327644523
 20
1147.5764857306531
 11
1310.9631105350343
 21
1176.2485474822843
  0
LINE
  8
_0-0_計極細
  6
CONTINUOUS
 62
    2
 10
1332.7575887521632
 20
1150.5412094948888
 11
1315.1634865854228
 21
1181.0150933206442
  0
LINE
  8
_0-0_計極細
  6
CONTINUOUS
 62
    2
 10
1282.3999850189527
 20
1159.6910585216738
 11
1295.6100193423242
 21
1159.6910585216738
  0
ARC
  8
_0-0_計極細
  6
CONTINUOUS
 62
    2
 10
1292.1338497963568
 20
1155.1753797142346
 40
1.0034861863992508
 50
329.99999999997061
 51
89.999999999999545
  0
ARC
  8
_0-0_計極細
  6
CONTINUOUS
 62
    2
 10
1314.0047573825284
 20
1186.5342583144811
 40
37.630656728658437
 50
233.77152299999938
 51
236.31964599999907
  0
ARC
  8
_0-0_計極細
  6
CONTINUOUS
 62
    2
 10
1288.1528695060549
 20
1155.1753797142346
 40
1.0034861863992508
 50
89.999999999999915
 51
230.49822999997428
  0
LINE
  8
_0-0_計極細
  6
CONTINUOUS
 62
    2
 10
1288.1528695060549
 20
1156.1788598797284
 11
1292.1338497963568
 21
1156.1788598797284
  0
ARC
  8
_0-0_計極細
  6
CONTINUOUS
 62
    2
 10
1314.0047573825284
 20
1186.5342583144811
 40
37.630656728658437
 50
272.61289199999948
 51
282.54239699999982
  0
ARC
  8
_0-0_計極細
  6
CONTINUOUS
 62
    2
 10
1318.2246953535102
 20
1145.6083963628371
 40
0.501740082747087
 50
209.99999999991431
 51
275.88706199998586
  0
LINE
  8
_0-0_計極細
  6
CONTINUOUS
 62
    2
 10
1313.1136995566237
 20
1146.4330195221282
 11
1304.1556103356231
 21
1161.9488979253938
  0
LINE
  8
_0-0_計極細
  6
CONTINUOUS
 62
    2
 10
1306.560251446919
 20
1145.7421206645913
 11
1299.9552342852346
 21
1157.182346066129
  0
ARC
  8
_0-0_計極細
  6
CONTINUOUS
 62
    2
 10
1314.0047573825284
 20
1186.5342583144811
 40
37.630656728658437
 50
254.49322399999909
 51
266.40400499999907
  0
ARC
  8
_0-0_計極細
  6
CONTINUOUS
 62
    2
 10
1295.6100193423242
 20
1160.1927986044211
 40
0.501740082747087
 50
269.99999999999977
 51
329.99999999989114
  0
ARC
  8
_0-0_計極細
  6
CONTINUOUS
 62
    2
 10
1299.7731199693824
 20
1148.4664236682129
 40
1.0034861863992508
 50
249.50177000005806
 51
29.999999999976708
  0
LINE
  8
_0-0_計極細
  6
CONTINUOUS
 62
    2
 10
1300.6421593454231
 20
1148.9681637509602
 11
1298.6516722107242
 21
1152.4157942068614
  0
ARC
  8
_0-0_計極細
  6
CONTINUOUS
 62
    2
 10
1303.2865649386783
 20
1161.4471518217424
 40
1.0034861863992508
 50
29.999999999977071
 51
149.99999999999699
  0
ARC
  8
_0-0_計極細
  6
CONTINUOUS
 62
    2
 10
1314.0047573825284
 20
1186.5342583144811
 40
27.094072844634088
 50
244.78019200000068
 51
249.77896100000117
  0
ARC
  8
_0-0_計極細
  6
CONTINUOUS
 62
    2
 10
1314.0047573825284
 20
1186.5342583144811
 40
37.630656728658437
 50
243.68035399999945
 51
246.22847699999838
  0
ARC
  8
_0-0_計極細
  6
CONTINUOUS
 62
    2
 10
1297.7826268137794
 20
1151.9140541241168
 40
1.0034861863992508
 50
29.999999999977071
 51
150.00000000002294
  0
ARC
  8
_0-0_計極細
  6
CONTINUOUS
 62
    2
 10
1312.2446601805857
 20
1145.9312794393827
 40
1.0034861863992508
 50
267.5178359999677
 51
30.000000000002665
  0
ARC
  8
_0-0_計極細
  6
CONTINUOUS
 62
    2
 10
1306.9947741453905
 20
1145.992993716417
 40
0.501740082747087
 50
210.00000000010814
 51
260.18999100005101
  0
ARC
  8
_0-0_計極細
  6
CONTINUOUS
 62
    2
 10
1314.0047573825284
 20
1186.5342583144811
 40
27.094072844634088
 50
260.2909829999993
 51
275.37568199999987
  0
ARC
  8
_0-0_計極細
  6
CONTINUOUS
 62
    2
 10
1314.0047573825284
 20
1186.5342583144811
 40
37.630656728658437
 50
288.07291800000075
 51
297.32522599999999
  0
ARC
  8
_0-0_計極細
  6
CONTINUOUS
 62
    2
 10
1314.0047573825284
 20
1186.5342583144811
 40
27.094072844634088
 50
283.31934900000118
 51
296.2837799999993
  0
ARC
  8
_0-0_計極細
  6
CONTINUOUS
 62
    2
 10
1327.951449442018
 20
1147.8273587824797
 40
0.501740082747087
 50
210.00000000010814
 51
289.81487200010849
  0
ARC
  8
_0-0_計極細
  6
CONTINUOUS
 62
    2
 10
1322.7277061766679
 20
1146.8403036460331
 40
1.0034861863992508
 50
282.39403400005705
 51
30.000000000002665
  0
ARC
  8
_0-0_計極細
  6
CONTINUOUS
 62
    2
 10
1314.0047573825284
 20
1186.5342583144811
 40
37.630656728658437
 50
302.67477399999905
 51
311.92708199999919
  0
ARC
  8
_0-0_計極細
  6
CONTINUOUS
 62
    2
 10
1336.6682809966003
 20
1152.7990488986088
 40
1.0034861863992508
 50
210.00000000004766
 51
303.89344999998519
  0
ARC
  8
_0-0_計極細
  6
CONTINUOUS
 62
    2
 10
1340.5525715722786
 20
1155.1026170763853
 40
0.501740082747087
 50
310.18512800006715
 51
29.999999999952333
  0
ARC
  8
_0-0_計極細
  6
CONTINUOUS
 62
    2
 10
1331.8885493761243
 20
1150.0394633912365
 40
1.0034861863992508
 50
296.10655000001316
 51
29.999999999976708
  0
LINE
  8
_0-0_計極細
  6
CONTINUOUS
 62
    2
 10
1279.7215974374456
 20
1165.7119635982599
 11
1297.6377879212557
 21
1165.7119635982599
  0
ARC
  8
_0-0_計極細
  6
CONTINUOUS
 62
    2
 10
1292.1338497963568
 20
1217.8931369147294
 40
1.0034861863992508
 50
269.99999999999977
 51
30.000000000028667
  0
LINE
  8
_0-0_計極細
  6
CONTINUOUS
 62
    2
 10
1282.3999850189527
 20
1213.3774581072903
 11
1295.6100193423242
 21
1213.3774581072903
  0
LINE
  8
_0-0_計極細
  6
CONTINUOUS
 62
    2
 10
1279.7215974374456
 20
1207.3565530307033
 11
1297.6377879212557
 21
1207.3565530307033
  0
LINE
  8
_0-0_計極細
  6
CONTINUOUS
 62
    2
 10
1276.4519569774163
 20
1203.8443604096647
 11
1301.1139574672231
 21
1203.8443604096647
  0
LINE
  8
_0-0_計極細
  6
CONTINUOUS
 62
    2
 10
1275.2673137990721
 20
1197.8234553330794
 11
1303.1417260461565
 21
1197.8234553330794
  0
LINE
  8
_0-0_計極細
  6
CONTINUOUS
 62
    2
 10
1273.5102571541918
 20
1194.311262712039
 11
1306.6178955921221
 21
1194.311262712039
  0
LINE
  8
_0-0_計極細
  6
CONTINUOUS
 62
    2
 10
1273.4574477957647
 20
1188.2903576354538
 11
1308.6456641710563
 21
1188.2903576354538
  0
LINE
  8
_0-0_計極細
  6
CONTINUOUS
 62
    2
 10
1276.4519569774163
 20
1169.2241562192994
 11
1301.1139574672231
 21
1169.2241562192994
  0
LINE
  8
_0-0_計極細
  6
CONTINUOUS
 62
    2
 10
1275.2673137990721
 20
1175.2450612958855
 11
1303.1417260461565
 21
1175.2450612958855
  0
LINE
  8
_0-0_計極細
  6
CONTINUOUS
 62
    2
 10
1273.5102571541918
 20
1178.757253916925
 11
1306.6178955921221
 21
1178.757253916925
  0
LINE
  8
_0-0_計極細
  6
CONTINUOUS
 62
    2
 10
1273.4574477957647
 20
1184.7781589935094
 11
1308.6456641710563
 21
1184.7781589935094
  0
ARC
  8
_0-0_計極細
  6
CONTINUOUS
 62
    2
 10
1314.0047573825284
 20
1186.5342583144811
 40
27.094072844634088
 50
140.2909829999995
 51
155.37568200000089
  0
ARC
  8
_0-0_計極細
  6
CONTINUOUS
 62
    2
 10
1314.0047573825284
 20
1186.5342583144811
 40
37.630656728658437
 50
152.61289200000007
 51
162.542396999999
  0
ARC
  8
_0-0_計極細
  6
CONTINUOUS
 62
    2
 10
1275.2673137990721
 20
1198.82694151948
 40
1.0034861863992508
 50
162.39403400002107
 51
269.99999999999977
  0
ARC
  8
_0-0_計極細
  6
CONTINUOUS
 62
    2
 10
1279.7215974374456
 20
1164.7084774118593
 40
1.0034861863992508
 50
89.999999999999915
 51
212.4821639999854
  0
ARC
  8
_0-0_計極細
  6
CONTINUOUS
 62
    2
 10
1314.0047573825284
 20
1186.5342583144811
 40
37.630656728658437
 50
168.07291799999993
 51
177.32522600000016
  0
ARC
  8
_0-0_計極細
  6
CONTINUOUS
 62
    2
 10
1314.0047573825284
 20
1186.5342583144811
 40
37.630656728658437
 50
182.6747739999995
 51
191.9270819999997
  0
ARC
  8
_0-0_計極細
  6
CONTINUOUS
 62
    2
 10
1314.0047573825284
 20
1186.5342583144811
 40
37.630656728658437
 50
197.4576029999993
 51
207.38710799999834
  0
ARC
  8
_0-0_計極細
  6
CONTINUOUS
 62
    2
 10
1273.4574477957647
 20
1183.7746788280156
 40
1.0034861863992508
 50
89.999999999999915
 51
183.89344999999844
  0
ARC
  8
_0-0_計極細
  6
CONTINUOUS
 62
    2
 10
1275.2673137990721
 20
1174.2415751094859
 40
1.0034861863992508
 50
89.999999999999915
 51
197.60596600002808
  0
ARC
  8
_0-0_計極細
  6
CONTINUOUS
 62
    2
 10
1276.4519569774163
 20
1169.7258963020449
 40
0.501740082747087
 50
204.11293799998069
 51
269.99999999999977
  0
ARC
  8
_0-0_計極細
  6
CONTINUOUS
 62
    2
 10
1314.0047573825284
 20
1186.5342583144811
 40
27.094072844634088
 50
163.31934899999951
 51
176.28377999999955
  0
ARC
  8
_0-0_計極細
  6
CONTINUOUS
 62
    2
 10
1314.0047573825284
 20
1186.5342583144811
 40
27.094072844634088
 50
183.71621999999815
 51
196.68065100000013
  0
ARC
  8
_0-0_計極細
  6
CONTINUOUS
 62
    2
 10
1314.0047573825284
 20
1186.5342583144811
 40
27.094072844634088
 50
204.62431799999874
 51
219.70901699999865
  0
ARC
  8
_0-0_計極細
  6
CONTINUOUS
 62
    2
 10
1276.4519569774163
 20
1203.3426203269191
 40
0.501740082747087
 50
89.999999999999915
 51
155.88706200001897
  0
ARC
  8
_0-0_計極細
  6
CONTINUOUS
 62
    2
 10
1279.7215974374456
 20
1208.3600392171047
 40
1.0034861863992508
 50
147.51783600005803
 51
269.99999999999977
  0
ARC
  8
_0-0_計極細
  6
CONTINUOUS
 62
    2
 10
1314.0047573825284
 20
1186.5342583144811
 40
37.630656728658437
 50
123.68035400000058
 51
126.22847700000025
  0
ARC
  8
_0-0_計極細
  6
CONTINUOUS
 62
    2
 10
1314.0047573825284
 20
1186.5342583144811
 40
37.630656728658437
 50
134.49322399999971
 51
146.40400499999933
  0
ARC
  8
_0-0_計極細
  6
CONTINUOUS
 62
    2
 10
1282.3999850189527
 20
1212.8757180245429
 40
0.501740082747087
 50
89.999999999999915
 51
140.18999100001389
  0
ARC
  8
_0-0_計極細
  6
CONTINUOUS
 62
    2
 10
1288.1528695060549
 20
1217.8931369147294
 40
1.0034861863992508
 50
129.50177000002535
 51
269.99999999999977
  0
LINE
  8
_0-0_計極細
  6
CONTINUOUS
 62
    2
 10
1288.1528695060549
 20
1216.8896567492357
 11
1292.1338497963568
 21
1216.8896567492357
  0
ARC
  8
_0-0_計極細
  6
CONTINUOUS
 62
    2
 10
1314.0047573825284
 20
1186.5342583144811
 40
37.630656728658437
 50
77.457603000000148
 51
87.38710800000031
  0
ARC
  8
_0-0_計極細
  6
CONTINUOUS
 62
    2
 10
1314.0047573825284
 20
1186.5342583144811
 40
37.630656728658437
 50
77.457603000000148
 51
87.38710800000031
  0
ARC
  8
_0-0_計極細
  6
CONTINUOUS
 62
    2
 10
1319.0741788298617
 20
1183.2729327243633
 40
1.0034861863992508
 50
89.999999999999915
 51
209.99999999997672
  0
ARC
  8
_0-0_計極細
  6
CONTINUOUS
 62
    2
 10
1319.0741788298617
 20
1189.7955839046017
 40
1.0034861863992508
 50
150.00000000002294
 51
269.99999999999977
  0
ARC
  8
_0-0_計極細
  6
CONTINUOUS
 62
    2
 10
1318.2246953535102
 20
1227.4601202661233
 40
0.501740082747087
 50
84.112938000035086
 51
149.99999999999537
  0
LINE
  8
_0-0_計極細
  6
CONTINUOUS
 62
    2
 10
1323.5967515736118
 20
1225.7264668792777
 11
1309.659548460522
 21
1201.5865210059455
  0
LINE
  8
_0-0_計極細
  6
CONTINUOUS
 62
    2
 10
1327.5169327644523
 20
1225.492024877406
 11
1310.9631105350343
 21
1196.8199691466798
  0
LINE
  8
_0-0_計極細
  6
CONTINUOUS
 62
    2
 10
1332.7575887521632
 20
1222.5273071340753
 11
1315.1634865854228
 21
1192.0534233083199
  0
LINE
  8
_0-0_計極細
  6
CONTINUOUS
 62
    2
 10
1311.997791030635
 20
1194.5261066678868
 11
1311.997791030635
 21
1198.6120915427255
  0
LINE
  8
_0-0_計極細
  6
CONTINUOUS
 62
    2
 10
1312.4995311133823
 20
1193.6570672918479
 11
1312.4995311133823
 21
1199.4811369396684
  0
ARC
  8
_0-0_計極細
  6
CONTINUOUS
 62
    2
 10
1303.1417260461565
 20
1198.82694151948
 40
1.0034861863992508
 50
269.99999999999977
 51
29.999999999976708
  0
LINE
  8
_0-0_計極細
  6
CONTINUOUS
 62
    2
 10
1315.5099836516754
 20
1192.65358110545
 11
1315.5099836516754
 21
1204.6953912586196
  0
LINE
  8
_0-0_計極細
  6
CONTINUOUS
 62
    2
 10
1316.0117297553268
 20
1193.5226265023921
 11
1316.0117297553268
 21
1205.5644366555644
  0
ARC
  8
_0-0_計極細
  6
CONTINUOUS
 62
    2
 10
1303.1417260461565
 20
1174.2415751094859
 40
1.0034861863992508
 50
329.9999999999776
 51
89.999999999999545
  0
ARC
  8
_0-0_計極細
  6
CONTINUOUS
 62
    2
 10
1301.1139574672231
 20
1169.7258963020449
 40
0.501740082747087
 50
269.99999999999977
 51
330.00000000008498
  0
ARC
  8
_0-0_計極細
  6
CONTINUOUS
 62
    2
 10
1314.0047573825284
 20
1186.5342583144811
 40
27.094072844634088
 50
230.22103899999939
 51
235.21980799999864
  0
ARC
  8
_0-0_計極細
  6
CONTINUOUS
 62
    2
 10
1297.6377879212557
 20
1164.7084774118593
 40
1.0034861863992508
 50
329.9999999999776
 51
89.999999999999545
  0
ARC
  8
_0-0_計極細
  6
CONTINUOUS
 62
    2
 10
1305.8936951086059
 20
1166.9663168155803
 40
0.501740082747087
 50
150.0000000000334
 51
210.00000000014614
  0
LINE
  8
_0-0_計極細
  6
CONTINUOUS
 62
    2
 10
1311.997791030635
 20
1174.4564250862386
 11
1311.997791030635
 21
1178.5424099610773
  0
LINE
  8
_0-0_計極細
  6
CONTINUOUS
 62
    2
 10
1312.4995311133823
 20
1173.5873796892938
 11
1312.4995311133823
 21
1179.4114493371162
  0
ARC
  8
_0-0_計極細
  6
CONTINUOUS
 62
    2
 10
1306.6178955921221
 20
1179.2590000205764
 40
0.501740082747087
 50
269.99999999999977
 51
330.00000000008498
  0
ARC
  8
_0-0_計極細
  6
CONTINUOUS
 62
    2
 10
1311.3976332335076
 20
1176.4994145132041
 40
0.501740082747087
 50
150.00000000009922
 51
209.99999999981048
  0
ARC
  8
_0-0_計極細
  6
CONTINUOUS
 62
    2
 10
1308.7905030635773
 20
1170.9802555402712
 40
1.0034861863992508
 50
30.000000000022045
 51
149.99999999997794
  0
ARC
  8
_0-0_計極細
  6
CONTINUOUS
 62
    2
 10
1311.3976332335076
 20
1196.5691021157591
 40
0.501740082747087
 50
150.00000000009922
 51
209.99999999990044
  0
ARC
  8
_0-0_計極細
  6
CONTINUOUS
 62
    2
 10
1314.2944411884771
 20
1192.5551633910673
 40
1.0034861863992508
 50
210.00000000002865
 51
330.00000000004854
  0
ARC
  8
_0-0_計極細
  6
CONTINUOUS
 62
    2
 10
1306.6178955921221
 20
1193.8095166083858
 40
0.501740082747087
 50
30.000000000004636
 51
89.999999999999915
  0
ARC
  8
_0-0_計極細
  6
CONTINUOUS
 62
    2
 10
1308.6456641710563
 20
1189.2938378009485
 40
1.0034861863992508
 50
269.99999999999977
 51
30.000000000002665
  0
LINE
  8
_0-0_計極細
  6
CONTINUOUS
 62
    2
 10
1315.5099836516754
 20
1168.3731253703436
 11
1315.5099836516754
 21
1180.4149355235149
  0
LINE
  8
_0-0_計極細
  6
CONTINUOUS
 62
    2
 10
1316.0117297553268
 20
1167.5040799734006
 11
1316.0117297553268
 21
1179.5458901265702
  0
ARC
  8
_0-0_計極細
  6
CONTINUOUS
 62
    2
 10
1314.2944411884771
 20
1192.5551633910673
 40
1.0034861863992508
 50
253.22134500003193
 51
330.00000000004854
  0
LINE
  8
_0-0_計極細
  6
CONTINUOUS
 62
    2
 10
1313.1136995566237
 20
1226.6354910859309
 11
1304.1556103356231
 21
1211.1196187035694
  0
ARC
  8
_0-0_計極細
  6
CONTINUOUS
 62
    2
 10
1314.0047573825284
 20
1186.5342583144811
 40
37.630656728658437
 50
93.595995000000457
 51
105.50677600000017
  0
LINE
  8
_0-0_計極細
  6
CONTINUOUS
 62
    2
 10
1306.560251446919
 20
1227.3263959643755
 11
1299.9552342852346
 21
1215.8861705628351
  0
LINE
  8
_0-0_計極細
  6
CONTINUOUS
 62
    2
 10
1317.7901726550388
 20
1227.7109933179509
 11
1305.4591724101335
 21
1206.3530728652095
  0
ARC
  8
_0-0_計極細
  6
CONTINUOUS
 62
    2
 10
1305.8936951086059
 20
1206.1021998133838
 40
0.501740082747087
 50
149.99999999994344
 51
209.99999999996626
  0
ARC
  8
_0-0_計極細
  6
CONTINUOUS
 62
    2
 10
1314.0047573825284
 20
1186.5342583144811
 40
27.094072844634088
 50
110.22103899999844
 51
115.21980799999808
  0
ARC
  8
_0-0_計極細
  6
CONTINUOUS
 62
    2
 10
1303.2865649386783
 20
1211.6213648072226
 40
1.0034861863992508
 50
209.99999999995771
 51
330.00000000006759
  0
ARC
  8
_0-0_計極細
  6
CONTINUOUS
 62
    2
 10
1300.3897569837061
 20
1215.6352975110085
 40
0.501740082747087
 50
149.99999999999537
 51
210.00000000000426
  0
ARC
  8
_0-0_計極細
  6
CONTINUOUS
 62
    2
 10
1314.0047573825284
 20
1186.5342583144811
 40
37.630656728658437
 50
113.7715230000007
 51
116.31964600000016
  0
ARC
  8
_0-0_計極細
  6
CONTINUOUS
 62
    2
 10
1299.7731199693824
 20
1224.6020929607512
 40
1.0034861863992508
 50
330.00000000002257
 51
110.49822999994124
  0
ARC
  8
_0-0_計極細
  6
CONTINUOUS
 62
    2
 10
1297.7826268137794
 20
1221.1544625048464
 40
1.0034861863992508
 50
210.00000000002169
 51
329.9999999999776
  0
LINE
  8
_0-0_計極細
  6
CONTINUOUS
 62
    2
 10
1300.6421593454231
 20
1224.1003528780038
 11
1298.6516722107242
 21
1220.6527224221018
  0
ARC
  8
_0-0_計極細
  6
CONTINUOUS
 62
    2
 10
1314.0047573825284
 20
1186.5342583144811
 40
27.094072844634088
 50
124.78019199999984
 51
129.77896100000024
  0
ARC
  8
_0-0_計極細
  6
CONTINUOUS
 62
    2
 10
1295.6100193423242
 20
1212.8757180245429
 40
0.501740082747087
 50
30.0000000001085
 51
89.999999999999915
  0
ARC
  8
_0-0_計極細
  6
CONTINUOUS
 62
    2
 10
1297.6377879212557
 20
1208.3600392171047
 40
1.0034861863992508
 50
269.99999999999977
 51
29.999999999976708
  0
ARC
  8
_0-0_計極細
  6
CONTINUOUS
 62
    2
 10
1301.1139574672231
 20
1203.3426203269191
 40
0.501740082747087
 50
29.999999999914696
 51
89.999999999999929
  0
LINE
  8
_0-0_計極細
  6
CONTINUOUS
 62
    2
 10
1312.4995311133823
 20
1206.5055221817493
 11
1312.4995311133823
 21
1213.5864858688346
  0
LINE
  8
_0-0_計極細
  6
CONTINUOUS
 62
    2
 10
1311.997791030635
 20
1205.6364828057103
 11
1311.997791030635
 21
1213.5538947096538
  0
ARC
  8
_0-0_計極細
  6
CONTINUOUS
 62
    2
 10
1312.2446601805857
 20
1227.137237189585
 40
1.0034861863992508
 50
329.99999999995163
 51
92.482164000033848
  0
ARC
  8
_0-0_計極細
  6
CONTINUOUS
 62
    2
 10
1314.0047573825284
 20
1186.5342583144811
 40
27.094072844634088
 50
84.624317999999917
 51
99.709017000000401
  0
ARC
  8
_0-0_計極細
  6
CONTINUOUS
 62
    2
 10
1306.9947741453905
 20
1227.0755229125498
 40
0.501740082747087
 50
99.810008999948636
 51
149.99999999998147
  0
ARC
  8
_0-0_計極細
  6
CONTINUOUS
 62
    2
 10
1308.7905030635773
 20
1202.0882610886911
 40
1.0034861863992508
 50
209.99999999997672
 51
330.00000000002257
  0
ARC
  8
_0-0_計極細
  6
CONTINUOUS
 62
    2
 10
1314.0047573825284
 20
1186.5342583144811
 40
27.094072844634088
 50
84.624317999999917
 51
89.999999999999915
  0
ARC
  8
_0-0_計極細
  6
CONTINUOUS
 62
    2
 10
1314.0047573825284
 20
1186.5342583144811
 40
27.094072844634088
 50
20.290983000001571
 51
35.37568200000068
  0
LINE
  8
_0-0_計極細
  6
CONTINUOUS
 62
    2
 10
1340.987094270751
 20
1217.715026500754
 11
1324.4332720413329
 21
1189.0429707700278
  0
LINE
  8
_0-0_計極細
  6
CONTINUOUS
 62
    2
 10
1335.7992416205623
 20
1220.7712138340084
 11
1318.2051334329169
 21
1190.2973239873472
  0
ARC
  8
_0-0_計極細
  6
CONTINUOUS
 62
    2
 10
1314.0047573825284
 20
1186.5342583144811
 40
27.094072844634088
 50
303.71622000000156
 51
316.68065099999853
  0
ARC
  8
_0-0_計極細
  6
CONTINUOUS
 62
    2
 10
1330.0820490587537
 20
1183.2729327243633
 40
1.0034861863992508
 50
89.999999999999915
 51
210.00000000000267
  0
ARC
  8
_0-0_計極細
  6
CONTINUOUS
 62
    2
 10
1323.9987493428614
 20
1183.7746788280156
 40
0.501740082747087
 50
30.0000000001085
 51
89.999999999999915
  0
ARC
  8
_0-0_計極細
  6
CONTINUOUS
 62
    2
 10
1330.0820490587537
 20
1189.7955839046017
 40
1.0034861863992508
 50
149.99999999999699
 51
269.99999999999977
  0
ARC
  8
_0-0_計極細
  6
CONTINUOUS
 62
    2
 10
1323.9987493428614
 20
1189.2938378009485
 40
0.501740082747087
 50
269.99999999999977
 51
329.99999999989114
  0
ARC
  8
_0-0_計極細
  6
CONTINUOUS
 62
    2
 10
1314.0047573825284
 20
1186.5342583144811
 40
27.094072844634088
 50
324.62431800000053
 51
339.7090169999999
  0
ARC
  8
_0-0_計極細
  6
CONTINUOUS
 62
    2
 10
1314.0047573825284
 20
1186.5342583144811
 40
27.094072844634088
 50
350.2210390000003
 51
355.21980800000165
  0
ARC
  8
_0-0_計極細
  6
CONTINUOUS
 62
    2
 10
1314.0047573825284
 20
1186.5342583144811
 40
27.094072844634088
 50
4.7801919999998796
 51
9.778961000001221
  0
ARC
  8
_0-0_計極細
  6
CONTINUOUS
 62
    2
 10
1341.0899253085533
 20
1183.2729327243633
 40
1.0034861863992508
 50
89.999999999999915
 51
210.00000000000267
  0
ARC
  8
_0-0_計極細
  6
CONTINUOUS
 62
    2
 10
1335.0066255926602
 20
1183.7746788280156
 40
0.501740082747087
 50
30.000000000056566
 51
89.999999999999915
  0
ARC
  8
_0-0_計極細
  6
CONTINUOUS
 62
    2
 10
1341.0899253085533
 20
1189.7955839046017
 40
1.0034861863992508
 50
149.99999999999699
 51
269.99999999999977
  0
ARC
  8
_0-0_計極細
  6
CONTINUOUS
 62
    2
 10
1335.0066255926602
 20
1189.2938378009485
 40
0.501740082747087
 50
269.99999999999977
 51
329.9999999999431
  0
ARC
  8
_0-0_計極細
  6
CONTINUOUS
 62
    2
 10
1314.0047573825284
 20
1186.5342583144811
 40
27.094072844634088
 50
43.319349000001104
 51
56.28377999999919
  0
ARC
  8
_0-0_計極細
  6
CONTINUOUS
 62
    2
 10
1314.0047573825284
 20
1186.5342583144811
 40
37.630656728658437
 50
62.674774000000312
 51
71.927081999999317
  0
ARC
  8
_0-0_計極細
  6
CONTINUOUS
 62
    2
 10
1314.0047573825284
 20
1186.5342583144811
 40
27.094072844634088
 50
63.716220000000312
 51
76.680650999998889
  0
ARC
  8
_0-0_計極細
  6
CONTINUOUS
 62
    2
 10
1327.951449442018
 20
1225.2411578464835
 40
0.501740082747087
 50
70.185127999926337
 51
149.99999999989151
  0
ARC
  8
_0-0_計極細
  6
CONTINUOUS
 62
    2
 10
1322.7277061766679
 20
1226.2282129829309
 40
1.0034861863992508
 50
329.99999999999665
 51
77.605965999942228
  0
ARC
  8
_0-0_計極細
  6
CONTINUOUS
 62
    2
 10
1314.0047573825284
 20
1186.5342583144811
 40
37.630656728658437
 50
48.072918000001373
 51
57.325226000001372
  0
ARC
  8
_0-0_計極細
  6
CONTINUOUS
 62
    2
 10
1336.6682809966003
 20
1220.2694677303562
 40
1.0034861863992508
 50
56.106549999985482
 51
149.99999999999699
  0
ARC
  8
_0-0_計極細
  6
CONTINUOUS
 62
    2
 10
1340.5525715722786
 20
1217.9658935316747
 40
0.501740082747087
 50
330.00000000004695
 51
49.814871999932151
  0
ARC
  8
_0-0_計極細
  6
CONTINUOUS
 62
    2
 10
1331.8885493761243
 20
1223.0290532377267
 40
1.0034861863992508
 50
330.00000000002257
 51
63.893449999963309
  0
ARC
  8
_0-0_計極細
  6
CONTINUOUS
 62
    2
 10
1344.0192581927483
 20
1159.1329868510302
 40
1.0034861863992508
 50
210.00000000000267
 51
317.60596600004476
  0
ARC
  8
_0-0_計極細
  6
CONTINUOUS
 62
    2
 10
1347.3376318584685
 20
1162.4167523543692
 40
0.501740082747087
 50
324.11293799996702
 51
29.999999999914319
  0
ARC
  8
_0-0_計極細
  6
CONTINUOUS
 62
    2
 10
1314.0047573825284
 20
1186.5342583144811
 40
37.630656728658437
 50
14.493223999999607
 51
26.404005000000534
  0
LINE
  8
_0-0_計極細
  6
CONTINUOUS
 62
    2
 10
1353.0540417026166
 20
1200.4831961715663
 11
1346.4490245409313
 21
1189.0429707700278
  0
ARC
  8
_0-0_計極細
  6
CONTINUOUS
 62
    2
 10
1354.0882947139578
 20
1179.8253022684594
 40
1.0034861863992508
 50
209.99999999997672
 51
350.49822999998082
  0
ARC
  8
_0-0_計極細
  6
CONTINUOUS
 62
    2
 10
1354.0882947139578
 20
1193.2432143605047
 40
1.0034861863992508
 50
9.5017700000188405
 51
150.00000000002294
  0
ARC
  8
_0-0_計極細
  6
CONTINUOUS
 62
    2
 10
1314.0047573825284
 20
1186.5342583144811
 40
37.630656728658437
 50
3.6803540000001762
 51
6.2284769999996845
  0
ARC
  8
_0-0_計極細
  6
CONTINUOUS
 62
    2
 10
1314.0047573825284
 20
1186.5342583144811
 40
37.630656728658437
 50
353.77152299999995
 51
356.31964599999947
  0
ARC
  8
_0-0_計極細
  6
CONTINUOUS
 62
    2
 10
1314.0047573825284
 20
1186.5342583144811
 40
37.630656728658437
 50
333.59599499999911
 51
345.506776
  0
ARC
  8
_0-0_計極細
  6
CONTINUOUS
 62
    2
 10
1350.0480205504607
 20
1167.7570603420027
 40
1.0034861863992508
 50
209.99999999997672
 51
332.48216400001218
  0
ARC
  8
_0-0_計極細
  6
CONTINUOUS
 62
    2
 10
1352.0978015583521
 20
1183.2729327243633
 40
1.0034861863992508
 50
89.999999999999915
 51
210.00000000000267
  0
ARC
  8
_0-0_計極細
  6
CONTINUOUS
 62
    2
 10
1346.0145018424589
 20
1183.7746788280156
 40
0.501740082747087
 50
30.000000000004636
 51
89.999999999999915
  0
LINE
  8
_0-0_計極細
  6
CONTINUOUS
 62
    2
 10
1353.219249317013
 20
1179.3235621857129
 11
1351.2287621823141
 21
1182.7711926416177
  0
LINE
  8
_0-0_計極細
  6
CONTINUOUS
 62
    2
 10
1353.0540417026166
 20
1172.5853204573987
 11
1346.4490245409313
 21
1184.0255458589354
  0
ARC
  8
_0-0_計極細
  6
CONTINUOUS
 62
    2
 10
1352.0978015583521
 20
1189.7955839046017
 40
1.0034861863992508
 50
149.99999999999699
 51
269.99999999999977
  0
ARC
  8
_0-0_計極細
  6
CONTINUOUS
 62
    2
 10
1346.0145018424589
 20
1189.2938378009485
 40
0.501740082747087
 50
269.99999999999977
 51
329.999999999995
  0
LINE
  8
_0-0_計極細
  6
CONTINUOUS
 62
    2
 10
1353.219249317013
 20
1193.7449544432511
 11
1351.2287621823141
 21
1190.2973239873472
  0
ARC
  8
_0-0_計極細
  6
CONTINUOUS
 62
    2
 10
1344.0192581927483
 20
1213.9355297779339
 40
1.0034861863992508
 50
42.394033999954871
 51
149.99999999999699
  0
ARC
  8
_0-0_計極細
  6
CONTINUOUS
 62
    2
 10
1347.3376318584685
 20
1210.6517642745948
 40
0.501740082747087
 50
329.999999999995
 51
35.887061999948138
  0
ARC
  8
_0-0_計極細
  6
CONTINUOUS
 62
    2
 10
1350.0480205504607
 20
1205.3114562869614
 40
1.0034861863992508
 50
27.51783599998744
 51
149.99999999997794
  0
LINE
  8
_0-0_計極細
  6
CONTINUOUS
 62
    2
 10
1315.5099836516754
 20
1159.4820296227635
 11
1315.5099836516754
 21
1161.3487412728573
  0
LINE
  8
_0-0_計極細
  6
CONTINUOUS
 62
    2
 10
1316.0117297553268
 20
1159.514620174692
 11
1316.0117297553268
 21
1160.4796912412985
  0
LINE
  8
_0-0_計極細
  6
CONTINUOUS
 62
    2
 10
1315.5099836516754
 20
1211.7197728287047
 11
1315.5099836516754
 21
1213.5864870061996
  0
LINE
  8
_0-0_計極細
  6
CONTINUOUS
 62
    2
 10
1316.0117297553268
 20
1212.5888226435072
 11
1316.0117297553268
 21
1213.5538964542702
  0
LINE
  8
_0-0_計極細
  6
CENTER2
 62
    2
 10
788.83230101112053
 20
1186.5342583144811
 11
1403.8610216377526
 21
1186.5342583144811
  0
LINE
  8
_0-1_計細線
  6
CONTINUOUS
 62
    3
 10
798.00376026894605
 20
1258.5342583144811
 11
798.00376026894605
 21
1114.5342583144811
  0
LINE
  8
_0-1_計細線
  6
CONTINUOUS
 62
    3
 10
798.00376026894605
 20
1114.5342583144811
 11
1394.0037602689461
 21
1114.5342583144811
  0
LINE
  8
_0-1_計細線
  6
CONTINUOUS
 62
    3
 10
1394.0037602689461
 20
1114.5342583144811
 11
1394.0037602689461
 21
1258.5342583144811
  0
LINE
  8
_0-1_計細線
  6
CONTINUOUS
 62
    3
 10
1394.0037602689461
 20
1258.5342583144811
 11
798.00376026894605
 21
1258.5342583144811
  0
LINE
  8
_0-1_計細線
  6
CONTINUOUS
 62
    3
 10
809.00376026894605
 20
1247.5342583144811
 11
809.00376026894605
 21
1125.5342583144811
  0
LINE
  8
_0-1_計細線
  6
CONTINUOUS
 62
    3
 10
809.00376026894605
 20
1125.5342583144811
 11
1383.0037602689461
 21
1125.5342583144811
  0
LINE
  8
_0-1_計細線
  6
CONTINUOUS
 62
    3
 10
1383.0037602689461
 20
1125.5342583144811
 11
1383.0037602689461
 21
1247.5342583144811
  0
LINE
  8
_0-1_計細線
  6
CONTINUOUS
 62
    3
 10
1383.0037602689461
 20
1247.5342583144811
 11
809.00376026894605
 21
1247.5342583144811
  0
LINE
  8
_0-5_寸法線
  6
CONTINUOUS
 62
    7
 10
798.00376026894605
 20
1098.5342583144811
 11
798.00376026894605
 21
1026.5342583144811
  0
LINE
  8
_0-5_寸法線
  6
CONTINUOUS
 62
    7
 10
798.00376026894605
 20
1034.5342583144811
 11
813.45857348957111
 21
1038.6753630361216
  0
LINE
  8
_0-5_寸法線
  6
CONTINUOUS
 62
    7
 10
798.00376026894605
 20
1034.5342583144811
 11
813.45857348957111
 21
1030.3931535928407
  0
LINE
  8
_0-5_寸法線
  6
CONTINUOUS
 62
    7
 10
1314.0037602689461
 20
1098.5342583144811
 11
1314.0037602689461
 21
1026.5342583144811
  0
LINE
  8
_0-5_寸法線
  6
CONTINUOUS
 62
    7
 10
1314.0037602689461
 20
1034.5342583144811
 11
1298.548947048321
 21
1030.3931535928409
  0
LINE
  8
_0-5_寸法線
  6
CONTINUOUS
 62
    7
 10
1314.0037602689461
 20
1034.5342583144811
 11
1298.548947048321
 21
1038.6753630361216
  0
LINE
  8
_0-5_寸法線
  6
CONTINUOUS
 62
    7
 10
798.00376026894605
 20
1034.5342583144811
 11
1314.0037602689461
 21
1034.5342583144811
  0
TEXT
  8
_0-5_寸法線
 62
    7
 10
1038.0037602689461
 20
1034.5342583144811
 40
24
 41
1
 50
0
  1
516
  0
LINE
  8
_0-5_寸法線
  6
CONTINUOUS
 62
    7
 10
1314.0037602689461
 20
1034.5342583144811
 11
1329.4585734895711
 21
1038.6753630361213
  0
LINE
  8
_0-5_寸法線
  6
CONTINUOUS
 62
    7
 10
1314.0037602689461
 20
1034.5342583144811
 11
1329.4585734895711
 21
1030.3931535928407
  0
LINE
  8
_0-5_寸法線
  6
CONTINUOUS
 62
    7
 10
1394.0037602689461
 20
1098.5342583144811
 11
1394.0037602689461
 21
1026.5342583144811
  0
LINE
  8
_0-5_寸法線
  6
CONTINUOUS
 62
    7
 10
1394.0037602689461
 20
1034.5342583144811
 11
1378.548947048321
 21
1030.3931535928409
  0
LINE
  8
_0-5_寸法線
  6
CONTINUOUS
 62
    7
 10
1394.0037602689461
 20
1034.5342583144811
 11
1378.548947048321
 21
1038.6753630361216
  0
LINE
  8
_0-5_寸法線
  6
CONTINUOUS
 62
    7
 10
1314.0037602689461
 20
1034.5342583144811
 11
1394.0037602689461
 21
1034.5342583144811
  0
TEXT
  8
_0-5_寸法線
 62
    7
 10
1342.0037602689451
 20
1034.5342583144811
 40
24
 41
1
 50
0
  1
80
  0
LINE
  8
_0-5_寸法線
  6
CONTINUOUS
 62
    7
 10
782.00376026894605
 20
1114.5342583144811
 11
710.00376026894605
 21
1114.5342583144811
  0
LINE
  8
_0-5_寸法線
  6
CONTINUOUS
 62
    7
 10
718.00376026894605
 20
1114.5342583144811
 11
722.14486499058626
 21
1099.0794450938561
  0
LINE
  8
_0-5_寸法線
  6
CONTINUOUS
 62
    7
 10
718.00376026894605
 20
1114.5342583144811
 11
713.86265554730562
 21
1099.0794450938561
  0
LINE
  8
_0-5_寸法線
  6
CONTINUOUS
 62
    7
 10
782.00376026894605
 20
1125.5342583144811
 11
710.00376026894605
 21
1125.5342583144811
  0
LINE
  8
_0-5_寸法線
  6
CONTINUOUS
 62
    7
 10
718.00376026894605
 20
1065.9534918260433
 11
718.00376026894605
 21
1125.5342583144811
  0
TEXT
  8
_0-5_寸法線
 62
    7
 10
718.00376026894605
 20
1065.9534918260433
 40
24
 41
1
 50
90
  1
11
  0
LINE
  8
_0-5_寸法線
  6
CONTINUOUS
 62
    7
 10
718.00376026894605
 20
1125.5342583144811
 11
713.86265554730574
 21
1140.9890715351062
  0
LINE
  8
_0-5_寸法線
  6
CONTINUOUS
 62
    7
 10
718.00376026894605
 20
1125.5342583144811
 11
722.14486499058637
 21
1140.9890715351062
  0
LINE
  8
_0-5_寸法線
  6
CONTINUOUS
 62
    7
 10
782.00376026894605
 20
1247.5342583144813
 11
710.00376026894605
 21
1247.534258314482
  0
LINE
  8
_0-5_寸法線
  6
CONTINUOUS
 62
    7
 10
718.00376026894605
 20
1247.534258314482
 11
722.14486499058626
 21
1232.079445093857
  0
LINE
  8
_0-5_寸法線
  6
CONTINUOUS
 62
    7
 10
718.00376026894605
 20
1247.534258314482
 11
713.86265554730562
 21
1232.079445093857
  0
LINE
  8
_0-5_寸法線
  6
CONTINUOUS
 62
    7
 10
718.00376026894605
 20
1125.5342583144811
 11
718.00376026894605
 21
1247.534258314482
  0
TEXT
  8
_0-5_寸法線
 62
    7
 10
718.00376026894605
 20
1168.5342583144811
 40
24
 41
1
 50
90
  1
122
  0
LINE
  8
_0-5_寸法線
  6
CONTINUOUS
 62
    7
 10
782.00376026894605
 20
1258.5342583144813
 11
710.00376026894605
 21
1258.534258314482
  0
LINE
  8
_0-5_寸法線
  6
CONTINUOUS
 62
    7
 10
718.00376026894605
 20
1258.534258314482
 11
713.86265554730574
 21
1273.9890715351071
  0
LINE
  8
_0-5_寸法線
  6
CONTINUOUS
 62
    7
 10
718.00376026894605
 20
1258.534258314482
 11
722.14486499058637
 21
1273.9890715351071
  0
LINE
  8
_0-5_寸法線
  6
CONTINUOUS
 62
    7
 10
718.00376026894605
 20
1247.534258314482
 11
718.00376026894605
 21
1301.6519148867874
  0
TEXT
  8
_0-5_寸法線
 62
    7
 10
718.00376026894605
 20
1277.6519148867874
 40
24
 41
1
 50
90
  1
11
  0
LINE
  8
_0-5_寸法線
  6
CONTINUOUS
 62
    7
 10
782.00376026894605
 20
1258.5342583144811
 11
654.00376026894605
 21
1258.5342583144811
  0
LINE
  8
_0-5_寸法線
  6
CONTINUOUS
 62
    7
 10
662.00376026894605
 20
1258.5342583144811
 11
666.14486499058626
 21
1243.0794450938561
  0
LINE
  8
_0-5_寸法線
  6
CONTINUOUS
 62
    7
 10
662.00376026894605
 20
1258.5342583144811
 11
657.86265554730562
 21
1243.0794450938561
  0
LINE
  8
_0-5_寸法線
  6
CONTINUOUS
 62
    7
 10
782.00376026894605
 20
1114.5342583144811
 11
654.00376026894605
 21
1114.5342583144811
  0
LINE
  8
_0-5_寸法線
  6
CONTINUOUS
 62
    7
 10
662.00376026894605
 20
1114.5342583144811
 11
657.86265554730574
 21
1129.9890715351062
  0
LINE
  8
_0-5_寸法線
  6
CONTINUOUS
 62
    7
 10
662.00376026894605
 20
1114.5342583144811
 11
666.14486499058637
 21
1129.9890715351062
  0
LINE
  8
_0-5_寸法線
  6
CONTINUOUS
 62
    7
 10
662.00376026894605
 20
1258.5342583144811
 11
662.00376026894605
 21
1114.5342583144811
  0
TEXT
  8
_0-5_寸法線
 62
    7
 10
662.00376026894605
 20
1168.5342583144811
 40
24
 41
1
 50
90
  1
144
  0
LINE
  8
_0-5_寸法線
  6
CONTINUOUS
 62
    7
 10
1381.5037602689461
 20
1274.5342583144811
 11
1381.5037602689461
 21
1346.5342583144811
  0
LINE
  8
_0-5_寸法線
  6
CONTINUOUS
 62
    7
 10
1381.5037602689461
 20
1338.5342583144811
 11
1366.048947048321
 21
1334.3931535928409
  0
LINE
  8
_0-5_寸法線
  6
CONTINUOUS
 62
    7
 10
1381.5037602689461
 20
1338.5342583144811
 11
1366.048947048321
 21
1342.6753630361216
  0
LINE
  8
_0-5_寸法線
  6
CONTINUOUS
 62
    7
 10
810.50376026894617
 20
1274.5342583144811
 11
810.50376026894651
 21
1346.5342583144811
  0
LINE
  8
_0-5_寸法線
  6
CONTINUOUS
 62
    7
 10
810.50376026894651
 20
1338.5342583144811
 11
825.95857348957156
 21
1342.6753630361216
  0
LINE
  8
_0-5_寸法線
  6
CONTINUOUS
 62
    7
 10
810.50376026894651
 20
1338.5342583144811
 11
825.95857348957156
 21
1334.3931535928407
  0
LINE
  8
_0-5_寸法線
  6
CONTINUOUS
 62
    7
 10
1381.5037602689461
 20
1338.5342583144811
 11
810.50376026894651
 21
1338.5342583144811
  0
TEXT
  8
_0-5_寸法線
 62
    7
 10
1078.0037602689461
 20
1338.5342583144811
 40
24
 41
1
 50
0
  1
571
  0
LINE
  8
_0-5_寸法線
  6
CONTINUOUS
 62
    7
 10
798.00376026894605
 20
1274.5342583144811
 11
798.00376026894651
 21
1402.5342583144811
  0
LINE
  8
_0-5_寸法線
  6
CONTINUOUS
 62
    7
 10
798.00376026894651
 20
1394.5342583144811
 11
782.54894704832145
 21
1390.3931535928409
  0
LINE
  8
_0-5_寸法線
  6
CONTINUOUS
 62
    7
 10
798.00376026894651
 20
1394.5342583144811
 11
782.54894704832145
 21
1398.6753630361216
  0
LINE
  8
_0-5_寸法線
  6
CONTINUOUS
 62
    7
 10
809.00376026894605
 20
1274.5342583144811
 11
809.00376026894651
 21
1402.5342583144811
  0
LINE
  8
_0-5_寸法線
  6
CONTINUOUS
 62
    7
 10
751.45197405717408
 20
1394.5342583144811
 11
809.00376026894651
 21
1394.5342583144811
  0
TEXT
  8
_0-5_寸法線
 62
    7
 10
751.45197405717431
 20
1394.5342583144811
 40
24
 41
1
 50
0
  1
11
  0
LINE
  8
_0-5_寸法線
  6
CONTINUOUS
 62
    7
 10
809.00376026894651
 20
1394.5342583144811
 11
824.45857348957168
 21
1398.6753630361213
  0
LINE
  8
_0-5_寸法線
  6
CONTINUOUS
 62
    7
 10
809.00376026894651
 20
1394.5342583144811
 11
824.45857348957156
 21
1390.3931535928407
  0
LINE
  8
_0-5_寸法線
  6
CONTINUOUS
 62
    7
 10
1383.0037602689461
 20
1274.5342583144811
 11
1383.0037602689461
 21
1402.5342583144811
  0
LINE
  8
_0-5_寸法線
  6
CONTINUOUS
 62
    7
 10
1383.0037602689461
 20
1394.5342583144811
 11
1367.548947048321
 21
1390.3931535928409
  0
LINE
  8
_0-5_寸法線
  6
CONTINUOUS
 62
    7
 10
1383.0037602689461
 20
1394.5342583144811
 11
1367.548947048321
 21
1398.6753630361216
  0
LINE
  8
_0-5_寸法線
  6
CONTINUOUS
 62
    7
 10
809.00376026894651
 20
1394.5342583144811
 11
1383.0037602689461
 21
1394.5342583144811
  0
TEXT
  8
_0-5_寸法線
 62
    7
 10
1078.0037602689461
 20
1394.5342583144811
 40
24
 41
1
 50
0
  1
574
  0
LINE
  8
_0-5_寸法線
  6
CONTINUOUS
 62
    7
 10
1394.0037602689461
 20
1274.5342583144811
 11
1394.0037602689461
 21
1402.5342583144811
  0
LINE
  8
_0-5_寸法線
  6
CONTINUOUS
 62
    7
 10
1394.0037602689461
 20
1394.5342583144811
 11
1409.4585734895711
 21
1398.6753630361213
  0
LINE
  8
_0-5_寸法線
  6
CONTINUOUS
 62
    7
 10
1394.0037602689461
 20
1394.5342583144811
 11
1409.4585734895711
 21
1390.3931535928407
  0
LINE
  8
_0-5_寸法線
  6
CONTINUOUS
 62
    7
 10
1383.0037602689461
 20
1394.5342583144811
 11
1437.2807477584156
 21
1394.5342583144811
  0
TEXT
  8
_0-5_寸法線
 62
    7
 10
1413.2807477584154
 20
1394.5342583144811
 40
24
 41
1
 50
0
  1
11
  0
LINE
  8
_0-5_寸法線
  6
CONTINUOUS
 62
    7
 10
798.00376026894605
 20
1274.5342583144811
 11
798.00376026894605
 21
1458.5342583144811
  0
LINE
  8
_0-5_寸法線
  6
CONTINUOUS
 62
    7
 10
798.00376026894605
 20
1450.5342583144811
 11
813.45857348957111
 21
1454.6753630361216
  0
LINE
  8
_0-5_寸法線
  6
CONTINUOUS
 62
    7
 10
798.00376026894605
 20
1450.5342583144811
 11
813.45857348957111
 21
1446.3931535928407
  0
LINE
  8
_0-5_寸法線
  6
CONTINUOUS
 62
    7
 10
1394.0037602689461
 20
1274.5342583144811
 11
1394.0037602689461
 21
1458.5342583144811
  0
LINE
  8
_0-5_寸法線
  6
CONTINUOUS
 62
    7
 10
1394.0037602689461
 20
1450.5342583144811
 11
1378.548947048321
 21
1446.3931535928409
  0
LINE
  8
_0-5_寸法線
  6
CONTINUOUS
 62
    7
 10
1394.0037602689461
 20
1450.5342583144811
 11
1378.548947048321
 21
1454.6753630361216
  0
LINE
  8
_0-5_寸法線
  6
CONTINUOUS
 62
    7
 10
798.00376026894605
 20
1450.5342583144811
 11
1394.0037602689461
 21
1450.5342583144811
  0
TEXT
  8
_0-5_寸法線
 62
    7
 10
1078.0037602689461
 20
1450.5342583144811
 40
24
 41
1
 50
0
  1
596
  0
LINE
  8
_0-1_計細線
  6
CONTINUOUS
 62
    3
 10
1538.0037602689461
 20
1124.5342583144811
 11
1573.0037602689461
 21
1124.5342583144811
  0
LINE
  8
_0-1_計細線
  6
CONTINUOUS
 62
    3
 10
1573.0037602689461
 20
1124.5342583144811
 11
1573.0037602689461
 21
1123.3342583144822
  0
LINE
  8
_0-1_計細線
  6
CONTINUOUS
 62
    3
 10
1573.0037602689461
 20
1123.3342583144822
 11
1538.0037602689461
 21
1123.3342583144822
  0
LINE
  8
_0-1_計細線
  6
CONTINUOUS
 62
    3
 10
1538.0037602689461
 20
1123.3342583144822
 11
1538.0037602689461
 21
1124.5342583144811
  0
LINE
  8
_0-1_計細線
  6
CONTINUOUS
 62
    3
 10
1540.0037602689461
 20
1123.3342583144822
 11
1540.0037602689461
 21
1124.5342583144811
  0
LINE
  8
_0-1_計細線
  6
CONTINUOUS
 62
    3
 10
1550.0037602689461
 20
1123.3342583144822
 11
1550.0037602689461
 21
1124.5342583144811
  0
LINE
  8
_0-1_計細線
  6
CONTINUOUS
 62
    3
 10
1552.0037602689461
 20
1123.3342583144822
 11
1552.0037602689461
 21
1124.5342583144811
  0
LINE
  8
_0-1_計細線
  6
CONTINUOUS
 62
    3
 10
1554.0037602689461
 20
1123.3342583144822
 11
1554.0037602689461
 21
1124.5342583144811
  0
LINE
  8
_0-1_計細線
  6
CONTINUOUS
 62
    3
 10
1556.0037602689461
 20
1123.3342583144822
 11
1556.0037602689461
 21
1124.5342583144811
  0
LINE
  8
_0-1_計細線
  6
CONTINUOUS
 62
    3
 10
1570.0037602689461
 20
1123.3342583144822
 11
1570.0037602689461
 21
1124.5342583144811
  0
ARC
  8
_0-1_計細線
  6
CONTINUOUS
 62
    3
 10
1549.0037602689461
 20
1247.5342583144811
 40
1
 50
0
 51
89.999999999999915
  0
LINE
  8
_0-1_計細線
  6
CONTINUOUS
 62
    3
 10
1538.0037602689461
 20
1249.7342583144809
 11
1573.0037602689461
 21
1249.7342583144809
  0
LINE
  8
_0-1_計細線
  6
CONTINUOUS
 62
    3
 10
1573.0037602689461
 20
1249.7342583144809
 11
1573.0037602689461
 21
1248.5342583144811
  0
LINE
  8
_0-1_計細線
  6
CONTINUOUS
 62
    3
 10
1573.0037602689461
 20
1248.5342583144811
 11
1538.0037602689461
 21
1248.5342583144811
  0
LINE
  8
_0-1_計細線
  6
CONTINUOUS
 62
    3
 10
1538.0037602689461
 20
1248.5342583144811
 11
1538.0037602689461
 21
1249.7342583144809
  0
LINE
  8
_0-1_計細線
  6
CONTINUOUS
 62
    3
 10
1540.0037602689461
 20
1248.5342583144811
 11
1540.0037602689461
 21
1249.7342583144809
  0
LINE
  8
_0-1_計細線
  6
CONTINUOUS
 62
    3
 10
1550.0037602689461
 20
1248.5342583144811
 11
1550.0037602689461
 21
1249.7342583144809
  0
LINE
  8
_0-1_計細線
  6
CONTINUOUS
 62
    3
 10
1552.0037602689461
 20
1248.5342583144811
 11
1552.0037602689461
 21
1249.7342583144809
  0
LINE
  8
_0-1_計細線
  6
CONTINUOUS
 62
    3
 10
1554.0037602689461
 20
1248.5342583144811
 11
1554.0037602689461
 21
1249.7342583144809
  0
LINE
  8
_0-1_計細線
  6
CONTINUOUS
 62
    3
 10
1556.0037602689461
 20
1248.5342583144811
 11
1556.0037602689461
 21
1249.7342583144809
  0
LINE
  8
_0-1_計細線
  6
CONTINUOUS
 62
    3
 10
1570.0037602689461
 20
1248.5342583144811
 11
1570.0037602689461
 21
1249.7342583144809
  0
LINE
  8
_0-1_計細線
  6
CONTINUOUS
 62
    3
 10
1538.0037602689461
 20
1258.5342583144811
 11
1531.0037602689461
 21
1258.5342583144811
  0
ARC
  8
_0-1_計細線
  6
CONTINUOUS
 62
    3
 10
1531.0037602689461
 20
1257.5342583144811
 40
1
 50
89.999999999999915
 51
179.99999999999983
  0
LINE
  8
_0-1_計細線
  6
CONTINUOUS
 62
    3
 10
1530.0037602689461
 20
1257.5342583144811
 11
1530.0037602689461
 21
1115.5342583144811
  0
ARC
  8
_0-1_計細線
  6
CONTINUOUS
 62
    3
 10
1531.0037602689461
 20
1115.5342583144811
 40
1
 50
179.99999999999983
 51
269.99999999994753
  0
LINE
  8
_0-1_計細線
  6
CONTINUOUS
 62
    3
 10
1538.0037602689461
 20
1114.5342583144811
 11
1538.0037602689461
 21
1258.5342583144811
  0
LINE
  8
_0-1_計細線
  6
CONTINUOUS
 62
    3
 10
1538.0037602689461
 20
1114.5342583144811
 11
1531.0037602689451
 21
1114.5342583144811
  0
LINE
  8
_0-0_計極細
  6
CENTER2
 62
    2
 10
1490.7614538832083
 20
1186.5342583144811
 11
1605.9844754659405
 21
1186.5342583144811
  0
LINE
  8
_0-1_計細線
  6
CONTINUOUS
 62
    3
 10
1550.0037602689461
 20
1247.5342583144811
 11
1550.0037602689461
 21
1125.5342583144811
  0
ARC
  8
_0-1_計細線
  6
CONTINUOUS
 62
    3
 10
1549.0037602689461
 20
1125.5342583144811
 40
1
 50
269.99999999999977
 51
359.99999999999966
  0
ARC
  8
_0-1_計細線
  6
CONTINUOUS
 62
    3
 10
1552.503760268947
 20
1243.5342583144811
 40
1.5
 50
0
 51
89.999999999999915
  0
LINE
  8
_0-1_計細線
  6
CONTINUOUS
 62
    3
 10
1550.503760268947
 20
1245.0342583144811
 11
1552.503760268947
 21
1245.0342583144811
  0
ARC
  8
_0-1_計細線
  6
CONTINUOUS
 62
    3
 10
1550.503760268947
 20
1245.5342583144811
 40
0.5
 50
179.99999999999983
 51
269.99999999999977
  0
LINE
  8
_0-1_計細線
  6
CONTINUOUS
 62
    3
 10
1550.503760268947
 20
1128.0342583144811
 11
1552.503760268947
 21
1128.0342583144811
  0
ARC
  8
_0-1_計細線
  6
CONTINUOUS
 62
    3
 10
1550.503760268947
 20
1127.5342583144811
 40
0.5
 50
89.999999999999915
 51
179.99999999999983
  0
LINE
  8
_0-1_計細線
  6
CONTINUOUS
 62
    3
 10
1554.003760268947
 20
1243.5342583144811
 11
1554.003760268947
 21
1129.5342583144811
  0
ARC
  8
_0-1_計細線
  6
CONTINUOUS
 62
    3
 10
1552.503760268947
 20
1129.5342583144811
 40
1.5
 50
269.99999999999977
 51
359.99999999999966
  0
LINE
  8
_0-5_寸法線
  6
CONTINUOUS
 62
    7
 10
1530.0037602689461
 20
1274.5342583144811
 11
1530.0037602689461
 21
1346.5342583144811
  0
LINE
  8
_0-5_寸法線
  6
CONTINUOUS
 62
    7
 10
1530.0037602689461
 20
1338.5342583144811
 11
1514.548947048321
 21
1334.3931535928409
  0
LINE
  8
_0-5_寸法線
  6
CONTINUOUS
 62
    7
 10
1530.0037602689461
 20
1338.5342583144811
 11
1514.548947048321
 21
1342.6753630361216
  0
LINE
  8
_0-5_寸法線
  6
CONTINUOUS
 62
    7
 10
1550.0037602689461
 20
1265.7342583144809
 11
1550.0037602689461
 21
1346.5342583144811
  0
CIRCLE
  8
_0-5_寸法線
  6
CONTINUOUS
 62
    1
 10
1550.0037602689461
 20
1338.5342583144811
 40
2.4000000000000004
  0
LINE
  8
_0-5_寸法線
  6
CONTINUOUS
 62
    7
 10
1487.0421667177486
 20
1338.5342583144811
 11
1550.0037602689461
 21
1338.5342583144811
  0
TEXT
  8
_0-5_寸法線
 62
    7
 10
1487.0421667177486
 20
1338.5342583144811
 40
24
 41
1
 50
0
  1
20
  0
LINE
  8
_0-5_寸法線
  6
CONTINUOUS
 62
    7
 10
1573.0037602689461
 20
1265.7342583144809
 11
1573.0037602689461
 21
1346.5342583144811
  0
LINE
  8
_0-5_寸法線
  6
CONTINUOUS
 62
    7
 10
1573.0037602689461
 20
1338.5342583144811
 11
1588.4585734895711
 21
1342.6753630361213
  0
LINE
  8
_0-5_寸法線
  6
CONTINUOUS
 62
    7
 10
1573.0037602689461
 20
1338.5342583144811
 11
1588.4585734895711
 21
1334.3931535928407
  0
LINE
  8
_0-5_寸法線
  6
CONTINUOUS
 62
    7
 10
1550.0037602689461
 20
1338.5342583144811
 11
1619.3449507110345
 21
1338.5342583144811
  0
TEXT
  8
_0-5_寸法線
 62
    7
 10
1595.3449507110342
 20
1338.5342583144811
 40
24
 41
1
 50
0
  1
23
  0
LINE
  8
_0-5_寸法線
  6
CONTINUOUS
 62
    7
 10
1530.0037602689463
 20
1274.534258314482
 11
1530.0037602689479
 21
1402.5342583144811
  0
LINE
  8
_0-5_寸法線
  6
CONTINUOUS
 62
    7
 10
1530.0037602689479
 20
1394.5342583144811
 11
1545.4585734895729
 21
1398.6753630361216
  0
LINE
  8
_0-5_寸法線
  6
CONTINUOUS
 62
    7
 10
1530.0037602689479
 20
1394.5342583144811
 11
1545.4585734895729
 21
1390.3931535928407
  0
LINE
  8
_0-5_寸法線
  6
CONTINUOUS
 62
    7
 10
1573.0037602689461
 20
1265.7342583144809
 11
1573.0037602689461
 21
1402.5342583144811
  0
LINE
  8
_0-5_寸法線
  6
CONTINUOUS
 62
    7
 10
1573.0037602689461
 20
1394.5342583144811
 11
1557.548947048321
 21
1390.3931535928409
  0
LINE
  8
_0-5_寸法線
  6
CONTINUOUS
 62
    7
 10
1573.0037602689461
 20
1394.5342583144811
 11
1557.548947048321
 21
1398.6753630361216
  0
LINE
  8
_0-5_寸法線
  6
CONTINUOUS
 62
    7
 10
1530.0037602689479
 20
1394.5342583144811
 11
1573.0037602689461
 21
1394.5342583144811
  0
TEXT
  8
_0-5_寸法線
 62
    7
 10
1539.5037602689461
 20
1394.5342583144811
 40
24
 41
1
 50
0
  1
43
  0
ARC
  8
_0-1_計細線
  6
CONTINUOUS
 62
    3
 10
1393.0037602689461
 20
873.53425831448112
 40
1
 50
0
 51
89.999999999999915
  0
LINE
  8
_0-1_計細線
  6
CONTINUOUS
 62
    3
 10
1394.0037602689461
 20
866.53425831448112
 11
1394.0037602689461
 21
873.53425831448112
  0
LINE
  8
_0-1_計細線
  6
CONTINUOUS
 62
    3
 10
1393.003760268947
 20
866.53425831448112
 11
1394.0037602689461
 21
866.53425831448112
  0
ARC
  8
_0-1_計細線
  6
CONTINUOUS
 62
    3
 10
1373.0037602689461
 20
854.03425831448021
 40
1.5
 50
89.999999999999915
 51
179.99999999999983
  0
LINE
  8
_0-1_計細線
  6
CONTINUOUS
 62
    3
 10
1371.5037602689461
 20
854.03425831448021
 11
1371.5037602689461
 21
852.03425831448021
  0
ARC
  8
_0-1_計細線
  6
CONTINUOUS
 62
    3
 10
1371.0037602689461
 20
852.03425831448021
 40
1.5
 50
269.99999999999977
 51
359.99999999999966
  0
LINE
  8
_0-1_計細線
  6
CONTINUOUS
 62
    3
 10
1372.5037602689461
 20
854.03425831448021
 11
1372.5037602689461
 21
852.03425831448021
  0
LINE
  8
_0-1_計細線
  6
CONTINUOUS
 62
    3
 10
1371.0037602689461
 20
850.53425831448021
 11
1365.0037602689461
 21
850.53425831448021
  0
ARC
  8
_0-1_計細線
  6
CONTINUOUS
 62
    3
 10
1373.0037602689461
 20
854.03425831448021
 40
0.5
 50
89.999999999999915
 51
179.99999999999983
  0
ARC
  8
_0-1_計細線
  6
CONTINUOUS
 62
    3
 10
1371.0037602689461
 20
852.03425831448021
 40
0.5
 50
269.99999999999977
 51
359.99999999999966
  0
LINE
  8
_0-1_計細線
  6
CONTINUOUS
 62
    3
 10
1371.0037602689461
 20
851.53425831448021
 11
1365.0037602689461
 21
851.53425831448021
  0
LINE
  8
_0-1_計細線
  6
CONTINUOUS
 62
    3
 10
1365.0037602689461
 20
851.53425831448021
 11
1365.0037602689461
 21
850.53425831448021
  0
LINE
  8
_0-1_計細線
  6
CONTINUOUS
 62
    3
 10
1383.0037602689461
 20
855.53425831448021
 11
1373.0037602689461
 21
855.53425831448021
  0
LINE
  8
_0-1_計細線
  6
CONTINUOUS
 62
    3
 10
1383.0037602689461
 20
873.53425831448112
 11
1383.0037602689461
 21
855.53425831448021
  0
ARC
  8
_0-1_計細線
  6
CONTINUOUS
 62
    3
 10
799.00376026894605
 20
873.53425831448112
 40
1
 50
89.999999999999915
 51
179.99999999999983
  0
LINE
  8
_0-1_計細線
  6
CONTINUOUS
 62
    3
 10
798.00376026894605
 20
866.53425831448112
 11
798.00376026894605
 21
873.53425831448112
  0
LINE
  8
_0-1_計細線
  6
CONTINUOUS
 62
    3
 10
798.00376026894605
 20
866.53425831448294
 11
1314.0037602689461
 21
866.53425831448294
  0
LINE
  8
_0-1_計細線
  6
CONTINUOUS
 62
    3
 10
809.00376026894605
 20
855.53425831448112
 11
809.00376026894605
 21
866.53425831448294
  0
ARC
  8
_0-1_計細線
  6
CONTINUOUS
 62
    3
 10
810.00376026894605
 20
855.53425831448112
 40
1
 50
179.99999999999983
 51
269.99999999999977
  0
LINE
  8
_0-1_計細線
  6
CONTINUOUS
 62
    3
 10
1373.0037602689461
 20
854.53425831448112
 11
1383.0037602689461
 21
854.53425831448112
  0
LINE
  8
_0-1_計細線
  6
CONTINUOUS
 62
    3
 10
1384.0037602689461
 20
866.53425831448112
 11
1393.003760268947
 21
866.53425831448112
  0
LINE
  8
_0-1_計細線
  6
CONTINUOUS
 62
    3
 10
1393.003760268947
 20
866.53425831448112
 11
1393.003760268947
 21
873.53425831448112
  0
LINE
  8
_0-1_計細線
  6
CONTINUOUS
 62
    3
 10
1393.003760268947
 20
873.53425831448112
 11
1384.0037602689461
 21
873.53425831448112
  0
LINE
  8
_0-1_計細線
  6
CONTINUOUS
 62
    3
 10
1384.0037602689461
 20
873.53425831448112
 11
1384.0037602689461
 21
855.53425831448112
  0
ARC
  8
_0-1_計細線
  6
CONTINUOUS
 62
    3
 10
1383.0037602689461
 20
855.53425831448112
 40
1
 50
269.99999999999977
 51
359.99999999999966
  0
LINE
  8
_0-1_計細線
  6
CONTINUOUS
 62
    3
 10
1393.0037602689461
 20
874.53425831448112
 11
1384.0037602689461
 21
874.53425831448112
  0
LINE
  8
_0-1_計細線
  6
CONTINUOUS
 62
    3
 10
1384.0037602689461
 20
874.53425831448112
 11
799.00376026894787
 21
874.53425831448112
  0
ARC
  8
_0-1_計細線
  6
CONTINUOUS
 62
    3
 10
1384.0037602689461
 20
873.53425831448112
 40
1
 50
89.999999999999915
 51
179.99999999999983
  0
LINE
  8
_0-0_計極細
  6
CENTER1
 62
    2
 10
833.0037602689456
 20
826.73877774131233
 11
833.0037602689456
 21
871.79247781884987
  0
LINE
  8
_0-1_計細線
  6
CONTINUOUS
 62
    3
 10
827.00376042202629
 20
866.52165946705099
 11
825.00376042202629
 21
864.52165946705099
  0
LINE
  8
_0-1_計細線
  6
CONTINUOUS
 62
    3
 10
825.00376042202629
 20
854.52165946705099
 11
825.00376042202629
 21
864.52165946705099
  0
LINE
  8
_0-1_計細線
  6
CONTINUOUS
 62
    3
 10
841.00376011586491
 20
854.52165946705099
 11
841.00376011586491
 21
864.52165946705099
  0
LINE
  8
_0-1_計細線
  6
CONTINUOUS
 62
    3
 10
827.00376042202629
 20
850.52165946705099
 11
825.00376042202629
 21
848.52165946705099
  0
LINE
  8
_0-1_計細線
  6
CONTINUOUS
 62
    3
 10
827.00376042202629
 20
852.52165946705099
 11
827.00376042202629
 21
850.52165946705099
  0
LINE
  8
_0-1_計細線
  6
CONTINUOUS
 62
    3
 10
825.00376042202629
 20
854.52165946705099
 11
827.00376042202629
 21
852.52165946705099
  0
LINE
  8
_0-1_計細線
  6
CONTINUOUS
 62
    3
 10
839.00376011586491
 20
850.52165946705099
 11
841.00376011586491
 21
848.52165946705099
  0
LINE
  8
_0-1_計細線
  6
CONTINUOUS
 62
    3
 10
839.00376011586491
 20
852.52165946705099
 11
839.00376011586491
 21
850.52165946705099
  0
LINE
  8
_0-1_計細線
  6
CONTINUOUS
 62
    3
 10
841.00376011586491
 20
854.52165946705099
 11
839.00376011586491
 21
852.52165946705099
  0
LINE
  8
_0-1_計細線
  6
CONTINUOUS
 62
    3
 10
825.00376042202629
 20
848.52165946705099
 11
825.00376042202629
 21
834.52165946705099
  0
ARC
  8
_0-1_計細線
  6
CONTINUOUS
 62
    3
 10
828.00376042202629
 20
834.52165946705099
 40
3
 50
179.99999999999983
 51
269.99999999999977
  0
LINE
  8
_0-1_計細線
  6
CONTINUOUS
 62
    3
 10
828.00376042202629
 20
831.52165946705099
 11
838.00376011586491
 21
831.52165946705099
  0
LINE
  8
_0-1_計細線
  6
CONTINUOUS
 62
    3
 10
841.00376011586491
 20
848.52165946705099
 11
841.00376011586491
 21
834.52165946705099
  0
ARC
  8
_0-1_計細線
  6
CONTINUOUS
 62
    3
 10
838.00376011586491
 20
834.52165946705099
 40
3
 50
269.99999999999977
 51
359.99999999999966
  0
LINE
  8
_0-1_計細線
  6
CONTINUOUS
 62
    3
 10
827.00376042202629
 20
866.52165946705099
 11
839.00376011586491
 21
866.52165946705099
  0
LINE
  8
_0-1_計細線
  6
CONTINUOUS
 62
    3
 10
841.00376011586491
 20
864.52165946705099
 11
839.00376011586491
 21
866.52165946705099
  0
LINE
  8
_0-1_計細線
  6
CONTINUOUS
 62
    3
 10
810.00376026894605
 20
854.53425831448112
 11
825.00376042202629
 21
854.53425831448112
  0
LINE
  8
_0-0_計極細
  6
DASHED2
 62
    2
 10
1359.0037602689461
 20
826.73877774131233
 11
1359.0037602689461
 21
871.79247781884987
  0
LINE
  8
_0-1_計細線
  6
DASHED2
 62
    3
 10
1367.0037601158654
 20
864.52165946705099
 11
1365.0037601158654
 21
866.52165946705099
  0
LINE
  8
_0-1_計細線
  6
DASHED2
 62
    3
 10
1353.0037604220267
 20
866.52165946705099
 11
1365.0037601158654
 21
866.52165946705099
  0
ARC
  8
_0-1_計細線
  6
DASHED2
 62
    3
 10
1364.0037601158654
 20
834.52165946705099
 40
3
 50
269.99999999999977
 51
359.99999999999966
  0
LINE
  8
_0-1_計細線
  6
DASHED2
 62
    3
 10
1367.0037601158654
 20
848.52165946705099
 11
1367.0037601158654
 21
834.52165946705099
  0
LINE
  8
_0-1_計細線
  6
DASHED2
 62
    3
 10
1354.0037604220267
 20
831.52165946705099
 11
1364.0037601158654
 21
831.52165946705099
  0
ARC
  8
_0-1_計細線
  6
DASHED2
 62
    3
 10
1354.0037604220267
 20
834.52165946705099
 40
3
 50
179.99999999999983
 51
269.99999999999977
  0
LINE
  8
_0-1_計細線
  6
DASHED2
 62
    3
 10
1351.0037604220267
 20
848.52165946705099
 11
1351.0037604220267
 21
834.52165946705099
  0
LINE
  8
_0-1_計細線
  6
DASHED2
 62
    3
 10
1367.0037601158654
 20
854.52165946705099
 11
1365.0037601158654
 21
852.52165946705099
  0
LINE
  8
_0-1_計細線
  6
DASHED2
 62
    3
 10
1365.0037601158654
 20
852.52165946705099
 11
1365.0037601158654
 21
850.52165946705099
  0
LINE
  8
_0-1_計細線
  6
DASHED2
 62
    3
 10
1365.0037601158654
 20
850.52165946705099
 11
1367.0037601158654
 21
848.52165946705099
  0
LINE
  8
_0-1_計細線
  6
DASHED2
 62
    3
 10
1351.0037604220267
 20
854.52165946705099
 11
1353.0037604220267
 21
852.52165946705099
  0
LINE
  8
_0-1_計細線
  6
DASHED2
 62
    3
 10
1353.0037604220267
 20
852.52165946705099
 11
1353.0037604220267
 21
850.52165946705099
  0
LINE
  8
_0-1_計細線
  6
DASHED2
 62
    3
 10
1353.0037604220267
 20
850.52165946705099
 11
1351.0037604220267
 21
848.52165946705099
  0
LINE
  8
_0-1_計細線
  6
DASHED2
 62
    3
 10
1367.0037601158654
 20
854.52165946705099
 11
1367.0037601158654
 21
864.52165946705099
  0
LINE
  8
_0-1_計細線
  6
DASHED2
 62
    3
 10
1351.0037604220267
 20
854.52165946705099
 11
1351.0037604220267
 21
864.52165946705099
  0
LINE
  8
_0-1_計細線
  6
DASHED2
 62
    3
 10
1353.0037604220267
 20
866.52165946705099
 11
1351.0037604220267
 21
864.52165946705099
  0
LINE
  8
_0-5_寸法線
  6
CONTINUOUS
 62
    7
 10
833.0037602689456
 20
831.52165946705099
 11
841.00376021787383
 21
817.66525297701367
  0
LINE
  8
_0-5_寸法線
  6
CONTINUOUS
 62
    7
 10
833.0037602689456
 20
831.52165946705099
 11
833.00376020997294
 21
815.52165946705099
  0
LINE
  8
_0-5_寸法線
  6
CONTINUOUS
 62
    7
 10
833.0037602689456
 20
831.52165946705099
 11
844.6521178483963
 21
788.04939651489258
  0
LINE
  8
_0-5_寸法線
  6
CONTINUOUS
 62
    7
 10
844.6521178483963
 20
788.04939651489258
 11
921.45211784839626
 21
788.04939651489258
  0
TEXT
  8
_0-5_寸法線
 62
    7
 10
844.6521178483963
 20
788.04939651489258
 40
24
 41
0.8000000000000001
 50
0
  1
アンカー
  0
LINE
  8
_0-1_計細線
  6
CONTINUOUS
 62
    3
 10
841.00376011586468
 20
854.53425831448112
 11
1314.0037602689461
 21
854.53425831448112
  0
LINE
  8
_0-5_寸法線
  6
CONTINUOUS
 62
    7
 10
798.00376026894639
 20
890.53425831448112
 11
798.0037602689481
 21
962.53425831448112
  0
LINE
  8
_0-5_寸法線
  6
CONTINUOUS
 62
    7
 10
798.00376026894787
 20
954.53425831448112
 11
813.45857348957293
 21
958.67536303612144
  0
LINE
  8
_0-5_寸法線
  6
CONTINUOUS
 62
    7
 10
798.00376026894787
 20
954.53425831448112
 11
813.45857348957293
 21
950.3931535928408
  0
LINE
  8
_0-5_寸法線
  6
CONTINUOUS
 62
    7
 10
833.00376026894594
 20
890.53425831448112
 11
833.00376026894764
 21
962.53425831448112
  0
LINE
  8
_0-5_寸法線
  6
CONTINUOUS
 62
    7
 10
833.00376026894742
 20
954.53425831448112
 11
817.54894704832236
 21
950.3931535928408
  0
LINE
  8
_0-5_寸法線
  6
CONTINUOUS
 62
    7
 10
833.00376026894742
 20
954.53425831448112
 11
817.54894704832236
 21
958.67536303612155
  0
LINE
  8
_0-5_寸法線
  6
CONTINUOUS
 62
    7
 10
798.00376026894787
 20
954.53425831448112
 11
833.00376026894742
 21
954.53425831448112
  0
TEXT
  8
_0-5_寸法線
 62
    7
 10
803.50376026894901
 20
954.53425831448112
 40
24
 41
1
 50
0
  1
35
  0
LINE
  8
_0-5_寸法線
  6
CONTINUOUS
 62
    7
 10
833.00376026894742
 20
954.53425831448112
 11
848.45857348957259
 21
958.67536303612133
  0
LINE
  8
_0-5_寸法線
  6
CONTINUOUS
 62
    7
 10
833.00376026894742
 20
954.53425831448112
 11
848.45857348957247
 21
950.39315359284069
  0
LINE
  8
_0-5_寸法線
  6
CONTINUOUS
 62
    7
 10
1359.0037602689465
 20
890.53425831448112
 11
1359.0037602689481
 21
962.53425831448112
  0
LINE
  8
_0-5_寸法線
  6
CONTINUOUS
 62
    7
 10
1359.0037602689479
 20
954.53425831448112
 11
1343.5489470483228
 21
950.3931535928408
  0
LINE
  8
_0-5_寸法線
  6
CONTINUOUS
 62
    7
 10
1359.0037602689479
 20
954.53425831448112
 11
1343.5489470483228
 21
958.67536303612155
  0
LINE
  8
_0-5_寸法線
  6
CONTINUOUS
 62
    7
 10
833.00376026894742
 20
954.53425831448112
 11
1359.0037602689479
 21
954.53425831448112
  0
TEXT
  8
_0-5_寸法線
 62
    7
 10
1078.0037602689499
 20
954.53425831448112
 40
24
 41
1
 50
0
  1
526
  0
LINE
  8
_0-5_寸法線
  6
CONTINUOUS
 62
    7
 10
1359.0037602689479
 20
954.53425831448112
 11
1374.4585734895729
 21
958.67536303612133
  0
LINE
  8
_0-5_寸法線
  6
CONTINUOUS
 62
    7
 10
1359.0037602689479
 20
954.53425831448112
 11
1374.4585734895729
 21
950.39315359284069
  0
LINE
  8
_0-5_寸法線
  6
CONTINUOUS
 62
    7
 10
1394.0037602689465
 20
890.53425831448112
 11
1394.0037602689481
 21
962.53425831448112
  0
LINE
  8
_0-5_寸法線
  6
CONTINUOUS
 62
    7
 10
1394.0037602689479
 20
954.53425831448112
 11
1378.5489470483228
 21
950.3931535928408
  0
LINE
  8
_0-5_寸法線
  6
CONTINUOUS
 62
    7
 10
1394.0037602689479
 20
954.53425831448112
 11
1378.5489470483228
 21
958.67536303612155
  0
LINE
  8
_0-5_寸法線
  6
CONTINUOUS
 62
    7
 10
1359.0037602689479
 20
954.53425831448112
 11
1394.0037602689479
 21
954.53425831448112
  0
TEXT
  8
_0-5_寸法線
 62
    7
 10
1364.503760268949
 20
954.53425831448112
 40
24
 41
1
 50
0
  1
35
  0
TEXT
  8
_0-7_枠細線
 62
    5
 10
1536.8
 20
239.24855752183862
 40
32
 41
0.6
 50
0
  1
排水ユニット ＳＵＳグレーチング 浅型
  0
LINE
  8
_0-0_計極細
  6
CENTER2
 62
    2
 10
1314.0037602689461
 20
1272.8891373232591
 11
1314.0037602689461
 21
700.54751357787006
  0
TEXT
  8
_0-5_寸法線
 62
    7
 10
735.93547065433029
 20
1156.2593672979833
 40
24
 41
1
 50
0
  1
Ａ部
  0
LINE
  8
_0-1_計細線
  6
CONTINUOUS
 62
    3
 10
1314.0037602689461
 20
866.63425831447921
 11
1381.5037602689461
 21
866.63425831447921
  0
LINE
  8
_0-1_計細線
  6
CONTINUOUS
 62
    3
 10
1314.0037602689461
 20
872.63425831448012
 11
1381.5037602689461
 21
872.63425831448012
  0
LINE
  8
_0-1_計細線
  6
CONTINUOUS
 62
    3
 10
1314.0037602689461
 20
855.53425831448021
 11
1381.5037602689461
 21
855.53425831448021
  0
LINE
  8
_0-1_計細線
  6
CONTINUOUS
 62
    3
 10
1381.5037602689461
 20
872.63425831448012
 11
1381.5037602689461
 21
855.53425831448021
  0
LINE
  8
_0-5_寸法線
  6
CONTINUOUS
 62
    7
 10
1270.8789673929275
 20
805.45958670532309
 11
1266.8064252853248
 21
789.98656499714332
  0
LINE
  8
_0-5_寸法線
  6
CONTINUOUS
 62
    7
 10
1270.8789673929275
 20
805.45958670532309
 11
1259.6155316156719
 21
794.09582788653267
  0
LINE
  8
_0-5_寸法線
  6
CONTINUOUS
 62
    7
 10
1270.8789673929275
 20
805.45958670532309
 11
1234.8172527336717
 21
742.35436257141282
  0
LINE
  8
_0-5_寸法線
  6
CONTINUOUS
 62
    7
 10
1234.8172527336717
 20
742.35436257141282
 11
1023.6172527336716
 21
742.35436257141282
  0
TEXT
  8
_0-5_寸法線
 62
    7
 10
1023.6172527336718
 20
742.4115119068174
 40
24
 41
0.7999999999999997
 50
0
  1
横引き排水トラップ一式
  0
LINE
  8
_0-5_寸法線
  6
CONTINUOUS
 62
    7
 10
1314.0037602689461
 20
722.5158903144802
 11
1314.0037602689461
 21
648.4636263144821
  0
LINE
  8
_0-5_寸法線
  6
CONTINUOUS
 62
    7
 10
1314.0037602689461
 20
656.4636263144821
 11
1329.4585734895711
 21
660.60473103612242
  0
LINE
  8
_0-5_寸法線
  6
CONTINUOUS
 62
    7
 10
1314.0037602689461
 20
656.4636263144821
 11
1329.4585734895711
 21
652.32252159284178
  0
LINE
  8
_0-5_寸法線
  6
CONTINUOUS
 62
    7
 10
1363.473144268946
 20
722.5158903144802
 11
1363.473144268946
 21
648.4636263144821
  0
LINE
  8
_0-5_寸法線
  6
CONTINUOUS
 62
    7
 10
1363.473144268946
 20
656.4636263144821
 11
1348.018331048321
 21
652.32252159284178
  0
LINE
  8
_0-5_寸法線
  6
CONTINUOUS
 62
    7
 10
1363.473144268946
 20
656.4636263144821
 11
1348.018331048321
 21
660.60473103612253
  0
LINE
  8
_0-5_寸法線
  6
CONTINUOUS
 62
    7
 10
1314.0037602689461
 20
656.4636263144821
 11
1363.473144268946
 21
656.4636263144821
  0
TEXT
  8
_0-5_寸法線
 62
    7
 10
1326.738452268946
 20
656.4636263144821
 40
24
 41
1
 50
0
  1
51
  0
LINE
  8
_0-5_寸法線
  6
CONTINUOUS
 62
    7
 10
1363.473144268946
 20
656.4636263144821
 11
1378.9279574895711
 21
660.6047310361223
  0
LINE
  8
_0-5_寸法線
  6
CONTINUOUS
 62
    7
 10
1363.473144268946
 20
656.4636263144821
 11
1378.9279574895711
 21
652.32252159284167
  0
LINE
  8
_0-5_寸法線
  6
CONTINUOUS
 62
    7
 10
1399.2282482689459
 20
723.39752231448074
 11
1399.2282482689459
 21
648.4636263144821
  0
LINE
  8
_0-5_寸法線
  6
CONTINUOUS
 62
    7
 10
1399.2282482689459
 20
656.4636263144821
 11
1383.7734350483208
 21
652.32252159284178
  0
LINE
  8
_0-5_寸法線
  6
CONTINUOUS
 62
    7
 10
1399.2282482689459
 20
656.4636263144821
 11
1383.7734350483208
 21
660.60473103612253
  0
LINE
  8
_0-5_寸法線
  6
CONTINUOUS
 62
    7
 10
1363.473144268946
 20
656.4636263144821
 11
1399.2282482689459
 21
656.4636263144821
  0
TEXT
  8
_0-5_寸法線
 62
    7
 10
1369.350696268946
 20
656.4636263144821
 40
24
 41
1
 50
0
  1
36
  0
LINE
  8
_0-5_寸法線
  6
CONTINUOUS
 62
    7
 10
1314.0037602689461
 20
722.5158903144802
 11
1314.0037602689451
 21
592.4636263144821
  0
LINE
  8
_0-5_寸法線
  6
CONTINUOUS
 62
    7
 10
1314.0037602689451
 20
600.4636263144821
 11
1329.4585734895702
 21
604.60473103612242
  0
LINE
  8
_0-5_寸法線
  6
CONTINUOUS
 62
    7
 10
1314.0037602689451
 20
600.4636263144821
 11
1329.4585734895702
 21
596.32252159284178
  0
LINE
  8
_0-5_寸法線
  6
CONTINUOUS
 62
    7
 10
1399.2282482689459
 20
722.5158903144802
 11
1399.228248268945
 21
592.4636263144821
  0
LINE
  8
_0-5_寸法線
  6
CONTINUOUS
 62
    7
 10
1399.228248268945
 20
600.4636263144821
 11
1383.7734350483199
 21
596.32252159284178
  0
LINE
  8
_0-5_寸法線
  6
CONTINUOUS
 62
    7
 10
1399.228248268945
 20
600.4636263144821
 11
1383.7734350483199
 21
604.60473103612253
  0
LINE
  8
_0-5_寸法線
  6
CONTINUOUS
 62
    7
 10
1314.0037602689451
 20
600.4636263144821
 11
1399.228248268945
 21
600.4636263144821
  0
TEXT
  8
_0-5_寸法線
 62
    7
 10
1344.6160042689451
 20
600.4636263144821
 40
24
 41
1
 50
0
  1
87
  0
LINE
  8
_0-5_寸法線
  6
CONTINUOUS
 62
    7
 10
1417.0037602689461
 20
738.03425831448112
 11
1545.0037602689461
 21
738.03425831448112
  0
LINE
  8
_0-5_寸法線
  6
CONTINUOUS
 62
    7
 10
1537.0037602689461
 20
738.03425831448112
 11
1532.8626555473058
 21
753.48907153510618
  0
LINE
  8
_0-5_寸法線
  6
CONTINUOUS
 62
    7
 10
1537.0037602689461
 20
738.03425831448112
 11
1541.1448649905865
 21
753.48907153510618
  0
LINE
  8
_0-5_寸法線
  6
CONTINUOUS
 62
    7
 10
1417.0037602689461
 20
793.03425831448112
 11
1545.0037602689461
 21
793.03425831448112
  0
LINE
  8
_0-5_寸法線
  6
CONTINUOUS
 62
    7
 10
1537.0037602689461
 20
793.03425831448112
 11
1541.1448649905865
 21
777.57944509385607
  0
LINE
  8
_0-5_寸法線
  6
CONTINUOUS
 62
    7
 10
1537.0037602689461
 20
793.03425831448112
 11
1532.8626555473058
 21
777.57944509385607
  0
LINE
  8
_0-5_寸法線
  6
CONTINUOUS
 62
    7
 10
1537.0037602689461
 20
738.03425831448112
 11
1537.0037602689461
 21
793.03425831448112
  0
TEXT
  8
_0-5_寸法線
 62
    7
 10
1537.0037602689461
 20
735.53425831448112
 40
24
 41
1
 50
90
  1
VU-50
  0
LINE
  8
_0-5_寸法線
  6
CONTINUOUS
 62
    7
 10
1417.0037602689461
 20
738.03425831448112
 11
1601.0037602689461
 21
738.03425831448112
  0
LINE
  8
_0-5_寸法線
  6
CONTINUOUS
 62
    7
 10
1593.0037602689461
 20
738.03425831448112
 11
1588.8626555473058
 21
753.48907153510618
  0
LINE
  8
_0-5_寸法線
  6
CONTINUOUS
 62
    7
 10
1593.0037602689461
 20
738.03425831448112
 11
1597.1448649905865
 21
753.48907153510618
  0
LINE
  8
_0-5_寸法線
  6
CONTINUOUS
 62
    7
 10
1398.7037602689468
 20
854.53425831448112
 11
1601.0037602689461
 21
854.53425831448112
  0
LINE
  8
_0-5_寸法線
  6
CONTINUOUS
 62
    7
 10
1593.0037602689461
 20
854.53425831448112
 11
1597.1448649905863
 21
839.07944509385607
  0
LINE
  8
_0-5_寸法線
  6
CONTINUOUS
 62
    7
 10
1593.0037602689461
 20
854.53425831448112
 11
1588.8626555473056
 21
839.07944509385607
  0
LINE
  8
_0-5_寸法線
  6
CONTINUOUS
 62
    7
 10
1593.0037602689461
 20
738.03425831448112
 11
1593.0037602689461
 21
854.53425831448112
  0
TEXT
  8
_0-5_寸法線
 62
    7
 10
1593.0037602689461
 20
766.28425831448203
 40
24
 41
1
 50
90
  1
116.5
  0
LINE
  8
_0-5_寸法線
  6
CONTINUOUS
 62
    7
 10
1410.0037602689461
 20
874.53425831448112
 11
1601.0037602689461
 21
874.53425831448112
  0
LINE
  8
_0-5_寸法線
  6
CONTINUOUS
 62
    7
 10
1593.0037602689461
 20
874.53425831448112
 11
1588.8626555473058
 21
889.98907153510618
  0
LINE
  8
_0-5_寸法線
  6
CONTINUOUS
 62
    7
 10
1593.0037602689461
 20
874.53425831448112
 11
1597.1448649905865
 21
889.98907153510618
  0
LINE
  8
_0-5_寸法線
  6
CONTINUOUS
 62
    7
 10
1593.0037602689461
 20
854.53425831448112
 11
1593.0037602689461
 21
914.53425831448112
  0
TEXT
  8
_0-5_寸法線
 62
    7
 10
1593.0037602689461
 20
885.23441478591303
 40
24
 41
1
 50
90
  1
20
  0
LINE
  8
_0-5_寸法線
  6
CONTINUOUS
 62
    7
 10
1417.0037602689461
 20
738.03425831448112
 11
1657.0037602689461
 21
738.03425831448112
  0
LINE
  8
_0-5_寸法線
  6
CONTINUOUS
 62
    7
 10
1649.0037602689461
 20
738.03425831448112
 11
1644.8626555473058
 21
753.48907153510618
  0
LINE
  8
_0-5_寸法線
  6
CONTINUOUS
 62
    7
 10
1649.0037602689461
 20
738.03425831448112
 11
1653.1448649905865
 21
753.48907153510618
  0
LINE
  8
_0-5_寸法線
  6
CONTINUOUS
 62
    7
 10
1410.0037602689461
 20
874.53425831448112
 11
1657.0037602689461
 21
874.53425831448112
  0
LINE
  8
_0-5_寸法線
  6
CONTINUOUS
 62
    7
 10
1649.0037602689461
 20
874.53425831448112
 11
1653.1448649905865
 21
859.07944509385607
  0
LINE
  8
_0-5_寸法線
  6
CONTINUOUS
 62
    7
 10
1649.0037602689461
 20
874.53425831448112
 11
1644.8626555473058
 21
859.07944509385607
  0
LINE
  8
_0-5_寸法線
  6
CONTINUOUS
 62
    7
 10
1649.0037602689461
 20
738.03425831448112
 11
1649.0037602689461
 21
874.53425831448112
  0
TEXT
  8
_0-5_寸法線
 62
    7
 10
1649.0037602689461
 20
776.28425831448203
 40
24
 41
1
 50
90
  1
136.5
  0
LINE
  8
_0-5_寸法線
  6
CONTINUOUS
 62
    7
 10
1417.0037602689461
 20
738.03425831448112
 11
1489.0037602689461
 21
738.03425831448112
  0
LINE
  8
_0-5_寸法線
  6
CONTINUOUS
 62
    7
 10
1481.0037602689461
 20
738.03425831448112
 11
1485.1448649905863
 21
722.57944509385607
  0
LINE
  8
_0-5_寸法線
  6
CONTINUOUS
 62
    7
 10
1481.0037602689461
 20
738.03425831448112
 11
1476.8626555473056
 21
722.57944509385607
  0
LINE
  8
_0-5_寸法線
  6
CONTINUOUS
 62
    7
 10
1417.0037602689461
 20
765.53425831448112
 11
1489.0037602689461
 21
765.53425831448112
  0
LINE
  8
_0-5_寸法線
  6
CONTINUOUS
 62
    7
 10
1481.0037602689461
 20
698.03425831448112
 11
1481.0037602689461
 21
765.53425831448112
  0
TEXT
  8
_0-5_寸法線
 62
    7
 10
1481.0037602689461
 20
695.9526874403291
 40
24
 41
1
 50
90
  1
28
  0
LINE
  8
_0-5_寸法線
  6
CONTINUOUS
 62
    7
 10
1481.0037602689461
 20
765.53425831448112
 11
1476.8626555473058
 21
780.98907153510618
  0
LINE
  8
_0-5_寸法線
  6
CONTINUOUS
 62
    7
 10
1481.0037602689461
 20
765.53425831448112
 11
1485.1448649905865
 21
780.98907153510618
  0
LINE
  8
_0-5_寸法線
  6
CONTINUOUS
 62
    7
 10
1398.7037602689468
 20
854.53425831448112
 11
1489.0037602689461
 21
854.53425831448112
  0
LINE
  8
_0-5_寸法線
  6
CONTINUOUS
 62
    7
 10
1481.0037602689461
 20
854.53425831448112
 11
1485.1448649905863
 21
839.07944509385607
  0
LINE
  8
_0-5_寸法線
  6
CONTINUOUS
 62
    7
 10
1481.0037602689461
 20
854.53425831448112
 11
1476.8626555473056
 21
839.07944509385607
  0
LINE
  8
_0-5_寸法線
  6
CONTINUOUS
 62
    7
 10
1481.0037602689461
 20
765.53425831448112
 11
1481.0037602689461
 21
854.53425831448112
  0
TEXT
  8
_0-5_寸法線
 62
    7
 10
1481.0037602689461
 20
781.48137653376943
 40
24
 41
1
 50
90
  1
88.5
  0
ARC
  8
_0-1_計細線
  6
CONTINUOUS
 62
    3
 10
1257.0037602689461
 20
852.03425831448021
 40
1.5
 50
179.99999999999983
 51
269.99999999999977
  0
LINE
  8
_0-1_計細線
  6
CONTINUOUS
 62
    3
 10
1255.5037602689461
 20
854.03425831448021
 11
1255.5037602689461
 21
852.03425831448021
  0
ARC
  8
_0-1_計細線
  6
CONTINUOUS
 62
    3
 10
1255.0037602689461
 20
854.03425831448021
 40
0.5
 50
0
 51
89.999999999999915
  0
LINE
  8
_0-1_計細線
  6
CONTINUOUS
 62
    3
 10
1257.0037602689461
 20
850.53425831448021
 11
1314.0037602689463
 21
850.53425831448021
  0
LINE
  8
_0-1_計細線
  6
CONTINUOUS
 62
    3
 10
1314.0037602689461
 20
829.55466631448144
 11
1262.0853922689473
 21
829.55466631448144
  0
LINE
  8
_0-1_計細線
  6
CONTINUOUS
 62
    3
 10
1314.0037602689461
 20
825.31290631448246
 11
1264.534368268947
 21
825.31290631448246
  0
ARC
  8
_0-1_計細線
  6
CONTINUOUS
 62
    3
 10
1259.6364082689449
 20
825.31290631448246
 40
4.8979599999999994
 50
0
 51
59.999999999989242
  0
LINE
  8
_0-1_計細線
  6
CONTINUOUS
 62
    3
 10
1262.0853922689473
 20
829.55466631448144
 11
1262.0853922689473
 21
847.18731431448214
  0
LINE
  8
_0-1_計細線
  6
CONTINUOUS
 62
    3
 10
1314.0037602689461
 20
847.18731431448214
 11
1258.2649842689459
 21
847.18731431448214
  0
LINE
  8
_0-1_計細線
  6
CONTINUOUS
 62
    3
 10
1365.9221282689466
 20
837.39140231448255
 11
1369.742536268948
 21
837.39140231448255
  0
ARC
  8
_0-1_計細線
  6
CONTINUOUS
 62
    3
 10
1368.3711042689463
 20
825.31290631448246
 40
4.8979599999999994
 50
119.99999999999233
 51
179.99999999999983
  0
LINE
  8
_0-1_計細線
  6
CONTINUOUS
 62
    3
 10
1365.9221282689466
 20
829.55466631448144
 11
1365.9221282689466
 21
837.39140231448255
  0
LINE
  8
_0-0_計極細
  6
CONTINUOUS
 62
    2
 10
1361.5139602689467
 20
832.49344231448231
 11
1361.5139602689467
 21
835.34117831448202
  0
LINE
  8
_0-0_計極細
  6
CONTINUOUS
 62
    2
 10
1362.9627762689468
 20
831.70977031448092
 11
1361.5139602689467
 21
832.49344231448231
  0
LINE
  8
_0-0_計極細
  6
CONTINUOUS
 62
    2
 10
1314.0037602689461
 20
831.70977031448092
 11
1338.4935442689473
 21
831.70977031448092
  0
LINE
  8
_0-0_計極細
  6
CONTINUOUS
 62
    2
 10
1369.742536268948
 20
851.10568231448087
 11
1362.9627762689468
 21
850.3220103144813
  0
ARC
  8
_0-0_計極細
  6
CONTINUOUS
 62
    2
 10
1351.473144268946
 20
825.63629831448088
 40
0.979592
 50
0
 51
89.999999999999915
  0
ARC
  8
_0-0_計極細
  6
CONTINUOUS
 62
    2
 10
1351.473144268946
 20
825.63629831448088
 40
0.979592
 50
89.999999999999915
 51
179.99999999999983
  0
LINE
  8
_0-0_計極細
  6
CONTINUOUS
 62
    2
 10
1351.473144268946
 20
826.61589031448239
 11
1340.4527362689457
 21
826.61589031448239
  0
LINE
  8
_0-0_計極細
  6
CONTINUOUS
 62
    2
 10
1340.9985282689465
 20
835.34117831448202
 11
1350.7367922689461
 21
835.34117831448202
  0
LINE
  8
_0-0_計極細
  6
CONTINUOUS
 62
    2
 10
1314.0037602689461
 20
852.48403431448241
 11
1362.9627762689468
 21
852.48403431448241
  0
LINE
  8
_0-0_計極細
  6
CONTINUOUS
 62
    2
 10
1353.4323282689454
 20
839.25954631448258
 11
1357.399672268946
 21
839.25954631448258
  0
LINE
  8
_0-0_計極細
  6
CONTINUOUS
 62
    2
 10
1360.2808722689458
 20
850.03505031448185
 11
1359.113960268947
 21
850.03505031448185
  0
LINE
  8
_0-0_計極細
  6
CONTINUOUS
 62
    2
 10
1357.399672268946
 20
837.98607431448181
 11
1357.399672268946
 21
848.32077031448171
  0
ARC
  8
_0-0_計極細
  6
CONTINUOUS
 62
    2
 10
1359.113960268947
 20
848.32077031448171
 40
1.714288
 50
89.999999999999915
 51
179.99999999999983
  0
ARC
  8
_0-0_計極細
  6
CONTINUOUS
 62
    2
 10
1362.9627762689468
 20
850.76974631448138
 40
1.714288
 50
89.999999999999915
 51
175.84901000001699
  0
ARC
  8
_0-0_計極細
  6
CONTINUOUS
 62
    2
 10
1360.2808722689458
 20
851.01464231448153
 40
0.979592
 50
269.99999999999977
 51
356.64911199995925
  0
LINE
  8
_0-0_計極細
  6
CONTINUOUS
 62
    2
 10
1363.0594642689482
 20
851.80517031448107
 11
1369.742536268948
 21
852.75704231448253
  0
ARC
  8
_0-0_計極細
  6
CONTINUOUS
 62
    2
 10
1362.9627762689468
 20
850.76974631448138
 40
1.0285679999999999
 50
89.999999999999915
 51
175.84901000002131
  0
ARC
  8
_0-0_計極細
  6
CONTINUOUS
 62
    2
 10
1360.2808722689458
 20
851.01464231448153
 40
1.6653040000000001
 50
269.99999999999977
 51
356.64911199998164
  0
LINE
  8
_0-0_計極細
  6
CONTINUOUS
 62
    2
 10
1360.2808722689458
 20
849.34933831448143
 11
1359.113960268947
 21
849.34933831448143
  0
ARC
  8
_0-0_計極細
  6
CONTINUOUS
 62
    2
 10
1359.113960268947
 20
848.32077031448171
 40
1.0285679999999999
 50
89.999999999999915
 51
179.99999999999983
  0
LINE
  8
_0-0_計極細
  6
CONTINUOUS
 62
    2
 10
1358.0853922689473
 20
837.30036231448139
 11
1358.0853922689473
 21
848.32077031448171
  0
LINE
  8
_0-0_計極細
  6
CONTINUOUS
 62
    2
 10
1362.9627762689468
 20
836.7899943144821
 11
1362.9627762689468
 21
851.79140231448218
  0
LINE
  8
_0-0_計極細
  6
CONTINUOUS
 62
    2
 10
1362.9627762689468
 20
836.7899943144821
 11
1361.5139602689467
 21
835.34117831448202
  0
LINE
  8
_0-0_計極細
  6
CONTINUOUS
 62
    2
 10
1356.1262082689479
 20
833.38199431448265
 11
1356.1262082689479
 21
839.25954631448258
  0
LINE
  8
_0-0_計極細
  6
CONTINUOUS
 62
    2
 10
1353.9221282689466
 20
835.43989831448198
 11
1353.9221282689466
 21
839.25954631448258
  0
LINE
  8
_0-0_計極細
  6
CONTINUOUS
 62
    2
 10
1356.1262082689479
 20
837.30036231448139
 11
1358.0853922689473
 21
837.30036231448139
  0
LINE
  8
_0-0_計極細
  6
CONTINUOUS
 62
    2
 10
1356.1262082689479
 20
837.98607431448181
 11
1357.399672268946
 21
837.98607431448181
  0
LINE
  8
_0-0_計極細
  6
CONTINUOUS
 62
    2
 10
1355.3129682689466
 20
833.38199431448265
 11
1356.1262082689479
 21
833.38199431448265
  0
LINE
  8
_0-0_計極細
  6
CONTINUOUS
 62
    2
 10
1356.1262082689479
 20
835.34117831448202
 11
1361.5139602689467
 21
835.34117831448202
  0
LINE
  8
_0-0_計極細
  6
CONTINUOUS
 62
    2
 10
1343.1821842689476
 20
833.67587431448192
 11
1348.080144268946
 21
833.67587431448192
  0
LINE
  8
_0-0_計極細
  6
CONTINUOUS
 62
    2
 10
1343.1821842689476
 20
833.67587431448192
 11
1343.1821842689476
 21
835.34117831448202
  0
LINE
  8
_0-0_計極細
  6
CONTINUOUS
 62
    2
 10
1348.080144268946
 20
833.67587431448192
 11
1348.080144268946
 21
835.34117831448202
  0
LINE
  8
_0-0_計極細
  6
CONTINUOUS
 62
    2
 10
1344.6515762689467
 20
833.67587431448192
 11
1344.6515762689467
 21
835.34117831448202
  0
LINE
  8
_0-0_計極細
  6
CONTINUOUS
 62
    2
 10
1357.399672268946
 20
850.03505031448185
 11
1359.3098802689472
 21
850.03505031448185
  0
LINE
  8
_0-0_計極細
  6
CONTINUOUS
 62
    2
 10
1357.399672268946
 20
847.09628231448187
 11
1357.399672268946
 21
850.03505031448185
  0
LINE
  8
_0-0_計極細
  6
CONTINUOUS
 62
    2
 10
1356.3221282689462
 20
846.60648231448249
 11
1356.3221282689462
 21
847.58607431448218
  0
ARC
  8
_0-0_計極細
  6
CONTINUOUS
 62
    2
 10
1356.9098802689457
 20
847.09628231448187
 40
0.489792
 50
269.99999999999977
 51
359.99999999999966
  0
LINE
  8
_0-0_計極細
  6
CONTINUOUS
 62
    2
 10
1314.1996722689471
 20
847.58607431448218
 11
1356.3221282689462
 21
847.58607431448218
  0
LINE
  8
_0-0_計極細
  6
CONTINUOUS
 62
    2
 10
1314.1996722689471
 20
846.60648231448249
 11
1356.9098802689457
 21
846.60648231448249
  0
LINE
  8
_0-0_計極細
  6
CONTINUOUS
 62
    2
 10
1314.0037602689461
 20
845.53491431448128
 11
1357.2527362689468
 21
845.53491431448128
  0
LINE
  8
_0-0_計極細
  6
CONTINUOUS
 62
    2
 10
1352.9425362689469
 20
845.53491431448128
 11
1352.9425362689469
 21
845.04512231448098
  0
LINE
  8
_0-0_計極細
  6
CONTINUOUS
 62
    2
 10
1356.4690642689472
 20
844.06553031448129
 11
1357.2527362689468
 21
845.53491431448128
  0
LINE
  8
_0-0_計極細
  6
CONTINUOUS
 62
    2
 10
1352.4527362689457
 20
842.30226631448204
 11
1352.9425362689469
 21
842.79205831448235
  0
LINE
  8
_0-0_計極細
  6
CONTINUOUS
 62
    2
 10
1352.9425362689469
 20
841.81246631448084
 11
1352.4527362689457
 21
842.30226631448204
  0
LINE
  8
_0-0_計極細
  6
CONTINUOUS
 62
    2
 10
1352.9425362689469
 20
844.06553031448129
 11
1352.4527362689457
 21
844.5553223144816
  0
LINE
  8
_0-0_計極細
  6
CONTINUOUS
 62
    2
 10
1352.4527362689457
 20
844.5553223144816
 11
1352.9425362689469
 21
845.04512231448098
  0
LINE
  8
_0-0_計極細
  6
CONTINUOUS
 62
    2
 10
1314.0037602689461
 20
844.5553223144816
 11
1352.4527362689457
 21
844.5553223144816
  0
LINE
  8
_0-0_計極細
  6
CONTINUOUS
 62
    2
 10
1314.0037602689461
 20
842.30226631448204
 11
1352.4527362689457
 21
842.30226631448204
  0
LINE
  8
_0-0_計極細
  6
CONTINUOUS
 62
    2
 10
1314.0037602689461
 20
841.32267431448236
 11
1356.4690642689472
 21
841.32267431448236
  0
LINE
  8
_0-0_計極細
  6
CONTINUOUS
 62
    2
 10
1356.4690642689472
 20
844.06553031448129
 11
1356.4690642689472
 21
841.32267431448236
  0
LINE
  8
_0-0_計極細
  6
CONTINUOUS
 62
    2
 10
1352.9425362689469
 20
841.81246631448084
 11
1352.9425362689469
 21
841.32267431448236
  0
LINE
  8
_0-0_計極細
  6
CONTINUOUS
 62
    2
 10
1352.9425362689469
 20
844.06553031448129
 11
1352.9425362689469
 21
842.79205831448235
  0
ARC
  8
_0-0_計極細
  6
CONTINUOUS
 62
    2
 10
1346.3302882689475
 20
832.86773031448138
 40
5.8775519999999997
 50
55.166294000021374
 51
179.99999999999983
  0
ARC
  8
_0-0_計極細
  6
CONTINUOUS
 62
    2
 10
1347.7996722689475
 20
835.43989831448198
 40
2.9387759999999998
 50
0
 51
50.029503000032648
  0
LINE
  8
_0-0_計極細
  6
CONTINUOUS
 62
    2
 10
1350.7384482689465
 20
832.50112231448111
 11
1350.7384482689465
 21
835.43989831448198
  0
LINE
  8
_0-0_計極細
  6
CONTINUOUS
 62
    2
 10
1353.6772242689456
 20
832.50112231448111
 11
1350.7384482689465
 21
832.50112231448111
  0
ARC
  8
_0-0_計極細
  6
CONTINUOUS
 62
    2
 10
1353.6772242689456
 20
834.4603063144823
 40
1.959184
 50
269.99999999999977
 51
359.99999999999966
  0
LINE
  8
_0-0_計極細
  6
CONTINUOUS
 62
    2
 10
1355.6364082689468
 20
834.4603063144823
 11
1355.6364082689468
 21
835.43989831448198
  0
LINE
  8
_0-0_計極細
  6
CONTINUOUS
 62
    2
 10
1355.6364082689468
 20
835.43989831448198
 11
1353.4323282689454
 21
835.43989831448198
  0
LINE
  8
_0-0_計極細
  6
CONTINUOUS
 62
    2
 10
1356.6160002689464
 20
839.75010631448095
 11
1314.0037602689461
 21
839.75010631448095
  0
LINE
  8
_0-0_計極細
  6
CONTINUOUS
 62
    2
 10
1356.6160002689464
 20
839.75010631448095
 11
1356.6160002689464
 21
841.21949031448094
  0
LINE
  8
_0-0_計極細
  6
CONTINUOUS
 62
    2
 10
1356.6160002689464
 20
841.21949031448094
 11
1314.0037602689461
 21
841.21949031448094
  0
LINE
  8
_0-0_計極細
  6
CONTINUOUS
 62
    2
 10
1356.6160002689464
 20
845.72561031448095
 11
1314.0037602689461
 21
845.72561031448095
  0
LINE
  8
_0-0_計極細
  6
CONTINUOUS
 62
    2
 10
1356.6160002689464
 20
845.72561031448095
 11
1356.6160002689464
 21
846.60648231448249
  0
LINE
  8
_0-0_計極細
  6
CONTINUOUS
 62
    2
 10
1353.4323282689454
 20
835.43989831448198
 11
1353.4323282689454
 21
839.75010631448095
  0
LINE
  8
_0-0_計極細
  6
CONTINUOUS
 62
    2
 10
1340.4527362689457
 20
832.49344231448231
 11
1361.5139602689467
 21
832.49344231448231
  0
LINE
  8
_0-0_計極細
  6
CONTINUOUS
 62
    2
 10
1340.4527362689457
 20
831.70977031448092
 11
1362.9627762689468
 21
831.70977031448092
  0
LINE
  8
_0-0_計極細
  6
CONTINUOUS
 62
    2
 10
1314.0037602689461
 20
853.4636263144821
 11
1369.742536268948
 21
853.4636263144821
  0
LINE
  8
_0-1_計細線
  6
CONTINUOUS
 62
    3
 10
1369.742536268948
 20
837.39140231448255
 11
1369.742536268948
 21
853.4636263144821
  0
LINE
  8
_0-0_計極細
  6
CONTINUOUS
 62
    2
 10
1362.9627762689468
 20
852.48403431448241
 11
1369.742536268948
 21
853.44967501852989
  0
LINE
  8
_0-0_計極細
  6
CONTINUOUS
 62
    2
 10
1352.4527362689457
 20
768.87019431448061
 11
1352.4527362689457
 21
795.31917031448029
  0
LINE
  8
_0-0_計極細
  6
CONTINUOUS
 62
    2
 10
1340.6976322689459
 20
757.11509031448077
 11
1338.4935522689464
 21
757.11509031448077
  0
ARC
  8
_0-0_計極細
  6
CONTINUOUS
 62
    2
 10
1340.6976322689459
 20
768.87019431448061
 40
11.755103999999999
 50
269.99999999999977
 51
359.99999999999966
  0
LINE
  8
_0-0_計極細
  6
CONTINUOUS
 62
    2
 10
1361.0241682689464
 20
802.24261031448077
 11
1361.0241682689464
 21
831.70977031448092
  0
LINE
  8
_0-0_計極細
  6
CONTINUOUS
 62
    2
 10
1314.0037602689461
 20
757.11509031448077
 11
1340.6976322689459
 21
757.11509031448077
  0
LINE
  8
_0-0_計極細
  6
CONTINUOUS
 62
    2
 10
1352.4527362689457
 20
768.87019431448061
 11
1352.4527362689457
 21
825.63629831448088
  0
LINE
  8
_0-0_計極細
  6
CONTINUOUS
 62
    2
 10
1350.4935522689464
 20
768.87019431448061
 11
1350.4935522689464
 21
825.63629831448088
  0
LINE
  8
_0-0_計極細
  6
CONTINUOUS
 62
    2
 10
1314.0037602689461
 20
759.07427431448014
 11
1340.6976322689459
 21
759.07427431448014
  0
ARC
  8
_0-0_計極細
  6
CONTINUOUS
 62
    2
 10
1340.6976322689459
 20
768.87019431448061
 40
9.7959199999999989
 50
269.99999999999977
 51
359.99999999999966
  0
LINE
  8
_0-0_計極細
  6
CONTINUOUS
 62
    2
 10
1339.473144268946
 20
775.93093831448095
 11
1314.0037602689461
 21
775.93093831448095
  0
ARC
  8
_0-0_計極細
  6
CONTINUOUS
 62
    2
 10
1339.473144268946
 20
776.91053031448064
 40
0.979592
 50
269.99999999999977
 51
359.99999999999966
  0
LINE
  8
_0-0_計極細
  6
CONTINUOUS
 62
    2
 10
1340.4527362689457
 20
776.91053031448064
 11
1340.4527362689457
 21
832.86773031448138
  0
LINE
  8
_0-0_計極細
  6
CONTINUOUS
 62
    2
 10
1338.4935442689473
 20
776.91053031448064
 11
1338.4935442689473
 21
831.70977031448092
  0
ARC
  8
_0-0_計極細
  6
CONTINUOUS
 62
    2
 10
1339.473136268947
 20
776.91053031448064
 40
0.979592
 50
179.99999999999983
 51
269.99999999999977
  0
LINE
  8
_0-0_計極細
  6
CONTINUOUS
 62
    2
 10
1361.0965442689464
 20
802.24261031448077
 11
1355.4638882689467
 21
802.24261031448077
  0
ARC
  8
_0-0_計極細
  6
CONTINUOUS
 62
    2
 10
1355.4638882689467
 20
799.3038343144799
 40
2.9387759999999998
 50
89.999999999999915
 51
179.99999999999983
  0
LINE
  8
_0-0_計極細
  6
CONTINUOUS
 62
    2
 10
1340.4444402689458
 20
776.78340231448055
 11
1340.4444562689475
 21
776.78341031448144
  0
LINE
  8
_0-0_計極細
  6
CENTER1
 62
    2
 10
1289.662941110282
 20
765.53425831448112
 11
1420.0143485176866
 21
765.53425831448112
  0
LINE
  8
_0-1_計細線
  6
CONTINUOUS
 62
    3
 10
1272.534368268947
 20
736.4636263144821
 11
1365.534368268947
 21
736.4636263144821
  0
LINE
  8
_0-1_計細線
  6
CONTINUOUS
 62
    3
 10
1264.534368268947
 20
744.4636263144821
 11
1264.534368268947
 21
825.31290631448246
  0
ARC
  8
_0-1_計細線
  6
CONTINUOUS
 62
    3
 10
1272.534368268947
 20
744.4636263144821
 40
8
 50
179.99999999999983
 51
269.99999999999977
  0
LINE
  8
_0-1_計細線
  6
CONTINUOUS
 62
    3
 10
1365.534368268947
 20
736.4636263144821
 11
1401.0037602689461
 21
738.03425831448112
  0
LINE
  8
_0-0_計極細
  6
CONTINUOUS
 62
    2
 10
1352.5251122689458
 20
792.26984602759694
 11
1401.0037602689461
 21
791.07448347078753
  0
LINE
  8
_0-1_計細線
  6
CONTINUOUS
 62
    3
 10
1401.0037602689461
 20
738.03425831448112
 11
1401.0037602689461
 21
793.03425831448112
  0
LINE
  8
_0-1_計細線
  6
CONTINUOUS
 62
    3
 10
1363.473144268946
 20
793.95967002759789
 11
1401.0037602689461
 21
793.03425831448112
  0
LINE
  8
_0-1_計細線
  6
CONTINUOUS
 62
    3
 10
1363.473144268946
 20
793.95967002759789
 11
1363.473144268946
 21
825.31290631448246
  0
LINE
  8
_0-0_計極細
  6
CONTINUOUS
 62
    2
 10
1363.8621465337799
 20
738.42362631448304
 11
1401.0037602689461
 21
739.99617901848069
  0
LINE
  8
_0-1_計細線
  6
CONTINUOUS
 62
    3
 10
1258.2649842689459
 20
847.18731431448214
 11
1258.2649842689459
 21
850.53425831448044
  0
ARC
  8
_0-e_極細4
  6
CONTINUOUS
 62
    6
 10
343.1784471714459
 20
600.08487019682684
 40
1
 50
179.99999999999983
 51
269.99999999999977
  0
LINE
  8
_0-e_極細4
  6
CONTINUOUS
 62
    6
 10
344.37844717144571
 20
599.08487019682684
 11
344.37844717144571
 21
601.08487019682684
  0
ARC
  8
_0-e_極細4
  6
CONTINUOUS
 62
    6
 10
518.37844717144571
 20
600.08487019682684
 40
1
 50
269.99999999999977
 51
359.99999999999966
  0
LINE
  8
_0-e_極細4
  6
CONTINUOUS
 62
    6
 10
517.1784471714459
 20
599.08487019682684
 11
517.1784471714459
 21
601.08487019682684
  0
LINE
  8
_0-e_極細4
  6
CONTINUOUS
 62
    6
 10
376.77844717144626
 20
453.08639475681929
 11
376.77844717144626
 21
571.03492019682676
  0
ARC
  8
_0-e_極細4
  6
CONTINUOUS
 62
    6
 10
378.77844717144535
 20
453.08639475681929
 40
2
 50
179.99999999999983
 51
270.00045836623457
  0
LINE
  8
_0-e_極細4
  6
CONTINUOUS
 62
    6
 10
378.77844717144535
 20
451.08639475681929
 11
430.77844717144626
 21
451.08639475681929
  0
LINE
  8
_0-e_極細4
  6
CONTINUOUS
 62
    6
 10
352.27844717144626
 20
440.67070875681947
 11
352.27844717144626
 21
494.67070875681958
  0
LINE
  8
_0-e_極細4
  6
CONTINUOUS
 62
    6
 10
376.27844717144626
 20
416.67070875681947
 11
380.77844717144626
 21
416.67070875681947
  0
ARC
  8
_0-e_極細4
  6
CONTINUOUS
 62
    6
 10
376.27844717144626
 20
440.67070875681947
 40
24
 50
179.99999999999983
 51
269.99999999999977
  0
LINE
  8
_0-e_極細4
  6
CONTINUOUS
 62
    6
 10
334.77844717144626
 20
514.51384275681926
 11
334.77844717144626
 21
568.67074219682695
  0
LINE
  8
_0-e_極細4
  6
CONTINUOUS
 62
    6
 10
430.77844717144626
 20
416.67070875681947
 11
428.9163791714459
 21
416.67070875681947
  0
LINE
  8
_0-e_極細4
  6
CONTINUOUS
 62
    6
 10
428.9163791714459
 20
416.67070875681947
 11
376.27844717144626
 21
416.67070875681947
  0
LINE
  8
_0-e_極細4
  6
CONTINUOUS
 62
    6
 10
352.27844717144626
 20
440.67070875681947
 11
352.27844717144626
 21
556.27074219682686
  0
LINE
  8
_0-e_極細4
  6
CONTINUOUS
 62
    6
 10
356.27844717144626
 20
440.67070875681947
 11
356.27844717144626
 21
556.27074219682686
  0
LINE
  8
_0-e_極細4
  6
CONTINUOUS
 62
    6
 10
430.77844717144626
 20
420.67070875681947
 11
376.27844717144626
 21
420.67070875681947
  0
ARC
  8
_0-e_極細4
  6
CONTINUOUS
 62
    6
 10
376.27844717144626
 20
440.67070875681947
 40
20
 50
179.99999999999983
 51
269.99999999999977
  0
LINE
  8
_0-e_極細4
  6
CONTINUOUS
 62
    6
 10
350.27844717144535
 20
585.08642819682677
 11
430.77844717144626
 21
585.08642819682677
  0
LINE
  8
_0-e_極細4
  6
CONTINUOUS
 62
    6
 10
350.27844717144535
 20
576.28642819682705
 11
350.27844717144535
 21
585.08642819682677
  0
LINE
  8
_0-e_極細4
  6
CONTINUOUS
 62
    6
 10
343.77844717144626
 20
585.08642819682677
 11
350.27844717144535
 21
585.08642819682677
  0
LINE
  8
_0-e_極細4
  6
CONTINUOUS
 62
    6
 10
345.77844717144626
 20
576.28642819682705
 11
350.27844717144535
 21
576.28642819682705
  0
LINE
  8
_0-e_極細4
  6
CONTINUOUS
 62
    6
 10
345.77844717144626
 20
574.28642819682705
 11
345.77844717144626
 21
576.28642819682705
  0
ARC
  8
_0-e_極細4
  6
CONTINUOUS
 62
    6
 10
349.77844717144626
 20
574.28642819682705
 40
4
 50
179.99999999999983
 51
269.99999999999977
  0
LINE
  8
_0-e_極細4
  6
CONTINUOUS
 62
    6
 10
349.77844717144626
 20
570.28642819682705
 11
355.77844717144626
 21
570.28642819682705
  0
ARC
  8
_0-e_極細4
  6
CONTINUOUS
 62
    6
 10
330.82044717144572
 20
607.58487019682684
 40
2.1000000000000227
 50
4.1509900000016975
 51
89.999999999999915
  0
LINE
  8
_0-e_極細4
  6
CONTINUOUS
 62
    6
 10
330.82044717144572
 20
579.04287019682693
 11
330.82044717144572
 21
609.68487019682675
  0
LINE
  8
_0-e_極細4
  6
CONTINUOUS
 62
    6
 10
330.82044717144572
 20
609.67074110432509
 11
316.97844717144608
 21
611.64225619682679
  0
LINE
  8
_0-e_極細4
  6
CONTINUOUS
 62
    6
 10
324.77844717144626
 20
564.2707421968264
 11
324.77844717144626
 21
580.27074219682686
  0
ARC
  8
_0-e_極細4
  6
CONTINUOUS
 62
    6
 10
319.77844717144626
 20
555.61048819682696
 40
10
 50
0
 51
60.000000000000107
  0
LINE
  8
_0-e_極細4
  6
CONTINUOUS
 62
    6
 10
316.97844717144608
 20
580.27074219682686
 11
316.97844717144608
 21
581.38122419682691
  0
LINE
  8
_0-e_極細4
  6
CONTINUOUS
 62
    6
 10
324.77844717144626
 20
580.27074219682686
 11
316.97844717144608
 21
580.27074219682686
  0
LINE
  8
_0-e_極細4
  6
CONTINUOUS
 62
    6
 10
316.97844717144608
 20
581.38122419682691
 11
316.97844717144608
 21
613.02789819682698
  0
LINE
  8
_0-e_極細4
  6
CONTINUOUS
 62
    6
 10
333.77844717144626
 20
570.2707421968264
 11
333.77844717144626
 21
576.08487019682639
  0
LINE
  8
_0-e_極細4
  6
CONTINUOUS
 62
    6
 10
330.82044717144572
 20
568.67074219682695
 11
333.77844717144626
 21
570.2707421968264
  0
LINE
  8
_0-e_極細4
  6
CONTINUOUS
 62
    6
 10
316.97844717144608
 20
608.27074219682686
 11
330.82044717144572
 21
606.67074219682695
  0
ARC
  8
_0-e_極細4
  6
CONTINUOUS
 62
    6
 10
354.27844717144626
 20
556.27074219682686
 40
2
 50
89.999999999999915
 51
179.99999999999983
  0
ARC
  8
_0-e_極細4
  6
CONTINUOUS
 62
    6
 10
354.27844717144626
 20
556.27074219682686
 40
2
 50
0
 51
89.999999999999915
  0
LINE
  8
_0-e_極細4
  6
CONTINUOUS
 62
    6
 10
430.77844717144535
 20
611.08487019682684
 11
330.82044717144572
 21
611.08487019682684
  0
LINE
  8
_0-e_極細4
  6
CONTINUOUS
 62
    6
 10
350.27844717144535
 20
584.08487019682684
 11
342.1784471714459
 21
584.08487019682684
  0
LINE
  8
_0-e_極細4
  6
CONTINUOUS
 62
    6
 10
336.2959991714456
 20
606.08487019682684
 11
338.6784471714459
 21
606.08487019682684
  0
LINE
  8
_0-e_極細4
  6
CONTINUOUS
 62
    6
 10
342.1784471714459
 20
581.48487019682693
 11
342.1784471714459
 21
602.58487019682684
  0
LINE
  8
_0-e_極細4
  6
CONTINUOUS
 62
    6
 10
337.77844717144535
 20
606.08487019682684
 11
337.77844717144535
 21
611.08487019682684
  0
ARC
  8
_0-e_極細4
  6
CONTINUOUS
 62
    6
 10
338.6784471714459
 20
602.58487019682684
 40
3.4999999999999987
 50
0
 51
89.999999999999915
  0
ARC
  8
_0-e_極細4
  6
CONTINUOUS
 62
    6
 10
330.82044717144572
 20
607.58487019682684
 40
3.4999999999999987
 50
4.1509899999967477
 51
89.999999999999915
  0
ARC
  8
_0-e_極細4
  6
CONTINUOUS
 62
    6
 10
336.2959991714456
 20
608.08487019682684
 40
2
 50
183.35088799999644
 51
269.99999999999977
  0
ARC
  8
_0-e_極細4
  6
CONTINUOUS
 62
    6
 10
336.2959991714456
 20
608.08487019682684
 40
3.3999999999999773
 50
183.35088800000065
 51
269.99999999999977
  0
LINE
  8
_0-e_極細4
  6
CONTINUOUS
 62
    6
 10
336.2959991714456
 20
604.68487019682675
 11
338.6784471714459
 21
604.68487019682675
  0
ARC
  8
_0-e_極細4
  6
CONTINUOUS
 62
    6
 10
338.6784471714459
 20
602.58487019682684
 40
2.1000000000000227
 50
0
 51
89.999999999999915
  0
LINE
  8
_0-e_極細4
  6
CONTINUOUS
 62
    6
 10
340.77844717144626
 20
580.08487019682684
 11
340.77844717144535
 21
602.58487019682684
  0
LINE
  8
_0-e_極細4
  6
CONTINUOUS
 62
    6
 10
330.82044717144572
 20
579.04287019682693
 11
333.77844717144626
 21
576.08487019682639
  0
LINE
  8
_0-e_極細4
  6
CONTINUOUS
 62
    6
 10
344.77844717144626
 20
572.08487019682684
 11
344.77844717144626
 21
584.08487019682684
  0
LINE
  8
_0-e_極細4
  6
CONTINUOUS
 62
    6
 10
344.77844717144626
 20
580.08487019682684
 11
340.77844717144626
 21
580.08487019682684
  0
LINE
  8
_0-e_極細4
  6
CONTINUOUS
 62
    6
 10
344.77844717144626
 20
581.48487019682693
 11
342.1784471714459
 21
581.48487019682693
  0
LINE
  8
_0-e_極細4
  6
CONTINUOUS
 62
    6
 10
346.43881517144609
 20
572.08487019682684
 11
344.77844717144626
 21
572.08487019682684
  0
LINE
  8
_0-e_極細4
  6
CONTINUOUS
 62
    6
 10
344.77844717144626
 20
576.08487019682639
 11
333.77844717144626
 21
576.08487019682639
  0
LINE
  8
_0-e_極細4
  6
CONTINUOUS
 62
    6
 10
371.20582117144613
 20
572.68487019682675
 11
361.20582117144613
 21
572.68487019682675
  0
LINE
  8
_0-e_極細4
  6
CONTINUOUS
 62
    6
 10
371.20582117144613
 20
572.68487019682675
 11
371.20582117144613
 21
576.08487019682639
  0
LINE
  8
_0-e_極細4
  6
CONTINUOUS
 62
    6
 10
361.20582117144613
 20
572.68487019682675
 11
361.20582117144613
 21
576.08487019682639
  0
LINE
  8
_0-e_極細4
  6
CONTINUOUS
 62
    6
 10
337.87844717144571
 20
606.48487019682693
 11
337.87844717144571
 21
609.08487019682684
  0
LINE
  8
_0-e_極細4
  6
CONTINUOUS
 62
    6
 10
430.77844717144535
 20
610.08487019682684
 11
338.87844717144571
 21
610.08487019682684
  0
LINE
  8
_0-e_極細4
  6
CONTINUOUS
 62
    6
 10
342.1784471714459
 20
606.08487019682684
 11
338.27844717144535
 21
606.08487019682684
  0
LINE
  8
_0-e_極細4
  6
CONTINUOUS
 62
    6
 10
342.1784471714459
 20
600.08487019682684
 11
342.1784471714459
 21
606.08487019682684
  0
ARC
  8
_0-e_極細4
  6
CONTINUOUS
 62
    6
 10
338.87844717144571
 20
609.08487019682684
 40
1
 50
155.94545099999456
 51
179.99999999999983
  0
ARC
  8
_0-e_極細4
  6
CONTINUOUS
 62
    6
 10
338.27844717144535
 20
606.48487019682693
 40
0.3999999999999772
 50
179.99999999999983
 51
269.99999999999977
  0
ARC
  8
_0-e_極細4
  6
CONTINUOUS
 62
    6
 10
338.87844717144571
 20
609.08487019682684
 40
1
 50
89.999999999999915
 51
155.94545099999456
  0
LINE
  8
_0-e_極細4
  6
CONTINUOUS
 62
    6
 10
430.37844717144571
 20
601.08487019682684
 11
344.37844717144571
 21
601.08487019682684
  0
LINE
  8
_0-e_極細4
  6
CONTINUOUS
 62
    6
 10
430.37844717144571
 20
599.08487019682684
 11
343.1784471714459
 21
599.08487019682684
  0
LINE
  8
_0-e_極細4
  6
CONTINUOUS
 62
    6
 10
430.77844717144626
 20
596.89709019682709
 11
342.47844717144608
 21
596.89709019682664
  0
LINE
  8
_0-e_極細4
  6
CONTINUOUS
 62
    6
 10
351.27844717144626
 20
596.89709019682664
 11
351.27844717144626
 21
595.89709019682664
  0
LINE
  8
_0-e_極細4
  6
CONTINUOUS
 62
    6
 10
344.07844717144553
 20
593.89709019682664
 11
342.47844717144608
 21
596.89709019682664
  0
LINE
  8
_0-e_極細4
  6
CONTINUOUS
 62
    6
 10
352.27844717144626
 20
590.29709019682673
 11
351.27844717144626
 21
591.29709019682673
  0
LINE
  8
_0-e_極細4
  6
CONTINUOUS
 62
    6
 10
351.27844717144626
 20
589.29709019682673
 11
352.27844717144626
 21
590.29709019682673
  0
LINE
  8
_0-e_極細4
  6
CONTINUOUS
 62
    6
 10
351.27844717144626
 20
593.89709019682664
 11
352.27844717144626
 21
594.89709019682664
  0
LINE
  8
_0-e_極細4
  6
CONTINUOUS
 62
    6
 10
352.27844717144626
 20
594.89709019682664
 11
351.27844717144626
 21
595.89709019682664
  0
LINE
  8
_0-e_極細4
  6
CONTINUOUS
 62
    6
 10
430.77844717144626
 20
594.89709019682709
 11
352.27844717144626
 21
594.89709019682664
  0
LINE
  8
_0-e_極細4
  6
CONTINUOUS
 62
    6
 10
430.77844717144626
 20
590.29709019682673
 11
352.27844717144626
 21
590.29709019682673
  0
LINE
  8
_0-e_極細4
  6
CONTINUOUS
 62
    6
 10
430.77844717144626
 20
588.29709019682673
 11
344.07844717144553
 21
588.29709019682673
  0
LINE
  8
_0-e_極細4
  6
CONTINUOUS
 62
    6
 10
344.07844717144553
 20
593.89709019682664
 11
344.07844717144553
 21
588.29709019682673
  0
LINE
  8
_0-e_極細4
  6
CONTINUOUS
 62
    6
 10
351.27844717144626
 20
589.29709019682673
 11
351.27844717144626
 21
588.29709019682673
  0
LINE
  8
_0-e_極細4
  6
CONTINUOUS
 62
    6
 10
351.27844717144626
 20
593.89709019682664
 11
351.27844717144626
 21
591.29709019682673
  0
LINE
  8
_0-e_極細4
  6
CONTINUOUS
 62
    6
 10
343.77844717144626
 20
585.08642819682677
 11
343.77844717144626
 21
588.08642819682677
  0
LINE
  8
_0-e_極細4
  6
CONTINUOUS
 62
    6
 10
343.77844717144626
 20
588.08642819682677
 11
430.77844717144626
 21
588.08642819682677
  0
LINE
  8
_0-e_極細4
  6
CONTINUOUS
 62
    6
 10
343.77844717144626
 20
597.28642819682705
 11
430.77844717144626
 21
597.28642819682705
  0
LINE
  8
_0-e_極細4
  6
CONTINUOUS
 62
    6
 10
343.77844717144626
 20
597.28642819682705
 11
343.77844717144626
 21
599.08487019682684
  0
LINE
  8
_0-e_極細4
  6
CONTINUOUS
 62
    6
 10
376.77844717144626
 20
570.2707421968264
 11
333.77844717144626
 21
570.2707421968264
  0
LINE
  8
_0-e_極細4
  6
CONTINUOUS
 62
    6
 10
376.77844717144626
 20
568.07941419682697
 11
376.77844717144626
 21
571.03492019682676
  0
LINE
  8
_0-e_極細4
  6
CONTINUOUS
 62
    6
 10
330.82044717144572
 20
611.08487019682684
 11
316.97844717144608
 21
613.05638422616744
  0
LINE
  8
_0-e_極細4
  6
CONTINUOUS
 62
    6
 10
354.27844717144626
 20
558.2707421968264
 11
376.77844717144626
 21
558.2707421968264
  0
LINE
  8
_0-e_極細4
  6
CONTINUOUS
 62
    6
 10
376.77844717144626
 20
568.67074219682695
 11
330.82044717144572
 21
568.67074219682695
  0
LINE
  8
_0-e_極細4
  6
CONTINUOUS
 62
    6
 10
316.97844717144608
 20
611.67074219682695
 11
316.97844717144608
 21
613.05638422616744
  0
LINE
  8
_0-e_極細4
  6
CONTINUOUS
 62
    6
 10
525.02844717901417
 20
512.52952927447427
 11
509.27844717144535
 21
512.52952927447427
  0
LINE
  8
_0-e_極細4
  6
CONTINUOUS
 62
    6
 10
484.77844717144535
 20
453.08639475681929
 11
484.77844717144535
 21
571.03492019682676
  0
ARC
  8
_0-e_極細4
  6
CONTINUOUS
 62
    6
 10
482.77844717144535
 20
453.08639475681929
 40
2
 50
269.99954163376469
 51
359.99999999999966
  0
LINE
  8
_0-e_極細4
  6
CONTINUOUS
 62
    6
 10
482.77844717144535
 20
451.08639475681929
 11
430.77844717144535
 21
451.08639475681929
  0
LINE
  8
_0-e_極細4
  6
CONTINUOUS
 62
    6
 10
509.27844717144535
 20
440.67070875681947
 11
509.27844717144535
 21
494.67070875681958
  0
LINE
  8
_0-e_極細4
  6
CONTINUOUS
 62
    6
 10
485.27844717144535
 20
416.67070875681947
 11
480.77844717144535
 21
416.67070875681947
  0
ARC
  8
_0-e_極細4
  6
CONTINUOUS
 62
    6
 10
485.27844717144535
 20
440.67070875681947
 40
24
 50
269.99999999999977
 51
359.99999999999966
  0
LINE
  8
_0-e_極細4
  6
CONTINUOUS
 62
    6
 10
430.77844717144535
 20
416.67070875681947
 11
432.64051517144571
 21
416.67070875681947
  0
LINE
  8
_0-e_極細4
  6
CONTINUOUS
 62
    6
 10
432.64051517144571
 20
416.67070875681947
 11
485.27844717144535
 21
416.67070875681947
  0
LINE
  8
_0-e_極細4
  6
CONTINUOUS
 62
    6
 10
509.27844717144535
 20
440.67070875681947
 11
509.27844717144535
 21
556.27074219682686
  0
LINE
  8
_0-e_極細4
  6
CONTINUOUS
 62
    6
 10
505.27844717144626
 20
440.67070875681947
 11
505.27844717144626
 21
556.27074219682686
  0
LINE
  8
_0-e_極細4
  6
CONTINUOUS
 62
    6
 10
430.77844717144535
 20
420.67070875681947
 11
485.27844717144535
 21
420.67070875681947
  0
ARC
  8
_0-e_極細4
  6
CONTINUOUS
 62
    6
 10
485.27844717144535
 20
440.67070875681947
 40
20
 50
269.99999999999977
 51
359.99999999999966
  0
LINE
  8
_0-e_極細4
  6
CONTINUOUS
 62
    6
 10
511.27844717144626
 20
585.08642819682677
 11
430.77844717144535
 21
585.08642819682677
  0
LINE
  8
_0-e_極細4
  6
CONTINUOUS
 62
    6
 10
511.27844717144626
 20
576.28642819682705
 11
511.27844717144626
 21
585.08642819682677
  0
LINE
  8
_0-e_極細4
  6
CONTINUOUS
 62
    6
 10
517.77844717144626
 20
585.08642819682677
 11
511.27844717144626
 21
585.08642819682677
  0
LINE
  8
_0-e_極細4
  6
CONTINUOUS
 62
    6
 10
515.77844717144626
 20
576.28642819682705
 11
511.27844717144626
 21
576.28642819682705
  0
LINE
  8
_0-e_極細4
  6
CONTINUOUS
 62
    6
 10
515.77844717144626
 20
574.28642819682705
 11
515.77844717144626
 21
576.28642819682705
  0
ARC
  8
_0-e_極細4
  6
CONTINUOUS
 62
    6
 10
511.77844717144626
 20
574.28642819682705
 40
4
 50
269.99999999999977
 51
359.99999999999966
  0
LINE
  8
_0-e_極細4
  6
CONTINUOUS
 62
    6
 10
511.77844717144626
 20
570.28642819682705
 11
505.77844717144626
 21
570.28642819682705
  0
ARC
  8
_0-e_極細4
  6
CONTINUOUS
 62
    6
 10
530.73644717144589
 20
607.58487019682684
 40
2.1000000000000227
 50
89.999999999999915
 51
175.84900999999832
  0
LINE
  8
_0-e_極細4
  6
CONTINUOUS
 62
    6
 10
530.73644717144589
 20
579.04287019682693
 11
530.73644717144589
 21
609.68487019682675
  0
LINE
  8
_0-e_極細4
  6
CONTINUOUS
 62
    6
 10
530.73644717144589
 20
609.67074110432509
 11
544.57844717144553
 21
611.64225619682679
  0
LINE
  8
_0-e_極細4
  6
CONTINUOUS
 62
    6
 10
536.77844717144535
 20
564.2707421968264
 11
536.77844717144535
 21
580.27074219682686
  0
ARC
  8
_0-e_極細4
  6
CONTINUOUS
 62
    6
 10
541.77844717144535
 20
555.61048819682696
 40
10
 50
119.99999999999989
 51
179.99999999999983
  0
LINE
  8
_0-e_極細4
  6
CONTINUOUS
 62
    6
 10
544.57844717144553
 20
580.27074219682686
 11
544.57844717144553
 21
581.38122419682691
  0
LINE
  8
_0-e_極細4
  6
CONTINUOUS
 62
    6
 10
536.77844717144535
 20
580.27074219682686
 11
544.57844717144553
 21
580.27074219682686
  0
LINE
  8
_0-e_極細4
  6
CONTINUOUS
 62
    6
 10
544.57844717144553
 20
581.38122419682691
 11
544.57844717144553
 21
613.02789819682698
  0
LINE
  8
_0-e_極細4
  6
CONTINUOUS
 62
    6
 10
527.77844717144626
 20
570.2707421968264
 11
527.77844717144626
 21
576.08487019682639
  0
LINE
  8
_0-e_極細4
  6
CONTINUOUS
 62
    6
 10
530.73644717144498
 20
568.67074219682695
 11
527.77844717144626
 21
570.2707421968264
  0
LINE
  8
_0-e_極細4
  6
CONTINUOUS
 62
    6
 10
544.57844717144553
 20
608.27074219682686
 11
530.73644717144589
 21
606.67074219682695
  0
ARC
  8
_0-e_極細4
  6
CONTINUOUS
 62
    6
 10
507.27844717144626
 20
556.27074219682686
 40
2
 50
0
 51
89.999999999999915
  0
ARC
  8
_0-e_極細4
  6
CONTINUOUS
 62
    6
 10
507.27844717144626
 20
556.27074219682686
 40
2
 50
89.999999999999915
 51
179.99999999999983
  0
LINE
  8
_0-e_極細4
  6
CONTINUOUS
 62
    6
 10
430.77844717144535
 20
611.08487019682684
 11
530.73644717144589
 21
611.08487019682684
  0
LINE
  8
_0-e_極細4
  6
CONTINUOUS
 62
    6
 10
511.27844717144626
 20
584.08487019682684
 11
519.37844717144571
 21
584.08487019682684
  0
LINE
  8
_0-e_極細4
  6
CONTINUOUS
 62
    6
 10
525.26089517144601
 20
606.08487019682684
 11
522.87844717144571
 21
606.08487019682684
  0
LINE
  8
_0-e_極細4
  6
CONTINUOUS
 62
    6
 10
519.37844717144571
 20
581.48487019682693
 11
519.37844717144571
 21
602.58487019682684
  0
LINE
  8
_0-e_極細4
  6
CONTINUOUS
 62
    6
 10
523.77844717144626
 20
606.08487019682684
 11
523.77844717144626
 21
611.08487019682684
  0
ARC
  8
_0-e_極細4
  6
CONTINUOUS
 62
    6
 10
522.87844717144571
 20
602.58487019682684
 40
3.4999999999999987
 50
89.999999999999915
 51
179.99999999999983
  0
ARC
  8
_0-e_極細4
  6
CONTINUOUS
 62
    6
 10
530.73644717144589
 20
607.58487019682684
 40
3.4999999999999987
 50
89.999999999999915
 51
175.84901000000218
  0
ARC
  8
_0-e_極細4
  6
CONTINUOUS
 62
    6
 10
525.26089517144601
 20
608.08487019682684
 40
2
 50
269.99999999999977
 51
356.64911200000284
  0
ARC
  8
_0-e_極細4
  6
CONTINUOUS
 62
    6
 10
525.26089517144601
 20
608.08487019682684
 40
3.3999999999999773
 50
269.99999999999977
 51
356.64911199999864
  0
LINE
  8
_0-e_極細4
  6
CONTINUOUS
 62
    6
 10
525.26089517144601
 20
604.68487019682675
 11
522.87844717144571
 21
604.68487019682675
  0
ARC
  8
_0-e_極細4
  6
CONTINUOUS
 62
    6
 10
522.87844717144571
 20
602.58487019682684
 40
2.1000000000000227
 50
89.999999999999915
 51
179.99999999999983
  0
LINE
  8
_0-e_極細4
  6
CONTINUOUS
 62
    6
 10
520.77844717144626
 20
580.08487019682684
 11
520.77844717144626
 21
602.58487019682684
  0
LINE
  8
_0-e_極細4
  6
CONTINUOUS
 62
    6
 10
530.73644717144589
 20
579.04287019682693
 11
527.77844717144626
 21
576.08487019682639
  0
LINE
  8
_0-e_極細4
  6
CONTINUOUS
 62
    6
 10
516.77844717144535
 20
572.08487019682684
 11
516.77844717144535
 21
584.08487019682684
  0
LINE
  8
_0-e_極細4
  6
CONTINUOUS
 62
    6
 10
516.77844717144535
 20
580.08487019682684
 11
520.77844717144626
 21
580.08487019682684
  0
LINE
  8
_0-e_極細4
  6
CONTINUOUS
 62
    6
 10
516.77844717144535
 20
581.48487019682693
 11
519.37844717144571
 21
581.48487019682693
  0
LINE
  8
_0-e_極細4
  6
CONTINUOUS
 62
    6
 10
515.11807917144552
 20
572.08487019682684
 11
516.77844717144535
 21
572.08487019682684
  0
LINE
  8
_0-e_極細4
  6
CONTINUOUS
 62
    6
 10
516.77844717144535
 20
576.08487019682639
 11
527.77844717144626
 21
576.08487019682639
  0
LINE
  8
_0-e_極細4
  6
CONTINUOUS
 62
    6
 10
490.35107317144548
 20
572.68487019682675
 11
500.35107317144548
 21
572.68487019682675
  0
LINE
  8
_0-e_極細4
  6
CONTINUOUS
 62
    6
 10
490.35107317144548
 20
572.68487019682675
 11
490.35107317144548
 21
576.08487019682639
  0
LINE
  8
_0-e_極細4
  6
CONTINUOUS
 62
    6
 10
500.35107317144548
 20
572.68487019682675
 11
500.35107317144548
 21
576.08487019682639
  0
LINE
  8
_0-e_極細4
  6
CONTINUOUS
 62
    6
 10
523.6784471714459
 20
606.48487019682693
 11
523.6784471714459
 21
609.08487019682684
  0
LINE
  8
_0-e_極細4
  6
CONTINUOUS
 62
    6
 10
430.77844717144535
 20
610.08487019682684
 11
522.6784471714459
 21
610.08487019682684
  0
LINE
  8
_0-e_極細4
  6
CONTINUOUS
 62
    6
 10
519.37844717144571
 20
606.08487019682684
 11
523.27844717144626
 21
606.08487019682684
  0
LINE
  8
_0-e_極細4
  6
CONTINUOUS
 62
    6
 10
519.37844717144571
 20
600.08487019682684
 11
519.37844717144571
 21
606.08487019682684
  0
ARC
  8
_0-e_極細4
  6
CONTINUOUS
 62
    6
 10
522.6784471714459
 20
609.08487019682684
 40
1
 50
0
 51
24.05454900000543
  0
ARC
  8
_0-e_極細4
  6
CONTINUOUS
 62
    6
 10
523.27844717144626
 20
606.48487019682693
 40
0.3999999999999772
 50
269.99999999999977
 51
359.99999999999966
  0
ARC
  8
_0-e_極細4
  6
CONTINUOUS
 62
    6
 10
522.6784471714459
 20
609.08487019682684
 40
1
 50
24.05454900000543
 51
89.999999999999901
  0
LINE
  8
_0-e_極細4
  6
CONTINUOUS
 62
    6
 10
431.1784471714459
 20
601.08487019682684
 11
517.1784471714459
 21
601.08487019682684
  0
LINE
  8
_0-e_極細4
  6
CONTINUOUS
 62
    6
 10
431.1784471714459
 20
599.08487019682684
 11
518.37844717144571
 21
599.08487019682684
  0
LINE
  8
_0-e_極細4
  6
CONTINUOUS
 62
    6
 10
430.77844717144535
 20
596.89709019682709
 11
519.07844717144553
 21
596.89709019682664
  0
LINE
  8
_0-e_極細4
  6
CONTINUOUS
 62
    6
 10
510.27844717144626
 20
596.89709019682664
 11
510.27844717144626
 21
595.89709019682664
  0
LINE
  8
_0-e_極細4
  6
CONTINUOUS
 62
    6
 10
517.47844717144608
 20
593.89709019682664
 11
519.07844717144553
 21
596.89709019682664
  0
LINE
  8
_0-e_極細4
  6
CONTINUOUS
 62
    6
 10
509.27844717144535
 20
590.29709019682673
 11
510.27844717144626
 21
591.29709019682673
  0
LINE
  8
_0-e_極細4
  6
CONTINUOUS
 62
    6
 10
510.27844717144626
 20
589.29709019682673
 11
509.27844717144535
 21
590.29709019682673
  0
LINE
  8
_0-e_極細4
  6
CONTINUOUS
 62
    6
 10
510.27844717144626
 20
593.89709019682664
 11
509.27844717144535
 21
594.89709019682664
  0
LINE
  8
_0-e_極細4
  6
CONTINUOUS
 62
    6
 10
509.27844717144535
 20
594.89709019682664
 11
510.27844717144626
 21
595.89709019682664
  0
LINE
  8
_0-e_極細4
  6
CONTINUOUS
 62
    6
 10
430.77844717144535
 20
594.89709019682709
 11
509.27844717144535
 21
594.89709019682664
  0
LINE
  8
_0-e_極細4
  6
CONTINUOUS
 62
    6
 10
430.77844717144535
 20
590.29709019682673
 11
509.27844717144535
 21
590.29709019682673
  0
LINE
  8
_0-e_極細4
  6
CONTINUOUS
 62
    6
 10
430.77844717144535
 20
588.29709019682673
 11
517.47844717144608
 21
588.29709019682673
  0
LINE
  8
_0-e_極細4
  6
CONTINUOUS
 62
    6
 10
517.47844717144608
 20
593.89709019682664
 11
517.47844717144608
 21
588.29709019682673
  0
LINE
  8
_0-e_極細4
  6
CONTINUOUS
 62
    6
 10
510.27844717144626
 20
589.29709019682673
 11
510.27844717144626
 21
588.29709019682673
  0
LINE
  8
_0-e_極細4
  6
CONTINUOUS
 62
    6
 10
510.27844717144626
 20
593.89709019682664
 11
510.27844717144626
 21
591.29709019682673
  0
LINE
  8
_0-e_極細4
  6
CONTINUOUS
 62
    6
 10
517.77844717144626
 20
585.08642819682677
 11
517.77844717144626
 21
588.08642819682677
  0
LINE
  8
_0-e_極細4
  6
CONTINUOUS
 62
    6
 10
517.77844717144626
 20
588.08642819682677
 11
430.77844717144535
 21
588.08642819682677
  0
LINE
  8
_0-e_極細4
  6
CONTINUOUS
 62
    6
 10
517.77844717144626
 20
597.28642819682705
 11
430.77844717144535
 21
597.28642819682705
  0
LINE
  8
_0-e_極細4
  6
CONTINUOUS
 62
    6
 10
517.77844717144626
 20
597.28642819682705
 11
517.77844717144626
 21
599.08487019682684
  0
LINE
  8
_0-e_極細4
  6
CONTINUOUS
 62
    6
 10
484.77844717144535
 20
570.2707421968264
 11
527.77844717144626
 21
570.2707421968264
  0
LINE
  8
_0-e_極細4
  6
CONTINUOUS
 62
    6
 10
484.77844717144535
 20
568.07941419682697
 11
484.77844717144535
 21
571.03492019682676
  0
LINE
  8
_0-e_極細4
  6
CONTINUOUS
 62
    6
 10
530.73644717144589
 20
611.08487019682684
 11
544.57844717144553
 21
613.05638422616744
  0
LINE
  8
_0-e_極細4
  6
CONTINUOUS
 62
    6
 10
507.27844717144626
 20
558.2707421968264
 11
484.77844717144535
 21
558.2707421968264
  0
LINE
  8
_0-e_極細4
  6
CONTINUOUS
 62
    6
 10
484.77844717144535
 20
568.67074219682695
 11
530.73644717144498
 21
568.67074219682695
  0
LINE
  8
_0-e_極細4
  6
CONTINUOUS
 62
    6
 10
544.57844717144553
 20
611.67074219682695
 11
544.57844717144553
 21
613.05638422616744
  0
LINE
  8
_0-e_極細4
  6
CONTINUOUS
 62
    6
 10
316.97844717144608
 20
613.05638422616744
 11
544.57844717144553
 21
613.05638422616744
  0
LINE
  8
_0-e_極細4
  6
CONTINUOUS
 62
    6
 10
530.73644717144589
 20
607.15180431263411
 11
534.89823580082384
 21
607.15180431263411
  0
LINE
  8
_0-e_極細4
  6
CONTINUOUS
 62
    6
 10
530.73644717144589
 20
608.35180431263439
 11
544.57844717144553
 21
608.35180431263439
  0
LINE
  8
_0-e_極細4
  6
CONTINUOUS
 62
    6
 10
530.73644717144589
 20
609.5518043126342
 11
544.57844717144553
 21
609.5518043126342
  0
LINE
  8
_0-e_極細4
  6
CONTINUOUS
 62
    6
 10
538.32658786391539
 20
610.75180431263402
 11
544.57844717144553
 21
610.75180431263402
  0
LINE
  8
_0-e_極細4
  6
CONTINUOUS
 62
    6
 10
326.65865854206777
 20
607.15180431263411
 11
330.82044717144572
 21
607.15180431263411
  0
LINE
  8
_0-e_極細4
  6
CONTINUOUS
 62
    6
 10
316.97844717144608
 20
608.35180431263439
 11
330.82044717144572
 21
608.35180431263439
  0
LINE
  8
_0-e_極細4
  6
CONTINUOUS
 62
    6
 10
316.97844717144608
 20
609.5518043126342
 11
330.82044717144572
 21
609.5518043126342
  0
LINE
  8
_0-e_極細4
  6
CONTINUOUS
 62
    6
 10
316.97844717144608
 20
610.75180431263402
 11
323.23030647897622
 21
610.75180431263402
  0
ARC
  8
_0-e_極細4
  6
CONTINUOUS
 62
    6
 10
496.77844717144626
 20
571.03492019682676
 40
12
 50
155.11305268293316
 51
179.99999999999983
  0
ARC
  8
_0-e_極細4
  6
CONTINUOUS
 62
    6
 10
496.77844717144626
 20
571.03492019682676
 40
12
 50
55.166292356156568
 51
155.11305268293316
  0
ARC
  8
_0-e_極細4
  6
CONTINUOUS
 62
    6
 10
499.77844717144626
 20
576.28642819682705
 40
6
 50
358.07490068719875
 51
50.029499419963869
  0
LINE
  8
_0-e_極細4
  6
CONTINUOUS
 62
    6
 10
485.89276827679214
 20
576.08487019682639
 11
505.77844717144626
 21
576.08487019682639
  0
LINE
  8
_0-e_極細4
  6
CONTINUOUS
 62
    6
 10
505.77844717144626
 20
570.28642819682705
 11
505.77844717144626
 21
576.08487019682639
  0
LINE
  8
_0-e_極細4
  6
CONTINUOUS
 62
    6
 10
504.60009671211583
 20
576.08487019682639
 11
504.60009671211583
 21
579.85737984967204
  0
LINE
  8
_0-e_極細4
  6
CONTINUOUS
 62
    6
 10
503.4000967121151
 20
576.08487019682639
 11
503.4000967121151
 21
581.04260511195821
  0
LINE
  8
_0-e_極細4
  6
CONTINUOUS
 62
    6
 10
502.20009671211528
 20
576.08487019682639
 11
502.20009671211528
 21
581.74032613299528
  0
LINE
  8
_0-e_極細4
  6
CONTINUOUS
 62
    6
 10
501.00009671211637
 20
576.08487019682639
 11
501.00009671211637
 21
582.26780384955669
  0
LINE
  8
_0-e_極細4
  6
CONTINUOUS
 62
    6
 10
499.80009671211565
 20
576.08487019682639
 11
499.80009671211565
 21
582.64825882331002
  0
LINE
  8
_0-e_極細4
  6
CONTINUOUS
 62
    6
 10
498.60009671211492
 20
576.08487019682639
 11
498.60009671211492
 21
582.89584735076301
  0
LINE
  8
_0-e_極細4
  6
CONTINUOUS
 62
    6
 10
497.4000967121151
 20
576.08487019682639
 11
497.4000967121151
 21
583.01880737288889
  0
LINE
  8
_0-e_極細4
  6
CONTINUOUS
 62
    6
 10
496.20009671211528
 20
576.08487019682639
 11
496.20009671211528
 21
583.02097504177868
  0
LINE
  8
_0-e_極細4
  6
CONTINUOUS
 62
    6
 10
495.00009671211546
 20
576.08487019682639
 11
495.00009671211546
 21
582.90241654794477
  0
LINE
  8
_0-e_極細4
  6
CONTINUOUS
 62
    6
 10
493.80009671211565
 20
576.08487019682639
 11
493.80009671211565
 21
582.65943861874052
  0
LINE
  8
_0-e_極細4
  6
CONTINUOUS
 62
    6
 10
492.60009671211492
 20
576.08487019682639
 11
492.60009671211492
 21
582.28398182164779
  0
LINE
  8
_0-e_極細4
  6
CONTINUOUS
 62
    6
 10
491.4000967121151
 20
576.08487019682639
 11
491.4000967121151
 21
581.76214473706182
  0
LINE
  8
_0-e_極細4
  6
CONTINUOUS
 62
    6
 10
490.20009671211528
 20
576.08487019682639
 11
490.20009671211528
 21
581.07111993747708
  0
LINE
  8
_0-e_極細4
  6
CONTINUOUS
 62
    6
 10
489.00009671211455
 20
576.08487019682639
 11
489.00009671211455
 21
580.1726039368034
  0
LINE
  8
_0-e_極細4
  6
CONTINUOUS
 62
    6
 10
487.80009671211565
 20
576.08487019682639
 11
487.80009671211565
 21
578.99665512267279
  0
LINE
  8
_0-e_極細4
  6
CONTINUOUS
 62
    6
 10
486.60009671211492
 20
576.08487019682639
 11
486.60009671211492
 21
577.3911126047899
  0
ARC
  8
_0-e_極細4
  6
CONTINUOUS
 62
    6
 10
361.77844717144626
 20
576.28642819682705
 40
6
 50
129.97050058004243
 51
181.92509931280023
  0
LINE
  8
_0-e_極細4
  6
CONTINUOUS
 62
    6
 10
355.77844717144626
 20
570.28642819682705
 11
355.77844717144626
 21
576.08487019682639
  0
ARC
  8
_0-e_極細4
  6
CONTINUOUS
 62
    6
 10
364.77844717144626
 20
571.03492019682676
 40
12
 50
24.886947317068667
 51
124.83370764384701
  0
LINE
  8
_0-e_極細4
  6
CONTINUOUS
 62
    6
 10
375.66412606609947
 20
576.08487019682639
 11
355.77844717144626
 21
576.08487019682639
  0
ARC
  8
_0-e_極細4
  6
CONTINUOUS
 62
    6
 10
364.77844717144626
 20
571.03492019682676
 40
12
 50
0
 51
24.886947317068667
  0
LINE
  8
_0-e_極細4
  6
CONTINUOUS
 62
    6
 10
375.00009671211546
 20
576.08487019682639
 11
375.00009671211546
 21
577.32124509041364
  0
LINE
  8
_0-e_極細4
  6
CONTINUOUS
 62
    6
 10
373.80009671211565
 20
576.08487019682639
 11
373.80009671211565
 21
578.94755816183829
  0
LINE
  8
_0-e_極細4
  6
CONTINUOUS
 62
    6
 10
372.60009671211583
 20
576.08487019682639
 11
372.60009671211583
 21
580.1355684409325
  0
LINE
  8
_0-e_極細4
  6
CONTINUOUS
 62
    6
 10
371.4000967121151
 20
576.08487019682639
 11
371.4000967121151
 21
581.04260511195866
  0
LINE
  8
_0-e_極細4
  6
CONTINUOUS
 62
    6
 10
370.20009671211528
 20
576.08487019682639
 11
370.20009671211528
 21
581.74032613299573
  0
LINE
  8
_0-e_極細4
  6
CONTINUOUS
 62
    6
 10
369.00009671211546
 20
576.08487019682639
 11
369.00009671211546
 21
582.26780384955669
  0
LINE
  8
_0-e_極細4
  6
CONTINUOUS
 62
    6
 10
367.80009671211565
 20
576.08487019682639
 11
367.80009671211565
 21
582.64825882331047
  0
LINE
  8
_0-e_極細4
  6
CONTINUOUS
 62
    6
 10
366.60009671211492
 20
576.08487019682639
 11
366.60009671211492
 21
582.89584735076301
  0
LINE
  8
_0-e_極細4
  6
CONTINUOUS
 62
    6
 10
365.4000967121151
 20
576.08487019682639
 11
365.4000967121151
 21
583.01880737288889
  0
LINE
  8
_0-e_極細4
  6
CONTINUOUS
 62
    6
 10
364.20009671211528
 20
576.08487019682639
 11
364.20009671211528
 21
583.02097504177868
  0
LINE
  8
_0-e_極細4
  6
CONTINUOUS
 62
    6
 10
363.00009671211546
 20
576.08487019682639
 11
363.00009671211546
 21
582.90241654794477
  0
LINE
  8
_0-e_極細4
  6
CONTINUOUS
 62
    6
 10
361.80009671211474
 20
576.08487019682639
 11
361.80009671211474
 21
582.65943861874007
  0
LINE
  8
_0-e_極細4
  6
CONTINUOUS
 62
    6
 10
360.60009671211492
 20
576.08487019682639
 11
360.60009671211492
 21
582.28398182164733
  0
LINE
  8
_0-e_極細4
  6
CONTINUOUS
 62
    6
 10
359.4000967121151
 20
576.08487019682639
 11
359.4000967121151
 21
581.76214473706182
  0
LINE
  8
_0-e_極細4
  6
CONTINUOUS
 62
    6
 10
358.20009671211528
 20
576.08487019682639
 11
358.20009671211528
 21
581.07111993747662
  0
LINE
  8
_0-e_極細4
  6
CONTINUOUS
 62
    6
 10
357.00009671211455
 20
576.08487019682639
 11
357.00009671211455
 21
579.91511485839078
  0
LINE
  8
_0-e_極細4
  6
CONTINUOUS
 62
    6
 10
355.80009671211474
 20
576.08487019682639
 11
355.80009671211474
 21
576.79566859724196
  0
LINE
  8
_0-e_極細4
  6
CONTINUOUS
 62
    6
 10
499.80009671211565
 20
572.68487019682675
 11
499.80009671211565
 21
576.08487019682639
  0
LINE
  8
_0-e_極細4
  6
CONTINUOUS
 62
    6
 10
498.60009671211583
 20
572.68487019682675
 11
498.60009671211583
 21
576.08487019682639
  0
LINE
  8
_0-e_極細4
  6
CONTINUOUS
 62
    6
 10
497.4000967121151
 20
572.68487019682675
 11
497.4000967121151
 21
576.08487019682639
  0
LINE
  8
_0-e_極細4
  6
CONTINUOUS
 62
    6
 10
496.20009671211528
 20
572.68487019682675
 11
496.20009671211528
 21
576.08487019682639
  0
LINE
  8
_0-e_極細4
  6
CONTINUOUS
 62
    6
 10
495.00009671211637
 20
572.68487019682675
 11
495.00009671211637
 21
576.08487019682639
  0
LINE
  8
_0-e_極細4
  6
CONTINUOUS
 62
    6
 10
493.80009671211565
 20
572.68487019682675
 11
493.80009671211565
 21
576.08487019682639
  0
LINE
  8
_0-e_極細4
  6
CONTINUOUS
 62
    6
 10
492.60009671211492
 20
572.68487019682675
 11
492.60009671211492
 21
576.08487019682639
  0
LINE
  8
_0-e_極細4
  6
CONTINUOUS
 62
    6
 10
491.4000967121151
 20
572.68487019682675
 11
491.4000967121151
 21
576.08487019682639
  0
LINE
  8
_0-e_極細4
  6
CONTINUOUS
 62
    6
 10
370.20009671211528
 20
572.68487019682675
 11
370.20009671211528
 21
576.08487019682639
  0
LINE
  8
_0-e_極細4
  6
CONTINUOUS
 62
    6
 10
369.00009671211546
 20
572.68487019682675
 11
369.00009671211546
 21
576.08487019682639
  0
LINE
  8
_0-e_極細4
  6
CONTINUOUS
 62
    6
 10
367.80009671211565
 20
572.68487019682675
 11
367.80009671211565
 21
576.08487019682639
  0
LINE
  8
_0-e_極細4
  6
CONTINUOUS
 62
    6
 10
366.60009671211583
 20
572.68487019682675
 11
366.60009671211583
 21
576.08487019682639
  0
LINE
  8
_0-e_極細4
  6
CONTINUOUS
 62
    6
 10
365.4000967121151
 20
572.68487019682675
 11
365.4000967121151
 21
576.08487019682639
  0
LINE
  8
_0-e_極細4
  6
CONTINUOUS
 62
    6
 10
364.20009671211528
 20
572.68487019682675
 11
364.20009671211528
 21
576.08487019682639
  0
LINE
  8
_0-e_極細4
  6
CONTINUOUS
 62
    6
 10
363.00009671211546
 20
572.68487019682675
 11
363.00009671211546
 21
576.08487019682639
  0
LINE
  8
_0-e_極細4
  6
CONTINUOUS
 62
    6
 10
361.80009671211565
 20
572.68487019682675
 11
361.80009671211565
 21
576.08487019682639
  0
LINE
  8
_0-e_極細4
  6
CONTINUOUS
 62
    6
 10
349.80009671211565
 20
576.28642819682705
 11
349.80009671211565
 21
584.08487019682684
  0
LINE
  8
_0-e_極細4
  6
CONTINUOUS
 62
    6
 10
348.60009671211583
 20
576.28642819682705
 11
348.60009671211583
 21
584.08487019682684
  0
LINE
  8
_0-e_極細4
  6
CONTINUOUS
 62
    6
 10
347.4000967121151
 20
576.28642819682705
 11
347.4000967121151
 21
584.08487019682684
  0
LINE
  8
_0-e_極細4
  6
CONTINUOUS
 62
    6
 10
346.20009671211528
 20
572.08487019682684
 11
346.20009671211528
 21
572.49885778137218
  0
LINE
  8
_0-e_極細4
  6
CONTINUOUS
 62
    6
 10
346.20009671211528
 20
576.28642819682705
 11
346.20009671211528
 21
584.08487019682684
  0
LINE
  8
_0-e_極細4
  6
CONTINUOUS
 62
    6
 10
345.00009671211546
 20
572.08487019682684
 11
345.00009671211546
 21
584.08487019682684
  0
LINE
  8
_0-e_極細4
  6
CONTINUOUS
 62
    6
 10
516.60009671211583
 20
572.08487019682684
 11
516.60009671211583
 21
584.08487019682684
  0
LINE
  8
_0-e_極細4
  6
CONTINUOUS
 62
    6
 10
515.4000967121151
 20
572.08487019682684
 11
515.4000967121151
 21
572.58829551515441
  0
LINE
  8
_0-e_極細4
  6
CONTINUOUS
 62
    6
 10
515.4000967121151
 20
576.28642819682705
 11
515.4000967121151
 21
584.08487019682684
  0
LINE
  8
_0-e_極細4
  6
CONTINUOUS
 62
    6
 10
514.20009671211528
 20
576.28642819682705
 11
514.20009671211528
 21
584.08487019682684
  0
LINE
  8
_0-e_極細4
  6
CONTINUOUS
 62
    6
 10
513.00009671211637
 20
576.28642819682705
 11
513.00009671211637
 21
584.08487019682684
  0
LINE
  8
_0-e_極細4
  6
CONTINUOUS
 62
    6
 10
511.80009671211565
 20
576.28642819682705
 11
511.80009671211565
 21
584.08487019682684
  0
LINE
  8
_0-e_極細4
  6
CONTINUOUS
 62
    6
 10
529.80009671211565
 20
578.10651973749668
 11
529.80009671211565
 21
609.46456374028344
  0
LINE
  8
_0-e_極細4
  6
CONTINUOUS
 62
    6
 10
528.60009671211583
 20
576.90651973749686
 11
528.60009671211583
 21
607.44476624371578
  0
LINE
  8
_0-e_極細4
  6
CONTINUOUS
 62
    6
 10
527.4000967121151
 20
576.08487019682639
 11
527.4000967121151
 21
605.44217899874934
  0
LINE
  8
_0-e_極細4
  6
CONTINUOUS
 62
    6
 10
526.20009671211528
 20
576.08487019682639
 11
526.20009671211528
 21
604.81716450842646
  0
LINE
  8
_0-e_極細4
  6
CONTINUOUS
 62
    6
 10
525.00009671211637
 20
576.08487019682639
 11
525.00009671211637
 21
604.68487019682675
  0
LINE
  8
_0-e_極細4
  6
CONTINUOUS
 62
    6
 10
523.80009671211565
 20
576.08487019682639
 11
523.80009671211565
 21
604.68487019682675
  0
LINE
  8
_0-e_極細4
  6
CONTINUOUS
 62
    6
 10
522.60009671211492
 20
576.08487019682639
 11
522.60009671211492
 21
604.6663410762269
  0
LINE
  8
_0-e_極細4
  6
CONTINUOUS
 62
    6
 10
521.4000967121151
 20
576.08487019682639
 11
521.4000967121151
 21
604.07633924424204
  0
LINE
  8
_0-e_極細4
  6
CONTINUOUS
 62
    6
 10
520.20009671211528
 20
576.08487019682639
 11
520.20009671211528
 21
580.08487019682684
  0
LINE
  8
_0-e_極細4
  6
CONTINUOUS
 62
    6
 10
519.00009671211546
 20
576.08487019682639
 11
519.00009671211546
 21
580.08487019682684
  0
LINE
  8
_0-e_極細4
  6
CONTINUOUS
 62
    6
 10
517.80009671211565
 20
576.08487019682639
 11
517.80009671211565
 21
580.08487019682684
  0
LINE
  8
_0-e_極細4
  6
CONTINUOUS
 62
    6
 10
343.80009671211565
 20
576.08487019682639
 11
343.80009671211565
 21
580.08487019682684
  0
LINE
  8
_0-e_極細4
  6
CONTINUOUS
 62
    6
 10
342.60009671211583
 20
576.08487019682639
 11
342.60009671211583
 21
580.08487019682684
  0
LINE
  8
_0-e_極細4
  6
CONTINUOUS
 62
    6
 10
341.4000967121151
 20
576.08487019682639
 11
341.4000967121151
 21
580.08487019682684
  0
LINE
  8
_0-e_極細4
  6
CONTINUOUS
 62
    6
 10
340.20009671211528
 20
576.08487019682639
 11
340.20009671211528
 21
604.0321375098622
  0
LINE
  8
_0-e_極細4
  6
CONTINUOUS
 62
    6
 10
339.00009671211546
 20
576.08487019682639
 11
339.00009671211546
 21
604.66009104603449
  0
LINE
  8
_0-e_極細4
  6
CONTINUOUS
 62
    6
 10
337.80009671211565
 20
576.08487019682639
 11
337.80009671211565
 21
604.68487019682675
  0
LINE
  8
_0-e_極細4
  6
CONTINUOUS
 62
    6
 10
336.60009671211492
 20
576.08487019682639
 11
336.60009671211492
 21
604.68487019682675
  0
LINE
  8
_0-e_極細4
  6
CONTINUOUS
 62
    6
 10
335.4000967121151
 20
576.08487019682639
 11
335.4000967121151
 21
604.80502892271511
  0
LINE
  8
_0-e_極細4
  6
CONTINUOUS
 62
    6
 10
334.20009671211528
 20
576.08487019682639
 11
334.20009671211528
 21
605.40770884924746
  0
LINE
  8
_0-e_極細4
  6
CONTINUOUS
 62
    6
 10
333.00009671211546
 20
576.86322065615764
 11
333.00009671211546
 21
607.2499887809488
  0
LINE
  8
_0-e_極細4
  6
CONTINUOUS
 62
    6
 10
331.80009671211474
 20
578.06322065615745
 11
331.80009671211474
 21
609.44236495522205
  0
LINE
  8
_0-e_極細4
  6
CONTINUOUS
 62
    6
 10
510.27844717144626
 20
589.15180431263411
 11
517.47844717144608
 21
589.15180431263411
  0
LINE
  8
_0-e_極細4
  6
CONTINUOUS
 62
    6
 10
509.33316128725301
 20
590.35180431263439
 11
517.47844717144608
 21
590.35180431263439
  0
LINE
  8
_0-e_極細4
  6
CONTINUOUS
 62
    6
 10
510.27844717144626
 20
591.5518043126342
 11
517.47844717144608
 21
591.5518043126342
  0
LINE
  8
_0-e_極細4
  6
CONTINUOUS
 62
    6
 10
510.27844717144626
 20
592.75180431263402
 11
517.47844717144608
 21
592.75180431263402
  0
LINE
  8
_0-e_極細4
  6
CONTINUOUS
 62
    6
 10
510.22373305563769
 20
593.95180431263429
 11
517.50762803321004
 21
593.95180431263429
  0
LINE
  8
_0-e_極細4
  6
CONTINUOUS
 62
    6
 10
509.53316128725282
 20
595.15180431263411
 11
518.14762803321037
 21
595.15180431263411
  0
LINE
  8
_0-e_極細4
  6
CONTINUOUS
 62
    6
 10
510.27844717144626
 20
596.35180431263393
 11
518.78762803320978
 21
596.35180431263393
  0
LINE
  8
_0-e_極細4
  6
CONTINUOUS
 62
    6
 10
344.07844717144553
 20
589.15180431263411
 11
351.27844717144626
 21
589.15180431263411
  0
LINE
  8
_0-e_極細4
  6
CONTINUOUS
 62
    6
 10
344.07844717144553
 20
590.35180431263439
 11
352.2237330556386
 21
590.35180431263439
  0
LINE
  8
_0-e_極細4
  6
CONTINUOUS
 62
    6
 10
344.07844717144553
 20
591.5518043126342
 11
351.27844717144626
 21
591.5518043126342
  0
LINE
  8
_0-e_極細4
  6
CONTINUOUS
 62
    6
 10
344.07844717144553
 20
592.75180431263402
 11
351.27844717144626
 21
592.75180431263402
  0
LINE
  8
_0-e_極細4
  6
CONTINUOUS
 62
    6
 10
344.04926630968157
 20
593.95180431263429
 11
351.33316128725301
 21
593.95180431263429
  0
LINE
  8
_0-e_極細4
  6
CONTINUOUS
 62
    6
 10
343.40926630968215
 20
595.15180431263411
 11
352.02373305563879
 21
595.15180431263411
  0
LINE
  8
_0-e_極細4
  6
CONTINUOUS
 62
    6
 10
342.76926630968183
 20
596.35180431263393
 11
351.27844717144626
 21
596.35180431263393
  0
CIRCLE
  8
_1-1_寸法4
  6
CONTINUOUS
 62
    7
 10
519.37844717144571
 20
592.76818277027519
 40
40
  0
LINE
  8
_0-e_極細4
  6
CONTINUOUS
 62
    6
 10
532.03966317144523
 20
384.37845419682407
 11
603.54987117144492
 21
386.14171819682514
  0
LINE
  8
_0-e_極細4
  6
CONTINUOUS
 62
    6
 10
603.54987117144492
 20
386.14171819682514
 11
603.54987117144492
 21
493.8968221968251
  0
LINE
  8
_0-e_極細4
  6
CONTINUOUS
 62
    6
 10
531.77844717144535
 20
495.66652713416789
 11
603.54987117144492
 21
493.8968221968251
  0
LINE
  8
_0-e_極細4
  6
CONTINUOUS
 62
    6
 10
531.77844717144535
 20
495.66652713416789
 11
531.77844717144535
 21
555.61048819682696
  0
LINE
  8
_0-e_極細4
  6
CONTINUOUS
 62
    6
 10
329.77844717144626
 20
400.37845419682407
 11
329.77844717144626
 21
555.61048819682696
  0
LINE
  8
_0-e_極細4
  6
CONTINUOUS
 62
    6
 10
345.77844717144626
 20
384.37845419682407
 11
532.03966317144523
 21
384.37845419682407
  0
ARC
  8
_0-e_極細4
  6
CONTINUOUS
 62
    6
 10
345.77844717144626
 20
400.37845419682407
 40
16
 50
179.99999999999983
 51
269.99999999999977
  0
LINE
  8
_0-e_極細4
  6
CONTINUOUS
 62
    6
 10
346.77844717144626
 20
388.29682219682644
 11
532.03966317144523
 21
388.29682219682644
  0
LINE
  8
_0-e_極細4
  6
CONTINUOUS
 62
    6
 10
334.77844717144626
 20
400.29682219682644
 11
334.77844717144626
 21
514.51384275681926
  0
ARC
  8
_0-e_極細4
  6
CONTINUOUS
 62
    6
 10
346.77844717144626
 20
400.29682219682644
 40
12
 50
179.99999999999983
 51
269.99999999999977
  0
LINE
  8
_0-e_極細4
  6
CENTER2
 62
    6
 10
430.77844717144535
 20
635.18317016806031
 11
430.77844717144535
 21
345.40844680673052
  0
LINE
  8
_0-e_極細4
  6
CONTINUOUS
 62
    6
 10
526.77844717144626
 20
514.51384275681926
 11
526.77844717144626
 21
568.67074219682695
  0
ARC
  8
_0-e_極細4
  6
CONTINUOUS
 62
    6
 10
524.77844717144626
 20
514.51384275681926
 40
2
 50
277.18075599997627
 51
359.99999999999966
  0
LINE
  8
_0-e_極細4
  6
CONTINUOUS
 62
    6
 10
427.29783253168216
 20
384.37845419682407
 11
430.77844717144626
 21
387.85906883658771
  0
LINE
  8
_0-e_極細4
  6
CONTINUOUS
 62
    6
 10
423.05519184456307
 20
384.37845419682407
 11
426.97355984456544
 21
388.29682219682644
  0
LINE
  8
_0-e_極細4
  6
CONTINUOUS
 62
    6
 10
418.81255115744398
 20
384.37845419682407
 11
422.73091915744635
 21
388.29682219682644
  0
LINE
  8
_0-e_極細4
  6
CONTINUOUS
 62
    6
 10
414.56991047032398
 20
384.37845419682407
 11
418.48827847032635
 21
388.29682219682644
  0
LINE
  8
_0-e_極細4
  6
CONTINUOUS
 62
    6
 10
410.32726978320488
 20
384.37845419682407
 11
414.24563778320726
 21
388.29682219682644
  0
LINE
  8
_0-e_極細4
  6
CONTINUOUS
 62
    6
 10
406.08462909608579
 20
384.37845419682407
 11
410.00299709608817
 21
388.29682219682644
  0
LINE
  8
_0-e_極細4
  6
CONTINUOUS
 62
    6
 10
401.8419884089667
 20
384.37845419682407
 11
405.76035640896907
 21
388.29682219682644
  0
LINE
  8
_0-e_極細4
  6
CONTINUOUS
 62
    6
 10
397.59934772184761
 20
384.37845419682407
 11
401.51771572184998
 21
388.29682219682644
  0
LINE
  8
_0-e_極細4
  6
CONTINUOUS
 62
    6
 10
393.35670703472761
 20
384.37845419682407
 11
397.27507503472998
 21
388.29682219682644
  0
LINE
  8
_0-e_極細4
  6
CONTINUOUS
 62
    6
 10
389.11406634760851
 20
384.37845419682407
 11
393.03243434761089
 21
388.29682219682644
  0
LINE
  8
_0-e_極細4
  6
CONTINUOUS
 62
    6
 10
384.87142566048942
 20
384.37845419682407
 11
388.7897936604918
 21
388.29682219682644
  0
LINE
  8
_0-e_極細4
  6
CONTINUOUS
 62
    6
 10
380.62878497337033
 20
384.37845419682407
 11
384.5471529733727
 21
388.29682219682644
  0
LINE
  8
_0-e_極細4
  6
CONTINUOUS
 62
    6
 10
376.38614428625033
 20
384.37845419682407
 11
380.30451228625361
 21
388.29682219682644
  0
LINE
  8
_0-e_極細4
  6
CONTINUOUS
 62
    6
 10
372.14350359913124
 20
384.37845419682407
 11
376.06187159913361
 21
388.29682219682644
  0
LINE
  8
_0-e_極細4
  6
CONTINUOUS
 62
    6
 10
367.90086291201214
 20
384.37845419682407
 11
371.81923091201452
 21
388.29682219682644
  0
LINE
  8
_0-e_極細4
  6
CONTINUOUS
 62
    6
 10
363.65822222489305
 20
384.37845419682407
 11
367.57659022489543
 21
388.29682219682644
  0
LINE
  8
_0-e_極細4
  6
CONTINUOUS
 62
    6
 10
359.41558153777396
 20
384.37845419682407
 11
363.33394953777633
 21
388.29682219682644
  0
LINE
  8
_0-e_極細4
  6
CONTINUOUS
 62
    6
 10
355.17294085065396
 20
384.37845419682407
 11
359.09130885065724
 21
388.29682219682644
  0
LINE
  8
_0-e_極細4
  6
CONTINUOUS
 62
    6
 10
350.93030016353487
 20
384.37845419682407
 11
354.84866816353724
 21
388.29682219682644
  0
LINE
  8
_0-e_極細4
  6
CONTINUOUS
 62
    6
 10
346.68765947641577
 20
384.37845419682407
 11
350.60602747641815
 21
388.29682219682644
  0
LINE
  8
_0-e_極細4
  6
CONTINUOUS
 62
    6
 10
342.73679346790186
 20
384.67022887542925
 11
346.37032882176345
 21
388.30376422929152
  0
LINE
  8
_0-e_極細4
  6
CONTINUOUS
 62
    6
 10
339.48996755488452
 20
385.66604364953145
 11
342.79958607453636
 21
388.97566216918352
  0
LINE
  8
_0-e_極細4
  6
CONTINUOUS
 62
    6
 10
336.75022531074546
 20
387.16894209251194
 11
339.98573293446907
 21
390.40444971623509
  0
LINE
  8
_0-e_極細4
  6
CONTINUOUS
 62
    6
 10
334.43410503614132
 20
389.09546250502734
 11
337.74094167003068
 21
392.40229913891602
  0
LINE
  8
_0-e_極細4
  6
CONTINUOUS
 62
    6
 10
332.51929557558788
 20
391.42329373159254
 11
336.03897382165951
 21
394.94297197766417
  0
LINE
  8
_0-e_極細4
  6
CONTINUOUS
 62
    6
 10
331.02950378050946
 20
394.17614262363321
 11
334.97688841401441
 21
398.12352725713816
  0
LINE
  8
_0-e_極細4
  6
CONTINUOUS
 62
    6
 10
330.0506106533453
 20
397.4398901835886
 11
334.77844717144626
 21
402.16772670168956
  0
LINE
  8
_0-e_極細4
  6
CONTINUOUS
 62
    6
 10
329.77844717144626
 20
401.41036738880888
 11
334.77844717144626
 21
406.41036738880888
  0
LINE
  8
_0-e_極細4
  6
CONTINUOUS
 62
    6
 10
329.77844717144626
 20
405.6530080759282
 11
334.77844717144626
 21
410.6530080759282
  0
LINE
  8
_0-e_極細4
  6
CONTINUOUS
 62
    6
 10
329.77844717144626
 20
409.89564876304729
 11
334.77844717144626
 21
414.89564876304729
  0
LINE
  8
_0-e_極細4
  6
CONTINUOUS
 62
    6
 10
329.77844717144626
 20
414.13828945016684
 11
334.77844717144626
 21
419.13828945016684
  0
LINE
  8
_0-e_極細4
  6
CONTINUOUS
 62
    6
 10
329.77844717144626
 20
418.38093013728616
 11
334.77844717144626
 21
423.38093013728593
  0
LINE
  8
_0-e_極細4
  6
CONTINUOUS
 62
    6
 10
329.77844717144626
 20
422.62357082440548
 11
334.77844717144626
 21
427.62357082440548
  0
LINE
  8
_0-e_極細4
  6
CONTINUOUS
 62
    6
 10
329.77844717144626
 20
426.86621151152457
 11
334.77844717144626
 21
431.86621151152457
  0
LINE
  8
_0-e_極細4
  6
CONTINUOUS
 62
    6
 10
329.77844717144626
 20
431.10885219864412
 11
334.77844717144626
 21
436.10885219864412
  0
LINE
  8
_0-e_極細4
  6
CONTINUOUS
 62
    6
 10
329.77844717144626
 20
435.35149288576321
 11
334.77844717144626
 21
440.35149288576321
  0
LINE
  8
_0-e_極細4
  6
CONTINUOUS
 62
    6
 10
329.77844717144626
 20
439.59413357288253
 11
334.77844717144626
 21
444.59413357288253
  0
LINE
  8
_0-e_極細4
  6
CONTINUOUS
 62
    6
 10
329.77844717144626
 20
443.83677426000185
 11
334.77844717144626
 21
448.83677426000185
  0
LINE
  8
_0-e_極細4
  6
CONTINUOUS
 62
    6
 10
329.77844717144626
 20
448.07941494712094
 11
334.77844717144626
 21
453.07941494712094
  0
LINE
  8
_0-e_極細4
  6
CONTINUOUS
 62
    6
 10
329.77844717144626
 20
452.32205563424048
 11
334.77844717144626
 21
457.32205563424048
  0
LINE
  8
_0-e_極細4
  6
CONTINUOUS
 62
    6
 10
329.77844717144626
 20
456.56469632135958
 11
334.77844717144626
 21
461.56469632135958
  0
LINE
  8
_0-e_極細4
  6
CONTINUOUS
 62
    6
 10
329.77844717144626
 20
460.8073370084789
 11
334.77844717144626
 21
465.8073370084789
  0
LINE
  8
_0-e_極細4
  6
CONTINUOUS
 62
    6
 10
329.77844717144626
 20
465.04997769559822
 11
334.77844717144626
 21
470.04997769559822
  0
LINE
  8
_0-e_極細4
  6
CONTINUOUS
 62
    6
 10
329.77844717144626
 20
469.29261838271731
 11
334.77844717144626
 21
474.29261838271731
  0
LINE
  8
_0-e_極細4
  6
CONTINUOUS
 62
    6
 10
329.77844717144626
 20
473.53525906983685
 11
334.77844717144626
 21
478.53525906983685
  0
LINE
  8
_0-e_極細4
  6
CONTINUOUS
 62
    6
 10
329.77844717144626
 20
477.77789975695617
 11
334.77844717144626
 21
482.77789975695606
  0
LINE
  8
_0-e_極細4
  6
CONTINUOUS
 62
    6
 10
329.77844717144626
 20
482.02054044407515
 11
334.77844717144626
 21
487.02054044407515
  0
LINE
  8
_0-e_極細4
  6
CONTINUOUS
 62
    6
 10
329.77844717144626
 20
486.2631811311947
 11
334.77844717144626
 21
491.2631811311947
  0
LINE
  8
_0-e_極細4
  6
CONTINUOUS
 62
    6
 10
329.77844717144626
 20
490.50582181831425
 11
334.77844717144626
 21
495.50582181831379
  0
LINE
  8
_0-e_極細4
  6
CONTINUOUS
 62
    6
 10
329.77844717144626
 20
494.74846250543334
 11
334.77844717144626
 21
499.74846250543334
  0
LINE
  8
_0-e_極細4
  6
CONTINUOUS
 62
    6
 10
329.77844717144626
 20
498.99110319255243
 11
334.77844717144626
 21
503.99110319255243
  0
LINE
  8
_0-e_極細4
  6
CONTINUOUS
 62
    6
 10
329.77844717144626
 20
503.23374387967198
 11
334.77844717144626
 21
508.23374387967152
  0
LINE
  8
_0-e_極細4
  6
CONTINUOUS
 62
    6
 10
329.77844717144626
 20
507.47638456679107
 11
334.77844717144626
 21
512.47638456679101
  0
LINE
  8
_0-e_極細4
  6
CONTINUOUS
 62
    6
 10
329.77844717144626
 20
511.71902525391062
 11
334.77844717144626
 21
516.7190252539101
  0
LINE
  8
_0-e_極細4
  6
CONTINUOUS
 62
    6
 10
329.77844717144626
 20
515.96166594102965
 11
334.77844717144626
 21
520.96166594102965
  0
LINE
  8
_0-e_極細4
  6
CONTINUOUS
 62
    6
 10
329.77844717144626
 20
520.2043066281492
 11
334.77844717144626
 21
525.20430662814874
  0
LINE
  8
_0-e_極細4
  6
CONTINUOUS
 62
    6
 10
329.77844717144626
 20
524.44694731526829
 11
334.77844717144626
 21
529.44694731526829
  0
LINE
  8
_0-e_極細4
  6
CONTINUOUS
 62
    6
 10
329.77844717144626
 20
528.68958800238738
 11
334.77844717144626
 21
533.68958800238738
  0
LINE
  8
_0-e_極細4
  6
CONTINUOUS
 62
    6
 10
329.77844717144626
 20
532.93222868950693
 11
334.77844717144626
 21
537.93222868950693
  0
LINE
  8
_0-e_極細4
  6
CONTINUOUS
 62
    6
 10
329.77844717144626
 20
537.17486937662602
 11
334.77844717144626
 21
542.17486937662602
  0
LINE
  8
_0-e_極細4
  6
CONTINUOUS
 62
    6
 10
329.77844717144626
 20
541.41751006374557
 11
334.77844717144626
 21
546.41751006374511
  0
LINE
  8
_0-e_極細4
  6
CONTINUOUS
 62
    6
 10
329.77844717144626
 20
545.66015075086466
 11
334.77844717144626
 21
550.66015075086466
  0
LINE
  8
_0-e_極細4
  6
CONTINUOUS
 62
    6
 10
329.77844717144626
 20
549.90279143798375
 11
334.77844717144626
 21
554.90279143798375
  0
LINE
  8
_0-e_極細4
  6
CONTINUOUS
 62
    6
 10
329.77844717144626
 20
554.1454321251033
 11
334.77844717144626
 21
559.1454321251033
  0
LINE
  8
_0-e_極細4
  6
CONTINUOUS
 62
    6
 10
329.46906100276055
 20
558.07868664353668
 11
334.77844717144626
 21
563.38807281222239
  0
LINE
  8
_0-e_極細4
  6
CONTINUOUS
 62
    6
 10
328.1806594321165
 20
561.03292576001172
 11
334.77844717144626
 21
567.63071349934148
  0
LINE
  8
_0-e_極細4
  6
CONTINUOUS
 62
    6
 10
326.18983267301655
 20
563.28473968803132
 11
331.57583518181173
 21
568.67074219682695
  0
LINE
  8
_0-e_極細4
  6
CONTINUOUS
 62
    6
 10
332.46583578312629
 20
569.56074279814152
 11
333.77844717144626
 21
570.87335418646103
  0
LINE
  8
_0-e_極細4
  6
CONTINUOUS
 62
    6
 10
324.77844717144626
 20
566.11599487358012
 11
333.77844717144626
 21
575.11599487358012
  0
LINE
  8
_0-e_極細4
  6
CONTINUOUS
 62
    6
 10
324.77844717144626
 20
570.35863556069967
 11
332.14156448951007
 21
577.72175287876303
  0
LINE
  8
_0-e_極細4
  6
CONTINUOUS
 62
    6
 10
324.77844717144626
 20
574.60127624781876
 11
330.82044717144572
 21
580.64327624781868
  0
LINE
  8
_0-e_極細4
  6
CONTINUOUS
 62
    6
 10
324.77844717144626
 20
578.84391693493831
 11
330.82044717144572
 21
584.88591693493777
  0
LINE
  8
_0-e_極細4
  6
CONTINUOUS
 62
    6
 10
321.96263174621572
 20
580.27074219682686
 11
330.82044717144572
 21
589.12855762205731
  0
LINE
  8
_0-e_極細4
  6
CONTINUOUS
 62
    6
 10
317.71999105909663
 20
580.27074219682686
 11
330.82044717144572
 21
593.37119830917641
  0
LINE
  8
_0-e_極細4
  6
CONTINUOUS
 62
    6
 10
316.97844717144608
 20
583.77183899629586
 11
330.82044717144572
 21
597.61383899629595
  0
LINE
  8
_0-e_極細4
  6
CONTINUOUS
 62
    6
 10
316.97844717144608
 20
588.01447968341495
 11
330.82044717144572
 21
601.85647968341505
  0
LINE
  8
_0-e_極細4
  6
CONTINUOUS
 62
    6
 10
316.97844717144608
 20
592.25712037053404
 11
330.82044717144572
 21
606.09912037053459
  0
LINE
  8
_0-e_極細4
  6
CONTINUOUS
 62
    6
 10
316.97844717144608
 20
596.49976105765359
 11
327.52979550251939
 21
607.0511093887269
  0
LINE
  8
_0-e_極細4
  6
CONTINUOUS
 62
    6
 10
316.97844717144608
 20
600.74240174477313
 11
323.72674975772543
 21
607.49070433105248
  0
LINE
  8
_0-e_極細4
  6
CONTINUOUS
 62
    6
 10
316.97844717144608
 20
604.98504243189223
 11
319.92370401293238
 21
607.93029927337807
  0
LINE
  8
_0-e_極細4
  6
CONTINUOUS
 62
    6
 10
531.94307117144535
 20
388.29563819682579
 11
603.54987117144492
 21
390.06128391547662
  0
LINE
  8
_0-e_極細4
  6
CONTINUOUS
 62
    6
 10
509.27844717144535
 20
492.30177068750646
 11
603.54987117144492
 21
489.97727247899985
  0
LINE
  8
_0-e_極細4
  6
CONTINUOUS
 62
    6
 10
602.99570022536273
 20
386.12805371861435
 11
603.54987117144492
 21
386.68222466469632
  0
LINE
  8
_0-e_極細4
  6
CONTINUOUS
 62
    6
 10
598.64580185554814
 20
386.02079603591886
 11
602.66445763794991
 21
390.0394518183204
  0
LINE
  8
_0-e_極細4
  6
CONTINUOUS
 62
    6
 10
594.29590348573356
 20
385.91353835322315
 11
598.31455926813533
 21
389.93219413562491
  0
LINE
  8
_0-e_極細4
  6
CONTINUOUS
 62
    6
 10
589.94600511591898
 20
385.80628067052766
 11
593.96466089832074
 21
389.82493645292942
  0
LINE
  8
_0-e_極細4
  6
CONTINUOUS
 62
    6
 10
585.59610674610349
 20
385.69902298783217
 11
589.61476252850616
 21
389.71767877023416
  0
LINE
  8
_0-e_極細4
  6
CONTINUOUS
 62
    6
 10
581.24620837628891
 20
385.59176530513668
 11
585.26486415869158
 21
389.6104210875389
  0
LINE
  8
_0-e_極細4
  6
CONTINUOUS
 62
    6
 10
576.89631000647432
 20
385.48450762244073
 11
580.914965788877
 21
389.50316340484341
  0
LINE
  8
_0-e_極細4
  6
CONTINUOUS
 62
    6
 10
572.54641163665883
 20
385.37724993974524
 11
576.56506741906242
 21
389.39590572214792
  0
LINE
  8
_0-e_極細4
  6
CONTINUOUS
 62
    6
 10
568.19651326684425
 20
385.26999225704975
 11
572.21516904924692
 21
389.28864803945288
  0
LINE
  8
_0-e_極細4
  6
CONTINUOUS
 62
    6
 10
563.84661489702967
 20
385.16273457435426
 11
567.86527067943234
 21
389.18139035675739
  0
LINE
  8
_0-e_極細4
  6
CONTINUOUS
 62
    6
 10
559.49671652721418
 20
385.05547689165877
 11
563.51537230961776
 21
389.07413267406213
  0
LINE
  8
_0-e_極細4
  6
CONTINUOUS
 62
    6
 10
555.14681815739959
 20
384.94821920896305
 11
559.16547393980318
 21
388.96687499136686
  0
LINE
  8
_0-e_極細4
  6
CONTINUOUS
 62
    6
 10
550.79691978758501
 20
384.84096152626756
 11
554.8155755699886
 21
388.85961730867137
  0
LINE
  8
_0-e_極細4
  6
CONTINUOUS
 62
    6
 10
546.44702141777043
 20
384.73370384357185
 11
550.46567720017401
 21
388.75235962597588
  0
LINE
  8
_0-e_極細4
  6
CONTINUOUS
 62
    6
 10
542.09712304795585
 20
384.62644616087636
 11
546.11577883035943
 21
388.64510194328085
  0
LINE
  8
_0-e_極細4
  6
CONTINUOUS
 62
    6
 10
537.74722467814036
 20
384.51918847818087
 11
541.76588046054485
 21
388.53784426058536
  0
LINE
  8
_0-e_極細4
  6
CONTINUOUS
 62
    6
 10
533.39732630832577
 20
384.41193079548492
 11
537.41598209073027
 21
388.4305865778901
  0
LINE
  8
_0-e_極細4
  6
CONTINUOUS
 62
    6
 10
529.12120902254492
 20
384.37845419682407
 11
533.06608372091569
 21
388.32332889519461
  0
LINE
  8
_0-e_極細4
  6
CONTINUOUS
 62
    6
 10
524.87856833542583
 20
384.37845419682407
 11
528.7969363354282
 21
388.29682219682644
  0
LINE
  8
_0-e_極細4
  6
CONTINUOUS
 62
    6
 10
520.63592764830673
 20
384.37845419682407
 11
524.55429564830911
 21
388.29682219682644
  0
LINE
  8
_0-e_極細4
  6
CONTINUOUS
 62
    6
 10
516.39328696118764
 20
384.37845419682407
 11
520.31165496119002
 21
388.29682219682644
  0
LINE
  8
_0-e_極細4
  6
CONTINUOUS
 62
    6
 10
512.15064627406764
 20
384.37845419682407
 11
516.06901427407001
 21
388.29682219682644
  0
LINE
  8
_0-e_極細4
  6
CONTINUOUS
 62
    6
 10
507.90800558694855
 20
384.37845419682407
 11
511.82637358695092
 21
388.29682219682644
  0
LINE
  8
_0-e_極細4
  6
CONTINUOUS
 62
    6
 10
503.66536489982946
 20
384.37845419682407
 11
507.58373289983183
 21
388.29682219682644
  0
LINE
  8
_0-e_極細4
  6
CONTINUOUS
 62
    6
 10
499.42272421271036
 20
384.37845419682407
 11
503.34109221271274
 21
388.29682219682644
  0
LINE
  8
_0-e_極細4
  6
CONTINUOUS
 62
    6
 10
495.18008352559127
 20
384.37845419682407
 11
499.09845152559365
 21
388.29682219682644
  0
LINE
  8
_0-e_極細4
  6
CONTINUOUS
 62
    6
 10
490.93744283847127
 20
384.37845419682407
 11
494.85581083847364
 21
388.29682219682644
  0
LINE
  8
_0-e_極細4
  6
CONTINUOUS
 62
    6
 10
486.69480215135218
 20
384.37845419682407
 11
490.61317015135455
 21
388.29682219682644
  0
LINE
  8
_0-e_極細4
  6
CONTINUOUS
 62
    6
 10
482.45216146423309
 20
384.37845419682407
 11
486.37052946423546
 21
388.29682219682644
  0
LINE
  8
_0-e_極細4
  6
CONTINUOUS
 62
    6
 10
478.20952077711399
 20
384.37845419682407
 11
482.12788877711637
 21
388.29682219682644
  0
LINE
  8
_0-e_極細4
  6
CONTINUOUS
 62
    6
 10
473.96688008999399
 20
384.37845419682407
 11
477.88524808999637
 21
388.29682219682644
  0
LINE
  8
_0-e_極細4
  6
CONTINUOUS
 62
    6
 10
469.7242394028749
 20
384.37845419682407
 11
473.64260740287727
 21
388.29682219682644
  0
LINE
  8
_0-e_極細4
  6
CONTINUOUS
 62
    6
 10
465.48159871575581
 20
384.37845419682407
 11
469.39996671575818
 21
388.29682219682644
  0
LINE
  8
_0-e_極細4
  6
CONTINUOUS
 62
    6
 10
461.23895802863672
 20
384.37845419682407
 11
465.15732602863909
 21
388.29682219682644
  0
LINE
  8
_0-e_極細4
  6
CONTINUOUS
 62
    6
 10
456.99631734151762
 20
384.37845419682407
 11
460.91468534152
 21
388.29682219682644
  0
LINE
  8
_0-e_極細4
  6
CONTINUOUS
 62
    6
 10
452.75367665439762
 20
384.37845419682407
 11
456.6720446544
 21
388.29682219682644
  0
LINE
  8
_0-e_極細4
  6
CONTINUOUS
 62
    6
 10
448.51103596727853
 20
384.37845419682407
 11
452.4294039672809
 21
388.29682219682644
  0
LINE
  8
_0-e_極細4
  6
CONTINUOUS
 62
    6
 10
444.26839528015944
 20
384.37845419682407
 11
448.18676328016181
 21
388.29682219682644
  0
LINE
  8
_0-e_極細4
  6
CONTINUOUS
 62
    6
 10
440.02575459304035
 20
384.37845419682407
 11
443.94412259304272
 21
388.29682219682644
  0
LINE
  8
_0-e_極細4
  6
CONTINUOUS
 62
    6
 10
435.78311390592035
 20
384.37845419682407
 11
439.70148190592272
 21
388.29682219682644
  0
LINE
  8
_0-e_極細4
  6
CONTINUOUS
 62
    6
 10
431.54047321880125
 20
384.37845419682407
 11
435.45884121880363
 21
388.29682219682644
  0
LINE
  8
_0-e_極細4
  6
CONTINUOUS
 62
    6
 10
430.77844717144626
 20
387.85906883658771
 11
431.21620053168454
 21
388.29682219682644
  0
LINE
  8
_0-e_極細4
  6
CONTINUOUS
 62
    6
 10
600.84558281431828
 20
490.04395348555164
 11
603.54987117144492
 21
492.74824184267874
  0
LINE
  8
_0-e_極細4
  6
CONTINUOUS
 62
    6
 10
596.70503764480554
 20
490.14604900315845
 11
600.53026677798289
 21
493.97127813633534
  0
LINE
  8
_0-e_極細4
  6
CONTINUOUS
 62
    6
 10
592.56449247529281
 20
490.24814452076481
 11
596.38972164310553
 21
494.07337368857753
  0
LINE
  8
_0-e_極細4
  6
CONTINUOUS
 62
    6
 10
588.42394730578008
 20
490.35024003837117
 11
592.24917650822908
 21
494.17546924081972
  0
LINE
  8
_0-e_極細4
  6
CONTINUOUS
 62
    6
 10
584.28340213626734
 20
490.45233555597753
 11
588.10863137335173
 21
494.27756479306191
  0
LINE
  8
_0-e_極細4
  6
CONTINUOUS
 62
    6
 10
580.14285696675461
 20
490.55443107358388
 11
583.96808623847437
 21
494.3796603453041
  0
LINE
  8
_0-e_極細4
  6
CONTINUOUS
 62
    6
 10
576.00231179724187
 20
490.65652659119024
 11
579.82754110359701
 21
494.48175589754629
  0
LINE
  8
_0-e_極細4
  6
CONTINUOUS
 62
    6
 10
571.86176662772823
 20
490.7586221087966
 11
575.68699596871966
 21
494.58385144978848
  0
LINE
  8
_0-e_極細4
  6
CONTINUOUS
 62
    6
 10
567.7212214582155
 20
490.86071762640341
 11
571.54645083384321
 21
494.68594700203022
  0
LINE
  8
_0-e_極細4
  6
CONTINUOUS
 62
    6
 10
563.58067628870276
 20
490.96281314400977
 11
567.40590569896585
 21
494.78804255427241
  0
LINE
  8
_0-e_極細4
  6
CONTINUOUS
 62
    6
 10
559.44013111919003
 20
491.06490866161613
 11
563.2653605640885
 21
494.8901381065146
  0
LINE
  8
_0-e_極細4
  6
CONTINUOUS
 62
    6
 10
555.29958594967729
 20
491.16700417922249
 11
559.12481542921114
 21
494.99223365875679
  0
LINE
  8
_0-e_極細4
  6
CONTINUOUS
 62
    6
 10
551.15904078016456
 20
491.26909969682885
 11
554.98427029433378
 21
495.09432921099898
  0
LINE
  8
_0-e_極細4
  6
CONTINUOUS
 62
    6
 10
547.01849561065092
 20
491.3711952144352
 11
550.84372515945734
 21
495.19642476324071
  0
LINE
  8
_0-e_極細4
  6
CONTINUOUS
 62
    6
 10
542.87795044113818
 20
491.47329073204156
 11
546.70318002457998
 21
495.2985203154829
  0
LINE
  8
_0-e_極細4
  6
CONTINUOUS
 62
    6
 10
538.73740527162545
 20
491.57538624964792
 11
542.56263488970262
 21
495.40061586772509
  0
LINE
  8
_0-e_極細4
  6
CONTINUOUS
 62
    6
 10
534.59686010211271
 20
491.67748176725473
 11
538.42208975482527
 21
495.50271141996728
  0
LINE
  8
_0-e_極細4
  6
CONTINUOUS
 62
    6
 10
530.45631493259998
 20
491.77957728486064
 11
534.28154461994791
 21
495.60480697220947
  0
LINE
  8
_0-e_極細4
  6
CONTINUOUS
 62
    6
 10
526.31576976308725
 20
491.88167280246745
 11
531.77844717144535
 21
497.34435021082601
  0
LINE
  8
_0-e_極細4
  6
CONTINUOUS
 62
    6
 10
522.1752245935736
 20
491.98376832007381
 11
531.77844717144535
 21
501.5869908979451
  0
LINE
  8
_0-e_極細4
  6
CONTINUOUS
 62
    6
 10
518.03467942406178
 20
492.08586383768017
 11
531.77844717144535
 21
505.82963158506419
  0
LINE
  8
_0-e_極細4
  6
CONTINUOUS
 62
    6
 10
513.89413425454813
 20
492.18795935528652
 11
531.77844717144535
 21
510.07227227218374
  0
LINE
  8
_0-e_極細4
  6
CONTINUOUS
 62
    6
 10
509.7535890850354
 20
492.29005487289288
 11
531.77844717144535
 21
514.31491295930277
  0
LINE
  8
_0-e_極細4
  6
CONTINUOUS
 62
    6
 10
509.27844717144535
 20
496.05755364642238
 11
531.77844717144535
 21
518.55755364642232
  0
LINE
  8
_0-e_極細4
  6
CONTINUOUS
 62
    6
 10
509.27844717144535
 20
500.30019433354147
 11
521.50778211237821
 21
512.52952927447427
  0
LINE
  8
_0-e_極細4
  6
CONTINUOUS
 62
    6
 10
526.77844717144626
 20
517.80019433354187
 11
531.77844717144535
 21
522.80019433354141
  0
LINE
  8
_0-e_極細4
  6
CONTINUOUS
 62
    6
 10
509.27844717144535
 20
504.54283502066056
 11
517.26514142525912
 21
512.52952927447427
  0
LINE
  8
_0-e_極細4
  6
CONTINUOUS
 62
    6
 10
526.77844717144626
 20
522.04283502066096
 11
531.77844717144535
 21
527.0428350206605
  0
LINE
  8
_0-e_極細4
  6
CONTINUOUS
 62
    6
 10
509.27844717144535
 20
508.78547570778011
 11
513.02250073814002
 21
512.52952927447427
  0
LINE
  8
_0-e_極細4
  6
CONTINUOUS
 62
    6
 10
526.77844717144626
 20
526.28547570778051
 11
531.77844717144535
 21
531.28547570778005
  0
LINE
  8
_0-e_極細4
  6
CONTINUOUS
 62
    6
 10
526.77844717144626
 20
530.5281163948996
 11
531.77844717144535
 21
535.52811639489914
  0
LINE
  8
_0-e_極細4
  6
CONTINUOUS
 62
    6
 10
526.77844717144626
 20
534.77075708201869
 11
531.77844717144535
 21
539.77075708201869
  0
LINE
  8
_0-e_極細4
  6
CONTINUOUS
 62
    6
 10
526.77844717144626
 20
539.01339776913824
 11
531.77844717144535
 21
544.01339776913778
  0
LINE
  8
_0-e_極細4
  6
CONTINUOUS
 62
    6
 10
526.77844717144626
 20
543.25603845625778
 11
531.77844717144535
 21
548.25603845625733
  0
LINE
  8
_0-e_極細4
  6
CONTINUOUS
 62
    6
 10
526.77844717144626
 20
547.49867914337688
 11
531.77844717144535
 21
552.49867914337642
  0
LINE
  8
_0-e_極細4
  6
CONTINUOUS
 62
    6
 10
526.77844717144626
 20
551.74131983049597
 11
528.97306417322716
 21
553.93593683227732
  0
LINE
  8
_0-e_極細4
  6
CONTINUOUS
 62
    6
 10
528.97306417322716
 20
553.93593683227732
 11
531.85113420019252
 21
556.81400685924268
  0
LINE
  8
_0-e_極細4
  6
CONTINUOUS
 62
    6
 10
526.77844717144626
 20
555.98396051761551
 11
536.77844717144535
 21
565.98396051761506
  0
LINE
  8
_0-e_極細4
  6
CONTINUOUS
 62
    6
 10
526.77844717144626
 20
560.22660120473461
 11
536.77844717144535
 21
570.22660120473461
  0
LINE
  8
_0-e_極細4
  6
CONTINUOUS
 62
    6
 10
526.77844717144626
 20
564.46924189185415
 11
536.77844717144535
 21
574.4692418918537
  0
LINE
  8
_0-e_極細4
  6
CONTINUOUS
 62
    6
 10
542.57994747641851
 20
580.27074219682686
 11
544.57844717144644
 21
582.26924189185434
  0
LINE
  8
_0-e_極細4
  6
CONTINUOUS
 62
    6
 10
528.1411296527117
 20
570.07456506023914
 11
536.77844717144535
 21
578.71188257897325
  0
LINE
  8
_0-e_極細4
  6
CONTINUOUS
 62
    6
 10
538.33730678929942
 20
580.27074219682686
 11
544.57844717144644
 21
586.51188257897343
  0
LINE
  8
_0-e_極細4
  6
CONTINUOUS
 62
    6
 10
527.77844717144626
 20
573.95452326609279
 11
544.57844717144644
 21
590.75452326609252
  0
LINE
  8
_0-e_極細4
  6
CONTINUOUS
 62
    6
 10
530.73644717144589
 20
581.15516395321197
 11
544.57844717144644
 21
594.99716395321207
  0
LINE
  8
_0-e_極細4
  6
CONTINUOUS
 62
    6
 10
530.73644717144589
 20
585.39780464033106
 11
544.57844717144644
 21
599.23980464033116
  0
LINE
  8
_0-e_極細4
  6
CONTINUOUS
 62
    6
 10
530.73644717144589
 20
589.64044532745015
 11
544.57844717144644
 21
603.48244532745071
  0
LINE
  8
_0-e_極細4
  6
CONTINUOUS
 62
    6
 10
530.73644717144589
 20
593.8830860145697
 11
544.57844717144644
 21
607.7250860145698
  0
LINE
  8
_0-e_極細4
  6
CONTINUOUS
 62
    6
 10
530.73644717144589
 20
598.12572670168925
 11
540.39827567035945
 21
607.78755520060236
  0
LINE
  8
_0-e_極細4
  6
CONTINUOUS
 62
    6
 10
530.73644717144589
 20
602.36836738880834
 11
535.60113203442552
 21
607.23305225178751
  0
LINE
  8
_0-e_極細4
  6
CONTINUOUS
 62
    6
 10
530.73644717144589
 20
606.61100807592743
 11
530.80398839849158
 21
606.67854930297267
  0
TEXT
  8
_0-7_枠細線
 62
    5
 10
336.09454587884841
 20
292.06727955251961
 40
40
 41
0.8
 50
0
  1
排水部詳細図
  0
TEXT
  8
_0-7_枠細線
 62
    5
 10
553.02439226775789
 20
295.06557101585122
 40
32
 41
0.6000000000000002
 50
0
  1
Ｓ＝１：４
  0
LINE
  8
_1-1_寸法4
  6
CONTINUOUS
 62
    7
 10
340.52329972403686
 20
412.12156574417776
 11
330.81523851119823
 21
399.40332893682984
  0
LINE
  8
_1-1_寸法4
  6
CONTINUOUS
 62
    7
 10
340.52329972403686
 20
412.12156574417776
 11
325.75675368855036
 21
405.9612801840874
  0
LINE
  8
_1-1_寸法4
  6
CONTINUOUS
 62
    7
 10
340.52329972403686
 20
412.12156574417776
 11
305.92492379256907
 21
385.43406031162573
  0
LINE
  8
_1-1_寸法4
  6
CONTINUOUS
 62
    7
 10
305.92492379256907
 20
385.43406031162573
 11
190.72492379256914
 21
385.43406031162573
  0
TEXT
  8
_1-1_寸法4
 62
    7
 10
190.72492379256914
 20
385.43406031162607
 40
24
 41
0.7999999999999998
 50
-0.0000000000001696
  1
トラップ本体
  0
LINE
  8
_1-1_寸法4
  6
CONTINUOUS
 62
    7
 10
400.10554515485319
 20
500.38258721421636
 11
390.48192252370166
 21
487.60033829420274
  0
LINE
  8
_1-1_寸法4
  6
CONTINUOUS
 62
    7
 10
400.10554515485319
 20
500.38258721421636
 11
385.38011901983441
 21
494.1246462475641
  0
LINE
  8
_1-1_寸法4
  6
CONTINUOUS
 62
    7
 10
400.10554515485319
 20
500.38258721421636
 11
305.92492379256907
 21
426.73630511084758
  0
LINE
  8
_1-1_寸法4
  6
CONTINUOUS
 62
    7
 10
305.92492379256907
 20
426.73630511084758
 11
152.32492379256905
 21
426.73630511084758
  0
TEXT
  8
_1-1_寸法4
 62
    7
 10
152.32492379256905
 20
426.73630511084804
 40
24
 41
0.7999999999999998
 50
-0.0000000000001696
  1
防臭インナー１号
  0
LINE
  8
_1-1_寸法4
  6
CONTINUOUS
 62
    7
 10
363.55202035067168
 20
532.14019940123285
 11
353.93494364897913
 21
519.35302474403193
  0
LINE
  8
_1-1_寸法4
  6
CONTINUOUS
 62
    7
 10
363.55202035067168
 20
532.14019940123285
 11
348.82980028826205
 21
525.87471965631448
  0
LINE
  8
_1-1_寸法4
  6
CONTINUOUS
 62
    7
 10
363.55202035067168
 20
532.14019940123285
 11
305.92492379256907
 21
487.03005650924757
  0
LINE
  8
_1-1_寸法4
  6
CONTINUOUS
 62
    7
 10
305.92492379256907
 20
487.03005650924757
 11
152.32492379256905
 21
487.03005650924757
  0
TEXT
  8
_1-1_寸法4
 62
    7
 10
152.32492379256905
 20
487.03005650924757
 40
24
 41
0.7999999999999998
 50
-0.0000000000001696
  1
防臭インナー２号
  0
LINE
  8
_1-1_寸法4
  6
CONTINUOUS
 62
    7
 10
384.76613000290445
 20
604.74961590053476
 11
372.18366788092294
 21
614.63301850029268
  0
LINE
  8
_1-1_寸法4
  6
CONTINUOUS
 62
    7
 10
384.76613000290445
 20
604.74961590053476
 11
378.81109946299193
 21
619.60012468874504
  0
LINE
  8
_1-1_寸法4
  6
CONTINUOUS
 62
    7
 10
384.76613000290445
 20
604.74961590053476
 11
359.2205881030244
 21
638.83411595852203
  0
LINE
  8
_1-1_寸法4
  6
CONTINUOUS
 62
    7
 10
359.2205881030244
 20
638.83411595852203
 11
244.02058810302447
 21
638.83411595852203
  0
TEXT
  8
_1-1_寸法4
 62
    7
 10
244.02058810302447
 20
638.83411595852237
 40
24
 41
0.7999999999999998
 50
-0.0000000000001696
  1
ストレーナー
  0
TEXT
  8
_1-1_寸法4
 62
    7
 10
537.94739563220401
 20
631.34905454747877
 40
24
 41
0.8000000000000001
 50
0
  1
Ｃ部
  0
LINE
  8
_1-2_極細2
  6
CONTINUOUS
 62
    2
 10
1178.0919172966792
 20
426.89956285674646
 11
1154.091917296679
 21
426.89956285674646
  0
LINE
  8
_1-2_極細2
  6
CONTINUOUS
 62
    2
 10
799.42525063001199
 20
426.89956285674646
 11
823.42525063001199
 21
426.89956285674646
  0
LINE
  8
_1-2_極細2
  6
CENTER1
 62
    2
 10
988.75858396334547
 20
445.87586831004666
 11
988.75858396334547
 21
357.24277478486658
  0
LINE
  8
_1-2_極細2
  6
CONTINUOUS
 62
    2
 10
796.75858396334547
 20
408.23289619007994
 11
796.75858396334547
 21
429.56622952341314
  0
LINE
  8
_1-2_極細2
  6
CONTINUOUS
 62
    2
 10
796.75858396334547
 20
429.56622952341314
 11
826.09191729667896
 21
429.56622952341314
  0
LINE
  8
_1-2_極細2
  6
CONTINUOUS
 62
    2
 10
1180.758583963345
 20
408.23289619007966
 11
1180.7585839633459
 21
429.56622952341314
  0
LINE
  8
_1-2_極細2
  6
CONTINUOUS
 62
    2
 10
1151.4252506300124
 20
429.56622952341314
 11
1180.7585839633459
 21
429.56622952341314
  0
LINE
  8
_1-5_寸法2
  6
CONTINUOUS
 62
    7
 10
796.75858396334547
 20
445.56622952341314
 11
796.75858396334547
 21
629.5662295234132
  0
LINE
  8
_1-5_寸法2
  6
CONTINUOUS
 62
    7
 10
796.75858396334547
 20
621.5662295234132
 11
812.21339718397053
 21
625.70733424505352
  0
LINE
  8
_1-5_寸法2
  6
CONTINUOUS
 62
    7
 10
796.75858396334547
 20
621.5662295234132
 11
812.21339718397053
 21
617.42512480177288
  0
LINE
  8
_1-5_寸法2
  6
CONTINUOUS
 62
    7
 10
1180.7585839633455
 20
445.56622952341314
 11
1180.7585839633455
 21
629.5662295234132
  0
LINE
  8
_1-5_寸法2
  6
CONTINUOUS
 62
    7
 10
1180.7585839633455
 20
621.5662295234132
 11
1165.3037707427204
 21
617.42512480177288
  0
LINE
  8
_1-5_寸法2
  6
CONTINUOUS
 62
    7
 10
1180.7585839633455
 20
621.5662295234132
 11
1165.3037707427204
 21
625.70733424505363
  0
LINE
  8
_1-5_寸法2
  6
CONTINUOUS
 62
    7
 10
796.75858396334547
 20
621.5662295234132
 11
1180.7585839633455
 21
621.5662295234132
  0
TEXT
  8
_1-5_寸法2
 62
    7
 10
970.7585839633457
 20
621.5662295234132
 40
24
 41
1
 50
0
  1
144
  0
LINE
  8
_1-5_寸法2
  6
CONTINUOUS
 62
    7
 10
1151.4252506300124
 20
445.56622952341314
 11
1151.4252506300127
 21
573.5662295234132
  0
LINE
  8
_1-5_寸法2
  6
CONTINUOUS
 62
    7
 10
1151.4252506300127
 20
565.5662295234132
 11
1166.8800638506377
 21
569.70733424505352
  0
LINE
  8
_1-5_寸法2
  6
CONTINUOUS
 62
    7
 10
1151.4252506300127
 20
565.5662295234132
 11
1166.8800638506377
 21
561.42512480177288
  0
LINE
  8
_1-5_寸法2
  6
CONTINUOUS
 62
    7
 10
1180.7585839633455
 20
445.56622952341314
 11
1180.7585839633464
 21
573.5662295234132
  0
LINE
  8
_1-5_寸法2
  6
CONTINUOUS
 62
    7
 10
1180.7585839633464
 20
565.5662295234132
 11
1165.3037707427213
 21
561.42512480177288
  0
LINE
  8
_1-5_寸法2
  6
CONTINUOUS
 62
    7
 10
1180.7585839633464
 20
565.5662295234132
 11
1165.3037707427213
 21
569.70733424505363
  0
LINE
  8
_1-5_寸法2
  6
CONTINUOUS
 62
    7
 10
1151.4252506300127
 20
565.5662295234132
 11
1180.7585839633464
 21
565.5662295234132
  0
TEXT
  8
_1-5_寸法2
 62
    7
 10
1154.0919172966794
 20
565.5662295234132
 40
24
 41
1
 50
0
  1
11
  0
LINE
  8
_1-5_寸法2
  6
CONTINUOUS
 62
    7
 10
830.75858396334729
 20
445.56622952341314
 11
830.75858396334775
 21
573.5662295234132
  0
LINE
  8
_1-5_寸法2
  6
CONTINUOUS
 62
    7
 10
830.75858396334775
 20
565.5662295234132
 11
846.2133971839728
 21
569.70733424505352
  0
LINE
  8
_1-5_寸法2
  6
CONTINUOUS
 62
    7
 10
830.75858396334775
 20
565.5662295234132
 11
846.2133971839728
 21
561.42512480177288
  0
LINE
  8
_1-5_寸法2
  6
CONTINUOUS
 62
    7
 10
1146.7585839633455
 20
445.56622952341314
 11
1146.7585839633464
 21
573.5662295234132
  0
LINE
  8
_1-5_寸法2
  6
CONTINUOUS
 62
    7
 10
1146.7585839633464
 20
565.5662295234132
 11
1131.3037707427213
 21
561.42512480177288
  0
LINE
  8
_1-5_寸法2
  6
CONTINUOUS
 62
    7
 10
1146.7585839633464
 20
565.5662295234132
 11
1131.3037707427213
 21
569.70733424505363
  0
LINE
  8
_1-5_寸法2
  6
CONTINUOUS
 62
    7
 10
830.75858396334775
 20
565.5662295234132
 11
1146.7585839633464
 21
565.5662295234132
  0
TEXT
  8
_1-5_寸法2
 62
    7
 10
958.75858396334684
 20
565.5662295234132
 40
24
 41
1
 50
0
  1
118.5
  0
LINE
  8
_1-5_寸法2
  6
CONTINUOUS
 62
    7
 10
796.75858396334559
 20
445.56622952341314
 11
796.75858396334615
 21
573.5662295234132
  0
LINE
  8
_1-5_寸法2
  6
CONTINUOUS
 62
    7
 10
796.75858396334615
 20
565.5662295234132
 11
812.21339718397121
 21
569.70733424505352
  0
LINE
  8
_1-5_寸法2
  6
CONTINUOUS
 62
    7
 10
796.75858396334615
 20
565.5662295234132
 11
812.21339718397121
 21
561.42512480177288
  0
LINE
  8
_1-5_寸法2
  6
CONTINUOUS
 62
    7
 10
826.09191729667896
 20
445.56622952341314
 11
826.09191729667896
 21
573.5662295234132
  0
LINE
  8
_1-5_寸法2
  6
CONTINUOUS
 62
    7
 10
826.09191729667896
 20
565.5662295234132
 11
810.6371040760539
 21
561.42512480177288
  0
LINE
  8
_1-5_寸法2
  6
CONTINUOUS
 62
    7
 10
826.09191729667896
 20
565.5662295234132
 11
810.6371040760539
 21
569.70733424505363
  0
LINE
  8
_1-5_寸法2
  6
CONTINUOUS
 62
    7
 10
796.75858396334615
 20
565.5662295234132
 11
826.09191729667896
 21
565.5662295234132
  0
TEXT
  8
_1-5_寸法2
 62
    7
 10
799.4252506300129
 20
565.5662295234132
 40
24
 41
1
 50
0
  1
11
  0
LINE
  8
_1-5_寸法2
  6
CONTINUOUS
 62
    7
 10
780.75858396334547
 20
429.56622952341326
 11
708.75858396334547
 21
429.56622952341365
  0
LINE
  8
_1-5_寸法2
  6
CONTINUOUS
 62
    7
 10
716.75858396334547
 20
429.5662295234136
 11
720.89968868498579
 21
414.11141630278848
  0
LINE
  8
_1-5_寸法2
  6
CONTINUOUS
 62
    7
 10
716.75858396334547
 20
429.5662295234136
 11
712.61747924170515
 21
414.11141630278848
  0
LINE
  8
_1-5_寸法2
  6
CONTINUOUS
 62
    7
 10
807.42525063001199
 20
376.23289619007971
 11
708.75858396334547
 21
376.23289619008017
  0
LINE
  8
_1-5_寸法2
  6
CONTINUOUS
 62
    7
 10
716.75858396334547
 20
376.23289619008011
 11
712.61747924170515
 21
391.68770941070522
  0
LINE
  8
_1-5_寸法2
  6
CONTINUOUS
 62
    7
 10
716.75858396334547
 20
376.23289619008011
 11
720.89968868498579
 21
391.68770941070522
  0
LINE
  8
_1-5_寸法2
  6
CONTINUOUS
 62
    7
 10
716.75858396334547
 20
429.5662295234136
 11
716.75858396334547
 21
376.23289619008011
  0
TEXT
  8
_1-5_寸法2
 62
    7
 10
716.75858396334547
 20
390.89956285674663
 40
24
 41
1
 50
90
  1
20
  0
LINE
  8
_1-5_寸法2
  6
CONTINUOUS
 62
    7
 10
1196.7585839633448
 20
408.23289619007949
 11
1268.7585839633452
 21
408.23289619007863
  0
LINE
  8
_1-5_寸法2
  6
CONTINUOUS
 62
    7
 10
1260.7585839633452
 20
408.23289619007875
 11
1256.617479241705
 21
423.68770941070386
  0
LINE
  8
_1-5_寸法2
  6
CONTINUOUS
 62
    7
 10
1260.7585839633452
 20
408.23289619007875
 11
1264.8996886849857
 21
423.68770941070386
  0
LINE
  8
_1-5_寸法2
  6
CONTINUOUS
 62
    7
 10
1196.7585839633448
 20
429.56622952341297
 11
1268.7585839633452
 21
429.56622952341212
  0
LINE
  8
_1-5_寸法2
  6
CONTINUOUS
 62
    7
 10
1260.7585839633452
 20
429.56622952341223
 11
1264.8996886849857
 21
414.11141630278712
  0
LINE
  8
_1-5_寸法2
  6
CONTINUOUS
 62
    7
 10
1260.7585839633452
 20
429.56622952341223
 11
1256.617479241705
 21
414.11141630278712
  0
LINE
  8
_1-5_寸法2
  6
CONTINUOUS
 62
    7
 10
1260.7585839633452
 20
408.23289619007875
 11
1260.7585839633452
 21
429.56622952341223
  0
TEXT
  8
_1-5_寸法2
 62
    7
 10
1260.7585839633452
 20
412.89956285674572
 40
24
 41
1
 50
90
  1
8
  0
LINE
  8
_1-2_極細2
  6
CONTINUOUS
 62
    2
 10
799.42525063001199
 20
408.23289619007994
 11
799.42525063001199
 21
426.89956285674646
  0
LINE
  8
_1-2_極細2
  6
CONTINUOUS
 62
    2
 10
796.75858396334547
 20
408.23289619007994
 11
799.42525063001199
 21
408.23289619007994
  0
LINE
  8
_1-2_極細2
  6
CONTINUOUS
 62
    2
 10
823.42525063001199
 20
426.89956285674646
 11
823.42525063001199
 21
376.23289619007966
  0
LINE
  8
_1-2_極細2
  6
CONTINUOUS
 62
    2
 10
1178.0919172966785
 20
408.23289619007966
 11
1180.758583963345
 21
408.23289619007966
  0
LINE
  8
_1-2_極細2
  6
CONTINUOUS
 62
    2
 10
1178.0919172966785
 20
408.23289619007966
 11
1178.0919172966792
 21
426.89956285674646
  0
LINE
  8
_1-2_極細2
  6
CONTINUOUS
 62
    2
 10
1154.091917296679
 20
376.23289619007966
 11
823.42525063001199
 21
376.23289619007966
  0
LINE
  8
_1-2_極細2
  6
CONTINUOUS
 62
    2
 10
1154.091917296679
 20
426.89956285674646
 11
1154.091917296679
 21
376.23289619007966
  0
LINE
  8
_1-2_極細2
  6
CONTINUOUS
 62
    2
 10
1151.4252506300124
 20
378.89956285674634
 11
1151.4252506300124
 21
429.56622952341314
  0
LINE
  8
_1-2_極細2
  6
CONTINUOUS
 62
    2
 10
1151.4252506300124
 20
378.89956285674634
 11
826.09191729667896
 21
378.89956285674634
  0
LINE
  8
_1-2_極細2
  6
CONTINUOUS
 62
    2
 10
826.09191729667896
 20
378.89956285674634
 11
826.09191729667896
 21
429.56622952341314
  0
LINE
  8
_1-3_細線2
  6
CONTINUOUS
 62
    4
 10
875.29191729667809
 20
421.29956285674592
 11
895.5585839633452
 21
421.29956285674592
  0
LINE
  8
_1-3_細線2
  6
CONTINUOUS
 62
    4
 10
895.5585839633452
 20
421.29956285674592
 11
895.5585839633452
 21
381.83289619007974
  0
LINE
  8
_1-3_細線2
  6
CONTINUOUS
 62
    4
 10
898.75858396334525
 20
421.29956285674626
 11
898.75858396334525
 21
381.83289619007974
  0
ARC
  8
_1-3_細線2
  6
CONTINUOUS
 62
    4
 10
895.5585839633452
 20
421.29956285674626
 40
3.1999999999999997
 50
0
 51
89.999999999999915
  0
LINE
  8
_1-3_細線2
  6
CONTINUOUS
 62
    4
 10
875.29191729667787
 20
424.49956285674637
 11
895.5585839633452
 21
424.49956285674637
  0
ARC
  8
_1-3_細線2
  6
CONTINUOUS
 62
    4
 10
875.29191729667787
 20
421.29956285674626
 40
3.1999999999999997
 50
89.999999999999915
 51
179.99999999999983
  0
LINE
  8
_1-3_細線2
  6
CONTINUOUS
 62
    4
 10
895.5585839633452
 20
381.83289619007974
 11
898.75858396334525
 21
381.83289619007974
  0
LINE
  8
_1-3_細線2
  6
CONTINUOUS
 62
    4
 10
872.09191729667805
 20
408.4995624812712
 11
875.29191729667878
 21
408.49956248127103
  0
LINE
  8
_1-3_細線2
  6
CONTINUOUS
 62
    4
 10
875.29191729667809
 20
421.29956285674592
 11
875.29191729667878
 21
408.4995624812712
  0
LINE
  8
_1-3_細線2
  6
CONTINUOUS
 62
    4
 10
872.09191729667805
 20
421.29956285674626
 11
872.09191729667805
 21
408.4995624812712
  0
LINE
  8
_1-3_細線2
  6
CONTINUOUS
 62
    4
 10
857.42525063001381
 20
385.9662291479379
 11
895.55858396334634
 21
385.9662291479379
  0
LINE
  8
_1-3_細線2
  6
CONTINUOUS
 62
    4
 10
857.42525063001381
 20
404.36622914793799
 11
895.55858396334634
 21
404.36622914793799
  0
LINE
  8
_1-3_細線2
  6
CONTINUOUS
 62
    4
 10
854.2252506300149
 20
421.29956285674592
 11
854.2252506300149
 21
381.83289619007974
  0
LINE
  8
_1-3_細線2
  6
CONTINUOUS
 62
    4
 10
833.95858396334847
 20
421.29956285674592
 11
854.2252506300149
 21
421.29956285674592
  0
LINE
  8
_1-3_細線2
  6
CONTINUOUS
 62
    4
 10
857.42525063001381
 20
421.29956285674626
 11
857.42525063001381
 21
381.83289619007974
  0
ARC
  8
_1-3_細線2
  6
CONTINUOUS
 62
    4
 10
854.22525063001353
 20
421.29956285674626
 40
3.1999999999999997
 50
0
 51
89.999999999999915
  0
LINE
  8
_1-3_細線2
  6
CONTINUOUS
 62
    4
 10
833.95858396334756
 20
424.49956285674637
 11
854.22525063001353
 21
424.49956285674637
  0
ARC
  8
_1-3_細線2
  6
CONTINUOUS
 62
    4
 10
833.95858396334756
 20
421.29956285674626
 40
3.1999999999999997
 50
89.999999999999915
 51
179.99999999999983
  0
LINE
  8
_1-3_細線2
  6
CONTINUOUS
 62
    4
 10
854.2252506300149
 20
381.83289619007974
 11
857.42525063001381
 21
381.83289619007974
  0
LINE
  8
_1-3_細線2
  6
CONTINUOUS
 62
    4
 10
830.75858396334775
 20
408.4995624812712
 11
833.95858396334847
 21
408.49956248127103
  0
LINE
  8
_1-3_細線2
  6
CONTINUOUS
 62
    4
 10
833.95858396334847
 20
421.29956285674592
 11
833.95858396334847
 21
408.4995624812712
  0
LINE
  8
_1-3_細線2
  6
CONTINUOUS
 62
    4
 10
830.75858396334775
 20
421.29956285674626
 11
830.75858396334775
 21
408.4995624812712
  0
LINE
  8
_1-2_極細2
  6
CONTINUOUS
 62
    2
 10
879.42525063001244
 20
381.83289619007974
 11
879.42525063001244
 21
380.23289619007966
  0
LINE
  8
_1-2_極細2
  6
CONTINUOUS
 62
    2
 10
880.75858396334593
 20
381.83289619007974
 11
880.75858396334593
 21
380.23289619007966
  0
LINE
  8
_1-2_極細2
  6
CONTINUOUS
 62
    2
 10
879.42525063001267
 20
380.80000000000007
 11
880.7585839633457
 21
380.80000000000007
  0
LINE
  8
_1-2_極細2
  6
CONTINUOUS
 62
    2
 10
879.42525063001267
 20
381.60000000000008
 11
880.7585839633457
 21
381.60000000000008
  0
LINE
  8
_1-2_極細2
  6
CONTINUOUS
 62
    2
 10
882.75858396334547
 20
380.23289619007966
 11
882.75858396334547
 21
378.89956285674634
  0
LINE
  8
_1-2_極細2
  6
CONTINUOUS
 62
    2
 10
882.75858396334593
 20
383.16622952341305
 11
882.75858396334547
 21
381.83289619007957
  0
LINE
  8
_1-2_極細2
  6
CONTINUOUS
 62
    2
 10
864.09191729667941
 20
380.23289619007966
 11
864.09191729667896
 21
378.89956285674634
  0
LINE
  8
_1-2_極細2
  6
CONTINUOUS
 62
    2
 10
864.09191729667918
 20
383.16622952341305
 11
864.09191729667941
 21
381.83289619007974
  0
LINE
  8
_1-2_極細2
  6
CONTINUOUS
 62
    2
 10
866.09191729667918
 20
381.83289619007974
 11
866.09191729667918
 21
380.23289619007966
  0
LINE
  8
_1-2_極細2
  6
CONTINUOUS
 62
    2
 10
867.42525063001244
 20
381.83289619007974
 11
867.42525063001244
 21
380.23289619007966
  0
LINE
  8
_1-2_極細2
  6
CONTINUOUS
 62
    2
 10
866.09191729667918
 20
380.80000000000007
 11
867.4252506300129
 21
380.80000000000007
  0
LINE
  8
_1-2_極細2
  6
CONTINUOUS
 62
    2
 10
866.09191729667918
 20
381.60000000000008
 11
867.4252506300129
 21
381.60000000000008
  0
LINE
  8
_1-2_極細2
  6
CONTINUOUS
 62
    2
 10
864.09191729667918
 20
378.89956285674634
 11
882.75858396334547
 21
378.89956285674634
  0
LINE
  8
_1-2_極細2
  6
CONTINUOUS
 62
    2
 10
864.09191729667918
 20
379.20000000000005
 11
882.75858396334547
 21
379.20000000000005
  0
LINE
  8
_1-2_極細2
  6
CONTINUOUS
 62
    2
 10
864.09191729667918
 20
380.00000000000006
 11
882.75858396334547
 21
380.00000000000006
  0
LINE
  8
_1-2_極細2
  6
CONTINUOUS
 62
    2
 10
864.09191729667941
 20
382.40000000000003
 11
882.7585839633457
 21
382.40000000000003
  0
LINE
  8
_1-2_極細2
  6
CONTINUOUS
 62
    2
 10
864.09191729667941
 20
383.16622952341305
 11
882.75858396334547
 21
383.16622952341305
  0
LINE
  8
_1-2_極細2
  6
CONTINUOUS
 62
    2
 10
852.62525063001203
 20
418.36622952341287
 11
854.22525063001217
 21
418.36622952341287
  0
LINE
  8
_1-2_極細2
  6
CONTINUOUS
 62
    2
 10
852.62525063001203
 20
418.36622952341287
 11
852.62525063001203
 21
380.23289619007966
  0
ARC
  8
_1-3_細線2
  6
CONTINUOUS
 62
    4
 10
850.50058929667807
 20
382.36622877246339
 40
0.5333333333333335
 50
179.99999999999983
 51
269.99999999999977
  0
LINE
  8
_1-3_細線2
  6
CONTINUOUS
 62
    4
 10
852.62525063001203
 20
381.83289543912997
 11
850.50058929667807
 21
381.83289543912997
  0
ARC
  8
_1-3_細線2
  6
CONTINUOUS
 62
    4
 10
850.50058929667807
 20
407.96622877246273
 40
0.5333333333333335
 50
89.999999999999915
 51
179.99999999999983
  0
LINE
  8
_1-3_細線2
  6
CONTINUOUS
 62
    4
 10
852.62525063001203
 20
408.49956210579705
 11
850.50058929667807
 21
408.49956210579705
  0
LINE
  8
_1-3_細線2
  6
CONTINUOUS
 62
    4
 10
849.96725596334386
 20
393.83289543912997
 11
849.96725596334386
 21
382.36622877246339
  0
LINE
  8
_1-3_細線2
  6
CONTINUOUS
 62
    4
 10
849.96725596334386
 20
407.96622877246273
 11
849.96725596334386
 21
393.83289543912997
  0
LINE
  8
_1-2_極細2
  6
CONTINUOUS
 62
    2
 10
849.96725596334386
 20
395.16622877246266
 11
841.95521329667713
 21
395.16622877246266
  0
LINE
  8
_1-3_細線2
  6
CONTINUOUS
 62
    4
 10
849.96725596334386
 20
385.83289543913054
 11
841.95518129667857
 21
385.83289543913054
  0
ARC
  8
_1-3_細線2
  6
CONTINUOUS
 62
    4
 10
841.95518129667857
 20
386.36622877246339
 40
0.5333333333333335
 50
179.99999999999983
 51
269.99999999999977
  0
ARC
  8
_1-2_極細2
  6
CONTINUOUS
 62
    2
 10
862.10979463001081
 20
390.49917277246425
 40
20.687882666666667
 50
166.96197800000505
 51
193.03566999999961
  0
ARC
  8
_1-3_細線2
  6
CONTINUOUS
 62
    4
 10
841.95518129667857
 20
403.96622877246421
 40
0.5333333333333335
 50
89.999999999999915
 51
179.99999999999983
  0
ARC
  8
_1-2_極細2
  6
CONTINUOUS
 62
    2
 10
862.10979463001081
 20
399.83327943912957
 40
20.687882666666667
 50
166.96433000000002
 51
193.03802199999825
  0
LINE
  8
_1-3_細線2
  6
CONTINUOUS
 62
    4
 10
849.96725596334386
 20
404.49956210579705
 11
841.95518129667857
 21
404.49956210579705
  0
LINE
  8
_1-3_細線2
  6
CONTINUOUS
 62
    4
 10
841.42184796334436
 20
386.36622877246339
 11
841.42184796334436
 21
403.96622877246421
  0
LINE
  8
_1-3_細線2
  6
CONTINUOUS
 62
    4
 10
1060.8919170245465
 20
421.29956285674592
 11
1040.6252503578814
 21
421.29956285674592
  0
LINE
  8
_1-3_細線2
  6
CONTINUOUS
 62
    4
 10
1040.6252503578814
 20
421.29956285674592
 11
1040.6252503578814
 21
381.83289619007974
  0
ARC
  8
_1-3_細線2
  6
CONTINUOUS
 62
    4
 10
1060.8919170245474
 20
421.29956285674626
 40
3.1999999999999997
 50
0
 51
89.999999999999915
  0
LINE
  8
_1-3_細線2
  6
CONTINUOUS
 62
    4
 10
1037.4252503578807
 20
421.29956285674626
 11
1037.4252503578807
 21
381.83289619007974
  0
LINE
  8
_1-3_細線2
  6
CONTINUOUS
 62
    4
 10
1060.8919170245474
 20
424.49956285674637
 11
1040.625250357881
 21
424.49956285674637
  0
ARC
  8
_1-3_細線2
  6
CONTINUOUS
 62
    4
 10
1040.625250357881
 20
421.29956285674626
 40
3.1999999999999997
 50
89.999999999999915
 51
179.99999999999983
  0
LINE
  8
_1-3_細線2
  6
CONTINUOUS
 62
    4
 10
1037.4252503578807
 20
381.83289619007974
 11
1040.6252503578814
 21
381.83289619007974
  0
LINE
  8
_1-3_細線2
  6
CONTINUOUS
 62
    4
 10
1064.0919170245472
 20
408.4995624812712
 11
1060.8919170245465
 21
408.49956248127103
  0
LINE
  8
_1-3_細線2
  6
CONTINUOUS
 62
    4
 10
1060.8919170245465
 20
421.29956285674592
 11
1060.8919170245465
 21
408.4995624812712
  0
LINE
  8
_1-3_細線2
  6
CONTINUOUS
 62
    4
 10
1064.0919170245472
 20
421.29956285674626
 11
1064.0919170245472
 21
408.4995624812712
  0
LINE
  8
_1-3_細線2
  6
CONTINUOUS
 62
    4
 10
1078.7585839633455
 20
385.9662291479379
 11
1040.6252506300129
 21
385.9662291479379
  0
LINE
  8
_1-3_細線2
  6
CONTINUOUS
 62
    4
 10
1078.7585839633455
 20
404.36622914793799
 11
1040.6252506300129
 21
404.36622914793799
  0
LINE
  8
_1-3_細線2
  6
CONTINUOUS
 62
    4
 10
1123.291917296679
 20
402.05956285674631
 11
1123.291917296679
 21
391.47289619007961
  0
LINE
  8
_1-3_細線2
  6
CONTINUOUS
 62
    4
 10
1123.291917296679
 20
421.29956285674592
 11
1123.291917296679
 21
381.83289619007974
  0
LINE
  8
_1-3_細線2
  6
CONTINUOUS
 62
    4
 10
1102.225250630011
 20
421.29956285674592
 11
1081.9585839633448
 21
421.29956285674592
  0
LINE
  8
_1-3_細線2
  6
CONTINUOUS
 62
    4
 10
1143.558583963345
 20
421.29956285674592
 11
1123.291917296679
 21
421.29956285674592
  0
LINE
  8
_1-3_細線2
  6
CONTINUOUS
 62
    4
 10
1081.9585839633448
 20
421.29956285674592
 11
1081.9585839633448
 21
381.83289619007974
  0
ARC
  8
_1-3_細線2
  6
CONTINUOUS
 62
    4
 10
1143.5585839633457
 20
421.29956285674626
 40
3.1999999999999997
 50
0
 51
89.999999999999915
  0
LINE
  8
_1-3_細線2
  6
CONTINUOUS
 62
    4
 10
1120.091917296678
 20
421.29956285674626
 11
1120.091917296678
 21
381.83289619007974
  0
LINE
  8
_1-3_細線2
  6
CONTINUOUS
 62
    4
 10
1143.5585839633457
 20
424.49956285674637
 11
1123.2919172966781
 21
424.49956285674637
  0
ARC
  8
_1-3_細線2
  6
CONTINUOUS
 62
    4
 10
1123.2919172966781
 20
421.29956285674626
 40
3.1999999999999997
 50
89.999999999999915
 51
179.99999999999983
  0
ARC
  8
_1-3_細線2
  6
CONTINUOUS
 62
    4
 10
1102.2252506300117
 20
421.29956285674626
 40
3.1999999999999997
 50
0
 51
89.999999999999915
  0
LINE
  8
_1-3_細線2
  6
CONTINUOUS
 62
    4
 10
1078.7585839633455
 20
421.29956285674626
 11
1078.7585839633455
 21
381.83289619007974
  0
LINE
  8
_1-3_細線2
  6
CONTINUOUS
 62
    4
 10
1102.2252506300117
 20
424.49956285674637
 11
1081.9585839633457
 21
424.49956285674637
  0
ARC
  8
_1-3_細線2
  6
CONTINUOUS
 62
    4
 10
1081.9585839633457
 20
421.29956285674626
 40
3.1999999999999997
 50
89.999999999999915
 51
179.99999999999983
  0
LINE
  8
_1-3_細線2
  6
CONTINUOUS
 62
    4
 10
1078.7585839633455
 20
381.83289619007974
 11
1081.9585839633448
 21
381.83289619007974
  0
LINE
  8
_1-3_細線2
  6
CONTINUOUS
 62
    4
 10
1120.091917296678
 20
381.83289619007974
 11
1123.291917296679
 21
381.83289619007974
  0
LINE
  8
_1-3_細線2
  6
CONTINUOUS
 62
    4
 10
1146.7585839633457
 20
408.4995624812712
 11
1143.558583963345
 21
408.4995624812712
  0
LINE
  8
_1-3_細線2
  6
CONTINUOUS
 62
    4
 10
1105.4252506300118
 20
408.4995624812712
 11
1102.225250630011
 21
408.4995624812712
  0
LINE
  8
_1-3_細線2
  6
CONTINUOUS
 62
    4
 10
1102.225250630011
 20
421.29956285674592
 11
1102.225250630011
 21
408.4995624812712
  0
LINE
  8
_1-3_細線2
  6
CONTINUOUS
 62
    4
 10
1143.558583963345
 20
421.29956285674592
 11
1143.558583963345
 21
408.4995624812712
  0
LINE
  8
_1-3_細線2
  6
CONTINUOUS
 62
    4
 10
1146.7585839633457
 20
421.29956285674626
 11
1146.7585839633457
 21
408.4995624812712
  0
LINE
  8
_1-3_細線2
  6
CONTINUOUS
 62
    4
 10
1105.4252506300118
 20
421.29956285674626
 11
1105.4252506300118
 21
408.4995624812712
  0
LINE
  8
_1-3_細線2
  6
CONTINUOUS
 62
    4
 10
1120.0919175688109
 20
385.9662291479379
 11
1081.9585842354784
 21
385.9662291479379
  0
LINE
  8
_1-3_細線2
  6
CONTINUOUS
 62
    4
 10
1120.0919175688109
 20
404.36622914793799
 11
1081.9585842354784
 21
404.36622914793799
  0
LINE
  8
_1-2_極細2
  6
CONTINUOUS
 62
    2
 10
1113.4252503578807
 20
383.16622952341305
 11
1113.4252503578807
 21
381.83289619007957
  0
LINE
  8
_1-2_極細2
  6
CONTINUOUS
 62
    2
 10
1113.4252503578807
 20
380.23289619007966
 11
1113.4252503578807
 21
378.89956285674634
  0
LINE
  8
_1-2_極細2
  6
CONTINUOUS
 62
    2
 10
1110.0919170245475
 20
381.83289619007974
 11
1110.0919170245475
 21
380.23289619007966
  0
LINE
  8
_1-2_極細2
  6
CONTINUOUS
 62
    2
 10
1111.4252503578807
 20
381.83289619007974
 11
1111.4252503578807
 21
380.23289619007966
  0
LINE
  8
_1-2_極細2
  6
CONTINUOUS
 62
    2
 10
1110.0919170245475
 20
380.80000000000007
 11
1111.4252503578807
 21
380.80000000000007
  0
LINE
  8
_1-2_極細2
  6
CONTINUOUS
 62
    2
 10
1110.0919170245475
 20
381.60000000000008
 11
1111.4252503578807
 21
381.60000000000008
  0
LINE
  8
_1-2_極細2
  6
CONTINUOUS
 62
    2
 10
1094.7585836912142
 20
383.16622952341305
 11
1094.7585836912147
 21
381.83289619007974
  0
LINE
  8
_1-2_極細2
  6
CONTINUOUS
 62
    2
 10
1094.7585836912147
 20
380.23289619007966
 11
1094.7585836912142
 21
378.89956285674634
  0
LINE
  8
_1-2_極細2
  6
CONTINUOUS
 62
    2
 10
1096.7585836912142
 20
381.83289619007974
 11
1096.7585836912142
 21
380.23289619007966
  0
LINE
  8
_1-2_極細2
  6
CONTINUOUS
 62
    2
 10
1098.0919170245475
 20
381.83289619007974
 11
1098.0919170245475
 21
380.23289619007966
  0
LINE
  8
_1-2_極細2
  6
CONTINUOUS
 62
    2
 10
1096.7585836912142
 20
380.80000000000007
 11
1098.0919170245475
 21
380.80000000000007
  0
LINE
  8
_1-2_極細2
  6
CONTINUOUS
 62
    2
 10
1096.7585836912142
 20
381.60000000000008
 11
1098.0919170245475
 21
381.60000000000008
  0
LINE
  8
_1-2_極細2
  6
CONTINUOUS
 62
    2
 10
1094.7585836912147
 20
383.16622952341305
 11
1113.4252503578807
 21
383.16622952341305
  0
LINE
  8
_1-2_極細2
  6
CONTINUOUS
 62
    2
 10
1094.7585836912147
 20
382.40000000000003
 11
1113.4252503578807
 21
382.40000000000003
  0
LINE
  8
_1-2_極細2
  6
CONTINUOUS
 62
    2
 10
1094.7585836912142
 20
379.20000000000005
 11
1113.4252503578807
 21
379.20000000000005
  0
LINE
  8
_1-2_極細2
  6
CONTINUOUS
 62
    2
 10
1094.7585836912142
 20
380.00000000000006
 11
1113.4252503578807
 21
380.00000000000006
  0
LINE
  8
_1-2_極細2
  6
CONTINUOUS
 62
    2
 10
1094.7585836912142
 20
378.89956285674634
 11
1113.4252503578807
 21
378.89956285674634
  0
LINE
  8
_1-2_極細2
  6
CONTINUOUS
 62
    2
 10
1124.8919170245479
 20
418.36622952341287
 11
1123.2919170245475
 21
418.36622952341287
  0
LINE
  8
_1-2_極細2
  6
CONTINUOUS
 62
    2
 10
1124.8919170245479
 20
418.36622952341287
 11
1124.8919170245479
 21
380.23289619007966
  0
LINE
  8
_1-2_極細2
  6
CONTINUOUS
 62
    2
 10
1127.5499116912158
 20
395.16622914793788
 11
1135.5619543578828
 21
395.16622914793788
  0
LINE
  8
_1-3_細線2
  6
CONTINUOUS
 62
    4
 10
1127.5499116912158
 20
385.83289581460576
 11
1135.5619863578811
 21
385.83289581460576
  0
ARC
  8
_1-3_細線2
  6
CONTINUOUS
 62
    4
 10
1135.5619863578811
 20
386.36622914793861
 40
0.5333333333333335
 50
269.99999999999977
 51
359.99999999999966
  0
ARC
  8
_1-2_極細2
  6
CONTINUOUS
 62
    2
 10
1115.4073730245489
 20
390.49917314793947
 40
20.687882666666667
 50
346.96432999999968
 51
13.038021999994573
  0
ARC
  8
_1-3_細線2
  6
CONTINUOUS
 62
    4
 10
1135.5619863578811
 20
403.96622914793943
 40
0.5333333333333335
 50
0
 51
89.999999999999915
  0
ARC
  8
_1-2_極細2
  6
CONTINUOUS
 62
    2
 10
1115.4073730245489
 20
399.83327981460479
 40
20.687882666666667
 50
346.96197800000101
 51
13.035669999999625
  0
LINE
  8
_1-3_細線2
  6
CONTINUOUS
 62
    4
 10
1127.5499116912158
 20
404.49956248127228
 11
1135.5619863578811
 21
404.49956248127228
  0
LINE
  8
_1-3_細線2
  6
CONTINUOUS
 62
    4
 10
1136.0953196912155
 20
386.36622914793861
 11
1136.0953196912155
 21
403.96622914793943
  0
ARC
  8
_1-3_細線2
  6
CONTINUOUS
 62
    4
 10
1127.0165783578816
 20
382.36622914793861
 40
0.5333333333333335
 50
269.99999999999977
 51
359.99999999999966
  0
LINE
  8
_1-3_細線2
  6
CONTINUOUS
 62
    4
 10
1124.8919170245479
 20
381.83289581460514
 11
1127.0165783578816
 21
381.83289581460514
  0
ARC
  8
_1-3_細線2
  6
CONTINUOUS
 62
    4
 10
1127.0165783578816
 20
407.9662291479379
 40
0.5333333333333335
 50
0
 51
89.999999999999915
  0
LINE
  8
_1-3_細線2
  6
CONTINUOUS
 62
    4
 10
1124.8919170245479
 20
408.49956248127228
 11
1127.0165783578816
 21
408.49956248127228
  0
LINE
  8
_1-3_細線2
  6
CONTINUOUS
 62
    4
 10
1127.5499116912158
 20
407.9662291479379
 11
1127.5499116912158
 21
382.36622914793861
  0
LINE
  8
_1-2_極細2
  6
CONTINUOUS
 62
    2
 10
854.22525063001217
 20
381.83289619007974
 11
1123.2919170245475
 21
381.83289619007974
  0
LINE
  8
_1-2_極細2
  6
CONTINUOUS
 62
    2
 10
852.62525063001203
 20
380.23289619007966
 11
1124.8919170245479
 21
380.23289619007966
  0
LINE
  8
_1-2_極細2
  6
CENTER1
 62
    2
 10
837.79035619469983
 20
395.16622914793788
 11
1140.5884729844727
 21
395.16622914793788
  0
LINE
  8
_1-3_細線2
  6
CONTINUOUS
 62
    4
 10
1019.558583419082
 20
421.29956285674592
 11
999.29191675241668
 21
421.29956285674592
  0
LINE
  8
_1-3_細線2
  6
CONTINUOUS
 62
    4
 10
999.29191675241668
 20
421.29956285674592
 11
999.29191675241668
 21
381.83289619007974
  0
ARC
  8
_1-3_細線2
  6
CONTINUOUS
 62
    4
 10
1019.5585834190827
 20
421.29956285674626
 40
3.1999999999999997
 50
0
 51
89.999999999999915
  0
LINE
  8
_1-3_細線2
  6
CONTINUOUS
 62
    4
 10
996.09191675241595
 20
421.29956285674626
 11
996.09191675241595
 21
381.83289619007974
  0
LINE
  8
_1-3_細線2
  6
CONTINUOUS
 62
    4
 10
1019.5585834190827
 20
424.49956285674637
 11
999.29191675241577
 21
424.49956285674637
  0
ARC
  8
_1-3_細線2
  6
CONTINUOUS
 62
    4
 10
999.29191675241577
 20
421.29956285674626
 40
3.1999999999999997
 50
89.999999999999915
 51
179.99999999999983
  0
LINE
  8
_1-3_細線2
  6
CONTINUOUS
 62
    4
 10
996.09191675241595
 20
381.83289619007974
 11
999.29191675241668
 21
381.83289619007974
  0
LINE
  8
_1-3_細線2
  6
CONTINUOUS
 62
    4
 10
1022.7585834190827
 20
408.4995624812712
 11
1019.558583419082
 21
408.49956248127103
  0
LINE
  8
_1-3_細線2
  6
CONTINUOUS
 62
    4
 10
1019.558583419082
 20
421.29956285674592
 11
1019.558583419082
 21
408.4995624812712
  0
LINE
  8
_1-3_細線2
  6
CONTINUOUS
 62
    4
 10
1022.7585834190827
 20
421.29956285674626
 11
1022.7585834190827
 21
408.4995624812712
  0
LINE
  8
_1-3_細線2
  6
CONTINUOUS
 62
    4
 10
1037.4252503578807
 20
385.9662291479379
 11
999.29191702454796
 21
385.9662291479379
  0
LINE
  8
_1-3_細線2
  6
CONTINUOUS
 62
    4
 10
1037.4252503578807
 20
404.36622914793799
 11
999.29191702454796
 21
404.36622914793799
  0
LINE
  8
_1-3_細線2
  6
CONTINUOUS
 62
    4
 10
916.62525090214467
 20
421.29956285674592
 11
936.89191756880996
 21
421.29956285674592
  0
LINE
  8
_1-3_細線2
  6
CONTINUOUS
 62
    4
 10
936.89191756880996
 20
421.29956285674592
 11
936.89191756880996
 21
381.83289619007974
  0
ARC
  8
_1-3_細線2
  6
CONTINUOUS
 62
    4
 10
916.62525090214376
 20
421.29956285674626
 40
3.1999999999999997
 50
89.999999999999915
 51
179.99999999999983
  0
LINE
  8
_1-3_細線2
  6
CONTINUOUS
 62
    4
 10
940.09191756881069
 20
421.29956285674626
 11
940.09191756881069
 21
381.83289619007974
  0
LINE
  8
_1-3_細線2
  6
CONTINUOUS
 62
    4
 10
916.62525090214376
 20
424.49956285674637
 11
936.89191756881041
 21
424.49956285674637
  0
ARC
  8
_1-3_細線2
  6
CONTINUOUS
 62
    4
 10
936.89191756881041
 20
421.29956285674626
 40
3.1999999999999997
 50
0
 51
89.999999999999915
  0
LINE
  8
_1-3_細線2
  6
CONTINUOUS
 62
    4
 10
940.09191756881069
 20
381.83289619007974
 11
936.89191756880996
 21
381.83289619007974
  0
LINE
  8
_1-3_細線2
  6
CONTINUOUS
 62
    4
 10
913.42525090214394
 20
408.4995624812712
 11
916.62525090214467
 21
408.49956248127103
  0
LINE
  8
_1-3_細線2
  6
CONTINUOUS
 62
    4
 10
916.62525090214467
 20
421.29956285674592
 11
916.62525090214467
 21
408.4995624812712
  0
LINE
  8
_1-3_細線2
  6
CONTINUOUS
 62
    4
 10
913.42525090214394
 20
421.29956285674626
 11
913.42525090214394
 21
408.4995624812712
  0
LINE
  8
_1-3_細線2
  6
CONTINUOUS
 62
    4
 10
898.75858396334547
 20
385.9662291479379
 11
936.89191729667823
 21
385.9662291479379
  0
LINE
  8
_1-3_細線2
  6
CONTINUOUS
 62
    4
 10
898.75858396334547
 20
404.36622914793799
 11
936.89191729667823
 21
404.36622914793799
  0
LINE
  8
_1-3_細線2
  6
CONTINUOUS
 62
    4
 10
957.9585845076092
 20
421.29956285674592
 11
978.22525117427472
 21
421.29956285674592
  0
LINE
  8
_1-3_細線2
  6
CONTINUOUS
 62
    4
 10
978.22525117427472
 20
421.29956285674592
 11
978.22525117427472
 21
381.83289619007974
  0
ARC
  8
_1-3_細線2
  6
CONTINUOUS
 62
    4
 10
957.95858450760875
 20
421.29956285674626
 40
3.1999999999999997
 50
89.999999999999915
 51
179.99999999999983
  0
LINE
  8
_1-3_細線2
  6
CONTINUOUS
 62
    4
 10
981.42525117427545
 20
421.29956285674626
 11
981.42525117427545
 21
381.83289619007974
  0
LINE
  8
_1-3_細線2
  6
CONTINUOUS
 62
    4
 10
957.95858450760875
 20
424.49956285674637
 11
978.22525117427517
 21
424.49956285674637
  0
ARC
  8
_1-3_細線2
  6
CONTINUOUS
 62
    4
 10
978.22525117427517
 20
421.29956285674626
 40
3.1999999999999997
 50
0
 51
89.999999999999915
  0
LINE
  8
_1-3_細線2
  6
CONTINUOUS
 62
    4
 10
981.42525117427545
 20
381.83289619007974
 11
978.22525117427472
 21
381.83289619007974
  0
LINE
  8
_1-3_細線2
  6
CONTINUOUS
 62
    4
 10
954.75858450760848
 20
408.4995624812712
 11
957.9585845076092
 21
408.49956248127103
  0
LINE
  8
_1-3_細線2
  6
CONTINUOUS
 62
    4
 10
957.9585845076092
 20
421.29956285674592
 11
957.9585845076092
 21
408.4995624812712
  0
LINE
  8
_1-3_細線2
  6
CONTINUOUS
 62
    4
 10
954.75858450760848
 20
421.29956285674626
 11
954.75858450760848
 21
408.4995624812712
  0
LINE
  8
_1-3_細線2
  6
CONTINUOUS
 62
    4
 10
940.09191756881069
 20
385.9662291479379
 11
978.22525090214322
 21
385.9662291479379
  0
LINE
  8
_1-3_細線2
  6
CONTINUOUS
 62
    4
 10
940.09191756881069
 20
404.36622914793799
 11
978.22525090214322
 21
404.36622914793799
  0
LINE
  8
_1-3_細線2
  6
CONTINUOUS
 62
    4
 10
996.09191675241595
 20
404.36622914793799
 11
981.42525117427545
 21
404.36622914793799
  0
LINE
  8
_1-3_細線2
  6
CONTINUOUS
 62
    4
 10
996.09191675241595
 20
385.9662291479379
 11
981.42525117427545
 21
385.9662291479379
  0
LINE
  8
_1-5_寸法2
  6
CONTINUOUS
 62
    7
 10
940.09191756881069
 20
440.49956285674637
 11
940.09191756881069
 21
517.56622952341309
  0
LINE
  8
_1-5_寸法2
  6
CONTINUOUS
 62
    7
 10
940.09191756881069
 20
509.56622952341309
 11
924.63710434818563
 21
505.42512480177282
  0
LINE
  8
_1-5_寸法2
  6
CONTINUOUS
 62
    7
 10
940.09191756881069
 20
509.56622952341309
 11
924.63710434818563
 21
513.70733424505352
  0
LINE
  8
_1-5_寸法2
  6
CONTINUOUS
 62
    7
 10
954.75858450760848
 20
440.49956285674637
 11
954.7585845076087
 21
517.56622952341309
  0
LINE
  8
_1-5_寸法2
  6
CONTINUOUS
 62
    7
 10
886.17450717847623
 20
509.56622952341309
 11
954.7585845076087
 21
509.56622952341309
  0
TEXT
  8
_1-5_寸法2
 62
    7
 10
886.17450717847623
 20
509.56622952341309
 40
24
 41
1
 50
0
  1
5.5
  0
LINE
  8
_1-5_寸法2
  6
CONTINUOUS
 62
    7
 10
954.7585845076087
 20
509.56622952341309
 11
970.21339772823387
 21
513.70733424505329
  0
LINE
  8
_1-5_寸法2
  6
CONTINUOUS
 62
    7
 10
954.7585845076087
 20
509.56622952341309
 11
970.21339772823376
 21
505.42512480177265
  0
LINE
  8
_1-5_寸法2
  6
CONTINUOUS
 62
    7
 10
981.42525117427545
 20
440.49956285674637
 11
981.42525117427545
 21
517.56622952341309
  0
LINE
  8
_1-5_寸法2
  6
CONTINUOUS
 62
    7
 10
981.42525117427545
 20
509.56622952341309
 11
965.97043795365039
 21
505.42512480177282
  0
LINE
  8
_1-5_寸法2
  6
CONTINUOUS
 62
    7
 10
981.42525117427545
 20
509.56622952341309
 11
965.97043795365039
 21
513.70733424505352
  0
LINE
  8
_1-5_寸法2
  6
CONTINUOUS
 62
    7
 10
954.7585845076087
 20
509.56622952341309
 11
981.42525117427545
 21
509.56622952341309
  0
TEXT
  8
_1-5_寸法2
 62
    7
 10
956.09191784094241
 20
509.56622952341309
 40
24
 41
1
 50
0
  1
10
  0
TEXT
  8
_0-7_枠細線
 62
    5
 10
908.75858396334547
 20
301.36266170438194
 40
40
 41
0.8
 50
0
  1
断面詳細図
  0
TEXT
  8
_0-7_枠細線
 62
    5
 10
1092.6769355620152
 20
304.51939751272312
 40
32
 41
0.6
 50
0
  1
Ｓ＝１：３
  0
LINE
  8
_0-a_極細1
  6
CONTINUOUS
 62
    7
 10
405.31082381892747
 20
866.52942138622757
 11
424.5108218989285
 21
866.52942138622757
  0
LINE
  8
_0-a_極細1
  6
CONTINUOUS
 62
    7
 10
405.31082381892747
 20
867.59608794622773
 11
424.5108218989285
 21
867.59608794622773
  0
LINE
  8
_0-a_極細1
  6
CONTINUOUS
 62
    7
 10
405.13894792620022
 20
868.66275450622743
 11
424.5108218989285
 21
868.66275450622743
  0
LINE
  8
_0-a_極細1
  6
CONTINUOUS
 62
    7
 10
404.07228136620006
 20
869.72942106622759
 11
424.5108218989285
 21
869.72942106622759
  0
LINE
  8
_0-a_極細1
  6
CONTINUOUS
 62
    7
 10
403.0056148061999
 20
870.79608762622752
 11
424.5108218989285
 21
870.79608762622752
  0
LINE
  8
_0-a_極細1
  6
CONTINUOUS
 62
    7
 10
403.34936659165442
 20
871.86275418622768
 11
424.5108218989285
 21
871.86275418622768
  0
LINE
  8
_0-a_極細1
  6
CONTINUOUS
 62
    7
 10
404.41603315165457
 20
872.92942074622783
 11
424.5108218989285
 21
872.92942074622783
  0
LINE
  8
_0-a_極細1
  6
CONTINUOUS
 62
    7
 10
405.31082381892747
 20
873.99608730622776
 11
424.5108218989285
 21
873.99608730622776
  0
LINE
  8
_0-a_極細1
  6
CONTINUOUS
 62
    7
 10
405.31082381892747
 20
875.06275386622792
 11
424.5108218989285
 21
875.06275386622792
  0
LINE
  8
_0-a_極細1
  6
CONTINUOUS
 62
    7
 10
405.31082381892747
 20
876.12942042622808
 11
424.5108218989285
 21
876.12942042622808
  0
LINE
  8
_0-a_極細1
  6
CONTINUOUS
 62
    7
 10
405.31082381892747
 20
877.19608698622778
 11
424.5108218989285
 21
877.19608698622778
  0
LINE
  8
_0-a_極細1
  6
CONTINUOUS
 62
    7
 10
405.31082381892747
 20
878.26275354622794
 11
424.5108218989285
 21
878.26275354622794
  0
LINE
  8
_0-a_極細1
  6
CONTINUOUS
 62
    7
 10
405.31082381892747
 20
879.3294201062281
 11
424.5108218989285
 21
879.3294201062281
  0
LINE
  8
_0-a_極細1
  6
CONTINUOUS
 62
    7
 10
405.31082381892747
 20
880.3960866662278
 11
424.5108218989285
 21
880.3960866662278
  0
LINE
  8
_0-a_極細1
  6
CONTINUOUS
 62
    7
 10
404.60561464619923
 20
881.46275322622796
 11
424.88693345771662
 21
881.46275322622796
  0
LINE
  8
_0-a_極細1
  6
CONTINUOUS
 62
    7
 10
403.53894808619907
 20
882.52941978622812
 11
425.45582228971625
 21
882.52941978622812
  0
LINE
  8
_0-a_極細1
  6
CONTINUOUS
 62
    7
 10
402.81603331165525
 20
883.59608634622828
 11
426.02471112171634
 21
883.59608634622828
  0
LINE
  8
_0-a_極細1
  6
CONTINUOUS
 62
    7
 10
403.8826998716554
 20
884.66275290622798
 11
426.59359995371642
 21
884.66275290622798
  0
LINE
  8
_0-a_極細1
  6
CONTINUOUS
 62
    7
 10
404.94936643165511
 20
885.72941946622859
 11
427.1624887857165
 21
885.72941946622859
  0
LINE
  8
_0-a_極細1
  6
CONTINUOUS
 62
    7
 10
405.31082381892747
 20
886.79608602622807
 11
427.73137761771659
 21
886.79608602622807
  0
LINE
  8
_0-a_極細1
  6
CONTINUOUS
 62
    7
 10
405.31082381892747
 20
887.86275258622823
 11
428.30026644971576
 21
887.86275258622823
  0
LINE
  8
_0-a_極細1
  6
CONTINUOUS
 62
    7
 10
459.22051010353653
 20
840.50131975470117
 11
459.22051010353653
 21
922.82102030763554
  0
LINE
  8
_0-a_極細1
  6
CONTINUOUS
 62
    7
 10
458.15384354353682
 20
839.43465319470124
 11
458.15384354353682
 21
922.59029205409024
  0
LINE
  8
_0-a_極細1
  6
CONTINUOUS
 62
    7
 10
457.08717698353712
 20
838.36798663470154
 11
457.08717698353712
 21
922.120488025035
  0
LINE
  8
_0-a_極細1
  6
CONTINUOUS
 62
    7
 10
456.02051042353696
 20
837.30132007470138
 11
456.02051042353696
 21
921.32967061904355
  0
LINE
  8
_0-a_極細1
  6
CONTINUOUS
 62
    7
 10
454.9538438635368
 20
836.23465351470168
 11
454.9538438635368
 21
919.94822661934768
  0
LINE
  8
_0-a_極細1
  6
CONTINUOUS
 62
    7
 10
453.88717730353665
 20
835.16798695470152
 11
453.88717730353665
 21
915.790639888236
  0
LINE
  8
_0-a_極細1
  6
CONTINUOUS
 62
    7
 10
452.82051074353649
 20
834.10132039470136
 11
452.82051074353649
 21
913.58125178284445
  0
LINE
  8
_0-a_極細1
  6
CONTINUOUS
 62
    7
 10
451.75384418353633
 20
833.25829547009243
 11
451.75384418353633
 21
912.26022717251703
  0
LINE
  8
_0-a_極細1
  6
CONTINUOUS
 62
    7
 10
450.68717762353617
 20
833.25829547009243
 11
450.68717762353617
 21
911.3256908984572
  0
LINE
  8
_0-a_極細1
  6
CONTINUOUS
 62
    7
 10
449.62051106353601
 20
833.25829547009243
 11
449.62051106353601
 21
910.64018231141335
  0
LINE
  8
_0-a_極細1
  6
CONTINUOUS
 62
    7
 10
448.55384450353586
 20
833.25829547009243
 11
448.55384450353586
 21
910.1428661319128
  0
LINE
  8
_0-a_極細1
  6
CONTINUOUS
 62
    7
 10
447.48717794353661
 20
833.25829547009243
 11
447.48717794353661
 21
909.80174130257274
  0
LINE
  8
_0-a_極細1
  6
CONTINUOUS
 62
    7
 10
446.42051138353645
 20
833.25829547009243
 11
446.42051138353645
 21
909.59901536720508
  0
LINE
  8
_0-a_極細1
  6
CONTINUOUS
 62
    7
 10
445.35384482353629
 20
833.25829547009243
 11
445.35384482353629
 21
909.52539952963025
  0
LINE
  8
_0-a_極細1
  6
CONTINUOUS
 62
    7
 10
444.28717826353613
 20
833.25829547009243
 11
444.28717826353613
 21
909.52495451009281
  0
LINE
  8
_0-a_極細1
  6
CONTINUOUS
 62
    7
 10
443.22051170353598
 20
833.25829547009243
 11
443.22051170353598
 21
909.52495451009281
  0
LINE
  8
_0-a_極細1
  6
CONTINUOUS
 62
    7
 10
442.15384514353627
 20
833.25829547009243
 11
442.15384514353627
 21
909.52495451009281
  0
LINE
  8
_0-a_極細1
  6
CONTINUOUS
 62
    7
 10
441.08717858353612
 20
833.25829547009243
 11
441.08717858353612
 21
909.52495451009281
  0
LINE
  8
_0-a_極細1
  6
CONTINUOUS
 62
    7
 10
440.02051202353596
 20
833.25829547009243
 11
440.02051202353596
 21
909.52495451009281
  0
LINE
  8
_0-a_極細1
  6
CONTINUOUS
 62
    7
 10
438.95384546353625
 20
833.25829547009243
 11
438.95384546353625
 21
909.52495451009281
  0
LINE
  8
_0-a_極細1
  6
CONTINUOUS
 62
    7
 10
437.8871789035361
 20
833.25829547009243
 11
437.8871789035361
 21
909.43060232487323
  0
LINE
  8
_0-a_極細1
  6
CONTINUOUS
 62
    7
 10
436.82051234353594
 20
833.25829547009243
 11
436.82051234353594
 21
909.12020344824805
  0
LINE
  8
_0-a_極細1
  6
CONTINUOUS
 62
    7
 10
435.75384578353578
 20
833.25829547009243
 11
435.75384578353578
 21
908.55026637063611
  0
LINE
  8
_0-a_極細1
  6
CONTINUOUS
 62
    7
 10
434.68717922353653
 20
833.25829547009243
 11
434.68717922353653
 21
907.60202570344973
  0
LINE
  8
_0-a_極細1
  6
CONTINUOUS
 62
    7
 10
433.62051266353546
 20
833.25829547009243
 11
433.62051266353546
 21
905.76142918045207
  0
LINE
  8
_0-a_極細1
  6
CONTINUOUS
 62
    7
 10
432.55384610353622
 20
833.25829547009243
 11
432.55384610353622
 21
843.92496107009219
  0
LINE
  8
_0-a_極細1
  6
CONTINUOUS
 62
    7
 10
431.48717954353606
 20
833.25829547009243
 11
431.48717954353606
 21
843.92496107009219
  0
LINE
  8
_0-a_極細1
  6
CONTINUOUS
 62
    7
 10
430.4205129835359
 20
833.25829547009243
 11
430.4205129835359
 21
843.92496107009219
  0
LINE
  8
_0-a_極細1
  6
CONTINUOUS
 62
    7
 10
429.35384642353574
 20
833.25829547009243
 11
429.35384642353574
 21
843.92496107009219
  0
LINE
  8
_0-a_極細1
  6
CONTINUOUS
 62
    7
 10
428.28717986353604
 20
833.25829547009243
 11
428.28717986353604
 21
843.92496107009219
  0
LINE
  8
_0-a_極細1
  6
CONTINUOUS
 62
    7
 10
427.22051330353543
 20
833.25829547009243
 11
427.22051330353543
 21
843.92496107009219
  0
LINE
  8
_0-a_極細1
  6
CONTINUOUS
 62
    7
 10
426.15384674353572
 20
833.25829547009243
 11
426.15384674353572
 21
843.92496107009219
  0
LINE
  8
_0-a_極細1
  6
CONTINUOUS
 62
    7
 10
425.08718018353602
 20
833.25829547009243
 11
425.08718018353602
 21
843.92496107009219
  0
LINE
  8
_0-a_極細1
  6
CONTINUOUS
 62
    7
 10
424.02051362353541
 20
833.25829547009243
 11
424.02051362353541
 21
843.92496107009219
  0
LINE
  8
_0-a_極細1
  6
CONTINUOUS
 62
    7
 10
422.9538470635357
 20
833.25829547009243
 11
422.9538470635357
 21
843.92496107009219
  0
LINE
  8
_0-a_極細1
  6
CONTINUOUS
 62
    7
 10
421.88718050353691
 20
822.59162987009177
 11
421.88718050353691
 21
854.59162667009241
  0
LINE
  8
_0-a_極細1
  6
CONTINUOUS
 62
    7
 10
420.82051394353675
 20
822.59162987009177
 11
420.82051394353675
 21
854.59162667009241
  0
LINE
  8
_0-a_極細1
  6
CONTINUOUS
 62
    7
 10
419.75384738353705
 20
822.59162987009177
 11
419.75384738353705
 21
826.28966312171588
  0
LINE
  8
_0-a_極細1
  6
CONTINUOUS
 62
    7
 10
419.75384738353705
 20
833.79578341634351
 11
419.75384738353705
 21
854.59162667009241
  0
LINE
  8
_0-a_極細1
  6
CONTINUOUS
 62
    7
 10
418.68718082353689
 20
822.59162987009177
 11
418.68718082353689
 21
823.37701289248525
  0
LINE
  8
_0-a_極細1
  6
CONTINUOUS
 62
    7
 10
418.68718082353689
 20
833.79578341634351
 11
418.68718082353689
 21
854.59162667009241
  0
LINE
  8
_0-a_極細1
  6
CONTINUOUS
 62
    7
 10
417.62051426353673
 20
833.79578341634351
 11
417.62051426353673
 21
854.59162667009241
  0
LINE
  8
_0-a_極細1
  6
CONTINUOUS
 62
    7
 10
416.55384770353658
 20
833.79578341634351
 11
416.55384770353658
 21
854.59162667009241
  0
LINE
  8
_0-a_極細1
  6
CONTINUOUS
 62
    7
 10
415.48718114353642
 20
833.79578341634351
 11
415.48718114353642
 21
854.59162667009241
  0
LINE
  8
_0-a_極細1
  6
CONTINUOUS
 62
    7
 10
414.42051458353626
 20
833.79578341634351
 11
414.42051458353626
 21
854.59162667009241
  0
LINE
  8
_0-a_極細1
  6
CONTINUOUS
 62
    7
 10
413.35384802353701
 20
833.79578341634351
 11
413.35384802353701
 21
854.59162667009241
  0
LINE
  8
_0-a_極細1
  6
CONTINUOUS
 62
    7
 10
412.28718146353685
 20
833.79578341634351
 11
412.28718146353685
 21
854.59162667009241
  0
LINE
  8
_0-a_極細1
  6
CONTINUOUS
 62
    7
 10
411.2205149035367
 20
833.79578341634351
 11
411.2205149035367
 21
854.59162667009241
  0
LINE
  8
_0-a_極細1
  6
CONTINUOUS
 62
    7
 10
410.15384834353654
 20
833.79578341634351
 11
410.15384834353654
 21
854.59162667009241
  0
LINE
  8
_0-a_極細1
  6
CONTINUOUS
 62
    7
 10
409.08718178353638
 20
833.79578341634351
 11
409.08718178353638
 21
854.59162667009241
  0
LINE
  8
_0-a_極細1
  6
CONTINUOUS
 62
    7
 10
408.02051522353622
 20
833.79578341634351
 11
408.02051522353622
 21
854.59162667009241
  0
LINE
  8
_0-a_極細1
  6
CONTINUOUS
 62
    7
 10
393.31082501892752
 20
817.79578501634387
 11
393.31082501892752
 21
833.25829547009243
  0
ARC
  8
_0-a_極細1
  6
CONTINUOUS
 62
    7
 10
377.31082661892788
 20
833.79578341634351
 40
15.999998399999999
 50
358.07490068720563
 51
50.029499419965092
  0
LINE
  8
_0-a_極細1
  6
CONTINUOUS
 62
    7
 10
459.86548503012773
 20
915.59608314622756
 11
466.57427418489806
 21
915.59608314622756
  0
LINE
  8
_0-a_極細1
  6
CONTINUOUS
 62
    7
 10
459.86548503012773
 20
916.66274970622771
 11
475.80227326209797
 21
916.66274970622771
  0
LINE
  8
_0-a_極細1
  6
CONTINUOUS
 62
    7
 10
459.86548503012773
 20
917.72941626622742
 11
485.03027233929743
 21
917.72941626622742
  0
LINE
  8
_0-a_極細1
  6
CONTINUOUS
 62
    7
 10
459.86548503012773
 20
918.79608282622758
 11
494.25827141649779
 21
918.79608282622758
  0
LINE
  8
_0-a_極細1
  6
CONTINUOUS
 62
    7
 10
459.86548503012773
 20
919.86274938622751
 11
496.77748133892737
 21
919.86274938622751
  0
LINE
  8
_0-a_極細1
  6
CONTINUOUS
 62
    7
 10
459.86548503012773
 20
920.92941594622766
 11
496.77748133892737
 21
920.92941594622766
  0
LINE
  8
_0-a_極細1
  6
CONTINUOUS
 62
    7
 10
459.86548503012773
 20
921.99608250622782
 11
496.77748133892737
 21
921.99608250622782
  0
LINE
  8
_0-a_極細1
  6
CONTINUOUS
 62
    7
 10
461.56554998273305
 20
923.06274906622775
 11
496.77748133892737
 21
923.06274906622775
  0
LINE
  8
_0-a_極細1
  6
CONTINUOUS
 62
    7
 10
469.05461186193361
 20
924.12941562622791
 11
496.77748133892737
 21
924.12941562622791
  0
LINE
  8
_0-a_極細1
  6
CONTINUOUS
 62
    7
 10
476.54367374113326
 20
925.19608218622807
 11
496.77748133892737
 21
925.19608218622807
  0
LINE
  8
_0-a_極細1
  6
CONTINUOUS
 62
    7
 10
484.03273562033337
 20
926.26274874622823
 11
496.77748133892737
 21
926.26274874622823
  0
LINE
  8
_0-a_極細1
  6
CONTINUOUS
 62
    7
 10
491.52179749953302
 20
927.32941530622793
 11
496.77748133892737
 21
927.32941530622793
  0
LINE
  8
_0-a_極細1
  6
CONTINUOUS
 62
    7
 10
496.77748133892737
 20
928.15394464719338
 11
496.77748133892737
 21
931.84898968926336
  0
LINE
  8
_0-a_極細1
  6
CONTINUOUS
 62
    7
 10
459.86548503012773
 20
926.59161947009261
 11
496.77748133892737
 21
931.84898968926336
  0
LINE
  8
_0-a_極細1
  6
CONTINUOUS
 62
    7
 10
425.31082181892725
 20
889.79577781634407
 11
425.31082181892725
 21
894.59162267009242
  0
LINE
  8
_0-a_極細1
  6
CONTINUOUS
 62
    7
 10
425.31082181892725
 20
857.26244773634335
 11
425.31082181892725
 21
865.26244693634317
  0
LINE
  8
_0-a_極細1
  6
CONTINUOUS
 62
    7
 10
405.31082381892747
 20
880.75754405350017
 11
405.31082381892747
 21
873.82421141350051
  0
LINE
  8
_0-a_極細1
  6
CONTINUOUS
 62
    7
 10
405.31082381892747
 20
868.49087861349994
 11
405.31082381892747
 21
865.82421221350069
  0
LINE
  8
_0-a_極細1
  6
CONTINUOUS
 62
    7
 10
424.5108218989285
 20
880.75754405350017
 11
424.5108218989285
 21
865.82421221350069
  0
LINE
  8
_0-a_極細1
  6
CONTINUOUS
 62
    7
 10
402.64415741892753
 20
883.42421045350034
 11
405.31082381892747
 21
886.0908768535005
  0
LINE
  8
_0-a_極細1
  6
CONTINUOUS
 62
    7
 10
405.31082381892747
 20
880.75754405350017
 11
402.64415741892753
 21
883.42421045350034
  0
LINE
  8
_0-a_極細1
  6
CONTINUOUS
 62
    7
 10
405.31082381892747
 20
868.49087861349994
 11
402.64415741892753
 21
871.15754501350034
  0
LINE
  8
_0-a_極細1
  6
CONTINUOUS
 62
    7
 10
402.64415741892753
 20
871.15754501350034
 11
405.31082381892747
 21
873.82421141350051
  0
LINE
  8
_0-a_極細1
  6
CONTINUOUS
 62
    7
 10
424.5108218989285
 20
880.75754405350017
 11
428.77748813892777
 21
888.75754325349999
  0
LINE
  8
_0-a_極細1
  6
CONTINUOUS
 62
    7
 10
405.31082381892747
 20
888.75754325349999
 11
405.31082381892747
 21
886.0908768535005
  0
ARC
  8
_0-a_極細1
  6
CONTINUOUS
 62
    7
 10
438.37748717892782
 20
921.25828667009273
 40
2.6666664000000004
 50
24.054548999993202
 51
89.999999999999929
  0
ARC
  8
_0-a_極細1
  6
CONTINUOUS
 62
    7
 10
439.97748701892806
 20
914.32495403009261
 40
1.0666665599999394
 50
269.99999999999977
 51
359.99999999999966
  0
ARC
  8
_0-a_極細1
  6
CONTINUOUS
 62
    7
 10
438.37748717892782
 20
921.25828667009273
 40
2.6666664000000004
 50
0
 51
24.054548999993202
  0
LINE
  8
_0-a_極細1
  6
CONTINUOUS
 62
    7
 10
429.57748805892743
 20
897.25828907009213
 11
429.57748805892925
 21
913.25828747009245
  0
LINE
  8
_0-a_極細1
  6
CONTINUOUS
 62
    7
 10
429.57748805892925
 20
913.25828747009245
 11
439.97748701892806
 21
913.25828747009245
  0
LINE
  8
_0-a_極細1
  6
CONTINUOUS
 62
    7
 10
441.04415357892776
 20
914.32495403009261
 11
441.04415357892776
 21
921.25828667009273
  0
LINE
  8
_0-a_極細1
  6
CONTINUOUS
 62
    7
 10
422.64415541892731
 20
833.25829547009243
 11
451.97748581892711
 21
833.25829547009243
  0
LINE
  8
_0-a_極細1
  6
CONTINUOUS
 62
    7
 10
418.21650786169221
 20
822.59162987009177
 11
422.64415541892731
 21
822.59162987009177
  0
LINE
  8
_0-a_極細1
  6
CONTINUOUS
 62
    7
 10
422.64415541892731
 20
847.65829403009275
 11
429.57748805892743
 21
847.65829403009275
  0
LINE
  8
_0-a_極細1
  6
CONTINUOUS
 62
    7
 10
422.64415541892731
 20
843.92496107009219
 11
433.31082101892707
 21
843.92496107009219
  0
LINE
  8
_0-a_極細1
  6
CONTINUOUS
 62
    7
 10
422.64415541892731
 20
822.59162987009177
 11
422.64415541892731
 21
854.59162667009241
  0
LINE
  8
_0-a_極細1
  6
CONTINUOUS
 62
    7
 10
459.86548503012773
 20
841.14629468129215
 11
451.97748581892711
 21
833.25829547009243
  0
LINE
  8
_0-a_極細1
  6
CONTINUOUS
 62
    7
 10
433.31082101892707
 20
843.92496107009219
 11
433.31082101892798
 21
903.92495507009198
  0
ARC
  8
_0-a_極細1
  6
CONTINUOUS
 62
    7
 10
438.91082045892745
 20
903.92495507009198
 40
5.5999994400000617
 50
89.999999999999915
 51
179.99999999999983
  0
LINE
  8
_0-a_極細1
  6
CONTINUOUS
 62
    7
 10
445.26401449027571
 20
909.52495451009281
 11
438.91082045892745
 21
909.52495451009281
  0
ARC
  8
_0-a_極細1
  6
CONTINUOUS
 62
    7
 10
445.26401449027571
 20
918.59162027009233
 40
9.066665759999939
 50
269.99999999999977
 51
356.64911199999887
  0
ARC
  8
_0-a_極細1
  6
CONTINUOUS
 62
    7
 10
445.26401449027571
 20
918.59162027009233
 40
5.3333328000000009
 50
269.99999999999977
 51
356.64911199999932
  0
ARC
  8
_0-a_極細1
  6
CONTINUOUS
 62
    7
 10
459.86548503012773
 20
917.25828707009214
 40
9.3333323999999998
 50
89.999999999999915
 51
175.84900999999778
  0
ARC
  8
_0-a_極細1
  6
CONTINUOUS
 62
    7
 10
438.91082045892745
 20
903.92495507009198
 40
9.3333323999999998
 50
89.999999999999915
 51
179.99999999999983
  0
LINE
  8
_0-a_極細1
  6
CONTINUOUS
 62
    7
 10
441.3108202189278
 20
913.25828747009245
 11
441.3108202189278
 21
926.59161947009261
  0
LINE
  8
_0-a_極細1
  6
CONTINUOUS
 62
    7
 10
429.57748805892743
 20
847.65829403009275
 11
429.57748805892743
 21
903.92495507009198
  0
LINE
  8
_0-a_極細1
  6
CONTINUOUS
 62
    7
 10
445.26401449027571
 20
913.25828747009245
 11
438.91082045892745
 21
913.25828747009245
  0
LINE
  8
_0-a_極細1
  6
CONTINUOUS
 62
    7
 10
407.97749021892787
 20
854.59162667009241
 11
429.57748805892743
 21
854.59162667009241
  0
LINE
  8
_0-a_極細1
  6
CONTINUOUS
 62
    7
 10
496.77748133892737
 20
919.08727888719341
 11
459.86548503012773
 21
914.82061264719323
  0
LINE
  8
_0-a_極細1
  6
CONTINUOUS
 62
    7
 10
459.86548503012591
 20
813.48728944719323
 11
451.97748581892711
 21
817.75395568719296
  0
LINE
  8
_0-a_極細1
  6
CONTINUOUS
 62
    7
 10
451.97748581892711
 20
817.75395568719296
 11
451.97748581892711
 21
833.25829547009243
  0
LINE
  8
_0-a_極細1
  6
CONTINUOUS
 62
    7
 10
496.77748133892737
 20
847.38190472439874
 11
496.77748133892737
 21
931.77302695195203
  0
LINE
  8
_0-a_極細1
  6
CONTINUOUS
 62
    7
 10
475.97748341892702
 20
844.42061968719327
 11
496.77748133892737
 21
844.42061968719327
  0
LINE
  8
_0-a_極細1
  6
CONTINUOUS
 62
    7
 10
496.77748133892737
 20
844.42061968719327
 11
496.77748133892737
 21
847.38190472439874
  0
LINE
  8
_0-a_極細1
  6
CONTINUOUS
 62
    7
 10
475.97748341892702
 20
801.75395728719286
 11
475.97748341892702
 21
844.42061968719327
  0
LINE
  8
_0-a_極細1
  6
CONTINUOUS
 62
    7
 10
459.86548503012773
 20
922.82060893385551
 11
496.77748133892737
 21
928.07798198812247
  0
LINE
  8
_0-a_極細1
  6
CONTINUOUS
 62
    7
 10
459.86548503012773
 20
841.14629468129215
 11
459.86548503012773
 21
922.85828651009297
  0
ARC
  8
_0-a_極細1
  6
CONTINUOUS
 62
    7
 10
459.86548503012773
 20
917.25828707009214
 40
5.5999994400000617
 50
89.999999999999915
 51
175.84900999999743
  0
LINE
  8
_0-a_極細1
  6
CONTINUOUS
 62
    7
 10
409.31082341892716
 20
817.79578501634387
 11
393.31082501892752
 21
817.79578501634387
  0
ARC
  8
_0-a_極細1
  6
CONTINUOUS
 62
    7
 10
409.31082341892716
 20
828.46245061634409
 40
10.666665600000002
 50
269.99999999999977
 51
359.99999999999966
  0
LINE
  8
_0-a_極細1
  6
CONTINUOUS
 62
    7
 10
419.97748901892783
 20
828.46245061634409
 11
419.97748901892783
 21
833.79578341634351
  0
LINE
  8
_0-a_極細1
  6
CONTINUOUS
 62
    7
 10
419.97748901892783
 20
833.79578341634351
 11
407.97749021892787
 21
833.79578341634351
  0
LINE
  8
_0-a_極細1
  6
CONTINUOUS
 62
    7
 10
425.31082181892725
 20
857.26244773634335
 11
407.97749021892787
 21
857.26244773634335
  0
LINE
  8
_0-a_極細1
  6
CONTINUOUS
 62
    7
 10
407.97749021892787
 20
833.79578341634351
 11
407.97749021892787
 21
857.2624477363438
  0
LINE
  8
_0-a_極細1
  6
CONTINUOUS
 62
    7
 10
423.71082197892838
 20
894.59162267009242
 11
423.71082197892838
 21
899.9249554700923
  0
ARC
  8
_0-a_極細1
  6
CONTINUOUS
 62
    7
 10
426.91082165892749
 20
897.25828907009213
 40
2.6666664000000004
 50
269.99999999999977
 51
359.99999999999966
  0
CIRCLE
  8
_0-a_極細1
  6
CONTINUOUS
 62
    7
 10
430.77844717144535
 20
880.81103685777862
 40
99.281077021678641
  0
ARC
  8
_0-a_極細1
  6
CONTINUOUS
 62
    7
 10
489.31081541892718
 20
778.65994892992762
 40
26.666664000000004
 50
120.00000000000082
 51
161.13978923390184
  0
LINE
  8
_0-a_極細1
  6
CONTINUOUS
 62
    7
 10
449.31081941892717
 20
783.27497463736063
 11
449.31081941892717
 21
813.48728944719323
  0
LINE
  8
_0-a_極細1
  6
CONTINUOUS
 62
    7
 10
473.86671931763476
 20
800.39910403087242
 11
475.97748341892793
 21
802.50986813216468
  0
LINE
  8
_0-a_極細1
  6
CONTINUOUS
 62
    7
 10
449.31081941892762
 20
783.38567571057411
 11
475.97748341892793
 21
810.05233971057396
  0
LINE
  8
_0-a_極細1
  6
CONTINUOUS
 62
    7
 10
449.31081941892717
 20
787.15691149977874
 11
475.97748341892793
 21
813.82357549977905
  0
LINE
  8
_0-a_極細1
  6
CONTINUOUS
 62
    7
 10
449.31081941892717
 20
790.92814728898338
 11
475.97748341892793
 21
817.59481128898346
  0
LINE
  8
_0-a_極細1
  6
CONTINUOUS
 62
    7
 10
449.31081941892717
 20
794.69938307818802
 11
475.97748341892793
 21
821.36604707818833
  0
LINE
  8
_0-a_極細1
  6
CONTINUOUS
 62
    7
 10
449.31081941892717
 20
798.47061886739266
 11
475.97748341892793
 21
825.13728286739297
  0
LINE
  8
_0-a_極細1
  6
CONTINUOUS
 62
    7
 10
495.26082023872777
 20
844.42061968719327
 11
496.77748133892737
 21
845.93728078739287
  0
LINE
  8
_0-a_極細1
  6
CONTINUOUS
 62
    7
 10
449.31081941892717
 20
802.2418546565973
 11
475.97748341892793
 21
828.90851865659761
  0
LINE
  8
_0-a_極細1
  6
CONTINUOUS
 62
    7
 10
491.48958444952359
 20
844.42061968719327
 11
496.77748133892737
 21
849.7085165765975
  0
LINE
  8
_0-a_極細1
  6
CONTINUOUS
 62
    7
 10
449.31081941892717
 20
806.01309044580171
 11
456.78501842031847
 21
813.48728944719323
  0
LINE
  8
_0-a_極細1
  6
CONTINUOUS
 62
    7
 10
457.866358169264
 20
814.56862919613877
 11
475.97748341892793
 21
832.67975444580202
  0
LINE
  8
_0-a_極細1
  6
CONTINUOUS
 62
    7
 10
487.7183486603185
 20
844.42061968719327
 11
496.77748133892737
 21
853.4797523658026
  0
LINE
  8
_0-a_極細1
  6
CONTINUOUS
 62
    7
 10
449.31081941892717
 20
809.78432623500657
 11
453.01378263111428
 21
813.48728944719346
  0
LINE
  8
_0-a_極細1
  6
CONTINUOUS
 62
    7
 10
455.41894363120582
 20
815.89245044728568
 11
475.97748341892793
 21
836.45099023500688
  0
LINE
  8
_0-a_極細1
  6
CONTINUOUS
 62
    7
 10
483.9471128711134
 20
844.42061968719281
 11
496.77748133892737
 21
857.25098815500724
  0
LINE
  8
_0-a_極細1
  6
CONTINUOUS
 62
    7
 10
452.97152909314855
 20
817.21627169843259
 11
475.97748341892793
 21
840.22222602421152
  0
LINE
  8
_0-a_極細1
  6
CONTINUOUS
 62
    7
 10
480.17587708190831
 20
844.42061968719281
 11
496.77748133892737
 21
861.02222394421142
  0
LINE
  8
_0-a_極細1
  6
CONTINUOUS
 62
    7
 10
451.97748581892756
 20
819.99346421341579
 11
475.97748341892793
 21
843.99346181341616
  0
LINE
  8
_0-a_極細1
  6
CONTINUOUS
 62
    7
 10
476.40464129270458
 20
844.42061968719281
 11
496.77748133892737
 21
864.79345973341606
  0
LINE
  8
_0-a_極細1
  6
CONTINUOUS
 62
    7
 10
451.97748581892756
 20
823.76470000262043
 11
496.77748133892737
 21
868.5646955226207
  0
LINE
  8
_0-a_極細1
  6
CONTINUOUS
 62
    7
 10
451.97748581892756
 20
827.53593579182507
 11
496.77748133892737
 21
872.33593131182579
  0
LINE
  8
_0-a_極細1
  6
CONTINUOUS
 62
    7
 10
451.97748581892756
 20
831.30717158102971
 11
496.77748133892737
 21
876.1071671010302
  0
LINE
  8
_0-a_極細1
  6
CONTINUOUS
 62
    7
 10
459.86548503012773
 20
842.96640658143542
 11
496.77748133892737
 21
879.87840289023507
  0
LINE
  8
_0-a_極細1
  6
CONTINUOUS
 62
    7
 10
459.86548503012773
 20
846.73764237063961
 11
496.77748133892737
 21
883.64963867943925
  0
LINE
  8
_0-a_極細1
  6
CONTINUOUS
 62
    7
 10
459.86548503012773
 20
850.50887815984424
 11
496.77748133892737
 21
887.42087446864389
  0
LINE
  8
_0-a_極細1
  6
CONTINUOUS
 62
    7
 10
459.86548503012773
 20
854.28011394904888
 11
496.77748133892737
 21
891.19211025784853
  0
LINE
  8
_0-a_極細1
  6
CONTINUOUS
 62
    7
 10
459.86548503012773
 20
858.05134973825398
 11
496.77748133892737
 21
894.96334604705316
  0
LINE
  8
_0-a_極細1
  6
CONTINUOUS
 62
    7
 10
459.86548503012773
 20
861.82258552745861
 11
496.77748133892737
 21
898.7345818362578
  0
LINE
  8
_0-a_極細1
  6
CONTINUOUS
 62
    7
 10
459.86548503012773
 20
865.5938213166628
 11
496.77748133892737
 21
902.5058176254629
  0
LINE
  8
_0-a_極細1
  6
CONTINUOUS
 62
    7
 10
459.86548503012773
 20
869.36505710586766
 11
496.77748133892737
 21
906.27705341466731
  0
LINE
  8
_0-a_極細1
  6
CONTINUOUS
 62
    7
 10
459.86548503012773
 20
873.13629289507253
 11
496.77748133892737
 21
910.04828920387172
  0
LINE
  8
_0-a_極細1
  6
CONTINUOUS
 62
    7
 10
459.86548503012773
 20
876.90752868427717
 11
496.77748133892737
 21
913.81952499307636
  0
LINE
  8
_0-a_極細1
  6
CONTINUOUS
 62
    7
 10
459.86548503012773
 20
880.67876447348112
 11
496.77748133892737
 21
917.590760782281
  0
LINE
  8
_0-a_極細1
  6
CONTINUOUS
 62
    7
 10
459.86548503012773
 20
884.45000026268599
 11
494.20546351618805
 21
918.78997874874631
  0
LINE
  8
_0-a_極細1
  6
CONTINUOUS
 62
    7
 10
459.86548503012773
 20
888.22123605189063
 11
489.94133626621579
 21
918.29708728797777
  0
LINE
  8
_0-a_極細1
  6
CONTINUOUS
 62
    7
 10
459.86548503012773
 20
891.99247184109527
 11
485.67720901624216
 21
917.80419582720924
  0
LINE
  8
_0-a_極細1
  6
CONTINUOUS
 62
    7
 10
459.86548503012773
 20
895.7637076302999
 11
481.41308176626944
 21
917.31130436644116
  0
LINE
  8
_0-a_極細1
  6
CONTINUOUS
 62
    7
 10
459.86548503012773
 20
899.53494341950454
 11
477.14895451629582
 21
916.81841290567263
  0
LINE
  8
_0-a_極細1
  6
CONTINUOUS
 62
    7
 10
459.86548503012773
 20
903.30617920870918
 11
472.88482726632265
 21
916.3255214449041
  0
LINE
  8
_0-a_極細1
  6
CONTINUOUS
 62
    7
 10
459.86548503012773
 20
907.07741499791382
 11
468.62070001634993
 21
915.83262998413534
  0
LINE
  8
_0-a_極細1
  6
CONTINUOUS
 62
    7
 10
459.86548503012773
 20
910.84865078711823
 11
464.35657276637676
 21
915.33973852336703
  0
LINE
  8
_0-a_極細1
  6
CONTINUOUS
 62
    7
 10
459.86548503012773
 20
914.6198865763231
 11
460.09244551640359
 21
914.8468470625985
  0
LINE
  8
_0-a_極細1
  6
CONTINUOUS
 62
    7
 10
453.97401288332412
 20
784.27763338576642
 11
475.97748341892793
 21
806.28110392136932
  0
LINE
  8
_0-a_極細1
  6
CONTINUOUS
 62
    7
 10
459.13257729315501
 20
785.66496200639222
 11
467.57166031798215
 21
794.10404503121981
  0
LINE
  8
_0-a_極細1
  6
CONTINUOUS
 62
    7
 10
357.81102095138294
 20
813.48728944719323
 11
459.86548503012591
 21
813.48728944719323
  0
LINE
  8
_0-a_極細1
  6
CONTINUOUS
 62
    7
 10
354.09378919587198
 20
817.75395568719296
 11
451.97748581892711
 21
817.75395568719296
  0
LINE
  8
_0-a_極細1
  6
CONTINUOUS
 62
    7
 10
343.62645900651387
 20
833.25829547009243
 11
393.31082501892752
 21
833.25829547009243
  0
LINE
  8
_0-a_極細1
  6
CONTINUOUS
 62
    7
 10
345.6205959458789
 20
931.84898968926336
 11
496.77748133892737
 21
931.84898968926336
  0
LINE
  8
_0-a_極細1
  6
CONTINUOUS
 62
    7
 10
342.68264414847681
 20
926.59161947009284
 11
459.86548503012773
 21
926.59161947009261
  0
LINE
  8
_0-a_極細1
  6
CONTINUOUS
 62
    7
 10
341.3473424962699
 20
923.92495307009244
 11
438.37748717892782
 21
923.92495307009222
  0
LINE
  8
_0-a_極細1
  6
CONTINUOUS
 62
    7
 10
333.3546802053379
 20
899.92495547009253
 11
423.71082197892838
 21
899.9249554700923
  0
LINE
  8
_0-a_極細1
  6
CONTINUOUS
 62
    7
 10
332.45842017158111
 20
894.59162267009242
 11
426.91082165892749
 21
894.59162267009242
  0
LINE
  8
_0-a_極細1
  6
CONTINUOUS
 62
    7
 10
425.31082181892725
 20
889.79577781634407
 11
331.90475661378468
 21
889.79577781634407
  0
LINE
  8
_0-a_極細1
  6
CONTINUOUS
 62
    7
 10
331.81590228355662
 20
888.75754325350044
 11
428.77748813892777
 21
888.75754325349999
  0
LINE
  8
_0-a_極細1
  6
CONTINUOUS
 62
    7
 10
331.53176673152757
 20
883.42421045350034
 11
402.64415741892753
 21
883.42421045350034
  0
LINE
  8
_0-a_極細1
  6
CONTINUOUS
 62
    7
 10
331.96780832219474
 20
871.15754501350034
 11
402.64415741892753
 21
871.15754501350034
  0
LINE
  8
_0-a_極細1
  6
CONTINUOUS
 62
    7
 10
332.6350452451511
 20
865.82421221350069
 11
424.5108218989285
 21
865.82421221350069
  0
LINE
  8
_0-a_極細1
  6
CONTINUOUS
 62
    7
 10
425.31082181892725
 20
865.26244693634317
 11
332.72247536941995
 21
865.26244693634317
  0
LINE
  8
_0-a_極細1
  6
CONTINUOUS
 62
    7
 10
407.97749021892787
 20
857.2624477363438
 11
334.33055344133663
 21
857.2624477363438
  0
LINE
  8
_0-d_寸法1
  6
CONTINUOUS
 62
    7
 10
486.14599536915784
 20
921.75939153497302
 11
492.6770602682343
 21
936.3657323253301
  0
LINE
  8
_0-d_寸法1
  6
CONTINUOUS
 62
    7
 10
486.14599536915784
 20
921.75939153497302
 11
499.10523388070146
 21
931.14332126621696
  0
LINE
  8
_0-d_寸法1
  6
CONTINUOUS
 62
    7
 10
486.14599536915784
 20
921.75939153497302
 11
518.87869578884738
 21
962.04949484567805
  0
LINE
  8
_0-d_寸法1
  6
CONTINUOUS
 62
    7
 10
518.87869578884738
 20
962.04949484567805
 11
589.27869578884747
 21
962.04949484567805
  0
TEXT
  8
_0-d_寸法1
 62
    7
 10
518.87869578884738
 20
962.04949484567805
 40
24
 41
0.7333333333333333
 50
0
  1
パッキン
  0
LINE
  8
_0-a_極細1
  6
CONTINUOUS
 62
    7
 10
378.15385154353726
 20
824.19162971009246
 11
378.15385154353726
 21
833.25829547009243
  0
LINE
  8
_0-a_極細1
  6
CONTINUOUS
 62
    7
 10
377.0871849835371
 20
824.19162971009246
 11
377.0871849835371
 21
833.25829547009243
  0
LINE
  8
_0-a_極細1
  6
CONTINUOUS
 62
    7
 10
376.02051842353694
 20
824.19162971009246
 11
376.02051842353694
 21
833.25829547009243
  0
LINE
  8
_0-a_極細1
  6
CONTINUOUS
 62
    7
 10
374.95385186353678
 20
824.19162971009246
 11
374.95385186353678
 21
833.25829547009243
  0
LINE
  8
_0-a_極細1
  6
CONTINUOUS
 62
    7
 10
373.88718530353663
 20
824.19162971009246
 11
373.88718530353663
 21
833.25829547009243
  0
LINE
  8
_0-a_極細1
  6
CONTINUOUS
 62
    7
 10
372.82051874353647
 20
824.19162971009246
 11
372.82051874353647
 21
833.25829547009243
  0
LINE
  8
_0-a_極細1
  6
CONTINUOUS
 62
    7
 10
371.75385218353676
 20
824.19162971009246
 11
371.75385218353676
 21
833.25829547009243
  0
LINE
  8
_0-a_極細1
  6
CONTINUOUS
 62
    7
 10
370.68718562353706
 20
824.19162971009246
 11
370.68718562353706
 21
833.25829547009243
  0
LINE
  8
_0-a_極細1
  6
CONTINUOUS
 62
    7
 10
369.6205190635369
 20
824.19162971009246
 11
369.6205190635369
 21
833.25829547009243
  0
LINE
  8
_0-a_極細1
  6
CONTINUOUS
 62
    7
 10
368.55385250353675
 20
824.19162971009246
 11
368.55385250353675
 21
833.25829547009243
  0
LINE
  8
_0-a_極細1
  6
CONTINUOUS
 62
    7
 10
367.48718594353659
 20
824.19162971009246
 11
367.48718594353659
 21
833.25829547009243
  0
LINE
  8
_0-a_極細1
  6
CONTINUOUS
 62
    7
 10
366.42051938353643
 20
824.19162971009246
 11
366.42051938353643
 21
833.25829547009243
  0
LINE
  8
_0-a_極細1
  6
CONTINUOUS
 62
    7
 10
365.35385282353627
 20
824.19162971009246
 11
365.35385282353627
 21
833.25829547009243
  0
LINE
  8
_0-a_極細1
  6
CONTINUOUS
 62
    7
 10
364.28718626353611
 20
824.19162971009246
 11
364.28718626353611
 21
833.25829547009243
  0
LINE
  8
_0-a_極細1
  6
CONTINUOUS
 62
    7
 10
363.22051970353596
 20
824.19162971009246
 11
363.22051970353596
 21
833.25829547009243
  0
LINE
  8
_0-a_極細1
  6
CONTINUOUS
 62
    7
 10
362.15385314353671
 20
824.19162971009246
 11
362.15385314353671
 21
833.25829547009243
  0
LINE
  8
_0-a_極細1
  6
CONTINUOUS
 62
    7
 10
361.08718658353655
 20
824.19162971009246
 11
361.08718658353655
 21
833.25829547009243
  0
LINE
  8
_0-a_極細1
  6
CONTINUOUS
 62
    7
 10
360.02052002353639
 20
824.19162971009246
 11
360.02052002353639
 21
833.25829547009243
  0
LINE
  8
_0-a_極細1
  6
CONTINUOUS
 62
    7
 10
358.95385346353623
 20
824.19162971009246
 11
358.95385346353623
 21
833.25829547009243
  0
LINE
  8
_0-a_極細1
  6
CONTINUOUS
 62
    7
 10
357.88718690353608
 20
824.19162971009246
 11
357.88718690353608
 21
833.25829547009243
  0
LINE
  8
_0-a_極細1
  6
CONTINUOUS
 62
    7
 10
356.82052034353592
 20
824.19162971009246
 11
356.82052034353592
 21
833.25829547009243
  0
LINE
  8
_0-a_極細1
  6
CONTINUOUS
 62
    7
 10
355.75385378353621
 20
824.19162971009246
 11
355.75385378353621
 21
833.25829547009243
  0
LINE
  8
_0-a_極細1
  6
CONTINUOUS
 62
    7
 10
354.68718722353651
 20
824.19162971009246
 11
354.68718722353651
 21
833.25829547009243
  0
LINE
  8
_0-a_極細1
  6
CONTINUOUS
 62
    7
 10
353.6205206635359
 20
824.19162971009246
 11
353.6205206635359
 21
833.25829547009243
  0
LINE
  8
_0-a_極細1
  6
CONTINUOUS
 62
    7
 10
352.5538541035362
 20
824.19162971009246
 11
352.5538541035362
 21
833.25829547009243
  0
LINE
  8
_0-a_極細1
  6
CONTINUOUS
 62
    7
 10
378.83782913289406
 20
824.19162971009246
 11
378.83782913289406
 21
833.25829547009243
  0
LINE
  8
_0-a_極細1
  6
CONTINUOUS
 62
    7
 10
352.17116513289375
 20
824.19162971009246
 11
352.17116513289375
 21
833.25829547009243
  0
LINE
  8
_0-a_極細1
  6
CONTINUOUS
 62
    7
 10
352.17116513289375
 20
824.19162971009246
 11
378.83782913289406
 21
824.19162971009246
  0
ARC
  8
_0-a_極細1
  6
CONTINUOUS
 62
    7
 10
369.3108274189276
 20
819.79176348341252
 40
31.999996799999998
 50
55.166292356155729
 51
148.68484545273029
  0
LINE
  8
_0-a_極細1
  6
CONTINUOUS
 62
    7
 10
393.24168535974195
 20
833.25829547009243
 11
393.24168535974195
 21
835.28161267309724
  0
LINE
  8
_0-a_極細1
  6
CONTINUOUS
 62
    7
 10
391.6416853597425
 20
833.25829547009243
 11
391.6416853597425
 21
840.91100910150863
  0
LINE
  8
_0-a_極細1
  6
CONTINUOUS
 62
    7
 10
390.04168535974213
 20
833.25829547009243
 11
390.04168535974213
 21
843.48728404944677
  0
LINE
  8
_0-a_極細1
  6
CONTINUOUS
 62
    7
 10
388.44168535974268
 20
833.25829547009243
 11
388.44168535974268
 21
845.28943090058647
  0
LINE
  8
_0-a_極細1
  6
CONTINUOUS
 62
    7
 10
386.84168535974231
 20
833.25829547009243
 11
386.84168535974231
 21
846.56243428298308
  0
LINE
  8
_0-a_極細1
  6
CONTINUOUS
 62
    7
 10
385.24168535974195
 20
833.25829547009243
 11
385.24168535974195
 21
847.54437706249018
  0
LINE
  8
_0-a_極細1
  6
CONTINUOUS
 62
    7
 10
383.6416853597425
 20
833.25829547009243
 11
383.6416853597425
 21
848.40340981633472
  0
LINE
  8
_0-a_極細1
  6
CONTINUOUS
 62
    7
 10
382.04168535974213
 20
833.25829547009243
 11
382.04168535974213
 21
849.15032358589042
  0
LINE
  8
_0-a_極細1
  6
CONTINUOUS
 62
    7
 10
380.44168535974222
 20
833.25829547009243
 11
380.44168535974222
 21
849.79349337856047
  0
LINE
  8
_0-a_極細1
  6
CONTINUOUS
 62
    7
 10
378.84168535974231
 20
833.25829547009243
 11
378.84168535974231
 21
850.33947276106574
  0
LINE
  8
_0-a_極細1
  6
CONTINUOUS
 62
    7
 10
377.24168535974195
 20
833.25829547009243
 11
377.24168535974195
 21
850.79339711008834
  0
LINE
  8
_0-a_極細1
  6
CONTINUOUS
 62
    7
 10
375.6416853597425
 20
833.25829547009243
 11
375.6416853597425
 21
851.15926311174189
  0
LINE
  8
_0-a_極細1
  6
CONTINUOUS
 62
    7
 10
374.04168535974213
 20
833.25829547009243
 11
374.04168535974213
 21
851.44012486822749
  0
LINE
  8
_0-a_極細1
  6
CONTINUOUS
 62
    7
 10
372.44168535974222
 20
833.25829547009243
 11
372.44168535974222
 21
851.63823147837957
  0
LINE
  8
_0-a_極細1
  6
CONTINUOUS
 62
    7
 10
370.84168535974231
 20
833.25829547009243
 11
370.84168535974231
 21
851.75512171068704
  0
LINE
  8
_0-a_極細1
  6
CONTINUOUS
 62
    7
 10
369.24168535974195
 20
833.25829547009243
 11
369.24168535974195
 21
851.79168558606261
  0
LINE
  8
_0-a_極細1
  6
CONTINUOUS
 62
    7
 10
367.64168535974159
 20
833.25829547009243
 11
367.64168535974159
 21
851.74819882883685
  0
LINE
  8
_0-a_極細1
  6
CONTINUOUS
 62
    7
 10
366.04168535974213
 20
833.25829547009243
 11
366.04168535974213
 21
851.6243333670534
  0
LINE
  8
_0-a_極細1
  6
CONTINUOUS
 62
    7
 10
364.44168535974177
 20
833.25829547009243
 11
364.44168535974177
 21
851.41914482944685
  0
LINE
  8
_0-a_極細1
  6
CONTINUOUS
 62
    7
 10
362.84168535974231
 20
833.25829547009243
 11
362.84168535974231
 21
851.13103590984406
  0
LINE
  8
_0-a_極細1
  6
CONTINUOUS
 62
    7
 10
361.24168535974195
 20
833.25829547009243
 11
361.24168535974195
 21
850.75769220561779
  0
LINE
  8
_0-a_極細1
  6
CONTINUOUS
 62
    7
 10
359.64168535974159
 20
833.25829547009243
 11
359.64168535974159
 21
850.29598429036514
  0
LINE
  8
_0-a_極細1
  6
CONTINUOUS
 62
    7
 10
358.04168535974213
 20
833.25829547009243
 11
358.04168535974213
 21
849.74182579469834
  0
LINE
  8
_0-a_極細1
  6
CONTINUOUS
 62
    7
 10
356.44168535974177
 20
833.25829547009243
 11
356.44168535974177
 21
849.08997124191728
  0
LINE
  8
_0-a_極細1
  6
CONTINUOUS
 62
    7
 10
354.84168535974186
 20
833.25829547009243
 11
354.84168535974186
 21
848.33372773381279
  0
LINE
  8
_0-a_極細1
  6
CONTINUOUS
 62
    7
 10
353.24168535974195
 20
833.25829547009243
 11
353.24168535974195
 21
847.46453834755903
  0
LINE
  8
_0-a_極細1
  6
CONTINUOUS
 62
    7
 10
351.64168535974159
 20
833.25829547009243
 11
351.64168535974159
 21
846.47136644320835
  0
LINE
  8
_0-a_極細1
  6
CONTINUOUS
 62
    7
 10
350.04168535974213
 20
833.25829547009243
 11
350.04168535974213
 21
845.3397567412585
  0
LINE
  8
_0-a_極細1
  6
CONTINUOUS
 62
    7
 10
348.44168535974177
 20
833.25829547009243
 11
348.44168535974177
 21
844.0503435101482
  0
LINE
  8
_0-a_極細1
  6
CONTINUOUS
 62
    7
 10
346.84168535974186
 20
833.25829547009243
 11
346.84168535974186
 21
842.57635148328973
  0
LINE
  8
_0-a_極細1
  6
CONTINUOUS
 62
    7
 10
345.24168535974195
 20
833.25829547009243
 11
345.24168535974195
 21
840.87911029932911
  0
LINE
  8
_0-a_極細1
  6
CONTINUOUS
 62
    7
 10
343.64168535974159
 20
833.25829547009243
 11
343.64168535974159
 21
838.89922121973518
  0
LINE
  8
_0-a_極細1
  6
CONTINUOUS
 62
    7
 10
342.04168535974122
 20
836.2855457570904
 11
342.04168535974122
 21
836.53672351788146
  0
LINE
  8
_0-d_寸法1
  6
CONTINUOUS
 62
    7
 10
417.28698367744573
 20
873.0454314986132
 11
428.60063550759003
 21
861.73166633107189
  0
LINE
  8
_0-d_寸法1
  6
CONTINUOUS
 62
    7
 10
417.28698367744573
 20
873.0454314986132
 11
421.42801098815232
 21
857.59059753599877
  0
LINE
  8
_0-d_寸法1
  6
CONTINUOUS
 62
    7
 10
417.28698367744573
 20
873.0454314986132
 11
481.91185874733878
 21
761.11056964763327
  0
LINE
  8
_0-d_寸法1
  6
CONTINUOUS
 62
    7
 10
481.91185874733878
 20
761.11056964763327
 11
657.91185874733867
 21
761.11056964763327
  0
TEXT
  8
_0-d_寸法1
 62
    7
 10
481.91185874733878
 20
761.11056964763327
 40
24
 41
0.7333333333333333
 50
0
  1
防臭インナーパッキン
  0
LINE
  8
_0-d_寸法1
  6
CONTINUOUS
 62
    7
 10
485.04679959931809
 20
852.02189192758465
 11
496.36103302044762
 21
840.70870837510051
  0
LINE
  8
_0-d_寸法1
  6
CONTINUOUS
 62
    7
 10
485.04679959931809
 20
852.02189192758465
 11
489.18862139012117
 21
836.56727086289243
  0
LINE
  8
_0-d_寸法1
  6
CONTINUOUS
 62
    7
 10
485.04679959931809
 20
852.02189192758465
 11
516.45199508461906
 21
797.63232581981345
  0
LINE
  8
_0-d_寸法1
  6
CONTINUOUS
 62
    7
 10
516.45199508461906
 20
797.63232581981345
 11
639.65199508461922
 21
797.63232581981345
  0
TEXT
  8
_0-d_寸法1
 62
    7
 10
516.45199508461906
 20
797.63232581981345
 40
24
 41
0.7333333333333333
 50
0
  1
ロックフランジ
  0
TEXT
  8
_0-7_枠細線
 62
    5
 10
352.84475165333379
 20
704.2379259208144
 40
40
 41
0.8
 50
0
  1
Ｃ部拡大図
  0
LINE
  8
_0-0_計極細
  6
CONTINUOUS
 62
    2
 10
857.5037583888959
 20
1168.2135743294716
 11
857.5037583888959
 21
1173.7135741094662
  0
LINE
  8
_0-0_計極細
  6
CONTINUOUS
 62
    2
 10
857.5037583888959
 20
1189.2135734894505
 11
857.5037583888959
 21
1183.7135737094559
  0
LINE
  8
_0-0_計極細
  6
CONTINUOUS
 62
    2
 10
846.55376099423324
 20
1189.213572469424
 11
846.55376099423324
 21
1187.6135735534608
  0
LINE
  8
_0-0_計極細
  6
CONTINUOUS
 62
    2
 10
846.55376099423324
 20
1186.6135735934604
 11
846.55376099423324
 21
1183.713572469424
  0
LINE
  8
_0-0_計極細
  6
CONTINUOUS
 62
    2
 10
853.45376099435566
 20
1189.213572469424
 11
853.45376099435566
 21
1187.6135735534608
  0
LINE
  8
_0-0_計極細
  6
CONTINUOUS
 62
    2
 10
853.45376099435566
 20
1186.6135735934604
 11
853.45376099435566
 21
1183.713572469424
  0
LINE
  8
_0-0_計極細
  6
CONTINUOUS
 62
    2
 10
846.55376099423324
 20
1168.213572469424
 11
846.55376099423324
 21
1169.8135742654613
  0
LINE
  8
_0-0_計極細
  6
CONTINUOUS
 62
    2
 10
846.55376099423324
 20
1170.8135742254613
 11
846.55376099423324
 21
1173.713572469424
  0
LINE
  8
_0-0_計極細
  6
CONTINUOUS
 62
    2
 10
853.45376099435566
 20
1168.213572469424
 11
853.45376099435566
 21
1169.8135742654613
  0
LINE
  8
_0-0_計極細
  6
CONTINUOUS
 62
    2
 10
853.45376099435566
 20
1170.8135742254613
 11
853.45376099435566
 21
1173.713572469424
  0
LINE
  8
_0-0_計極細
  6
CONTINUOUS
 62
    2
 10
814.00376014890367
 20
1168.8135743054609
 11
823.00375978890474
 21
1168.8135743054609
  0
LINE
  8
_0-0_計極細
  6
CONTINUOUS
 62
    2
 10
814.00376014890367
 20
1168.8135743054609
 11
814.00376014890367
 21
1169.8135742654613
  0
LINE
  8
_0-0_計極細
  6
CONTINUOUS
 62
    2
 10
823.00375978890474
 20
1168.8135743054609
 11
823.00375978890474
 21
1169.8135742654613
  0
LINE
  8
_0-0_計極細
  6
CONTINUOUS
 62
    2
 10
814.00376014890367
 20
1188.6135735134608
 11
823.00375978890474
 21
1188.6135735134608
  0
LINE
  8
_0-0_計極細
  6
CONTINUOUS
 62
    2
 10
814.00376014890367
 20
1188.6135735134608
 11
814.00376014890367
 21
1187.6135735534608
  0
LINE
  8
_0-0_計極細
  6
CONTINUOUS
 62
    2
 10
823.00375978890474
 20
1188.6135735134608
 11
823.00375978890474
 21
1187.6135735534608
  0
LINE
  8
_0-1_計細線
  6
CONTINUOUS
 62
    3
 10
855.00375850890418
 20
1186.6135735934604
 11
855.00375850890418
 21
1187.6135735534608
  0
LINE
  8
_0-1_計細線
  6
CONTINUOUS
 62
    3
 10
842.20375902090495
 20
1186.6135735934604
 11
855.00375850890418
 21
1186.6135735934604
  0
LINE
  8
_0-1_計細線
  6
CONTINUOUS
 62
    3
 10
855.00375850890418
 20
1187.6135735534608
 11
813.00376018890415
 21
1187.6135735534608
  0
LINE
  8
_0-1_計細線
  6
CONTINUOUS
 62
    3
 10
813.00376018890415
 20
1169.8135742654613
 11
855.00375850890418
 21
1169.8135742654613
  0
LINE
  8
_0-1_計細線
  6
CONTINUOUS
 62
    3
 10
855.00375850890418
 20
1170.8135742254613
 11
842.20375902090495
 21
1170.8135742254613
  0
LINE
  8
_0-1_計細線
  6
CONTINUOUS
 62
    3
 10
855.00375850890418
 20
1169.8135742654613
 11
855.00375850890418
 21
1170.8135742254613
  0
LINE
  8
_0-1_計細線
  6
CONTINUOUS
 62
    3
 10
842.20375902090495
 20
1169.8135742654613
 11
842.20375902090495
 21
1187.6135735534608
  0
LINE
  8
_0-1_計細線
  6
CONTINUOUS
 62
    3
 10
813.00376018890415
 20
1187.6135735534608
 11
813.00376018890415
 21
1169.8135742654613
  0
LINE
  8
_0-1_計細線
  6
CONTINUOUS
 62
    3
 10
844.50375890890496
 20
1183.7135737094559
 11
844.50375890890496
 21
1173.7135741094662
  0
LINE
  8
_0-0_計極細
  6
CONTINUOUS
 62
    2
 10
817.50375998890445
 20
1189.2135734894505
 11
817.50375998890445
 21
1188.6135735134608
  0
LINE
  8
_0-0_計極細
  6
CONTINUOUS
 62
    2
 10
817.50375998890445
 20
1168.8135743054609
 11
817.50375998890445
 21
1168.2135743294716
  0
LINE
  8
_0-0_計極細
  6
CONTINUOUS
 62
    2
 10
857.5037583888959
 20
1204.7135728694338
 11
857.5037583888959
 21
1199.2135730894402
  0
LINE
  8
_0-0_計極細
  6
CONTINUOUS
 62
    2
 10
817.50375998890445
 20
1204.7135728694338
 11
817.50375998890445
 21
1199.2135730894402
  0
LINE
  8
_0-0_計極細
  6
CONTINUOUS
 62
    2
 10
853.45375867380312
 20
1204.7135724694231
 11
853.4537609849815
 21
1199.213572469424
  0
LINE
  8
_0-0_計極細
  6
CONTINUOUS
 62
    2
 10
846.5537587040069
 20
1204.7135724694231
 11
846.55376098498141
 21
1199.213572469424
  0
LINE
  8
_0-0_計極細
  6
CONTINUOUS
 62
    2
 10
857.5037583888959
 20
1220.2135728694338
 11
857.5037583888959
 21
1214.7135730894402
  0
LINE
  8
_0-0_計極細
  6
CONTINUOUS
 62
    2
 10
817.50375998890445
 20
1220.2135728694338
 11
817.50375998890445
 21
1214.7135730894402
  0
LINE
  8
_0-0_計極細
  6
CONTINUOUS
 62
    2
 10
853.45375867380312
 20
1220.2135724694231
 11
853.4537609849815
 21
1214.713572469424
  0
LINE
  8
_0-0_計極細
  6
CONTINUOUS
 62
    2
 10
846.5537587040069
 20
1220.2135724694231
 11
846.55376098498141
 21
1214.713572469424
  0
LINE
  8
_0-0_計極細
  6
CONTINUOUS
 62
    2
 10
857.5037583888959
 20
1235.7135728694334
 11
857.5037583888959
 21
1230.2135730894397
  0
LINE
  8
_0-0_計極細
  6
CONTINUOUS
 62
    2
 10
817.50375998890445
 20
1235.7135728694334
 11
817.50375998890445
 21
1230.2135730894397
  0
LINE
  8
_0-0_計極細
  6
CONTINUOUS
 62
    2
 10
853.45375867380312
 20
1235.7135724694231
 11
853.4537609849815
 21
1230.2135724694231
  0
LINE
  8
_0-0_計極細
  6
CONTINUOUS
 62
    2
 10
846.5537587040069
 20
1235.7135724694231
 11
846.55376098498141
 21
1230.2135724694231
  0
LINE
  8
_0-0_計極細
  6
CONTINUOUS
 62
    2
 10
857.5037583888959
 20
1158.2135728694352
 11
857.5037583888959
 21
1152.7135730894415
  0
LINE
  8
_0-0_計極細
  6
CONTINUOUS
 62
    2
 10
817.50375998890445
 20
1158.2135728694352
 11
817.50375998890445
 21
1152.7135730894415
  0
LINE
  8
_0-0_計極細
  6
CONTINUOUS
 62
    2
 10
853.45375867380312
 20
1158.2135724694249
 11
853.4537609849815
 21
1152.7135724694249
  0
LINE
  8
_0-0_計極細
  6
CONTINUOUS
 62
    2
 10
846.5537587040069
 20
1158.2135724694249
 11
846.55376098498141
 21
1152.7135724694249
  0
LINE
  8
_0-0_計極細
  6
CONTINUOUS
 62
    2
 10
857.5037583888959
 20
1142.7135728694357
 11
857.5037583888959
 21
1137.213573089442
  0
LINE
  8
_0-0_計極細
  6
CONTINUOUS
 62
    2
 10
817.50375998890445
 20
1142.7135728694357
 11
817.50375998890445
 21
1137.213573089442
  0
LINE
  8
_0-0_計極細
  6
CONTINUOUS
 62
    2
 10
853.45375867380312
 20
1142.7135724694249
 11
853.4537609849815
 21
1137.2135724694258
  0
LINE
  8
_0-0_計極細
  6
CONTINUOUS
 62
    2
 10
846.5537587040069
 20
1142.7135724694249
 11
846.55376098498141
 21
1137.2135724694258
  0
ARC
  8
_0-0_計極細
  6
CONTINUOUS
 62
    2
 10
1187.5817283864242
 20
1215.4635724693371
 40
54.312365187078854
 50
327.72737804884258
 51
33.846056193751259
  0
ARC
  8
_0-0_計極細
  6
CONTINUOUS
 62
    2
 10
1279.4257921514761
 20
1157.4635724695131
 40
54.312365187078854
 50
147.72737804884292
 51
213.84605619376094
  0
LINE
  8
_0-1_計細線
  6
CONTINUOUS
 62
    3
 10
810.50376026894605
 20
1245.7135724694231
 11
810.50376026894605
 21
1235.7135724694222
  0
LINE
  8
_0-1_計細線
  6
CONTINUOUS
 62
    3
 10
1232.690158997669
 20
1245.7135724694231
 11
810.50376026894605
 21
1245.7135724694231
  0
LINE
  8
_0-1_計細線
  6
CONTINUOUS
 62
    3
 10
810.50376026894605
 20
1235.7135724694222
 11
1237.977864272136
 21
1235.7135724694222
  0
LINE
  8
_0-1_計細線
  6
CONTINUOUS
 62
    3
 10
810.50376026894605
 20
1230.2135724694222
 11
810.50376026894605
 21
1220.2135724694222
  0
LINE
  8
_0-1_計細線
  6
CONTINUOUS
 62
    3
 10
1239.8528534193913
 20
1230.2135724694222
 11
810.50376026894605
 21
1230.2135724694222
  0
LINE
  8
_0-1_計細線
  6
CONTINUOUS
 62
    3
 10
810.50376026894605
 20
1220.2135724694222
 11
1241.6859843392951
 21
1220.2135724694222
  0
LINE
  8
_0-1_計細線
  6
CONTINUOUS
 62
    3
 10
810.50376026894605
 20
1214.7135724694222
 11
810.50376026894605
 21
1204.7135724694222
  0
LINE
  8
_0-1_計細線
  6
CONTINUOUS
 62
    3
 10
1241.8889149478248
 20
1214.7135724694222
 11
810.50376026894605
 21
1214.7135724694222
  0
LINE
  8
_0-1_計細線
  6
CONTINUOUS
 62
    3
 10
810.50376026894605
 20
1204.7135724694222
 11
1240.8195956635461
 21
1204.7135724694222
  0
LINE
  8
_0-1_計細線
  6
CONTINUOUS
 62
    3
 10
810.50376026894605
 20
1199.2135724694222
 11
810.50376026894605
 21
1189.2135724694222
  0
LINE
  8
_0-1_計細線
  6
CONTINUOUS
 62
    3
 10
1239.406148423868
 20
1199.2135724694222
 11
810.50376026894605
 21
1199.2135724694222
  0
LINE
  8
_0-1_計細線
  6
CONTINUOUS
 62
    3
 10
810.50376026894605
 20
1189.2135724694222
 11
1235.1292889150056
 21
1189.2135724694222
  0
LINE
  8
_0-1_計細線
  6
CONTINUOUS
 62
    3
 10
1231.8782316228919
 20
1183.7135724694222
 11
844.50375890890496
 21
1183.7135724694222
  0
LINE
  8
_0-1_計細線
  6
CONTINUOUS
 62
    3
 10
844.50375890890496
 20
1173.7135724694222
 11
1227.6013721140309
 21
1173.7135724694222
  0
LINE
  8
_0-1_計細線
  6
CONTINUOUS
 62
    3
 10
810.50376026894605
 20
1168.2135724694222
 11
810.50376026894605
 21
1158.2135724694213
  0
LINE
  8
_0-1_計細線
  6
CONTINUOUS
 62
    3
 10
1226.1879248743533
 20
1168.2135724694222
 11
810.50376026894605
 21
1168.2135724694222
  0
LINE
  8
_0-1_計細線
  6
CONTINUOUS
 62
    3
 10
810.50376026894605
 20
1158.2135724694213
 11
1225.1186055900755
 21
1158.2135724694213
  0
LINE
  8
_0-1_計細線
  6
CONTINUOUS
 62
    3
 10
810.50376026894605
 20
1152.7135724694213
 11
810.50376026894605
 21
1142.7135724694213
  0
LINE
  8
_0-1_計細線
  6
CONTINUOUS
 62
    3
 10
1225.3215361986056
 20
1152.7135724694213
 11
810.50376026894605
 21
1152.7135724694213
  0
LINE
  8
_0-1_計細線
  6
CONTINUOUS
 62
    3
 10
810.50376026894605
 20
1142.7135724694213
 11
1227.1546671185108
 21
1142.7135724694213
  0
LINE
  8
_0-1_計細線
  6
CONTINUOUS
 62
    3
 10
810.50376026894605
 20
1137.2135724694213
 11
810.50376026894605
 21
1127.2135724694213
  0
LINE
  8
_0-1_計細線
  6
CONTINUOUS
 62
    3
 10
1229.0296562657666
 20
1137.2135724694213
 11
810.50376026894605
 21
1137.2135724694213
  0
LINE
  8
_0-1_計細線
  6
CONTINUOUS
 62
    3
 10
810.50376026894605
 20
1127.2135724694213
 11
1234.3173615402363
 21
1127.2135724694213
  0
LINE
  8
_0-0_計極細
  6
CONTINUOUS
 62
    2
 10
1099.4537579577679
 20
1235.7135724694222
 11
1099.4537602689459
 21
1230.2135724694231
  0
LINE
  8
_0-0_計極細
  6
CONTINUOUS
 62
    2
 10
1092.5537579879713
 20
1235.7135724694222
 11
1092.5537602689462
 21
1230.2135724694231
  0
LINE
  8
_0-0_計極細
  6
CONTINUOUS
 62
    2
 10
1103.5037599689383
 20
1235.7135714293959
 11
1103.5037599689383
 21
1230.2135716494017
  0
LINE
  8
_0-0_計極細
  6
CONTINUOUS
 62
    2
 10
1088.5037605689538
 20
1235.7135714293959
 11
1088.5037605689538
 21
1230.2135716494017
  0
LINE
  8
_0-0_計極細
  6
CONTINUOUS
 62
    2
 10
1099.4537579577679
 20
1220.2135724694231
 11
1099.4537602689459
 21
1214.7135724694231
  0
LINE
  8
_0-0_計極細
  6
CONTINUOUS
 62
    2
 10
1092.5537579879713
 20
1220.2135724694231
 11
1092.5537602689462
 21
1214.7135724694231
  0
LINE
  8
_0-0_計極細
  6
CONTINUOUS
 62
    2
 10
1103.5037599689383
 20
1220.2135714293963
 11
1103.5037599689383
 21
1214.7135716494026
  0
LINE
  8
_0-0_計極細
  6
CONTINUOUS
 62
    2
 10
1088.5037605689538
 20
1220.2135714293963
 11
1088.5037605689538
 21
1214.7135716494026
  0
LINE
  8
_0-0_計極細
  6
CONTINUOUS
 62
    2
 10
1099.4537579577679
 20
1204.7135724694231
 11
1099.4537602689459
 21
1199.2135724694231
  0
LINE
  8
_0-0_計極細
  6
CONTINUOUS
 62
    2
 10
1092.5537579879713
 20
1204.7135724694231
 11
1092.5537602689462
 21
1199.2135724694231
  0
LINE
  8
_0-0_計極細
  6
CONTINUOUS
 62
    2
 10
1103.5037599689383
 20
1204.7135714293963
 11
1103.5037599689383
 21
1199.2135716494026
  0
LINE
  8
_0-0_計極細
  6
CONTINUOUS
 62
    2
 10
1088.5037605689538
 20
1204.7135714293963
 11
1088.5037605689538
 21
1199.2135716494026
  0
LINE
  8
_0-0_計極細
  6
CONTINUOUS
 62
    2
 10
1099.4537579577679
 20
1189.2135724694231
 11
1099.4537602689459
 21
1183.713572469424
  0
LINE
  8
_0-0_計極細
  6
CONTINUOUS
 62
    2
 10
1092.5537579879713
 20
1189.2135724694231
 11
1092.5537602689462
 21
1183.713572469424
  0
LINE
  8
_0-0_計極細
  6
CONTINUOUS
 62
    2
 10
1103.5037599689383
 20
1189.2135714293968
 11
1103.5037599689383
 21
1183.7135716494026
  0
LINE
  8
_0-0_計極細
  6
CONTINUOUS
 62
    2
 10
1088.5037605689538
 20
1189.2135714293968
 11
1088.5037605689538
 21
1183.7135716494026
  0
LINE
  8
_0-0_計極細
  6
CONTINUOUS
 62
    2
 10
1099.4537579577679
 20
1173.713572469424
 11
1099.4537602689459
 21
1168.213572469424
  0
LINE
  8
_0-0_計極細
  6
CONTINUOUS
 62
    2
 10
1092.5537579879713
 20
1173.713572469424
 11
1092.5537602689462
 21
1168.213572469424
  0
LINE
  8
_0-0_計極細
  6
CONTINUOUS
 62
    2
 10
1103.5037599689383
 20
1173.7135714293972
 11
1103.5037599689383
 21
1168.2135716494035
  0
LINE
  8
_0-0_計極細
  6
CONTINUOUS
 62
    2
 10
1088.5037605689538
 20
1173.7135714293972
 11
1088.5037605689538
 21
1168.2135716494035
  0
LINE
  8
_0-0_計極細
  6
CONTINUOUS
 62
    2
 10
1099.4537579577679
 20
1158.213572469424
 11
1099.4537602689459
 21
1152.7135724694249
  0
LINE
  8
_0-0_計極細
  6
CONTINUOUS
 62
    2
 10
1092.5537579879713
 20
1158.213572469424
 11
1092.5537602689462
 21
1152.7135724694249
  0
LINE
  8
_0-0_計極細
  6
CONTINUOUS
 62
    2
 10
1103.5037599689383
 20
1158.2135714293977
 11
1103.5037599689383
 21
1152.7135716494035
  0
LINE
  8
_0-0_計極細
  6
CONTINUOUS
 62
    2
 10
1088.5037605689538
 20
1158.2135714293977
 11
1088.5037605689538
 21
1152.7135716494035
  0
LINE
  8
_0-0_計極細
  6
CONTINUOUS
 62
    2
 10
1099.4537579577679
 20
1142.7135724694249
 11
1099.4537602689459
 21
1137.2135724694249
  0
LINE
  8
_0-0_計極細
  6
CONTINUOUS
 62
    2
 10
1092.5537579879713
 20
1142.7135724694249
 11
1092.5537602689462
 21
1137.2135724694249
  0
LINE
  8
_0-0_計極細
  6
CONTINUOUS
 62
    2
 10
1103.5037599689383
 20
1142.7135714293981
 11
1103.5037599689383
 21
1137.2135716494045
  0
LINE
  8
_0-0_計極細
  6
CONTINUOUS
 62
    2
 10
1088.5037605689538
 20
1142.7135714293981
 11
1088.5037605689538
 21
1137.2135716494045
  0
CIRCLE
  8
_0-5_寸法線
  6
CONTINUOUS
 62
    7
 10
829.50982005453648
 20
1178.713573909461
 40
35.999998559961114
  0
LINE
  8
_0-5_寸法線
  6
CONTINUOUS
 62
    7
 10
1032.484985724142
 20
1252.0595092766694
 11
1036.2488586788832
 21
1267.6104983249766
  0
LINE
  8
_0-5_寸法線
  6
CONTINUOUS
 62
    7
 10
1032.484985724142
 20
1252.0595092766694
 11
1043.5200898437186
 21
1263.6451243691063
  0
LINE
  8
_0-5_寸法線
  6
CONTINUOUS
 62
    7
 10
1032.484985724142
 20
1252.0595092766694
 11
1054.6176368938368
 21
1292.6437327916497
  0
LINE
  8
_0-5_寸法線
  6
CONTINUOUS
 62
    7
 10
1054.6176368938368
 20
1292.6437327916497
 11
1169.8176368938371
 21
1292.6437327916497
  0
TEXT
  8
_0-5_寸法線
 62
    7
 10
1054.6176368938368
 20
1292.6437327916497
 40
24
 41
0.7999999999999998
 50
0
  1
排水ユニット
  0
LINE
  8
_0-5_寸法線
  6
CONTINUOUS
 62
    7
 10
897.46300722390197
 20
1225.7224905617659
 11
901.22986638774637
 21
1241.2727565414771
  0
LINE
  8
_0-5_寸法線
  6
CONTINUOUS
 62
    7
 10
897.46300722390197
 20
1225.7224905617659
 11
908.50033594212505
 21
1237.3059863538783
  0
LINE
  8
_0-5_寸法線
  6
CONTINUOUS
 62
    7
 10
897.46300722390197
 20
1225.7224905617659
 11
933.97525538188961
 21
1292.6437327916497
  0
LINE
  8
_0-5_寸法線
  6
CONTINUOUS
 62
    7
 10
933.97525538188961
 20
1292.6437327916497
 11
991.57525538188975
 21
1292.6437327916497
  0
TEXT
  8
_0-5_寸法線
 62
    7
 10
933.97525538188961
 20
1292.6437327916497
 40
24
 41
0.7999999999999998
 50
0
  1
上フタ
  0
LINE
  8
_0-0_計極細
  6
CONTINUOUS
 62
    2
 10
1373.0037610689612
 20
1178.2842583344825
 11
1373.0037610689612
 21
1179.284258294482
  0
LINE
  8
_0-1_計細線
  6
CONTINUOUS
 62
    3
 10
1382.0037607089569
 20
1188.2842579344783
 11
1383.0037606689577
 21
1188.2842579344783
  0
ARC
  8
_0-1_計細線
  6
CONTINUOUS
 62
    3
 10
1382.0037607089569
 20
1179.284258294482
 40
0.9999999599995135
 50
269.99999999999977
 51
359.99999999999966
  0
LINE
  8
_0-1_計細線
  6
CONTINUOUS
 62
    3
 10
1371.0037611489622
 20
1178.2842583344825
 11
1371.0037611489622
 21
1179.284258294482
  0
LINE
  8
_0-1_計細線
  6
CONTINUOUS
 62
    3
 10
1371.0037611489622
 20
1179.284258294482
 11
1382.0037607089569
 21
1179.284258294482
  0
LINE
  8
_0-1_計細線
  6
CONTINUOUS
 62
    3
 10
1382.0037607089569
 20
1178.2842583344825
 11
1371.0037611489622
 21
1178.2842583344825
  0
LINE
  8
_0-1_計細線
  6
CONTINUOUS
 62
    3
 10
1382.0037607089569
 20
1179.284258294482
 11
1382.0037607089569
 21
1188.2842579344783
  0
LINE
  8
_0-5_寸法線
  6
CONTINUOUS
 62
    7
 10
1377.659423618943
 20
1178.713573909462
 11
1387.3318442189525
 21
1165.9682108414081
  0
LINE
  8
_0-5_寸法線
  6
CONTINUOUS
 62
    7
 10
1377.659423618943
 20
1178.713573909462
 11
1379.6633040406123
 21
1162.8395554120666
  0
LINE
  8
_0-5_寸法線
  6
CONTINUOUS
 62
    7
 10
1377.659423618943
 20
1178.713573909462
 11
1421.1790829943047
 21
1072.0440271969028
  0
LINE
  8
_0-5_寸法線
  6
CONTINUOUS
 62
    7
 10
1421.1790829943047
 20
1072.0440271969028
 11
1555.5790829943044
 21
1072.0440271969028
  0
TEXT
  8
_0-5_寸法線
 62
    7
 10
1421.1790829943047
 20
1072.0440271969028
 40
24
 41
0.7999999999999998
 50
0
  1
抜け防止Ｌ金具
  0
LINE
  8
_0-5_寸法線
  6
CONTINUOUS
 62
    7
 10
829.50982005453648
 20
1178.713573909461
 11
837.50982007592074
 21
1164.8571674612563
  0
LINE
  8
_0-5_寸法線
  6
CONTINUOUS
 62
    7
 10
829.50982005453648
 20
1178.713573909461
 11
829.50982007922892
 21
1162.713573909461
  0
LINE
  8
_0-5_寸法線
  6
CONTINUOUS
 62
    7
 10
829.50982005453648
 20
1178.713573909461
 11
858.0918391296002
 21
1072.0440271969019
  0
LINE
  8
_0-5_寸法線
  6
CONTINUOUS
 62
    7
 10
858.0918391296002
 20
1072.0440271969019
 11
1011.6918391296003
 21
1072.0440271969019
  0
TEXT
  8
_0-5_寸法線
 62
    7
 10
858.0918391296002
 20
1072.0440271969019
 40
24
 41
0.7999999999999998
 50
0
  1
ボルトカバー金具
  0
LINE
  8
_0-7_枠細線
  6
CONTINUOUS
 62
    5
 10
2196.9978040206424
 20
528.51085913780207
 11
2196.9978040206424
 21
360.51085913780253
  0
TEXT
  8
_0-7_枠細線
 62
    5
 10
2051.3978040206439
 20
496.51085913780207
 40
24.000000000000004
 41
0.8
 50
0
  1
ノンスリップ
  0
LINE
  8
_0-7_枠細線
  6
CONTINUOUS
 62
    5
 10
2036.8821373611863
 20
412.11529377818852
 11
2188.6909160126729
 21
412.11529377818852
  0
LINE
  8
_0-7_枠細線
  6
CONTINUOUS
 62
    5
 10
2030.9058280284494
 20
438.78196044218885
 11
2182.7146066799364
 21
438.78196044218885
  0
ARC
  8
_0-7_枠細線
  6
CONTINUOUS
 62
    5
 10
2054.3311373594411
 20
420.11529377738862
 40
5.3333333327999997
 50
51.31781299999917
 51
203.57817800000373
  0
ARC
  8
_0-7_枠細線
  6
CONTINUOUS
 62
    5
 10
2060.9978040254414
 20
428.44195777655614
 40
5.3333333327999997
 50
231.31781300000563
 51
308.68218699999358
  0
LINE
  8
_0-7_枠細線
  6
CONTINUOUS
 62
    5
 10
2049.4430573599311
 20
417.98196044426868
 11
2072.5525506909521
 21
417.98196044426868
  0
ARC
  8
_0-7_枠細線
  6
CONTINUOUS
 62
    5
 10
2067.6644706914417
 20
420.11529377738862
 40
5.3333333327999997
 50
336.42182199999354
 51
128.68218700000429
  0
ARC
  8
_0-7_枠細線
  6
CONTINUOUS
 62
    5
 10
2102.3311373546421
 20
430.78196044298875
 40
5.3333333327999997
 50
156.42182200000036
 51
308.68218699998977
  0
ARC
  8
_0-7_枠細線
  6
CONTINUOUS
 62
    5
 10
2108.9978040206411
 20
422.45529644382123
 40
5.3333333327999997
 50
51.31781299999917
 51
128.68218699999704
  0
ARC
  8
_0-7_枠細線
  6
CONTINUOUS
 62
    5
 10
2115.6644706866423
 20
430.78196044298875
 40
5.3333333327999997
 50
231.31781299999807
 51
23.578178000003184
  0
LINE
  8
_0-7_枠細線
  6
CONTINUOUS
 62
    5
 10
2097.4430573551313
 20
432.91529377610868
 11
2120.5525506861522
 21
432.91529377610868
  0
LINE
  8
_0-7_枠細線
  6
CONTINUOUS
 62
    5
 10
2145.4430573503309
 20
417.98196044426868
 11
2168.5525506813524
 21
417.98196044426868
  0
ARC
  8
_0-7_枠細線
  6
CONTINUOUS
 62
    5
 10
2150.3311373498414
 20
420.11529377738862
 40
5.3333333327999997
 50
51.317813000002985
 51
203.57817800000373
  0
ARC
  8
_0-7_枠細線
  6
CONTINUOUS
 62
    5
 10
2156.9978040158417
 20
428.44195777655614
 40
5.3333333327999997
 50
231.31781300000188
 51
308.68218699999358
  0
ARC
  8
_0-7_枠細線
  6
CONTINUOUS
 62
    5
 10
2163.6644706818411
 20
420.11529377738862
 40
5.3333333327999997
 50
336.42182199999553
 51
128.68218699999667
  0
ARC
  8
_0-7_枠細線
  6
CONTINUOUS
 62
    5
 10
2102.3311373546421
 20
430.78196044298875
 40
9.9466666656720477
 50
151.14636799999636
 51
308.6821870000029
  0
LINE
  8
_0-7_枠細線
  6
CONTINUOUS
 62
    5
 10
2030.3197960285092
 20
435.58196044250872
 11
2093.6192973555117
 21
435.58196044250872
  0
LINE
  8
_0-7_枠細線
  6
CONTINUOUS
 62
    5
 10
2076.3763133572361
 20
415.31529377786865
 11
2141.6192973507136
 21
415.31529377786865
  0
ARC
  8
_0-7_枠細線
  6
CONTINUOUS
 62
    5
 10
2023.7504413624997
 20
416.17383511111575
 40
13.744570665292123
 50
317.56162900000112
 51
42.438371000002093
  0
ARC
  8
_0-7_枠細線
  6
CONTINUOUS
 62
    5
 10
2054.3311373594411
 20
420.11529377738862
 40
9.9466666656720477
 50
51.317812999990608
 51
208.8536319999987
  0
ARC
  8
_0-7_枠細線
  6
CONTINUOUS
 62
    5
 10
2044.0375266938031
 20
434.72341910926116
 40
13.744570665292123
 50
137.56162899999757
 51
222.43837100000209
  0
LINE
  8
_0-7_枠細線
  6
CONTINUOUS
 62
    5
 10
2037.4681720277945
 20
415.31529377786865
 11
2045.6192973603115
 21
415.31529377786865
  0
ARC
  8
_0-7_枠細線
  6
CONTINUOUS
 62
    5
 10
2060.9978040254414
 20
428.44195777655614
 40
0.7199999999279512
 50
231.31781300003806
 51
308.68218699996123
  0
ARC
  8
_0-7_枠細線
  6
CONTINUOUS
 62
    5
 10
2067.6644706914417
 20
420.11529377738862
 40
9.9466666656720477
 50
331.14636800000056
 51
128.68218700000494
  0
ARC
  8
_0-7_枠細線
  6
CONTINUOUS
 62
    5
 10
2175.5592200139872
 20
416.17383511111575
 40
13.744570665292123
 50
317.56162899999731
 51
42.438371000003364
  0
ARC
  8
_0-7_枠細線
  6
CONTINUOUS
 62
    5
 10
2195.8463053452915
 20
434.72341910926116
 40
13.744570665292123
 50
137.56162900000393
 51
222.43837099999826
  0
LINE
  8
_0-7_枠細線
  6
CONTINUOUS
 62
    5
 10
2172.3763133476364
 20
415.31529377786865
 11
2189.2769506792815
 21
415.31529377786865
  0
LINE
  8
_0-7_枠細線
  6
CONTINUOUS
 62
    5
 10
2124.3763133524371
 20
435.58196044250872
 11
2182.1285746799963
 21
435.58196044250872
  0
ARC
  8
_0-7_枠細線
  6
CONTINUOUS
 62
    5
 10
2150.3311373498414
 20
420.11529377738862
 40
9.9466666656720477
 50
51.317812999990608
 51
208.85363200000583
  0
ARC
  8
_0-7_枠細線
  6
CONTINUOUS
 62
    5
 10
2108.9978040206411
 20
422.45529644382123
 40
0.7199999999279512
 50
51.317812999959308
 51
128.6821869999842
  0
ARC
  8
_0-7_枠細線
  6
CONTINUOUS
 62
    5
 10
2115.6644706866423
 20
430.78196044298875
 40
9.9466666656720477
 50
231.31781299998616
 51
28.853631999996409
  0
ARC
  8
_0-7_枠細線
  6
CONTINUOUS
 62
    5
 10
2156.9978040158417
 20
428.44195777655614
 40
0.7199999999279512
 50
231.31781299998158
 51
308.68218699996123
  0
ARC
  8
_0-7_枠細線
  6
CONTINUOUS
 62
    5
 10
2163.6644706818411
 20
420.11529377738862
 40
9.9466666656720477
 50
331.14636800000056
 51
128.6821870000029
  0
LINE
  8
_0-7_枠細線
  6
CENTER1
 62
    5
 10
2060.9978040254414
 20
441.02162177529772
 11
2060.9978040254414
 21
410.06458444506052
  0
LINE
  8
_0-7_枠細線
  6
CENTER1
 62
    5
 10
2156.9978040158417
 20
441.02162177529772
 11
2156.9978040158417
 21
410.06458444506052
  0
LINE
  8
_0-7_枠細線
  6
CENTER1
 62
    5
 10
2108.9978040206411
 20
441.02162177529772
 11
2108.9978040206411
 21
410.06458444506052
  0
LINE
  8
_0-7_枠細線
  6
CONTINUOUS
 62
    5
 10
2060.9978040254414
 20
404.11529377818852
 11
2060.9978040254414
 21
364.11529377818852
  0
LINE
  8
_0-7_枠細線
  6
CONTINUOUS
 62
    5
 10
2060.9978040254414
 20
372.11529377818852
 11
2076.4526172460664
 21
376.25639849982883
  0
LINE
  8
_0-7_枠細線
  6
CONTINUOUS
 62
    5
 10
2060.9978040254414
 20
372.11529377818852
 11
2076.4526172460664
 21
367.9741890565482
  0
LINE
  8
_0-7_枠細線
  6
CONTINUOUS
 62
    5
 10
2108.9978040206411
 20
404.11529377818852
 11
2108.9978040206411
 21
364.11529377818852
  0
LINE
  8
_0-7_枠細線
  6
CONTINUOUS
 62
    5
 10
2108.9978040206411
 20
372.11529377818852
 11
2093.542990800016
 21
367.97418905654825
  0
LINE
  8
_0-7_枠細線
  6
CONTINUOUS
 62
    5
 10
2108.9978040206411
 20
372.11529377818852
 11
2093.542990800016
 21
376.25639849982889
  0
LINE
  8
_0-7_枠細線
  6
CONTINUOUS
 62
    5
 10
2060.9978040254414
 20
372.11529377818852
 11
2108.9978040206411
 21
372.11529377818852
  0
TEXT
  8
_0-7_枠細線
 62
    5
 10
2072.9978040230417
 20
372.11529377818852
 40
24
 41
1
 50
0
  1
18
  0
LINE
  8
_0-7_枠細線
  6
CONTINUOUS
 62
    5
 10
2108.9978040206411
 20
372.11529377818852
 11
2124.4526172412661
 21
376.25639849982872
  0
LINE
  8
_0-7_枠細線
  6
CONTINUOUS
 62
    5
 10
2108.9978040206411
 20
372.11529377818852
 11
2124.4526172412661
 21
367.97418905654808
  0
LINE
  8
_0-7_枠細線
  6
CONTINUOUS
 62
    5
 10
2156.9978040158417
 20
404.11529377818852
 11
2156.9978040158417
 21
364.11529377818852
  0
LINE
  8
_0-7_枠細線
  6
CONTINUOUS
 62
    5
 10
2156.9978040158417
 20
372.11529377818852
 11
2141.5429907952166
 21
367.97418905654825
  0
LINE
  8
_0-7_枠細線
  6
CONTINUOUS
 62
    5
 10
2156.9978040158417
 20
372.11529377818852
 11
2141.5429907952166
 21
376.25639849982889
  0
LINE
  8
_0-7_枠細線
  6
CONTINUOUS
 62
    5
 10
2108.9978040206411
 20
372.11529377818852
 11
2156.9978040158417
 21
372.11529377818852
  0
TEXT
  8
_0-7_枠細線
 62
    5
 10
2120.9978040182418
 20
372.11529377818852
 40
24
 41
1
 50
0
  1
18
  0
TEXT
  8
_0-7_枠細線
 62
    5
 10
2070.5978040206428
 20
456.51085913780253
 40
24.000000000000004
 41
0.7999999999999997
 50
0
  1
品番－Ｄ
  0
LINE
  8
_0-7_枠細線
  6
CONTINUOUS
 62
    5
 10
2020.997804020642
 20
528.51085913780207
 11
2020.997804020642
 21
360.51085913780253
  0
TEXT
  8
_0-7_枠細線
 62
    5
 10
1894.5978040206414
 20
496.51085913780253
 40
24.000000000000004
 41
0.8
 50
0
  1
プレーン
  0
LINE
  8
_0-7_枠細線
  6
CONTINUOUS
 62
    5
 10
1860.0815680279325
 20
412.11529377818852
 11
2011.8903466794195
 21
412.11529377818852
  0
LINE
  8
_0-7_枠細線
  6
CONTINUOUS
 62
    5
 10
1854.1052586951962
 20
438.78196044218885
 11
2005.9140373466839
 21
438.78196044218885
  0
ARC
  8
_0-7_枠細線
  6
CONTINUOUS
 62
    5
 10
1998.7586506807315
 20
416.17383511111575
 40
13.744570665292123
 50
317.56162900000527
 51
42.43837099999547
  0
ARC
  8
_0-7_枠細線
  6
CONTINUOUS
 62
    5
 10
1846.9498720292468
 20
416.17383511111575
 40
13.744570665292276
 50
317.56162899999987
 51
42.438371000002242
  0
LINE
  8
_0-7_枠細線
  6
CONTINUOUS
 62
    5
 10
1853.5192266952558
 20
435.58196044250872
 11
2005.3280053467429
 21
435.58196044250872
  0
LINE
  8
_0-7_枠細線
  6
CONTINUOUS
 62
    5
 10
1860.6676026945411
 20
415.31529377786865
 11
2012.4763813460272
 21
415.31529377786865
  0
ARC
  8
_0-7_枠細線
  6
CONTINUOUS
 62
    5
 10
1867.2369573605524
 20
434.72341910926116
 40
13.744570665292276
 50
137.56162899999882
 51
222.43837100000209
  0
ARC
  8
_0-7_枠細線
  6
CONTINUOUS
 62
    5
 10
2019.0457360120377
 20
434.72341910926116
 40
13.744570665292123
 50
137.5616290000001
 51
222.43837099999953
  0
TEXT
  8
_0-7_枠細線
 62
    5
 10
1894.5978040206433
 20
456.51085913780253
 40
24.000000000000004
 41
0.7999999999999997
 50
0
  1
品番－Ｆ
  0
TEXT
  8
_0-7_枠細線
 62
    5
 10
1766.5978040206421
 20
496.51085913780207
 40
24.000000000000004
 41
0.8
 50
0
  1
タ イ プ
  0
LINE
  8
_0-7_枠細線
  6
CONTINUOUS
 62
    5
 10
1764.9978040206413
 20
448.51085913780253
 11
2196.9978040206424
 21
448.51085913780253
  0
LINE
  8
_0-7_枠細線
  6
CONTINUOUS
 62
    5
 10
1764.9978040206413
 20
488.51085913780207
 11
2196.9978040206424
 21
488.51085913780207
  0
LINE
  8
_0-7_枠細線
  6
CONTINUOUS
 62
    5
 10
1764.9978040206413
 20
528.51085913780207
 11
2196.9978040206424
 21
528.51085913780207
  0
LINE
  8
_0-7_枠細線
  6
CONTINUOUS
 62
    5
 10
1764.9978040206413
 20
360.51085913780253
 11
2196.9978040206424
 21
360.51085913780253
  0
LINE
  8
_0-7_枠細線
  6
CONTINUOUS
 62
    5
 10
1844.9978040206424
 20
528.51085913780207
 11
1844.9978040206424
 21
360.51085913780253
  0
LINE
  8
_0-7_枠細線
  6
CONTINUOUS
 62
    5
 10
1764.9978040206413
 20
528.51085913780207
 11
1764.9978040206413
 21
360.51085913780253
  0
TEXT
  8
_0-7_枠細線
 62
    5
 10
1766.5978040206421
 20
392.51085913780253
 40
24.000000000000004
 41
0.8
 50
0
  1
表面形状
  0
TEXT
  8
_0-7_枠細線
 62
    5
 10
1766.5978040206421
 20
456.51085913780253
 40
24.000000000000004
 41
0.8
 50
0
  1
記　　号
  0
TEXT
  8
_0-7_枠細線
 62
    5
 10
1767.4926852655603
 20
532.51085913780253
 40
28.000000000000007
 41
0.7999999999999996
 50
0
  1
記号表
  0
TEXT
  8
_0-7_枠細線
 62
    5
 10
1615.8261717547296
 20
304.51939751272312
 40
32
 41
0.6
 50
0
  1
Ｓ＝１：３
  0
TEXT
  8
_0-7_枠細線
 62
    5
 10
1431.9078201560599
 20
301.36266170438194
 40
40
 41
0.8
 50
0
  1
Ａ部詳細図
  0
LINE
  8
_1-2_極細2
  6
CONTINUOUS
 62
    2
 10
1395.6256024140121
 20
426.89956285674691
 11
1416.9589354806783
 21
426.89956285674646
  0
LINE
  8
_1-2_極細2
  6
CONTINUOUS
 62
    2
 10
1392.9589357473455
 20
429.56622952341309
 11
1419.6256021473448
 21
429.56622952341309
  0
LINE
  8
_1-2_極細2
  6
CONTINUOUS
 62
    2
 10
1392.9589357473455
 20
408.23289640341375
 11
1392.9589357473455
 21
429.56622952341354
  0
LINE
  8
_1-2_極細2
  6
CONTINUOUS
 62
    2
 10
1392.9589357473455
 20
408.23289640341375
 11
1395.6256024140121
 21
408.23289640341375
  0
LINE
  8
_1-2_極細2
  6
CONTINUOUS
 62
    2
 10
1395.6256024140121
 20
408.23289640341375
 11
1395.6256024140121
 21
426.89956285674691
  0
LINE
  8
_1-2_極細2
  6
CONTINUOUS
 62
    2
 10
1416.9589354806783
 20
426.89956285674646
 11
1416.9589354806783
 21
376.232896723414
  0
LINE
  8
_1-2_極細2
  6
CONTINUOUS
 62
    2
 10
1416.9589354806783
 20
376.232896723414
 11
1605.192076870544
 21
376.232896723414
  0
LINE
  8
_1-2_極細2
  6
CONTINUOUS
 62
    2
 10
1419.6256021473448
 20
378.89956339008063
 11
1605.192076870544
 21
378.89956339008063
  0
LINE
  8
_1-2_極細2
  6
CONTINUOUS
 62
    2
 10
1419.6256021473448
 20
429.56622952341354
 11
1419.6256021473448
 21
378.89956339008063
  0
LINE
  8
_1-2_極細2
  6
CENTER1
 62
    2
 10
1496.0926084856108
 20
493.62683111577758
 11
1509.3154327991924
 21
462.47580917375296
  0
CIRCLE
  8
_1-2_極細2
  6
DASHED2
 62
    2
 10
1503.5596234420843
 20
476.03564626492835
 40
7.9999999999999991
  0
LINE
  8
_1-2_極細2
  6
CENTER1
 62
    2
 10
1518.2804302778129
 20
482.28425804098106
 11
1490.8187050313861
 21
470.62744726420556
  0
LINE
  8
_1-2_極細2
  6
CONTINUOUS
 62
    2
 10
1513.5808014395134
 20
489.00543477330609
 11
1521.1232737721698
 21
496.54790710596262
  0
LINE
  8
_1-2_極細2
  6
DASHED2
 62
    2
 10
1514.3979875863861
 20
496.56954442837093
 11
1544.8229181247498
 21
424.89289983954063
  0
LINE
  8
_1-2_極細2
  6
CONTINUOUS
 62
    2
 10
1513.5808014395134
 20
489.00543477330609
 11
1516.3415379206072
 21
499.30864358705594
  0
LINE
  8
_1-2_極細2
  6
CONTINUOUS
 62
    2
 10
1442.257637676581
 20
380.23289619007971
 11
1548.9243030899142
 21
380.23289619007971
  0
LINE
  8
_1-5_寸法2
  6
CONTINUOUS
 62
    7
 10
1485.0501927219975
 20
444.3666613809271
 11
1475.4724685402452
 21
439.67145347540918
  0
ARC
  8
_1-5_寸法2
  6
CONTINUOUS
 62
    7
 10
1528.9243043432475
 20
394.0995623234129
 40
66.72120291340525
 50
131.11509464913769
 51
160.19528028383272
  0
LINE
  8
_1-5_寸法2
  6
CONTINUOUS
 62
    7
 10
1466.1494696016798
 20
416.70573496233396
 11
1467.0429088415299
 21
427.3349185670362
  0
LINE
  8
_1-5_寸法2
  6
CONTINUOUS
 62
    7
 10
1466.1494696016798
 20
416.70573496233396
 11
1472.2378024824786
 21
425.46415836557003
  0
LINE
  8
_1-5_寸法2
  6
CONTINUOUS
 62
    7
 10
1485.0501927219975
 20
444.3666613809271
 11
1479.1032442229182
 21
435.5116299678225
  0
LINE
  8
_1-3_細線2
  6
CONTINUOUS
 62
    4
 10
1549.2681061835167
 20
404.18347437377281
 11
1541.1408987109407
 21
423.32997532558352
  0
LINE
  8
_1-3_細線2
  6
CONTINUOUS
 62
    4
 10
1483.4939067947628
 20
470.41521588535636
 11
1517.8782461018181
 21
389.41078878154156
  0
ARC
  8
_1-3_細線2
  6
CONTINUOUS
 62
    4
 10
1528.9243043432475
 20
394.0995623234129
 40
11.999999999999998
 50
202.99999999999923
 51
292.99999999999977
  0
LINE
  8
_1-3_細線2
  6
CONTINUOUS
 62
    4
 10
1533.6130778851189
 20
383.05350408198331
 11
1542.2044565173417
 21
386.70032794788324
  0
ARC
  8
_1-3_細線2
  6
CONTINUOUS
 62
    4
 10
1536.9947081374846
 20
398.97372599391576
 40
13.33333333333333
 50
292.99999999999989
 51
22.999999999999332
  0
LINE
  8
_1-3_細線2
  6
CONTINUOUS
 62
    4
 10
1547.277597733957
 20
425.93484951551204
 11
1516.8526671955919
 21
497.61149410434234
  0
LINE
  8
_1-3_細線2
  6
CONTINUOUS
 62
    4
 10
1541.1408987109407
 20
423.32997532558352
 11
1547.277597733957
 21
425.93484951551204
  0
LINE
  8
_1-3_細線2
  6
CONTINUOUS
 62
    4
 10
1516.8526671955919
 20
497.61149410434234
 11
1489.8511914943197
 21
486.15004766865673
  0
CIRCLE
  8
_1-3_細線2
  6
CONTINUOUS
 62
    4
 10
1503.5596234420843
 20
476.03564626492835
 40
4.6666666666666652
  0
ARC
  8
_1-3_細線2
  6
CONTINUOUS
 62
    4
 10
1494.539965036191
 20
475.1039894272277
 40
11.999999999999998
 50
113.00000000000011
 51
202.99999999999994
  0
CIRCLE
  8
_1-3_細線2
  6
CONTINUOUS
 62
    4
 10
1503.5596234420843
 20
476.03564626492835
 40
11.999999999999998
  0
LINE
  8
_1-2_極細2
  6
CONTINUOUS
 62
    2
 10
1596.7584352690446
 20
438.20575250847673
 11
1596.6620430248772
 21
438.03553360874582
  0
LINE
  8
_1-2_極細2
  6
CONTINUOUS
 62
    2
 10
1596.6620430248772
 20
438.03553360874582
 11
1596.3756333135564
 21
437.52951630176051
  0
LINE
  8
_1-2_極細2
  6
CONTINUOUS
 62
    2
 10
1596.3756333135564
 20
437.52951630176051
 11
1595.9082066792257
 21
436.70147118865339
  0
LINE
  8
_1-2_極細2
  6
CONTINUOUS
 62
    2
 10
1595.9082066792257
 20
436.70147118865339
 11
1595.2768021698143
 21
435.57386882256446
  0
LINE
  8
_1-2_極細2
  6
CONTINUOUS
 62
    2
 10
1595.2768021698143
 20
435.57386882256446
 11
1594.508611070451
 21
434.17719681423432
  0
LINE
  8
_1-2_極細2
  6
CONTINUOUS
 62
    2
 10
1594.508611070451
 20
434.17719681423432
 11
1593.6423287201524
 21
432.54907141116553
  0
LINE
  8
_1-2_極細2
  6
CONTINUOUS
 62
    2
 10
1593.6423287201524
 20
432.54907141116553
 11
1592.7277156352059
 21
430.73319469495698
  0
LINE
  8
_1-2_極細2
  6
CONTINUOUS
 62
    2
 10
1592.7277156352059
 20
430.73319469495698
 11
1591.8227010197618
 21
428.77820426035555
  0
LINE
  8
_1-2_極細2
  6
CONTINUOUS
 62
    2
 10
1591.8227010197618
 20
428.77820426035555
 11
1590.9879629022998
 21
426.73645068148267
  0
LINE
  8
_1-2_極細2
  6
CONTINUOUS
 62
    2
 10
1590.9879629022998
 20
426.73645068148267
 11
1590.2796128792365
 21
424.66272308628561
  0
LINE
  8
_1-2_極細2
  6
CONTINUOUS
 62
    2
 10
1590.2796128792365
 20
424.66272308628561
 11
1589.7412225896326
 21
422.61292945212858
  0
LINE
  8
_1-2_極細2
  6
CONTINUOUS
 62
    2
 10
1589.7412225896326
 20
422.61292945212858
 11
1589.3967897444436
 21
420.64273017170342
  0
LINE
  8
_1-2_極細2
  6
CONTINUOUS
 62
    2
 10
1589.3967897444436
 20
420.64273017170342
 11
1589.2462446390205
 21
418.80612393356478
  0
LINE
  8
_1-2_極細2
  6
CONTINUOUS
 62
    2
 10
1589.2462446390205
 20
418.80612393356478
 11
1589.264717856197
 21
417.1539946978146
  0
LINE
  8
_1-2_極細2
  6
CONTINUOUS
 62
    2
 10
1589.264717856197
 20
417.1539946978146
 11
1589.4060929181269
 21
415.7326457337789
  0
LINE
  8
_1-2_極細2
  6
CONTINUOUS
 62
    2
 10
1589.4060929181269
 20
415.7326457337789
 11
1589.6104995568767
 21
414.58236742001418
  0
LINE
  8
_1-2_極細2
  6
CONTINUOUS
 62
    2
 10
1589.6104995568767
 20
414.58236742001418
 11
1589.8145559507277
 21
413.73610465804438
  0
LINE
  8
_1-2_極細2
  6
CONTINUOUS
 62
    2
 10
1589.8145559507277
 20
413.73610465804438
 11
1589.9625355423709
 21
413.21830216594117
  0
LINE
  8
_1-2_極細2
  6
CONTINUOUS
 62
    2
 10
1589.9625355423709
 20
413.21830216594117
 11
1590.01636605473
 21
413.04400765250921
  0
LINE
  8
_1-2_極細2
  6
CONTINUOUS
 62
    2
 10
1590.01636605473
 20
413.04400765250921
 11
1590.0722523868917
 21
412.86965715077565
  0
LINE
  8
_1-2_極細2
  6
CONTINUOUS
 62
    2
 10
1590.0722523868917
 20
412.86965715077565
 11
1590.2502895205282
 21
412.35102604465521
  0
LINE
  8
_1-2_極細2
  6
CONTINUOUS
 62
    2
 10
1590.2502895205282
 20
412.35102604465521
 11
1590.5784401087699
 21
411.50126294032123
  0
LINE
  8
_1-2_極細2
  6
CONTINUOUS
 62
    2
 10
1590.5784401087699
 20
411.50126294032123
 11
1591.0935209999873
 21
410.34191592058608
  0
LINE
  8
_1-2_極細2
  6
CONTINUOUS
 62
    2
 10
1591.0935209999873
 20
410.34191592058608
 11
1591.8290792166486
 21
408.90241226148441
  0
LINE
  8
_1-2_極細2
  6
CONTINUOUS
 62
    2
 10
1591.8290792166486
 20
408.90241226148441
 11
1592.8028948476149
 21
407.21937981578913
  0
LINE
  8
_1-2_極細2
  6
CONTINUOUS
 62
    2
 10
1592.8028948476149
 20
407.21937981578913
 11
1594.0072553926261
 21
405.33584259895633
  0
LINE
  8
_1-2_極細2
  6
CONTINUOUS
 62
    2
 10
1594.0072553926261
 20
405.33584259895633
 11
1595.4045071451139
 21
403.30031339940592
  0
LINE
  8
_1-2_極細2
  6
CONTINUOUS
 62
    2
 10
1595.4045071451139
 20
403.30031339940592
 11
1596.9291404839707
 21
401.16579050572057
  0
LINE
  8
_1-2_極細2
  6
CONTINUOUS
 62
    2
 10
1596.9291404839707
 20
401.16579050572057
 11
1598.4961078738129
 21
398.98864893735617
  0
LINE
  8
_1-2_極細2
  6
CONTINUOUS
 62
    2
 10
1598.4961078738129
 20
398.98864893735617
 11
1600.0135812457816
 21
396.82740468346162
  0
LINE
  8
_1-2_極細2
  6
CONTINUOUS
 62
    2
 10
1600.0135812457816
 20
396.82740468346162
 11
1601.3972889580029
 21
394.74132843749589
  0
LINE
  8
_1-2_極細2
  6
CONTINUOUS
 62
    2
 10
1601.3972889580029
 20
394.74132843749589
 11
1602.5831890962902
 21
392.78889604483902
  0
LINE
  8
_1-2_極細2
  6
CONTINUOUS
 62
    2
 10
1602.5831890962902
 20
392.78889604483902
 11
1603.5356284255861
 21
391.02608615523047
  0
LINE
  8
_1-2_極細2
  6
CONTINUOUS
 62
    2
 10
1603.5356284255861
 20
391.02608615523047
 11
1604.249210899603
 21
389.5045679080489
  0
LINE
  8
_1-2_極細2
  6
CONTINUOUS
 62
    2
 10
1604.249210899603
 20
389.5045679080489
 11
1604.7440980199081
 21
388.26985670927263
  0
LINE
  8
_1-2_極細2
  6
CONTINUOUS
 62
    2
 10
1604.7440980199081
 20
388.26985670927263
 11
1605.0560251173852
 21
387.35954671313209
  0
LINE
  8
_1-2_極細2
  6
CONTINUOUS
 62
    2
 10
1605.0560251173852
 20
387.35954671313209
 11
1605.2235671073654
 21
386.80174719764784
  0
LINE
  8
_1-2_極細2
  6
CONTINUOUS
 62
    2
 10
1605.2235671073654
 20
386.80174719764784
 11
1605.2758239546388
 21
386.61385127390849
  0
LINE
  8
_1-2_極細2
  6
CONTINUOUS
 62
    2
 10
1605.2758239546388
 20
386.61385127390849
 11
1605.3259751974285
 21
386.42582553951229
  0
LINE
  8
_1-2_極細2
  6
CONTINUOUS
 62
    2
 10
1605.3259751974285
 20
386.42582553951229
 11
1605.462726359865
 21
385.86611797911769
  0
LINE
  8
_1-2_極細2
  6
CONTINUOUS
 62
    2
 10
1605.462726359865
 20
385.86611797911769
 11
1605.6474891193568
 21
384.94785039345754
  0
LINE
  8
_1-2_極細2
  6
CONTINUOUS
 62
    2
 10
1605.6474891193568
 20
384.94785039345754
 11
1605.8238512882167
 21
383.6929086931882
  0
LINE
  8
_1-2_極細2
  6
CONTINUOUS
 62
    2
 10
1605.8238512882167
 20
383.6929086931882
 11
1605.9277993887074
 21
382.13188040749174
  0
LINE
  8
_1-2_極細2
  6
CONTINUOUS
 62
    2
 10
1605.9277993887074
 20
382.13188040749174
 11
1605.8991307279798
 21
380.30381528823955
  0
LINE
  8
_1-2_極細2
  6
CONTINUOUS
 62
    2
 10
1605.8991307279798
 20
380.30381528823955
 11
1605.6919127045735
 21
378.25570284077378
  0
LINE
  8
_1-2_極細2
  6
CONTINUOUS
 62
    2
 10
1605.6919127045735
 20
378.25570284077378
 11
1605.2821217132762
 21
376.0415836383844
  0
LINE
  8
_1-2_極細2
  6
CONTINUOUS
 62
    2
 10
1605.2821217132762
 20
376.0415836383844
 11
1604.6712421699685
 21
373.72125642640458
  0
LINE
  8
_1-2_極細2
  6
CONTINUOUS
 62
    2
 10
1604.6712421699685
 20
373.72125642640458
 11
1603.8854740836232
 21
371.35860068561021
  0
LINE
  8
_1-2_極細2
  6
CONTINUOUS
 62
    2
 10
1603.8854740836232
 20
371.35860068561021
 11
1602.9710867455692
 21
369.01959216870546
  0
LINE
  8
_1-2_極細2
  6
CONTINUOUS
 62
    2
 10
1602.9710867455692
 20
369.01959216870546
 11
1601.9871699437504
 21
366.77013476572472
  0
LINE
  8
_1-2_極細2
  6
CONTINUOUS
 62
    2
 10
1601.9871699437504
 20
366.77013476572472
 11
1600.9974235340965
 21
364.67385666436439
  0
LINE
  8
_1-2_極細2
  6
CONTINUOUS
 62
    2
 10
1600.9974235340965
 20
364.67385666436439
 11
1600.0626230042235
 21
362.79001793388034
  0
LINE
  8
_1-2_極細2
  6
CONTINUOUS
 62
    2
 10
1600.0626230042235
 20
362.79001793388034
 11
1599.2350292007764
 21
361.17165201580985
  0
LINE
  8
_1-2_極細2
  6
CONTINUOUS
 62
    2
 10
1599.2350292007764
 20
361.17165201580985
 11
1598.5553864505619
 21
359.86402208417542
  0
LINE
  8
_1-2_極細2
  6
CONTINUOUS
 62
    2
 10
1598.5553864505619
 20
359.86402208417542
 11
1598.0524426911088
 21
358.9034252555706
  0
LINE
  8
_1-2_極細2
  6
CONTINUOUS
 62
    2
 10
1598.0524426911088
 20
358.9034252555706
 11
1597.7443094069233
 21
358.31633447093066
  0
LINE
  8
_1-2_極細2
  6
CONTINUOUS
 62
    2
 10
1597.7443094069233
 20
358.31633447093066
 11
1597.6406084082996
 21
358.11883892822959
  0
LINE
  8
_1-5_寸法2
  6
CONTINUOUS
 62
    7
 10
1555.7051943679771
 20
392.43105116572639
 11
1613.3901653651794
 21
416.91686862782791
  0
LINE
  8
_1-5_寸法2
  6
CONTINUOUS
 62
    7
 10
1609.7081459513699
 20
415.3539441138704
 11
1602.320208247462
 21
424.81007315715101
  0
LINE
  8
_1-5_寸法2
  6
CONTINUOUS
 62
    7
 10
1609.7081459513699
 20
415.3539441138704
 11
1608.038068739849
 21
427.23716093876925
  0
LINE
  8
_1-5_寸法2
  6
CONTINUOUS
 62
    7
 10
1530.3534050462281
 20
503.34221732218538
 11
1569.6282789743805
 21
520.01341221449866
  0
LINE
  8
_1-5_寸法2
  6
CONTINUOUS
 62
    7
 10
1565.946259560571
 20
518.45048770054109
 11
1573.3341972644789
 21
508.99435865726048
  0
LINE
  8
_1-5_寸法2
  6
CONTINUOUS
 62
    7
 10
1565.946259560571
 20
518.45048770054109
 11
1567.6163367720919
 21
506.56727087564224
  0
LINE
  8
_1-5_寸法2
  6
CONTINUOUS
 62
    7
 10
1609.7081459513699
 20
415.3539441138704
 11
1565.946259560571
 21
518.45048770054109
  0
TEXT
  8
_1-5_寸法2
 62
    7
 10
1583.1384292140992
 20
477.94827414863494
 40
24
 41
1
 50
-66.999999999999687
  1
42
  0
LINE
  8
_1-5_寸法2
  6
CONTINUOUS
 62
    7
 10
1477.7631835769205
 20
483.91595373599262
 11
1456.4032151904876
 21
534.23688579310942
  0
LINE
  8
_1-5_寸法2
  6
CONTINUOUS
 62
    7
 10
1457.9661397044442
 20
530.55486637929948
 11
1467.4222687477247
 21
537.94280408320742
  0
LINE
  8
_1-5_寸法2
  6
CONTINUOUS
 62
    7
 10
1457.9661397044442
 20
530.55486637929948
 11
1469.8493565293431
 21
532.22494359082043
  0
LINE
  8
_1-5_寸法2
  6
CONTINUOUS
 62
    7
 10
1511.1219439777497
 20
511.1122319549782
 11
1494.4507491331865
 21
550.38710577066581
  0
LINE
  8
_1-5_寸法2
  6
CONTINUOUS
 62
    7
 10
1496.0136736471432
 20
546.70508635685587
 11
1486.5575446038627
 21
539.31714865294794
  0
LINE
  8
_1-5_寸法2
  6
CONTINUOUS
 62
    7
 10
1496.0136736471432
 20
546.70508635685587
 11
1484.1304568222442
 21
545.03500914533493
  0
LINE
  8
_1-5_寸法2
  6
CONTINUOUS
 62
    7
 10
1457.9661397044442
 20
530.55486637929948
 11
1496.0136736471432
 21
546.70508635685587
  0
TEXT
  8
_1-5_寸法2
 62
    7
 10
1454.8977901929354
 20
529.25242928433499
 40
24
 41
1
 50
23.000000000000313
  1
15.5
  0
LINE
  8
_1-2_極細2
  6
CENTER1
 62
    2
 10
1516.1373751309843
 20
395.84787711407432
 11
1541.6772867299301
 21
395.84787711407432
  0
LINE
  8
_1-2_極細2
  6
CENTER1
 62
    2
 10
1529.6306693238237
 20
382.51235031601072
 11
1529.6306693238237
 21
408.79031742817745
  0
CIRCLE
  8
_1-2_極細2
  6
CONTINUOUS
 62
    2
 10
1529.6306693238237
 20
395.84787719787698
 40
9.1999999999999993
  0
CIRCLE
  8
_1-3_細線2
  6
CONTINUOUS
 62
    4
 10
1529.6306693238237
 20
395.84787719787698
 40
9.5999999999999996
  0
LINE
  8
_1-2_極細2
  6
CONTINUOUS
 62
    2
 10
1548.9243043432475
 20
380.23289619007971
 11
1548.9243043432475
 21
381.83289619007962
  0
LINE
  8
_1-2_極細2
  6
CONTINUOUS
 62
    2
 10
1442.257637676581
 20
381.83289619007962
 11
1442.257637676581
 21
380.23289619007971
  0
LINE
  8
_1-2_極細2
  6
CONTINUOUS
 62
    2
 10
1514.2922688140115
 20
397.94040770585798
 11
1514.2922688140115
 21
381.8328956567459
  0
LINE
  8
_1-2_極細2
  6
CONTINUOUS
 62
    2
 10
1514.2922688140115
 20
381.8328956567459
 11
1605.9272925598325
 21
381.8328956567459
  0
LINE
  8
_1-2_極細2
  6
CONTINUOUS
 62
    2
 10
1442.257637676581
 20
381.83289619007962
 11
1514.2922688140115
 21
381.83289619007962
  0
LINE
  8
_1-2_極細2
  6
DASHED2
 62
    2
 10
1514.2922688140115
 20
424.49956285674637
 11
1514.2922688140115
 21
397.94040770585798
  0
LINE
  8
_1-2_極細2
  6
DASHED2
 62
    2
 10
1543.8962742632687
 20
424.49956285674637
 11
1514.2922688140115
 21
424.49956285674637
  0
LINE
  8
_1-2_極細2
  6
CONTINUOUS
 62
    2
 10
1590.4060575238611
 20
424.49956285674637
 11
1543.8962742632687
 21
424.49956285674637
  0
LINE
  8
_1-2_極細2
  6
CONTINUOUS
 62
    2
 10
1469.4157757883215
 20
397.83289619007962
 11
1469.4157757883215
 21
383.43289619007942
  0
LINE
  8
_1-2_極細2
  6
CONTINUOUS
 62
    2
 10
1455.1687618397016
 20
397.83289619007962
 11
1455.1687618397016
 21
383.43289619007953
  0
LINE
  8
_1-2_極細2
  6
CONTINUOUS
 62
    2
 10
1443.6256021473448
 20
381.83289619007962
 11
1480.9589354806783
 21
381.83289619007962
  0
LINE
  8
_1-3_細線2
  6
CONTINUOUS
 62
    4
 10
1477.0256021473451
 20
397.83289619007962
 11
1447.558935480678
 21
397.83289619007962
  0
LINE
  8
_1-3_細線2
  6
CONTINUOUS
 62
    4
 10
1480.9589354806783
 20
383.43289619007953
 11
1443.6256021473448
 21
383.43289619007953
  0
LINE
  8
_1-3_細線2
  6
CONTINUOUS
 62
    4
 10
1470.2922688140115
 20
397.83289619007962
 11
1470.2922688140115
 21
401.29956285674598
  0
LINE
  8
_1-3_細線2
  6
CONTINUOUS
 62
    4
 10
1467.6256021473448
 20
403.96622952341261
 11
1470.2922688140115
 21
401.29956285674598
  0
LINE
  8
_1-3_細線2
  6
CONTINUOUS
 62
    4
 10
1454.2922688140115
 20
397.83289619007962
 11
1454.2922688140115
 21
401.29956285674598
  0
LINE
  8
_1-3_細線2
  6
CONTINUOUS
 62
    4
 10
1454.2922688140115
 20
401.29956285674598
 11
1456.9589354806783
 21
403.96622952341261
  0
LINE
  8
_1-3_細線2
  6
CONTINUOUS
 62
    4
 10
1456.9589354806783
 20
403.96622952341261
 11
1467.6256021473448
 21
403.96622952341261
  0
LINE
  8
_1-3_細線2
  6
CONTINUOUS
 62
    4
 10
1443.6256021473448
 20
383.43289619007953
 11
1443.6256021473448
 21
381.83289619007962
  0
LINE
  8
_1-3_細線2
  6
CONTINUOUS
 62
    4
 10
1447.558935480678
 20
397.83289619007962
 11
1447.558935480678
 21
383.43289619007953
  0
LINE
  8
_1-3_細線2
  6
CONTINUOUS
 62
    4
 10
1480.9589354806783
 20
383.43289619007953
 11
1480.9589354806783
 21
381.83289619007962
  0
LINE
  8
_1-3_細線2
  6
CONTINUOUS
 62
    4
 10
1477.0256021473451
 20
397.83289619007962
 11
1477.0256021473451
 21
383.43289619007942
  0
LINE
  8
_1-3_細線2
  6
CONTINUOUS
 62
    4
 10
1470.2922688140115
 20
381.83289619007962
 11
1470.2922688140115
 21
378.89956339008063
  0
LINE
  8
_1-3_細線2
  6
CONTINUOUS
 62
    4
 10
1454.2922688140115
 20
381.83289619007962
 11
1454.2922688140115
 21
378.89956339008063
  0
LINE
  8
_1-3_細線2
  6
DASHED2
 62
    4
 10
1454.2922688140115
 20
397.83289619007962
 11
1454.2922688140115
 21
381.83289619007962
  0
LINE
  8
_1-3_細線2
  6
DASHED2
 62
    4
 10
1470.2922688140115
 20
397.83289619007962
 11
1470.2922688140115
 21
381.83289619007962
  0
LINE
  8
_1-5_寸法2
  6
CONTINUOUS
 62
    7
 10
1449.5702961894249
 20
390.88799569144487
 11
1447.32368065989
 21
375.04650842974962
  0
LINE
  8
_1-5_寸法2
  6
CONTINUOUS
 62
    7
 10
1449.5702961894249
 20
390.88799569144487
 11
1439.7039264374635
 21
378.29217305385663
  0
LINE
  8
_1-5_寸法2
  6
CONTINUOUS
 62
    7
 10
1449.5702961894249
 20
390.88799569144487
 11
1428.2488380404684
 21
340.8322168065572
  0
LINE
  8
_1-5_寸法2
  6
CONTINUOUS
 62
    7
 10
1428.2488380404684
 20
340.8322168065572
 11
1293.8488380404688
 21
340.8322168065572
  0
TEXT
  8
_1-5_寸法2
 62
    7
 10
1293.8488380404688
 20
340.8322168065572
 40
24
 41
0.7999999999999998
 50
0
  1
フランジナット
  0
LINE
  8
_1-5_寸法2
  6
CONTINUOUS
 62
    7
 10
1461.4257254960382
 20
403.96622952341261
 11
1452.115967412677
 21
416.97885433277713
  0
LINE
  8
_1-5_寸法2
  6
CONTINUOUS
 62
    7
 10
1461.4257254960382
 20
403.96622952341261
 11
1459.869550897442
 21
419.89037221991856
  0
LINE
  8
_1-5_寸法2
  6
CONTINUOUS
 62
    7
 10
1461.4257254960382
 20
403.96622952341261
 11
1437.4735730220505
 21
467.75255028313984
  0
LINE
  8
_1-5_寸法2
  6
CONTINUOUS
 62
    7
 10
1437.4735730220505
 20
467.75255028313984
 11
1303.0735730220504
 21
467.75255028313984
  0
TEXT
  8
_1-5_寸法2
 62
    7
 10
1303.0735730220506
 20
467.75255028313984
 40
24
 41
0.7999999999999998
 50
0
  1
スタッドボルト
  0
LINE
  8
_1-5_寸法2
  6
CONTINUOUS
 62
    7
 10
1513.5808014395134
 20
489.00543477330609
 11
1517.7219060705377
 21
504.46024801821164
  0
LINE
  8
_1-5_寸法2
  6
CONTINUOUS
 62
    7
 10
1513.5808014395134
 20
489.00543477330609
 11
1524.8945098721626
 21
500.31914333862636
  0
LINE
  8
_1-5_寸法2
  6
CONTINUOUS
 62
    7
 10
1513.5808014395134
 20
489.00543477330609
 11
1541.7157199832175
 21
537.73654381766551
  0
LINE
  8
_1-5_寸法2
  6
CONTINUOUS
 62
    7
 10
1541.7157199832175
 20
537.73654381766551
 11
1695.3157199832174
 21
537.73654381766551
  0
TEXT
  8
_1-5_寸法2
 62
    7
 10
1541.7157199832175
 20
537.73654381766551
 40
24
 41
0.7999999999999998
 50
0
  1
ボルトカバー金具
  0
TEXT
  8
_0-7_枠細線
 62
    5
 10
1544.7999999999997
 20
176
 40
32
 41
0.6
 50
0
  1
ＨＳＡＹ－１５Ｌ６００Ｎ
  0
LINE
  8
_0-0_計極細
  6
CONTINUOUS
 62
    2
 10
1314.0037602689461
 20
738.42362631448214
 11
1363.862146533779
 21
738.42362631448214
  0
ENDSEC
  0
EOF
