  0
SECTION
  2
HEADER
  9
$ACADVER
  1
AC1009
  9
$INSBASE
 10
0
 20
0
 30
0
  9
$EXTMIN
 10
0
 20
0
  9
$EXTMAX
 10
2376
 20
1680
  9
$LIMMIN
 10
0
 20
0
  9
$LIMMAX
 10
2376
 20
1680
  9
$LTSCALE
 40
8
  0
ENDSEC
  0
SECTION
  2
TABLES
  0
TABLE
  2
LTYPE
 70
     9
  0
LTYPE
  2
CONTINUOUS
 70
    64
  3
実線
 72
    65
 73
     0
 40
0.0
  0
LTYPE
  2
DASHED1
 70
    64
  3
--  --  --  --  --  --  --  --  
 72
    65
 73
     2
 40
2.5
 49
1.25
 49
-1.25
  0
LTYPE
  2
DASHED2
 70
    64
  3
----    ----    ----    ----    
 72
    65
 73
     2
 40
5.0
 49
2.5
 49
-2.5
  0
LTYPE
  2
DASHED3
 70
    64
  3
------  ------  ------  ------  
 72
    65
 73
     2
 40
5.0
 49
3.75
 49
-1.25
  0
LTYPE
  2
CENTER1
 70
    64
  3
----- - ----- - ----- - ----- - 
 72
    65
 73
     4
 40
10.0
 49
6.25
 49
-1.25
 49
1.25
 49
-1.25
  0
LTYPE
  2
CENTER2
 70
    64
  3
----------  --  ----------  --  
 72
    65
 73
     4
 40
20.0
 49
12.5
 49
-2.5
 49
2.5
 49
-2.5
  0
LTYPE
  2
PHANTOM1
 70
    64
  3
--- - - --- - - --- - - --- - - 
 72
    65
 73
     6
 40
10.0
 49
3.25
 49
-1.25
 49
1.25
 49
-1.25
 49
1.25
 49
-1.25
  0
LTYPE
  2
PHANTOM2
 70
    64
  3
--------  -  -  --------  -  -  
 72
    65
 73
     6
 40
20.0
 49
10.0
 49
-2.5
 49
1.25
 49
-2.5
 49
1.25
 49
-2.5
  0
LTYPE
  2
DOT
 70
    64
  3
-   -   -   -   -   -   -   -   
 72
    65
 73
     2
 40
2.5
 49
0.625
 49
-1.875
  0
LTYPE
  2
DUMMY
 70
    64
  3
ダミー
 72
    65
 73
     0
 40
0.0
  0
LTYPE
  2
RAND1
 70
    64
  3
ランダム線1
 72
    65
 73
     4
 40
10.0
 49
1.0
 49
-2.0
 49
3.0
 49
-4.0
  0
LTYPE
  2
RAND2
 70
    64
  3
ランダム線2
 72
    65
 73
     4
 40
14.0
 49
2.0
 49
-3.0
 49
4.0
 49
-5.0
  0
LTYPE
  2
RAND3
 70
    64
  3
ランダム線3
 72
    65
 73
     4
 40
18.0
 49
3.0
 49
-4.0
 49
5.0
 49
-6.0
  0
LTYPE
  2
RAND4
 70
    64
  3
ランダム線4
 72
    65
 73
     4
 40
22.0
 49
4.0
 49
-5.0
 49
6.0
 49
-7.0
  0
LTYPE
  2
RAND5
 70
    64
  3
ランダム線5
 72
    65
 73
     4
 40
26.0
 49
5.0
 49
-6.0
 49
7.0
 49
-8.0
  0
LTYPE
  2
LONG1
 70
    64
  3
----------  --  ----------  --  
 72
    65
 73
     4
 40
40.0
 49
32.5
 49
-2.5
 49
2.5
 49
-2.5
  0
LTYPE
  2
LONG2
 70
    64
  3
--------  -  -  --------  -  -  
 72
    65
 73
     6
 40
40.0
 49
30.0
 49
-2.5
 49
1.25
 49
-2.5
 49
1.25
 49
-2.5
  0
LTYPE
  2
LONG3
 70
    64
  3
+++++++++++++++..+++++++++++++++
 72
    65
 73
     2
 40
40.0
 49
37.5
 49
-2.5
  0
LTYPE
  2
LONG4
 70
    64
  3
+++++++++++++++..+++++++++++++++
 72
    65
 73
     2
 40
80.0
 49
75.0
 49
-5.0
  0
LTYPE
  2
LONG5
 70
    64
  3
----------  --  ----------  --  
 72
    65
 73
     4
 40
60.0
 49
37.5
 49
-7.5
 49
7.5
 49
-7.5
  0
LTYPE
  2
dashed
 70
   64
  3
-------   -------------   ------
 72
   65
 73
    2
 40
7.5
 49
6
 49
-1.5
  0
LTYPE
  2
dashed_spaced
 70
   64
  3
----        --------        ----
 72
   65
 73
    2
 40
12
 49
6
 49
-6
  0
LTYPE
  2
long_dashed_dotted
 70
   64
  3
------------- --- --------------
 72
   65
 73
    4
 40
15.25
 49
12
 49
-1.5
 49
0.25
 49
-1.5
  0
LTYPE
  2
long_dashed_double-dotted
 70
   64
  3
----------- --- --- ------------
 72
   65
 73
    6
 40
17
 49
12
 49
-1.5
 49
0.25
 49
-1.5
 49
0.25
 49
-1.5
  0
LTYPE
  2
long_dashed_triplicate-dotted
 70
   64
  3
--------- --- --- --- ----------
 72
   65
 73
    8
 40
18.75
 49
12
 49
-1.5
 49
0.25
 49
-1.5
 49
0.25
 49
-1.5
 49
0.25
 49
-1.5
  0
LTYPE
  2
dotted
 70
   64
  3
   -       -       -       -    
 72
   65
 73
    2
 40
1.75
 49
0.25
 49
-1.5
  0
LTYPE
  2
chain
 70
   64
  3
-------------- -- --------------
 72
   65
 73
    4
 40
18.5
 49
12
 49
-1.5
 49
3.5
 49
-1.5
  0
LTYPE
  2
chain_double_dash
 70
   64
  3
------------ -- -- -------------
 72
   65
 73
    6
 40
23.5
 49
12
 49
-1.5
 49
3.5
 49
-1.5
 49
3.5
 49
-1.5
  0
LTYPE
  2
dashed_dotted
 70
   64
  3
-----------     -     ----------
 72
   65
 73
    4
 40
9.25
 49
6
 49
-1.5
 49
0.25
 49
-1.5
  0
LTYPE
  2
double-dashed_dotted
 70
   64
  3
------   -----------   -   -----
 72
   65
 73
    6
 40
16.75
 49
6
 49
-1.5
 49
6
 49
-1.5
 49
0.25
 49
-1.5
  0
LTYPE
  2
dashed_double-dotted
 70
   64
  3
---------    -    -    ---------
 72
   65
 73
    6
 40
11
 49
6
 49
-1.5
 49
0.25
 49
-1.5
 49
0.25
 49
-1.5
  0
LTYPE
  2
double-dashed_double-dotted
 70
   64
  3
-----   ---------   -   -   ----
 72
   65
 73
    8
 40
18.5
 49
6
 49
-1.5
 49
6
 49
-1.5
 49
0.25
 49
-1.5
 49
0.25
 49
-1.5
  0
LTYPE
  2
dashed_triplicate-dotted
 70
   64
  3
-------    -    -    -    ------
 72
   65
 73
    8
 40
12.75
 49
6
 49
-1.5
 49
0.25
 49
-1.5
 49
0.25
 49
-1.5
 49
0.25
 49
-1.5
  0
LTYPE
  2
double-dashed_triplicate-dotted
 70
   64
  3
-----  ---------  -  -  -  -----
 72
   65
 73
   10
 40
20.25
 49
6
 49
-1.5
 49
6
 49
-1.5
 49
0.25
 49
-1.5
 49
0.25
 49
-1.5
 49
0.25
 49
-1.5
  0
LTYPE
  2
undefined
 70
   64
  3
--------------------------------
 72
   65
 73
    0
 40
0
  0
ENDTAB
  0
TABLE
  2
STYLE
  5
3
100
AcDbSymbolTable
 70
     1
  0
STYLE
  5
10
100
AcDbSymbolTableRecord
100
AcDbTextStyleTableRecord
  2
STANDARD
 70
     0
 40
0.0
 41
1.0
 50
0.0
 71
     0
 42
0.2
  3
txt
  4
bigfont.shx
  0
STYLE
  5
26
100
AcDbSymbolTableRecord
100
AcDbTextStyleTableRecord
  2
TATEGAKI
 70
    68
 40
0.0
 41
1.0
 50
0.0
 71
     0
 42
1.0
  3
txt
  4
bigfont.shx
  0
ENDTAB
  0
TABLE
  2
LAYER
 70
   13
  0
LAYER
  2
_0-0_計極細
 70
   64
 62
    7
  6
CONTINUOUS
  0
LAYER
  2
_0-1_計細線
 70
   64
 62
    7
  6
CONTINUOUS
  0
LAYER
  2
_0-5_寸法線
 70
   64
 62
    7
  6
CONTINUOUS
  0
LAYER
  2
_0-7_枠細線
 70
   64
 62
    7
  6
CONTINUOUS
  0
LAYER
  2
_0-8_枠中線
 70
   64
 62
    7
  6
CONTINUOUS
  0
LAYER
  2
_0-a_極細1
 70
   64
 62
    7
  6
CONTINUOUS
  0
LAYER
  2
_0-d_寸法1
 70
   64
 62
    7
  6
CONTINUOUS
  0
LAYER
  2
_0-e_極細4
 70
   64
 62
    7
  6
CONTINUOUS
  0
LAYER
  2
_1-1_寸法4
 70
   64
 62
    7
  6
CONTINUOUS
  0
LAYER
  2
_1-2_極細2
 70
   64
 62
    7
  6
CONTINUOUS
  0
LAYER
  2
_1-3_細線2
 70
   64
 62
    7
  6
CONTINUOUS
  0
LAYER
  2
_1-5_寸法2
 70
   64
 62
    7
  6
CONTINUOUS
  0
LAYER
  2
ADD_LINE
 70
   64
 62
    7
  6
CONTINUOUS
  0
ENDTAB
  0
ENDSEC
  0
SECTION
  2
BLOCKS
  0
ENDSEC
  0
SECTION
  2
ENTITIES
  0
LINE
  8
_0-8_枠中線
  6
CONTINUOUS
 62
    5
 10
96
 20
96
 11
96
 21
1536
  0
LINE
  8
_0-8_枠中線
  6
CONTINUOUS
 62
    5
 10
96
 20
1536
 11
2280
 21
1536
  0
LINE
  8
_0-8_枠中線
  6
CONTINUOUS
 62
    5
 10
2280
 20
1536
 11
2280
 21
96
  0
LINE
  8
_0-8_枠中線
  6
CONTINUOUS
 62
    5
 10
2280
 20
96
 11
96
 21
96
  0
LINE
  8
_0-7_枠細線
  6
CONTINUOUS
 62
    5
 10
1896
 20
288
 11
1896
 21
160
  0
TEXT
  8
_0-7_枠細線
 62
    5
 10
1500
 20
156
 40
28
 41
1
 50
0
  1
備考
  7
TATEGAKI
  0
TEXT
  8
_0-7_枠細線
 62
    5
 10
1500
 20
220
 40
28
 41
1
 50
0
  1
品番
  7
TATEGAKI
  0
TEXT
  8
_0-7_枠細線
 62
    5
 10
1500
 20
284
 40
28
 41
1
 50
0
  1
品名
  7
TATEGAKI
  0
LINE
  8
_0-7_枠細線
  6
CONTINUOUS
 62
    5
 10
1896
 20
224
 11
1480
 21
224
  0
LINE
  8
_0-7_枠細線
  6
CONTINUOUS
 62
    5
 10
1520
 20
288
 11
1520
 21
96
  0
LINE
  8
_0-8_枠中線
  6
CONTINUOUS
 62
    5
 10
2280
 20
288
 11
1480
 21
288
  0
LINE
  8
_0-8_枠中線
  6
CONTINUOUS
 62
    5
 10
1480
 20
288
 11
1480
 21
96
  0
LINE
  8
_0-7_枠細線
  6
CONTINUOUS
 62
    5
 10
1992
 20
288
 11
1992
 21
96
  0
TEXT
  8
_0-7_枠細線
 62
    5
 10
1908
 20
256
 40
24
 41
1
 50
0
  1
縮　尺
  0
LINE
  8
_0-7_枠細線
  6
CONTINUOUS
 62
    5
 10
1896
 20
248
 11
1992
 21
248
  0
LINE
  8
_0-7_枠細線
  6
CONTINUOUS
 62
    5
 10
1992
 20
160
 11
1480
 21
160
  0
LINE
  8
_0-7_枠細線
  6
CONTINUOUS
 62
    5
 10
2280
 20
144
 11
1992
 21
144
  0
LINE
  8
_0-7_枠細線
  6
CONTINUOUS
 62
    5
 10
1992
 20
192
 11
2280
 21
192
  0
LINE
  8
_0-7_枠細線
  6
CONTINUOUS
 62
    5
 10
2280
 20
224
 11
1992
 21
224
  0
TEXT
  8
_0-7_枠細線
 62
    5
 10
2004
 20
96
 40
24
 41
1
 50
0
  1
年月日
  0
TEXT
  8
_0-7_枠細線
 62
    5
 10
2004
 20
120
 40
24
 41
1
 50
0
  1
作　成
  0
TEXT
  8
_0-7_枠細線
 62
    5
 10
2010
 20
196
 40
24
 41
1
 50
0
  1
承 認
  0
LINE
  8
_0-7_枠細線
  6
CONTINUOUS
 62
    5
 10
2088
 20
224
 11
2088
 21
96
  0
TEXT
  8
_0-7_枠細線
 62
    5
 10
2106
 20
196
 40
24
 41
1
 50
0
  1
検 図
  0
LINE
  8
_0-7_枠細線
  6
CONTINUOUS
 62
    5
 10
2184
 20
224
 11
2184
 21
144
  0
TEXT
  8
_0-7_枠細線
 62
    5
 10
2202
 20
196
 40
24
 41
1
 50
0
  1
設 計
  0
LINE
  8
_0-7_枠細線
  6
CONTINUOUS
 62
    5
 10
2280
 20
1508
 11
1424
 21
1508
  0
TEXT
  8
_0-7_枠細線
 62
    5
 10
1432
 20
1511.9999999999991
 40
20
 41
1
 50
0
  1
記号
  0
TEXT
  8
_0-7_枠細線
 62
    5
 10
1595
 20
1512
 40
20
 41
1
 50
0
  1
訂　 正　 記　 事
  0
TEXT
  8
_0-7_枠細線
 62
    5
 10
1890
 20
1512
 40
20
 41
1
 50
0
  1
訂 正 年 月 日
  0
TEXT
  8
_0-7_枠細線
 62
    5
 10
2090
 20
1512
 40
20
 41
1
 50
0
  1
備　　　　　考
  0
LINE
  8
_0-7_枠細線
  6
CONTINUOUS
 62
    5
 10
2280
 20
1480
 11
1424
 21
1480
  0
TEXT
  8
_0-7_枠細線
 62
    5
 10
1910.4000000000001
 20
188
 40
32
 41
0.6999999999999998
 50
0
  1
１：８
  0
LINE
  8
_0-7_枠細線
  6
CONTINUOUS
 62
    5
 10
2040
 20
1480
 11
2040
 21
1535.9999999999991
  0
LINE
  8
_0-7_枠細線
  6
CONTINUOUS
 62
    5
 10
1880
 20
1480
 11
1880
 21
1536
  0
LINE
  8
_0-7_枠細線
  6
CONTINUOUS
 62
    5
 10
1480
 20
1480
 11
1480
 21
1535.9999999999991
  0
LINE
  8
_0-7_枠細線
  6
CONTINUOUS
 62
    5
 10
1424
 20
1480
 11
1424
 21
1535.9999999999991
  0
TEXT
  8
_0-7_枠細線
 62
    5
 10
2200
 20
152
 40
32
 41
1
 50
0
  1
藤戸
  0
TEXT
  8
_0-7_枠細線
 62
    5
 10
2008
 20
152
 40
32
 41
1
 50
0
  1
大野
  0
TEXT
  8
_0-7_枠細線
 62
    5
 10
2104
 20
152
 40
32
 41
1
 50
0
  1
深川
  0
TEXT
  8
_0-7_枠細線
 62
    5
 10
2096
 20
108
 40
24
 41
0.6666666666666666
 50
0
  1
２０１５年０４月０１日
  0
TEXT
  8
_0-7_枠細線
 62
    5
 10
2007.9999999999991
 20
236
 40
40
 41
0.8
 50
0
  1
株式会社シマブン
  0
TEXT
  8
_0-7_枠細線
 62
    5
 10
1544.7999999999995
 20
112
 40
32.000000000000007
 41
0.5999999999999997
 50
0
  1
表面形状については記号表参照のこと
  0
TEXT
  8
_0-7_枠細線
 62
    5
 10
1536.8
 20
239.24855752183885
 40
32
 41
0.4749999999999999
 50
0
  1
排水ユニット ＳＵＳグレーチング 浅型＋防水マス
  0
LINE
  8
_0-0_計極細
  6
CONTINUOUS
 62
    2
 10
819.55375798797172
 20
1235.7842583144811
 11
819.55376026894623
 21
1230.284258314482
  0
LINE
  8
_0-0_計極細
  6
CONTINUOUS
 62
    2
 10
826.45375795776795
 20
1235.7842583144811
 11
826.45376026894678
 21
1230.284258314482
  0
LINE
  8
_0-0_計極細
  6
CONTINUOUS
 62
    2
 10
819.55376027819852
 20
1220.284258314482
 11
819.55376027819852
 21
1214.784258314482
  0
LINE
  8
_0-0_計極細
  6
CONTINUOUS
 62
    2
 10
826.45376027832094
 20
1220.284258314482
 11
826.45376027832094
 21
1214.784258314482
  0
LINE
  8
_0-0_計極細
  6
CONTINUOUS
 62
    2
 10
819.55376027819852
 20
1199.2842583144829
 11
819.55376027819852
 21
1204.784258314482
  0
LINE
  8
_0-0_計極細
  6
CONTINUOUS
 62
    2
 10
826.45376027832094
 20
1199.2842583144829
 11
826.45376027832094
 21
1204.784258314482
  0
LINE
  8
_0-0_計極細
  6
CONTINUOUS
 62
    2
 10
819.55376027819852
 20
1183.7842583144829
 11
819.55376027819852
 21
1189.2842583144829
  0
LINE
  8
_0-0_計極細
  6
CONTINUOUS
 62
    2
 10
826.45376027832094
 20
1183.7842583144829
 11
826.45376027832094
 21
1189.2842583144829
  0
LINE
  8
_0-0_計極細
  6
CONTINUOUS
 62
    2
 10
819.55375798797172
 20
1137.2842583144811
 11
819.55376026894623
 21
1142.7842583144811
  0
LINE
  8
_0-0_計極細
  6
CONTINUOUS
 62
    2
 10
826.45375795776795
 20
1137.2842583144811
 11
826.45376026894678
 21
1142.7842583144811
  0
LINE
  8
_0-0_計極細
  6
CONTINUOUS
 62
    2
 10
819.55376027819852
 20
1152.7842583144811
 11
819.55376027819852
 21
1158.2842583144811
  0
LINE
  8
_0-0_計極細
  6
CONTINUOUS
 62
    2
 10
826.45376027832094
 20
1152.7842583144811
 11
826.45376027832094
 21
1158.2842583144811
  0
LINE
  8
_0-0_計極細
  6
CONTINUOUS
 62
    2
 10
819.55376027819852
 20
1173.7842583144811
 11
819.55376027819852
 21
1168.2842583144811
  0
LINE
  8
_0-0_計極細
  6
CONTINUOUS
 62
    2
 10
826.45376027832094
 20
1173.7842583144811
 11
826.45376027832094
 21
1168.2842583144811
  0
ARC
  8
_0-1_計細線
  6
CONTINUOUS
 62
    3
 10
1352.6195190041451
 20
1200.7340632024861
 40
0.501740082747087
 50
330.00000000008498
 51
20.189991000038834
  0
ARC
  8
_0-1_計細線
  6
CONTINUOUS
 62
    3
 10
1352.6195190041451
 20
1172.3344534264779
 40
0.501740082747087
 50
339.81000899996047
 51
29.999999999914319
  0
LINE
  8
_0-1_計細線
  6
CONTINUOUS
 62
    3
 10
1315.3083254779438
 20
1188.7920977182011
 11
1314.0047573825284
 21
1191.0499371219203
  0
LINE
  8
_0-1_計細線
  6
CONTINUOUS
 62
    3
 10
1315.3083254779438
 20
1188.7920977182011
 11
1295.1684341221969
 21
1223.6754094395073
  0
LINE
  8
_0-1_計細線
  6
CONTINUOUS
 62
    3
 10
1315.3083254779438
 20
1188.7920977182011
 11
1317.9154556478704
 21
1188.7920977182011
  0
LINE
  8
_0-1_計細線
  6
CONTINUOUS
 62
    3
 10
1311.3976332335076
 20
1186.5342583144811
 11
1291.2577418777571
 21
1221.41757003579
  0
ARC
  8
_0-1_計細線
  6
CONTINUOUS
 62
    3
 10
1282.3999850189527
 20
1160.1927986044211
 40
0.501740082747087
 50
219.81000899998574
 51
269.99999999999977
  0
LINE
  8
_0-1_計細線
  6
CONTINUOUS
 62
    3
 10
1315.3083254779438
 20
1184.276418910762
 11
1295.1684341221969
 21
1149.3931071894549
  0
LINE
  8
_0-1_計細線
  6
CONTINUOUS
 62
    3
 10
1311.3976332335076
 20
1186.5342583144811
 11
1291.2577418777571
 21
1151.650946593174
  0
ARC
  8
_0-1_計細線
  6
CONTINUOUS
 62
    3
 10
1314.0047573825284
 20
1186.5342583144811
 40
46.4111412917104
 50
89.999999999999915
 51
269.99999999999977
  0
ARC
  8
_0-1_計細線
  6
CONTINUOUS
 62
    3
 10
1314.0047573825284
 20
1186.5342583144811
 40
57.198598227560829
 50
89.999999999999915
 51
269.99999999999977
  0
CIRCLE
  8
_0-1_計細線
  6
CONTINUOUS
 62
    3
 10
1314.0047573825284
 20
1186.5342583144811
 40
58.202084413960065
  0
LINE
  8
_0-1_計細線
  6
CONTINUOUS
 62
    3
 10
1315.3083254779438
 20
1188.7920977182011
 11
1355.5881021685343
 21
1188.7920977182011
  0
LINE
  8
_0-1_計細線
  6
CONTINUOUS
 62
    3
 10
1315.3083254779438
 20
1184.276418910762
 11
1355.5881021685343
 21
1184.276418910762
  0
ARC
  8
_0-1_計細線
  6
CONTINUOUS
 62
    3
 10
1314.0047573825284
 20
1186.5342583144811
 40
46.4111412917104
 50
269.99999999999977
 51
89.999999999999545
  0
ARC
  8
_0-1_計細線
  6
CONTINUOUS
 62
    3
 10
1314.0047573825284
 20
1186.5342583144811
 40
57.198598227560829
 50
269.99999999999977
 51
89.999999999999545
  0
ARC
  8
_0-1_計細線
  6
CONTINUOUS
 62
    3
 10
1314.0047573825284
 20
1186.5342583144811
 40
41.644595453350369
 50
89.999999999999915
 51
116.89207624474167
  0
ARC
  8
_0-1_計細線
  6
CONTINUOUS
 62
    3
 10
1314.0047573825284
 20
1186.5342583144811
 40
41.644595453350369
 50
123.10791868694047
 51
236.8920813130581
  0
ARC
  8
_0-1_計細線
  6
CONTINUOUS
 62
    3
 10
1314.0047573825284
 20
1186.5342583144811
 40
41.644595453350369
 50
243.10792375525685
 51
269.99999999999977
  0
ARC
  8
_0-1_計細線
  6
CONTINUOUS
 62
    3
 10
1314.0047573825284
 20
1186.5342583144811
 40
41.644595453350369
 50
269.99999999999977
 51
356.8920785890931
  0
ARC
  8
_0-1_計細線
  6
CONTINUOUS
 62
    3
 10
1314.0047573825284
 20
1186.5342583144811
 40
41.644595453350369
 50
3.1079214109077964
 51
89.999999999999915
  0
ARC
  8
_0-0_計極細
  6
CONTINUOUS
 62
    2
 10
1314.0047573825284
 20
1186.5342583144811
 40
50.153133796808191
 50
269.99999999999977
 51
89.999999999999545
  0
ARC
  8
_0-0_計極細
  6
CONTINUOUS
 62
    2
 10
1314.0047573825284
 20
1186.5342583144811
 40
50.153133796808191
 50
89.999999999999915
 51
269.99999999999977
  0
ARC
  8
_0-0_計極細
  6
CONTINUOUS
 62
    2
 10
1300.3897563380212
 20
1157.4332160848899
 40
0.501740082747087
 50
149.99997568607938
 51
210.00002243784951
  0
ARC
  8
_0-0_計極細
  6
CONTINUOUS
 62
    2
 10
1314.2944411884771
 20
1180.513353237895
 40
1.0034861863992508
 50
29.999999999951111
 51
149.99999999997101
  0
ARC
  8
_0-0_計極細
  6
CONTINUOUS
 62
    2
 10
1314.2944411884771
 20
1180.513353237895
 40
1.0034861863992508
 50
29.999999999951111
 51
106.7786549999677
  0
ARC
  8
_0-0_計極細
  6
CONTINUOUS
 62
    2
 10
1308.6456641710563
 20
1183.7746788280147
 40
1.0034861863992508
 50
329.99999999995163
 51
89.999999999999545
  0
ARC
  8
_0-0_計極細
  6
CONTINUOUS
 62
    2
 10
1273.5095410824904
 20
1193.8130191135742
 40
0.501740082747087
 50
89.993779916795503
 51
169.8086801233238
  0
ARC
  8
_0-0_計極細
  6
CONTINUOUS
 62
    2
 10
1273.5079753770576
 20
1179.2624957808202
 40
0.501740082747087
 50
190.17882981064031
 51
269.99383436904543
  0
ARC
  8
_0-0_計極細
  6
CONTINUOUS
 62
    2
 10
1273.4562430864514
 20
1189.2973447111153
 40
1.0034861863992508
 50
176.10042624740908
 51
269.99385985774035
  0
ARC
  8
_0-0_計極細
  6
CONTINUOUS
 62
    2
 10
1314.0047573825284
 20
1186.5342583144811
 40
37.630656728658437
 50
317.45760300000074
 51
327.38710799999916
  0
ARC
  8
_0-0_計極細
  6
CONTINUOUS
 62
    2
 10
1314.0047573825284
 20
1186.5342583144811
 40
37.630656728658437
 50
32.612892000000492
 51
42.542396999998878
  0
LINE
  8
_0-0_計極細
  6
CONTINUOUS
 62
    2
 10
1349.1789751535159
 20
1167.2553202592553
 11
1340.2208859325153
 21
1182.7711926416177
  0
LINE
  8
_0-0_計極細
  6
CONTINUOUS
 62
    2
 10
1347.7721485360369
 20
1162.6676254061949
 11
1335.4411482911316
 21
1184.0255458589354
  0
LINE
  8
_0-0_計極細
  6
CONTINUOUS
 62
    2
 10
1343.1502127958054
 20
1158.6312407473779
 11
1329.2130096827166
 21
1182.7711926416177
  0
LINE
  8
_0-0_計極細
  6
CONTINUOUS
 62
    2
 10
1349.1789751535159
 20
1205.8131963697078
 11
1340.2208859325153
 21
1190.2973239873472
  0
LINE
  8
_0-0_計極細
  6
CONTINUOUS
 62
    2
 10
1347.7721485360369
 20
1210.4008912227682
 11
1335.4411482911316
 21
1189.0429707700278
  0
LINE
  8
_0-0_計極細
  6
CONTINUOUS
 62
    2
 10
1343.1502127958054
 20
1214.4372698606821
 11
1329.2130096827166
 21
1190.2973239873472
  0
LINE
  8
_0-0_計極細
  6
CONTINUOUS
 62
    2
 10
1311.997791030635
 20
1159.5146219193102
 11
1311.997791030635
 21
1167.4320338232537
  0
LINE
  8
_0-0_計極細
  6
CONTINUOUS
 62
    2
 10
1312.4995311133823
 20
1159.4820307601294
 11
1312.4995311133823
 21
1166.5629944472148
  0
ARC
  8
_0-0_計極細
  6
CONTINUOUS
 62
    2
 10
1314.0047573825284
 20
1186.5342583144811
 40
37.630656728658437
 50
213.59599500000033
 51
225.50677599999892
  0
LINE
  8
_0-0_計極細
  6
CONTINUOUS
 62
    2
 10
1340.987094270751
 20
1155.353490128211
 11
1324.4332720413329
 21
1184.0255458589354
  0
LINE
  8
_0-0_計極細
  6
CONTINUOUS
 62
    2
 10
1335.7992416205623
 20
1152.2973027949556
 11
1318.2051334329169
 21
1182.7711926416177
  0
LINE
  8
_0-0_計極細
  6
CONTINUOUS
 62
    2
 10
1317.7901726550388
 20
1145.3575233110114
 11
1305.4591724101335
 21
1166.7154437637528
  0
LINE
  8
_0-0_計極細
  6
CONTINUOUS
 62
    2
 10
1323.5967515736118
 20
1147.3420437287796
 11
1309.659548460522
 21
1171.4819956230185
  0
LINE
  8
_0-0_計極細
  6
CONTINUOUS
 62
    2
 10
1327.5169327644523
 20
1147.5764857306531
 11
1310.9631105350343
 21
1176.2485474822843
  0
LINE
  8
_0-0_計極細
  6
CONTINUOUS
 62
    2
 10
1332.7575887521632
 20
1150.5412094948888
 11
1315.1634865854228
 21
1181.0150933206442
  0
LINE
  8
_0-0_計極細
  6
CONTINUOUS
 62
    2
 10
1282.3999850189527
 20
1159.6910585216738
 11
1295.6100193423242
 21
1159.6910585216738
  0
ARC
  8
_0-0_計極細
  6
CONTINUOUS
 62
    2
 10
1292.1338497963568
 20
1155.1753797142346
 40
1.0034861863992508
 50
329.99999999997061
 51
89.999999999999545
  0
ARC
  8
_0-0_計極細
  6
CONTINUOUS
 62
    2
 10
1314.0047573825284
 20
1186.5342583144811
 40
37.630656728658437
 50
233.77152299999938
 51
236.31964599999907
  0
ARC
  8
_0-0_計極細
  6
CONTINUOUS
 62
    2
 10
1288.1528695060549
 20
1155.1753797142346
 40
1.0034861863992508
 50
89.999999999999915
 51
230.49822999997428
  0
LINE
  8
_0-0_計極細
  6
CONTINUOUS
 62
    2
 10
1288.1528695060549
 20
1156.1788598797284
 11
1292.1338497963568
 21
1156.1788598797284
  0
ARC
  8
_0-0_計極細
  6
CONTINUOUS
 62
    2
 10
1314.0047573825284
 20
1186.5342583144811
 40
37.630656728658437
 50
272.61289199999948
 51
282.54239699999982
  0
ARC
  8
_0-0_計極細
  6
CONTINUOUS
 62
    2
 10
1318.2246953535102
 20
1145.6083963628371
 40
0.501740082747087
 50
209.99999999991431
 51
275.88706199998586
  0
LINE
  8
_0-0_計極細
  6
CONTINUOUS
 62
    2
 10
1313.1136995566237
 20
1146.4330195221282
 11
1304.1556103356231
 21
1161.9488979253938
  0
LINE
  8
_0-0_計極細
  6
CONTINUOUS
 62
    2
 10
1306.560251446919
 20
1145.7421206645913
 11
1299.9552342852346
 21
1157.182346066129
  0
ARC
  8
_0-0_計極細
  6
CONTINUOUS
 62
    2
 10
1314.0047573825284
 20
1186.5342583144811
 40
37.630656728658437
 50
254.49322399999909
 51
266.40400499999907
  0
ARC
  8
_0-0_計極細
  6
CONTINUOUS
 62
    2
 10
1295.6100193423242
 20
1160.1927986044211
 40
0.501740082747087
 50
269.99999999999977
 51
329.99999999989114
  0
ARC
  8
_0-0_計極細
  6
CONTINUOUS
 62
    2
 10
1299.7731199693824
 20
1148.4664236682129
 40
1.0034861863992508
 50
249.50177000005806
 51
29.999999999976708
  0
LINE
  8
_0-0_計極細
  6
CONTINUOUS
 62
    2
 10
1300.6421593454231
 20
1148.9681637509602
 11
1298.6516722107242
 21
1152.4157942068614
  0
ARC
  8
_0-0_計極細
  6
CONTINUOUS
 62
    2
 10
1303.2865649386783
 20
1161.4471518217424
 40
1.0034861863992508
 50
29.999999999977071
 51
149.99999999999699
  0
ARC
  8
_0-0_計極細
  6
CONTINUOUS
 62
    2
 10
1314.0047573825284
 20
1186.5342583144811
 40
27.094072844634088
 50
244.78019200000068
 51
249.77896100000117
  0
ARC
  8
_0-0_計極細
  6
CONTINUOUS
 62
    2
 10
1314.0047573825284
 20
1186.5342583144811
 40
37.630656728658437
 50
243.68035399999945
 51
246.22847699999838
  0
ARC
  8
_0-0_計極細
  6
CONTINUOUS
 62
    2
 10
1297.7826268137794
 20
1151.9140541241168
 40
1.0034861863992508
 50
29.999999999977071
 51
150.00000000002294
  0
ARC
  8
_0-0_計極細
  6
CONTINUOUS
 62
    2
 10
1312.2446601805857
 20
1145.9312794393827
 40
1.0034861863992508
 50
267.5178359999677
 51
30.000000000002665
  0
ARC
  8
_0-0_計極細
  6
CONTINUOUS
 62
    2
 10
1306.9947741453905
 20
1145.992993716417
 40
0.501740082747087
 50
210.00000000010814
 51
260.18999100005101
  0
ARC
  8
_0-0_計極細
  6
CONTINUOUS
 62
    2
 10
1314.0047573825284
 20
1186.5342583144811
 40
27.094072844634088
 50
260.2909829999993
 51
275.37568199999987
  0
ARC
  8
_0-0_計極細
  6
CONTINUOUS
 62
    2
 10
1314.0047573825284
 20
1186.5342583144811
 40
37.630656728658437
 50
288.07291800000075
 51
297.32522599999999
  0
ARC
  8
_0-0_計極細
  6
CONTINUOUS
 62
    2
 10
1314.0047573825284
 20
1186.5342583144811
 40
27.094072844634088
 50
283.31934900000118
 51
296.2837799999993
  0
ARC
  8
_0-0_計極細
  6
CONTINUOUS
 62
    2
 10
1327.951449442018
 20
1147.8273587824797
 40
0.501740082747087
 50
210.00000000010814
 51
289.81487200010849
  0
ARC
  8
_0-0_計極細
  6
CONTINUOUS
 62
    2
 10
1322.7277061766679
 20
1146.8403036460331
 40
1.0034861863992508
 50
282.39403400005705
 51
30.000000000002665
  0
ARC
  8
_0-0_計極細
  6
CONTINUOUS
 62
    2
 10
1314.0047573825284
 20
1186.5342583144811
 40
37.630656728658437
 50
302.67477399999905
 51
311.92708199999919
  0
ARC
  8
_0-0_計極細
  6
CONTINUOUS
 62
    2
 10
1336.6682809966003
 20
1152.7990488986088
 40
1.0034861863992508
 50
210.00000000004766
 51
303.89344999998519
  0
ARC
  8
_0-0_計極細
  6
CONTINUOUS
 62
    2
 10
1340.5525715722786
 20
1155.1026170763853
 40
0.501740082747087
 50
310.18512800006715
 51
29.999999999952333
  0
ARC
  8
_0-0_計極細
  6
CONTINUOUS
 62
    2
 10
1331.8885493761243
 20
1150.0394633912365
 40
1.0034861863992508
 50
296.10655000001316
 51
29.999999999976708
  0
LINE
  8
_0-0_計極細
  6
CONTINUOUS
 62
    2
 10
1279.7215974374456
 20
1165.7119635982599
 11
1297.6377879212557
 21
1165.7119635982599
  0
ARC
  8
_0-0_計極細
  6
CONTINUOUS
 62
    2
 10
1292.1338497963568
 20
1217.8931369147294
 40
1.0034861863992508
 50
269.99999999999977
 51
30.000000000028667
  0
LINE
  8
_0-0_計極細
  6
CONTINUOUS
 62
    2
 10
1282.3999850189527
 20
1213.3774581072903
 11
1295.6100193423242
 21
1213.3774581072903
  0
LINE
  8
_0-0_計極細
  6
CONTINUOUS
 62
    2
 10
1279.7215974374456
 20
1207.3565530307033
 11
1297.6377879212557
 21
1207.3565530307033
  0
LINE
  8
_0-0_計極細
  6
CONTINUOUS
 62
    2
 10
1276.4519569774163
 20
1203.8443604096647
 11
1301.1139574672231
 21
1203.8443604096647
  0
LINE
  8
_0-0_計極細
  6
CONTINUOUS
 62
    2
 10
1275.2673137990721
 20
1197.8234553330794
 11
1303.1417260461565
 21
1197.8234553330794
  0
LINE
  8
_0-0_計極細
  6
CONTINUOUS
 62
    2
 10
1273.5102571541918
 20
1194.311262712039
 11
1306.6178955921221
 21
1194.311262712039
  0
LINE
  8
_0-0_計極細
  6
CONTINUOUS
 62
    2
 10
1273.4574477957647
 20
1188.2903576354538
 11
1308.6456641710563
 21
1188.2903576354538
  0
LINE
  8
_0-0_計極細
  6
CONTINUOUS
 62
    2
 10
1276.4519569774163
 20
1169.2241562192994
 11
1301.1139574672231
 21
1169.2241562192994
  0
LINE
  8
_0-0_計極細
  6
CONTINUOUS
 62
    2
 10
1275.2673137990721
 20
1175.2450612958855
 11
1303.1417260461565
 21
1175.2450612958855
  0
LINE
  8
_0-0_計極細
  6
CONTINUOUS
 62
    2
 10
1273.5102571541918
 20
1178.757253916925
 11
1306.6178955921221
 21
1178.757253916925
  0
LINE
  8
_0-0_計極細
  6
CONTINUOUS
 62
    2
 10
1273.4574477957647
 20
1184.7781589935094
 11
1308.6456641710563
 21
1184.7781589935094
  0
ARC
  8
_0-0_計極細
  6
CONTINUOUS
 62
    2
 10
1314.0047573825284
 20
1186.5342583144811
 40
27.094072844634088
 50
140.2909829999995
 51
155.37568200000089
  0
ARC
  8
_0-0_計極細
  6
CONTINUOUS
 62
    2
 10
1314.0047573825284
 20
1186.5342583144811
 40
37.630656728658437
 50
152.61289200000007
 51
162.542396999999
  0
ARC
  8
_0-0_計極細
  6
CONTINUOUS
 62
    2
 10
1275.2673137990721
 20
1198.82694151948
 40
1.0034861863992508
 50
162.39403400002107
 51
269.99999999999977
  0
ARC
  8
_0-0_計極細
  6
CONTINUOUS
 62
    2
 10
1279.7215974374456
 20
1164.7084774118593
 40
1.0034861863992508
 50
89.999999999999915
 51
212.4821639999854
  0
ARC
  8
_0-0_計極細
  6
CONTINUOUS
 62
    2
 10
1314.0047573825284
 20
1186.5342583144811
 40
37.630656728658437
 50
168.07291799999993
 51
177.32522600000016
  0
ARC
  8
_0-0_計極細
  6
CONTINUOUS
 62
    2
 10
1314.0047573825284
 20
1186.5342583144811
 40
37.630656728658437
 50
182.6747739999995
 51
191.9270819999997
  0
ARC
  8
_0-0_計極細
  6
CONTINUOUS
 62
    2
 10
1314.0047573825284
 20
1186.5342583144811
 40
37.630656728658437
 50
197.4576029999993
 51
207.38710799999834
  0
ARC
  8
_0-0_計極細
  6
CONTINUOUS
 62
    2
 10
1273.4574477957647
 20
1183.7746788280156
 40
1.0034861863992508
 50
89.999999999999915
 51
183.89344999999844
  0
ARC
  8
_0-0_計極細
  6
CONTINUOUS
 62
    2
 10
1275.2673137990721
 20
1174.2415751094859
 40
1.0034861863992508
 50
89.999999999999915
 51
197.60596600002808
  0
ARC
  8
_0-0_計極細
  6
CONTINUOUS
 62
    2
 10
1276.4519569774163
 20
1169.7258963020449
 40
0.501740082747087
 50
204.11293799998069
 51
269.99999999999977
  0
ARC
  8
_0-0_計極細
  6
CONTINUOUS
 62
    2
 10
1314.0047573825284
 20
1186.5342583144811
 40
27.094072844634088
 50
163.31934899999951
 51
176.28377999999955
  0
ARC
  8
_0-0_計極細
  6
CONTINUOUS
 62
    2
 10
1314.0047573825284
 20
1186.5342583144811
 40
27.094072844634088
 50
183.71621999999815
 51
196.68065100000013
  0
ARC
  8
_0-0_計極細
  6
CONTINUOUS
 62
    2
 10
1314.0047573825284
 20
1186.5342583144811
 40
27.094072844634088
 50
204.62431799999874
 51
219.70901699999865
  0
ARC
  8
_0-0_計極細
  6
CONTINUOUS
 62
    2
 10
1276.4519569774163
 20
1203.3426203269191
 40
0.501740082747087
 50
89.999999999999915
 51
155.88706200001897
  0
ARC
  8
_0-0_計極細
  6
CONTINUOUS
 62
    2
 10
1279.7215974374456
 20
1208.3600392171047
 40
1.0034861863992508
 50
147.51783600005803
 51
269.99999999999977
  0
ARC
  8
_0-0_計極細
  6
CONTINUOUS
 62
    2
 10
1314.0047573825284
 20
1186.5342583144811
 40
37.630656728658437
 50
123.68035400000058
 51
126.22847700000025
  0
ARC
  8
_0-0_計極細
  6
CONTINUOUS
 62
    2
 10
1314.0047573825284
 20
1186.5342583144811
 40
37.630656728658437
 50
134.49322399999971
 51
146.40400499999933
  0
ARC
  8
_0-0_計極細
  6
CONTINUOUS
 62
    2
 10
1282.3999850189527
 20
1212.8757180245429
 40
0.501740082747087
 50
89.999999999999915
 51
140.18999100001389
  0
ARC
  8
_0-0_計極細
  6
CONTINUOUS
 62
    2
 10
1288.1528695060549
 20
1217.8931369147294
 40
1.0034861863992508
 50
129.50177000002535
 51
269.99999999999977
  0
LINE
  8
_0-0_計極細
  6
CONTINUOUS
 62
    2
 10
1288.1528695060549
 20
1216.8896567492357
 11
1292.1338497963568
 21
1216.8896567492357
  0
ARC
  8
_0-0_計極細
  6
CONTINUOUS
 62
    2
 10
1314.0047573825284
 20
1186.5342583144811
 40
37.630656728658437
 50
77.457603000000148
 51
87.38710800000031
  0
ARC
  8
_0-0_計極細
  6
CONTINUOUS
 62
    2
 10
1314.0047573825284
 20
1186.5342583144811
 40
37.630656728658437
 50
77.457603000000148
 51
87.38710800000031
  0
ARC
  8
_0-0_計極細
  6
CONTINUOUS
 62
    2
 10
1319.0741788298617
 20
1183.2729327243633
 40
1.0034861863992508
 50
89.999999999999915
 51
209.99999999997672
  0
ARC
  8
_0-0_計極細
  6
CONTINUOUS
 62
    2
 10
1319.0741788298617
 20
1189.7955839046017
 40
1.0034861863992508
 50
150.00000000002294
 51
269.99999999999977
  0
ARC
  8
_0-0_計極細
  6
CONTINUOUS
 62
    2
 10
1318.2246953535102
 20
1227.4601202661233
 40
0.501740082747087
 50
84.112938000035086
 51
149.99999999999537
  0
LINE
  8
_0-0_計極細
  6
CONTINUOUS
 62
    2
 10
1323.5967515736118
 20
1225.7264668792777
 11
1309.659548460522
 21
1201.5865210059455
  0
LINE
  8
_0-0_計極細
  6
CONTINUOUS
 62
    2
 10
1327.5169327644523
 20
1225.492024877406
 11
1310.9631105350343
 21
1196.8199691466798
  0
LINE
  8
_0-0_計極細
  6
CONTINUOUS
 62
    2
 10
1332.7575887521632
 20
1222.5273071340753
 11
1315.1634865854228
 21
1192.0534233083199
  0
LINE
  8
_0-0_計極細
  6
CONTINUOUS
 62
    2
 10
1311.997791030635
 20
1194.5261066678868
 11
1311.997791030635
 21
1198.6120915427255
  0
LINE
  8
_0-0_計極細
  6
CONTINUOUS
 62
    2
 10
1312.4995311133823
 20
1193.6570672918479
 11
1312.4995311133823
 21
1199.4811369396684
  0
ARC
  8
_0-0_計極細
  6
CONTINUOUS
 62
    2
 10
1303.1417260461565
 20
1198.82694151948
 40
1.0034861863992508
 50
269.99999999999977
 51
29.999999999976708
  0
LINE
  8
_0-0_計極細
  6
CONTINUOUS
 62
    2
 10
1315.5099836516754
 20
1192.65358110545
 11
1315.5099836516754
 21
1204.6953912586196
  0
LINE
  8
_0-0_計極細
  6
CONTINUOUS
 62
    2
 10
1316.0117297553268
 20
1193.5226265023921
 11
1316.0117297553268
 21
1205.5644366555644
  0
ARC
  8
_0-0_計極細
  6
CONTINUOUS
 62
    2
 10
1303.1417260461565
 20
1174.2415751094859
 40
1.0034861863992508
 50
329.9999999999776
 51
89.999999999999545
  0
ARC
  8
_0-0_計極細
  6
CONTINUOUS
 62
    2
 10
1301.1139574672231
 20
1169.7258963020449
 40
0.501740082747087
 50
269.99999999999977
 51
330.00000000008498
  0
ARC
  8
_0-0_計極細
  6
CONTINUOUS
 62
    2
 10
1314.0047573825284
 20
1186.5342583144811
 40
27.094072844634088
 50
230.22103899999939
 51
235.21980799999864
  0
ARC
  8
_0-0_計極細
  6
CONTINUOUS
 62
    2
 10
1297.6377879212557
 20
1164.7084774118593
 40
1.0034861863992508
 50
329.9999999999776
 51
89.999999999999545
  0
ARC
  8
_0-0_計極細
  6
CONTINUOUS
 62
    2
 10
1305.8936951086059
 20
1166.9663168155803
 40
0.501740082747087
 50
150.0000000000334
 51
210.00000000014614
  0
LINE
  8
_0-0_計極細
  6
CONTINUOUS
 62
    2
 10
1311.997791030635
 20
1174.4564250862386
 11
1311.997791030635
 21
1178.5424099610773
  0
LINE
  8
_0-0_計極細
  6
CONTINUOUS
 62
    2
 10
1312.4995311133823
 20
1173.5873796892938
 11
1312.4995311133823
 21
1179.4114493371162
  0
ARC
  8
_0-0_計極細
  6
CONTINUOUS
 62
    2
 10
1306.6178955921221
 20
1179.2590000205764
 40
0.501740082747087
 50
269.99999999999977
 51
330.00000000008498
  0
ARC
  8
_0-0_計極細
  6
CONTINUOUS
 62
    2
 10
1311.3976332335076
 20
1176.4994145132041
 40
0.501740082747087
 50
150.00000000009922
 51
209.99999999981048
  0
ARC
  8
_0-0_計極細
  6
CONTINUOUS
 62
    2
 10
1308.7905030635773
 20
1170.9802555402712
 40
1.0034861863992508
 50
30.000000000022045
 51
149.99999999997794
  0
ARC
  8
_0-0_計極細
  6
CONTINUOUS
 62
    2
 10
1311.3976332335076
 20
1196.5691021157591
 40
0.501740082747087
 50
150.00000000009922
 51
209.99999999990044
  0
ARC
  8
_0-0_計極細
  6
CONTINUOUS
 62
    2
 10
1314.2944411884771
 20
1192.5551633910673
 40
1.0034861863992508
 50
210.00000000002865
 51
330.00000000004854
  0
ARC
  8
_0-0_計極細
  6
CONTINUOUS
 62
    2
 10
1306.6178955921221
 20
1193.8095166083858
 40
0.501740082747087
 50
30.000000000004636
 51
89.999999999999915
  0
ARC
  8
_0-0_計極細
  6
CONTINUOUS
 62
    2
 10
1308.6456641710563
 20
1189.2938378009485
 40
1.0034861863992508
 50
269.99999999999977
 51
30.000000000002665
  0
LINE
  8
_0-0_計極細
  6
CONTINUOUS
 62
    2
 10
1315.5099836516754
 20
1168.3731253703436
 11
1315.5099836516754
 21
1180.4149355235149
  0
LINE
  8
_0-0_計極細
  6
CONTINUOUS
 62
    2
 10
1316.0117297553268
 20
1167.5040799734006
 11
1316.0117297553268
 21
1179.5458901265702
  0
ARC
  8
_0-0_計極細
  6
CONTINUOUS
 62
    2
 10
1314.2944411884771
 20
1192.5551633910673
 40
1.0034861863992508
 50
253.22134500003193
 51
330.00000000004854
  0
LINE
  8
_0-0_計極細
  6
CONTINUOUS
 62
    2
 10
1313.1136995566237
 20
1226.6354910859309
 11
1304.1556103356231
 21
1211.1196187035694
  0
ARC
  8
_0-0_計極細
  6
CONTINUOUS
 62
    2
 10
1314.0047573825284
 20
1186.5342583144811
 40
37.630656728658437
 50
93.595995000000457
 51
105.50677600000017
  0
LINE
  8
_0-0_計極細
  6
CONTINUOUS
 62
    2
 10
1306.560251446919
 20
1227.3263959643755
 11
1299.9552342852346
 21
1215.8861705628351
  0
LINE
  8
_0-0_計極細
  6
CONTINUOUS
 62
    2
 10
1317.7901726550388
 20
1227.7109933179509
 11
1305.4591724101335
 21
1206.3530728652095
  0
ARC
  8
_0-0_計極細
  6
CONTINUOUS
 62
    2
 10
1305.8936951086059
 20
1206.1021998133838
 40
0.501740082747087
 50
149.99999999994344
 51
209.99999999996626
  0
ARC
  8
_0-0_計極細
  6
CONTINUOUS
 62
    2
 10
1314.0047573825284
 20
1186.5342583144811
 40
27.094072844634088
 50
110.22103899999844
 51
115.21980799999808
  0
ARC
  8
_0-0_計極細
  6
CONTINUOUS
 62
    2
 10
1303.2865649386783
 20
1211.6213648072226
 40
1.0034861863992508
 50
209.99999999995771
 51
330.00000000006759
  0
ARC
  8
_0-0_計極細
  6
CONTINUOUS
 62
    2
 10
1300.3897569837061
 20
1215.6352975110085
 40
0.501740082747087
 50
149.99999999999537
 51
210.00000000000426
  0
ARC
  8
_0-0_計極細
  6
CONTINUOUS
 62
    2
 10
1314.0047573825284
 20
1186.5342583144811
 40
37.630656728658437
 50
113.7715230000007
 51
116.31964600000016
  0
ARC
  8
_0-0_計極細
  6
CONTINUOUS
 62
    2
 10
1299.7731199693824
 20
1224.6020929607512
 40
1.0034861863992508
 50
330.00000000002257
 51
110.49822999994124
  0
ARC
  8
_0-0_計極細
  6
CONTINUOUS
 62
    2
 10
1297.7826268137794
 20
1221.1544625048464
 40
1.0034861863992508
 50
210.00000000002169
 51
329.9999999999776
  0
LINE
  8
_0-0_計極細
  6
CONTINUOUS
 62
    2
 10
1300.6421593454231
 20
1224.1003528780038
 11
1298.6516722107242
 21
1220.6527224221018
  0
ARC
  8
_0-0_計極細
  6
CONTINUOUS
 62
    2
 10
1314.0047573825284
 20
1186.5342583144811
 40
27.094072844634088
 50
124.78019199999984
 51
129.77896100000024
  0
ARC
  8
_0-0_計極細
  6
CONTINUOUS
 62
    2
 10
1295.6100193423242
 20
1212.8757180245429
 40
0.501740082747087
 50
30.0000000001085
 51
89.999999999999915
  0
ARC
  8
_0-0_計極細
  6
CONTINUOUS
 62
    2
 10
1297.6377879212557
 20
1208.3600392171047
 40
1.0034861863992508
 50
269.99999999999977
 51
29.999999999976708
  0
ARC
  8
_0-0_計極細
  6
CONTINUOUS
 62
    2
 10
1301.1139574672231
 20
1203.3426203269191
 40
0.501740082747087
 50
29.999999999914696
 51
89.999999999999929
  0
LINE
  8
_0-0_計極細
  6
CONTINUOUS
 62
    2
 10
1312.4995311133823
 20
1206.5055221817493
 11
1312.4995311133823
 21
1213.5864858688346
  0
LINE
  8
_0-0_計極細
  6
CONTINUOUS
 62
    2
 10
1311.997791030635
 20
1205.6364828057103
 11
1311.997791030635
 21
1213.5538947096538
  0
ARC
  8
_0-0_計極細
  6
CONTINUOUS
 62
    2
 10
1312.2446601805857
 20
1227.137237189585
 40
1.0034861863992508
 50
329.99999999995163
 51
92.482164000033848
  0
ARC
  8
_0-0_計極細
  6
CONTINUOUS
 62
    2
 10
1314.0047573825284
 20
1186.5342583144811
 40
27.094072844634088
 50
84.624317999999917
 51
99.709017000000401
  0
ARC
  8
_0-0_計極細
  6
CONTINUOUS
 62
    2
 10
1306.9947741453905
 20
1227.0755229125498
 40
0.501740082747087
 50
99.810008999948636
 51
149.99999999998147
  0
ARC
  8
_0-0_計極細
  6
CONTINUOUS
 62
    2
 10
1308.7905030635773
 20
1202.0882610886911
 40
1.0034861863992508
 50
209.99999999997672
 51
330.00000000002257
  0
ARC
  8
_0-0_計極細
  6
CONTINUOUS
 62
    2
 10
1314.0047573825284
 20
1186.5342583144811
 40
27.094072844634088
 50
84.624317999999917
 51
89.999999999999915
  0
ARC
  8
_0-0_計極細
  6
CONTINUOUS
 62
    2
 10
1314.0047573825284
 20
1186.5342583144811
 40
27.094072844634088
 50
20.290983000001571
 51
35.37568200000068
  0
LINE
  8
_0-0_計極細
  6
CONTINUOUS
 62
    2
 10
1340.987094270751
 20
1217.715026500754
 11
1324.4332720413329
 21
1189.0429707700278
  0
LINE
  8
_0-0_計極細
  6
CONTINUOUS
 62
    2
 10
1335.7992416205623
 20
1220.7712138340084
 11
1318.2051334329169
 21
1190.2973239873472
  0
ARC
  8
_0-0_計極細
  6
CONTINUOUS
 62
    2
 10
1314.0047573825284
 20
1186.5342583144811
 40
27.094072844634088
 50
303.71622000000156
 51
316.68065099999853
  0
ARC
  8
_0-0_計極細
  6
CONTINUOUS
 62
    2
 10
1330.0820490587537
 20
1183.2729327243633
 40
1.0034861863992508
 50
89.999999999999915
 51
210.00000000000267
  0
ARC
  8
_0-0_計極細
  6
CONTINUOUS
 62
    2
 10
1323.9987493428614
 20
1183.7746788280156
 40
0.501740082747087
 50
30.0000000001085
 51
89.999999999999915
  0
ARC
  8
_0-0_計極細
  6
CONTINUOUS
 62
    2
 10
1330.0820490587537
 20
1189.7955839046017
 40
1.0034861863992508
 50
149.99999999999699
 51
269.99999999999977
  0
ARC
  8
_0-0_計極細
  6
CONTINUOUS
 62
    2
 10
1323.9987493428614
 20
1189.2938378009485
 40
0.501740082747087
 50
269.99999999999977
 51
329.99999999989114
  0
ARC
  8
_0-0_計極細
  6
CONTINUOUS
 62
    2
 10
1314.0047573825284
 20
1186.5342583144811
 40
27.094072844634088
 50
324.62431800000053
 51
339.7090169999999
  0
ARC
  8
_0-0_計極細
  6
CONTINUOUS
 62
    2
 10
1314.0047573825284
 20
1186.5342583144811
 40
27.094072844634088
 50
350.2210390000003
 51
355.21980800000165
  0
ARC
  8
_0-0_計極細
  6
CONTINUOUS
 62
    2
 10
1314.0047573825284
 20
1186.5342583144811
 40
27.094072844634088
 50
4.7801919999998796
 51
9.778961000001221
  0
ARC
  8
_0-0_計極細
  6
CONTINUOUS
 62
    2
 10
1341.0899253085533
 20
1183.2729327243633
 40
1.0034861863992508
 50
89.999999999999915
 51
210.00000000000267
  0
ARC
  8
_0-0_計極細
  6
CONTINUOUS
 62
    2
 10
1335.0066255926602
 20
1183.7746788280156
 40
0.501740082747087
 50
30.000000000056566
 51
89.999999999999915
  0
ARC
  8
_0-0_計極細
  6
CONTINUOUS
 62
    2
 10
1341.0899253085533
 20
1189.7955839046017
 40
1.0034861863992508
 50
149.99999999999699
 51
269.99999999999977
  0
ARC
  8
_0-0_計極細
  6
CONTINUOUS
 62
    2
 10
1335.0066255926602
 20
1189.2938378009485
 40
0.501740082747087
 50
269.99999999999977
 51
329.9999999999431
  0
ARC
  8
_0-0_計極細
  6
CONTINUOUS
 62
    2
 10
1314.0047573825284
 20
1186.5342583144811
 40
27.094072844634088
 50
43.319349000001104
 51
56.28377999999919
  0
ARC
  8
_0-0_計極細
  6
CONTINUOUS
 62
    2
 10
1314.0047573825284
 20
1186.5342583144811
 40
37.630656728658437
 50
62.674774000000312
 51
71.927081999999317
  0
ARC
  8
_0-0_計極細
  6
CONTINUOUS
 62
    2
 10
1314.0047573825284
 20
1186.5342583144811
 40
27.094072844634088
 50
63.716220000000312
 51
76.680650999998889
  0
ARC
  8
_0-0_計極細
  6
CONTINUOUS
 62
    2
 10
1327.951449442018
 20
1225.2411578464835
 40
0.501740082747087
 50
70.185127999926337
 51
149.99999999989151
  0
ARC
  8
_0-0_計極細
  6
CONTINUOUS
 62
    2
 10
1322.7277061766679
 20
1226.2282129829309
 40
1.0034861863992508
 50
329.99999999999665
 51
77.605965999942228
  0
ARC
  8
_0-0_計極細
  6
CONTINUOUS
 62
    2
 10
1314.0047573825284
 20
1186.5342583144811
 40
37.630656728658437
 50
48.072918000001373
 51
57.325226000001372
  0
ARC
  8
_0-0_計極細
  6
CONTINUOUS
 62
    2
 10
1336.6682809966003
 20
1220.2694677303562
 40
1.0034861863992508
 50
56.106549999985482
 51
149.99999999999699
  0
ARC
  8
_0-0_計極細
  6
CONTINUOUS
 62
    2
 10
1340.5525715722786
 20
1217.9658935316747
 40
0.501740082747087
 50
330.00000000004695
 51
49.814871999932151
  0
ARC
  8
_0-0_計極細
  6
CONTINUOUS
 62
    2
 10
1331.8885493761243
 20
1223.0290532377267
 40
1.0034861863992508
 50
330.00000000002257
 51
63.893449999963309
  0
ARC
  8
_0-0_計極細
  6
CONTINUOUS
 62
    2
 10
1344.0192581927483
 20
1159.1329868510302
 40
1.0034861863992508
 50
210.00000000000267
 51
317.60596600004476
  0
ARC
  8
_0-0_計極細
  6
CONTINUOUS
 62
    2
 10
1347.3376318584685
 20
1162.4167523543692
 40
0.501740082747087
 50
324.11293799996702
 51
29.999999999914319
  0
ARC
  8
_0-0_計極細
  6
CONTINUOUS
 62
    2
 10
1314.0047573825284
 20
1186.5342583144811
 40
37.630656728658437
 50
14.493223999999607
 51
26.404005000000534
  0
LINE
  8
_0-0_計極細
  6
CONTINUOUS
 62
    2
 10
1353.0540417026166
 20
1200.4831961715663
 11
1346.4490245409313
 21
1189.0429707700278
  0
ARC
  8
_0-0_計極細
  6
CONTINUOUS
 62
    2
 10
1354.0882947139578
 20
1179.8253022684594
 40
1.0034861863992508
 50
209.99999999997672
 51
350.49822999998082
  0
ARC
  8
_0-0_計極細
  6
CONTINUOUS
 62
    2
 10
1354.0882947139578
 20
1193.2432143605047
 40
1.0034861863992508
 50
9.5017700000188405
 51
150.00000000002294
  0
ARC
  8
_0-0_計極細
  6
CONTINUOUS
 62
    2
 10
1314.0047573825284
 20
1186.5342583144811
 40
37.630656728658437
 50
3.6803540000001762
 51
6.2284769999996845
  0
ARC
  8
_0-0_計極細
  6
CONTINUOUS
 62
    2
 10
1314.0047573825284
 20
1186.5342583144811
 40
37.630656728658437
 50
353.77152299999995
 51
356.31964599999947
  0
ARC
  8
_0-0_計極細
  6
CONTINUOUS
 62
    2
 10
1314.0047573825284
 20
1186.5342583144811
 40
37.630656728658437
 50
333.59599499999911
 51
345.506776
  0
ARC
  8
_0-0_計極細
  6
CONTINUOUS
 62
    2
 10
1350.0480205504607
 20
1167.7570603420027
 40
1.0034861863992508
 50
209.99999999997672
 51
332.48216400001218
  0
ARC
  8
_0-0_計極細
  6
CONTINUOUS
 62
    2
 10
1352.0978015583521
 20
1183.2729327243633
 40
1.0034861863992508
 50
89.999999999999915
 51
210.00000000000267
  0
ARC
  8
_0-0_計極細
  6
CONTINUOUS
 62
    2
 10
1346.0145018424589
 20
1183.7746788280156
 40
0.501740082747087
 50
30.000000000004636
 51
89.999999999999915
  0
LINE
  8
_0-0_計極細
  6
CONTINUOUS
 62
    2
 10
1353.219249317013
 20
1179.3235621857129
 11
1351.2287621823141
 21
1182.7711926416177
  0
LINE
  8
_0-0_計極細
  6
CONTINUOUS
 62
    2
 10
1353.0540417026166
 20
1172.5853204573987
 11
1346.4490245409313
 21
1184.0255458589354
  0
ARC
  8
_0-0_計極細
  6
CONTINUOUS
 62
    2
 10
1352.0978015583521
 20
1189.7955839046017
 40
1.0034861863992508
 50
149.99999999999699
 51
269.99999999999977
  0
ARC
  8
_0-0_計極細
  6
CONTINUOUS
 62
    2
 10
1346.0145018424589
 20
1189.2938378009485
 40
0.501740082747087
 50
269.99999999999977
 51
329.999999999995
  0
LINE
  8
_0-0_計極細
  6
CONTINUOUS
 62
    2
 10
1353.219249317013
 20
1193.7449544432511
 11
1351.2287621823141
 21
1190.2973239873472
  0
ARC
  8
_0-0_計極細
  6
CONTINUOUS
 62
    2
 10
1344.0192581927483
 20
1213.9355297779339
 40
1.0034861863992508
 50
42.394033999954871
 51
149.99999999999699
  0
ARC
  8
_0-0_計極細
  6
CONTINUOUS
 62
    2
 10
1347.3376318584685
 20
1210.6517642745948
 40
0.501740082747087
 50
329.999999999995
 51
35.887061999948138
  0
ARC
  8
_0-0_計極細
  6
CONTINUOUS
 62
    2
 10
1350.0480205504607
 20
1205.3114562869614
 40
1.0034861863992508
 50
27.51783599998744
 51
149.99999999997794
  0
LINE
  8
_0-0_計極細
  6
CONTINUOUS
 62
    2
 10
1315.5099836516754
 20
1159.4820296227635
 11
1315.5099836516754
 21
1161.3487412728573
  0
LINE
  8
_0-0_計極細
  6
CONTINUOUS
 62
    2
 10
1316.0117297553268
 20
1159.514620174692
 11
1316.0117297553268
 21
1160.4796912412985
  0
LINE
  8
_0-0_計極細
  6
CONTINUOUS
 62
    2
 10
1315.5099836516754
 20
1211.7197728287047
 11
1315.5099836516754
 21
1213.5864870061996
  0
LINE
  8
_0-0_計極細
  6
CONTINUOUS
 62
    2
 10
1316.0117297553268
 20
1212.5888226435072
 11
1316.0117297553268
 21
1213.5538964542702
  0
LINE
  8
_0-0_計極細
  6
CENTER2
 62
    2
 10
788.83230101112053
 20
1186.5342583144811
 11
1403.8610216377526
 21
1186.5342583144811
  0
LINE
  8
_0-1_計細線
  6
CONTINUOUS
 62
    3
 10
798.00376026894605
 20
1258.5342583144811
 11
798.00376026894605
 21
1114.5342583144811
  0
LINE
  8
_0-1_計細線
  6
CONTINUOUS
 62
    3
 10
798.00376026894605
 20
1114.5342583144811
 11
1394.0037602689461
 21
1114.5342583144811
  0
LINE
  8
_0-1_計細線
  6
CONTINUOUS
 62
    3
 10
1394.0037602689461
 20
1114.5342583144811
 11
1394.0037602689461
 21
1258.5342583144811
  0
LINE
  8
_0-1_計細線
  6
CONTINUOUS
 62
    3
 10
1394.0037602689461
 20
1258.5342583144811
 11
798.00376026894605
 21
1258.5342583144811
  0
LINE
  8
_0-1_計細線
  6
CONTINUOUS
 62
    3
 10
809.00376026894605
 20
1247.5342583144811
 11
809.00376026894605
 21
1125.5342583144811
  0
LINE
  8
_0-1_計細線
  6
CONTINUOUS
 62
    3
 10
809.00376026894605
 20
1125.5342583144811
 11
1383.0037602689461
 21
1125.5342583144811
  0
LINE
  8
_0-1_計細線
  6
CONTINUOUS
 62
    3
 10
1383.0037602689461
 20
1125.5342583144811
 11
1383.0037602689461
 21
1247.5342583144811
  0
LINE
  8
_0-1_計細線
  6
CONTINUOUS
 62
    3
 10
1383.0037602689461
 20
1247.5342583144811
 11
809.00376026894605
 21
1247.5342583144811
  0
ARC
  8
_0-0_計極細
  6
CONTINUOUS
 62
    2
 10
1187.5817283864242
 20
1215.5342583143965
 40
54.312365187078854
 50
327.72737804884298
 51
33.846056193751515
  0
ARC
  8
_0-0_計極細
  6
CONTINUOUS
 62
    2
 10
1279.4257921514761
 20
1157.5342583145721
 40
54.312365187078854
 50
147.72737804884252
 51
213.84605619376057
  0
LINE
  8
_0-1_計細線
  6
CONTINUOUS
 62
    3
 10
810.50376026894605
 20
1245.784258314482
 11
810.50376026894605
 21
1235.7842583144811
  0
LINE
  8
_0-1_計細線
  6
CONTINUOUS
 62
    3
 10
1232.6901589976685
 20
1245.784258314482
 11
810.50376026894605
 21
1245.784258314482
  0
LINE
  8
_0-1_計細線
  6
CONTINUOUS
 62
    3
 10
810.50376026894605
 20
1235.7842583144811
 11
1237.9778642721374
 21
1235.7842583144811
  0
LINE
  8
_0-1_計細線
  6
CONTINUOUS
 62
    3
 10
810.50376026894605
 20
1230.2842583144811
 11
810.50376026894605
 21
1220.2842583144811
  0
LINE
  8
_0-1_計細線
  6
CONTINUOUS
 62
    3
 10
1239.8528534193927
 20
1230.2842583144811
 11
810.50376026894605
 21
1230.2842583144811
  0
LINE
  8
_0-1_計細線
  6
CONTINUOUS
 62
    3
 10
810.50376026894605
 20
1220.2842583144811
 11
1241.6859843392956
 21
1220.2842583144811
  0
LINE
  8
_0-1_計細線
  6
CONTINUOUS
 62
    3
 10
810.50376026894605
 20
1214.7842583144811
 11
810.50376026894605
 21
1204.7842583144811
  0
LINE
  8
_0-1_計細線
  6
CONTINUOUS
 62
    3
 10
1241.8889149478243
 20
1214.7842583144811
 11
810.50376026894605
 21
1214.7842583144811
  0
LINE
  8
_0-1_計細線
  6
CONTINUOUS
 62
    3
 10
810.50376026894605
 20
1204.7842583144811
 11
1240.8195956635461
 21
1204.7842583144811
  0
LINE
  8
_0-1_計細線
  6
CONTINUOUS
 62
    3
 10
810.50376026894605
 20
1199.2842583144811
 11
810.50376026894605
 21
1189.2842583144811
  0
LINE
  8
_0-1_計細線
  6
CONTINUOUS
 62
    3
 10
1239.4061484238671
 20
1199.2842583144811
 11
810.50376026894605
 21
1199.2842583144811
  0
LINE
  8
_0-1_計細線
  6
CONTINUOUS
 62
    3
 10
810.50376026894605
 20
1189.2842583144811
 11
1235.1292889150034
 21
1189.2842583144811
  0
LINE
  8
_0-1_計細線
  6
CONTINUOUS
 62
    3
 10
810.50376026894605
 20
1183.7842583144811
 11
810.50376026894605
 21
1173.7842583144811
  0
LINE
  8
_0-1_計細線
  6
CONTINUOUS
 62
    3
 10
1231.8782316228887
 20
1183.7842583144811
 11
810.50376026894605
 21
1183.7842583144811
  0
LINE
  8
_0-1_計細線
  6
CONTINUOUS
 62
    3
 10
810.50376026894605
 20
1173.7842583144811
 11
1227.6013721140305
 21
1173.7842583144811
  0
LINE
  8
_0-1_計細線
  6
CONTINUOUS
 62
    3
 10
810.50376026894605
 20
1168.2842583144811
 11
810.50376026894605
 21
1158.2842583144811
  0
LINE
  8
_0-1_計細線
  6
CONTINUOUS
 62
    3
 10
1226.1879248743523
 20
1168.2842583144811
 11
810.50376026894605
 21
1168.2842583144811
  0
LINE
  8
_0-1_計細線
  6
CONTINUOUS
 62
    3
 10
810.50376026894605
 20
1158.2842583144811
 11
1225.118605590076
 21
1158.2842583144811
  0
LINE
  8
_0-1_計細線
  6
CONTINUOUS
 62
    3
 10
810.50376026894605
 20
1152.7842583144811
 11
810.50376026894605
 21
1142.7842583144811
  0
LINE
  8
_0-1_計細線
  6
CONTINUOUS
 62
    3
 10
1225.3215361986065
 20
1152.7842583144811
 11
810.50376026894605
 21
1152.7842583144811
  0
LINE
  8
_0-1_計細線
  6
CONTINUOUS
 62
    3
 10
810.50376026894605
 20
1142.7842583144811
 11
1227.1546671185104
 21
1142.7842583144811
  0
LINE
  8
_0-1_計細線
  6
CONTINUOUS
 62
    3
 10
810.50376026894605
 20
1137.2842583144811
 11
810.50376026894605
 21
1127.2842583144802
  0
LINE
  8
_0-1_計細線
  6
CONTINUOUS
 62
    3
 10
1229.0296562657675
 20
1137.2842583144811
 11
810.50376026894605
 21
1137.2842583144811
  0
LINE
  8
_0-1_計細線
  6
CONTINUOUS
 62
    3
 10
810.50376026894605
 20
1127.2842583144802
 11
1234.3173615402363
 21
1127.2842583144802
  0
LINE
  8
_0-5_寸法線
  6
CONTINUOUS
 62
    7
 10
798.00376026894605
 20
1098.5342583144811
 11
798.00376026894605
 21
1026.5342583144811
  0
LINE
  8
_0-5_寸法線
  6
CONTINUOUS
 62
    7
 10
798.00376026894605
 20
1034.5342583144811
 11
813.45857348957111
 21
1038.6753630361216
  0
LINE
  8
_0-5_寸法線
  6
CONTINUOUS
 62
    7
 10
798.00376026894605
 20
1034.5342583144811
 11
813.45857348957111
 21
1030.3931535928407
  0
LINE
  8
_0-5_寸法線
  6
CONTINUOUS
 62
    7
 10
1314.0037602689461
 20
1098.5342583144811
 11
1314.0037602689461
 21
1026.5342583144811
  0
LINE
  8
_0-5_寸法線
  6
CONTINUOUS
 62
    7
 10
1314.0037602689461
 20
1034.5342583144811
 11
1298.548947048321
 21
1030.3931535928409
  0
LINE
  8
_0-5_寸法線
  6
CONTINUOUS
 62
    7
 10
1314.0037602689461
 20
1034.5342583144811
 11
1298.548947048321
 21
1038.6753630361216
  0
LINE
  8
_0-5_寸法線
  6
CONTINUOUS
 62
    7
 10
798.00376026894605
 20
1034.5342583144811
 11
1314.0037602689461
 21
1034.5342583144811
  0
TEXT
  8
_0-5_寸法線
 62
    7
 10
1038.0037602689461
 20
1034.5342583144811
 40
24
 41
1
 50
0
  1
516
  0
LINE
  8
_0-5_寸法線
  6
CONTINUOUS
 62
    7
 10
1314.0037602689461
 20
1034.5342583144811
 11
1329.4585734895711
 21
1038.6753630361213
  0
LINE
  8
_0-5_寸法線
  6
CONTINUOUS
 62
    7
 10
1314.0037602689461
 20
1034.5342583144811
 11
1329.4585734895711
 21
1030.3931535928407
  0
LINE
  8
_0-5_寸法線
  6
CONTINUOUS
 62
    7
 10
1394.0037602689461
 20
1098.5342583144811
 11
1394.0037602689461
 21
1026.5342583144811
  0
LINE
  8
_0-5_寸法線
  6
CONTINUOUS
 62
    7
 10
1394.0037602689461
 20
1034.5342583144811
 11
1378.548947048321
 21
1030.3931535928409
  0
LINE
  8
_0-5_寸法線
  6
CONTINUOUS
 62
    7
 10
1394.0037602689461
 20
1034.5342583144811
 11
1378.548947048321
 21
1038.6753630361216
  0
LINE
  8
_0-5_寸法線
  6
CONTINUOUS
 62
    7
 10
1314.0037602689461
 20
1034.5342583144811
 11
1394.0037602689461
 21
1034.5342583144811
  0
TEXT
  8
_0-5_寸法線
 62
    7
 10
1342.0037602689451
 20
1034.5342583144811
 40
24
 41
1
 50
0
  1
80
  0
LINE
  8
_0-5_寸法線
  6
CONTINUOUS
 62
    7
 10
782.00376026894605
 20
1114.5342583144811
 11
710.00376026894605
 21
1114.5342583144811
  0
LINE
  8
_0-5_寸法線
  6
CONTINUOUS
 62
    7
 10
718.00376026894605
 20
1114.5342583144811
 11
722.14486499058626
 21
1099.0794450938561
  0
LINE
  8
_0-5_寸法線
  6
CONTINUOUS
 62
    7
 10
718.00376026894605
 20
1114.5342583144811
 11
713.86265554730562
 21
1099.0794450938561
  0
LINE
  8
_0-5_寸法線
  6
CONTINUOUS
 62
    7
 10
782.00376026894605
 20
1125.5342583144811
 11
710.00376026894605
 21
1125.5342583144811
  0
LINE
  8
_0-5_寸法線
  6
CONTINUOUS
 62
    7
 10
718.00376026894605
 20
1065.9534918260433
 11
718.00376026894605
 21
1125.5342583144811
  0
TEXT
  8
_0-5_寸法線
 62
    7
 10
718.00376026894605
 20
1065.9534918260433
 40
24
 41
1
 50
90
  1
11
  0
LINE
  8
_0-5_寸法線
  6
CONTINUOUS
 62
    7
 10
718.00376026894605
 20
1125.5342583144811
 11
713.86265554730574
 21
1140.9890715351062
  0
LINE
  8
_0-5_寸法線
  6
CONTINUOUS
 62
    7
 10
718.00376026894605
 20
1125.5342583144811
 11
722.14486499058637
 21
1140.9890715351062
  0
LINE
  8
_0-5_寸法線
  6
CONTINUOUS
 62
    7
 10
782.00376026894605
 20
1247.5342583144813
 11
710.00376026894605
 21
1247.534258314482
  0
LINE
  8
_0-5_寸法線
  6
CONTINUOUS
 62
    7
 10
718.00376026894605
 20
1247.534258314482
 11
722.14486499058626
 21
1232.079445093857
  0
LINE
  8
_0-5_寸法線
  6
CONTINUOUS
 62
    7
 10
718.00376026894605
 20
1247.534258314482
 11
713.86265554730562
 21
1232.079445093857
  0
LINE
  8
_0-5_寸法線
  6
CONTINUOUS
 62
    7
 10
718.00376026894605
 20
1125.5342583144811
 11
718.00376026894605
 21
1247.534258314482
  0
TEXT
  8
_0-5_寸法線
 62
    7
 10
718.00376026894605
 20
1168.5342583144811
 40
24
 41
1
 50
90
  1
122
  0
LINE
  8
_0-5_寸法線
  6
CONTINUOUS
 62
    7
 10
782.00376026894605
 20
1258.5342583144813
 11
710.00376026894605
 21
1258.534258314482
  0
LINE
  8
_0-5_寸法線
  6
CONTINUOUS
 62
    7
 10
718.00376026894605
 20
1258.534258314482
 11
713.86265554730574
 21
1273.9890715351071
  0
LINE
  8
_0-5_寸法線
  6
CONTINUOUS
 62
    7
 10
718.00376026894605
 20
1258.534258314482
 11
722.14486499058637
 21
1273.9890715351071
  0
LINE
  8
_0-5_寸法線
  6
CONTINUOUS
 62
    7
 10
718.00376026894605
 20
1247.534258314482
 11
718.00376026894605
 21
1301.6519148867874
  0
TEXT
  8
_0-5_寸法線
 62
    7
 10
718.00376026894605
 20
1277.6519148867874
 40
24
 41
1
 50
90
  1
11
  0
LINE
  8
_0-5_寸法線
  6
CONTINUOUS
 62
    7
 10
782.00376026894605
 20
1258.5342583144811
 11
654.00376026894605
 21
1258.5342583144811
  0
LINE
  8
_0-5_寸法線
  6
CONTINUOUS
 62
    7
 10
662.00376026894605
 20
1258.5342583144811
 11
666.14486499058626
 21
1243.0794450938561
  0
LINE
  8
_0-5_寸法線
  6
CONTINUOUS
 62
    7
 10
662.00376026894605
 20
1258.5342583144811
 11
657.86265554730562
 21
1243.0794450938561
  0
LINE
  8
_0-5_寸法線
  6
CONTINUOUS
 62
    7
 10
782.00376026894605
 20
1114.5342583144811
 11
654.00376026894605
 21
1114.5342583144811
  0
LINE
  8
_0-5_寸法線
  6
CONTINUOUS
 62
    7
 10
662.00376026894605
 20
1114.5342583144811
 11
657.86265554730574
 21
1129.9890715351062
  0
LINE
  8
_0-5_寸法線
  6
CONTINUOUS
 62
    7
 10
662.00376026894605
 20
1114.5342583144811
 11
666.14486499058637
 21
1129.9890715351062
  0
LINE
  8
_0-5_寸法線
  6
CONTINUOUS
 62
    7
 10
662.00376026894605
 20
1258.5342583144811
 11
662.00376026894605
 21
1114.5342583144811
  0
TEXT
  8
_0-5_寸法線
 62
    7
 10
662.00376026894605
 20
1168.5342583144811
 40
24
 41
1
 50
90
  1
144
  0
LINE
  8
_0-5_寸法線
  6
CONTINUOUS
 62
    7
 10
1381.5037602689461
 20
1274.5342583144811
 11
1381.5037602689461
 21
1346.5342583144811
  0
LINE
  8
_0-5_寸法線
  6
CONTINUOUS
 62
    7
 10
1381.5037602689461
 20
1338.5342583144811
 11
1366.048947048321
 21
1334.3931535928409
  0
LINE
  8
_0-5_寸法線
  6
CONTINUOUS
 62
    7
 10
1381.5037602689461
 20
1338.5342583144811
 11
1366.048947048321
 21
1342.6753630361216
  0
LINE
  8
_0-5_寸法線
  6
CONTINUOUS
 62
    7
 10
810.50376026894617
 20
1274.5342583144811
 11
810.50376026894651
 21
1346.5342583144811
  0
LINE
  8
_0-5_寸法線
  6
CONTINUOUS
 62
    7
 10
810.50376026894651
 20
1338.5342583144811
 11
825.95857348957156
 21
1342.6753630361216
  0
LINE
  8
_0-5_寸法線
  6
CONTINUOUS
 62
    7
 10
810.50376026894651
 20
1338.5342583144811
 11
825.95857348957156
 21
1334.3931535928407
  0
LINE
  8
_0-5_寸法線
  6
CONTINUOUS
 62
    7
 10
1381.5037602689461
 20
1338.5342583144811
 11
810.50376026894651
 21
1338.5342583144811
  0
TEXT
  8
_0-5_寸法線
 62
    7
 10
1078.0037602689461
 20
1338.5342583144811
 40
24
 41
1
 50
0
  1
571
  0
LINE
  8
_0-5_寸法線
  6
CONTINUOUS
 62
    7
 10
798.00376026894605
 20
1274.5342583144811
 11
798.00376026894651
 21
1402.5342583144811
  0
LINE
  8
_0-5_寸法線
  6
CONTINUOUS
 62
    7
 10
798.00376026894651
 20
1394.5342583144811
 11
782.54894704832145
 21
1390.3931535928409
  0
LINE
  8
_0-5_寸法線
  6
CONTINUOUS
 62
    7
 10
798.00376026894651
 20
1394.5342583144811
 11
782.54894704832145
 21
1398.6753630361216
  0
LINE
  8
_0-5_寸法線
  6
CONTINUOUS
 62
    7
 10
809.00376026894605
 20
1274.5342583144811
 11
809.00376026894651
 21
1402.5342583144811
  0
LINE
  8
_0-5_寸法線
  6
CONTINUOUS
 62
    7
 10
751.45197405717408
 20
1394.5342583144811
 11
809.00376026894651
 21
1394.5342583144811
  0
TEXT
  8
_0-5_寸法線
 62
    7
 10
751.45197405717431
 20
1394.5342583144811
 40
24
 41
1
 50
0
  1
11
  0
LINE
  8
_0-5_寸法線
  6
CONTINUOUS
 62
    7
 10
809.00376026894651
 20
1394.5342583144811
 11
824.45857348957168
 21
1398.6753630361213
  0
LINE
  8
_0-5_寸法線
  6
CONTINUOUS
 62
    7
 10
809.00376026894651
 20
1394.5342583144811
 11
824.45857348957156
 21
1390.3931535928407
  0
LINE
  8
_0-5_寸法線
  6
CONTINUOUS
 62
    7
 10
1383.0037602689461
 20
1274.5342583144811
 11
1383.0037602689461
 21
1402.5342583144811
  0
LINE
  8
_0-5_寸法線
  6
CONTINUOUS
 62
    7
 10
1383.0037602689461
 20
1394.5342583144811
 11
1367.548947048321
 21
1390.3931535928409
  0
LINE
  8
_0-5_寸法線
  6
CONTINUOUS
 62
    7
 10
1383.0037602689461
 20
1394.5342583144811
 11
1367.548947048321
 21
1398.6753630361216
  0
LINE
  8
_0-5_寸法線
  6
CONTINUOUS
 62
    7
 10
809.00376026894651
 20
1394.5342583144811
 11
1383.0037602689461
 21
1394.5342583144811
  0
TEXT
  8
_0-5_寸法線
 62
    7
 10
1078.0037602689461
 20
1394.5342583144811
 40
24
 41
1
 50
0
  1
574
  0
LINE
  8
_0-5_寸法線
  6
CONTINUOUS
 62
    7
 10
1394.0037602689461
 20
1274.5342583144811
 11
1394.0037602689461
 21
1402.5342583144811
  0
LINE
  8
_0-5_寸法線
  6
CONTINUOUS
 62
    7
 10
1394.0037602689461
 20
1394.5342583144811
 11
1409.4585734895711
 21
1398.6753630361213
  0
LINE
  8
_0-5_寸法線
  6
CONTINUOUS
 62
    7
 10
1394.0037602689461
 20
1394.5342583144811
 11
1409.4585734895711
 21
1390.3931535928407
  0
LINE
  8
_0-5_寸法線
  6
CONTINUOUS
 62
    7
 10
1383.0037602689461
 20
1394.5342583144811
 11
1437.2807477584156
 21
1394.5342583144811
  0
TEXT
  8
_0-5_寸法線
 62
    7
 10
1413.2807477584154
 20
1394.5342583144811
 40
24
 41
1
 50
0
  1
11
  0
LINE
  8
_0-5_寸法線
  6
CONTINUOUS
 62
    7
 10
798.00376026894605
 20
1274.5342583144811
 11
798.00376026894605
 21
1458.5342583144811
  0
LINE
  8
_0-5_寸法線
  6
CONTINUOUS
 62
    7
 10
798.00376026894605
 20
1450.5342583144811
 11
813.45857348957111
 21
1454.6753630361216
  0
LINE
  8
_0-5_寸法線
  6
CONTINUOUS
 62
    7
 10
798.00376026894605
 20
1450.5342583144811
 11
813.45857348957111
 21
1446.3931535928407
  0
LINE
  8
_0-5_寸法線
  6
CONTINUOUS
 62
    7
 10
1394.0037602689461
 20
1274.5342583144811
 11
1394.0037602689461
 21
1458.5342583144811
  0
LINE
  8
_0-5_寸法線
  6
CONTINUOUS
 62
    7
 10
1394.0037602689461
 20
1450.5342583144811
 11
1378.548947048321
 21
1446.3931535928409
  0
LINE
  8
_0-5_寸法線
  6
CONTINUOUS
 62
    7
 10
1394.0037602689461
 20
1450.5342583144811
 11
1378.548947048321
 21
1454.6753630361216
  0
LINE
  8
_0-5_寸法線
  6
CONTINUOUS
 62
    7
 10
798.00376026894605
 20
1450.5342583144811
 11
1394.0037602689461
 21
1450.5342583144811
  0
TEXT
  8
_0-5_寸法線
 62
    7
 10
1078.0037602689461
 20
1450.5342583144811
 40
24
 41
1
 50
0
  1
596
  0
LINE
  8
_0-1_計細線
  6
CONTINUOUS
 62
    3
 10
1538.0037602689461
 20
1124.5342583144811
 11
1573.0037602689461
 21
1124.5342583144811
  0
LINE
  8
_0-1_計細線
  6
CONTINUOUS
 62
    3
 10
1573.0037602689461
 20
1124.5342583144811
 11
1573.0037602689461
 21
1123.3342583144822
  0
LINE
  8
_0-1_計細線
  6
CONTINUOUS
 62
    3
 10
1573.0037602689461
 20
1123.3342583144822
 11
1538.0037602689461
 21
1123.3342583144822
  0
LINE
  8
_0-1_計細線
  6
CONTINUOUS
 62
    3
 10
1538.0037602689461
 20
1123.3342583144822
 11
1538.0037602689461
 21
1124.5342583144811
  0
LINE
  8
_0-1_計細線
  6
CONTINUOUS
 62
    3
 10
1540.0037602689461
 20
1123.3342583144822
 11
1540.0037602689461
 21
1124.5342583144811
  0
LINE
  8
_0-1_計細線
  6
CONTINUOUS
 62
    3
 10
1550.0037602689461
 20
1123.3342583144822
 11
1550.0037602689461
 21
1124.5342583144811
  0
LINE
  8
_0-1_計細線
  6
CONTINUOUS
 62
    3
 10
1552.0037602689461
 20
1123.3342583144822
 11
1552.0037602689461
 21
1124.5342583144811
  0
LINE
  8
_0-1_計細線
  6
CONTINUOUS
 62
    3
 10
1554.0037602689461
 20
1123.3342583144822
 11
1554.0037602689461
 21
1124.5342583144811
  0
LINE
  8
_0-1_計細線
  6
CONTINUOUS
 62
    3
 10
1556.0037602689461
 20
1123.3342583144822
 11
1556.0037602689461
 21
1124.5342583144811
  0
LINE
  8
_0-1_計細線
  6
CONTINUOUS
 62
    3
 10
1570.0037602689461
 20
1123.3342583144822
 11
1570.0037602689461
 21
1124.5342583144811
  0
ARC
  8
_0-1_計細線
  6
CONTINUOUS
 62
    3
 10
1549.0037602689461
 20
1247.5342583144811
 40
1
 50
0
 51
89.999999999999915
  0
LINE
  8
_0-1_計細線
  6
CONTINUOUS
 62
    3
 10
1538.0037602689461
 20
1249.7342583144809
 11
1573.0037602689461
 21
1249.7342583144809
  0
LINE
  8
_0-1_計細線
  6
CONTINUOUS
 62
    3
 10
1573.0037602689461
 20
1249.7342583144809
 11
1573.0037602689461
 21
1248.5342583144811
  0
LINE
  8
_0-1_計細線
  6
CONTINUOUS
 62
    3
 10
1573.0037602689461
 20
1248.5342583144811
 11
1538.0037602689461
 21
1248.5342583144811
  0
LINE
  8
_0-1_計細線
  6
CONTINUOUS
 62
    3
 10
1538.0037602689461
 20
1248.5342583144811
 11
1538.0037602689461
 21
1249.7342583144809
  0
LINE
  8
_0-1_計細線
  6
CONTINUOUS
 62
    3
 10
1540.0037602689461
 20
1248.5342583144811
 11
1540.0037602689461
 21
1249.7342583144809
  0
LINE
  8
_0-1_計細線
  6
CONTINUOUS
 62
    3
 10
1550.0037602689461
 20
1248.5342583144811
 11
1550.0037602689461
 21
1249.7342583144809
  0
LINE
  8
_0-1_計細線
  6
CONTINUOUS
 62
    3
 10
1552.0037602689461
 20
1248.5342583144811
 11
1552.0037602689461
 21
1249.7342583144809
  0
LINE
  8
_0-1_計細線
  6
CONTINUOUS
 62
    3
 10
1554.0037602689461
 20
1248.5342583144811
 11
1554.0037602689461
 21
1249.7342583144809
  0
LINE
  8
_0-1_計細線
  6
CONTINUOUS
 62
    3
 10
1556.0037602689461
 20
1248.5342583144811
 11
1556.0037602689461
 21
1249.7342583144809
  0
LINE
  8
_0-1_計細線
  6
CONTINUOUS
 62
    3
 10
1570.0037602689461
 20
1248.5342583144811
 11
1570.0037602689461
 21
1249.7342583144809
  0
LINE
  8
_0-1_計細線
  6
CONTINUOUS
 62
    3
 10
1538.0037602689461
 20
1258.5342583144811
 11
1531.0037602689461
 21
1258.5342583144811
  0
ARC
  8
_0-1_計細線
  6
CONTINUOUS
 62
    3
 10
1531.0037602689461
 20
1257.5342583144811
 40
1
 50
89.999999999999915
 51
179.99999999999983
  0
LINE
  8
_0-1_計細線
  6
CONTINUOUS
 62
    3
 10
1530.0037602689461
 20
1257.5342583144811
 11
1530.0037602689461
 21
1115.5342583144811
  0
ARC
  8
_0-1_計細線
  6
CONTINUOUS
 62
    3
 10
1531.0037602689461
 20
1115.5342583144811
 40
1
 50
179.99999999999983
 51
269.99999999994753
  0
LINE
  8
_0-1_計細線
  6
CONTINUOUS
 62
    3
 10
1538.0037602689461
 20
1114.5342583144811
 11
1538.0037602689461
 21
1258.5342583144811
  0
LINE
  8
_0-1_計細線
  6
CONTINUOUS
 62
    3
 10
1538.0037602689461
 20
1114.5342583144811
 11
1531.0037602689451
 21
1114.5342583144811
  0
LINE
  8
_0-0_計極細
  6
CENTER2
 62
    2
 10
1490.7614538832083
 20
1186.5342583144811
 11
1605.9844754659405
 21
1186.5342583144811
  0
LINE
  8
_0-1_計細線
  6
CONTINUOUS
 62
    3
 10
1550.0037602689461
 20
1247.5342583144811
 11
1550.0037602689461
 21
1125.5342583144811
  0
ARC
  8
_0-1_計細線
  6
CONTINUOUS
 62
    3
 10
1549.0037602689461
 20
1125.5342583144811
 40
1
 50
269.99999999999977
 51
359.99999999999966
  0
ARC
  8
_0-1_計細線
  6
CONTINUOUS
 62
    3
 10
1552.503760268947
 20
1243.5342583144811
 40
1.5
 50
0
 51
89.999999999999915
  0
LINE
  8
_0-1_計細線
  6
CONTINUOUS
 62
    3
 10
1550.503760268947
 20
1245.0342583144811
 11
1552.503760268947
 21
1245.0342583144811
  0
ARC
  8
_0-1_計細線
  6
CONTINUOUS
 62
    3
 10
1550.503760268947
 20
1245.5342583144811
 40
0.5
 50
179.99999999999983
 51
269.99999999999977
  0
LINE
  8
_0-1_計細線
  6
CONTINUOUS
 62
    3
 10
1550.503760268947
 20
1128.0342583144811
 11
1552.503760268947
 21
1128.0342583144811
  0
ARC
  8
_0-1_計細線
  6
CONTINUOUS
 62
    3
 10
1550.503760268947
 20
1127.5342583144811
 40
0.5
 50
89.999999999999915
 51
179.99999999999983
  0
LINE
  8
_0-1_計細線
  6
CONTINUOUS
 62
    3
 10
1554.003760268947
 20
1243.5342583144811
 11
1554.003760268947
 21
1129.5342583144811
  0
ARC
  8
_0-1_計細線
  6
CONTINUOUS
 62
    3
 10
1552.503760268947
 20
1129.5342583144811
 40
1.5
 50
269.99999999999977
 51
359.99999999999966
  0
LINE
  8
_0-5_寸法線
  6
CONTINUOUS
 62
    7
 10
1530.0037602689461
 20
1274.5342583144811
 11
1530.0037602689461
 21
1346.5342583144811
  0
LINE
  8
_0-5_寸法線
  6
CONTINUOUS
 62
    7
 10
1530.0037602689461
 20
1338.5342583144811
 11
1514.548947048321
 21
1334.3931535928409
  0
LINE
  8
_0-5_寸法線
  6
CONTINUOUS
 62
    7
 10
1530.0037602689461
 20
1338.5342583144811
 11
1514.548947048321
 21
1342.6753630361216
  0
LINE
  8
_0-5_寸法線
  6
CONTINUOUS
 62
    7
 10
1550.0037602689461
 20
1265.7342583144809
 11
1550.0037602689461
 21
1346.5342583144811
  0
CIRCLE
  8
_0-5_寸法線
  6
CONTINUOUS
 62
    1
 10
1550.0037602689461
 20
1338.5342583144811
 40
2.4000000000000004
  0
LINE
  8
_0-5_寸法線
  6
CONTINUOUS
 62
    7
 10
1487.0421667177486
 20
1338.5342583144811
 11
1550.0037602689461
 21
1338.5342583144811
  0
TEXT
  8
_0-5_寸法線
 62
    7
 10
1487.0421667177486
 20
1338.5342583144811
 40
24
 41
1
 50
0
  1
20
  0
LINE
  8
_0-5_寸法線
  6
CONTINUOUS
 62
    7
 10
1573.0037602689461
 20
1265.7342583144809
 11
1573.0037602689461
 21
1346.5342583144811
  0
LINE
  8
_0-5_寸法線
  6
CONTINUOUS
 62
    7
 10
1573.0037602689461
 20
1338.5342583144811
 11
1588.4585734895711
 21
1342.6753630361213
  0
LINE
  8
_0-5_寸法線
  6
CONTINUOUS
 62
    7
 10
1573.0037602689461
 20
1338.5342583144811
 11
1588.4585734895711
 21
1334.3931535928407
  0
LINE
  8
_0-5_寸法線
  6
CONTINUOUS
 62
    7
 10
1550.0037602689461
 20
1338.5342583144811
 11
1619.3449507110345
 21
1338.5342583144811
  0
TEXT
  8
_0-5_寸法線
 62
    7
 10
1595.3449507110342
 20
1338.5342583144811
 40
24
 41
1
 50
0
  1
23
  0
LINE
  8
_0-5_寸法線
  6
CONTINUOUS
 62
    7
 10
1530.0037602689463
 20
1274.534258314482
 11
1530.0037602689479
 21
1402.5342583144811
  0
LINE
  8
_0-5_寸法線
  6
CONTINUOUS
 62
    7
 10
1530.0037602689479
 20
1394.5342583144811
 11
1545.4585734895729
 21
1398.6753630361216
  0
LINE
  8
_0-5_寸法線
  6
CONTINUOUS
 62
    7
 10
1530.0037602689479
 20
1394.5342583144811
 11
1545.4585734895729
 21
1390.3931535928407
  0
LINE
  8
_0-5_寸法線
  6
CONTINUOUS
 62
    7
 10
1573.0037602689461
 20
1265.7342583144809
 11
1573.0037602689461
 21
1402.5342583144811
  0
LINE
  8
_0-5_寸法線
  6
CONTINUOUS
 62
    7
 10
1573.0037602689461
 20
1394.5342583144811
 11
1557.548947048321
 21
1390.3931535928409
  0
LINE
  8
_0-5_寸法線
  6
CONTINUOUS
 62
    7
 10
1573.0037602689461
 20
1394.5342583144811
 11
1557.548947048321
 21
1398.6753630361216
  0
LINE
  8
_0-5_寸法線
  6
CONTINUOUS
 62
    7
 10
1530.0037602689479
 20
1394.5342583144811
 11
1573.0037602689461
 21
1394.5342583144811
  0
TEXT
  8
_0-5_寸法線
 62
    7
 10
1539.5037602689461
 20
1394.5342583144811
 40
24
 41
1
 50
0
  1
43
  0
LINE
  8
_0-5_寸法線
  6
CONTINUOUS
 62
    7
 10
961.80020105838776
 20
1120.8095397949219
 11
969.80020105716494
 21
1106.9531333336649
  0
LINE
  8
_0-5_寸法線
  6
CONTINUOUS
 62
    7
 10
961.80020105838776
 20
1120.8095397949219
 11
961.80020105697577
 21
1104.8095397949219
  0
LINE
  8
_0-5_寸法線
  6
CONTINUOUS
 62
    7
 10
961.80020105838776
 20
1120.8095397949219
 11
974.86688077290455
 21
1072.0440271969019
  0
LINE
  8
_0-5_寸法線
  6
CONTINUOUS
 62
    7
 10
974.86688077290455
 20
1072.0440271969019
 11
1090.0668807729044
 21
1072.0440271969019
  0
TEXT
  8
_0-5_寸法線
 62
    7
 10
974.86688077290455
 20
1072.0440271969019
 40
24
 41
0.7999999999999998
 50
0
  1
排水ユニット
  0
LINE
  8
_0-5_寸法線
  6
CONTINUOUS
 62
    7
 10
841.41940236091614
 20
1163.6751909255981
 11
849.41940238220559
 21
1149.8187844773386
  0
LINE
  8
_0-5_寸法線
  6
CONTINUOUS
 62
    7
 10
841.41940236091614
 20
1163.6751909255981
 11
841.4194023854991
 21
1147.6751909255981
  0
LINE
  8
_0-5_寸法線
  6
CONTINUOUS
 62
    7
 10
841.41940236091614
 20
1163.6751909255981
 11
865.97189883443775
 21
1072.0440271969019
  0
LINE
  8
_0-5_寸法線
  6
CONTINUOUS
 62
    7
 10
865.97189883443775
 20
1072.0440271969019
 11
923.57189883443789
 21
1072.0440271969019
  0
TEXT
  8
_0-5_寸法線
 62
    7
 10
865.97189883443775
 20
1072.0440271969019
 40
24
 41
0.7999999999999998
 50
0
  1
上フタ
  0
LINE
  8
_0-7_枠細線
  6
CONTINUOUS
 62
    5
 10
2123.9543257597729
 20
500.87278628233707
 11
2123.9543257597729
 21
332.87278628233753
  0
TEXT
  8
_0-7_枠細線
 62
    5
 10
1978.3543257597744
 20
468.87278628233707
 40
24.000000000000004
 41
0.8
 50
0
  1
ノンスリップ
  0
LINE
  8
_0-7_枠細線
  6
CONTINUOUS
 62
    5
 10
1963.8386591003168
 20
384.47722092272352
 11
2115.6474377518034
 21
384.47722092272352
  0
LINE
  8
_0-7_枠細線
  6
CONTINUOUS
 62
    5
 10
1957.8623497675799
 20
411.14388758672385
 11
2109.6711284190669
 21
411.14388758672385
  0
ARC
  8
_0-7_枠細線
  6
CONTINUOUS
 62
    5
 10
1981.2876590985716
 20
392.47722092192362
 40
5.3333333327999997
 50
51.31781299999917
 51
203.57817800000373
  0
ARC
  8
_0-7_枠細線
  6
CONTINUOUS
 62
    5
 10
1987.9543257645719
 20
400.80388492109114
 40
5.3333333327999997
 50
231.31781300000563
 51
308.68218699999358
  0
LINE
  8
_0-7_枠細線
  6
CONTINUOUS
 62
    5
 10
1976.3995790990616
 20
390.34388758880368
 11
1999.5090724300826
 21
390.34388758880368
  0
ARC
  8
_0-7_枠細線
  6
CONTINUOUS
 62
    5
 10
1994.6209924305722
 20
392.47722092192362
 40
5.3333333327999997
 50
336.42182199999354
 51
128.68218700000429
  0
ARC
  8
_0-7_枠細線
  6
CONTINUOUS
 62
    5
 10
2029.2876590937726
 20
403.14388758752375
 40
5.3333333327999997
 50
156.42182200000036
 51
308.68218699998977
  0
ARC
  8
_0-7_枠細線
  6
CONTINUOUS
 62
    5
 10
2035.9543257597716
 20
394.81722358835623
 40
5.3333333327999997
 50
51.31781299999917
 51
128.68218699999704
  0
ARC
  8
_0-7_枠細線
  6
CONTINUOUS
 62
    5
 10
2042.6209924257728
 20
403.14388758752375
 40
5.3333333327999997
 50
231.31781299999807
 51
23.578178000003184
  0
LINE
  8
_0-7_枠細線
  6
CONTINUOUS
 62
    5
 10
2024.3995790942618
 20
405.27722092064369
 11
2047.5090724252827
 21
405.27722092064369
  0
LINE
  8
_0-7_枠細線
  6
CONTINUOUS
 62
    5
 10
2072.3995790894614
 20
390.34388758880368
 11
2095.5090724204829
 21
390.34388758880368
  0
ARC
  8
_0-7_枠細線
  6
CONTINUOUS
 62
    5
 10
2077.2876590889718
 20
392.47722092192362
 40
5.3333333327999997
 50
51.317813000002985
 51
203.57817800000373
  0
ARC
  8
_0-7_枠細線
  6
CONTINUOUS
 62
    5
 10
2083.9543257549722
 20
400.80388492109114
 40
5.3333333327999997
 50
231.31781300000188
 51
308.68218699999358
  0
ARC
  8
_0-7_枠細線
  6
CONTINUOUS
 62
    5
 10
2090.6209924209716
 20
392.47722092192362
 40
5.3333333327999997
 50
336.42182199999553
 51
128.68218699999667
  0
ARC
  8
_0-7_枠細線
  6
CONTINUOUS
 62
    5
 10
2029.2876590937726
 20
403.14388758752375
 40
9.9466666656720477
 50
151.14636799999636
 51
308.6821870000029
  0
LINE
  8
_0-7_枠細線
  6
CONTINUOUS
 62
    5
 10
1957.2763177676397
 20
407.94388758704372
 11
2020.5758190946422
 21
407.94388758704372
  0
LINE
  8
_0-7_枠細線
  6
CONTINUOUS
 62
    5
 10
2003.3328350963666
 20
387.67722092240365
 11
2068.5758190898441
 21
387.67722092240365
  0
ARC
  8
_0-7_枠細線
  6
CONTINUOUS
 62
    5
 10
1950.7069631016302
 20
388.53576225565075
 40
13.744570665292123
 50
317.56162900000112
 51
42.438371000002093
  0
ARC
  8
_0-7_枠細線
  6
CONTINUOUS
 62
    5
 10
1981.2876590985716
 20
392.47722092192362
 40
9.9466666656720477
 50
51.317812999990608
 51
208.8536319999987
  0
ARC
  8
_0-7_枠細線
  6
CONTINUOUS
 62
    5
 10
1970.9940484329336
 20
407.08534625379616
 40
13.744570665292123
 50
137.56162899999757
 51
222.43837100000209
  0
LINE
  8
_0-7_枠細線
  6
CONTINUOUS
 62
    5
 10
1964.424693766925
 20
387.67722092240365
 11
1972.575819099442
 21
387.67722092240365
  0
ARC
  8
_0-7_枠細線
  6
CONTINUOUS
 62
    5
 10
1987.9543257645719
 20
400.80388492109114
 40
0.7199999999279512
 50
231.31781300003806
 51
308.68218699996123
  0
ARC
  8
_0-7_枠細線
  6
CONTINUOUS
 62
    5
 10
1994.6209924305722
 20
392.47722092192362
 40
9.9466666656720477
 50
331.14636800000056
 51
128.68218700000494
  0
ARC
  8
_0-7_枠細線
  6
CONTINUOUS
 62
    5
 10
2102.5157417531177
 20
388.53576225565075
 40
13.744570665292123
 50
317.56162899999731
 51
42.438371000003364
  0
ARC
  8
_0-7_枠細線
  6
CONTINUOUS
 62
    5
 10
2122.802827084422
 20
407.08534625379616
 40
13.744570665292123
 50
137.56162900000393
 51
222.43837099999826
  0
LINE
  8
_0-7_枠細線
  6
CONTINUOUS
 62
    5
 10
2099.3328350867669
 20
387.67722092240365
 11
2116.233472418412
 21
387.67722092240365
  0
LINE
  8
_0-7_枠細線
  6
CONTINUOUS
 62
    5
 10
2051.3328350915676
 20
407.94388758704372
 11
2109.0850964191268
 21
407.94388758704372
  0
ARC
  8
_0-7_枠細線
  6
CONTINUOUS
 62
    5
 10
2077.2876590889718
 20
392.47722092192362
 40
9.9466666656720477
 50
51.317812999990608
 51
208.85363200000583
  0
ARC
  8
_0-7_枠細線
  6
CONTINUOUS
 62
    5
 10
2035.9543257597716
 20
394.81722358835623
 40
0.7199999999279512
 50
51.317812999959308
 51
128.6821869999842
  0
ARC
  8
_0-7_枠細線
  6
CONTINUOUS
 62
    5
 10
2042.6209924257728
 20
403.14388758752375
 40
9.9466666656720477
 50
231.31781299998616
 51
28.853631999996409
  0
ARC
  8
_0-7_枠細線
  6
CONTINUOUS
 62
    5
 10
2083.9543257549722
 20
400.80388492109114
 40
0.7199999999279512
 50
231.31781299998158
 51
308.68218699996123
  0
ARC
  8
_0-7_枠細線
  6
CONTINUOUS
 62
    5
 10
2090.6209924209716
 20
392.47722092192362
 40
9.9466666656720477
 50
331.14636800000056
 51
128.6821870000029
  0
LINE
  8
_0-7_枠細線
  6
CENTER1
 62
    5
 10
1987.9543257645719
 20
413.38354891983272
 11
1987.9543257645719
 21
382.42651158959552
  0
LINE
  8
_0-7_枠細線
  6
CENTER1
 62
    5
 10
2083.9543257549722
 20
413.38354891983272
 11
2083.9543257549722
 21
382.42651158959552
  0
LINE
  8
_0-7_枠細線
  6
CENTER1
 62
    5
 10
2035.9543257597716
 20
413.38354891983272
 11
2035.9543257597716
 21
382.42651158959552
  0
LINE
  8
_0-7_枠細線
  6
CONTINUOUS
 62
    5
 10
1987.9543257645719
 20
376.47722092272352
 11
1987.9543257645719
 21
336.47722092272352
  0
LINE
  8
_0-7_枠細線
  6
CONTINUOUS
 62
    5
 10
1987.9543257645719
 20
344.47722092272352
 11
2003.4091389851969
 21
348.61832564436384
  0
LINE
  8
_0-7_枠細線
  6
CONTINUOUS
 62
    5
 10
1987.9543257645719
 20
344.47722092272352
 11
2003.4091389851969
 21
340.3361162010832
  0
LINE
  8
_0-7_枠細線
  6
CONTINUOUS
 62
    5
 10
2035.9543257597716
 20
376.47722092272352
 11
2035.9543257597716
 21
336.47722092272352
  0
LINE
  8
_0-7_枠細線
  6
CONTINUOUS
 62
    5
 10
2035.9543257597716
 20
344.47722092272352
 11
2020.4995125391465
 21
340.33611620108326
  0
LINE
  8
_0-7_枠細線
  6
CONTINUOUS
 62
    5
 10
2035.9543257597716
 20
344.47722092272352
 11
2020.4995125391465
 21
348.61832564436389
  0
LINE
  8
_0-7_枠細線
  6
CONTINUOUS
 62
    5
 10
1987.9543257645719
 20
344.47722092272352
 11
2035.9543257597716
 21
344.47722092272352
  0
TEXT
  8
_0-7_枠細線
 62
    5
 10
1999.9543257621722
 20
344.47722092272352
 40
24
 41
1
 50
0
  1
18
  0
LINE
  8
_0-7_枠細線
  6
CONTINUOUS
 62
    5
 10
2035.9543257597716
 20
344.47722092272352
 11
2051.4091389803966
 21
348.61832564436372
  0
LINE
  8
_0-7_枠細線
  6
CONTINUOUS
 62
    5
 10
2035.9543257597716
 20
344.47722092272352
 11
2051.4091389803966
 21
340.33611620108309
  0
LINE
  8
_0-7_枠細線
  6
CONTINUOUS
 62
    5
 10
2083.9543257549722
 20
376.47722092272352
 11
2083.9543257549722
 21
336.47722092272352
  0
LINE
  8
_0-7_枠細線
  6
CONTINUOUS
 62
    5
 10
2083.9543257549722
 20
344.47722092272352
 11
2068.4995125343471
 21
340.33611620108326
  0
LINE
  8
_0-7_枠細線
  6
CONTINUOUS
 62
    5
 10
2083.9543257549722
 20
344.47722092272352
 11
2068.4995125343471
 21
348.61832564436389
  0
LINE
  8
_0-7_枠細線
  6
CONTINUOUS
 62
    5
 10
2035.9543257597716
 20
344.47722092272352
 11
2083.9543257549722
 21
344.47722092272352
  0
TEXT
  8
_0-7_枠細線
 62
    5
 10
2047.9543257573723
 20
344.47722092272352
 40
24
 41
1
 50
0
  1
18
  0
TEXT
  8
_0-7_枠細線
 62
    5
 10
1997.5543257597733
 20
428.87278628233753
 40
24.000000000000004
 41
0.7999999999999997
 50
0
  1
品番－Ｄ
  0
LINE
  8
_0-7_枠細線
  6
CONTINUOUS
 62
    5
 10
1947.9543257597725
 20
500.87278628233707
 11
1947.9543257597725
 21
332.87278628233753
  0
TEXT
  8
_0-7_枠細線
 62
    5
 10
1821.5543257597719
 20
468.87278628233753
 40
24.000000000000004
 41
0.8
 50
0
  1
プレーン
  0
LINE
  8
_0-7_枠細線
  6
CONTINUOUS
 62
    5
 10
1787.038089767063
 20
384.47722092272352
 11
1938.84686841855
 21
384.47722092272352
  0
LINE
  8
_0-7_枠細線
  6
CONTINUOUS
 62
    5
 10
1781.0617804343267
 20
411.14388758672385
 11
1932.8705590858144
 21
411.14388758672385
  0
ARC
  8
_0-7_枠細線
  6
CONTINUOUS
 62
    5
 10
1925.715172419862
 20
388.53576225565075
 40
13.744570665292123
 50
317.56162900000527
 51
42.43837099999547
  0
ARC
  8
_0-7_枠細線
  6
CONTINUOUS
 62
    5
 10
1773.9063937683773
 20
388.53576225565075
 40
13.744570665292276
 50
317.56162899999987
 51
42.438371000002242
  0
LINE
  8
_0-7_枠細線
  6
CONTINUOUS
 62
    5
 10
1780.4757484343863
 20
407.94388758704372
 11
1932.2845270858734
 21
407.94388758704372
  0
LINE
  8
_0-7_枠細線
  6
CONTINUOUS
 62
    5
 10
1787.6241244336716
 20
387.67722092240365
 11
1939.4329030851577
 21
387.67722092240365
  0
ARC
  8
_0-7_枠細線
  6
CONTINUOUS
 62
    5
 10
1794.1934790996829
 20
407.08534625379616
 40
13.744570665292276
 50
137.56162899999882
 51
222.43837100000209
  0
ARC
  8
_0-7_枠細線
  6
CONTINUOUS
 62
    5
 10
1946.0022577511681
 20
407.08534625379616
 40
13.744570665292123
 50
137.5616290000001
 51
222.43837099999953
  0
TEXT
  8
_0-7_枠細線
 62
    5
 10
1821.5543257597737
 20
428.87278628233753
 40
24.000000000000004
 41
0.7999999999999997
 50
0
  1
品番－Ｆ
  0
TEXT
  8
_0-7_枠細線
 62
    5
 10
1693.5543257597726
 20
468.87278628233707
 40
24.000000000000004
 41
0.8
 50
0
  1
タ イ プ
  0
LINE
  8
_0-7_枠細線
  6
CONTINUOUS
 62
    5
 10
1691.9543257597718
 20
420.87278628233753
 11
2123.9543257597729
 21
420.87278628233753
  0
LINE
  8
_0-7_枠細線
  6
CONTINUOUS
 62
    5
 10
1691.9543257597718
 20
460.87278628233707
 11
2123.9543257597729
 21
460.87278628233707
  0
LINE
  8
_0-7_枠細線
  6
CONTINUOUS
 62
    5
 10
1691.9543257597718
 20
500.87278628233707
 11
2123.9543257597729
 21
500.87278628233707
  0
LINE
  8
_0-7_枠細線
  6
CONTINUOUS
 62
    5
 10
1691.9543257597718
 20
332.87278628233753
 11
2123.9543257597729
 21
332.87278628233753
  0
LINE
  8
_0-7_枠細線
  6
CONTINUOUS
 62
    5
 10
1771.9543257597729
 20
500.87278628233707
 11
1771.9543257597729
 21
332.87278628233753
  0
LINE
  8
_0-7_枠細線
  6
CONTINUOUS
 62
    5
 10
1691.9543257597718
 20
500.87278628233707
 11
1691.9543257597718
 21
332.87278628233753
  0
TEXT
  8
_0-7_枠細線
 62
    5
 10
1693.5543257597726
 20
364.87278628233753
 40
24.000000000000004
 41
0.8
 50
0
  1
表面形状
  0
TEXT
  8
_0-7_枠細線
 62
    5
 10
1693.5543257597726
 20
428.87278628233753
 40
24.000000000000004
 41
0.8
 50
0
  1
記　　号
  0
TEXT
  8
_0-7_枠細線
 62
    5
 10
1694.4492070046908
 20
504.87278628233753
 40
28.000000000000007
 41
0.7999999999999996
 50
0
  1
記号表
  0
LINE
  8
_0-0_計極細
  6
CONTINUOUS
 62
    2
 10
1092.5537579879717
 20
1235.784258314482
 11
1092.5537602689462
 21
1230.2842583144829
  0
LINE
  8
_0-0_計極細
  6
CONTINUOUS
 62
    2
 10
1099.4537579577679
 20
1235.784258314482
 11
1099.4537602689468
 21
1230.2842583144829
  0
LINE
  8
_0-0_計極細
  6
CONTINUOUS
 62
    2
 10
1092.5537602781985
 20
1220.2842583144829
 11
1092.5537602781985
 21
1214.7842583144829
  0
LINE
  8
_0-0_計極細
  6
CONTINUOUS
 62
    2
 10
1099.4537602783209
 20
1220.2842583144829
 11
1099.4537602783209
 21
1214.7842583144829
  0
LINE
  8
_0-0_計極細
  6
CONTINUOUS
 62
    2
 10
1092.5537602781985
 20
1199.2842583144838
 11
1092.5537602781985
 21
1204.7842583144829
  0
LINE
  8
_0-0_計極細
  6
CONTINUOUS
 62
    2
 10
1099.4537602783209
 20
1199.2842583144838
 11
1099.4537602783209
 21
1204.7842583144829
  0
LINE
  8
_0-0_計極細
  6
CONTINUOUS
 62
    2
 10
1092.5537602781985
 20
1183.7842583144838
 11
1092.5537602781985
 21
1189.2842583144838
  0
LINE
  8
_0-0_計極細
  6
CONTINUOUS
 62
    2
 10
1099.4537602783209
 20
1183.7842583144838
 11
1099.4537602783209
 21
1189.2842583144838
  0
LINE
  8
_0-0_計極細
  6
CONTINUOUS
 62
    2
 10
1092.5537579879717
 20
1137.284258314482
 11
1092.5537602689462
 21
1142.784258314482
  0
LINE
  8
_0-0_計極細
  6
CONTINUOUS
 62
    2
 10
1099.4537579577679
 20
1137.284258314482
 11
1099.4537602689468
 21
1142.784258314482
  0
LINE
  8
_0-0_計極細
  6
CONTINUOUS
 62
    2
 10
1092.5537602781985
 20
1152.784258314482
 11
1092.5537602781985
 21
1158.284258314482
  0
LINE
  8
_0-0_計極細
  6
CONTINUOUS
 62
    2
 10
1099.4537602783209
 20
1152.784258314482
 11
1099.4537602783209
 21
1158.284258314482
  0
LINE
  8
_0-0_計極細
  6
CONTINUOUS
 62
    2
 10
1092.5537602781985
 20
1173.784258314482
 11
1092.5537602781985
 21
1168.284258314482
  0
LINE
  8
_0-0_計極細
  6
CONTINUOUS
 62
    2
 10
1099.4537602783209
 20
1173.784258314482
 11
1099.4537602783209
 21
1168.284258314482
  0
LINE
  8
_0-1_計細線
  6
CONTINUOUS
 62
    3
 10
1310.0047617836642
 20
1112.7779837872258
 11
1310.0047617836724
 21
1110.7715539531418
  0
LINE
  8
_0-1_計細線
  6
CONTINUOUS
 62
    3
 10
1309.0047628836644
 20
1112.7779837872245
 11
1309.0047628836726
 21
1110.7715539531391
  0
LINE
  8
_0-1_計細線
  6
CONTINUOUS
 62
    3
 10
1318.0047529813871
 20
1112.7779837872258
 11
1318.0047529813789
 21
1110.7715539531418
  0
LINE
  8
_0-1_計細線
  6
CONTINUOUS
 62
    3
 10
1319.0047518813842
 20
1112.7779837872245
 11
1319.0047518813788
 21
1110.7715539531391
  0
ARC
  8
_0-1_計細線
  6
CONTINUOUS
 62
    3
 10
1308.0047639836728
 20
1110.771553953135
 40
0.9999989000003957
 50
265.47193698641991
 51
0.0000000002341397
  0
ARC
  8
_0-1_計細線
  6
CONTINUOUS
 62
    3
 10
1308.0047639836728
 20
1110.771553953135
 40
1.9999978000008021
 50
265.47193698642093
 51
0.000000000195057
  0
ARC
  8
_0-1_計細線
  6
CONTINUOUS
 62
    3
 10
1320.0047507813813
 20
1110.771553953135
 40
0.9999989000003957
 50
179.99999999976549
 51
274.52806301357936
  0
ARC
  8
_0-1_計細線
  6
CONTINUOUS
 62
    3
 10
1320.0047507813813
 20
1110.771553953135
 40
1.9999978000008021
 50
179.99999999976549
 51
274.52806301357833
  0
ARC
  8
_0-1_計細線
  6
CONTINUOUS
 62
    3
 10
1308.0047639836673
 20
1112.7779837872231
 40
0.9999989000003957
 50
0.0000000002344961
 51
85.349290995317986
  0
ARC
  8
_0-1_計細線
  6
CONTINUOUS
 62
    3
 10
1320.0047507813867
 20
1112.7779837872231
 40
0.9999989000003957
 50
94.650709004682014
 51
179.99999999976549
  0
ARC
  8
_0-1_計細線
  6
CONTINUOUS
 62
    3
 10
1308.0047639836728
 20
1262.296962675834
 40
1.9999978000008021
 50
359.99999999976512
 51
94.528063013578347
  0
LINE
  8
_0-1_計細線
  6
CONTINUOUS
 62
    3
 10
1310.0047617836642
 20
1260.2905328417378
 11
1310.0047617836724
 21
1262.2969626758259
  0
LINE
  8
_0-1_計細線
  6
CONTINUOUS
 62
    3
 10
1309.0047628836644
 20
1260.2905328417419
 11
1309.0047628836726
 21
1262.2969626758286
  0
ARC
  8
_0-1_計細線
  6
CONTINUOUS
 62
    3
 10
1308.0047639836728
 20
1262.296962675834
 40
0.9999989000003957
 50
359.99999999968696
 51
94.528063013577324
  0
ARC
  8
_0-1_計細線
  6
CONTINUOUS
 62
    3
 10
1308.0047639836673
 20
1260.2905328417473
 40
0.9999989000003957
 50
274.65070900468169
 51
359.99999999976512
  0
ARC
  8
_0-1_計細線
  6
CONTINUOUS
 62
    3
 10
1320.0047507813813
 20
1262.296962675834
 40
1.9999978000008021
 50
85.471936986421312
 51
180.00000000023414
  0
LINE
  8
_0-1_計細線
  6
CONTINUOUS
 62
    3
 10
1318.0047529813871
 20
1260.2905328417378
 11
1318.0047529813789
 21
1262.2969626758259
  0
LINE
  8
_0-1_計細線
  6
CONTINUOUS
 62
    3
 10
1319.0047518813842
 20
1260.2905328417419
 11
1319.0047518813788
 21
1262.2969626758286
  0
ARC
  8
_0-1_計細線
  6
CONTINUOUS
 62
    3
 10
1320.0047507813813
 20
1262.296962675834
 40
0.9999989000003957
 50
85.471936986422335
 51
180.00000000023414
  0
ARC
  8
_0-1_計細線
  6
CONTINUOUS
 62
    3
 10
1320.0047507813867
 20
1260.2905328417473
 40
0.9999989000003957
 50
180.00000000023414
 51
265.34929099531763
  0
LINE
  8
_0-1_計細線
  6
CONTINUOUS
 62
    3
 10
1444.0041823626987
 20
1149.0344272144057
 11
1444.0041823626987
 21
1186.5342583144825
  0
LINE
  8
_0-1_計細線
  6
CONTINUOUS
 62
    3
 10
1443.0041868666983
 20
1148.034431718404
 11
1425.2937852874081
 21
1148.034431718404
  0
ARC
  8
_0-1_計細線
  6
CONTINUOUS
 62
    3
 10
1443.0041868666983
 20
1149.0344272144057
 40
0.9999954960020431
 50
269.99999999999977
 51
359.99999999999966
  0
LINE
  8
_0-1_計細線
  6
CONTINUOUS
 62
    3
 10
1424.090072056212
 20
1149.0344272144057
 11
1424.090072056212
 21
1186.5342583144825
  0
ARC
  8
_0-1_計細線
  6
CONTINUOUS
 62
    3
 10
1413.5351368146837
 20
1141.5344609943909
 40
4.9999774800103012
 50
269.99999999999977
 51
334.79169788884707
  0
LINE
  8
_0-1_計細線
  6
CONTINUOUS
 62
    3
 10
1413.5351368146837
 20
1136.5344835143783
 11
1406.3352785872728
 21
1136.5344835143783
  0
LINE
  8
_0-1_計細線
  6
CONTINUOUS
 62
    3
 10
1420.7699789232163
 20
1145.163996625834
 11
1418.0589431788728
 21
1139.4049186069483
  0
ARC
  8
_0-1_計細線
  6
CONTINUOUS
 62
    3
 10
1425.2937852874081
 20
1143.0344542383941
 40
4.9999774800103012
 50
89.999999999999915
 51
154.79169788884744
  0
LINE
  8
_0-1_計細線
  6
CONTINUOUS
 62
    3
 10
1443.0041868666983
 20
1225.0340849105623
 11
1425.2937852874027
 21
1225.0340849105623
  0
ARC
  8
_0-1_計細線
  6
CONTINUOUS
 62
    3
 10
1443.0041868666983
 20
1224.0340894145593
 40
0.9999954960020431
 50
0
 51
89.999999999999915
  0
LINE
  8
_0-1_計細線
  6
CONTINUOUS
 62
    3
 10
1444.0041823626987
 20
1224.0340894145593
 11
1444.0041823626987
 21
1186.5342583144825
  0
LINE
  8
_0-1_計細線
  6
CONTINUOUS
 62
    3
 10
1413.5351368146837
 20
1236.5340331145853
 11
1406.3352785872728
 21
1236.5340331145853
  0
LINE
  8
_0-1_計細線
  6
CONTINUOUS
 62
    3
 10
1420.7699789232163
 20
1227.904520003131
 11
1418.0589431788728
 21
1233.6635980220153
  0
ARC
  8
_0-1_計細線
  6
CONTINUOUS
 62
    3
 10
1413.5351368146837
 20
1231.5340556345741
 40
4.9999774800103012
 50
25.208302111171164
 51
89.999999999999915
  0
LINE
  8
_0-1_計細線
  6
CONTINUOUS
 62
    3
 10
1424.090072056212
 20
1224.0340894145593
 11
1424.090072056212
 21
1186.5342583144825
  0
ARC
  8
_0-1_計細線
  6
CONTINUOUS
 62
    3
 10
1425.2937852874027
 20
1230.0340623905722
 40
4.9999774800103012
 50
205.20830211117553
 51
269.99999999999977
  0
ARC
  8
_0-1_計細線
  6
CONTINUOUS
 62
    3
 10
1314.0047573825284
 20
1186.5342583144825
 40
97.999568408158495
 50
324.71867136605601
 51
35.281328633942664
  0
ARC
  8
_0-1_計細線
  6
CONTINUOUS
 62
    3
 10
1139.3366545907973
 20
1186.5342583144825
 40
279.9987388805763
 50
349.95892672538429
 51
10.041073274614719
  0
ARC
  8
_0-1_計細線
  6
CONTINUOUS
 62
    3
 10
1314.0047573825284
 20
1186.5342583144825
 40
103.99954198416816
 50
320.28480586301146
 51
39.715194136987812
  0
ARC
  8
_0-1_計細線
  6
CONTINUOUS
 62
    3
 10
1314.0047573825284
 20
1186.5342583144825
 40
104.99953758016983
 50
319.63235085126018
 51
40.367649148739098
  0
ARC
  8
_0-1_計細線
  6
CONTINUOUS
 62
    3
 10
1314.0047573816662
 20
1186.5342583153406
 40
77.999914200031185
 50
67.312929651982913
 51
85.471936986413084
  0
ARC
  8
_0-1_計細線
  6
CONTINUOUS
 62
    3
 10
1314.0047573816662
 20
1186.5342583153406
 40
76.999915300030807
 50
69.238804446806867
 51
85.471936986412956
  0
ARC
  8
_0-1_計細線
  6
CONTINUOUS
 62
    3
 10
1314.0047573816662
 20
1186.5342583153406
 40
72.999919700029196
 50
80.691660420521146
 51
85.349290995343722
  0
ARC
  8
_0-1_計細線
  6
CONTINUOUS
 62
    3
 10
1320.0047507813867
 20
1260.2905328417473
 40
1.9999978000008021
 50
180.00000000023414
 51
241.41858827404451
  0
ARC
  8
_0-1_計細線
  6
CONTINUOUS
 62
    3
 10
1308.0047639836673
 20
1260.2905328417473
 40
1.9999978000008021
 50
298.58141172596618
 51
359.99999999976512
  0
ARC
  8
_0-1_計細線
  6
CONTINUOUS
 62
    3
 10
1314.0047573833824
 20
1186.5342583153406
 40
72.99991970002921
 50
94.650709004654146
 51
99.607120206697715
  0
ARC
  8
_0-1_計細線
  6
CONTINUOUS
 62
    3
 10
1314.0047573833824
 20
1186.5342583153406
 40
76.999915300030793
 50
94.528063013584998
 51
110.73222615762073
  0
ARC
  8
_0-1_計細線
  6
CONTINUOUS
 62
    3
 10
1314.0047573833824
 20
1186.5342583153406
 40
77.999914200031199
 50
94.528063013584941
 51
112.61971368823254
  0
ARC
  8
_0-1_計細線
  6
CONTINUOUS
 62
    3
 10
1314.0047573816662
 20
1186.5342583136244
 40
77.999914200031185
 50
274.52806301358657
 51
292.61971368822526
  0
ARC
  8
_0-1_計細線
  6
CONTINUOUS
 62
    3
 10
1314.0047573816662
 20
1186.5342583136244
 40
76.999915300030807
 50
274.52806301358669
 51
290.76119555318485
  0
ARC
  8
_0-1_計細線
  6
CONTINUOUS
 62
    3
 10
1314.0047573816662
 20
1186.5342583136244
 40
72.999919700029196
 50
274.65070900465594
 51
279.36215285983997
  0
ARC
  8
_0-1_計細線
  6
CONTINUOUS
 62
    3
 10
1320.0047507813867
 20
1112.7779837872231
 40
1.9999978000008021
 50
118.58141172648541
 51
179.99999999976549
  0
ARC
  8
_0-1_計細線
  6
CONTINUOUS
 62
    3
 10
1308.0047639836673
 20
1112.7779837872231
 40
1.9999978000008021
 50
0.0000000001954134
 51
63.353613376692991
  0
ARC
  8
_0-1_計細線
  6
CONTINUOUS
 62
    3
 10
1314.0047573833824
 20
1186.5342583136244
 40
72.99991970002921
 50
260.50585233982599
 51
265.34929099534548
  0
ARC
  8
_0-1_計細線
  6
CONTINUOUS
 62
    3
 10
1314.0047573833824
 20
1186.5342583136244
 40
76.999915300030793
 50
249.23880444681322
 51
265.47193698641462
  0
ARC
  8
_0-1_計細線
  6
CONTINUOUS
 62
    3
 10
1314.0047573833824
 20
1186.5342583136244
 40
77.999914200031199
 50
247.38028631177281
 51
265.47193698641269
  0
ARC
  8
_0-1_計細線
  6
CONTINUOUS
 62
    3
 10
1314.0047573825284
 20
1186.5342583144811
 40
97.999892200039184
 50
47.281423741064408
 51
132.7185762589354
  0
ARC
  8
_0-1_計細線
  6
CONTINUOUS
 62
    3
 10
1314.0047573825284
 20
1186.5342583144811
 40
103.99988560004158
 50
43.813121927209728
 51
136.18687807279028
  0
ARC
  8
_0-1_計細線
  6
CONTINUOUS
 62
    3
 10
1314.0047573825284
 20
1186.5342583144811
 40
104.99988450004199
 50
43.291866968424685
 51
136.70813303157513
  0
ARC
  8
_0-1_計細線
  6
CONTINUOUS
 62
    3
 10
1314.0047573825284
 20
1186.5342583144811
 40
104.99988450004199
 50
223.2918669684245
 51
316.70813303157405
  0
ARC
  8
_0-1_計細線
  6
CONTINUOUS
 62
    3
 10
1314.0047573825284
 20
1186.5342583144811
 40
103.99988560004158
 50
223.81312192720938
 51
316.18687807278906
  0
ARC
  8
_0-1_計細線
  6
CONTINUOUS
 62
    3
 10
1314.0047573825284
 20
1186.5342583144811
 40
97.999892200039184
 50
227.28142374106423
 51
312.71857625893409
  0
ARC
  8
_0-1_計細線
  6
CONTINUOUS
 62
    3
 10
1393.0037602689461
 20
841.53425831448112
 40
1
 50
0
 51
89.999999999999915
  0
LINE
  8
_0-1_計細線
  6
CONTINUOUS
 62
    3
 10
1394.0037602689461
 20
834.53425831448112
 11
1394.0037602689461
 21
841.53425831448112
  0
LINE
  8
_0-1_計細線
  6
CONTINUOUS
 62
    3
 10
1393.003760268947
 20
834.53425831448112
 11
1394.0037602689461
 21
834.53425831448112
  0
ARC
  8
_0-1_計細線
  6
CONTINUOUS
 62
    3
 10
1373.0037602689461
 20
822.03425831448021
 40
1.5
 50
89.999999999999915
 51
179.99999999999983
  0
LINE
  8
_0-1_計細線
  6
CONTINUOUS
 62
    3
 10
1371.5037602689461
 20
822.03425831448021
 11
1371.5037602689461
 21
820.03425831448021
  0
ARC
  8
_0-1_計細線
  6
CONTINUOUS
 62
    3
 10
1371.0037602689461
 20
820.03425831448021
 40
1.5
 50
269.99999999999977
 51
359.99999999999966
  0
LINE
  8
_0-1_計細線
  6
CONTINUOUS
 62
    3
 10
1372.5037602689461
 20
822.03425831448021
 11
1372.5037602689461
 21
820.03425831448021
  0
LINE
  8
_0-1_計細線
  6
CONTINUOUS
 62
    3
 10
1371.0037602689461
 20
818.53425831448021
 11
1365.0037602689461
 21
818.53425831448021
  0
ARC
  8
_0-1_計細線
  6
CONTINUOUS
 62
    3
 10
1373.0037602689461
 20
822.03425831448021
 40
0.5
 50
89.999999999999915
 51
179.99999999999983
  0
ARC
  8
_0-1_計細線
  6
CONTINUOUS
 62
    3
 10
1371.0037602689461
 20
820.03425831448021
 40
0.5
 50
269.99999999999977
 51
359.99999999999966
  0
LINE
  8
_0-1_計細線
  6
CONTINUOUS
 62
    3
 10
1371.0037602689461
 20
819.53425831448021
 11
1365.0037602689461
 21
819.53425831448021
  0
LINE
  8
_0-1_計細線
  6
CONTINUOUS
 62
    3
 10
1365.0037602689461
 20
819.53425831448021
 11
1365.0037602689461
 21
818.53425831448021
  0
LINE
  8
_0-1_計細線
  6
CONTINUOUS
 62
    3
 10
1383.0037602689461
 20
823.53425831448021
 11
1373.0037602689461
 21
823.53425831448021
  0
LINE
  8
_0-1_計細線
  6
CONTINUOUS
 62
    3
 10
1383.0037602689461
 20
841.53425831448112
 11
1383.0037602689461
 21
823.53425831448021
  0
ARC
  8
_0-1_計細線
  6
CONTINUOUS
 62
    3
 10
799.00376026894605
 20
841.53425831448112
 40
1
 50
89.999999999999915
 51
179.99999999999983
  0
LINE
  8
_0-1_計細線
  6
CONTINUOUS
 62
    3
 10
798.00376026894605
 20
834.53425831448112
 11
798.00376026894605
 21
841.53425831448112
  0
LINE
  8
_0-1_計細線
  6
CONTINUOUS
 62
    3
 10
798.00376026894605
 20
834.53425831448294
 11
1314.0037602689461
 21
834.53425831448294
  0
LINE
  8
_0-0_計極細
  6
CENTER2
 62
    2
 10
1314.0037602689461
 20
1318.9974081161217
 11
1314.0037602689461
 21
625.7308560125548
  0
LINE
  8
_0-1_計細線
  6
CONTINUOUS
 62
    3
 10
809.00376026894605
 20
823.53425831448112
 11
809.00376026894605
 21
834.53425831448294
  0
ARC
  8
_0-1_計細線
  6
CONTINUOUS
 62
    3
 10
810.00376026894605
 20
823.53425831448112
 40
1
 50
179.99999999999983
 51
269.99999999999977
  0
LINE
  8
_0-1_計細線
  6
CONTINUOUS
 62
    3
 10
1373.0037602689461
 20
822.53425831448112
 11
1383.0037602689461
 21
822.53425831448112
  0
LINE
  8
_0-1_計細線
  6
CONTINUOUS
 62
    3
 10
1384.0037602689461
 20
834.53425831448112
 11
1393.003760268947
 21
834.53425831448112
  0
LINE
  8
_0-1_計細線
  6
CONTINUOUS
 62
    3
 10
1393.003760268947
 20
834.53425831448112
 11
1393.003760268947
 21
841.53425831448112
  0
LINE
  8
_0-1_計細線
  6
CONTINUOUS
 62
    3
 10
1393.003760268947
 20
841.53425831448112
 11
1384.0037602689461
 21
841.53425831448112
  0
LINE
  8
_0-1_計細線
  6
CONTINUOUS
 62
    3
 10
1384.0037602689461
 20
841.53425831448112
 11
1384.0037602689461
 21
823.53425831448112
  0
ARC
  8
_0-1_計細線
  6
CONTINUOUS
 62
    3
 10
1383.0037602689461
 20
823.53425831448112
 40
1
 50
269.99999999999977
 51
359.99999999999966
  0
LINE
  8
_0-1_計細線
  6
CONTINUOUS
 62
    3
 10
1393.0037602689461
 20
842.53425831448112
 11
1384.0037602689461
 21
842.53425831448112
  0
LINE
  8
_0-1_計細線
  6
CONTINUOUS
 62
    3
 10
1384.0037602689461
 20
842.53425831448112
 11
799.00376026894787
 21
842.53425831448112
  0
ARC
  8
_0-1_計細線
  6
CONTINUOUS
 62
    3
 10
1384.0037602689461
 20
841.53425831448112
 40
1
 50
89.999999999999915
 51
179.99999999999983
  0
LINE
  8
_0-1_計細線
  6
CONTINUOUS
 62
    3
 10
1314.0037602689461
 20
835.53425831448021
 11
1381.5037602689461
 21
835.53425831448021
  0
LINE
  8
_0-1_計細線
  6
CONTINUOUS
 62
    3
 10
1314.0037602689461
 20
841.53425831448112
 11
1381.5037602689461
 21
841.53425831448112
  0
LINE
  8
_0-1_計細線
  6
CONTINUOUS
 62
    3
 10
1314.0037602689461
 20
823.53425831448112
 11
1381.5037602689461
 21
823.53425831448112
  0
LINE
  8
_0-1_計細線
  6
CONTINUOUS
 62
    3
 10
1381.5037602689461
 20
841.53425831448112
 11
1381.5037602689461
 21
823.53425831448112
  0
LINE
  8
_0-0_計極細
  6
CENTER1
 62
    2
 10
833.0037602689456
 20
794.73877774131233
 11
833.0037602689456
 21
839.79247781884987
  0
LINE
  8
_0-1_計細線
  6
CONTINUOUS
 62
    3
 10
827.00376042202629
 20
834.52165946705099
 11
825.00376042202629
 21
832.52165946705099
  0
LINE
  8
_0-1_計細線
  6
CONTINUOUS
 62
    3
 10
825.00376042202629
 20
822.52165946705099
 11
825.00376042202629
 21
832.52165946705099
  0
LINE
  8
_0-1_計細線
  6
CONTINUOUS
 62
    3
 10
841.00376011586491
 20
822.52165946705099
 11
841.00376011586491
 21
832.52165946705099
  0
LINE
  8
_0-1_計細線
  6
CONTINUOUS
 62
    3
 10
827.00376042202629
 20
818.52165946705099
 11
825.00376042202629
 21
816.52165946705099
  0
LINE
  8
_0-1_計細線
  6
CONTINUOUS
 62
    3
 10
827.00376042202629
 20
820.52165946705099
 11
827.00376042202629
 21
818.52165946705099
  0
LINE
  8
_0-1_計細線
  6
CONTINUOUS
 62
    3
 10
825.00376042202629
 20
822.52165946705099
 11
827.00376042202629
 21
820.52165946705099
  0
LINE
  8
_0-1_計細線
  6
CONTINUOUS
 62
    3
 10
839.00376011586491
 20
818.52165946705099
 11
841.00376011586491
 21
816.52165946705099
  0
LINE
  8
_0-1_計細線
  6
CONTINUOUS
 62
    3
 10
839.00376011586491
 20
820.52165946705099
 11
839.00376011586491
 21
818.52165946705099
  0
LINE
  8
_0-1_計細線
  6
CONTINUOUS
 62
    3
 10
841.00376011586491
 20
822.52165946705099
 11
839.00376011586491
 21
820.52165946705099
  0
LINE
  8
_0-1_計細線
  6
CONTINUOUS
 62
    3
 10
825.00376042202629
 20
816.52165946705099
 11
825.00376042202629
 21
802.52165946705099
  0
ARC
  8
_0-1_計細線
  6
CONTINUOUS
 62
    3
 10
828.00376042202629
 20
802.52165946705099
 40
3
 50
179.99999999999983
 51
269.99999999999977
  0
LINE
  8
_0-1_計細線
  6
CONTINUOUS
 62
    3
 10
828.00376042202629
 20
799.52165946705099
 11
838.00376011586491
 21
799.52165946705099
  0
LINE
  8
_0-1_計細線
  6
CONTINUOUS
 62
    3
 10
841.00376011586491
 20
816.52165946705099
 11
841.00376011586491
 21
802.52165946705099
  0
ARC
  8
_0-1_計細線
  6
CONTINUOUS
 62
    3
 10
838.00376011586491
 20
802.52165946705099
 40
3
 50
269.99999999999977
 51
359.99999999999966
  0
LINE
  8
_0-1_計細線
  6
CONTINUOUS
 62
    3
 10
827.00376042202629
 20
834.52165946705099
 11
839.00376011586491
 21
834.52165946705099
  0
LINE
  8
_0-1_計細線
  6
CONTINUOUS
 62
    3
 10
841.00376011586491
 20
832.52165946705099
 11
839.00376011586491
 21
834.52165946705099
  0
LINE
  8
_0-1_計細線
  6
CONTINUOUS
 62
    3
 10
810.00376026894605
 20
822.53425831448112
 11
825.00376042202629
 21
822.53425831448112
  0
LINE
  8
_0-0_計極細
  6
DASHED2
 62
    2
 10
1359.0037602689461
 20
794.73877774131233
 11
1359.0037602689461
 21
839.79247781884987
  0
LINE
  8
_0-1_計細線
  6
DASHED2
 62
    3
 10
1367.0037601158654
 20
832.52165946705099
 11
1365.0037601158654
 21
834.52165946705099
  0
LINE
  8
_0-1_計細線
  6
DASHED2
 62
    3
 10
1353.0037604220267
 20
834.52165946705099
 11
1365.0037601158654
 21
834.52165946705099
  0
ARC
  8
_0-1_計細線
  6
DASHED2
 62
    3
 10
1364.0037601158654
 20
802.52165946705099
 40
3
 50
269.99999999999977
 51
359.99999999999966
  0
LINE
  8
_0-1_計細線
  6
DASHED2
 62
    3
 10
1367.0037601158654
 20
816.52165946705099
 11
1367.0037601158654
 21
802.52165946705099
  0
LINE
  8
_0-1_計細線
  6
DASHED2
 62
    3
 10
1354.0037604220267
 20
799.52165946705099
 11
1364.0037601158654
 21
799.52165946705099
  0
ARC
  8
_0-1_計細線
  6
DASHED2
 62
    3
 10
1354.0037604220267
 20
802.52165946705099
 40
3
 50
179.99999999999983
 51
269.99999999999977
  0
LINE
  8
_0-1_計細線
  6
DASHED2
 62
    3
 10
1351.0037604220267
 20
816.52165946705099
 11
1351.0037604220267
 21
802.52165946705099
  0
LINE
  8
_0-1_計細線
  6
DASHED2
 62
    3
 10
1367.0037601158654
 20
822.52165946705099
 11
1365.0037601158654
 21
820.52165946705099
  0
LINE
  8
_0-1_計細線
  6
DASHED2
 62
    3
 10
1365.0037601158654
 20
820.52165946705099
 11
1365.0037601158654
 21
818.52165946705099
  0
LINE
  8
_0-1_計細線
  6
DASHED2
 62
    3
 10
1365.0037601158654
 20
818.52165946705099
 11
1367.0037601158654
 21
816.52165946705099
  0
LINE
  8
_0-1_計細線
  6
DASHED2
 62
    3
 10
1351.0037604220267
 20
822.52165946705099
 11
1353.0037604220267
 21
820.52165946705099
  0
LINE
  8
_0-1_計細線
  6
DASHED2
 62
    3
 10
1353.0037604220267
 20
820.52165946705099
 11
1353.0037604220267
 21
818.52165946705099
  0
LINE
  8
_0-1_計細線
  6
DASHED2
 62
    3
 10
1353.0037604220267
 20
818.52165946705099
 11
1351.0037604220267
 21
816.52165946705099
  0
LINE
  8
_0-1_計細線
  6
DASHED2
 62
    3
 10
1367.0037601158654
 20
822.52165946705099
 11
1367.0037601158654
 21
832.52165946705099
  0
LINE
  8
_0-1_計細線
  6
DASHED2
 62
    3
 10
1351.0037604220267
 20
822.52165946705099
 11
1351.0037604220267
 21
832.52165946705099
  0
LINE
  8
_0-1_計細線
  6
DASHED2
 62
    3
 10
1353.0037604220267
 20
834.52165946705099
 11
1351.0037604220267
 21
832.52165946705099
  0
LINE
  8
_0-5_寸法線
  6
CONTINUOUS
 62
    7
 10
833.0037602689456
 20
799.52165946705099
 11
841.00376021787383
 21
785.66525297701367
  0
LINE
  8
_0-5_寸法線
  6
CONTINUOUS
 62
    7
 10
833.0037602689456
 20
799.52165946705099
 11
833.00376020997294
 21
783.52165946705099
  0
LINE
  8
_0-5_寸法線
  6
CONTINUOUS
 62
    7
 10
833.0037602689456
 20
799.52165946705099
 11
844.6521178483963
 21
756.04939651489258
  0
LINE
  8
_0-5_寸法線
  6
CONTINUOUS
 62
    7
 10
844.6521178483963
 20
756.04939651489258
 11
921.45211784839626
 21
756.04939651489258
  0
TEXT
  8
_0-5_寸法線
 62
    7
 10
844.6521178483963
 20
756.04939651489258
 40
24
 41
0.8000000000000001
 50
0
  1
アンカー
  0
LINE
  8
_0-1_計細線
  6
CONTINUOUS
 62
    3
 10
841.00376011586468
 20
822.53425831448112
 11
1314.0037602689461
 21
822.53425831448112
  0
LINE
  8
_0-5_寸法線
  6
CONTINUOUS
 62
    7
 10
798.00376026894639
 20
858.53425831448112
 11
798.0037602689481
 21
930.53425831448112
  0
LINE
  8
_0-5_寸法線
  6
CONTINUOUS
 62
    7
 10
798.00376026894787
 20
922.53425831448112
 11
813.45857348957293
 21
926.67536303612144
  0
LINE
  8
_0-5_寸法線
  6
CONTINUOUS
 62
    7
 10
798.00376026894787
 20
922.53425831448112
 11
813.45857348957293
 21
918.3931535928408
  0
LINE
  8
_0-5_寸法線
  6
CONTINUOUS
 62
    7
 10
833.00376026894594
 20
858.53425831448112
 11
833.00376026894764
 21
930.53425831448112
  0
LINE
  8
_0-5_寸法線
  6
CONTINUOUS
 62
    7
 10
833.00376026894742
 20
922.53425831448112
 11
817.54894704832236
 21
918.3931535928408
  0
LINE
  8
_0-5_寸法線
  6
CONTINUOUS
 62
    7
 10
833.00376026894742
 20
922.53425831448112
 11
817.54894704832236
 21
926.67536303612155
  0
LINE
  8
_0-5_寸法線
  6
CONTINUOUS
 62
    7
 10
798.00376026894787
 20
922.53425831448112
 11
833.00376026894742
 21
922.53425831448112
  0
TEXT
  8
_0-5_寸法線
 62
    7
 10
803.50376026894901
 20
922.53425831448112
 40
24
 41
1
 50
0
  1
35
  0
LINE
  8
_0-5_寸法線
  6
CONTINUOUS
 62
    7
 10
833.00376026894742
 20
922.53425831448112
 11
848.45857348957259
 21
926.67536303612133
  0
LINE
  8
_0-5_寸法線
  6
CONTINUOUS
 62
    7
 10
833.00376026894742
 20
922.53425831448112
 11
848.45857348957247
 21
918.39315359284069
  0
LINE
  8
_0-5_寸法線
  6
CONTINUOUS
 62
    7
 10
1359.0037602689465
 20
858.53425831448112
 11
1359.0037602689481
 21
930.53425831448112
  0
LINE
  8
_0-5_寸法線
  6
CONTINUOUS
 62
    7
 10
1359.0037602689479
 20
922.53425831448112
 11
1343.5489470483228
 21
918.3931535928408
  0
LINE
  8
_0-5_寸法線
  6
CONTINUOUS
 62
    7
 10
1359.0037602689479
 20
922.53425831448112
 11
1343.5489470483228
 21
926.67536303612155
  0
LINE
  8
_0-5_寸法線
  6
CONTINUOUS
 62
    7
 10
833.00376026894742
 20
922.53425831448112
 11
1359.0037602689479
 21
922.53425831448112
  0
TEXT
  8
_0-5_寸法線
 62
    7
 10
1078.0037602689499
 20
922.53425831448112
 40
24
 41
1
 50
0
  1
526
  0
LINE
  8
_0-5_寸法線
  6
CONTINUOUS
 62
    7
 10
1359.0037602689479
 20
922.53425831448112
 11
1374.4585734895729
 21
926.67536303612133
  0
LINE
  8
_0-5_寸法線
  6
CONTINUOUS
 62
    7
 10
1359.0037602689479
 20
922.53425831448112
 11
1374.4585734895729
 21
918.39315359284069
  0
LINE
  8
_0-5_寸法線
  6
CONTINUOUS
 62
    7
 10
1394.0037602689465
 20
858.53425831448112
 11
1394.0037602689481
 21
930.53425831448112
  0
LINE
  8
_0-5_寸法線
  6
CONTINUOUS
 62
    7
 10
1394.0037602689479
 20
922.53425831448112
 11
1378.5489470483228
 21
918.3931535928408
  0
LINE
  8
_0-5_寸法線
  6
CONTINUOUS
 62
    7
 10
1394.0037602689479
 20
922.53425831448112
 11
1378.5489470483228
 21
926.67536303612155
  0
LINE
  8
_0-5_寸法線
  6
CONTINUOUS
 62
    7
 10
1359.0037602689479
 20
922.53425831448112
 11
1394.0037602689479
 21
922.53425831448112
  0
TEXT
  8
_0-5_寸法線
 62
    7
 10
1364.503760268949
 20
922.53425831448112
 40
24
 41
1
 50
0
  1
35
  0
LINE
  8
_0-5_寸法線
  6
CONTINUOUS
 62
    7
 10
1314.0037602689461
 20
650.53419691462636
 11
1314.0037602689456
 21
578.53419691462636
  0
LINE
  8
_0-5_寸法線
  6
CONTINUOUS
 62
    7
 10
1314.0037602689456
 20
586.53419691462636
 11
1329.4585734895707
 21
590.67530163626668
  0
LINE
  8
_0-5_寸法線
  6
CONTINUOUS
 62
    7
 10
1314.0037602689456
 20
586.53419691462636
 11
1329.4585734895707
 21
582.39309219298605
  0
LINE
  8
_0-5_寸法線
  6
CONTINUOUS
 62
    7
 10
1444.2427581346753
 20
654.06251973913368
 11
1444.2427581346749
 21
578.53419691462636
  0
LINE
  8
_0-5_寸法線
  6
CONTINUOUS
 62
    7
 10
1444.2427581346749
 20
586.53419691462636
 11
1428.7879449140498
 21
582.39309219298605
  0
LINE
  8
_0-5_寸法線
  6
CONTINUOUS
 62
    7
 10
1444.2427581346749
 20
586.53419691462636
 11
1428.7879449140498
 21
590.67530163626679
  0
LINE
  8
_0-5_寸法線
  6
CONTINUOUS
 62
    7
 10
1314.0037602689456
 20
586.53419691462636
 11
1444.2427581346749
 21
586.53419691462636
  0
TEXT
  8
_0-5_寸法線
 62
    7
 10
1361.1232592018102
 20
586.53419691462636
 40
24
 41
1
 50
0
  1
130
  0
LINE
  8
_0-5_寸法線
  6
CONTINUOUS
 62
    7
 10
1244.33282165372
 20
666.53419691462648
 11
1065.2338976427843
 21
666.53419691462705
  0
LINE
  8
_0-5_寸法線
  6
CONTINUOUS
 62
    7
 10
1073.2338976427843
 20
666.53419691462705
 11
1069.0927929211441
 21
681.9890101352521
  0
LINE
  8
_0-5_寸法線
  6
CONTINUOUS
 62
    7
 10
1073.2338976427843
 20
666.53419691462705
 11
1077.3750023644247
 21
681.9890101352521
  0
LINE
  8
_0-5_寸法線
  6
CONTINUOUS
 62
    7
 10
1298.0037602689461
 20
842.53425831448112
 11
1065.2338976427843
 21
842.53425831448192
  0
LINE
  8
_0-5_寸法線
  6
CONTINUOUS
 62
    7
 10
1073.2338976427843
 20
842.53425831448192
 11
1077.3750023644247
 21
827.07944509385686
  0
LINE
  8
_0-5_寸法線
  6
CONTINUOUS
 62
    7
 10
1073.2338976427843
 20
842.53425831448192
 11
1069.0927929211441
 21
827.07944509385686
  0
LINE
  8
_0-5_寸法線
  6
CONTINUOUS
 62
    7
 10
1073.2338976427843
 20
666.53419691462705
 11
1073.2338976427843
 21
842.53425831448192
  0
TEXT
  8
_0-5_寸法線
 62
    7
 10
1073.2338976427841
 20
676.53422761455442
 40
24
 41
1
 50
89.999999999999844
  1
176(136)～202
  0
LINE
  8
_0-5_寸法線
  6
CONTINUOUS
 62
    7
 10
1244.33282165372
 20
666.53419691462648
 11
1121.2338976427843
 21
666.53419691462682
  0
LINE
  8
_0-5_寸法線
  6
CONTINUOUS
 62
    7
 10
1129.2338976427843
 20
666.53419691462682
 11
1125.0927929211441
 21
681.98901013525187
  0
LINE
  8
_0-5_寸法線
  6
CONTINUOUS
 62
    7
 10
1129.2338976427843
 20
666.53419691462682
 11
1133.3750023644247
 21
681.98901013525187
  0
LINE
  8
_0-5_寸法線
  6
CONTINUOUS
 62
    7
 10
1194.7339542927336
 20
756.53410591465627
 11
1121.2338976427843
 21
756.53410591465649
  0
LINE
  8
_0-5_寸法線
  6
CONTINUOUS
 62
    7
 10
1129.2338976427843
 20
756.53410591465649
 11
1133.3750023644245
 21
741.07929269403144
  0
LINE
  8
_0-5_寸法線
  6
CONTINUOUS
 62
    7
 10
1129.2338976427843
 20
756.53410591465649
 11
1125.0927929211439
 21
741.07929269403144
  0
LINE
  8
_0-5_寸法線
  6
CONTINUOUS
 62
    7
 10
1129.2338976427843
 20
666.53419691462682
 11
1129.2338976427843
 21
756.53410591465649
  0
TEXT
  8
_0-5_寸法線
 62
    7
 10
1129.2338976427843
 20
699.53415141464166
 40
24
 41
1
 50
90
  1
90
  0
LINE
  8
_0-5_寸法線
  6
CONTINUOUS
 62
    7
 10
1129.2338976427843
 20
756.53410591465649
 11
1125.0927929211441
 21
771.98891913528155
  0
LINE
  8
_0-5_寸法線
  6
CONTINUOUS
 62
    7
 10
1129.2338976427843
 20
756.53410591465649
 11
1133.3750023644247
 21
771.98891913528155
  0
LINE
  8
_0-5_寸法線
  6
CONTINUOUS
 62
    7
 10
1298.0037602689461
 20
842.53425831448169
 11
1121.2338976427843
 21
842.53425831448226
  0
LINE
  8
_0-5_寸法線
  6
CONTINUOUS
 62
    7
 10
1129.2338976427843
 20
842.53425831448226
 11
1133.3750023644247
 21
827.0794450938572
  0
LINE
  8
_0-5_寸法線
  6
CONTINUOUS
 62
    7
 10
1129.2338976427843
 20
842.53425831448226
 11
1125.0927929211441
 21
827.0794450938572
  0
LINE
  8
_0-5_寸法線
  6
CONTINUOUS
 62
    7
 10
1129.2338976427843
 20
756.53410591465649
 11
1129.2338976427843
 21
842.53425831448226
  0
TEXT
  8
_0-5_寸法線
 62
    7
 10
1129.2338976427843
 20
756.53428901440884
 40
24
 41
1
 50
90
  1
86(46)～112
  0
LINE
  8
_0-5_寸法線
  6
CONTINUOUS
 62
    7
 10
1287.0973898985751
 20
674.77446717939938
 11
1287.097389928414
 21
658.77446717939938
  0
LINE
  8
_0-5_寸法線
  6
CONTINUOUS
 62
    7
 10
1287.0973898985751
 20
674.77446717939938
 11
1279.0973899244163
 21
660.91806070392886
  0
LINE
  8
_0-5_寸法線
  6
CONTINUOUS
 62
    7
 10
1287.0973898985751
 20
674.77446717939938
 11
1261.562061548233
 21
579.47532367706299
  0
LINE
  8
_0-5_寸法線
  6
CONTINUOUS
 62
    7
 10
1261.562061548233
 20
579.47532367706299
 11
1127.1620615482332
 21
579.47532367706344
  0
TEXT
  8
_0-5_寸法線
 62
    7
 10
1127.1620615482332
 20
579.47532367706299
 40
24
 41
0.7999999999999998
 50
0
  1
防水マス横引き
  0
LINE
  8
_0-5_寸法線
  6
CONTINUOUS
 62
    7
 10
1209.0037602689456
 20
772.53410591465627
 11
1209.0037602689463
 21
986.53425831448112
  0
LINE
  8
_0-5_寸法線
  6
CONTINUOUS
 62
    7
 10
1209.0037602689463
 20
978.53425831448112
 11
1224.4585734895713
 21
982.67536303612144
  0
LINE
  8
_0-5_寸法線
  6
CONTINUOUS
 62
    7
 10
1209.0037602689463
 20
978.53425831448112
 11
1224.4585734895713
 21
974.3931535928408
  0
LINE
  8
_0-5_寸法線
  6
CONTINUOUS
 62
    7
 10
1419.0037602689461
 20
772.53410591465627
 11
1419.0037602689467
 21
986.53425831448112
  0
LINE
  8
_0-5_寸法線
  6
CONTINUOUS
 62
    7
 10
1419.0037602689467
 20
978.53425831448112
 11
1403.5489470483217
 21
974.3931535928408
  0
LINE
  8
_0-5_寸法線
  6
CONTINUOUS
 62
    7
 10
1419.0037602689467
 20
978.53425831448112
 11
1403.5489470483217
 21
982.67536303612155
  0
LINE
  8
_0-5_寸法線
  6
CONTINUOUS
 62
    7
 10
1209.0037602689463
 20
978.53425831448112
 11
1419.0037602689467
 21
978.53425831448112
  0
TEXT
  8
_0-5_寸法線
 62
    7
 10
1284.0037602689465
 20
978.53425831448112
 40
24
 41
1
 50
0
  1
φ210
  0
TEXT
  8
_0-7_枠細線
 62
    5
 10
1544.7999999999997
 20
176
 40
32
 41
0.6
 50
0
  1
ＨＳＡＺ－１５Ｌ６００
  0
ARC
  8
_0-1_計細線
  6
CONTINUOUS
 62
    3
 10
1257.0037602689461
 20
820.03425831448021
 40
1.5
 50
179.99999999999983
 51
269.99999999999977
  0
LINE
  8
_0-1_計細線
  6
CONTINUOUS
 62
    3
 10
1255.5037602689461
 20
822.03425831448021
 11
1255.5037602689461
 21
820.03425831448021
  0
ARC
  8
_0-1_計細線
  6
CONTINUOUS
 62
    3
 10
1255.0037602689461
 20
822.03425831448021
 40
0.5
 50
0
 51
89.999999999999915
  0
LINE
  8
_0-5_寸法線
  6
CONTINUOUS
 62
    7
 10
1386.0203179370826
 20
671.5343844144553
 11
1416.6942439162365
 21
671.53438441445519
  0
LINE
  8
_0-5_寸法線
  6
CONTINUOUS
 62
    7
 10
1408.6942439162365
 20
671.53438441445519
 11
1412.8353486378767
 21
656.07957119383013
  0
LINE
  8
_0-5_寸法線
  6
CONTINUOUS
 62
    7
 10
1408.6942439162365
 20
671.53438441445519
 11
1404.553139194596
 21
656.07957119383013
  0
LINE
  8
_0-5_寸法線
  6
CONTINUOUS
 62
    7
 10
1386.0203179370826
 20
681.53437111445862
 11
1416.6942439162365
 21
681.53437111445851
  0
LINE
  8
_0-5_寸法線
  6
CONTINUOUS
 62
    7
 10
1408.6942439162365
 20
681.53437111445851
 11
1404.5531391945963
 21
696.98918433508356
  0
LINE
  8
_0-5_寸法線
  6
CONTINUOUS
 62
    7
 10
1408.6942439162365
 20
681.53437111445851
 11
1412.8353486378769
 21
696.98918433508356
  0
LINE
  8
_0-5_寸法線
  6
CONTINUOUS
 62
    7
 10
1408.6942439162365
 20
631.53438441445519
 11
1408.6942439162365
 21
721.53437111445851
  0
TEXT
  8
_0-5_寸法線
 62
    7
 10
1408.6942439162365
 20
688.34169076478349
 40
24
 41
1
 50
90
  1
10
  0
LINE
  8
_0-5_寸法線
  6
CONTINUOUS
 62
    7
 10
1460.2427581346753
 20
666.53419691462636
 11
1644.2427581346753
 21
666.53419691462568
  0
LINE
  8
_0-5_寸法線
  6
CONTINUOUS
 62
    7
 10
1636.2427581346753
 20
666.53419691462568
 11
1632.1016534130351
 21
681.98901013525074
  0
LINE
  8
_0-5_寸法線
  6
CONTINUOUS
 62
    7
 10
1636.2427581346753
 20
666.53419691462568
 11
1640.3838628563158
 21
681.98901013525074
  0
LINE
  8
_0-5_寸法線
  6
CONTINUOUS
 62
    7
 10
1460.2427581346753
 20
746.53372891500089
 11
1644.2427581346753
 21
746.53372891500021
  0
LINE
  8
_0-5_寸法線
  6
CONTINUOUS
 62
    7
 10
1636.2427581346753
 20
746.53372891500021
 11
1640.3838628563158
 21
731.07891569437515
  0
LINE
  8
_0-5_寸法線
  6
CONTINUOUS
 62
    7
 10
1636.2427581346753
 20
746.53372891500021
 11
1632.1016534130351
 21
731.07891569437515
  0
LINE
  8
_0-5_寸法線
  6
CONTINUOUS
 62
    7
 10
1636.2427581346753
 20
666.53419691462568
 11
1636.2427581346753
 21
746.53372891500021
  0
TEXT
  8
_0-5_寸法線
 62
    7
 10
1636.2427581346753
 20
694.53396291481306
 40
24
 41
1
 50
90
  1
80
  0
LINE
  8
_0-5_寸法線
  6
CONTINUOUS
 62
    7
 10
1460.242005228253
 20
666.53455727426103
 11
1588.2427581346753
 21
666.53455727426069
  0
LINE
  8
_0-5_寸法線
  6
CONTINUOUS
 62
    7
 10
1580.2427581346753
 20
666.53455727426069
 11
1576.1016534130351
 21
681.98937049488575
  0
LINE
  8
_0-5_寸法線
  6
CONTINUOUS
 62
    7
 10
1580.2427581346753
 20
666.53455727426069
 11
1584.3838628563158
 21
681.98937049488575
  0
LINE
  8
_0-5_寸法線
  6
CONTINUOUS
 62
    7
 10
1501.0037602689461
 20
706.03455727426103
 11
1588.2427581346753
 21
706.03455727426081
  0
LINE
  8
_0-5_寸法線
  6
CONTINUOUS
 62
    7
 10
1580.2427581346753
 20
706.03455727426081
 11
1584.3838628563158
 21
690.57974405363575
  0
LINE
  8
_0-5_寸法線
  6
CONTINUOUS
 62
    7
 10
1580.2427581346753
 20
706.03455727426081
 11
1576.1016534130351
 21
690.57974405363575
  0
LINE
  8
_0-5_寸法線
  6
CONTINUOUS
 62
    7
 10
1580.2427581346753
 20
666.53455727426069
 11
1580.2427581346753
 21
706.03455727426081
  0
TEXT
  8
_0-5_寸法線
 62
    7
 10
1580.2427581346753
 20
662.28455727426058
 40
24
 41
1
 50
90
  1
39.5
  0
LINE
  8
_0-5_寸法線
  6
CONTINUOUS
 62
    7
 10
1460.242005228253
 20
676.72592329559598
 11
1532.2427581346753
 21
676.72592329559575
  0
LINE
  8
_0-5_寸法線
  6
CONTINUOUS
 62
    7
 10
1524.2427581346753
 20
676.72592329559575
 11
1520.1016534130351
 21
692.1807365162208
  0
LINE
  8
_0-5_寸法線
  6
CONTINUOUS
 62
    7
 10
1524.2427581346753
 20
676.72592329559575
 11
1528.3838628563158
 21
692.1807365162208
  0
LINE
  8
_0-5_寸法線
  6
CONTINUOUS
 62
    7
 10
1460.242005228253
 20
736.3389169522718
 11
1532.2427581346753
 21
736.33891695227157
  0
LINE
  8
_0-5_寸法線
  6
CONTINUOUS
 62
    7
 10
1524.2427581346753
 20
736.33891695227157
 11
1528.3838628563158
 21
720.88410373164652
  0
LINE
  8
_0-5_寸法線
  6
CONTINUOUS
 62
    7
 10
1524.2427581346753
 20
736.33891695227157
 11
1520.1016534130351
 21
720.88410373164652
  0
LINE
  8
_0-5_寸法線
  6
CONTINUOUS
 62
    7
 10
1524.2427581346753
 20
676.72592329559575
 11
1524.2427581346753
 21
736.33891695227157
  0
TEXT
  8
_0-5_寸法線
 62
    7
 10
1524.2427581346756
 20
681.09997072458805
 40
24
 41
1
 50
90
  1
Rc2・59.6
  0
LINE
  8
_0-5_寸法線
  6
CONTINUOUS
 62
    7
 10
1440.188922590653
 20
705.72703827667488
 11
1477.3838703687511
 21
705.01285981898275
  0
LINE
  8
_0-5_寸法線
  6
CONTINUOUS
 62
    7
 10
1469.3853446675496
 20
705.16643913795838
 11
1473.2289937748105
 21
689.63497553853381
  0
LINE
  8
_0-5_寸法線
  6
CONTINUOUS
 62
    7
 10
1469.3853446675496
 20
705.16643913795838
 11
1464.9483106379587
 21
689.79397254927289
  0
LINE
  8
_0-5_寸法線
  6
CONTINUOUS
 62
    7
 10
1440.1918711882497
 20
706.03419691462614
 11
1477.393674788141
 21
706.03419691462614
  0
LINE
  8
_0-5_寸法線
  6
CONTINUOUS
 62
    7
 10
1469.393674788141
 20
706.03419691462614
 11
1465.2525700665008
 21
721.48901013525119
  0
LINE
  8
_0-5_寸法線
  6
CONTINUOUS
 62
    7
 10
1469.393674788141
 20
706.03419691462614
 11
1473.5347795097814
 21
721.48901013525119
  0
ARC
  8
_0-5_寸法線
  6
CONTINUOUS
 62
    7
 10
1424.1918711882497
 20
706.03419691462614
 40
45.201803599891264
 50
358.90000157751336
 51
359.99999999999966
  0
ARC
  8
_0-5_寸法線
  6
CONTINUOUS
 62
    7
 10
1424.1918711882497
 20
706.03419691462614
 40
45.201803599891264
 50
308.19779507244363
 51
358.90000157751336
  0
ARC
  8
_0-5_寸法線
  6
CONTINUOUS
 62
    7
 10
1424.1918711882497
 20
706.03419691462614
 40
45.201803599891264
 50
0
 51
58.890986591079965
  0
TEXT
  8
_0-5_寸法線
 62
    7
 10
1459.5887391340314
 20
764.69139033372267
 40
24
 41
1
 50
-78.872834030477208
  1
1゜10’
  0
LINE
  8
_0-1_計細線
  6
CONTINUOUS
 62
    3
 10
1371.1036385905097
 20
819.11413706813141
 11
1364.1826718389691
 21
818.31414291131864
  0
ARC
  8
_0-1_計細線
  6
CONTINUOUS
 62
    3
 10
1375.0203177370829
 20
676.53437131445844
 40
4.9999998000002961
 50
179.99999999999983
 51
269.99999999999977
  0
ARC
  8
_0-1_計細線
  6
CONTINUOUS
 62
    3
 10
1365.0203181370823
 20
676.53437131445844
 40
4.9999998000002961
 50
0
 51
89.999999999999915
  0
LINE
  8
_0-1_計細線
  6
CONTINUOUS
 62
    3
 10
1314.2041461697297
 20
681.53437111445874
 11
1365.0203181370823
 21
681.53437111445874
  0
ARC
  8
_0-1_計細線
  6
CONTINUOUS
 62
    3
 10
1442.2426819347436
 20
743.07872802450493
 40
2.0000761999303904
 50
0
 51
88.899999999968216
  0
LINE
  8
_0-1_計細線
  6
CONTINUOUS
 62
    3
 10
1444.2427581346753
 20
736.33883609041118
 11
1442.7427014847287
 21
735.36741696468948
  0
ARC
  8
_0-1_計細線
  6
CONTINUOUS
 62
    3
 10
1424.4237559717901
 20
750.42242341517476
 40
5.0001874998283711
 50
194.03624299999512
 51
268.89999999998986
  0
LINE
  8
_0-1_計細線
  6
CONTINUOUS
 62
    3
 10
1417.7417579855889
 20
756.53410591465763
 11
1419.5728603375971
 21
749.20969850662823
  0
LINE
  8
_0-1_計細線
  6
CONTINUOUS
 62
    3
 10
1389.2406836365742
 20
751.53391641482926
 11
1396.5826970287551
 21
751.53391641482926
  0
LINE
  8
_0-1_計細線
  6
CONTINUOUS
 62
    3
 10
1392.501088702207
 20
746.53372891500089
 11
1397.2409844362999
 21
746.53372891500089
  0
LINE
  8
_0-1_計細線
  6
CONTINUOUS
 62
    3
 10
1391.3908777013992
 20
755.71043465596063
 11
1411.4687316313182
 21
755.71043465596063
  0
ARC
  8
_0-1_計細線
  6
CONTINUOUS
 62
    3
 10
1393.8205655146746
 20
753.53399261476034
 40
2.0000761999303904
 50
190.32905100000073
 51
269.99999999999977
  0
LINE
  8
_0-1_計細線
  6
CONTINUOUS
 62
    3
 10
1391.2407598365032
 20
756.53410591465627
 11
1391.8529032855747
 21
753.17537693751501
  0
LINE
  8
_0-1_計細線
  6
CONTINUOUS
 62
    3
 10
1412.1694850006395
 20
755.71038265600714
 11
1412.2415509357822
 21
756.53410591465627
  0
LINE
  8
_0-1_計細線
  6
CONTINUOUS
 62
    3
 10
1396.5826970287605
 20
751.53391641482926
 11
1412.1696750004692
 21
755.71043465596267
  0
LINE
  8
_0-1_計細線
  6
CONTINUOUS
 62
    3
 10
1397.8832098582977
 20
746.70581276012604
 11
1412.1697510004021
 21
750.53387931486441
  0
LINE
  8
_0-1_計細線
  6
CONTINUOUS
 62
    3
 10
1412.1697510004021
 20
750.53387931486441
 11
1419.2418150451438
 21
750.53387931486441
  0
ARC
  8
_0-1_計細線
  6
CONTINUOUS
 62
    3
 10
1421.24189083547
 20
736.17959823372507
 40
3.0001132998966114
 50
0
 51
60.23100699998394
  0
LINE
  8
_0-1_計細線
  6
CONTINUOUS
 62
    3
 10
1422.7419334854283
 20
738.77775189538579
 11
1409.3081895758057
 21
746.53372891500226
  0
LINE
  8
_0-1_計細線
  6
CONTINUOUS
 62
    3
 10
1442.7427014847287
 20
735.36741696468812
 11
1424.2228041526448
 21
735.72301664464771
  0
LINE
  8
_0-1_計細線
  6
CONTINUOUS
 62
    3
 10
1444.2427581346753
 20
736.33883609041254
 11
1424.242004135366
 21
736.72286974478152
  0
LINE
  8
_0-1_計細線
  6
CONTINUOUS
 62
    3
 10
1442.2810779001873
 20
745.0784342247664
 11
1424.3277640581816
 21
745.42315591451802
  0
LINE
  8
_0-1_計細線
  6
CONTINUOUS
 62
    3
 10
1364.70410176974
 20
751.53391641482926
 11
1373.2400800371277
 21
751.53391641482926
  0
LINE
  8
_0-1_計細線
  6
CONTINUOUS
 62
    3
 10
1364.70410176974
 20
757.53414301462112
 11
1373.2400800371277
 21
757.53414301462249
  0
LINE
  8
_0-1_計細線
  6
CONTINUOUS
 62
    3
 10
1364.70410176974
 20
762.53433051445154
 11
1379.3480865399158
 21
762.53433051445154
  0
LINE
  8
_0-1_計細線
  6
CONTINUOUS
 62
    3
 10
1371.0963019665267
 20
746.53372891500089
 11
1364.70410176974
 21
746.53372891500089
  0
LINE
  8
_0-1_計細線
  6
CONTINUOUS
 62
    3
 10
1369.2399296372648
 20
757.53414301462249
 11
1375.240156237054
 21
757.53414301462249
  0
LINE
  8
_0-1_計細線
  6
CONTINUOUS
 62
    3
 10
1375.240156237054
 20
751.53391641482926
 11
1369.2399296372648
 21
751.53391641482926
  0
LINE
  8
_0-1_計細線
  6
CONTINUOUS
 62
    3
 10
1369.2399296372648
 20
751.53391641482926
 11
1364.70410176974
 21
751.53391641482926
  0
LINE
  8
_0-1_計細線
  6
CONTINUOUS
 62
    3
 10
1369.2399296372648
 20
757.53414301462249
 11
1364.70410176974
 21
757.53414301462249
  0
LINE
  8
_0-1_計細線
  6
CONTINUOUS
 62
    3
 10
1369.2399296372648
 20
762.53433051445154
 11
1369.2399296372648
 21
757.53414301462249
  0
LINE
  8
_0-1_計細線
  6
CONTINUOUS
 62
    3
 10
1369.2399296372648
 20
751.53391641482926
 11
1369.2399296372648
 21
746.53372891500089
  0
ARC
  8
_0-1_計細線
  6
CONTINUOUS
 62
    3
 10
1379.3480865399158
 20
761.53429341448464
 40
1.0000370999662209
 50
6.5198019999871439
 51
89.999999999999915
  0
ARC
  8
_0-1_計細線
  6
CONTINUOUS
 62
    3
 10
1384.1743061963168
 20
754.53402971472656
 40
3.0001132998966114
 50
186.51980200000276
 51
269.99999999999977
  0
LINE
  8
_0-1_計細線
  6
CONTINUOUS
 62
    3
 10
1386.5698360403392
 20
751.53391641482926
 11
1381.5696465405115
 21
746.53372891500226
  0
LINE
  8
_0-1_計細線
  6
CONTINUOUS
 62
    3
 10
1381.3875247044205
 20
753.42293871470815
 11
1374.4983129047139
 21
746.53372891500089
  0
LINE
  8
_0-1_計細線
  6
CONTINUOUS
 62
    3
 10
1375.240156237054
 20
757.53414301462249
 11
1375.240156237054
 21
751.53391641482926
  0
LINE
  8
_0-1_計細線
  6
CONTINUOUS
 62
    3
 10
1380.3416576457018
 20
761.64784531228838
 11
1381.1935968789574
 21
754.19337802131326
  0
ARC
  8
_0-1_計細線
  6
CONTINUOUS
 62
    3
 10
1384.6819537394329
 20
753.53399261476034
 40
2.0000761999303904
 50
269.99999999999977
 51
350.02120200000348
  0
LINE
  8
_0-1_計細線
  6
CONTINUOUS
 62
    3
 10
1387.2406074366452
 20
756.53410591465627
 11
1386.6517719665997
 21
753.18741092668461
  0
LINE
  8
_0-1_計細線
  6
CONTINUOUS
 62
    3
 10
1369.2399296372648
 20
746.53372891500089
 11
1409.3081895758057
 21
746.53372891500089
  0
LINE
  8
_0-1_計細線
  6
CONTINUOUS
 62
    3
 10
1380.9260851197175
 20
756.53410591465627
 11
1417.7417579855889
 21
756.53410591465627
  0
LINE
  8
_0-1_計細線
  6
CONTINUOUS
 62
    3
 10
1384.1743061963168
 20
751.53391641482926
 11
1389.2406836365742
 21
751.53391641482926
  0
LINE
  8
_0-1_計細線
  6
CONTINUOUS
 62
    3
 10
1444.2427581346753
 20
676.72560374235445
 11
1442.742701484726
 21
677.75462881623002
  0
ARC
  8
_0-1_計細線
  6
CONTINUOUS
 62
    3
 10
1442.2426819347436
 20
670.06251973913368
 40
2.0000761999303904
 50
268.90000000004596
 51
359.99999999999966
  0
ARC
  8
_0-1_計細線
  6
CONTINUOUS
 62
    3
 10
1400.3879236040509
 20
713.34365678608583
 40
45.001695498448498
 50
292.48304699999943
 51
299.76899299999877
  0
ARC
  8
_0-1_計細線
  6
CONTINUOUS
 62
    3
 10
1416.4497531483946
 20
674.53449771435066
 40
3.0001132998966114
 50
269.99999999999977
 51
292.48304700001546
  0
ARC
  8
_0-1_計細線
  6
CONTINUOUS
 62
    3
 10
1421.24189083547
 20
676.88484159903987
 40
3.0001132998966114
 50
299.76899300001571
 51
359.99999999999966
  0
ARC
  8
_0-1_計細線
  6
CONTINUOUS
 62
    3
 10
1400.3879236040509
 20
713.34365678608583
 40
50.001884998274818
 50
291.71126199999878
 51
294.81817500000221
  0
ARC
  8
_0-1_計細線
  6
CONTINUOUS
 62
    3
 10
1417.0353746213357
 20
671.53438441445542
 40
5.0001874998283711
 50
269.99999999999977
 51
291.71126199999674
  0
ARC
  8
_0-1_計細線
  6
CONTINUOUS
 62
    3
 10
1423.4744948261239
 20
663.42133371620434
 40
5.0001874998283711
 50
88.899999999990214
 51
114.81817500001847
  0
LINE
  8
_0-1_計細線
  6
CONTINUOUS
 62
    3
 10
1442.7427014847287
 20
677.75462881623207
 11
1424.2612021180892
 21
678.10949049685587
  0
LINE
  8
_0-1_計細線
  6
CONTINUOUS
 62
    3
 10
1444.2427581346753
 20
676.72560374235445
 11
1424.242004135366
 21
677.10963739672411
  0
LINE
  8
_0-1_計細線
  6
CONTINUOUS
 62
    3
 10
1442.2042859692999
 20
668.06281353886948
 11
1423.5704867397296
 21
668.4205992168645
  0
LINE
  8
_0-1_計細線
  6
CONTINUOUS
 62
    3
 10
1314.2041461697297
 20
681.53437111445874
 11
1344.5263534203757
 21
681.53437111447101
  0
LINE
  8
_0-1_計細線
  6
CONTINUOUS
 62
    3
 10
1424.242004135366
 20
736.17959823372507
 11
1424.242004135366
 21
676.88484159903987
  0
LINE
  8
_0-1_計細線
  6
CONTINUOUS
 62
    3
 10
1442.742701484726
 20
735.36741696468812
 11
1442.742701484726
 21
677.75462881623207
  0
LINE
  8
_0-1_計細線
  6
CONTINUOUS
 62
    3
 10
1444.2427581346753
 20
743.07872802450493
 11
1444.2427581346753
 21
670.06251973913368
  0
ARC
  8
_0-1_計細線
  6
CONTINUOUS
 62
    3
 10
1241.8108043235486
 20
741.53353941517526
 40
5.0001874998283711
 50
3.0819879999944746
 51
89.999999999999915
  0
LINE
  8
_0-1_計細線
  6
CONTINUOUS
 62
    3
 10
1244.2445361331891
 20
736.5333519153462
 11
1242.3477378403093
 21
736.5333519153462
  0
ARC
  8
_0-1_計細線
  6
CONTINUOUS
 62
    3
 10
1244.2445361331891
 20
733.53323861545095
 40
3.0001132998966114
 50
3.0819879999929385
 51
89.999999999999915
  0
LINE
  8
_0-1_計細線
  6
CONTINUOUS
 62
    3
 10
1247.1626295069025
 20
735.13724917184004
 11
1246.8037598298877
 21
741.80237517322348
  0
LINE
  8
_0-1_計細線
  6
CONTINUOUS
 62
    3
 10
1231.2347278420254
 20
746.53372891500089
 11
1216.3059612779205
 21
750.53387931486441
  0
ARC
  8
_0-1_計細線
  6
CONTINUOUS
 62
    3
 10
1235.9746235761129
 20
743.53361561510496
 40
3.0001132998966114
 50
5.0000000000125944
 51
89.999999999999915
  0
LINE
  8
_0-1_計細線
  6
CONTINUOUS
 62
    3
 10
1314.2002690781426
 20
746.53372891500089
 11
1231.2347278420254
 21
746.53372891500089
  0
LINE
  8
_0-1_計細線
  6
CONTINUOUS
 62
    3
 10
1210.7339542927336
 20
756.53410591465627
 11
1209.2338976427843
 21
750.53387931486304
  0
LINE
  8
_0-1_計細線
  6
CONTINUOUS
 62
    3
 10
1314.2005174295898
 20
750.53387931486441
 11
1209.2338976427843
 21
750.53387931486441
  0
LINE
  8
_0-1_計細線
  6
CONTINUOUS
 62
    3
 10
1239.3590405301363
 20
739.27198745057308
 11
1238.9633208862858
 21
743.79509137977743
  0
LINE
  8
_0-1_計細線
  6
CONTINUOUS
 62
    3
 10
1314.2008899568261
 20
756.53410591465627
 11
1210.7339542927336
 21
756.53410591465627
  0
ARC
  8
_0-1_計細線
  6
CONTINUOUS
 62
    3
 10
1242.3477378403093
 20
739.53346521524213
 40
3.0001132998966114
 50
185.00000000000358
 51
269.99999999999977
  0
LINE
  8
_0-1_計細線
  6
CONTINUOUS
 62
    3
 10
1241.8108043235486
 20
746.53372891500089
 11
1237.2891323930542
 21
746.53372891500089
  0
ARC
  8
_0-1_計細線
  6
CONTINUOUS
 62
    3
 10
1260.33282165372
 20
676.53457391428174
 40
10.000376999654691
 50
183.0819880000011
 51
269.99999999999977
  0
LINE
  8
_0-1_計細線
  6
CONTINUOUS
 62
    3
 10
1250.3469106410473
 20
675.99690439818391
 11
1247.2403094369909
 21
733.69453847027921
  0
LINE
  8
_0-1_計細線
  6
CONTINUOUS
 62
    3
 10
1416.4497531483946
 20
671.53438441445542
 11
1314.1956127042456
 21
671.53438441445542
  0
LINE
  8
_0-1_計細線
  6
CONTINUOUS
 62
    3
 10
1417.0353846213281
 20
666.53419691462636
 11
1260.33282165372
 21
666.53419691462636
  0
LINE
  8
_0-1_計細線
  6
CONTINUOUS
 62
    3
 10
1314.2012624839397
 20
762.53433051445154
 11
1249.127625738404
 21
762.53433051445154
  0
LINE
  8
_0-1_計細線
  6
CONTINUOUS
 62
    3
 10
1248.134054632618
 20
761.64784531228838
 11
1247.3553167577472
 21
756.53410591465627
  0
ARC
  8
_0-1_計細線
  6
CONTINUOUS
 62
    3
 10
1249.127625738404
 20
761.53429341448464
 40
1.0000370999662209
 50
89.999999999999915
 51
173.48019800001288
  0
LINE
  8
_0-1_計細線
  6
CONTINUOUS
 62
    3
 10
1314.2041461697297
 20
805.03427631447448
 11
1312.2041437697324
 21
805.03427631447448
  0
LINE
  8
_0-1_計細線
  6
CONTINUOUS
 62
    3
 10
1312.2041437697324
 20
805.03427631447448
 11
1312.2041437697324
 21
815.03426431448042
  0
LINE
  8
_0-1_計細線
  6
CONTINUOUS
 62
    3
 10
1288.7041665697241
 20
805.03427631447448
 11
1284.7041677697259
 21
805.03427631447448
  0
ARC
  8
_0-1_計細線
  6
CONTINUOUS
 62
    3
 10
1258.7041905697213
 20
792.70415417857885
 40
4.9999940000022889
 50
0
 51
60.000000000003901
  0
LINE
  8
_0-1_計細線
  6
CONTINUOUS
 62
    3
 10
1261.2041845697211
 20
805.03427631447448
 11
1257.304187689723
 21
805.03427631447448
  0
LINE
  8
_0-1_計細線
  6
CONTINUOUS
 62
    3
 10
1261.2041845697211
 20
797.03427871447684
 11
1261.2041845697211
 21
815.03426431448042
  0
LINE
  8
_0-1_計細線
  6
CONTINUOUS
 62
    3
 10
1288.7041665697241
 20
805.03427631447448
 11
1288.7041665697241
 21
815.03426431448042
  0
LINE
  8
_0-1_計細線
  6
CONTINUOUS
 62
    3
 10
1284.7041677697259
 20
805.03427631447448
 11
1284.7041677697259
 21
815.03426431448042
  0
LINE
  8
_0-1_計細線
  6
CONTINUOUS
 62
    3
 10
1263.7041845697202
 20
762.53433051445154
 11
1263.7041845697202
 21
792.70415417857885
  0
LINE
  8
_0-1_計細線
  6
CONTINUOUS
 62
    3
 10
1314.2041461697297
 20
792.70415417857885
 11
1263.7041845697202
 21
792.70415417857885
  0
LINE
  8
_0-1_計細線
  6
CONTINUOUS
 62
    3
 10
1314.2041461697297
 20
797.03427871447684
 11
1261.2041845697211
 21
797.03427871447684
  0
LINE
  8
_0-1_計細線
  6
CONTINUOUS
 62
    3
 10
1314.2041461697297
 20
815.03426431448042
 11
1257.304187689723
 21
815.03426431448042
  0
ARC
  8
_0-1_計細線
  6
CONTINUOUS
 62
    3
 10
1368.2398925372979
 20
757.35393917680631
 40
1.0000370999662209
 50
281.30993200007299
 51
359.99999999999966
  0
LINE
  8
_0-1_計細線
  6
CONTINUOUS
 62
    3
 10
1369.2399296372648
 20
757.35393917680631
 11
1369.2399296372648
 21
757.53414301462249
  0
ARC
  8
_0-1_計細線
  6
CONTINUOUS
 62
    3
 10
1368.2398925372979
 20
751.71412025264613
 40
1.0000370999662209
 50
0
 51
78.690067999924139
  0
LINE
  8
_0-1_計細線
  6
CONTINUOUS
 62
    3
 10
1369.2399296372648
 20
751.71412025264613
 11
1369.2399296372648
 21
751.53391641482926
  0
LINE
  8
_0-1_計細線
  6
CONTINUOUS
 62
    3
 10
1368.4360163607869
 20
752.69473737009025
 11
1364.70410176974
 21
753.44112012598089
  0
LINE
  8
_0-1_計細線
  6
CONTINUOUS
 62
    3
 10
1368.4360163607869
 20
756.37332205936286
 11
1364.70410176974
 21
755.62693930347291
  0
ARC
  8
_0-1_計細線
  6
CONTINUOUS
 62
    3
 10
1373.2400800371277
 20
756.53410591465627
 40
1.0000370999662209
 50
0
 51
89.999999999999915
  0
ARC
  8
_0-1_計細線
  6
CONTINUOUS
 62
    3
 10
1373.2400800371277
 20
752.53395351479617
 40
1.0000370999662209
 50
269.99999999999977
 51
359.99999999999966
  0
LINE
  8
_0-1_計細線
  6
CONTINUOUS
 62
    3
 10
1374.240119137087
 20
756.53410591465627
 11
1374.240119137087
 21
752.53395351479617
  0
LINE
  8
_0-0_計極細
  6
CENTER1
 62
    2
 10
1389.2406836365742
 20
763.13087197756226
 11
1389.2406836365742
 21
748.5273271207634
  0
LINE
  8
_0-0_計極細
  6
CENTER1
 62
    2
 10
1364.70410176974
 20
754.53402971472656
 11
1379.2182566567615
 21
754.53402971472656
  0
LINE
  8
_0-0_計極細
  6
CENTER1
 62
    2
 10
1385.4748170258561
 20
753.97456621824495
 11
1372.6347885818875
 21
741.13453777427776
  0
LINE
  8
_0-0_計極細
  6
CONTINUOUS
 62
    2
 10
1364.2818101075707
 20
819.74832254323155
 11
1371.1040986497399
 21
820.72001576587581
  0
LINE
  8
_0-0_計極細
  6
CONTINUOUS
 62
    2
 10
1364.1831041865387
 20
820.44132798882674
 11
1371.1040986497399
 21
821.42707999106437
  0
ARC
  8
_0-0_計極細
  6
CONTINUOUS
 62
    2
 10
1361.4453303767593
 20
818.94132918882565
 40
1.6999966400019275
 50
269.99999999999977
 51
356.64911200002257
  0
LINE
  8
_0-0_計極細
  6
CONTINUOUS
 62
    2
 10
1358.5041087297375
 20
814.94133038882615
 11
1358.5041087297375
 21
817.94132798882765
  0
ARC
  8
_0-0_計極細
  6
CONTINUOUS
 62
    2
 10
1360.2541093297357
 20
816.19132738882809
 40
1.7500005999988844
 50
89.999999999999915
 51
179.99999999999983
  0
ARC
  8
_0-0_計極細
  6
CONTINUOUS
 62
    2
 10
1360.2541093297357
 20
816.19132738882809
 40
1.049999160000425
 50
89.999999999999915
 51
179.99999999999983
  0
LINE
  8
_0-0_計極細
  6
CONTINUOUS
 62
    2
 10
1361.4453303767593
 20
817.24132654882851
 11
1360.2541093297357
 21
817.24132654882851
  0
LINE
  8
_0-0_計極細
  6
CONTINUOUS
 62
    2
 10
1358.5041087297375
 20
817.94132798882765
 11
1360.4541071697365
 21
817.94132798882765
  0
ARC
  8
_0-0_計極細
  6
CONTINUOUS
 62
    2
 10
1361.4453303767593
 20
818.94132918882565
 40
1.0000011999986782
 50
269.99999999999977
 51
356.64911200000779
  0
LINE
  8
_0-0_計極細
  6
CONTINUOUS
 62
    2
 10
1361.4453303767593
 20
817.94132798882765
 11
1360.2541093297357
 21
817.94132798882765
  0
LINE
  8
_0-0_計極細
  6
CONTINUOUS
 62
    2
 10
1357.7041113697348
 20
813.54210750820585
 11
1357.7041113697348
 21
814.44133278882509
  0
LINE
  8
_0-0_計極細
  6
CONTINUOUS
 62
    2
 10
1357.7041113697348
 20
807.44211638820207
 11
1357.7041113697348
 21
808.94211518820248
  0
LINE
  8
_0-0_計極細
  6
CONTINUOUS
 62
    2
 10
1353.9541143697331
 20
811.84744486393674
 11
1353.9541143697331
 21
810.54744390393853
  0
LINE
  8
_0-0_計極細
  6
CONTINUOUS
 62
    2
 10
1353.9541143697331
 20
809.54744270393985
 11
1353.9541143697331
 21
809.04744510393743
  0
LINE
  8
_0-0_計極細
  6
CONTINUOUS
 62
    2
 10
1357.5541114897358
 20
811.84744486393674
 11
1357.5541114897358
 21
809.04744510393743
  0
LINE
  8
_0-0_計極細
  6
CONTINUOUS
 62
    2
 10
1353.4541107697376
 20
812.34744246393848
 11
1353.9541143697331
 21
812.84744006394021
  0
LINE
  8
_0-0_計極細
  6
CONTINUOUS
 62
    2
 10
1353.9541143697331
 20
811.84744486393674
 11
1353.4541107697376
 21
812.34744246393848
  0
LINE
  8
_0-0_計極細
  6
CONTINUOUS
 62
    2
 10
1353.9541143697331
 20
809.54744270393985
 11
1353.4541107697376
 21
810.04744630393679
  0
LINE
  8
_0-0_計極細
  6
CONTINUOUS
 62
    2
 10
1353.4541107697376
 20
810.04744630393679
 11
1353.9541143697331
 21
810.54744390393853
  0
LINE
  8
_0-0_計極細
  6
CONTINUOUS
 62
    2
 10
1353.9541143697331
 20
813.34744366393647
 11
1353.9541143697331
 21
812.84744006394021
  0
LINE
  8
_0-0_計極細
  6
CONTINUOUS
 62
    2
 10
1357.4041116097367
 20
814.44133278882509
 11
1357.4041116097367
 21
815.44132798882856
  0
LINE
  8
_0-0_計極細
  6
CONTINUOUS
 62
    2
 10
1357.5541114897358
 20
811.84744486393674
 11
1358.3541088497357
 21
813.34744366393647
  0
ARC
  8
_0-0_計極細
  6
CONTINUOUS
 62
    2
 10
1358.0041111297385
 20
814.94133038882615
 40
0.4999976000017341
 50
269.99999999999977
 51
359.99999999999966
  0
LINE
  8
_0-0_計極細
  6
CONTINUOUS
 62
    2
 10
1354.4541119697349
 20
806.9413387888244
 11
1358.5041087297375
 21
806.9413387888244
  0
ARC
  8
_0-0_計極細
  6
CONTINUOUS
 62
    2
 10
1364.1831041865387
 20
818.69132738882718
 40
1.049999160000425
 50
89.999999999999915
 51
175.84901000000639
  0
ARC
  8
_0-0_計極細
  6
CONTINUOUS
 62
    2
 10
1364.1831041865387
 20
818.69132738882718
 40
1.7500005999988844
 50
89.999999999999915
 51
175.84901000000596
  0
ARC
  8
_0-0_計極細
  6
CONTINUOUS
 62
    2
 10
1369.7041017697381
 20
792.70415417857885
 40
4.9999940000022889
 50
119.99999999999609
 51
179.99999999999983
  0
LINE
  8
_0-0_計極細
  6
CONTINUOUS
 62
    2
 10
1367.2041017697391
 20
805.03427631447448
 11
1371.1040986497399
 21
805.03427631447448
  0
LINE
  8
_0-0_計極細
  6
CONTINUOUS
 62
    2
 10
1367.2041017697391
 20
797.03427871447684
 11
1367.2041017697391
 21
805.03427631447448
  0
LINE
  8
_0-0_計極細
  6
CONTINUOUS
 62
    2
 10
1370.9266667916843
 20
805.03427631447448
 11
1371.1040986497399
 21
805.21170817252869
  0
LINE
  8
_0-0_計極細
  6
CONTINUOUS
 62
    2
 10
1371.1040986497399
 20
805.03427631447448
 11
1371.1040986497399
 21
805.58951587028332
  0
LINE
  8
_0-0_計極細
  6
CONTINUOUS
 62
    2
 10
1362.2041077697347
 20
772.95586597721876
 11
1362.2041077697347
 21
799.23427895447639
  0
LINE
  8
_0-0_計極細
  6
CONTINUOUS
 62
    2
 10
1352.4541155697314
 20
794.03428111447533
 11
1341.07018067689
 21
794.03428111447533
  0
ARC
  8
_0-0_計極細
  6
CONTINUOUS
 62
    2
 10
1352.4541155697314
 20
793.03428591447255
 40
1.0000011999986782
 50
89.999999999999915
 51
179.99999999999983
  0
ARC
  8
_0-0_計極細
  6
CONTINUOUS
 62
    2
 10
1352.4541155697314
 20
793.03428591447255
 40
1.0000011999986782
 50
0
 51
89.999999999999915
  0
ARC
  8
_0-0_計極細
  6
CONTINUOUS
 62
    2
 10
1361.2041065697374
 20
772.95586597721876
 40
1.0000011999986782
 50
277.1807559999728
 51
359.99999999999966
  0
LINE
  8
_0-0_計極細
  6
CONTINUOUS
 62
    2
 10
1353.4541107697376
 20
771.96371277094045
 11
1361.3291044697387
 21
771.96371277094045
  0
LINE
  8
_0-0_計極細
  6
CONTINUOUS
 62
    2
 10
1341.761284124005
 20
802.94133998882489
 11
1351.7024241710867
 21
802.94133998882489
  0
LINE
  8
_0-0_計極細
  6
CONTINUOUS
 62
    2
 10
1343.9904323406843
 20
801.24134334882365
 11
1348.9904323406824
 21
801.24134334882365
  0
LINE
  8
_0-0_計極細
  6
CONTINUOUS
 62
    2
 10
1341.2041245697317
 20
800.03427631447767
 11
1362.7041053697365
 21
800.03427631447767
  0
LINE
  8
_0-0_計極細
  6
CONTINUOUS
 62
    2
 10
1341.2041245697317
 20
798.93861719100551
 11
1341.2041245697317
 21
800.41636800880406
  0
LINE
  8
_0-0_計極細
  6
CONTINUOUS
 62
    2
 10
1343.9904323406843
 20
801.24134334882365
 11
1343.9904323406843
 21
802.94133998882489
  0
LINE
  8
_0-0_計極細
  6
CONTINUOUS
 62
    2
 10
1362.7041053697365
 20
800.03427631447767
 11
1362.7041053697365
 21
802.94133998882489
  0
ARC
  8
_0-0_計極細
  6
CONTINUOUS
 62
    2
 10
1348.7041185697324
 20
803.04211590820432
 40
2.9999976000001425
 50
0
 51
50.029503000014316
  0
LINE
  8
_0-0_計極細
  6
CONTINUOUS
 62
    2
 10
1345.490431140686
 20
801.24134334882365
 11
1345.490431140686
 21
802.94133998882489
  0
LINE
  8
_0-0_計極細
  6
CONTINUOUS
 62
    2
 10
1348.9904323406824
 20
801.24134334882365
 11
1348.9904323406824
 21
802.94133998882489
  0
LINE
  8
_0-0_計極細
  6
CONTINUOUS
 62
    2
 10
1356.7041101697348
 20
803.04211590820432
 11
1354.4541119697349
 21
803.04211590820432
  0
LINE
  8
_0-0_計極細
  6
CONTINUOUS
 62
    2
 10
1356.7041101697348
 20
802.04212070820086
 11
1356.7041101697348
 21
803.04211590820432
  0
ARC
  8
_0-0_計極細
  6
CONTINUOUS
 62
    2
 10
1354.704113769734
 20
802.04212070820086
 40
1.9999964000021464
 50
269.99999999999977
 51
359.99999999999966
  0
LINE
  8
_0-0_計極細
  6
CONTINUOUS
 62
    2
 10
1351.7041161697332
 20
800.0421183082035
 11
1351.7041161697332
 21
803.04211590820432
  0
LINE
  8
_0-0_計極細
  6
CONTINUOUS
 62
    2
 10
1356.3739244338856
 20
800.94134358882206
 11
1357.2041077697365
 21
800.94134358882206
  0
LINE
  8
_0-0_計極細
  6
CONTINUOUS
 62
    2
 10
1357.2041077697365
 20
802.94133998882489
 11
1362.7041053697365
 21
802.94133998882489
  0
LINE
  8
_0-0_計極細
  6
CONTINUOUS
 62
    2
 10
1357.2041077697365
 20
805.64133782882482
 11
1358.5041087297375
 21
805.64133782882482
  0
LINE
  8
_0-0_計極細
  6
CONTINUOUS
 62
    2
 10
1357.2041077697365
 20
804.94133638882704
 11
1359.2041101697366
 21
804.94133638882704
  0
LINE
  8
_0-0_計極細
  6
CONTINUOUS
 62
    2
 10
1341.1070026474324
 20
799.23427895447639
 11
1364.1831041865387
 21
799.23427895447639
  0
LINE
  8
_0-0_計極細
  6
CONTINUOUS
 62
    2
 10
1364.1831041865387
 20
804.4203388056244
 11
1362.7041053697365
 21
802.94133998882489
  0
LINE
  8
_0-0_計極細
  6
CONTINUOUS
 62
    2
 10
1364.1831041865387
 20
799.23427895447639
 11
1362.7041053697365
 21
800.03427631447767
  0
ARC
  8
_0-0_計極細
  6
CONTINUOUS
 62
    2
 10
1347.2041197697306
 20
800.41636800880406
 40
5.9999952000009671
 50
55.166293999993862
 51
179.99999999999986
  0
LINE
  8
_0-0_計極細
  6
CONTINUOUS
 62
    2
 10
1359.2041101697366
 20
804.94133638882704
 11
1359.2041101697366
 21
816.19132738882809
  0
LINE
  8
_0-0_計極細
  6
CONTINUOUS
 62
    2
 10
1358.5041087297375
 20
805.64133782882482
 11
1358.5041087297375
 21
816.19132738882809
  0
LINE
  8
_0-0_計極細
  6
CONTINUOUS
 62
    2
 10
1364.1831041865387
 20
804.4203388056244
 11
1364.1831041865387
 21
819.7342645544777
  0
LINE
  8
_0-0_計極細
  6
CONTINUOUS
 62
    2
 10
1354.4541119697349
 20
803.04211590820432
 11
1354.4541119697349
 21
807.44211638820207
  0
LINE
  8
_0-0_計極細
  6
CONTINUOUS
 62
    2
 10
1354.9541095697393
 20
803.04211590820432
 11
1354.9541095697393
 21
806.9413387888244
  0
LINE
  8
_0-0_計極細
  6
CONTINUOUS
 62
    2
 10
1357.2041077697365
 20
800.94134358882206
 11
1357.2041077697365
 21
806.9413387888244
  0
LINE
  8
_0-0_計極細
  6
CONTINUOUS
 62
    2
 10
1314.2041461697297
 20
799.23427895447639
 11
1339.2041161697405
 21
799.23427895447639
  0
LINE
  8
_0-0_計極細
  6
CONTINUOUS
 62
    2
 10
1357.7041113697348
 20
813.54210750820585
 11
1314.2041461697297
 21
813.54210750820585
  0
LINE
  8
_0-0_計極細
  6
CONTINUOUS
 62
    2
 10
1357.7041113697348
 20
808.94211518820248
 11
1314.2041461697297
 21
808.94211518820248
  0
LINE
  8
_0-0_計極細
  6
CONTINUOUS
 62
    2
 10
1357.7041113697348
 20
807.44211638820207
 11
1314.2041461697297
 21
807.44211638820207
  0
LINE
  8
_0-0_計極細
  6
CONTINUOUS
 62
    2
 10
1314.2041461697297
 20
809.04744510393743
 11
1357.5541114897358
 21
809.04744510393743
  0
LINE
  8
_0-0_計極細
  6
CONTINUOUS
 62
    2
 10
1314.2041461697297
 20
810.04744630393679
 11
1353.4541107697376
 21
810.04744630393679
  0
LINE
  8
_0-0_計極細
  6
CONTINUOUS
 62
    2
 10
1314.2041461697297
 20
812.34744246393848
 11
1353.4541107697376
 21
812.34744246393848
  0
LINE
  8
_0-0_計極細
  6
CONTINUOUS
 62
    2
 10
1314.4041440097333
 20
814.44133278882509
 11
1358.0041111297385
 21
814.44133278882509
  0
LINE
  8
_0-0_計極細
  6
CONTINUOUS
 62
    2
 10
1314.4041440097333
 20
815.44132798882856
 11
1357.4041116097367
 21
815.44132798882856
  0
LINE
  8
_0-0_計極細
  6
CONTINUOUS
 62
    2
 10
1314.2041461697297
 20
813.34744366393647
 11
1358.3541088497357
 21
813.34744366393647
  0
LINE
  8
_0-0_計極細
  6
CONTINUOUS
 62
    2
 10
1314.2041461697297
 20
820.44132798882674
 11
1364.1831041865387
 21
820.44132798882674
  0
LINE
  8
_0-0_計極細
  6
CONTINUOUS
 62
    2
 10
1353.4541107697376
 20
736.0343315144637
 11
1353.4541107697376
 21
763.03430991446839
  0
LINE
  8
_0-0_計極細
  6
CONTINUOUS
 62
    2
 10
1341.1956585765081
 20
744.1123890520139
 11
1341.1956705764958
 21
744.11240105200432
  0
ARC
  8
_0-0_計極細
  6
CONTINUOUS
 62
    2
 10
1340.2041233697371
 20
744.24216294819553
 40
1.0000011999986782
 50
269.99999999999977
 51
359.99999999999966
  0
ARC
  8
_0-0_計極細
  6
CONTINUOUS
 62
    2
 10
1354.2041101697357
 20
722.03433871446441
 40
7.9999916000031135
 50
269.99999999999977
 51
359.99999999999966
  0
LINE
  8
_0-0_計極細
  6
CONTINUOUS
 62
    2
 10
1342.2041197697351
 20
711.53434711446425
 11
1352.2041137697349
 21
711.53434711446425
  0
LINE
  8
_0-0_計極細
  6
CONTINUOUS
 62
    2
 10
1355.7041089697375
 20
711.53434711446425
 11
1356.7041101697348
 21
711.53434711446425
  0
ARC
  8
_0-0_計極細
  6
CONTINUOUS
 62
    2
 10
1356.7041101697348
 20
719.53434471446189
 40
7.9999916000031135
 50
269.99999999999977
 51
359.99999999999966
  0
ARC
  8
_0-0_計極細
  6
CONTINUOUS
 62
    2
 10
1341.4541203697343
 20
736.0343315144637
 40
9.9999939999997878
 50
269.99999999999977
 51
359.99999999999966
  0
ARC
  8
_0-0_計極細
  6
CONTINUOUS
 62
    2
 10
1341.4541203697343
 20
736.0343315144637
 40
11.999990400001934
 50
269.99999999999977
 51
359.99999999999966
  0
LINE
  8
_0-0_計極細
  6
CONTINUOUS
 62
    2
 10
1315.2007213724689
 20
714.53090071721795
 11
1315.1352494248465
 21
724.02405712268956
  0
LINE
  8
_0-0_計極細
  6
CONTINUOUS
 62
    2
 10
1339.2041221697343
 20
714.03434711446198
 11
1339.2041221697343
 21
724.03434111446177
  0
ARC
  8
_0-0_計極細
  6
CONTINUOUS
 62
    2
 10
1315.7007069724775
 20
714.53434471446371
 40
0.4999976000017341
 50
180.39513699996607
 51
269.99999999999977
  0
LINE
  8
_0-0_計極細
  6
CONTINUOUS
 62
    2
 10
1339.2041221697343
 20
714.03434711446198
 11
1314.2041461697297
 21
714.03434711446198
  0
LINE
  8
_0-0_計極細
  6
CONTINUOUS
 62
    2
 10
1354.2041101697357
 20
714.03434711446198
 11
1339.2041221697343
 21
714.03434711446198
  0
LINE
  8
_0-0_計極細
  6
CONTINUOUS
 62
    2
 10
1340.2041233697371
 20
743.24216774819138
 11
1314.2041461697297
 21
743.24216774819138
  0
LINE
  8
_0-0_計極細
  6
CONTINUOUS
 62
    2
 10
1314.2041461697297
 20
726.03433751446391
 11
1341.4541203697343
 21
726.03433751446391
  0
LINE
  8
_0-0_計極細
  6
CONTINUOUS
 62
    2
 10
1314.2041461697297
 20
724.03434111446177
 11
1341.4541203697343
 21
724.03434111446177
  0
ARC
  8
_0-0_計極細
  6
CONTINUOUS
 62
    2
 10
1340.2041113697439
 20
744.24216294819553
 40
1.0000011999986782
 50
179.99999999999983
 51
269.99999999999977
  0
LINE
  8
_0-0_計極細
  6
CONTINUOUS
 62
    2
 10
1341.4541203697343
 20
724.03434111446177
 11
1339.2041221697343
 21
724.03434111446177
  0
LINE
  8
_0-0_計極細
  6
CONTINUOUS
 62
    2
 10
1339.2041161697405
 20
744.24216294819553
 11
1339.2041161697405
 21
798.93861719100551
  0
LINE
  8
_0-0_計極細
  6
CONTINUOUS
 62
    2
 10
1341.2041245697317
 20
744.24216294819553
 11
1341.2041245697317
 21
798.93861719100551
  0
LINE
  8
_0-0_計極細
  6
CONTINUOUS
 62
    2
 10
1362.2041077697347
 20
722.03433871446441
 11
1362.2041077697347
 21
772.95586597721876
  0
LINE
  8
_0-0_計極細
  6
CONTINUOUS
 62
    2
 10
1351.454114369734
 20
736.0343315144637
 11
1351.454114369734
 21
793.03428591447255
  0
LINE
  8
_0-0_計極細
  6
CONTINUOUS
 62
    2
 10
1353.4541107697376
 20
736.0343315144637
 11
1353.4541107697376
 21
793.03428591447255
  0
LINE
  8
_0-0_計極細
  6
CONTINUOUS
 62
    2
 10
1364.70410176974
 20
719.53434471446189
 11
1364.70410176974
 21
792.70415417857885
  0
LINE
  8
_0-0_計極細
  6
CONTINUOUS
 62
    2
 10
1341.7874561030674
 20
686.53437111445555
 11
1355.3041132897386
 21
686.53437111445555
  0
LINE
  8
_0-0_計極細
  6
CONTINUOUS
 62
    2
 10
1314.2041461697297
 20
681.53437111445874
 11
1338.7605245246166
 21
681.53437111445874
  0
LINE
  8
_0-0_計極細
  6
CONTINUOUS
 62
    2
 10
1338.7605245246166
 20
681.53437111445874
 11
1341.7041221697334
 21
681.53437111445874
  0
LINE
  8
_0-0_計極細
  6
CONTINUOUS
 62
    2
 10
1341.7041221697334
 20
681.53437111445874
 11
1342.2041197697351
 21
711.53434711446425
  0
LINE
  8
_0-0_計極細
  6
CONTINUOUS
 62
    2
 10
1339.7041257697326
 20
681.53437111445874
 11
1339.2041221697343
 21
714.03434711446198
  0
LINE
  8
_0-0_計極細
  6
CONTINUOUS
 62
    2
 10
1352.4541155697314
 20
686.53437111445555
 11
1352.2041137697349
 21
711.53434711446425
  0
LINE
  8
_0-0_計極細
  6
CONTINUOUS
 62
    2
 10
1355.3041132897386
 20
686.53437111445555
 11
1355.7041089697375
 21
711.53434711446425
  0
LINE
  8
_0-0_計極細
  6
CONTINUOUS
 62
    2
 10
1314.2041461697297
 20
821.44132318882885
 11
1371.1040986497399
 21
821.44132318882885
  0
LINE
  8
_0-0_計極細
  6
CONTINUOUS
 62
    2
 10
1371.1040986497399
 20
805.58951587028332
 11
1371.1040986497399
 21
821.44132318882885
  0
LINE
  8
_0-0_計極細
  6
CENTER1
 62
    2
 10
1290.8008497370172
 20
706.03419691462614
 11
1464.4257386259053
 21
706.03419691462614
  0
LINE
  8
_0-1_計細線
  6
CONTINUOUS
 62
    3
 10
1257.0037602689461
 20
818.53425831448021
 11
1314.0037602689463
 21
818.53425831448021
  0
LINE
  8
_0-1_計細線
  6
CONTINUOUS
 62
    3
 10
1257.304187689723
 20
805.03427631447448
 11
1257.304187689723
 21
818.53425831448044
  0
TEXT
  8
_0-5_寸法線
 62
    7
 10
1020.1865027773275
 20
547.46841298999652
 40
24
 41
0.7999999999999999
 50
0
  1
※(　 )内はトラップ切断時
  0
LINE
  8
_0-e_極細4
  6
CONTINUOUS
 62
    6
 10
305.96041261381652
 20
553.43680889628058
 11
305.96041261381652
 21
585.72629345627331
  0
LINE
  8
_0-e_極細4
  6
CONTINUOUS
 62
    6
 10
370.64761061381796
 20
303.72629345627365
 11
364.76041261381761
 21
303.72629345627365
  0
LINE
  8
_0-e_極細4
  6
CONTINUOUS
 62
    6
 10
364.59374661381844
 20
313.72629345627365
 11
337.56041261381756
 21
313.72629345627365
  0
LINE
  8
_0-e_極細4
  6
CONTINUOUS
 62
    6
 10
337.56041261381756
 20
313.72629345627365
 11
336.76041261381829
 21
363.72629345627359
  0
LINE
  8
_0-e_極細4
  6
CONTINUOUS
 62
    6
 10
318.76041261381761
 20
379.72629345627359
 11
318.76041261381761
 21
527.66607289628075
  0
ARC
  8
_0-e_極細4
  6
CONTINUOUS
 62
    6
 10
334.76041261381761
 20
379.72629345627359
 40
16
 50
179.99999999999983
 51
269.99999999999977
  0
LINE
  8
_0-e_極細4
  6
CONTINUOUS
 62
    6
 10
419.76041261381829
 20
303.72629345627365
 11
370.64761061381796
 21
303.72629345627365
  0
LINE
  8
_0-e_極細4
  6
CONTINUOUS
 62
    6
 10
364.76041261381761
 20
303.72629345627365
 11
364.59374594715155
 21
313.72629345627365
  0
LINE
  8
_0-e_極細4
  6
CONTINUOUS
 62
    6
 10
313.76041261381761
 20
536.32632689628053
 11
313.76041261381761
 21
552.32632689628053
  0
ARC
  8
_0-e_極細4
  6
CONTINUOUS
 62
    6
 10
308.76041261381761
 20
527.66607289628075
 40
10
 50
0
 51
59.999999999998479
  0
LINE
  8
_0-e_極細4
  6
CONTINUOUS
 62
    6
 10
305.96041261381652
 20
552.32632689628053
 11
305.96041261381652
 21
553.43680889628058
  0
LINE
  8
_0-e_極細4
  6
CONTINUOUS
 62
    6
 10
313.76041261381761
 20
552.32632689628053
 11
305.96041261381652
 21
552.32632689628053
  0
LINE
  8
_0-e_極細4
  6
CONTINUOUS
 62
    6
 10
305.96041261381652
 20
585.72629345627331
 11
533.5604126138187
 21
585.72629345627331
  0
LINE
  8
_0-e_極細4
  6
CONTINUOUS
 62
    6
 10
533.5604126138187
 20
553.43680889628058
 11
533.5604126138187
 21
585.72629345627331
  0
LINE
  8
_0-e_極細4
  6
CONTINUOUS
 62
    6
 10
502.76041261381579
 20
363.72629345627359
 11
504.76041261381579
 21
363.72629345627303
  0
LINE
  8
_0-e_極細4
  6
CONTINUOUS
 62
    6
 10
468.87321461381543
 20
303.72629345627365
 11
474.76041261381579
 21
303.72629345627365
  0
LINE
  8
_0-e_極細4
  6
CONTINUOUS
 62
    6
 10
474.92707861381609
 20
313.72629345627365
 11
501.96041261381652
 21
313.72629345627365
  0
LINE
  8
_0-e_極細4
  6
CONTINUOUS
 62
    6
 10
501.96041261381652
 20
313.72629345627365
 11
502.76041261381579
 21
363.72629345627359
  0
LINE
  8
_0-e_極細4
  6
CONTINUOUS
 62
    6
 10
520.76041261381761
 20
379.72629345627359
 11
520.76041261381761
 21
527.66607289628075
  0
ARC
  8
_0-e_極細4
  6
CONTINUOUS
 62
    6
 10
504.76041261381761
 20
379.72629345627359
 40
16
 50
269.99999999999312
 51
359.99999999999966
  0
LINE
  8
_0-e_極細4
  6
CONTINUOUS
 62
    6
 10
419.76041261381579
 20
303.72629345627365
 11
468.87321461381543
 21
303.72629345627365
  0
LINE
  8
_0-e_極細4
  6
CONTINUOUS
 62
    6
 10
474.76041261381579
 20
303.72629345627365
 11
474.92707928048299
 21
313.72629345627365
  0
LINE
  8
_0-e_極細4
  6
CONTINUOUS
 62
    6
 10
525.76041261381874
 20
536.32632689628053
 11
525.76041261381874
 21
552.32632689628053
  0
ARC
  8
_0-e_極細4
  6
CONTINUOUS
 62
    6
 10
530.76041261381761
 20
527.66607289628075
 40
10
 50
119.99999999999589
 51
179.99999999999983
  0
LINE
  8
_0-e_極細4
  6
CONTINUOUS
 62
    6
 10
533.5604126138187
 20
552.32632689628053
 11
533.5604126138187
 21
553.43680889628058
  0
LINE
  8
_0-e_極細4
  6
CONTINUOUS
 62
    6
 10
525.76041261381874
 20
552.32632689628053
 11
533.5604126138187
 21
552.32632689628053
  0
LINE
  8
_0-e_極細4
  6
CONTINUOUS
 62
    6
 10
419.76041261381761
 20
583.72629345627331
 11
315.68923937401814
 21
583.72629345627331
  0
LINE
  8
_0-e_極細4
  6
CONTINUOUS
 62
    6
 10
336.76041261381829
 20
363.72629345627359
 11
334.76041261381761
 21
363.72629345627303
  0
LINE
  8
_0-e_極細4
  6
CONTINUOUS
 62
    6
 10
325.51041260624879
 20
484.58511397392834
 11
341.26041261381761
 21
484.58511397392834
  0
LINE
  8
_0-e_極細4
  6
CONTINUOUS
 62
    6
 10
365.76041261381761
 20
425.14197945627387
 11
365.76041261381761
 21
543.09050489628055
  0
ARC
  8
_0-e_極細4
  6
CONTINUOUS
 62
    6
 10
367.76041261381761
 20
425.14197945627387
 40
2
 50
179.99999999999983
 51
270.00045836623457
  0
LINE
  8
_0-e_極細4
  6
CONTINUOUS
 62
    6
 10
367.76041261381761
 20
423.14197945627325
 11
419.76041261381761
 21
423.14197945627387
  0
LINE
  8
_0-e_極細4
  6
CONTINUOUS
 62
    6
 10
364.59374594715155
 20
313.72629345627365
 11
363.76041261381761
 21
363.72629345627359
  0
LINE
  8
_0-e_極細4
  6
CONTINUOUS
 62
    6
 10
339.76041261381761
 20
368.72629345627359
 11
369.76041261381761
 21
368.72629345627359
  0
LINE
  8
_0-e_極細4
  6
CONTINUOUS
 62
    6
 10
323.76041261381761
 20
384.72629345627303
 11
323.76041261381761
 21
486.56942745627305
  0
LINE
  8
_0-e_極細4
  6
CONTINUOUS
 62
    6
 10
368.76041261381829
 20
303.72629345627365
 11
369.76041261381761
 21
368.72629345627359
  0
LINE
  8
_0-e_極細4
  6
CONTINUOUS
 62
    6
 10
363.76041261381761
 20
363.72629345627359
 11
343.76041261381761
 21
363.72629345627359
  0
ARC
  8
_0-e_極細4
  6
CONTINUOUS
 62
    6
 10
339.76041261381761
 20
384.72629345627359
 40
16
 50
180.00000000000168
 51
269.99999999999977
  0
LINE
  8
_0-e_極細4
  6
CONTINUOUS
 62
    6
 10
369.76041261381761
 20
368.72629345627359
 11
419.76041261381761
 21
368.72629345627359
  0
LINE
  8
_0-e_極細4
  6
CONTINUOUS
 62
    6
 10
369.75725461381808
 20
368.52094745627386
 11
369.76041261381761
 21
368.72629345627359
  0
LINE
  8
_0-e_極細4
  6
CONTINUOUS
 62
    6
 10
341.26041261381761
 20
412.72629345627359
 11
341.26041261381761
 21
466.72629345627359
  0
LINE
  8
_0-e_極細4
  6
CONTINUOUS
 62
    6
 10
365.26041261381761
 20
388.72629345627359
 11
369.76041261381761
 21
388.72629345627359
  0
LINE
  8
_0-e_極細4
  6
CONTINUOUS
 62
    6
 10
369.76041261381761
 20
368.72629345627359
 11
369.76041261381761
 21
388.72629345627359
  0
ARC
  8
_0-e_極細4
  6
CONTINUOUS
 62
    6
 10
365.26041261381761
 20
412.72629345627359
 40
24.000000000000004
 50
179.99999999999983
 51
269.99999999999977
  0
ARC
  8
_0-e_極細4
  6
CONTINUOUS
 62
    6
 10
325.76041261381761
 20
486.56942745627305
 40
2
 50
179.99999999999983
 51
262.81924399999616
  0
LINE
  8
_0-e_極細4
  6
CONTINUOUS
 62
    6
 10
323.76041261381761
 20
486.56942745627305
 11
323.76041261381761
 21
540.72632689628074
  0
LINE
  8
_0-e_極細4
  6
CONTINUOUS
 62
    6
 10
343.26041261381829
 20
313.72629345627365
 11
343.76041261381761
 21
363.72629345627359
  0
LINE
  8
_0-e_極細4
  6
CONTINUOUS
 62
    6
 10
419.76041261381761
 20
388.72629345627359
 11
417.89834461381724
 21
388.72629345627359
  0
LINE
  8
_0-e_極細4
  6
CONTINUOUS
 62
    6
 10
417.89834461381724
 20
388.72629345627359
 11
365.26041261381761
 21
388.72629345627359
  0
LINE
  8
_0-e_極細4
  6
CONTINUOUS
 62
    6
 10
341.26041261381761
 20
412.72629345627359
 11
341.26041261381761
 21
528.32632689628053
  0
LINE
  8
_0-e_極細4
  6
CONTINUOUS
 62
    6
 10
345.26041261381761
 20
412.72629345627359
 11
345.26041261381761
 21
528.32632689628053
  0
LINE
  8
_0-e_極細4
  6
CONTINUOUS
 62
    6
 10
419.76041261381761
 20
392.72629345627359
 11
365.26041261381761
 21
392.72629345627359
  0
ARC
  8
_0-e_極細4
  6
CONTINUOUS
 62
    6
 10
365.26041261381761
 20
412.72629345627359
 40
20
 50
179.99999999999983
 51
269.99999999999977
  0
LINE
  8
_0-e_極細4
  6
CONTINUOUS
 62
    6
 10
339.26041261381761
 20
557.14201289628045
 11
419.76041261381761
 21
557.14201289628045
  0
LINE
  8
_0-e_極細4
  6
CONTINUOUS
 62
    6
 10
339.26041261381761
 20
548.34201289628118
 11
339.26041261381761
 21
557.14201289628045
  0
LINE
  8
_0-e_極細4
  6
CONTINUOUS
 62
    6
 10
332.76041261381761
 20
557.14201289628045
 11
339.26041261381761
 21
557.14201289628045
  0
LINE
  8
_0-e_極細4
  6
CONTINUOUS
 62
    6
 10
334.76041261381761
 20
548.34201289628118
 11
339.26041261381761
 21
548.34201289628118
  0
LINE
  8
_0-e_極細4
  6
CONTINUOUS
 62
    6
 10
334.76041261381761
 20
546.34201289628118
 11
334.76041261381761
 21
548.34201289628118
  0
ARC
  8
_0-e_極細4
  6
CONTINUOUS
 62
    6
 10
338.76041261381761
 20
546.34201289628118
 40
4
 50
179.99999999999983
 51
269.99999999999977
  0
LINE
  8
_0-e_極細4
  6
CONTINUOUS
 62
    6
 10
338.76041261381761
 20
542.34201289628118
 11
344.76041261381761
 21
542.34201289628118
  0
LINE
  8
_0-e_極細4
  6
CONTINUOUS
 62
    6
 10
344.76041261381761
 20
542.34201289628118
 11
344.76041261381761
 21
548.34201289628118
  0
ARC
  8
_0-e_極細4
  6
CONTINUOUS
 62
    6
 10
319.80241261381707
 20
579.64045489628052
 40
2.1000000000000227
 50
4.150990000017166
 51
89.999999999999915
  0
LINE
  8
_0-e_極細4
  6
CONTINUOUS
 62
    6
 10
319.80241261381707
 20
551.09845489628105
 11
319.80241261381707
 21
581.74045489628054
  0
LINE
  8
_0-e_極細4
  6
CONTINUOUS
 62
    6
 10
319.80241261381707
 20
581.72632580377876
 11
305.96041261381652
 21
583.69784089628058
  0
LINE
  8
_0-e_極細4
  6
CONTINUOUS
 62
    6
 10
322.76041261381761
 20
542.32632689628053
 11
322.76041261381761
 21
548.14045489628052
  0
LINE
  8
_0-e_極細4
  6
CONTINUOUS
 62
    6
 10
319.80241261381707
 20
540.72632689628074
 11
322.76041261381761
 21
542.32632689628053
  0
LINE
  8
_0-e_極細4
  6
CONTINUOUS
 62
    6
 10
305.96041261381652
 20
580.32632689628053
 11
319.80241261381707
 21
578.72632689628131
  0
ARC
  8
_0-e_極細4
  6
CONTINUOUS
 62
    6
 10
343.26041261381761
 20
528.32632689628053
 40
2
 50
89.999999999999915
 51
179.99999999999983
  0
ARC
  8
_0-e_極細4
  6
CONTINUOUS
 62
    6
 10
343.26041261381761
 20
528.32632689628053
 40
2
 50
0
 51
89.999999999999915
  0
LINE
  8
_0-e_極細4
  6
CONTINUOUS
 62
    6
 10
419.76041261381761
 20
583.14045489628052
 11
319.80241261381707
 21
583.14045489628052
  0
LINE
  8
_0-e_極細4
  6
CONTINUOUS
 62
    6
 10
339.26041261381761
 20
556.14045489628052
 11
331.16041261381724
 21
556.14045489628052
  0
LINE
  8
_0-e_極細4
  6
CONTINUOUS
 62
    6
 10
325.27796461381695
 20
578.14045489628052
 11
327.66041261381724
 21
578.14045489628052
  0
LINE
  8
_0-e_極細4
  6
CONTINUOUS
 62
    6
 10
331.16041261381724
 20
553.54045489628072
 11
331.16041261381724
 21
574.64045489628052
  0
LINE
  8
_0-e_極細4
  6
CONTINUOUS
 62
    6
 10
326.76041261381761
 20
578.14045489628052
 11
326.76041261381761
 21
583.14045489628052
  0
ARC
  8
_0-e_極細4
  6
CONTINUOUS
 62
    6
 10
327.66041261381724
 20
574.64045489628052
 40
3.5000000000000018
 50
0
 51
89.999999999999915
  0
ARC
  8
_0-e_極細4
  6
CONTINUOUS
 62
    6
 10
319.80241261381707
 20
579.64045489628052
 40
3.5000000000000018
 50
4.1509899999967477
 51
89.999999999999915
  0
ARC
  8
_0-e_極細4
  6
CONTINUOUS
 62
    6
 10
325.27796461381695
 20
580.14045489628052
 40
2
 50
183.35088799998206
 51
269.99999999999977
  0
ARC
  8
_0-e_極細4
  6
CONTINUOUS
 62
    6
 10
325.27796461381695
 20
580.14045489628052
 40
3.3999999999999777
 50
183.35088800000156
 51
269.99999999999977
  0
LINE
  8
_0-e_極細4
  6
CONTINUOUS
 62
    6
 10
325.27796461381695
 20
576.74045489628054
 11
327.66041261381724
 21
576.74045489628054
  0
ARC
  8
_0-e_極細4
  6
CONTINUOUS
 62
    6
 10
327.66041261381724
 20
574.64045489628052
 40
2.1000000000000227
 50
0
 51
89.999999999999915
  0
LINE
  8
_0-e_極細4
  6
CONTINUOUS
 62
    6
 10
329.76041261381761
 20
552.14045489628052
 11
329.76041261381761
 21
574.64045489628052
  0
LINE
  8
_0-e_極細4
  6
CONTINUOUS
 62
    6
 10
319.80241261381707
 20
551.09845489628105
 11
322.76041261381761
 21
548.14045489628052
  0
LINE
  8
_0-e_極細4
  6
CONTINUOUS
 62
    6
 10
333.76041261381761
 20
544.14045489628052
 11
333.76041261381761
 21
556.14045489628052
  0
LINE
  8
_0-e_極細4
  6
CONTINUOUS
 62
    6
 10
338.26041261381761
 20
548.34201289628118
 11
338.26041261381761
 21
556.14045489628052
  0
LINE
  8
_0-e_極細4
  6
CONTINUOUS
 62
    6
 10
333.76041261381761
 20
552.14045489628052
 11
329.76041261381761
 21
552.14045489628052
  0
LINE
  8
_0-e_極細4
  6
CONTINUOUS
 62
    6
 10
333.76041261381761
 20
553.54045489628072
 11
331.16041261381724
 21
553.54045489628072
  0
LINE
  8
_0-e_極細4
  6
CONTINUOUS
 62
    6
 10
335.42078061381653
 20
544.14045489628052
 11
333.76041261381761
 21
544.14045489628052
  0
LINE
  8
_0-e_極細4
  6
CONTINUOUS
 62
    6
 10
333.76041261381761
 20
548.14045489628052
 11
322.76041261381761
 21
548.14045489628052
  0
LINE
  8
_0-e_極細4
  6
CONTINUOUS
 62
    6
 10
360.18778661381725
 20
544.74045489628088
 11
350.18778661381725
 21
544.74045489628088
  0
LINE
  8
_0-e_極細4
  6
CONTINUOUS
 62
    6
 10
360.18778661381725
 20
544.74045489628088
 11
360.18778661381725
 21
548.14045489628052
  0
LINE
  8
_0-e_極細4
  6
CONTINUOUS
 62
    6
 10
350.18778661381725
 20
544.74045489628088
 11
350.18778661381725
 21
548.14045489628052
  0
LINE
  8
_0-e_極細4
  6
CONTINUOUS
 62
    6
 10
357.18778661381725
 20
544.74045489628088
 11
357.18778661381725
 21
548.14045489628052
  0
LINE
  8
_0-e_極細4
  6
CONTINUOUS
 62
    6
 10
326.86041261381797
 20
578.54045489628129
 11
326.86041261381797
 21
581.14045489628052
  0
LINE
  8
_0-e_極細4
  6
CONTINUOUS
 62
    6
 10
419.76041261381761
 20
582.14045489628052
 11
327.86041261381797
 21
582.14045489628052
  0
LINE
  8
_0-e_極細4
  6
CONTINUOUS
 62
    6
 10
331.16041261381724
 20
578.14045489628052
 11
327.26041261381761
 21
578.14045489628052
  0
LINE
  8
_0-e_極細4
  6
CONTINUOUS
 62
    6
 10
331.16041261381724
 20
572.14045489628052
 11
331.16041261381724
 21
578.14045489628052
  0
LINE
  8
_0-e_極細4
  6
CONTINUOUS
 62
    6
 10
333.36041261381797
 20
571.14045489628052
 11
333.36041261381797
 21
573.14045489628052
  0
ARC
  8
_0-e_極細4
  6
CONTINUOUS
 62
    6
 10
332.16041261381724
 20
572.14045489628052
 40
1
 50
179.99999999999983
 51
269.99999999999977
  0
ARC
  8
_0-e_極細4
  6
CONTINUOUS
 62
    6
 10
327.86041261381797
 20
581.14045489628052
 40
1
 50
155.94545100000988
 51
179.99999999999983
  0
ARC
  8
_0-e_極細4
  6
CONTINUOUS
 62
    6
 10
327.26041261381761
 20
578.54045489628129
 40
0.3999999999999773
 50
179.99999999999983
 51
269.99999999999977
  0
ARC
  8
_0-e_極細4
  6
CONTINUOUS
 62
    6
 10
327.86041261381797
 20
581.14045489628052
 40
1
 50
89.999999999999915
 51
155.94545100000988
  0
LINE
  8
_0-e_極細4
  6
CONTINUOUS
 62
    6
 10
419.36041261381797
 20
573.14045489628052
 11
333.36041261381797
 21
573.14045489628052
  0
LINE
  8
_0-e_極細4
  6
CONTINUOUS
 62
    6
 10
419.36041261381797
 20
571.14045489628052
 11
332.16041261381724
 21
571.14045489628052
  0
LINE
  8
_0-e_極細4
  6
CONTINUOUS
 62
    6
 10
419.76041261381761
 20
568.95267489628088
 11
331.46041261381652
 21
568.95267489628031
  0
LINE
  8
_0-e_極細4
  6
CONTINUOUS
 62
    6
 10
340.26041261381761
 20
568.95267489628031
 11
340.26041261381761
 21
567.95267489628031
  0
LINE
  8
_0-e_極細4
  6
CONTINUOUS
 62
    6
 10
333.06041261381756
 20
565.95267489628031
 11
331.46041261381652
 21
568.95267489628031
  0
LINE
  8
_0-e_極細4
  6
CONTINUOUS
 62
    6
 10
341.26041261381761
 20
562.35267489628052
 11
340.26041261381761
 21
563.35267489628052
  0
LINE
  8
_0-e_極細4
  6
CONTINUOUS
 62
    6
 10
340.26041261381761
 20
561.35267489628052
 11
341.26041261381761
 21
562.35267489628052
  0
LINE
  8
_0-e_極細4
  6
CONTINUOUS
 62
    6
 10
340.26041261381761
 20
565.95267489628031
 11
341.26041261381761
 21
566.95267489628031
  0
LINE
  8
_0-e_極細4
  6
CONTINUOUS
 62
    6
 10
341.26041261381761
 20
566.95267489628031
 11
340.26041261381761
 21
567.95267489628031
  0
LINE
  8
_0-e_極細4
  6
CONTINUOUS
 62
    6
 10
419.76041261381761
 20
566.95267489628088
 11
341.26041261381761
 21
566.95267489628031
  0
LINE
  8
_0-e_極細4
  6
CONTINUOUS
 62
    6
 10
419.76041261381761
 20
562.35267489628052
 11
341.26041261381761
 21
562.35267489628052
  0
LINE
  8
_0-e_極細4
  6
CONTINUOUS
 62
    6
 10
419.76041261381761
 20
560.35267489628052
 11
333.06041261381756
 21
560.35267489628052
  0
LINE
  8
_0-e_極細4
  6
CONTINUOUS
 62
    6
 10
333.06041261381756
 20
565.95267489628031
 11
333.06041261381756
 21
560.35267489628052
  0
LINE
  8
_0-e_極細4
  6
CONTINUOUS
 62
    6
 10
340.26041261381761
 20
561.35267489628052
 11
340.26041261381761
 21
560.35267489628052
  0
LINE
  8
_0-e_極細4
  6
CONTINUOUS
 62
    6
 10
340.26041261381761
 20
565.95267489628031
 11
340.26041261381761
 21
563.35267489628052
  0
LINE
  8
_0-e_極細4
  6
CONTINUOUS
 62
    6
 10
332.76041261381761
 20
557.14201289628045
 11
332.76041261381761
 21
560.14201289628045
  0
LINE
  8
_0-e_極細4
  6
CONTINUOUS
 62
    6
 10
332.76041261381761
 20
560.14201289628045
 11
419.76041261381761
 21
560.14201289628045
  0
LINE
  8
_0-e_極細4
  6
CONTINUOUS
 62
    6
 10
332.76041261381761
 20
569.34201289628083
 11
419.76041261381761
 21
569.34201289628083
  0
LINE
  8
_0-e_極細4
  6
CONTINUOUS
 62
    6
 10
332.76041261381761
 20
569.34201289628083
 11
332.76041261381761
 21
571.14045489628052
  0
LINE
  8
_0-e_極細4
  6
CONTINUOUS
 62
    6
 10
365.76041261381761
 20
542.32632689628053
 11
322.76041261381761
 21
542.32632689628053
  0
LINE
  8
_0-e_極細4
  6
CONTINUOUS
 62
    6
 10
365.76041261381761
 20
540.13499889628088
 11
365.76041261381761
 21
543.09050489628055
  0
LINE
  8
_0-e_極細4
  6
CONTINUOUS
 62
    6
 10
319.80241261381707
 20
583.14045489628052
 11
305.96041261381652
 21
585.11196892562123
  0
LINE
  8
_0-e_極細4
  6
CONTINUOUS
 62
    6
 10
343.26041261381761
 20
530.32632689628053
 11
365.76041261381761
 21
530.32632689628053
  0
LINE
  8
_0-e_極細4
  6
CONTINUOUS
 62
    6
 10
365.76041261381761
 20
540.72632689628074
 11
319.80241261381707
 21
540.72632689628074
  0
LINE
  8
_0-e_極細4
  6
CONTINUOUS
 62
    6
 10
419.76041261381761
 20
583.72629345627331
 11
523.83158585361707
 21
583.72629345627331
  0
LINE
  8
_0-e_極細4
  6
CONTINUOUS
 62
    6
 10
514.01041262138642
 20
484.58511397392834
 11
498.26041261381761
 21
484.58511397392834
  0
LINE
  8
_0-e_極細4
  6
CONTINUOUS
 62
    6
 10
473.76041261381579
 20
425.14197945627387
 11
473.76041261381579
 21
543.09050489628055
  0
ARC
  8
_0-e_極細4
  6
CONTINUOUS
 62
    6
 10
471.76041261381579
 20
425.14197945627387
 40
2
 50
269.99954163379726
 51
359.99999999999966
  0
LINE
  8
_0-e_極細4
  6
CONTINUOUS
 62
    6
 10
471.76041261381579
 20
423.14197945627325
 11
419.76041261381761
 21
423.14197945627387
  0
LINE
  8
_0-e_極細4
  6
CONTINUOUS
 62
    6
 10
474.92707928048299
 20
313.72629345627365
 11
475.76041261381579
 21
363.72629345627359
  0
LINE
  8
_0-e_極細4
  6
CONTINUOUS
 62
    6
 10
499.76041261381761
 20
368.72629345627359
 11
469.76041261381579
 21
368.72629345627359
  0
LINE
  8
_0-e_極細4
  6
CONTINUOUS
 62
    6
 10
515.76041261381761
 20
384.72629345627303
 11
515.76041261381761
 21
486.56942745627305
  0
LINE
  8
_0-e_極細4
  6
CONTINUOUS
 62
    6
 10
470.76041261381579
 20
303.72629345627365
 11
469.76041261381579
 21
368.72629345627359
  0
LINE
  8
_0-e_極細4
  6
CONTINUOUS
 62
    6
 10
475.76041261381579
 20
363.72629345627359
 11
495.76041261381579
 21
363.72629345627359
  0
ARC
  8
_0-e_極細4
  6
CONTINUOUS
 62
    6
 10
499.76041261381761
 20
384.72629345627359
 40
16
 50
269.99999999999977
 51
359.99999999999761
  0
LINE
  8
_0-e_極細4
  6
CONTINUOUS
 62
    6
 10
469.76041261381579
 20
368.72629345627359
 11
419.76041261381761
 21
368.72629345627359
  0
LINE
  8
_0-e_極細4
  6
CONTINUOUS
 62
    6
 10
469.76357061381532
 20
368.52094745627386
 11
469.76041261381579
 21
368.72629345627359
  0
LINE
  8
_0-e_極細4
  6
CONTINUOUS
 62
    6
 10
498.26041261381761
 20
412.72629345627359
 11
498.26041261381761
 21
466.72629345627359
  0
LINE
  8
_0-e_極細4
  6
CONTINUOUS
 62
    6
 10
474.26041261381579
 20
388.72629345627359
 11
469.76041261381579
 21
388.72629345627359
  0
LINE
  8
_0-e_極細4
  6
CONTINUOUS
 62
    6
 10
469.76041261381579
 20
368.72629345627359
 11
469.76041261381579
 21
388.72629345627359
  0
ARC
  8
_0-e_極細4
  6
CONTINUOUS
 62
    6
 10
474.26041261381579
 20
412.72629345627359
 40
24.000000000000004
 50
269.99999999999977
 51
359.99999999999966
  0
ARC
  8
_0-e_極細4
  6
CONTINUOUS
 62
    6
 10
513.76041261381761
 20
486.56942745627305
 40
2
 50
277.18075600000316
 51
359.99999999999966
  0
LINE
  8
_0-e_極細4
  6
CONTINUOUS
 62
    6
 10
515.76041261381761
 20
486.56942745627305
 11
515.76041261381761
 21
540.72632689628074
  0
LINE
  8
_0-e_極細4
  6
CONTINUOUS
 62
    6
 10
496.26041261381579
 20
313.72629345627365
 11
495.76041261381579
 21
363.72629345627359
  0
LINE
  8
_0-e_極細4
  6
CONTINUOUS
 62
    6
 10
419.76041261381761
 20
388.72629345627359
 11
421.62248061381683
 21
388.72629345627359
  0
LINE
  8
_0-e_極細4
  6
CONTINUOUS
 62
    6
 10
421.62248061381683
 20
388.72629345627359
 11
474.26041261381579
 21
388.72629345627359
  0
LINE
  8
_0-e_極細4
  6
CONTINUOUS
 62
    6
 10
498.26041261381761
 20
412.72629345627359
 11
498.26041261381761
 21
528.32632689628053
  0
LINE
  8
_0-e_極細4
  6
CONTINUOUS
 62
    6
 10
494.26041261381761
 20
412.72629345627359
 11
494.26041261381761
 21
528.32632689628053
  0
LINE
  8
_0-e_極細4
  6
CONTINUOUS
 62
    6
 10
419.76041261381761
 20
392.72629345627359
 11
474.26041261381579
 21
392.72629345627359
  0
ARC
  8
_0-e_極細4
  6
CONTINUOUS
 62
    6
 10
474.26041261381579
 20
412.72629345627359
 40
20
 50
269.99999999999977
 51
359.99999999999966
  0
LINE
  8
_0-e_極細4
  6
CONTINUOUS
 62
    6
 10
500.26041261381761
 20
557.14201289628045
 11
419.76041261381761
 21
557.14201289628045
  0
LINE
  8
_0-e_極細4
  6
CONTINUOUS
 62
    6
 10
500.26041261381761
 20
548.34201289628118
 11
500.26041261381761
 21
557.14201289628045
  0
LINE
  8
_0-e_極細4
  6
CONTINUOUS
 62
    6
 10
506.76041261381761
 20
557.14201289628045
 11
500.26041261381761
 21
557.14201289628045
  0
LINE
  8
_0-e_極細4
  6
CONTINUOUS
 62
    6
 10
504.76041261381761
 20
548.34201289628118
 11
500.26041261381761
 21
548.34201289628118
  0
LINE
  8
_0-e_極細4
  6
CONTINUOUS
 62
    6
 10
504.76041261381761
 20
546.34201289628118
 11
504.76041261381761
 21
548.34201289628118
  0
ARC
  8
_0-e_極細4
  6
CONTINUOUS
 62
    6
 10
500.76041261381761
 20
546.34201289628118
 40
4
 50
269.99999999999977
 51
359.99999999999966
  0
LINE
  8
_0-e_極細4
  6
CONTINUOUS
 62
    6
 10
500.76041261381761
 20
542.34201289628118
 11
494.76041261381761
 21
542.34201289628118
  0
LINE
  8
_0-e_極細4
  6
CONTINUOUS
 62
    6
 10
494.76041261381761
 20
542.34201289628118
 11
494.76041261381761
 21
548.34201289628118
  0
ARC
  8
_0-e_極細4
  6
CONTINUOUS
 62
    6
 10
519.71841261381746
 20
579.64045489628052
 40
2.1000000000000227
 50
89.999999999999915
 51
175.84900999998283
  0
LINE
  8
_0-e_極細4
  6
CONTINUOUS
 62
    6
 10
519.71841261381746
 20
551.09845489628105
 11
519.71841261381746
 21
581.74045489628054
  0
LINE
  8
_0-e_極細4
  6
CONTINUOUS
 62
    6
 10
519.71841261381746
 20
581.72632580377876
 11
533.5604126138187
 21
583.69784089628058
  0
LINE
  8
_0-e_極細4
  6
CONTINUOUS
 62
    6
 10
516.76041261381874
 20
542.32632689628053
 11
516.76041261381874
 21
548.14045489628052
  0
LINE
  8
_0-e_極細4
  6
CONTINUOUS
 62
    6
 10
519.71841261381746
 20
540.72632689628074
 11
516.76041261381874
 21
542.32632689628053
  0
LINE
  8
_0-e_極細4
  6
CONTINUOUS
 62
    6
 10
533.5604126138187
 20
580.32632689628053
 11
519.71841261381746
 21
578.72632689628131
  0
ARC
  8
_0-e_極細4
  6
CONTINUOUS
 62
    6
 10
496.26041261381761
 20
528.32632689628053
 40
2
 50
0
 51
89.999999999999915
  0
ARC
  8
_0-e_極細4
  6
CONTINUOUS
 62
    6
 10
496.26041261381761
 20
528.32632689628053
 40
2
 50
89.999999999999915
 51
179.99999999999983
  0
LINE
  8
_0-e_極細4
  6
CONTINUOUS
 62
    6
 10
419.76041261381761
 20
583.14045489628052
 11
519.71841261381746
 21
583.14045489628052
  0
LINE
  8
_0-e_極細4
  6
CONTINUOUS
 62
    6
 10
500.26041261381761
 20
556.14045489628052
 11
508.36041261381729
 21
556.14045489628052
  0
LINE
  8
_0-e_極細4
  6
CONTINUOUS
 62
    6
 10
514.24286061381758
 20
578.14045489628052
 11
511.86041261381729
 21
578.14045489628052
  0
LINE
  8
_0-e_極細4
  6
CONTINUOUS
 62
    6
 10
508.36041261381729
 20
553.54045489628072
 11
508.36041261381729
 21
574.64045489628052
  0
LINE
  8
_0-e_極細4
  6
CONTINUOUS
 62
    6
 10
512.76041261381761
 20
578.14045489628052
 11
512.76041261381761
 21
583.14045489628052
  0
ARC
  8
_0-e_極細4
  6
CONTINUOUS
 62
    6
 10
511.86041261381729
 20
574.64045489628052
 40
3.5000000000000018
 50
89.999999999999915
 51
179.99999999999983
  0
ARC
  8
_0-e_極細4
  6
CONTINUOUS
 62
    6
 10
519.71841261381746
 20
579.64045489628052
 40
3.5000000000000018
 50
89.999999999999915
 51
175.84901000000244
  0
ARC
  8
_0-e_極細4
  6
CONTINUOUS
 62
    6
 10
514.24286061381758
 20
580.14045489628052
 40
2
 50
269.99999999999977
 51
356.64911200001723
  0
ARC
  8
_0-e_極細4
  6
CONTINUOUS
 62
    6
 10
514.24286061381758
 20
580.14045489628052
 40
3.3999999999999777
 50
269.99999999999977
 51
356.64911199999841
  0
LINE
  8
_0-e_極細4
  6
CONTINUOUS
 62
    6
 10
514.24286061381758
 20
576.74045489628054
 11
511.86041261381729
 21
576.74045489628054
  0
ARC
  8
_0-e_極細4
  6
CONTINUOUS
 62
    6
 10
511.86041261381729
 20
574.64045489628052
 40
2.1000000000000227
 50
89.999999999999915
 51
179.99999999999983
  0
LINE
  8
_0-e_極細4
  6
CONTINUOUS
 62
    6
 10
509.76041261381761
 20
552.14045489628052
 11
509.76041261381761
 21
574.64045489628052
  0
LINE
  8
_0-e_極細4
  6
CONTINUOUS
 62
    6
 10
519.71841261381746
 20
551.09845489628105
 11
516.76041261381874
 21
548.14045489628052
  0
LINE
  8
_0-e_極細4
  6
CONTINUOUS
 62
    6
 10
505.76041261381761
 20
544.14045489628052
 11
505.76041261381761
 21
556.14045489628052
  0
LINE
  8
_0-e_極細4
  6
CONTINUOUS
 62
    6
 10
501.26041261381761
 20
548.34201289628118
 11
501.26041261381761
 21
556.14045489628052
  0
LINE
  8
_0-e_極細4
  6
CONTINUOUS
 62
    6
 10
505.76041261381761
 20
552.14045489628052
 11
509.76041261381761
 21
552.14045489628052
  0
LINE
  8
_0-e_極細4
  6
CONTINUOUS
 62
    6
 10
505.76041261381761
 20
553.54045489628072
 11
508.36041261381729
 21
553.54045489628072
  0
LINE
  8
_0-e_極細4
  6
CONTINUOUS
 62
    6
 10
504.100044613818
 20
544.14045489628052
 11
505.76041261381761
 21
544.14045489628052
  0
LINE
  8
_0-e_極細4
  6
CONTINUOUS
 62
    6
 10
505.76041261381761
 20
548.14045489628052
 11
516.76041261381874
 21
548.14045489628052
  0
LINE
  8
_0-e_極細4
  6
CONTINUOUS
 62
    6
 10
479.33303861381683
 20
544.74045489628088
 11
489.33303861381683
 21
544.74045489628088
  0
LINE
  8
_0-e_極細4
  6
CONTINUOUS
 62
    6
 10
479.33303861381683
 20
544.74045489628088
 11
479.33303861381683
 21
548.14045489628052
  0
LINE
  8
_0-e_極細4
  6
CONTINUOUS
 62
    6
 10
489.33303861381683
 20
544.74045489628088
 11
489.33303861381683
 21
548.14045489628052
  0
LINE
  8
_0-e_極細4
  6
CONTINUOUS
 62
    6
 10
482.33303861381683
 20
544.74045489628088
 11
482.33303861381683
 21
548.14045489628052
  0
LINE
  8
_0-e_極細4
  6
CONTINUOUS
 62
    6
 10
512.66041261381724
 20
578.54045489628129
 11
512.66041261381724
 21
581.14045489628052
  0
LINE
  8
_0-e_極細4
  6
CONTINUOUS
 62
    6
 10
419.76041261381761
 20
582.14045489628052
 11
511.66041261381724
 21
582.14045489628052
  0
LINE
  8
_0-e_極細4
  6
CONTINUOUS
 62
    6
 10
508.36041261381797
 20
578.14045489628052
 11
512.26041261381761
 21
578.14045489628052
  0
LINE
  8
_0-e_極細4
  6
CONTINUOUS
 62
    6
 10
508.36041261381729
 20
572.14045489628052
 11
508.36041261381797
 21
578.14045489628052
  0
LINE
  8
_0-e_極細4
  6
CONTINUOUS
 62
    6
 10
506.16041261381724
 20
571.14045489628052
 11
506.16041261381724
 21
573.14045489628052
  0
ARC
  8
_0-e_極細4
  6
CONTINUOUS
 62
    6
 10
507.36041261381729
 20
572.14045489628052
 40
1
 50
269.99999999999977
 51
359.99999999999966
  0
ARC
  8
_0-e_極細4
  6
CONTINUOUS
 62
    6
 10
511.66041261381724
 20
581.14045489628052
 40
1
 50
0
 51
24.05454900000607
  0
ARC
  8
_0-e_極細4
  6
CONTINUOUS
 62
    6
 10
512.26041261381761
 20
578.54045489628129
 40
0.3999999999999773
 50
269.99999999999977
 51
359.99999999999966
  0
ARC
  8
_0-e_極細4
  6
CONTINUOUS
 62
    6
 10
511.66041261381724
 20
581.14045489628052
 40
1
 50
24.05454900000607
 51
89.999999999999915
  0
LINE
  8
_0-e_極細4
  6
CONTINUOUS
 62
    6
 10
420.16041261381724
 20
573.14045489628052
 11
506.16041261381724
 21
573.14045489628052
  0
LINE
  8
_0-e_極細4
  6
CONTINUOUS
 62
    6
 10
420.16041261381724
 20
571.14045489628052
 11
507.36041261381729
 21
571.14045489628052
  0
LINE
  8
_0-e_極細4
  6
CONTINUOUS
 62
    6
 10
419.76041261381761
 20
568.95267489628088
 11
508.06041261381802
 21
568.95267489628031
  0
LINE
  8
_0-e_極細4
  6
CONTINUOUS
 62
    6
 10
499.26041261381761
 20
568.95267489628031
 11
499.26041261381761
 21
567.95267489628031
  0
LINE
  8
_0-e_極細4
  6
CONTINUOUS
 62
    6
 10
506.46041261381652
 20
565.95267489628031
 11
508.06041261381802
 21
568.95267489628031
  0
LINE
  8
_0-e_極細4
  6
CONTINUOUS
 62
    6
 10
498.26041261381761
 20
562.35267489628052
 11
499.26041261381761
 21
563.35267489628052
  0
LINE
  8
_0-e_極細4
  6
CONTINUOUS
 62
    6
 10
499.26041261381761
 20
561.35267489628052
 11
498.26041261381761
 21
562.35267489628052
  0
LINE
  8
_0-e_極細4
  6
CONTINUOUS
 62
    6
 10
499.26041261381761
 20
565.95267489628031
 11
498.26041261381761
 21
566.95267489628031
  0
LINE
  8
_0-e_極細4
  6
CONTINUOUS
 62
    6
 10
498.26041261381761
 20
566.95267489628031
 11
499.26041261381761
 21
567.95267489628031
  0
LINE
  8
_0-e_極細4
  6
CONTINUOUS
 62
    6
 10
419.76041261381761
 20
566.95267489628088
 11
498.26041261381761
 21
566.95267489628031
  0
LINE
  8
_0-e_極細4
  6
CONTINUOUS
 62
    6
 10
419.76041261381761
 20
562.35267489628052
 11
498.26041261381761
 21
562.35267489628052
  0
LINE
  8
_0-e_極細4
  6
CONTINUOUS
 62
    6
 10
419.76041261381761
 20
560.35267489628052
 11
506.46041261381652
 21
560.35267489628052
  0
LINE
  8
_0-e_極細4
  6
CONTINUOUS
 62
    6
 10
506.46041261381652
 20
565.95267489628031
 11
506.46041261381652
 21
560.35267489628052
  0
LINE
  8
_0-e_極細4
  6
CONTINUOUS
 62
    6
 10
499.26041261381761
 20
561.35267489628052
 11
499.26041261381761
 21
560.35267489628052
  0
LINE
  8
_0-e_極細4
  6
CONTINUOUS
 62
    6
 10
499.26041261381761
 20
565.95267489628031
 11
499.26041261381761
 21
563.35267489628052
  0
LINE
  8
_0-e_極細4
  6
CONTINUOUS
 62
    6
 10
506.76041261381761
 20
557.14201289628045
 11
506.76041261381761
 21
560.14201289628045
  0
LINE
  8
_0-e_極細4
  6
CONTINUOUS
 62
    6
 10
506.76041261381761
 20
560.14201289628045
 11
419.76041261381761
 21
560.14201289628045
  0
LINE
  8
_0-e_極細4
  6
CONTINUOUS
 62
    6
 10
506.76041261381761
 20
569.34201289628083
 11
419.76041261381761
 21
569.34201289628083
  0
LINE
  8
_0-e_極細4
  6
CONTINUOUS
 62
    6
 10
506.76041261381761
 20
569.34201289628083
 11
506.76041261381761
 21
571.14045489628052
  0
LINE
  8
_0-e_極細4
  6
CONTINUOUS
 62
    6
 10
473.76041261381579
 20
542.32632689628053
 11
516.76041261381874
 21
542.32632689628053
  0
LINE
  8
_0-e_極細4
  6
CONTINUOUS
 62
    6
 10
473.76041261381579
 20
540.13499889628088
 11
473.76041261381579
 21
543.09050489628055
  0
LINE
  8
_0-e_極細4
  6
CONTINUOUS
 62
    6
 10
519.71841261381746
 20
583.14045489628052
 11
533.5604126138187
 21
585.11196892562123
  0
LINE
  8
_0-e_極細4
  6
CONTINUOUS
 62
    6
 10
496.26041261381761
 20
530.32632689628053
 11
473.76041261381579
 21
530.32632689628053
  0
LINE
  8
_0-e_極細4
  6
CONTINUOUS
 62
    6
 10
473.76041261381579
 20
540.72632689628074
 11
519.71841261381746
 21
540.72632689628074
  0
LINE
  8
_0-e_極細4
  6
CONTINUOUS
 62
    6
 10
367.32404599840811
 20
303.72629345627365
 11
368.78285584218429
 21
305.18510330004983
  0
LINE
  8
_0-e_極細4
  6
CONTINUOUS
 62
    6
 10
364.73288790394145
 20
305.37777604892574
 11
368.84914710291991
 21
309.49403524790534
  0
LINE
  8
_0-e_極細4
  6
CONTINUOUS
 62
    6
 10
364.66333641726669
 20
309.55086524937099
 11
368.91543836365668
 21
313.80296719576086
  0
LINE
  8
_0-e_極細4
  6
CONTINUOUS
 62
    6
 10
364.59378493059262
 20
313.72395444981657
 11
368.98172962439094
 21
318.11189914361648
  0
LINE
  8
_0-e_極細4
  6
CONTINUOUS
 62
    6
 10
364.52423344391786
 20
317.89704365026114
 11
369.0480208851277
 21
322.42083109147165
  0
LINE
  8
_0-e_極細4
  6
CONTINUOUS
 62
    6
 10
364.45468195724425
 20
322.07013285070639
 11
369.11431214586446
 21
326.72976303932728
  0
LINE
  8
_0-e_極細4
  6
CONTINUOUS
 62
    6
 10
364.38513047056949
 20
326.24322205115163
 11
369.18060340660122
 21
331.03869498718251
  0
LINE
  8
_0-e_極細4
  6
CONTINUOUS
 62
    6
 10
364.31557898389656
 20
330.4163112515966
 11
369.24689466733798
 21
335.34762693503836
  0
LINE
  8
_0-e_極細4
  6
CONTINUOUS
 62
    6
 10
364.24602749722249
 20
334.58940045204184
 11
369.31318592807293
 21
339.65655888289388
  0
LINE
  8
_0-e_極細4
  6
CONTINUOUS
 62
    6
 10
339.14027981433355
 20
313.72629345627365
 11
343.30203011684353
 21
317.88804375878294
  0
LINE
  8
_0-e_極細4
  6
CONTINUOUS
 62
    6
 10
364.17647601054773
 20
338.76248965248709
 11
369.37947718880969
 21
343.96549083074916
  0
LINE
  8
_0-e_極細4
  6
CONTINUOUS
 62
    6
 10
337.51847917308328
 20
316.3471335021427
 11
343.3448850732791
 21
322.17353940233784
  0
LINE
  8
_0-e_極細4
  6
CONTINUOUS
 62
    6
 10
364.10692452387411
 20
342.93557885293234
 11
369.44576844954645
 21
348.27442277860467
  0
LINE
  8
_0-e_極細4
  6
CONTINUOUS
 62
    6
 10
337.45166593391514
 20
320.52296095009456
 11
343.387740029714
 21
326.45903504589251
  0
LINE
  8
_0-e_極細4
  6
CONTINUOUS
 62
    6
 10
364.03737303719936
 20
347.10866805337758
 11
369.51205971028139
 21
352.58335472646053
  0
LINE
  8
_0-e_極細4
  6
CONTINUOUS
 62
    6
 10
337.38485269474836
 20
324.69878839804687
 11
343.43059498614889
 21
330.74453068944734
  0
LINE
  8
_0-e_極細4
  6
CONTINUOUS
 62
    6
 10
363.9678215505246
 20
351.28175725382226
 11
369.57835097101815
 21
356.89228667431581
  0
LINE
  8
_0-e_極細4
  6
CONTINUOUS
 62
    6
 10
337.31803945558204
 20
328.87461584599845
 11
343.47344994258492
 21
335.03002633300224
  0
LINE
  8
_0-e_極細4
  6
CONTINUOUS
 62
    6
 10
363.89827006384985
 20
355.45484645426751
 11
369.64464223175378
 21
361.20121862217076
  0
LINE
  8
_0-e_極細4
  6
CONTINUOUS
 62
    6
 10
337.25122621641458
 20
333.05044329395042
 11
343.51630489902163
 21
339.31552197655714
  0
LINE
  8
_0-e_極細4
  6
CONTINUOUS
 62
    6
 10
363.8287185771776
 20
359.62793565471276
 11
369.71093349249054
 21
365.51015057002661
  0
LINE
  8
_0-e_極細4
  6
CONTINUOUS
 62
    6
 10
337.1844129772478
 20
337.22627074190297
 11
343.55915985545653
 21
343.60101762011146
  0
LINE
  8
_0-e_極細4
  6
CONTINUOUS
 62
    6
 10
363.684435691619
 20
363.72629345627359
 11
368.684435691619
 21
368.72629345627359
  0
LINE
  8
_0-e_極細4
  6
CONTINUOUS
 62
    6
 10
337.11759973807966
 20
341.40209818985517
 11
343.60201481189142
 21
347.88651326366636
  0
LINE
  8
_0-e_極細4
  6
CONTINUOUS
 62
    6
 10
359.441795004499
 20
363.72629345627359
 11
364.44179500449968
 21
368.72629345627359
  0
LINE
  8
_0-e_極細4
  6
CONTINUOUS
 62
    6
 10
337.05078649891402
 20
345.5779256378068
 11
343.64486976832814
 21
352.17200890722091
  0
LINE
  8
_0-e_極細4
  6
CONTINUOUS
 62
    6
 10
355.19915431738082
 20
363.72629345627359
 11
360.19915431737968
 21
368.72629345627359
  0
LINE
  8
_0-e_極細4
  6
CONTINUOUS
 62
    6
 10
336.98397325974656
 20
349.75375308575934
 11
343.68772472476303
 21
356.45750455077581
  0
LINE
  8
_0-e_極細4
  6
CONTINUOUS
 62
    6
 10
350.95651363026082
 20
363.72629345627359
 11
355.95651363025968
 21
368.72629345627359
  0
LINE
  8
_0-e_極細4
  6
CONTINUOUS
 62
    6
 10
336.9171600205791
 20
353.92958053371132
 11
343.73057968119792
 21
360.7430001943307
  0
LINE
  8
_0-e_極細4
  6
CONTINUOUS
 62
    6
 10
346.71387294314081
 20
363.72629345627359
 11
351.71387294314081
 21
368.72629345627359
  0
LINE
  8
_0-e_極細4
  6
CONTINUOUS
 62
    6
 10
336.85034678141164
 20
358.10540798166352
 11
347.47123225602263
 21
368.72629345627359
  0
LINE
  8
_0-e_極細4
  6
CONTINUOUS
 62
    6
 10
336.78353354224419
 20
362.28123542961549
 11
343.22859156890263
 21
368.72629345627359
  0
LINE
  8
_0-e_極細4
  6
CONTINUOUS
 62
    6
 10
334.00384807583578
 20
363.74419065032617
 11
339.00384807583578
 21
368.74419065032617
  0
LINE
  8
_0-e_極細4
  6
CONTINUOUS
 62
    6
 10
330.36024929184168
 20
364.34323255345117
 11
335.36024929184168
 21
369.34323255345117
  0
LINE
  8
_0-e_極細4
  6
CONTINUOUS
 62
    6
 10
327.33043762359921
 20
365.55606157232927
 11
332.33043762360103
 21
370.55606157232927
  0
LINE
  8
_0-e_極細4
  6
CONTINUOUS
 62
    6
 10
324.76464521063281
 20
367.23290984648139
 11
329.76464521063281
 21
372.23290984648139
  0
LINE
  8
_0-e_極細4
  6
CONTINUOUS
 62
    6
 10
322.60788608320763
 20
369.3187914061744
 11
327.60788608320763
 21
374.3187914061744
  0
LINE
  8
_0-e_極細4
  6
CONTINUOUS
 62
    6
 10
320.856173692011
 20
371.80971970209742
 11
325.856173692011
 21
376.80971970209742
  0
LINE
  8
_0-e_極細4
  6
CONTINUOUS
 62
    6
 10
319.55391634030934
 20
374.75010303751463
 11
324.55391634030934
 21
379.75010303751407
  0
LINE
  8
_0-e_極細4
  6
CONTINUOUS
 62
    6
 10
318.82718968573863
 20
378.26601707006358
 11
323.82718968573795
 21
383.26601707006324
  0
LINE
  8
_0-e_極細4
  6
CONTINUOUS
 62
    6
 10
318.76041261381874
 20
382.44188068526222
 11
323.76041261381579
 21
387.44188068526222
  0
LINE
  8
_0-e_極細4
  6
CONTINUOUS
 62
    6
 10
318.76041261381874
 20
386.68452137238131
 11
323.76041261381579
 21
391.68452137238131
  0
LINE
  8
_0-e_極細4
  6
CONTINUOUS
 62
    6
 10
318.76041261381874
 20
390.92716205950069
 11
323.76041261381579
 21
395.92716205950069
  0
LINE
  8
_0-e_極細4
  6
CONTINUOUS
 62
    6
 10
318.76041261381874
 20
395.16980274661978
 11
323.76041261381579
 21
400.16980274661978
  0
LINE
  8
_0-e_極細4
  6
CONTINUOUS
 62
    6
 10
318.76041261381874
 20
399.41244343373887
 11
323.76041261381579
 21
404.41244343373887
  0
LINE
  8
_0-e_極細4
  6
CONTINUOUS
 62
    6
 10
318.76041261381874
 20
403.65508412085859
 11
323.76041261381579
 21
408.65508412085796
  0
LINE
  8
_0-e_極細4
  6
CONTINUOUS
 62
    6
 10
318.76041261381874
 20
407.89772480797768
 11
323.76041261381579
 21
412.89772480797768
  0
LINE
  8
_0-e_極細4
  6
CONTINUOUS
 62
    6
 10
318.76041261381874
 20
412.14036549509706
 11
323.76041261381579
 21
417.14036549509649
  0
LINE
  8
_0-e_極細4
  6
CONTINUOUS
 62
    6
 10
318.76041261381874
 20
416.38300618221615
 11
323.76041261381579
 21
421.38300618221615
  0
LINE
  8
_0-e_極細4
  6
CONTINUOUS
 62
    6
 10
318.76041261381874
 20
420.62564686933587
 11
323.76041261381579
 21
425.62564686933524
  0
LINE
  8
_0-e_極細4
  6
CONTINUOUS
 62
    6
 10
318.76041261381874
 20
424.86828755645467
 11
323.76041261381579
 21
429.86828755645467
  0
LINE
  8
_0-e_極細4
  6
CONTINUOUS
 62
    6
 10
318.76041261381761
 20
429.11092824357405
 11
323.76041261381579
 21
434.11092824357405
  0
LINE
  8
_0-e_極細4
  6
CONTINUOUS
 62
    6
 10
318.76041261381874
 20
433.35356893069343
 11
323.76041261381761
 21
438.35356893069286
  0
LINE
  8
_0-e_極細4
  6
CONTINUOUS
 62
    6
 10
318.76041261381874
 20
437.59620961781252
 11
323.76041261381761
 21
442.59620961781252
  0
LINE
  8
_0-e_極細4
  6
CONTINUOUS
 62
    6
 10
318.76041261381874
 20
441.83885030493224
 11
323.76041261381761
 21
446.83885030493161
  0
LINE
  8
_0-e_極細4
  6
CONTINUOUS
 62
    6
 10
318.76041261381874
 20
446.08149099205104
 11
323.76041261381761
 21
451.08149099205104
  0
LINE
  8
_0-e_極細4
  6
CONTINUOUS
 62
    6
 10
318.76041261381874
 20
450.3241316791707
 11
323.76041261381761
 21
455.32413167917042
  0
LINE
  8
_0-e_極細4
  6
CONTINUOUS
 62
    6
 10
318.76041261381874
 20
454.5667723662898
 11
323.76041261381761
 21
459.5667723662898
  0
LINE
  8
_0-e_極細4
  6
CONTINUOUS
 62
    6
 10
318.76041261381874
 20
458.80941305340889
 11
323.76041261381874
 21
463.80941305340889
  0
LINE
  8
_0-e_極細4
  6
CONTINUOUS
 62
    6
 10
318.76041261381874
 20
463.05205374052861
 11
323.76041261381761
 21
468.05205374052861
  0
LINE
  8
_0-e_極細4
  6
CONTINUOUS
 62
    6
 10
318.76041261381874
 20
467.29469442764741
 11
323.76041261381761
 21
472.29469442764741
  0
LINE
  8
_0-e_極細4
  6
CONTINUOUS
 62
    6
 10
318.76041261381874
 20
471.53733511476707
 11
323.76041261381761
 21
476.53733511476707
  0
LINE
  8
_0-e_極細4
  6
CONTINUOUS
 62
    6
 10
318.76041261381874
 20
475.77997580188617
 11
323.76041261381761
 21
480.77997580188617
  0
LINE
  8
_0-e_極細4
  6
CONTINUOUS
 62
    6
 10
318.76041261381874
 20
480.02261648900526
 11
323.76041261381761
 21
485.02261648900526
  0
LINE
  8
_0-e_極細4
  6
CONTINUOUS
 62
    6
 10
318.76041261381761
 20
484.26525717612498
 11
323.76041261381761
 21
489.26525717612498
  0
LINE
  8
_0-e_極細4
  6
CONTINUOUS
 62
    6
 10
318.76041261381874
 20
488.50789786324378
 11
323.76041261381874
 21
493.50789786324378
  0
LINE
  8
_0-e_極細4
  6
CONTINUOUS
 62
    6
 10
318.76041261381874
 20
492.75053855036344
 11
323.76041261381874
 21
497.75053855036344
  0
LINE
  8
_0-e_極細4
  6
CONTINUOUS
 62
    6
 10
318.76041261381874
 20
496.99317923748288
 11
323.76041261381874
 21
501.99317923748288
  0
LINE
  8
_0-e_極細4
  6
CONTINUOUS
 62
    6
 10
318.76041261381761
 20
501.23581992460197
 11
323.76041261381761
 21
506.23581992460163
  0
LINE
  8
_0-e_極細4
  6
CONTINUOUS
 62
    6
 10
318.76041261381761
 20
505.4784606117214
 11
323.76041261381874
 21
510.4784606117214
  0
LINE
  8
_0-e_極細4
  6
CONTINUOUS
 62
    6
 10
318.76041261381761
 20
509.72110129884015
 11
323.76041261381761
 21
514.72110129884015
  0
LINE
  8
_0-e_極細4
  6
CONTINUOUS
 62
    6
 10
318.76041261381874
 20
513.96374198595981
 11
323.76041261381874
 21
518.96374198595959
  0
LINE
  8
_0-e_極細4
  6
CONTINUOUS
 62
    6
 10
318.76041261381874
 20
518.20638267307891
 11
323.76041261381874
 21
523.20638267307891
  0
LINE
  8
_0-e_極細4
  6
CONTINUOUS
 62
    6
 10
318.76041261381874
 20
522.44902336019834
 11
323.76041261381874
 21
527.44902336019777
  0
LINE
  8
_0-e_極細4
  6
CONTINUOUS
 62
    6
 10
318.76041261381874
 20
526.69166404731777
 11
323.76041261381874
 21
531.69166404731777
  0
LINE
  8
_0-e_極細4
  6
CONTINUOUS
 62
    6
 10
318.34488370094732
 20
530.51877582156806
 11
323.76041261381874
 21
535.93430473443652
  0
LINE
  8
_0-e_極細4
  6
CONTINUOUS
 62
    6
 10
316.96565599498172
 20
533.38218880272063
 11
323.76041261381874
 21
540.17694542155596
  0
LINE
  8
_0-e_極細4
  6
CONTINUOUS
 62
    6
 10
314.90015783214039
 20
535.55933132699806
 11
320.06715340142364
 21
540.72632689628074
  0
LINE
  8
_0-e_極細4
  6
CONTINUOUS
 62
    6
 10
320.37907185515542
 20
541.03824535001377
 11
322.76041261381761
 21
543.41958610867596
  0
LINE
  8
_0-e_極細4
  6
CONTINUOUS
 62
    6
 10
313.76041261381761
 20
538.66222679579471
 11
322.76041261381761
 21
547.66222679579471
  0
LINE
  8
_0-e_極細4
  6
CONTINUOUS
 62
    6
 10
313.76041261381761
 20
542.90486748291414
 11
320.8782063205017
 21
550.02266118959756
  0
LINE
  8
_0-e_極細4
  6
CONTINUOUS
 62
    6
 10
313.76041261381761
 20
547.14750817003346
 11
319.80241261381707
 21
553.1895081700336
  0
LINE
  8
_0-e_極細4
  6
CONTINUOUS
 62
    6
 10
313.76041261381761
 20
551.39014885715233
 11
319.80241261381707
 21
557.43214885715236
  0
LINE
  8
_0-e_極細4
  6
CONTINUOUS
 62
    6
 10
310.45394996582581
 20
552.3263268962811
 11
319.80241261381707
 21
561.67478954427179
  0
LINE
  8
_0-e_極細4
  6
CONTINUOUS
 62
    6
 10
306.21130927870763
 20
552.3263268962811
 11
319.80241261381707
 21
565.91743023139111
  0
LINE
  8
_0-e_極細4
  6
CONTINUOUS
 62
    6
 10
305.96041261381652
 20
556.31807091850942
 11
319.80241261381707
 21
570.16007091850997
  0
LINE
  8
_0-e_極細4
  6
CONTINUOUS
 62
    6
 10
305.96041261381652
 20
560.56071160562942
 11
319.80241261381707
 21
574.40271160562963
  0
LINE
  8
_0-e_極細4
  6
CONTINUOUS
 62
    6
 10
305.96041261381652
 20
564.80335229274817
 11
319.80241261381707
 21
578.64535229274929
  0
LINE
  8
_0-e_極細4
  6
CONTINUOUS
 62
    6
 10
305.96041261381652
 20
569.04599297986761
 11
316.07195140872682
 21
579.15753177477757
  0
LINE
  8
_0-e_極細4
  6
CONTINUOUS
 62
    6
 10
305.96041261381652
 20
573.28863366698693
 11
312.26890566393377
 21
579.5971267171027
  0
LINE
  8
_0-e_極細4
  6
CONTINUOUS
 62
    6
 10
305.96041261381652
 20
577.53127435410579
 11
308.46585991914003
 21
580.03672165942817
  0
LINE
  8
_0-e_極細4
  6
CONTINUOUS
 62
    6
 10
500.36062592486746
 20
313.72629345627365
 11
501.98642540550759
 21
315.35209293691378
  0
LINE
  8
_0-e_極細4
  6
CONTINUOUS
 62
    6
 10
496.25900244177501
 20
313.86731066030234
 11
502.05541143293999
 21
319.66371965146618
  0
LINE
  8
_0-e_極細4
  6
CONTINUOUS
 62
    6
 10
496.21699609833922
 20
318.06794500398473
 11
502.12439746037239
 21
323.9753463660179
  0
LINE
  8
_0-e_極細4
  6
CONTINUOUS
 62
    6
 10
496.17498975490275
 20
322.26857934766645
 11
502.19338348780548
 21
328.28697308057002
  0
LINE
  8
_0-e_極細4
  6
CONTINUOUS
 62
    6
 10
473.39006317638814
 20
303.72629345627365
 11
474.78363887546766
 21
305.11986915535135
  0
LINE
  8
_0-e_極細4
  6
CONTINUOUS
 62
    6
 10
496.13298341146401
 20
326.46921369134884
 11
502.26236951523788
 21
332.59859979512186
  0
LINE
  8
_0-e_極細4
  6
CONTINUOUS
 62
    6
 10
470.73597336950593
 20
305.3148443365078
 11
474.85554803965533
 21
309.4344190066596
  0
LINE
  8
_0-e_極細4
  6
CONTINUOUS
 62
    6
 10
496.09097706802822
 20
330.66984803503129
 11
502.33135554267028
 21
336.91022650967392
  0
LINE
  8
_0-e_極細4
  6
CONTINUOUS
 62
    6
 10
470.67169093485177
 20
309.49320258897399
 11
474.92745720384596
 21
313.74896885796761
  0
LINE
  8
_0-e_極細4
  6
CONTINUOUS
 62
    6
 10
496.04897072459175
 20
334.87048237871426
 11
502.40034157010268
 21
341.22185322422575
  0
LINE
  8
_0-e_極細4
  6
CONTINUOUS
 62
    6
 10
470.60740850019829
 20
313.67156084144017
 11
474.99936636803363
 21
318.06351870927529
  0
LINE
  8
_0-e_極細4
  6
CONTINUOUS
 62
    6
 10
496.00696438115597
 20
339.07111672239665
 11
502.46932759753508
 21
345.53347993877816
  0
LINE
  8
_0-e_極細4
  6
CONTINUOUS
 62
    6
 10
470.54312606554413
 20
317.84991909390624
 11
475.07127553222199
 21
322.37806856058319
  0
LINE
  8
_0-e_極細4
  6
CONTINUOUS
 62
    6
 10
495.96495803771722
 20
343.27175106607905
 11
502.53831362497044
 21
349.84510665333022
  0
LINE
  8
_0-e_極細4
  6
CONTINUOUS
 62
    6
 10
470.47884363089292
 20
322.02827734637185
 11
475.14318469640966
 21
326.69261841189086
  0
LINE
  8
_0-e_極細4
  6
CONTINUOUS
 62
    6
 10
495.92295169428144
 20
347.47238540976144
 11
502.60729965240284
 21
354.15673336788205
  0
LINE
  8
_0-e_極細4
  6
CONTINUOUS
 62
    6
 10
470.41456119623876
 20
326.2066355988386
 11
475.21509386060029
 21
331.00716826319859
  0
LINE
  8
_0-e_極細4
  6
CONTINUOUS
 62
    6
 10
495.88094535084497
 20
351.67301975344384
 11
502.67628567983525
 21
358.46836008243412
  0
LINE
  8
_0-e_極細4
  6
CONTINUOUS
 62
    6
 10
508.33971342914629
 20
364.13178783174754
 11
520.35491823834491
 21
376.1469926409431
  0
LINE
  8
_0-e_極細4
  6
CONTINUOUS
 62
    6
 10
470.35027876158529
 20
330.38499385130439
 11
475.28700302478796
 21
335.32171811450627
  0
LINE
  8
_0-e_極細4
  6
CONTINUOUS
 62
    6
 10
495.83893900740622
 20
355.87365409712658
 11
502.74527170726765
 21
362.77998679698652
  0
LINE
  8
_0-e_極細4
  6
CONTINUOUS
 62
    6
 10
503.69157836655472
 20
363.72629345627359
 11
520.76041261381943
 21
380.79512770353671
  0
LINE
  8
_0-e_極細4
  6
CONTINUOUS
 62
    6
 10
470.28599632693113
 20
334.56335210377057
 11
475.35891218897564
 21
339.63626796581394
  0
LINE
  8
_0-e_極細4
  6
CONTINUOUS
 62
    6
 10
495.79693266397044
 20
360.07428844080863
 11
505.52251052143879
 21
369.79986629827675
  0
LINE
  8
_0-e_極細4
  6
CONTINUOUS
 62
    6
 10
514.68683977181468
 20
378.96419554865264
 11
520.76041261381943
 21
385.0377683906558
  0
LINE
  8
_0-e_極細4
  6
CONTINUOUS
 62
    6
 10
470.22171389227992
 20
338.74171035623641
 11
475.43082135316399
 21
343.95081781712162
  0
LINE
  8
_0-e_極細4
  6
CONTINUOUS
 62
    6
 10
495.2062969923154
 20
363.72629345627359
 11
500.2126906260321
 21
368.73268708998859
  0
LINE
  8
_0-e_極細4
  6
CONTINUOUS
 62
    6
 10
515.75401898010205
 20
384.27401544405967
 11
520.76041261381943
 21
389.28040907777489
  0
LINE
  8
_0-e_極細4
  6
CONTINUOUS
 62
    6
 10
470.15743145762576
 20
342.92006860870225
 11
475.50273051735167
 21
348.26536766842986
  0
LINE
  8
_0-e_極細4
  6
CONTINUOUS
 62
    6
 10
490.96365630519722
 20
363.72629345627359
 11
495.9636563051954
 21
368.72629345627359
  0
LINE
  8
_0-e_極細4
  6
CONTINUOUS
 62
    6
 10
515.76041261381874
 20
388.52304976489398
 11
520.76041261381943
 21
393.52304976489427
  0
LINE
  8
_0-e_極細4
  6
CONTINUOUS
 62
    6
 10
470.09314902297228
 20
347.09842686116809
 11
475.57463968154229
 21
352.57991751973753
  0
LINE
  8
_0-e_極細4
  6
CONTINUOUS
 62
    6
 10
486.72101561807835
 20
363.72629345627359
 11
491.72101561807835
 21
368.72629345627359
  0
LINE
  8
_0-e_極細4
  6
CONTINUOUS
 62
    6
 10
515.76041261381874
 20
392.76569045201336
 11
520.76041261381943
 21
397.76569045201336
  0
LINE
  8
_0-e_極細4
  6
CONTINUOUS
 62
    6
 10
470.02886658831812
 20
351.2767851136345
 11
475.64654884572997
 21
356.89446737104521
  0
LINE
  8
_0-e_極細4
  6
CONTINUOUS
 62
    6
 10
482.47837493095835
 20
363.72629345627359
 11
487.47837493095835
 21
368.72629345627303
  0
LINE
  8
_0-e_極細4
  6
CONTINUOUS
 62
    6
 10
515.76041261381874
 20
397.00833113913245
 11
520.76041261381943
 21
402.00833113913308
  0
LINE
  8
_0-e_極細4
  6
CONTINUOUS
 62
    6
 10
469.96458415366692
 20
355.45514336610034
 11
475.71845800991832
 21
361.20901722235322
  0
LINE
  8
_0-e_極細4
  6
CONTINUOUS
 62
    6
 10
478.23573424383903
 20
363.72629345627359
 11
483.23573424383903
 21
368.72629345627303
  0
LINE
  8
_0-e_極細4
  6
CONTINUOUS
 62
    6
 10
515.76041261381874
 20
401.25097182625217
 11
520.76041261381943
 21
406.25097182625217
  0
LINE
  8
_0-e_極細4
  6
CONTINUOUS
 62
    6
 10
469.90030171901276
 20
359.63350161856653
 11
478.99309355671903
 21
368.72629345627359
  0
LINE
  8
_0-e_極細4
  6
CONTINUOUS
 62
    6
 10
515.76041261381874
 20
405.49361251337126
 11
520.76041261381943
 21
410.49361251337126
  0
LINE
  8
_0-e_極細4
  6
CONTINUOUS
 62
    6
 10
469.83601928435928
 20
363.81185987103237
 11
474.75045286959903
 21
368.72629345627359
  0
LINE
  8
_0-e_極細4
  6
CONTINUOUS
 62
    6
 10
515.76041261381874
 20
409.73625320049064
 11
520.76041261381943
 21
414.73625320049064
  0
LINE
  8
_0-e_極細4
  6
CONTINUOUS
 62
    6
 10
469.77173684970512
 20
367.99021812349878
 11
470.50781218248198
 21
368.72629345627359
  0
LINE
  8
_0-e_極細4
  6
CONTINUOUS
 62
    6
 10
515.76041261381874
 20
413.97889388760973
 11
520.76041261381943
 21
418.97889388760973
  0
LINE
  8
_0-e_極細4
  6
CONTINUOUS
 62
    6
 10
515.76041261381874
 20
418.22153457472916
 11
520.76041261381943
 21
423.22153457472882
  0
LINE
  8
_0-e_極細4
  6
CONTINUOUS
 62
    6
 10
515.76041261381874
 20
422.46417526184854
 11
520.76041261381943
 21
427.46417526184854
  0
LINE
  8
_0-e_極細4
  6
CONTINUOUS
 62
    6
 10
515.76041261381874
 20
426.70681594896791
 11
520.76041261381943
 21
431.70681594896735
  0
LINE
  8
_0-e_極細4
  6
CONTINUOUS
 62
    6
 10
515.76041261381874
 20
430.94945663608672
 11
520.76041261381943
 21
435.94945663608701
  0
LINE
  8
_0-e_極細4
  6
CONTINUOUS
 62
    6
 10
515.76041261381874
 20
435.1920973232061
 11
520.76041261381943
 21
440.1920973232061
  0
LINE
  8
_0-e_極細4
  6
CONTINUOUS
 62
    6
 10
515.76041261381874
 20
439.43473801032519
 11
520.76041261381761
 21
444.43473801032519
  0
LINE
  8
_0-e_極細4
  6
CONTINUOUS
 62
    6
 10
515.76041261381874
 20
443.67737869744491
 11
520.76041261381761
 21
448.67737869744491
  0
LINE
  8
_0-e_極細4
  6
CONTINUOUS
 62
    6
 10
515.76041261381874
 20
447.92001938456372
 11
520.76041261381943
 21
452.92001938456372
  0
LINE
  8
_0-e_極細4
  6
CONTINUOUS
 62
    6
 10
515.76041261381874
 20
452.16266007168338
 11
520.76041261381943
 21
457.16266007168338
  0
LINE
  8
_0-e_極細4
  6
CONTINUOUS
 62
    6
 10
515.76041261381874
 20
456.40530075880247
 11
520.76041261381943
 21
461.40530075880247
  0
LINE
  8
_0-e_極細4
  6
CONTINUOUS
 62
    6
 10
515.76041261381874
 20
460.64794144592156
 11
520.76041261381943
 21
465.6479414459219
  0
LINE
  8
_0-e_極細4
  6
CONTINUOUS
 62
    6
 10
515.76041261381874
 20
464.89058213304128
 11
520.76041261381943
 21
469.89058213304128
  0
LINE
  8
_0-e_極細4
  6
CONTINUOUS
 62
    6
 10
515.76041261381874
 20
469.13322282016009
 11
520.76041261381761
 21
474.13322282016009
  0
LINE
  8
_0-e_極細4
  6
CONTINUOUS
 62
    6
 10
515.76041261381874
 20
473.37586350727975
 11
520.76041261381943
 21
478.37586350727975
  0
LINE
  8
_0-e_極細4
  6
CONTINUOUS
 62
    6
 10
515.76041261381874
 20
477.61850419439884
 11
520.76041261381943
 21
482.61850419439884
  0
LINE
  8
_0-e_極細4
  6
CONTINUOUS
 62
    6
 10
515.76041261381874
 20
481.86114488151827
 11
520.76041261381943
 21
486.86114488151827
  0
LINE
  8
_0-e_極細4
  6
CONTINUOUS
 62
    6
 10
515.76041261381874
 20
486.10378556863765
 11
520.76041261381943
 21
491.10378556863765
  0
LINE
  8
_0-e_極細4
  6
CONTINUOUS
 62
    6
 10
515.76041261381874
 20
490.34642625575702
 11
520.76041261381943
 21
495.34642625575736
  0
LINE
  8
_0-e_極細4
  6
CONTINUOUS
 62
    6
 10
515.76041261381761
 20
494.58906694287612
 11
520.76041261381943
 21
499.58906694287612
  0
LINE
  8
_0-e_極細4
  6
CONTINUOUS
 62
    6
 10
515.76041261381874
 20
498.83170762999555
 11
520.76041261381943
 21
503.83170762999555
  0
LINE
  8
_0-e_極細4
  6
CONTINUOUS
 62
    6
 10
515.76041261381874
 20
503.07434831711464
 11
520.76041261381943
 21
508.0743483171143
  0
LINE
  8
_0-e_極細4
  6
CONTINUOUS
 62
    6
 10
515.76041261381874
 20
507.31698900423407
 11
520.76041261381943
 21
512.31698900423407
  0
LINE
  8
_0-e_極細4
  6
CONTINUOUS
 62
    6
 10
515.76041261381874
 20
511.55962969135373
 11
520.76041261381761
 21
516.55962969135282
  0
LINE
  8
_0-e_極細4
  6
CONTINUOUS
 62
    6
 10
515.76041261381874
 20
515.80227037847249
 11
520.76041261381761
 21
520.80227037847226
  0
LINE
  8
_0-e_極細4
  6
CONTINUOUS
 62
    6
 10
515.76041261381761
 20
520.04491106559158
 11
520.76041261381761
 21
525.04491106559158
  0
LINE
  8
_0-e_極細4
  6
CONTINUOUS
 62
    6
 10
515.76041261381761
 20
524.28755175271101
 11
520.92036712904701
 21
529.44750626794166
  0
LINE
  8
_0-e_極細4
  6
CONTINUOUS
 62
    6
 10
515.76041261381874
 20
528.53019243983044
 11
525.76041261381943
 21
538.53019243983044
  0
LINE
  8
_0-e_極細4
  6
CONTINUOUS
 62
    6
 10
515.76041261381874
 20
532.77283312694919
 11
525.76041261381943
 21
542.77283312694976
  0
LINE
  8
_0-e_極細4
  6
CONTINUOUS
 62
    6
 10
515.76041261381874
 20
537.01547381406863
 11
519.47126569603029
 21
540.72632689628074
  0
LINE
  8
_0-e_極細4
  6
CONTINUOUS
 62
    6
 10
519.55802196379227
 20
540.81308316404329
 11
525.76041261381943
 21
547.01547381406863
  0
LINE
  8
_0-e_極細4
  6
CONTINUOUS
 62
    6
 10
531.07126569602951
 20
552.32632689628053
 11
533.5604126138187
 21
554.81547381406847
  0
LINE
  8
_0-e_極細4
  6
CONTINUOUS
 62
    6
 10
516.80468033314287
 20
542.30238222051332
 11
525.76041261381943
 21
551.25811450118795
  0
LINE
  8
_0-e_極細4
  6
CONTINUOUS
 62
    6
 10
526.82862500890951
 20
552.3263268962811
 11
533.5604126138187
 21
559.0581145011879
  0
LINE
  8
_0-e_極細4
  6
CONTINUOUS
 62
    6
 10
516.76041261381943
 20
546.50075518830738
 11
533.5604126138187
 21
563.30075518830722
  0
LINE
  8
_0-e_極細4
  6
CONTINUOUS
 62
    6
 10
519.71841261381746
 20
553.70139587542553
 11
533.5604126138187
 21
567.54339587542609
  0
LINE
  8
_0-e_極細4
  6
CONTINUOUS
 62
    6
 10
519.71841261381746
 20
557.94403656254553
 11
533.5604126138187
 21
571.78603656254575
  0
LINE
  8
_0-e_極細4
  6
CONTINUOUS
 62
    6
 10
519.71841261381746
 20
562.18667724966429
 11
533.5604126138187
 21
576.02867724966541
  0
LINE
  8
_0-e_極細4
  6
CONTINUOUS
 62
    6
 10
519.71841261381746
 20
566.42931793678338
 11
533.5604126138187
 21
580.27131793678427
  0
LINE
  8
_0-e_極細4
  6
CONTINUOUS
 62
    6
 10
519.71841261381746
 20
570.67195862390304
 11
528.8254674762793
 21
579.77901348636453
  0
LINE
  8
_0-e_極細4
  6
CONTINUOUS
 62
    6
 10
519.71841261381746
 20
574.9145993110219
 11
524.02832384034446
 21
579.22451053754969
  0
LINE
  8
_0-e_極細4
  6
CONTINUOUS
 62
    6
 10
368.684435691619
 20
368.72629345627359
 11
369.76041261381761
 21
369.80227037847311
  0
LINE
  8
_0-e_極細4
  6
CONTINUOUS
 62
    6
 10
364.44179500449968
 20
368.72629345627359
 11
369.76041261381761
 21
374.04491106559163
  0
LINE
  8
_0-e_極細4
  6
CONTINUOUS
 62
    6
 10
360.19915431737968
 20
368.72629345627359
 11
369.76041261381761
 21
378.28755175271164
  0
LINE
  8
_0-e_極細4
  6
CONTINUOUS
 62
    6
 10
355.95651363025968
 20
368.72629345627359
 11
369.76041261381829
 21
382.53019243983039
  0
LINE
  8
_0-e_極細4
  6
CONTINUOUS
 62
    6
 10
351.71387294314081
 20
368.72629345627359
 11
369.76041261381829
 21
386.77283312694982
  0
LINE
  8
_0-e_極細4
  6
CONTINUOUS
 62
    6
 10
347.47123225602263
 20
368.72629345627359
 11
367.47123225602263
 21
388.72629345627359
  0
LINE
  8
_0-e_極細4
  6
CONTINUOUS
 62
    6
 10
343.22859156890263
 20
368.72629345627359
 11
363.30812785630587
 21
388.80582974367803
  0
LINE
  8
_0-e_極細4
  6
CONTINUOUS
 62
    6
 10
339.00384807583578
 20
368.74419065032617
 11
359.65074852882458
 21
389.39109110331486
  0
LINE
  8
_0-e_極細4
  6
CONTINUOUS
 62
    6
 10
335.36024929184168
 20
369.34323255345117
 11
356.42775249855731
 21
390.41073576016646
  0
LINE
  8
_0-e_極細4
  6
CONTINUOUS
 62
    6
 10
332.33043762360103
 20
370.55606157232927
 11
353.55098463270406
 21
391.77660858143321
  0
LINE
  8
_0-e_極細4
  6
CONTINUOUS
 62
    6
 10
329.76464521063281
 20
372.23290984648139
 11
350.97363290903922
 21
393.44189754488656
  0
LINE
  8
_0-e_極細4
  6
CONTINUOUS
 62
    6
 10
327.60788608320763
 20
374.3187914061744
 11
348.67153650291289
 21
395.38244182588136
  0
LINE
  8
_0-e_極細4
  6
CONTINUOUS
 62
    6
 10
325.856173692011
 20
376.80971970209742
 11
346.63584995338533
 21
397.58939596347113
  0
LINE
  8
_0-e_極細4
  6
CONTINUOUS
 62
    6
 10
324.55391634030934
 20
379.75010303751407
 11
344.87071452332202
 21
400.06690122052845
  0
LINE
  8
_0-e_極細4
  6
CONTINUOUS
 62
    6
 10
323.82718968573795
 20
383.26601707006324
 11
343.39432543774092
 21
402.83315282206581
  0
LINE
  8
_0-e_極細4
  6
CONTINUOUS
 62
    6
 10
323.76041261381874
 20
387.44188068526222
 11
342.24410858732153
 21
405.92557665876615
  0
LINE
  8
_0-e_極細4
  6
CONTINUOUS
 62
    6
 10
323.76041261381874
 20
391.68452137238131
 11
341.49005692418064
 21
409.41416568274485
  0
LINE
  8
_0-e_極細4
  6
CONTINUOUS
 62
    6
 10
323.76041261381874
 20
395.92716205950069
 11
341.26041261381761
 21
413.4271620595004
  0
LINE
  8
_0-e_極細4
  6
CONTINUOUS
 62
    6
 10
323.76041261381874
 20
400.16980274661978
 11
341.26041261381761
 21
417.66980274661978
  0
LINE
  8
_0-e_極細4
  6
CONTINUOUS
 62
    6
 10
323.76041261381874
 20
404.4124434337395
 11
341.26041261381761
 21
421.91244343373887
  0
LINE
  8
_0-e_極細4
  6
CONTINUOUS
 62
    6
 10
323.76041261381874
 20
408.65508412085859
 11
341.26041261381761
 21
426.15508412085831
  0
LINE
  8
_0-e_極細4
  6
CONTINUOUS
 62
    6
 10
323.76041261381874
 20
412.89772480797797
 11
341.26041261381761
 21
430.39772480797768
  0
LINE
  8
_0-e_極細4
  6
CONTINUOUS
 62
    6
 10
323.76041261381874
 20
417.14036549509706
 11
341.26041261381761
 21
434.64036549509649
  0
LINE
  8
_0-e_極細4
  6
CONTINUOUS
 62
    6
 10
323.76041261381874
 20
421.38300618221615
 11
341.26041261381761
 21
438.88300618221615
  0
LINE
  8
_0-e_極細4
  6
CONTINUOUS
 62
    6
 10
323.76041261381761
 20
425.62564686933524
 11
341.26041261381761
 21
443.12564686933524
  0
LINE
  8
_0-e_極細4
  6
CONTINUOUS
 62
    6
 10
323.76041261381761
 20
429.86828755645467
 11
341.26041261381761
 21
447.36828755645433
  0
LINE
  8
_0-e_極細4
  6
CONTINUOUS
 62
    6
 10
323.76041261381761
 20
434.11092824357405
 11
341.26041261381761
 21
451.61092824357405
  0
LINE
  8
_0-e_極細4
  6
CONTINUOUS
 62
    6
 10
323.76041261381874
 20
438.35356893069343
 11
341.26041261381761
 21
455.85356893069343
  0
LINE
  8
_0-e_極細4
  6
CONTINUOUS
 62
    6
 10
323.76041261381874
 20
442.59620961781252
 11
341.26041261381761
 21
460.09620961781252
  0
LINE
  8
_0-e_極細4
  6
CONTINUOUS
 62
    6
 10
323.76041261381874
 20
446.83885030493161
 11
341.26041261381761
 21
464.33885030493161
  0
LINE
  8
_0-e_極細4
  6
CONTINUOUS
 62
    6
 10
323.76041261381874
 20
451.08149099205104
 11
341.26041261381761
 21
468.58149099205104
  0
LINE
  8
_0-e_極細4
  6
CONTINUOUS
 62
    6
 10
323.76041261381761
 20
455.32413167917042
 11
341.26041261381761
 21
472.82413167917042
  0
LINE
  8
_0-e_極細4
  6
CONTINUOUS
 62
    6
 10
323.76041261381761
 20
459.5667723662898
 11
341.26041261381761
 21
477.0667723662898
  0
LINE
  8
_0-e_極細4
  6
CONTINUOUS
 62
    6
 10
323.76041261381874
 20
463.80941305340889
 11
341.26041261381761
 21
481.30941305340889
  0
LINE
  8
_0-e_極細4
  6
CONTINUOUS
 62
    6
 10
323.76041261381874
 20
468.05205374052861
 11
340.29347284721803
 21
484.58511397392863
  0
LINE
  8
_0-e_極細4
  6
CONTINUOUS
 62
    6
 10
323.76041261381874
 20
472.29469442764741
 11
336.05083216009916
 21
484.58511397392863
  0
LINE
  8
_0-e_極細4
  6
CONTINUOUS
 62
    6
 10
323.76041261381874
 20
476.53733511476707
 11
331.80819147297916
 21
484.58511397392863
  0
LINE
  8
_0-e_極細4
  6
CONTINUOUS
 62
    6
 10
323.76041261381874
 20
480.77997580188617
 11
327.56555078585916
 21
484.58511397392863
  0
LINE
  8
_0-e_極細4
  6
CONTINUOUS
 62
    6
 10
323.76041261381874
 20
485.0226164890056
 11
324.13787579020754
 21
485.40007966539554
  0
LINE
  8
_0-e_極細4
  6
CONTINUOUS
 62
    6
 10
505.52251052143879
 20
369.79986629827675
 11
514.68683977181468
 21
378.96419554865264
  0
LINE
  8
_0-e_極細4
  6
CONTINUOUS
 62
    6
 10
500.2126906260321
 20
368.73268708998859
 11
515.75401898010205
 21
384.27401544405967
  0
LINE
  8
_0-e_極細4
  6
CONTINUOUS
 62
    6
 10
495.96365630519722
 20
368.72629345627359
 11
515.76041261381874
 21
388.52304976489398
  0
LINE
  8
_0-e_極細4
  6
CONTINUOUS
 62
    6
 10
491.72101561807835
 20
368.72629345627359
 11
515.76041261381874
 21
392.76569045201336
  0
LINE
  8
_0-e_極細4
  6
CONTINUOUS
 62
    6
 10
487.47837493095835
 20
368.72629345627359
 11
515.76041261381874
 21
397.00833113913245
  0
LINE
  8
_0-e_極細4
  6
CONTINUOUS
 62
    6
 10
483.23573424383903
 20
368.72629345627359
 11
515.76041261381874
 21
401.25097182625217
  0
LINE
  8
_0-e_極細4
  6
CONTINUOUS
 62
    6
 10
478.99309355671903
 20
368.72629345627359
 11
515.76041261381874
 21
405.49361251337126
  0
LINE
  8
_0-e_極細4
  6
CONTINUOUS
 62
    6
 10
474.75045286959903
 20
368.72629345627359
 11
515.76041261381874
 21
409.73625320049064
  0
LINE
  8
_0-e_極細4
  6
CONTINUOUS
 62
    6
 10
470.50781218248198
 20
368.72629345627359
 11
515.76041261381874
 21
413.97889388760973
  0
LINE
  8
_0-e_極細4
  6
CONTINUOUS
 62
    6
 10
469.76041261381579
 20
372.22153457472888
 11
515.76041261381874
 21
418.22153457472916
  0
LINE
  8
_0-e_極細4
  6
CONTINUOUS
 62
    6
 10
469.76041261381579
 20
376.46417526184797
 11
484.15883333395504
 21
390.86259598198689
  0
LINE
  8
_0-e_極細4
  6
CONTINUOUS
 62
    6
 10
496.12411008810341
 20
402.82787273613462
 11
515.76041261381874
 21
422.46417526184854
  0
LINE
  8
_0-e_極細4
  6
CONTINUOUS
 62
    6
 10
469.76041261381761
 20
380.70681594896763
 11
478.08689462905863
 21
389.0332979642078
  0
LINE
  8
_0-e_極細4
  6
CONTINUOUS
 62
    6
 10
497.95340810588277
 20
408.89981144103308
 11
515.76041261381874
 21
426.70681594896791
  0
LINE
  8
_0-e_極細4
  6
CONTINUOUS
 62
    6
 10
469.76041261381761
 20
384.94945663608672
 11
473.53724943400266
 21
388.72629345627359
  0
LINE
  8
_0-e_極細4
  6
CONTINUOUS
 62
    6
 10
498.26041261381874
 20
413.44945663608701
 11
515.76041261381874
 21
430.94945663608672
  0
LINE
  8
_0-e_極細4
  6
CONTINUOUS
 62
    6
 10
498.26041261381874
 20
417.6920973232061
 11
515.76041261381874
 21
435.1920973232061
  0
LINE
  8
_0-e_極細4
  6
CONTINUOUS
 62
    6
 10
498.26041261381874
 20
421.93473801032519
 11
515.76041261381874
 21
439.43473801032519
  0
LINE
  8
_0-e_極細4
  6
CONTINUOUS
 62
    6
 10
498.26041261381874
 20
426.17737869744491
 11
515.76041261381874
 21
443.67737869744491
  0
LINE
  8
_0-e_極細4
  6
CONTINUOUS
 62
    6
 10
498.26041261381874
 20
430.42001938456372
 11
515.76041261381874
 21
447.92001938456372
  0
LINE
  8
_0-e_極細4
  6
CONTINUOUS
 62
    6
 10
498.26041261381874
 20
434.66266007168338
 11
515.76041261381874
 21
452.16266007168338
  0
LINE
  8
_0-e_極細4
  6
CONTINUOUS
 62
    6
 10
498.26041261381874
 20
438.90530075880247
 11
515.76041261381874
 21
456.40530075880247
  0
LINE
  8
_0-e_極細4
  6
CONTINUOUS
 62
    6
 10
498.26041261381874
 20
443.1479414459219
 11
515.76041261381874
 21
460.64794144592156
  0
LINE
  8
_0-e_極細4
  6
CONTINUOUS
 62
    6
 10
498.26041261381874
 20
447.39058213304128
 11
515.76041261381874
 21
464.89058213304128
  0
LINE
  8
_0-e_極細4
  6
CONTINUOUS
 62
    6
 10
498.26041261381874
 20
451.63322282016009
 11
515.76041261381874
 21
469.13322282016009
  0
LINE
  8
_0-e_極細4
  6
CONTINUOUS
 62
    6
 10
498.26041261381874
 20
455.87586350727975
 11
515.76041261381874
 21
473.37586350727975
  0
LINE
  8
_0-e_極細4
  6
CONTINUOUS
 62
    6
 10
498.26041261381874
 20
460.11850419439884
 11
515.76041261381874
 21
477.61850419439884
  0
LINE
  8
_0-e_極細4
  6
CONTINUOUS
 62
    6
 10
498.26041261381874
 20
464.36114488151827
 11
515.76041261381874
 21
481.86114488151827
  0
LINE
  8
_0-e_極細4
  6
CONTINUOUS
 62
    6
 10
498.26041261381874
 20
468.60378556863765
 11
514.30030317117235
 21
484.64367612599267
  0
LINE
  8
_0-e_極細4
  6
CONTINUOUS
 62
    6
 10
515.68616394409878
 20
486.02953689891831
 11
515.76041261381874
 21
486.10378556863765
  0
LINE
  8
_0-e_極細4
  6
CONTINUOUS
 62
    6
 10
498.26041261381761
 20
472.84642625575702
 11
509.99910033198944
 21
484.58511397392834
  0
LINE
  8
_0-e_極細4
  6
CONTINUOUS
 62
    6
 10
498.26041261381761
 20
477.08906694287612
 11
505.75645964486944
 21
484.58511397392863
  0
LINE
  8
_0-e_極細4
  6
CONTINUOUS
 62
    6
 10
498.26041261381874
 20
481.33170762999521
 11
501.51381895775012
 21
484.58511397392834
  0
LINE
  8
_0-e_極細4
  6
CONTINUOUS
 62
    6
 10
419.49744862024272
 20
583.72629345627331
 11
419.49744862024272
 21
585.72629345627331
  0
LINE
  8
_0-e_極細4
  6
CONTINUOUS
 62
    6
 10
416.49744862024272
 20
583.72629345627331
 11
416.49744862024272
 21
585.72629345627331
  0
LINE
  8
_0-e_極細4
  6
CONTINUOUS
 62
    6
 10
413.49744862024272
 20
583.72629345627331
 11
413.49744862024272
 21
585.72629345627331
  0
LINE
  8
_0-e_極細4
  6
CONTINUOUS
 62
    6
 10
410.49744862024272
 20
583.72629345627331
 11
410.49744862024272
 21
585.72629345627331
  0
LINE
  8
_0-e_極細4
  6
CONTINUOUS
 62
    6
 10
407.49744862024272
 20
583.72629345627331
 11
407.49744862024272
 21
585.72629345627331
  0
LINE
  8
_0-e_極細4
  6
CONTINUOUS
 62
    6
 10
404.49744862024272
 20
583.72629345627331
 11
404.49744862024272
 21
585.72629345627331
  0
LINE
  8
_0-e_極細4
  6
CONTINUOUS
 62
    6
 10
401.49744862024272
 20
583.72629345627331
 11
401.49744862024272
 21
585.72629345627331
  0
LINE
  8
_0-e_極細4
  6
CONTINUOUS
 62
    6
 10
398.49744862024272
 20
583.72629345627331
 11
398.49744862024272
 21
585.72629345627331
  0
LINE
  8
_0-e_極細4
  6
CONTINUOUS
 62
    6
 10
395.49744862024272
 20
583.72629345627331
 11
395.49744862024272
 21
585.72629345627331
  0
LINE
  8
_0-e_極細4
  6
CONTINUOUS
 62
    6
 10
392.49744862024454
 20
583.72629345627331
 11
392.49744862024454
 21
585.72629345627331
  0
LINE
  8
_0-e_極細4
  6
CONTINUOUS
 62
    6
 10
389.49744862024454
 20
583.72629345627331
 11
389.49744862024454
 21
585.72629345627331
  0
LINE
  8
_0-e_極細4
  6
CONTINUOUS
 62
    6
 10
386.49744862024454
 20
583.72629345627331
 11
386.49744862024454
 21
585.72629345627331
  0
LINE
  8
_0-e_極細4
  6
CONTINUOUS
 62
    6
 10
383.49744862024454
 20
583.72629345627331
 11
383.49744862024454
 21
585.72629345627331
  0
LINE
  8
_0-e_極細4
  6
CONTINUOUS
 62
    6
 10
380.49744862024454
 20
583.72629345627331
 11
380.49744862024454
 21
585.72629345627331
  0
LINE
  8
_0-e_極細4
  6
CONTINUOUS
 62
    6
 10
377.49744862024454
 20
583.72629345627331
 11
377.49744862024454
 21
585.72629345627331
  0
LINE
  8
_0-e_極細4
  6
CONTINUOUS
 62
    6
 10
374.49744862024454
 20
583.72629345627331
 11
374.49744862024454
 21
585.72629345627365
  0
LINE
  8
_0-e_極細4
  6
CONTINUOUS
 62
    6
 10
371.49744862024454
 20
583.72629345627331
 11
371.49744862024454
 21
585.72629345627365
  0
LINE
  8
_0-e_極細4
  6
CONTINUOUS
 62
    6
 10
368.49744862024454
 20
583.72629345627331
 11
368.49744862024454
 21
585.72629345627365
  0
LINE
  8
_0-e_極細4
  6
CONTINUOUS
 62
    6
 10
365.49744862024454
 20
583.72629345627331
 11
365.49744862024454
 21
585.72629345627365
  0
LINE
  8
_0-e_極細4
  6
CONTINUOUS
 62
    6
 10
362.49744862024454
 20
583.72629345627331
 11
362.49744862024454
 21
585.72629345627331
  0
LINE
  8
_0-e_極細4
  6
CONTINUOUS
 62
    6
 10
359.49744862024454
 20
583.72629345627331
 11
359.49744862024454
 21
585.72629345627331
  0
LINE
  8
_0-e_極細4
  6
CONTINUOUS
 62
    6
 10
356.49744862024454
 20
583.72629345627331
 11
356.49744862024454
 21
585.72629345627331
  0
LINE
  8
_0-e_極細4
  6
CONTINUOUS
 62
    6
 10
353.49744862024454
 20
583.72629345627331
 11
353.49744862024454
 21
585.72629345627331
  0
LINE
  8
_0-e_極細4
  6
CONTINUOUS
 62
    6
 10
350.49744862024454
 20
583.72629345627331
 11
350.49744862024454
 21
585.72629345627331
  0
LINE
  8
_0-e_極細4
  6
CONTINUOUS
 62
    6
 10
347.49744862024454
 20
583.72629345627331
 11
347.49744862024454
 21
585.72629345627331
  0
LINE
  8
_0-e_極細4
  6
CONTINUOUS
 62
    6
 10
344.49744862024454
 20
583.72629345627331
 11
344.49744862024454
 21
585.72629345627331
  0
LINE
  8
_0-e_極細4
  6
CONTINUOUS
 62
    6
 10
341.49744862024454
 20
583.72629345627331
 11
341.49744862024454
 21
585.72629345627331
  0
LINE
  8
_0-e_極細4
  6
CONTINUOUS
 62
    6
 10
338.49744862024454
 20
583.72629345627331
 11
338.49744862024454
 21
585.72629345627331
  0
LINE
  8
_0-e_極細4
  6
CONTINUOUS
 62
    6
 10
335.49744862024454
 20
583.72629345627331
 11
335.49744862024454
 21
585.72629345627331
  0
LINE
  8
_0-e_極細4
  6
CONTINUOUS
 62
    6
 10
332.49744862024454
 20
583.72629345627331
 11
332.49744862024454
 21
585.72629345627331
  0
LINE
  8
_0-e_極細4
  6
CONTINUOUS
 62
    6
 10
329.49744862024454
 20
583.72629345627331
 11
329.49744862024454
 21
585.72629345627331
  0
LINE
  8
_0-e_極細4
  6
CONTINUOUS
 62
    6
 10
326.49744862024454
 20
583.72629345627331
 11
326.49744862024454
 21
585.72629345627331
  0
LINE
  8
_0-e_極細4
  6
CONTINUOUS
 62
    6
 10
323.49744862024454
 20
583.72629345627331
 11
323.49744862024454
 21
585.72629345627331
  0
LINE
  8
_0-e_極細4
  6
CONTINUOUS
 62
    6
 10
320.49744862024454
 20
583.72629345627331
 11
320.49744862024454
 21
585.72629345627331
  0
LINE
  8
_0-e_極細4
  6
CONTINUOUS
 62
    6
 10
317.49744862024454
 20
583.72629345627331
 11
317.49744862024454
 21
585.72629345627331
  0
LINE
  8
_0-e_極細4
  6
CONTINUOUS
 62
    6
 10
314.49744862024454
 20
583.89604013963265
 11
314.49744862024454
 21
585.72629345627331
  0
LINE
  8
_0-e_極細4
  6
CONTINUOUS
 62
    6
 10
311.49744862024454
 20
584.32332969952415
 11
311.49744862024454
 21
585.72629345627331
  0
LINE
  8
_0-e_極細4
  6
CONTINUOUS
 62
    6
 10
308.49744862024454
 20
584.75061925941566
 11
308.49744862024454
 21
585.72629345627331
  0
LINE
  8
_0-e_極細4
  6
CONTINUOUS
 62
    6
 10
533.49744862024272
 20
585.10300097325319
 11
533.49744862024272
 21
585.72629345627331
  0
LINE
  8
_0-e_極細4
  6
CONTINUOUS
 62
    6
 10
530.49744862024272
 20
584.67571141336168
 11
530.49744862024272
 21
585.72629345627331
  0
LINE
  8
_0-e_極細4
  6
CONTINUOUS
 62
    6
 10
527.49744862024272
 20
584.24842185347018
 11
527.49744862024272
 21
585.72629345627331
  0
LINE
  8
_0-e_極細4
  6
CONTINUOUS
 62
    6
 10
524.49744862024272
 20
583.82113229357867
 11
524.49744862024272
 21
585.72629345627331
  0
LINE
  8
_0-e_極細4
  6
CONTINUOUS
 62
    6
 10
521.49744862024272
 20
583.72629345627331
 11
521.49744862024272
 21
585.72629345627331
  0
LINE
  8
_0-e_極細4
  6
CONTINUOUS
 62
    6
 10
518.49744862024272
 20
583.72629345627331
 11
518.49744862024272
 21
585.72629345627331
  0
LINE
  8
_0-e_極細4
  6
CONTINUOUS
 62
    6
 10
515.49744862024272
 20
583.72629345627331
 11
515.49744862024272
 21
585.72629345627365
  0
LINE
  8
_0-e_極細4
  6
CONTINUOUS
 62
    6
 10
512.49744862024272
 20
583.72629345627331
 11
512.49744862024272
 21
585.72629345627365
  0
LINE
  8
_0-e_極細4
  6
CONTINUOUS
 62
    6
 10
509.49744862024272
 20
583.72629345627331
 11
509.49744862024272
 21
585.72629345627365
  0
LINE
  8
_0-e_極細4
  6
CONTINUOUS
 62
    6
 10
506.49744862024272
 20
583.72629345627331
 11
506.49744862024272
 21
585.72629345627365
  0
LINE
  8
_0-e_極細4
  6
CONTINUOUS
 62
    6
 10
503.49744862024272
 20
583.72629345627331
 11
503.49744862024272
 21
585.72629345627331
  0
LINE
  8
_0-e_極細4
  6
CONTINUOUS
 62
    6
 10
500.49744862024272
 20
583.72629345627331
 11
500.49744862024272
 21
585.72629345627331
  0
LINE
  8
_0-e_極細4
  6
CONTINUOUS
 62
    6
 10
497.49744862024272
 20
583.72629345627331
 11
497.49744862024272
 21
585.72629345627331
  0
LINE
  8
_0-e_極細4
  6
CONTINUOUS
 62
    6
 10
494.49744862024272
 20
583.72629345627331
 11
494.49744862024272
 21
585.72629345627331
  0
LINE
  8
_0-e_極細4
  6
CONTINUOUS
 62
    6
 10
491.49744862024272
 20
583.72629345627331
 11
491.49744862024272
 21
585.72629345627331
  0
LINE
  8
_0-e_極細4
  6
CONTINUOUS
 62
    6
 10
488.49744862024272
 20
583.72629345627331
 11
488.49744862024272
 21
585.72629345627331
  0
LINE
  8
_0-e_極細4
  6
CONTINUOUS
 62
    6
 10
485.49744862024272
 20
583.72629345627331
 11
485.49744862024272
 21
585.72629345627331
  0
LINE
  8
_0-e_極細4
  6
CONTINUOUS
 62
    6
 10
482.49744862024272
 20
583.72629345627331
 11
482.49744862024272
 21
585.72629345627331
  0
LINE
  8
_0-e_極細4
  6
CONTINUOUS
 62
    6
 10
479.49744862024272
 20
583.72629345627331
 11
479.49744862024272
 21
585.72629345627331
  0
LINE
  8
_0-e_極細4
  6
CONTINUOUS
 62
    6
 10
476.49744862024272
 20
583.72629345627331
 11
476.49744862024272
 21
585.72629345627331
  0
LINE
  8
_0-e_極細4
  6
CONTINUOUS
 62
    6
 10
473.49744862024272
 20
583.72629345627331
 11
473.49744862024272
 21
585.72629345627331
  0
LINE
  8
_0-e_極細4
  6
CONTINUOUS
 62
    6
 10
470.49744862024272
 20
583.72629345627331
 11
470.49744862024272
 21
585.72629345627331
  0
LINE
  8
_0-e_極細4
  6
CONTINUOUS
 62
    6
 10
467.49744862024272
 20
583.72629345627331
 11
467.49744862024272
 21
585.72629345627331
  0
LINE
  8
_0-e_極細4
  6
CONTINUOUS
 62
    6
 10
464.49744862024272
 20
583.72629345627331
 11
464.49744862024272
 21
585.72629345627331
  0
LINE
  8
_0-e_極細4
  6
CONTINUOUS
 62
    6
 10
461.49744862024272
 20
583.72629345627331
 11
461.49744862024272
 21
585.72629345627331
  0
LINE
  8
_0-e_極細4
  6
CONTINUOUS
 62
    6
 10
458.49744862024272
 20
583.72629345627331
 11
458.49744862024272
 21
585.72629345627331
  0
LINE
  8
_0-e_極細4
  6
CONTINUOUS
 62
    6
 10
455.49744862024272
 20
583.72629345627331
 11
455.49744862024272
 21
585.72629345627331
  0
LINE
  8
_0-e_極細4
  6
CONTINUOUS
 62
    6
 10
452.49744862024272
 20
583.72629345627331
 11
452.49744862024272
 21
585.72629345627331
  0
LINE
  8
_0-e_極細4
  6
CONTINUOUS
 62
    6
 10
449.49744862024272
 20
583.72629345627331
 11
449.49744862024272
 21
585.72629345627331
  0
LINE
  8
_0-e_極細4
  6
CONTINUOUS
 62
    6
 10
446.49744862024272
 20
583.72629345627331
 11
446.49744862024272
 21
585.72629345627331
  0
LINE
  8
_0-e_極細4
  6
CONTINUOUS
 62
    6
 10
443.49744862024272
 20
583.72629345627331
 11
443.49744862024272
 21
585.72629345627331
  0
LINE
  8
_0-e_極細4
  6
CONTINUOUS
 62
    6
 10
440.49744862024272
 20
583.72629345627331
 11
440.49744862024272
 21
585.72629345627331
  0
LINE
  8
_0-e_極細4
  6
CONTINUOUS
 62
    6
 10
437.49744862024272
 20
583.72629345627331
 11
437.49744862024272
 21
585.72629345627331
  0
LINE
  8
_0-e_極細4
  6
CONTINUOUS
 62
    6
 10
434.49744862024272
 20
583.72629345627331
 11
434.49744862024272
 21
585.72629345627331
  0
LINE
  8
_0-e_極細4
  6
CONTINUOUS
 62
    6
 10
431.49744862024272
 20
583.72629345627331
 11
431.49744862024272
 21
585.72629345627331
  0
LINE
  8
_0-e_極細4
  6
CONTINUOUS
 62
    6
 10
428.49744862024272
 20
583.72629345627331
 11
428.49744862024272
 21
585.72629345627331
  0
LINE
  8
_0-e_極細4
  6
CONTINUOUS
 62
    6
 10
425.49744862024272
 20
583.72629345627331
 11
425.49744862024272
 21
585.72629345627331
  0
LINE
  8
_0-e_極細4
  6
CONTINUOUS
 62
    6
 10
422.49744862024272
 20
583.72629345627331
 11
422.49744862024272
 21
585.72629345627331
  0
LINE
  8
_0-e_極細4
  6
CONTINUOUS
 62
    6
 10
518.49744862024272
 20
549.87749090270745
 11
518.49744862024272
 21
581.34903527963991
  0
LINE
  8
_0-e_極細4
  6
CONTINUOUS
 62
    6
 10
515.49744862024272
 20
548.14045489628052
 11
515.49744862024272
 21
576.98039019217663
  0
LINE
  8
_0-e_極細4
  6
CONTINUOUS
 62
    6
 10
512.49744862024272
 20
548.14045489628052
 11
512.49744862024272
 21
576.74045489628054
  0
LINE
  8
_0-e_極細4
  6
CONTINUOUS
 62
    6
 10
509.49744862024272
 20
548.14045489628052
 11
509.49744862024272
 21
552.14045489628052
  0
LINE
  8
_0-e_極細4
  6
CONTINUOUS
 62
    6
 10
506.49744862024272
 20
548.14045489628052
 11
506.49744862024272
 21
552.14045489628052
  0
LINE
  8
_0-e_極細4
  6
CONTINUOUS
 62
    6
 10
332.49744862024454
 20
548.14045489628052
 11
332.49744862024454
 21
552.14045489628052
  0
LINE
  8
_0-e_極細4
  6
CONTINUOUS
 62
    6
 10
329.49744862024454
 20
548.14045489628052
 11
329.49744862024454
 21
575.6579511916517
  0
LINE
  8
_0-e_極細4
  6
CONTINUOUS
 62
    6
 10
326.49744862024454
 20
548.14045489628052
 11
326.49744862024454
 21
576.74045489628054
  0
LINE
  8
_0-e_極細4
  6
CONTINUOUS
 62
    6
 10
323.49744862024454
 20
548.14045489628052
 11
323.49744862024454
 21
577.24394617082737
  0
LINE
  8
_0-e_極細4
  6
CONTINUOUS
 62
    6
 10
320.49744862024454
 20
550.40341888985472
 11
320.49744862024454
 21
581.62210192584291
  0
LINE
  8
_0-e_極細4
  6
CONTINUOUS
 62
    6
 10
335.49744862024454
 20
548.34201289628118
 11
335.49744862024454
 21
556.14045489628052
  0
LINE
  8
_0-e_極細4
  6
CONTINUOUS
 62
    6
 10
503.49744862024272
 20
548.34201289628118
 11
503.49744862024272
 21
556.14045489628052
  0
LINE
  8
_0-e_極細4
  6
CONTINUOUS
 62
    6
 10
333.06041261381756
 20
563.27437112119253
 11
340.3387163889056
 21
563.27437112119253
  0
LINE
  8
_0-e_極細4
  6
CONTINUOUS
 62
    6
 10
332.88884129386315
 20
566.27437112119253
 11
340.58210883872925
 21
566.27437112119253
  0
LINE
  8
_0-e_極細4
  6
CONTINUOUS
 62
    6
 10
499.18210883873076
 20
563.27437112119253
 11
506.46041261381652
 21
563.27437112119253
  0
LINE
  8
_0-e_極細4
  6
CONTINUOUS
 62
    6
 10
498.93871638890528
 20
566.27437112119253
 11
506.63198393377024
 21
566.27437112119253
  0
ARC
  8
_0-e_極細4
  6
CONTINUOUS
 62
    6
 10
353.76041261381761
 20
543.09050489628055
 40
12.000000000000002
 50
0
 51
24.886947317071971
  0
ARC
  8
_0-e_極細4
  6
CONTINUOUS
 62
    6
 10
350.76041261381761
 20
548.34201289628118
 40
6.0000000000000009
 50
129.97050058003998
 51
181.92509931280051
  0
LINE
  8
_0-e_極細4
  6
CONTINUOUS
 62
    6
 10
364.64609150846991
 20
548.14045489628052
 11
344.76379903842098
 21
548.14045489628052
  0
ARC
  8
_0-e_極細4
  6
CONTINUOUS
 62
    6
 10
353.76041261381761
 20
543.09050489628055
 40
12.000000000000002
 50
24.886947317071971
 51
124.83370764384436
  0
LINE
  8
_0-e_極細4
  6
CONTINUOUS
 62
    6
 10
362.49744862024454
 20
548.14045489628052
 11
362.49744862024454
 21
551.31633019362425
  0
LINE
  8
_0-e_極細4
  6
CONTINUOUS
 62
    6
 10
359.49744862024454
 20
548.14045489628052
 11
359.49744862024454
 21
553.63025906139148
  0
LINE
  8
_0-e_極細4
  6
CONTINUOUS
 62
    6
 10
356.49744862024454
 20
548.14045489628052
 11
356.49744862024454
 21
554.7741958327756
  0
LINE
  8
_0-e_極細4
  6
CONTINUOUS
 62
    6
 10
353.49744862024454
 20
548.14045489628052
 11
353.49744862024454
 21
555.08762329771753
  0
LINE
  8
_0-e_極細4
  6
CONTINUOUS
 62
    6
 10
350.49744862024454
 20
548.14045489628052
 11
350.49744862024454
 21
554.63836469698117
  0
LINE
  8
_0-e_極細4
  6
CONTINUOUS
 62
    6
 10
347.49744862024454
 20
548.14045489628052
 11
347.49744862024454
 21
553.32648467425963
  0
ARC
  8
_0-e_極細4
  6
CONTINUOUS
 62
    6
 10
485.76041261381761
 20
543.09050489628055
 40
12.000000000000002
 50
155.11305268292938
 51
179.99999999999983
  0
LINE
  8
_0-e_極細4
  6
CONTINUOUS
 62
    6
 10
474.87473371916462
 20
548.14045489628052
 11
494.75702618921423
 21
548.14045489628052
  0
ARC
  8
_0-e_極細4
  6
CONTINUOUS
 62
    6
 10
488.76041261381761
 20
548.34201289628118
 40
6.0000000000000009
 50
358.07490068719915
 51
50.029499419959699
  0
ARC
  8
_0-e_極細4
  6
CONTINUOUS
 62
    6
 10
485.76041261381761
 20
543.09050489628055
 40
12.000000000000002
 50
55.166292356155637
 51
155.11305268292938
  0
LINE
  8
_0-e_極細4
  6
CONTINUOUS
 62
    6
 10
494.49744862024272
 20
548.14045489628052
 11
494.49744862024272
 21
550.09883328009028
  0
LINE
  8
_0-e_極細4
  6
CONTINUOUS
 62
    6
 10
491.49744862024272
 20
548.14045489628052
 11
491.49744862024272
 21
553.63025906139148
  0
LINE
  8
_0-e_極細4
  6
CONTINUOUS
 62
    6
 10
488.49744862024272
 20
548.14045489628052
 11
488.49744862024272
 21
554.7741958327756
  0
LINE
  8
_0-e_極細4
  6
CONTINUOUS
 62
    6
 10
485.49744862024272
 20
548.14045489628052
 11
485.49744862024272
 21
555.08762329771753
  0
LINE
  8
_0-e_極細4
  6
CONTINUOUS
 62
    6
 10
482.49744862024272
 20
548.14045489628052
 11
482.49744862024272
 21
554.63836469698117
  0
LINE
  8
_0-e_極細4
  6
CONTINUOUS
 62
    6
 10
479.49744862024272
 20
548.14045489628052
 11
479.49744862024272
 21
553.32648467425963
  0
LINE
  8
_0-e_極細4
  6
CONTINUOUS
 62
    6
 10
476.49744862024272
 20
548.14045489628052
 11
476.49744862024272
 21
550.71923336528243
  0
LINE
  8
_0-e_極細4
  6
CONTINUOUS
 62
    6
 10
519.71841261381746
 20
580.07437112119271
 11
531.38068021458571
 21
580.07437112119271
  0
LINE
  8
_0-e_極細4
  6
CONTINUOUS
 62
    6
 10
520.75783822685844
 20
581.87437112119233
 11
533.5604126138187
 21
581.87437112119233
  0
LINE
  8
_0-e_極細4
  6
CONTINUOUS
 62
    6
 10
533.39563141178405
 20
583.67437112119308
 11
533.5604126138187
 21
583.67437112119308
  0
LINE
  8
_0-e_極細4
  6
CONTINUOUS
 62
    6
 10
308.14014501304882
 20
580.07437112119271
 11
319.80241261381707
 21
580.07437112119271
  0
LINE
  8
_0-e_極細4
  6
CONTINUOUS
 62
    6
 10
305.96041261381652
 20
581.87437112119233
 11
318.76298700077496
 21
581.87437112119233
  0
LINE
  8
_0-e_極細4
  6
CONTINUOUS
 62
    6
 10
305.96041261381652
 20
583.67437112119308
 11
306.12519381585048
 21
583.67437112119308
  0
LINE
  8
_0-e_極細4
  6
DASHED2
 62
    6
 10
285.77036965765978
 20
408.04191375571531
 11
284.89730578337367
 21
424.25697336439083
  0
LINE
  8
_0-e_極細4
  6
DASHED2
 62
    6
 10
274.91176956691197
 20
433.71932434265767
 11
263.23984889985331
 21
433.71932434260856
  0
LINE
  8
_0-e_極細4
  6
DASHED2
 62
    6
 10
585.76041262206672
 20
433.71932434260555
 11
615.61681908192077
 21
441.71932434246605
  0
LINE
  8
_0-e_極細4
  6
DASHED2
 62
    6
 10
615.61681908192622
 20
441.7193243424685
 11
629.76041261539581
 21
441.71932434243695
  0
LINE
  8
_0-e_極細4
  6
CONTINUOUS
 62
    6
 10
678.92760282057066
 20
413.34630068946302
 11
679.76041261539581
 21
414.17911048428846
  0
LINE
  8
_0-e_極細4
  6
CONTINUOUS
 62
    6
 10
674.76489029713957
 20
413.42622885314972
 11
679.76041261539581
 21
418.42175117140755
  0
LINE
  8
_0-e_極細4
  6
CONTINUOUS
 62
    6
 10
670.60217777370713
 20
413.50615701683705
 11
679.76041261539581
 21
422.66439185852727
  0
LINE
  8
_0-e_極細4
  6
CONTINUOUS
 62
    6
 10
666.43946525027354
 20
413.58608518052438
 11
679.75925348525016
 21
426.9058734154994
  0
LINE
  8
_0-e_極細4
  6
CONTINUOUS
 62
    6
 10
662.27675272684246
 20
413.66601334421142
 11
678.41367884138094
 21
429.80293945874996
  0
LINE
  8
_0-e_極細4
  6
CONTINUOUS
 62
    6
 10
658.11404020341001
 20
413.74594150789875
 11
675.1893840523062
 21
430.82128535679334
  0
LINE
  8
_0-e_極細4
  6
CONTINUOUS
 62
    6
 10
653.95132767997893
 20
413.82586967158608
 11
671.02667152887375
 21
430.90121352048038
  0
LINE
  8
_0-e_極細4
  6
CONTINUOUS
 62
    6
 10
649.78861515654648
 20
413.9057978352734
 11
666.86395900544017
 21
430.98114168416799
  0
LINE
  8
_0-e_極細4
  6
CONTINUOUS
 62
    6
 10
645.6259026331154
 20
413.98572599896011
 11
662.70124648200908
 21
431.06106984785504
  0
LINE
  8
_0-e_極細4
  6
CONTINUOUS
 62
    6
 10
641.46319010968182
 20
414.06565416264743
 11
658.53853395857664
 21
431.14099801154265
  0
LINE
  8
_0-e_極細4
  6
CONTINUOUS
 62
    6
 10
639.03204043131882
 20
415.87714517140324
 11
654.37582143514555
 21
431.22092617522969
  0
LINE
  8
_0-e_極細4
  6
CONTINUOUS
 62
    6
 10
636.98435615696803
 20
418.07210158417161
 11
650.21310891171311
 21
431.30085433891668
  0
LINE
  8
_0-e_極細4
  6
CONTINUOUS
 62
    6
 10
634.29878006651234
 20
419.62916618083585
 11
646.05039638827952
 21
431.38078250260401
  0
LINE
  8
_0-e_極細4
  6
CONTINUOUS
 62
    6
 10
631.60905365001054
 20
421.18208045145224
 11
641.88768386484844
 21
431.46071066629133
  0
LINE
  8
_0-e_極細4
  6
CONTINUOUS
 62
    6
 10
628.91932723350874
 20
422.73499472206925
 11
637.9254134246396
 21
431.74108091320136
  0
LINE
  8
_0-e_極細4
  6
CONTINUOUS
 62
    6
 10
626.22960081700444
 20
424.28790899268682
 11
634.90685258021222
 21
432.96516075589329
  0
LINE
  8
_0-e_極細4
  6
CONTINUOUS
 62
    6
 10
623.5398744005015
 20
425.84082326330349
 11
632.60387355545322
 21
434.90482241825441
  0
LINE
  8
_0-e_極細4
  6
CONTINUOUS
 62
    6
 10
620.85014798400152
 20
427.39373753392022
 11
630.95695320196864
 21
437.50054275188853
  0
LINE
  8
_0-e_極細4
  6
CONTINUOUS
 62
    6
 10
618.16042156749972
 20
428.94665180453779
 11
629.99494891339714
 21
440.78117915043617
  0
LINE
  8
_0-e_極細4
  6
CONTINUOUS
 62
    6
 10
615.47069515099611
 20
430.49956607515446
 11
629.14642077597387
 21
444.17529170013142
  0
LINE
  8
_0-e_極細4
  6
CONTINUOUS
 62
    6
 10
612.78096873449431
 20
432.05248034577176
 11
628.29789263854946
 21
447.56940424982753
  0
LINE
  8
_0-e_極細4
  6
CONTINUOUS
 62
    6
 10
610.09124231799251
 20
433.60539461638876
 11
627.44936450112618
 21
450.96351679952272
  0
LINE
  8
_0-e_極細4
  6
CONTINUOUS
 62
    6
 10
605.96253135696134
 20
433.7193243424764
 11
625.96253135692859
 21
453.71932434244366
  0
LINE
  8
_0-e_極細4
  6
CONTINUOUS
 62
    6
 10
601.71989066986862
 20
433.71932434250368
 11
621.71989066982314
 21
453.71932434245878
  0
LINE
  8
_0-e_極細4
  6
CONTINUOUS
 62
    6
 10
597.4772499827759
 20
433.71932434253063
 11
617.47724998271951
 21
453.71932434247395
  0
LINE
  8
_0-e_極細4
  6
CONTINUOUS
 62
    6
 10
593.234609295685
 20
433.71932434255791
 11
610.11249077496359
 21
450.59720582183866
  0
LINE
  8
_0-e_極細4
  6
CONTINUOUS
 62
    6
 10
588.99196860859229
 20
433.7193243425852
 11
604.31693581721811
 21
449.04429155121102
  0
LINE
  8
_0-e_極細4
  6
CONTINUOUS
 62
    6
 10
584.74932792149957
 20
433.71932434261248
 11
598.52138085947081
 21
447.49137728058281
  0
LINE
  8
_0-e_極細4
  6
CONTINUOUS
 62
    6
 10
580.50668723440867
 20
433.71932434263948
 11
592.72582590172351
 21
445.93846300995551
  0
LINE
  8
_0-e_極細4
  6
CONTINUOUS
 62
    6
 10
576.26404654731414
 20
433.71932434266677
 11
586.93027094397621
 21
444.38554873932731
  0
LINE
  8
_0-e_極細4
  6
CONTINUOUS
 62
    6
 10
572.02140586022324
 20
433.71932434269405
 11
582.02140586011046
 21
443.71932434257974
  0
LINE
  8
_0-e_極細4
  6
CONTINUOUS
 62
    6
 10
567.77876517313234
 20
433.71932434272134
 11
577.77876517300319
 21
443.71932434259247
  0
LINE
  8
_0-e_極細4
  6
CONTINUOUS
 62
    6
 10
563.53612448603963
 20
433.71932434274862
 11
573.53612448589593
 21
443.71932434260555
  0
LINE
  8
_0-e_極細4
  6
CONTINUOUS
 62
    6
 10
559.29348379894691
 20
433.71932434277528
 11
569.29348379879048
 21
443.71932434261947
  0
LINE
  8
_0-e_極細4
  6
CONTINUOUS
 62
    6
 10
555.05084311185601
 20
433.719324342802
 11
565.05084311168866
 21
443.71932434263766
  0
LINE
  8
_0-e_極細4
  6
CONTINUOUS
 62
    6
 10
538.08028036322321
 20
433.7193243426492
 11
553.6393734103367
 21
449.27841738976053
  0
LINE
  8
_0-e_極細4
  6
CONTINUOUS
 62
    6
 10
533.83763967612504
 20
433.71932434267069
 11
553.20423077576197
 21
453.08591544230615
  0
LINE
  8
_0-e_極細4
  6
CONTINUOUS
 62
    6
 10
529.76041261586329
 20
433.88473796952599
 11
539.59499898899958
 21
443.7193243426625
  0
LINE
  8
_0-e_極細4
  6
CONTINUOUS
 62
    6
 10
541.76041261587125
 20
445.8847379695336
 11
552.76908814118838
 21
456.89341349485142
  0
LINE
  8
_0-e_極細4
  6
CONTINUOUS
 62
    6
 10
529.76041261586579
 20
438.12737865664815
 11
535.35235830189231
 21
443.71932434267524
  0
LINE
  8
_0-e_極細4
  6
CONTINUOUS
 62
    6
 10
541.76041261587307
 20
450.12737865665599
 11
552.33394550661365
 21
460.70091154739669
  0
LINE
  8
_0-e_極細4
  6
CONTINUOUS
 62
    6
 10
529.76041261586761
 20
442.37001934376997
 11
531.10971761478686
 21
443.71932434268797
  0
LINE
  8
_0-e_極細4
  6
CONTINUOUS
 62
    6
 10
541.7604126158767
 20
454.37001934377844
 11
551.83846919011921
 21
464.44807591802095
  0
LINE
  8
_0-e_極細4
  6
CONTINUOUS
 62
    6
 10
538.86707692764503
 20
455.71932434266495
 11
548.86707692761411
 21
465.71932434263584
  0
LINE
  8
_0-e_極細4
  6
CONTINUOUS
 62
    6
 10
534.62443624053776
 20
455.71932434267796
 11
544.62443624050684
 21
465.71932434264858
  0
LINE
  8
_0-e_極細4
  6
CONTINUOUS
 62
    6
 10
530.38179555342981
 20
455.71932434269041
 11
540.38179555340139
 21
465.71932434266068
  0
LINE
  8
_0-e_極細4
  6
CONTINUOUS
 62
    6
 10
529.76041261587852
 20
459.34058209225725
 11
536.13915486629412
 21
465.71932434267285
  0
LINE
  8
_0-e_極細4
  6
CONTINUOUS
 62
    6
 10
529.76041261587852
 20
463.58322277937816
 11
531.89651417918617
 21
465.71932434268558
  0
LINE
  8
_0-e_極細4
  6
CONTINUOUS
 62
    6
 10
673.92042841714101
 20
276.81726498533476
 11
679.76041261539581
 21
282.65724918359092
  0
LINE
  8
_0-e_極細4
  6
CONTINUOUS
 62
    6
 10
669.75771589370856
 20
276.89719314902186
 11
679.76041261539581
 21
286.89988987070967
  0
LINE
  8
_0-e_極細4
  6
CONTINUOUS
 62
    6
 10
665.59500337027748
 20
276.97712131270885
 11
679.76041261539581
 21
291.14253055782933
  0
LINE
  8
_0-e_極細4
  6
CONTINUOUS
 62
    6
 10
661.4322908468439
 20
277.05704947639617
 11
678.50763469573872
 21
294.13239332529042
  0
LINE
  8
_0-e_極細4
  6
CONTINUOUS
 62
    6
 10
657.26957832341145
 20
277.1369776400835
 11
674.34492217230763
 21
294.21232148897775
  0
LINE
  8
_0-e_極細4
  6
CONTINUOUS
 62
    6
 10
653.10686579998037
 20
277.21690580377083
 11
670.18220964887405
 21
294.29224965266508
  0
LINE
  8
_0-e_極細4
  6
CONTINUOUS
 62
    6
 10
648.94415327654792
 20
277.29683396745816
 11
666.0194971254416
 21
294.3721778163524
  0
LINE
  8
_0-e_極細4
  6
CONTINUOUS
 62
    6
 10
644.78144075311684
 20
277.37676213114514
 11
661.85678460201052
 21
294.45210598003951
  0
LINE
  8
_0-e_極細4
  6
CONTINUOUS
 62
    6
 10
640.61872822968439
 20
277.45669029483247
 11
657.69407207857807
 21
294.53203414372706
  0
LINE
  8
_0-e_極細4
  6
CONTINUOUS
 62
    6
 10
636.21627892919355
 20
277.29688168146254
 11
653.53135955514699
 21
294.61196230741416
  0
LINE
  8
_0-e_極細4
  6
CONTINUOUS
 62
    6
 10
629.15588287178434
 20
274.47912631117026
 11
649.36864703171454
 21
294.69189047110171
  0
LINE
  8
_0-e_極細4
  6
CONTINUOUS
 62
    6
 10
624.16040932973738
 20
273.72629345624512
 11
645.20593450828346
 21
294.77181863478881
  0
LINE
  8
_0-e_極細4
  6
CONTINUOUS
 62
    6
 10
619.91776864262283
 20
273.7262934562475
 11
633.80132167381998
 21
287.60984648744534
  0
LINE
  8
_0-e_極細4
  6
CONTINUOUS
 62
    6
 10
639.68782896321795
 20
293.49635377684365
 11
641.04322198485102
 21
294.85174679847637
  0
LINE
  8
_0-e_極細4
  6
CONTINUOUS
 62
    6
 10
615.67512795550465
 20
273.72629345624932
 11
625.94020536868925
 21
283.99137086943404
  0
LINE
  8
_0-e_極細4
  6
CONTINUOUS
 62
    6
 10
611.43248726838647
 20
273.72629345625057
 11
621.43248726838283
 21
283.72629345624659
  0
LINE
  8
_0-e_極細4
  6
CONTINUOUS
 62
    6
 10
607.18984658126942
 20
273.72629345625296
 11
617.18984658126465
 21
283.72629345624841
  0
LINE
  8
_0-e_極細4
  6
CONTINUOUS
 62
    6
 10
602.94720589415192
 20
273.72629345625478
 11
612.94720589414828
 21
283.72629345625023
  0
LINE
  8
_0-e_極細4
  6
CONTINUOUS
 62
    6
 10
598.70456520703556
 20
273.72629345625603
 11
608.7045652070301
 21
283.72629345625205
  0
LINE
  8
_0-e_極細4
  6
CONTINUOUS
 62
    6
 10
594.46192451991737
 20
273.72629345625842
 11
604.46192451991374
 21
283.72629345625387
  0
LINE
  8
_0-e_極細4
  6
CONTINUOUS
 62
    6
 10
590.21928383279919
 20
273.72629345626024
 11
600.21928383279555
 21
283.72629345625569
  0
LINE
  8
_0-e_極細4
  6
CONTINUOUS
 62
    6
 10
585.97664314568283
 20
273.72629345626149
 11
595.97664314567555
 21
283.72629345625751
  0
LINE
  8
_0-e_極細4
  6
CONTINUOUS
 62
    6
 10
581.73400245856465
 20
273.72629345626387
 11
591.73400245856101
 21
283.72629345625933
  0
LINE
  8
_0-e_極細4
  6
CONTINUOUS
 62
    6
 10
577.49136177144828
 20
273.72629345626569
 11
587.49136177144283
 21
283.72629345626115
  0
LINE
  8
_0-e_極細4
  6
CONTINUOUS
 62
    6
 10
573.2487210843301
 20
273.72629345626751
 11
583.24872108432646
 21
283.72629345626297
  0
LINE
  8
_0-e_極細4
  6
CONTINUOUS
 62
    6
 10
569.0060803972101
 20
273.72629345626933
 11
579.00608039720646
 21
283.72629345626478
  0
LINE
  8
_0-e_極細4
  6
CONTINUOUS
 62
    6
 10
564.76343971009555
 20
273.72629345627115
 11
574.7634397100901
 21
283.7262934562666
  0
LINE
  8
_0-e_極細4
  6
CONTINUOUS
 62
    6
 10
560.52079902297669
 20
273.7262934562724
 11
570.52079902297373
 21
283.72629345626876
  0
LINE
  8
_0-e_極細4
  6
CONTINUOUS
 62
    6
 10
556.27815833586101
 20
273.72629345627479
 11
566.27815833585555
 21
283.72629345627058
  0
LINE
  8
_0-e_極細4
  6
CONTINUOUS
 62
    6
 10
552.03551764874101
 20
273.72629345627661
 11
562.03551764873737
 21
283.72629345627206
  0
LINE
  8
_0-e_極細4
  6
CONTINUOUS
 62
    6
 10
547.79287696162464
 20
273.72629345627786
 11
557.792876961621
 21
283.72629345627388
  0
LINE
  8
_0-e_極細4
  6
CONTINUOUS
 62
    6
 10
543.5502362745076
 20
273.72629345628025
 11
553.55023627450282
 21
283.7262934562757
  0
LINE
  8
_0-e_極細4
  6
CONTINUOUS
 62
    6
 10
539.3075955873901
 20
273.72629345628206
 11
549.30759558738646
 21
283.72629345627786
  0
LINE
  8
_0-e_極細4
  6
CONTINUOUS
 62
    6
 10
535.06495490027191
 20
273.72629345628388
 11
545.06495490026828
 21
283.72629345627934
  0
LINE
  8
_0-e_極細4
  6
CONTINUOUS
 62
    6
 10
530.82231421315555
 20
273.7262934562857
 11
540.82231421315191
 21
283.72629345628116
  0
LINE
  8
_0-e_極細4
  6
CONTINUOUS
 62
    6
 10
526.57967352603737
 20
273.72629345628752
 11
536.57967352603373
 21
283.72629345628332
  0
LINE
  8
_0-e_極細4
  6
CONTINUOUS
 62
    6
 10
522.337032838921
 20
273.72629345628934
 11
532.33703283891487
 21
283.72629345628513
  0
LINE
  8
_0-e_極細4
  6
CONTINUOUS
 62
    6
 10
518.09439215180282
 20
273.72629345629116
 11
528.09439215179918
 21
283.72629345628661
  0
LINE
  8
_0-e_極細4
  6
CONTINUOUS
 62
    6
 10
513.85175146468646
 20
273.72629345629298
 11
523.85175146467918
 21
283.72629345628843
  0
LINE
  8
_0-e_極細4
  6
CONTINUOUS
 62
    6
 10
509.60911077756828
 20
273.7262934562948
 11
519.60911077756464
 21
283.72629345629059
  0
LINE
  8
_0-e_極細4
  6
CONTINUOUS
 62
    6
 10
505.36647009044941
 20
273.72629345629662
 11
515.36647009044577
 21
283.72629345629241
  0
LINE
  8
_0-e_極細4
  6
CONTINUOUS
 62
    6
 10
501.12382940333373
 20
273.72629345629844
 11
511.12382940332827
 21
283.72629345629423
  0
LINE
  8
_0-e_極細4
  6
CONTINUOUS
 62
    6
 10
496.88118871621373
 20
273.72629345630025
 11
506.88118871621009
 21
283.72629345629605
  0
LINE
  8
_0-e_極細4
  6
CONTINUOUS
 62
    6
 10
492.63854802909736
 20
273.72629345630207
 11
502.63854802909373
 21
283.72629345629787
  0
LINE
  8
_0-e_極細4
  6
CONTINUOUS
 62
    6
 10
488.39590734198032
 20
273.72629345630389
 11
498.39590734197668
 21
283.72629345629969
  0
LINE
  8
_0-e_極細4
  6
CONTINUOUS
 62
    6
 10
484.15326665486282
 20
273.72629345630571
 11
494.15326665485918
 21
283.72629345630151
  0
LINE
  8
_0-e_極細4
  6
CONTINUOUS
 62
    6
 10
479.91062596774464
 20
273.72629345630753
 11
489.910625967741
 21
283.72629345630332
  0
LINE
  8
_0-e_極細4
  6
CONTINUOUS
 62
    6
 10
475.66798528062827
 20
273.72629345630935
 11
485.66798528062463
 21
283.72629345630514
  0
LINE
  8
_0-e_極細4
  6
CONTINUOUS
 62
    6
 10
471.42534459351009
 20
273.72629345631151
 11
481.42534459350645
 21
283.72629345630696
  0
LINE
  8
_0-e_極細4
  6
CONTINUOUS
 62
    6
 10
467.18270390639373
 20
273.72629345631299
 11
477.18270390639009
 21
283.72629345630935
  0
LINE
  8
_0-e_極細4
  6
CONTINUOUS
 62
    6
 10
462.94006321927554
 20
273.72629345631481
 11
472.94006321927191
 21
283.7262934563106
  0
LINE
  8
_0-e_極細4
  6
CONTINUOUS
 62
    6
 10
458.69742253215918
 20
273.72629345631663
 11
468.6974225321519
 21
283.72629345631242
  0
LINE
  8
_0-e_極細4
  6
CONTINUOUS
 62
    6
 10
454.454781845041
 20
273.72629345631844
 11
464.45478184503736
 21
283.72629345631481
  0
LINE
  8
_0-e_極細4
  6
CONTINUOUS
 62
    6
 10
450.21214115792213
 20
273.72629345632026
 11
460.2121411579185
 21
283.72629345631606
  0
LINE
  8
_0-e_極細4
  6
CONTINUOUS
 62
    6
 10
445.96950047080645
 20
273.72629345632208
 11
455.96950047080281
 21
283.72629345631788
  0
LINE
  8
_0-e_極細4
  6
CONTINUOUS
 62
    6
 10
441.72685978368645
 20
273.7262934563239
 11
451.72685978368281
 21
283.72629345631969
  0
LINE
  8
_0-e_極細4
  6
CONTINUOUS
 62
    6
 10
437.48421909657191
 20
273.7262934563264
 11
447.48421909656645
 21
283.72629345632151
  0
LINE
  8
_0-e_極細4
  6
CONTINUOUS
 62
    6
 10
433.24157840945259
 20
273.72629345632788
 11
443.24157840944895
 21
283.72629345632333
  0
LINE
  8
_0-e_極細4
  6
CONTINUOUS
 62
    6
 10
428.99893772233554
 20
273.72629345632936
 11
438.9989377223319
 21
283.72629345632572
  0
LINE
  8
_0-e_極細4
  6
CONTINUOUS
 62
    6
 10
424.75629703521736
 20
273.72629345633118
 11
434.75629703521372
 21
283.72629345632697
  0
LINE
  8
_0-e_極細4
  6
CONTINUOUS
 62
    6
 10
420.51365634810099
 20
273.72629345633334
 11
430.51365634809736
 21
283.72629345632879
  0
LINE
  8
_0-e_極細4
  6
CONTINUOUS
 62
    6
 10
419.76041261381761
 20
277.21569040916847
 11
426.27101566097917
 21
283.72629345633118
  0
LINE
  8
_0-e_極細4
  6
CONTINUOUS
 62
    6
 10
419.76041261381761
 20
281.45833109628722
 11
422.02837497386281
 21
283.726293456333
  0
LINE
  8
_0-e_極細4
  6
CONTINUOUS
 62
    6
 10
416.27101566098349
 20
273.72629345633482
 11
419.76041261381761
 21
277.21569040916847
  0
LINE
  8
_0-e_極細4
  6
CONTINUOUS
 62
    6
 10
412.02837497386645
 20
273.72629345633663
 11
419.76041261381761
 21
281.45833109628722
  0
LINE
  8
_0-e_極細4
  6
CONTINUOUS
 62
    6
 10
407.78573428674827
 20
273.72629345633845
 11
417.78573428674463
 21
283.72629345633425
  0
LINE
  8
_0-e_極細4
  6
CONTINUOUS
 62
    6
 10
403.5430935996319
 20
273.72629345634061
 11
413.54309359962826
 21
283.72629345633663
  0
LINE
  8
_0-e_極細4
  6
CONTINUOUS
 62
    6
 10
399.30045291251372
 20
273.72629345634277
 11
409.30045291251008
 21
283.72629345633845
  0
LINE
  8
_0-e_極細4
  6
CONTINUOUS
 62
    6
 10
395.05781222539736
 20
273.72629345634391
 11
405.05781222539076
 21
283.72629345634027
  0
LINE
  8
_0-e_極細4
  6
CONTINUOUS
 62
    6
 10
390.81517153827917
 20
273.72629345634607
 11
400.81517153827554
 21
283.72629345634209
  0
LINE
  8
_0-e_極細4
  6
CONTINUOUS
 62
    6
 10
386.57253085115917
 20
273.72629345634823
 11
396.57253085115553
 21
283.72629345634391
  0
LINE
  8
_0-e_極細4
  6
CONTINUOUS
 62
    6
 10
382.32989016404463
 20
273.72629345634971
 11
392.32989016404099
 21
283.72629345634573
  0
LINE
  8
_0-e_極細4
  6
CONTINUOUS
 62
    6
 10
378.08724947692531
 20
273.72629345635119
 11
388.08724947692167
 21
283.72629345634755
  0
LINE
  8
_0-e_極細4
  6
CONTINUOUS
 62
    6
 10
373.84460878981008
 20
273.72629345635301
 11
383.84460878980462
 21
283.72629345634937
  0
LINE
  8
_0-e_極細4
  6
CONTINUOUS
 62
    6
 10
369.60196810269008
 20
273.72629345635551
 11
379.60196810268644
 21
283.72629345635119
  0
LINE
  8
_0-e_極細4
  6
CONTINUOUS
 62
    6
 10
365.35932741557372
 20
273.72629345635664
 11
375.35932741557008
 21
283.72629345635301
  0
LINE
  8
_0-e_極細4
  6
CONTINUOUS
 62
    6
 10
361.11668672845622
 20
273.72629345635846
 11
371.11668672845258
 21
283.72629345635482
  0
LINE
  8
_0-e_極細4
  6
CONTINUOUS
 62
    6
 10
356.87404604133917
 20
273.72629345636096
 11
366.87404604133553
 21
283.72629345635664
  0
LINE
  8
_0-e_極細4
  6
CONTINUOUS
 62
    6
 10
352.63140535422099
 20
273.72629345636244
 11
362.63140535421735
 21
283.72629345635846
  0
LINE
  8
_0-e_極細4
  6
CONTINUOUS
 62
    6
 10
348.38876466710462
 20
273.7262934563646
 11
358.38876466710099
 21
283.72629345636028
  0
LINE
  8
_0-e_極細4
  6
CONTINUOUS
 62
    6
 10
344.14612397998644
 20
273.72629345636608
 11
354.1461239799828
 21
283.7262934563621
  0
LINE
  8
_0-e_極細4
  6
CONTINUOUS
 62
    6
 10
339.90348329287008
 20
273.7262934563679
 11
349.90348329286644
 21
283.72629345636392
  0
LINE
  8
_0-e_極細4
  6
CONTINUOUS
 62
    6
 10
335.6608426057519
 20
273.72629345637006
 11
345.66084260574826
 21
283.72629345636574
  0
LINE
  8
_0-e_極細4
  6
CONTINUOUS
 62
    6
 10
331.41820191863553
 20
273.72629345637154
 11
341.41820191863189
 21
283.7262934563679
  0
LINE
  8
_0-e_極細4
  6
CONTINUOUS
 62
    6
 10
327.17556123151735
 20
273.72629345637336
 11
337.17556123151371
 21
283.72629345636938
  0
LINE
  8
_0-e_極細4
  6
CONTINUOUS
 62
    6
 10
322.93292054439848
 20
273.72629345637552
 11
332.93292054439439
 21
283.7262934563712
  0
LINE
  8
_0-e_極細4
  6
CONTINUOUS
 62
    6
 10
318.6902798572828
 20
273.72629345637733
 11
328.69027985727917
 21
283.72629345637301
  0
LINE
  8
_0-e_極細4
  6
CONTINUOUS
 62
    6
 10
314.4476391701628
 20
273.72629345637881
 11
324.44763917015916
 21
283.72629345637517
  0
LINE
  8
_0-e_極細4
  6
CONTINUOUS
 62
    6
 10
310.27558441190376
 20
273.79687938523762
 11
320.2049984830428
 21
283.72629345637733
  0
LINE
  8
_0-e_極細4
  6
CONTINUOUS
 62
    6
 10
306.67244272359494
 20
274.43637838404698
 11
315.96235779592575
 21
283.72629345637881
  0
LINE
  8
_0-e_極細4
  6
CONTINUOUS
 62
    6
 10
303.56454699940878
 20
275.57112334697968
 11
311.72215368068282
 21
283.72873002825395
  0
LINE
  8
_0-e_極細4
  6
CONTINUOUS
 62
    6
 10
300.8458102334032
 20
277.09502726809581
 11
308.20281893770266
 21
284.45203597239356
  0
LINE
  8
_0-e_極細4
  6
CONTINUOUS
 62
    6
 10
298.46677671385146
 20
278.95863443566282
 11
305.54714575544608
 21
286.03900347725767
  0
LINE
  8
_0-e_極細4
  6
CONTINUOUS
 62
    6
 10
296.40875999306922
 20
281.14325840199899
 11
303.55194368793786
 21
288.2864420968682
  0
LINE
  8
_0-e_極細4
  6
CONTINUOUS
 62
    6
 10
294.67621726506945
 20
283.6533563611199
 11
302.2581226710281
 21
291.23526176707651
  0
LINE
  8
_0-e_極細4
  6
CONTINUOUS
 62
    6
 10
293.29846970029394
 20
286.51824948346234
 11
301.85623268223208
 21
295.07601246540116
  0
LINE
  8
_0-e_極細4
  6
CONTINUOUS
 62
    6
 10
292.34258866699929
 20
289.80500913728713
 11
301.64047690290204
 21
299.10289737319158
  0
LINE
  8
_0-e_極細4
  6
CONTINUOUS
 62
    6
 10
291.93033454849751
 20
293.63539570590524
 11
301.42472112357427
 21
303.12978228098154
  0
LINE
  8
_0-e_極細4
  6
CONTINUOUS
 62
    6
 10
291.71357017883452
 20
297.66127202336133
 11
301.20896534424537
 21
307.15666718877139
  0
LINE
  8
_0-e_極細4
  6
CONTINUOUS
 62
    6
 10
291.49680580917152
 20
301.68714834081811
 11
300.99320956491533
 21
311.18355209656124
  0
LINE
  8
_0-e_極細4
  6
CONTINUOUS
 62
    6
 10
291.28004143950852
 20
305.71302465827443
 11
300.77745378558757
 21
315.21043700435177
  0
LINE
  8
_0-e_極細4
  6
CONTINUOUS
 62
    6
 10
291.06327706984553
 20
309.73890097573144
 11
300.56169800625867
 21
319.23732191214231
  0
LINE
  8
_0-e_極細4
  6
CONTINUOUS
 62
    6
 10
290.84651270018253
 20
313.76477729318754
 11
300.34594222692795
 21
323.26420681993181
  0
LINE
  8
_0-e_極細4
  6
CONTINUOUS
 62
    6
 10
290.62974833051953
 20
317.79065361064431
 11
300.13018644759836
 21
327.29109172772201
  0
LINE
  8
_0-e_極細4
  6
CONTINUOUS
 62
    6
 10
290.41298396085949
 20
321.81652992810064
 11
299.91443066827014
 21
331.31797663551225
  0
LINE
  8
_0-e_極細4
  6
CONTINUOUS
 62
    6
 10
290.1962195911965
 20
325.84240624555741
 11
299.69867488894124
 21
335.3448615433021
  0
LINE
  8
_0-e_極細4
  6
CONTINUOUS
 62
    6
 10
289.9794552215335
 20
329.86828256301345
 11
299.48291910961166
 21
339.37174645109229
  0
LINE
  8
_0-e_極細4
  6
CONTINUOUS
 62
    6
 10
289.7626908518705
 20
333.89415888047046
 11
299.26716333028344
 21
343.39863135888248
  0
LINE
  8
_0-e_極細4
  6
CONTINUOUS
 62
    6
 10
289.54592648220751
 20
337.92003519792655
 11
299.05140755095272
 21
347.42551626667267
  0
LINE
  8
_0-e_極細4
  6
CONTINUOUS
 62
    6
 10
289.32916211254451
 20
341.94591151538299
 11
298.83565177162382
 21
351.45240117446286
  0
LINE
  8
_0-e_極細4
  6
CONTINUOUS
 62
    6
 10
289.11239774288151
 20
345.97178783283965
 11
298.61989599229378
 21
355.47928608225249
  0
LINE
  8
_0-e_極細4
  6
CONTINUOUS
 62
    6
 10
288.89563337321852
 20
349.99766415029609
 11
298.40414021296601
 21
359.50617099004324
  0
LINE
  8
_0-e_極細4
  6
CONTINUOUS
 62
    6
 10
288.67886900355552
 20
354.02354046775275
 11
298.18838443363711
 21
363.53305589783287
  0
LINE
  8
_0-e_極細4
  6
CONTINUOUS
 62
    6
 10
288.46210463389434
 20
358.04941678520919
 11
297.97262865430707
 21
367.55994080562306
  0
LINE
  8
_0-e_極細4
  6
CONTINUOUS
 62
    6
 10
288.24534026423134
 20
362.07529310266528
 11
297.75687287497931
 21
371.58682571341325
  0
LINE
  8
_0-e_極細4
  6
CONTINUOUS
 62
    6
 10
288.02857589456835
 20
366.10116942012229
 11
297.54111709564859
 21
375.6137106212031
  0
LINE
  8
_0-e_極細4
  6
CONTINUOUS
 62
    6
 10
287.81181152490535
 20
370.12704573757838
 11
297.32536131631969
 21
379.64059552899363
  0
LINE
  8
_0-e_極細4
  6
CONTINUOUS
 62
    6
 10
287.59504715524236
 20
374.15292205503505
 11
297.1096055369901
 21
383.66748043678348
  0
LINE
  8
_0-e_極細4
  6
CONTINUOUS
 62
    6
 10
287.37828278557936
 20
378.17879837249149
 11
296.89384975766188
 21
387.69436534457367
  0
LINE
  8
_0-e_極細4
  6
CONTINUOUS
 62
    6
 10
287.16151841591636
 20
382.20467468994815
 11
296.67809397833298
 21
391.72125025236386
  0
LINE
  8
_0-e_極細4
  6
CONTINUOUS
 62
    6
 10
286.94475404625337
 20
386.23055100740459
 11
296.4623381990034
 21
395.74813516015405
  0
LINE
  8
_0-e_極細4
  6
CONTINUOUS
 62
    6
 10
286.72798967659151
 20
390.25642732486125
 11
296.24658241967518
 21
399.77502006794361
  0
LINE
  8
_0-e_極細4
  6
CONTINUOUS
 62
    6
 10
286.51122530692851
 20
394.28230364231763
 11
296.03082664034446
 21
403.80190497573381
  0
LINE
  8
_0-e_極細4
  6
CONTINUOUS
 62
    6
 10
286.29446093726551
 20
398.30817995977372
 11
295.81507086101556
 21
407.82878988352371
  0
LINE
  8
_0-e_極細4
  6
CONTINUOUS
 62
    6
 10
286.07769656760252
 20
402.33405627723045
 11
295.59931508168552
 21
411.85567479131419
  0
LINE
  8
_0-e_極細4
  6
CONTINUOUS
 62
    6
 10
285.86093219793952
 20
406.35993259468682
 11
295.38355930235775
 21
415.88255969910438
  0
LINE
  8
_0-e_極細4
  6
CONTINUOUS
 62
    6
 10
285.30801990441864
 20
410.04966098828521
 11
295.16780352302885
 21
419.90944460689428
  0
LINE
  8
_0-e_極細4
  6
CONTINUOUS
 62
    6
 10
283.46745059889327
 20
412.45173236987961
 11
294.98104409051484
 21
423.96532586150028
  0
LINE
  8
_0-e_極細4
  6
CONTINUOUS
 62
    6
 10
280.45428534761299
 20
413.68120780571803
 11
293.79715439244205
 21
427.024076850548
  0
LINE
  8
_0-e_極細4
  6
CONTINUOUS
 62
    6
 10
276.24976119743474
 20
413.7193243426604
 11
291.67583404888501
 21
429.145397194108
  0
LINE
  8
_0-e_極細4
  6
CONTINUOUS
 62
    6
 10
272.87587783906088
 20
414.58808167140592
 11
289.55451370532501
 21
431.26671753766743
  0
LINE
  8
_0-e_極細4
  6
CONTINUOUS
 62
    6
 10
270.78032676350995
 20
416.73517128297175
 11
287.43319336176501
 21
433.38803788122743
  0
LINE
  8
_0-e_極細4
  6
CONTINUOUS
 62
    6
 10
269.92721172710299
 20
420.12469693368541
 11
285.31187301820501
 21
435.50935822478681
  0
LINE
  8
_0-e_極細4
  6
CONTINUOUS
 62
    6
 10
269.585890501432
 20
424.02601639513261
 11
283.19055267464501
 21
437.63067856834681
  0
LINE
  8
_0-e_極細4
  6
CONTINUOUS
 62
    6
 10
269.2445692757592
 20
427.92733585657948
 11
281.06923233108682
 21
439.75199891190618
  0
LINE
  8
_0-e_極細4
  6
CONTINUOUS
 62
    6
 10
268.18776035623227
 20
431.11316762417277
 11
278.94791198752682
 21
441.87331925546562
  0
LINE
  8
_0-e_極細4
  6
CONTINUOUS
 62
    6
 10
265.91960221377485
 20
433.08765016883422
 11
276.55127638756676
 21
443.71932434262493
  0
LINE
  8
_0-e_極細4
  6
CONTINUOUS
 62
    6
 10
262.30863570025394
 20
433.7193243424324
 11
272.30863570042857
 21
443.71932434260611
  0
LINE
  8
_0-e_極細4
  6
CONTINUOUS
 62
    6
 10
258.06599501233245
 20
433.71932434163114
 11
268.06599501329401
 21
443.71932434259219
  0
LINE
  8
_0-e_極細4
  6
CONTINUOUS
 62
    6
 10
253.82335432441323
 20
433.71932434083078
 11
263.82335432616856
 21
443.71932434258554
  0
LINE
  8
_0-e_極細4
  6
CONTINUOUS
 62
    6
 10
250.46398796127028
 20
434.60259866480658
 11
259.5807136390431
 21
443.71932434257945
  0
LINE
  8
_0-e_極細4
  6
CONTINUOUS
 62
    6
 10
247.11792274632353
 20
435.49917413697926
 11
255.33807295191764
 21
443.71932434257246
  0
LINE
  8
_0-e_極細4
  6
CONTINUOUS
 62
    6
 10
243.77185753137633
 20
436.39574960915138
 11
251.93682334064761
 21
444.56071541842215
  0
LINE
  8
_0-e_極細4
  6
CONTINUOUS
 62
    6
 10
240.42579231642958
 20
437.29232508132412
 11
248.59075812570154
 21
445.45729089059455
  0
LINE
  8
_0-e_極細4
  6
CONTINUOUS
 62
    6
 10
237.07972710148238
 20
438.18890055349624
 11
245.24469291075366
 21
446.35386636276667
  0
LINE
  8
_0-e_極細4
  6
CONTINUOUS
 62
    6
 10
233.73366188653563
 20
439.08547602566864
 11
241.89862769580759
 21
447.25044183493912
  0
LINE
  8
_0-e_極細4
  6
CONTINUOUS
 62
    6
 10
230.38759667158843
 20
439.98205149784076
 11
238.55256248085971
 21
448.14701730711124
  0
LINE
  8
_0-e_極細4
  6
CONTINUOUS
 62
    6
 10
227.04153145664168
 20
440.87862697001322
 11
235.20649726591068
 21
449.04359277928393
  0
LINE
  8
_0-e_極細4
  6
CONTINUOUS
 62
    6
 10
223.63958814197645
 20
441.7193243424673
 11
231.86043205096576
 21
449.94016825145604
  0
LINE
  8
_0-e_極細4
  6
CONTINUOUS
 62
    6
 10
219.39694745484849
 20
441.71932434245878
 11
228.51436683601673
 21
450.83674372362879
  0
LINE
  8
_0-e_極細4
  6
CONTINUOUS
 62
    6
 10
215.15430676772007
 20
441.71932434244911
 11
225.16830162107181
 21
451.73331919580028
  0
LINE
  8
_0-e_極細4
  6
CONTINUOUS
 62
    6
 10
210.91166608059211
 20
441.71932434244002
 11
222.91166608062736
 21
453.71932434247697
  0
LINE
  8
_0-e_極細4
  6
CONTINUOUS
 62
    6
 10
210.79087502270704
 20
445.84117397167461
 11
218.66902539349394
 21
453.71932434246185
  0
LINE
  8
_0-e_極細4
  6
CONTINUOUS
 62
    6
 10
212.20508858507719
 20
451.49802822116584
 11
214.42638470636007
 21
453.71932434244695
  0
ARC
  8
_0-e_極細4
  6
DASHED2
 62
    6
 10
274.91176956695381
 20
423.71932434265796
 40
10
 50
3.0819880307204608
 51
89.999999999999915
  0
LINE
  8
_0-e_極細4
  6
CENTER1
 62
    6
 10
277.29186042556353
 20
450.600438629292
 11
302.97095029882985
 21
424.92134875602864
  0
LINE
  8
_0-e_極細4
  6
CENTER1
 62
    6
 10
269.76041261597925
 20
466.91236029193453
 11
269.76041261597925
 21
437.70637108687254
  0
LINE
  8
_0-e_極細4
  6
CENTER1
 62
    6
 10
732.19732092079289
 20
353.71932434243701
 11
600.80514024699005
 21
353.71932434243701
  0
LINE
  8
_0-e_極細4
  6
CENTER1
 62
    6
 10
562.22896480523013
 20
448.60043862929081
 11
536.54987493196427
 21
422.92134875602864
  0
LINE
  8
_0-e_極細4
  6
CENTER1
 62
    6
 10
569.76041261481259
 20
466.91236029193453
 11
569.76041261481259
 21
437.70637108687254
  0
LINE
  8
_0-e_極細4
  6
CONTINUOUS
 62
    6
 10
301.76041261539649
 20
455.71932434276926
 11
297.76041261524483
 21
455.71932434274345
  0
LINE
  8
_0-e_極細4
  6
CONTINUOUS
 62
    6
 10
309.76041261524483
 20
455.71932434276926
 11
301.76041261539649
 21
455.71932434276926
  0
ARC
  8
_0-e_極細4
  6
CONTINUOUS
 62
    6
 10
527.76041261539467
 20
444.07971653805947
 40
2
 50
0.0000000749947313
 51
78.690067525925173
  0
LINE
  8
_0-e_極細4
  6
CONTINUOUS
 62
    6
 10
529.76041261539649
 20
444.07971653805947
 11
529.76041261586761
 21
443.71932434269223
  0
LINE
  8
_0-e_極細4
  6
CONTINUOUS
 62
    6
 10
537.76041261539649
 20
443.71932434265614
 11
529.76041261586761
 21
443.71932434269223
  0
ARC
  8
_0-e_極細4
  6
CONTINUOUS
 62
    6
 10
537.76041261539649
 20
445.71932434349651
 40
2
 50
269.99999999999977
 51
359.99999999999966
  0
LINE
  8
_0-e_極細4
  6
CONTINUOUS
 62
    6
 10
539.76041261539467
 20
453.71932434349685
 11
539.76041261539467
 21
445.71932434349651
  0
LINE
  8
_0-e_極細4
  6
CONTINUOUS
 62
    6
 10
541.76041261586761
 20
443.71932434265614
 11
537.76041261539649
 21
443.71932434265614
  0
LINE
  8
_0-e_極細4
  6
CONTINUOUS
 62
    6
 10
564.41891833043519
 20
443.71932434263221
 11
554.41891833047703
 21
433.7193243428062
  0
LINE
  8
_0-e_極細4
  6
CONTINUOUS
 62
    6
 10
554.41891833047703
 20
433.7193243428062
 11
609.89391024395627
 21
433.71932434245093
  0
LINE
  8
_0-e_極細4
  6
CONTINUOUS
 62
    6
 10
636.78133833452193
 20
418.19586049651883
 11
609.89391024395627
 21
433.71932434245093
  0
ARC
  8
_0-e_極細4
  6
CONTINUOUS
 62
    6
 10
633.76041261539581
 20
413.01184585538135
 40
6.0000000000000009
 50
10.451459140745621
 51
59.768991431902613
  0
LINE
  8
_0-e_極細4
  6
CONTINUOUS
 62
    6
 10
679.76041261539945
 20
413.33030992449261
 11
639.66086628072844
 21
414.1002605480769
  0
ARC
  8
_0-e_極細4
  6
CONTINUOUS
 62
    6
 10
633.76041261539581
 20
413.01184585538135
 40
6.0000000000000009
 50
0
 51
10.451459140745621
  0
LINE
  8
_0-e_極細4
  6
CONTINUOUS
 62
    6
 10
529.76041261586033
 20
433.7193243428062
 11
554.41891833047703
 21
433.7193243428062
  0
LINE
  8
_0-e_極細4
  6
CONTINUOUS
 62
    6
 10
624.17649821519444
 20
283.72629345624512
 11
311.94289221515101
 21
283.72629345638029
  0
LINE
  8
_0-e_極細4
  6
CONTINUOUS
 62
    6
 10
625.34769840820377
 20
273.72629345624478
 11
311.95438932280194
 21
273.72629345637972
  0
ARC
  8
_0-e_極細4
  6
CONTINUOUS
 62
    6
 10
279.77904792780896
 20
407.71932434267586
 40
6.0000000000000009
 50
3.0819880307184198
 51
89.999999999999915
  0
ARC
  8
_0-e_極細4
  6
CONTINUOUS
 62
    6
 10
275.98559625858434
 20
419.71932434265887
 40
6.0000000000000009
 50
185.00000000003584
 51
269.99999999999977
  0
LINE
  8
_0-e_極細4
  6
CONTINUOUS
 62
    6
 10
291.98333739612099
 20
292.65099541291488
 11
285.77036965765978
 21
408.04191375571531
  0
ARC
  8
_0-e_極細4
  6
CONTINUOUS
 62
    6
 10
311.95440982896253
 20
293.72629345637972
 40
20
 50
183.08198803071915
 51
269.99999999999977
  0
LINE
  8
_0-e_極細4
  6
CONTINUOUS
 62
    6
 10
285.6958099085798
 20
453.71932434269524
 11
212.76041261539513
 21
453.71932434244121
  0
LINE
  8
_0-e_極細4
  6
CONTINUOUS
 62
    6
 10
253.76041261539649
 20
433.71932434081867
 11
223.9040061488729
 21
441.71932434246605
  0
LINE
  8
_0-e_極細4
  6
CONTINUOUS
 62
    6
 10
255.07693758473465
 20
443.71932434257218
 11
223.9041605818154
 21
452.07204476638958
  0
LINE
  8
_0-e_極細4
  6
CONTINUOUS
 62
    6
 10
265.46018828607589
 20
452.07204476631864
 11
225.3059918621002
 21
452.07204476631864
  0
LINE
  8
_0-e_極細4
  6
CONTINUOUS
 62
    6
 10
223.90453979383233
 20
452.07194315684239
 11
223.76041261558203
 21
453.71932434249152
  0
LINE
  8
_0-e_極細4
  6
CONTINUOUS
 62
    6
 10
223.90400614886744
 20
441.7193243424685
 11
209.76041261539513
 21
441.71932434243695
  0
LINE
  8
_0-e_極細4
  6
CONTINUOUS
 62
    6
 10
212.76041261539831
 20
453.71932434244121
 11
209.76041261539831
 21
441.71932434243757
  0
ARC
  8
_0-e_極細4
  6
CONTINUOUS
 62
    6
 10
289.54486003868919
 20
463.71932434272378
 40
2
 50
89.999999999999915
 51
173.48019824834086
  0
LINE
  8
_0-e_極細4
  6
CONTINUOUS
 62
    6
 10
277.10190690033778
 20
443.71932434265466
 11
295.16699722843805
 21
425.65423401455314
  0
LINE
  8
_0-e_極細4
  6
CONTINUOUS
 62
    6
 10
285.70050850714574
 20
449.26285835957583
 11
301.77192663269921
 21
433.19144023402328
  0
ARC
  8
_0-e_極細4
  6
CONTINUOUS
 62
    6
 10
263.23984889985331
 20
427.71932434260856
 40
6.0000000000000009
 50
5.000000000043098
 51
89.999999999999915
  0
LINE
  8
_0-e_極細4
  6
CONTINUOUS
 62
    6
 10
269.76041261597925
 20
443.71932434261646
 11
255.07693758473465
 21
443.71932434257218
  0
LINE
  8
_0-e_極細4
  6
CONTINUOUS
 62
    6
 10
265.76041261539649
 20
453.7193243426052
 11
264.53617104549153
 21
447.00212011365187
  0
LINE
  8
_0-e_極細4
  6
CONTINUOUS
 62
    6
 10
263.23984889982671
 20
433.71932434260793
 11
253.76041261539649
 21
433.71932434256701
  0
ARC
  8
_0-e_極細4
  6
CONTINUOUS
 62
    6
 10
260.60099403625895
 20
447.71932434258883
 40
4
 50
269.99999999999977
 51
349.67094897780049
  0
LINE
  8
_0-e_極細4
  6
CONTINUOUS
 62
    6
 10
279.32207078965439
 20
443.71932434266012
 11
269.76041261597925
 21
443.71932434259463
  0
ARC
  8
_0-e_極細4
  6
CONTINUOUS
 62
    6
 10
278.87752705396338
 20
447.71932434265648
 40
4
 50
189.97879785855761
 51
269.99999999999977
  0
ARC
  8
_0-e_極細4
  6
CONTINUOUS
 62
    6
 10
279.32207078961324
 20
449.71932434266012
 40
6.0000000000000009
 50
269.99999999999977
 51
351.34132044732422
  0
LINE
  8
_0-e_極細4
  6
CONTINUOUS
 62
    6
 10
287.55779469337608
 20
463.94641752504572
 11
285.25368708379142
 21
448.81603693621832
  0
LINE
  8
_0-e_極細4
  6
CONTINUOUS
 62
    6
 10
273.76041261540013
 20
453.71932434262311
 11
274.9380392795581
 21
447.02618938082662
  0
LINE
  8
_0-e_極細4
  6
CONTINUOUS
 62
    6
 10
279.77904792778168
 20
413.71932434267586
 11
275.9855962586098
 21
413.71932434265887
  0
LINE
  8
_0-e_極細4
  6
CONTINUOUS
 62
    6
 10
270.00842807003278
 20
419.19638988616902
 11
269.21701708840374
 21
428.24225879909841
  0
LINE
  8
_0-e_極細4
  6
CONTINUOUS
 62
    6
 10
309.76041261524733
 20
465.71932434276982
 11
309.76041261524733
 21
455.71932434276926
  0
LINE
  8
_0-e_極細4
  6
CONTINUOUS
 62
    6
 10
301.76041261539649
 20
443.71932434349685
 11
309.76041261539763
 21
443.71932434276926
  0
LINE
  8
_0-e_極細4
  6
CONTINUOUS
 62
    6
 10
297.76041261524483
 20
443.71932434274345
 11
309.76041261524483
 21
443.71932434276926
  0
LINE
  8
_0-e_極細4
  6
CONTINUOUS
 62
    6
 10
309.76041261524733
 20
455.71932434349685
 11
301.76041261539649
 21
455.71932434349685
  0
ARC
  8
_0-e_極細4
  6
CONTINUOUS
 62
    6
 10
304.9780177952307
 20
423.71932434275772
 40
10
 50
89.999999999999915
 51
183.06690832149044
  0
LINE
  8
_0-e_極細4
  6
CONTINUOUS
 62
    6
 10
297.76041261524483
 20
455.71932434274197
 11
297.76041261524483
 21
443.71932434274197
  0
LINE
  8
_0-e_極細4
  6
CONTINUOUS
 62
    6
 10
299.76041261539535
 20
453.71932434349685
 11
299.76041261539535
 21
445.71932434349742
  0
ARC
  8
_0-e_極細4
  6
CONTINUOUS
 62
    6
 10
301.76041261539649
 20
453.71932434349685
 40
2
 50
89.999999999999915
 51
179.99999999999983
  0
ARC
  8
_0-e_極細4
  6
CONTINUOUS
 62
    6
 10
301.76041261539649
 20
445.71932434349742
 40
2
 50
179.99999999999983
 51
269.99999999999977
  0
LINE
  8
_0-e_極細4
  6
CONTINUOUS
 62
    6
 10
309.76041261524483
 20
443.71932434276926
 11
309.76041261524483
 21
433.71932434276891
  0
LINE
  8
_0-e_極細4
  6
CONTINUOUS
 62
    6
 10
309.76041261539763
 20
444.07971653805947
 11
309.76041261539763
 21
443.71932434349685
  0
ARC
  8
_0-e_極細4
  6
CONTINUOUS
 62
    6
 10
311.76041261539467
 20
444.07971653805947
 40
2
 50
101.30993247397262
 51
179.99999999999983
  0
LINE
  8
_0-e_極細4
  6
CONTINUOUS
 62
    6
 10
309.76041261539763
 20
455.35893214893417
 11
309.76041261539763
 21
455.71932434349685
  0
ARC
  8
_0-e_極細4
  6
CONTINUOUS
 62
    6
 10
311.76041261539467
 20
455.35893214893417
 40
2
 50
179.99999999999983
 51
258.69006752602348
  0
LINE
  8
_0-e_極細4
  6
CONTINUOUS
 62
    6
 10
679.76041261539581
 20
426.80958376086778
 11
679.76041261539581
 21
280.78267277125883
  0
LINE
  8
_0-e_極細4
  6
CONTINUOUS
 62
    6
 10
676.76041261539581
 20
411.38754422352162
 11
639.72201773059533
 21
412.09871773656272
  0
LINE
  8
_0-e_極細4
  6
CONTINUOUS
 62
    6
 10
679.76041261539467
 20
294.10833876037316
 11
639.76041261539581
 21
294.87637799668732
  0
LINE
  8
_0-e_極細4
  6
CONTINUOUS
 62
    6
 10
676.76041261539831
 20
296.16631034678949
 11
639.79880750019515
 21
296.87600942092934
  0
LINE
  8
_0-e_極細4
  6
CONTINUOUS
 62
    6
 10
675.68362284579712
 20
276.78340992277344
 11
638.41742953678408
 21
277.49895738900716
  0
LINE
  8
_0-e_極細4
  6
CONTINUOUS
 62
    6
 10
639.76041261539581
 20
413.01184585538135
 11
639.76041261539581
 21
294.42680282949163
  0
ARC
  8
_0-e_極細4
  6
CONTINUOUS
 62
    6
 10
592.05405356185474
 20
367.34168206889757
 40
100.00000000000001
 50
291.71126247491765
 51
294.81817458383011
  0
ARC
  8
_0-e_極細4
  6
CONTINUOUS
 62
    6
 10
625.34769840820741
 20
283.72629345624478
 40
10
 50
269.99999999999977
 51
291.71126247491941
  0
ARC
  8
_0-e_極細4
  6
CONTINUOUS
 62
    6
 10
624.17649821519626
 20
289.72629345624512
 40
6.0000000000000009
 50
269.99999999999977
 51
292.48304715453713
  0
ARC
  8
_0-e_極細4
  6
CONTINUOUS
 62
    6
 10
592.05405356185474
 20
367.34168206889757
 40
90.000000000000014
 50
292.48304715453827
 51
299.7689928997662
  0
ARC
  8
_0-e_極細4
  6
CONTINUOUS
 62
    6
 10
633.76041261539581
 20
294.42680282949163
 40
6.0000000000000009
 50
299.76899289975665
 51
359.99999999999966
  0
ARC
  8
_0-e_極細4
  6
CONTINUOUS
 62
    6
 10
638.22545511278736
 20
267.50080026779119
 40
10
 50
88.899999999986591
 51
114.81817458383594
  0
LINE
  8
_0-e_極細4
  6
CONTINUOUS
 62
    6
 10
676.76041261539581
 20
411.38754422352162
 11
676.76041261539581
 21
296.16631034678971
  0
ARC
  8
_0-e_極細4
  6
CONTINUOUS
 62
    6
 10
675.76041261539581
 20
280.78267277125883
 40
4
 50
268.90000000000066
 51
359.99999999999966
  0
LINE
  8
_0-e_極細4
  6
CONTINUOUS
 62
    6
 10
679.76041261539581
 20
294.10833876037259
 11
676.76041261539581
 21
296.16631034678971
  0
LINE
  8
_0-e_極細4
  6
CONTINUOUS
 62
    6
 10
679.76041261539581
 20
413.33030992449261
 11
676.76041261539581
 21
411.38754422352281
  0
LINE
  8
_0-e_極細4
  6
CONTINUOUS
 62
    6
 10
675.8372023849945
 20
430.80884660935567
 11
639.93192828780047
 21
431.49826309178673
  0
LINE
  8
_0-e_極細4
  6
CONTINUOUS
 62
    6
 10
559.62804059983864
 20
443.71932434266432
 11
569.76041261481259
 21
443.7193243425952
  0
ARC
  8
_0-e_極細4
  6
CONTINUOUS
 62
    6
 10
560.64329817683029
 20
447.71932434265648
 40
4
 50
269.99999999999977
 51
350.02120214144162
  0
LINE
  8
_0-e_極細4
  6
CONTINUOUS
 62
    6
 10
553.13184118714526
 20
453.71932434269797
 11
626.76041261539581
 21
453.71932434244121
  0
LINE
  8
_0-e_極細4
  6
CONTINUOUS
 62
    6
 10
529.76041261588398
 20
465.71932434269223
 11
529.7604126158767
 21
455.71932434269223
  0
ARC
  8
_0-e_極細4
  6
CONTINUOUS
 62
    6
 10
549.97596519243962
 20
463.71932434263249
 40
2
 50
6.5198017516207907
 51
89.999999999999915
  0
LINE
  8
_0-e_極細4
  6
CONTINUOUS
 62
    6
 10
554.0546856966248
 20
447.49722733255271
 11
540.27678270683282
 21
433.71932434276255
  0
LINE
  8
_0-e_極細4
  6
CONTINUOUS
 62
    6
 10
529.7604126158767
 20
455.71932434269223
 11
541.7604126158767
 21
455.71932434265614
  0
LINE
  8
_0-e_極細4
  6
CONTINUOUS
 62
    6
 10
541.7604126158767
 20
455.71932434265585
 11
541.76041261586761
 21
443.71932434265585
  0
ARC
  8
_0-e_極細4
  6
CONTINUOUS
 62
    6
 10
537.76041261539649
 20
453.71932434349651
 40
2
 50
0
 51
89.999999999999915
  0
LINE
  8
_0-e_極細4
  6
CONTINUOUS
 62
    6
 10
529.76041261586761
 20
443.71932434269223
 11
529.76041261586215
 21
433.71932434269041
  0
LINE
  8
_0-e_極細4
  6
CONTINUOUS
 62
    6
 10
529.76041261539649
 20
455.3589321489336
 11
529.76041261539649
 21
455.71932434349685
  0
ARC
  8
_0-e_極細4
  6
CONTINUOUS
 62
    6
 10
527.76041261539467
 20
455.3589321489336
 40
2
 50
281.30993247407764
 51
359.99999999999966
  0
ARC
  8
_0-e_極細4
  6
CONTINUOUS
 62
    6
 10
559.62804059987866
 20
449.71932434266432
 40
6.0000000000000009
 50
186.51980175161665
 51
269.99999999999977
  0
LINE
  8
_0-e_極細4
  6
CONTINUOUS
 62
    6
 10
551.96303053775227
 20
463.9464175249542
 11
553.66684456394182
 21
449.0380447957042
  0
LINE
  8
_0-e_極細4
  6
CONTINUOUS
 62
    6
 10
574.06063694471777
 20
452.07204476631864
 11
614.2148333686946
 21
452.07204476631864
  0
LINE
  8
_0-e_極細4
  6
CONTINUOUS
 62
    6
 10
584.44388764605901
 20
443.71932434257218
 11
615.61666464897826
 21
452.07204476638958
  0
LINE
  8
_0-e_極細4
  6
CONTINUOUS
 62
    6
 10
569.76041261481441
 20
443.71932434261646
 11
584.44388764605901
 21
443.71932434257218
  0
LINE
  8
_0-e_極細4
  6
CONTINUOUS
 62
    6
 10
573.76041261539831
 20
453.7193243426052
 11
574.98465418530213
 21
447.00212011365187
  0
LINE
  8
_0-e_極細4
  6
CONTINUOUS
 62
    6
 10
565.76041261539467
 20
453.71932434262311
 11
564.58278595123556
 21
447.02618938082662
  0
ARC
  8
_0-e_極細4
  6
CONTINUOUS
 62
    6
 10
578.91983119453471
 20
447.71932434258883
 40
4
 50
190.32905102219704
 51
269.99999999999977
  0
LINE
  8
_0-e_極細4
  6
CONTINUOUS
 62
    6
 10
615.61628543696133
 20
452.07194315684239
 11
615.76041261521095
 21
453.71932434249152
  0
LINE
  8
_0-e_極細4
  6
CONTINUOUS
 62
    6
 10
626.76041261539581
 20
453.71932434244121
 11
630.42247771034386
 21
439.07106396264055
  0
ARC
  8
_0-e_極細4
  6
CONTINUOUS
 62
    6
 10
640.1239027117972
 20
441.49642021300292
 40
10
 50
194.03624346791412
 51
268.90000000000055
  0
ARC
  8
_0-e_極細4
  6
CONTINUOUS
 62
    6
 10
675.76041261539581
 20
426.80958376086778
 40
4
 50
0
 51
88.900000000001015
  0
LINE
  8
_0-e_極細4
  6
CONTINUOUS
 62
    6
 10
318.76041261381761
 20
465.71932434278983
 11
289.54486003868328
 21
465.71932434272497
  0
LINE
  8
_0-e_極細4
  6
CONTINUOUS
 62
    6
 10
318.76041261381761
 20
455.71932434349685
 11
310.41950722388174
 21
455.71932434349685
  0
LINE
  8
_0-e_極細4
  6
CONTINUOUS
 62
    6
 10
318.76041261381761
 20
443.71932434282894
 11
309.76041261524483
 21
443.71932434276926
  0
LINE
  8
_0-e_極細4
  6
CONTINUOUS
 62
    6
 10
304.97801779520705
 20
433.71932434275834
 11
318.76041261381761
 21
433.71932434278864
  0
LINE
  8
_0-e_極細4
  6
CONTINUOUS
 62
    6
 10
311.36818034511998
 20
453.39777079755254
 11
318.76041261381761
 21
451.91932434381283
  0
LINE
  8
_0-e_極細4
  6
CONTINUOUS
 62
    6
 10
311.36818034511998
 20
446.04087788944202
 11
318.76041261381761
 21
447.51932434318144
  0
LINE
  8
_0-e_極細4
  6
CONTINUOUS
 62
    6
 10
520.76041261381874
 20
465.71932434271798
 11
549.97596519244507
 21
465.71932434263249
  0
LINE
  8
_0-e_極細4
  6
CONTINUOUS
 62
    6
 10
529.76041261587852
 20
455.71932434269252
 11
520.76041261381874
 21
455.71932434271889
  0
LINE
  8
_0-e_極細4
  6
CONTINUOUS
 62
    6
 10
529.76041261586761
 20
443.71932434269252
 11
520.76041261381874
 21
443.71932434271889
  0
LINE
  8
_0-e_極細4
  6
CONTINUOUS
 62
    6
 10
533.47301791109021
 20
433.7193243426795
 11
520.76041261381761
 21
433.7193243427165
  0
LINE
  8
_0-e_極細4
  6
CONTINUOUS
 62
    6
 10
528.152644885673
 20
453.39777079755254
 11
520.76041261381761
 21
451.91932434318164
  0
LINE
  8
_0-e_極細4
  6
CONTINUOUS
 62
    6
 10
528.152644885673
 20
446.04087788944202
 11
520.76041261381761
 21
447.51932434381263
  0
LINE
  8
_0-e_極細4
  6
CENTER1
 62
    6
 10
419.76041261381761
 20
605.88401249761421
 11
419.76041261381761
 21
257.72629345633334
  0
CIRCLE
  8
_1-1_寸法4
  6
CONTINUOUS
 62
    7
 10
508.36041261381797
 20
565.43809200038095
 40
40
  0
LINE
  8
_1-1_寸法4
  6
CONTINUOUS
 62
    7
 10
410.46034063641196
 20
316.36874052931375
 11
406.31923591477153
 21
300.9139273086887
  0
LINE
  8
_1-1_寸法4
  6
CONTINUOUS
 62
    7
 10
410.46034063641196
 20
316.36874052931375
 11
399.1466321374271
 21
305.05503203032913
  0
LINE
  8
_1-1_寸法4
  6
CONTINUOUS
 62
    7
 10
410.46034063641196
 20
316.36874052931375
 11
355.09219076724912
 21
220.46829183483692
  0
LINE
  8
_1-1_寸法4
  6
CONTINUOUS
 62
    7
 10
355.09219076724912
 20
220.46829183483692
 11
182.29219076724917
 21
220.46829183483692
  0
TEXT
  8
_1-1_寸法4
 62
    7
 10
182.29219076724917
 20
220.46829183483692
 40
24
 41
0.7999999999999998
 50
0
  1
縦引きトラップ本体
  0
LINE
  8
_0-e_極細4
  6
CONTINUOUS
 62
    6
 10
419.76041261381761
 20
303.72629345627365
 11
310.87131562794457
 21
303.72629345631731
  0
ARC
  8
_0-e_極細4
  6
CONTINUOUS
 62
    6
 10
310.87131562794821
 20
313.72629345631731
 40
10
 50
183.0669083214901
 51
269.9999999999788
  0
LINE
  8
_0-e_極細4
  6
CONTINUOUS
 62
    6
 10
301.9572148404277
 20
293.19127255226954
 11
294.99234042050193
 21
423.18430343864787
  0
ARC
  8
_0-e_極細4
  6
CONTINUOUS
 62
    6
 10
311.94289221515646
 20
293.72629345637972
 40
10
 50
183.06690832148848
 51
269.99999999999977
  0
ARC
  8
_0-e_極細4
  6
CONTINUOUS
 62
    6
 10
541.392755748524
 20
293.72629385626033
 40
9.9999996000005922
 50
179.99999999999983
 51
269.99999999999977
  0
LINE
  8
_0-e_極細4
  6
CONTINUOUS
 62
    6
 10
419.76041261381761
 20
303.72629345627365
 11
521.39275654852281
 21
303.72629345627365
  0
ARC
  8
_0-e_極細4
  6
CONTINUOUS
 62
    6
 10
521.39275654852281
 20
293.72629385626033
 40
9.9999996000005922
 50
0
 51
89.999999999999915
  0
TEXT
  8
_1-1_寸法4
 62
    7
 10
453.140826304656
 20
194.73515773455313
 40
24
 41
0.7999999999999999
 50
0
  1
（ＨＦＴ－５Ｚ）
  0
LINE
  8
_1-1_寸法4
  6
CONTINUOUS
 62
    7
 10
373.7480954452767
 20
577.41952513064109
 11
361.05128509259521
 21
587.15559245107602
  0
LINE
  8
_1-1_寸法4
  6
CONTINUOUS
 62
    7
 10
373.7480954452767
 20
577.41952513064109
 11
367.62036879303878
 21
592.19961193943391
  0
LINE
  8
_1-1_寸法4
  6
CONTINUOUS
 62
    7
 10
373.7480954452767
 20
577.41952513064109
 11
346.82534977524847
 21
612.48238921361576
  0
LINE
  8
_1-1_寸法4
  6
CONTINUOUS
 62
    7
 10
346.82534977524847
 20
612.48238921361576
 11
231.62534977524854
 21
612.48238921361576
  0
TEXT
  8
_1-1_寸法4
 62
    7
 10
231.62534977524854
 20
612.4823892136161
 40
24
 41
0.7999999999999998
 50
-0.0000000000001696
  1
ストレーナー
  0
LINE
  8
_1-1_寸法4
  6
CONTINUOUS
 62
    7
 10
379.2492995925295
 20
476.29639902139002
 11
364.19499389969815
 21
481.71561299638523
  0
LINE
  8
_1-1_寸法4
  6
CONTINUOUS
 62
    7
 10
379.2492995925295
 20
476.29639902139002
 11
368.92149541369838
 21
488.5167288386952
  0
LINE
  8
_1-1_寸法4
  6
CONTINUOUS
 62
    7
 10
379.2492995925295
 20
476.29639902139002
 11
301.07060952775419
 21
530.62743903323292
  0
LINE
  8
_1-1_寸法4
  6
CONTINUOUS
 62
    7
 10
301.07060952775419
 20
530.62743903323292
 11
147.47060952775428
 21
530.62743903323292
  0
TEXT
  8
_1-1_寸法4
 62
    7
 10
147.47060952775428
 20
530.62743903323292
 40
24
 41
0.7999999999999998
 50
0
  1
防臭インナー１号
  0
LINE
  8
_1-1_寸法4
  6
CONTINUOUS
 62
    7
 10
356.47962053247943
 20
450.00525000966479
 11
341.42531483964808
 21
455.42446398466001
  0
LINE
  8
_1-1_寸法4
  6
CONTINUOUS
 62
    7
 10
356.47962053247943
 20
450.00525000966479
 11
346.15181635364831
 21
462.22557982696998
  0
LINE
  8
_1-1_寸法4
  6
CONTINUOUS
 62
    7
 10
356.47962053247943
 20
450.00525000966479
 11
301.07060952775419
 21
488.51228039633486
  0
LINE
  8
_1-1_寸法4
  6
CONTINUOUS
 62
    7
 10
301.07060952775419
 20
488.51228039633486
 11
147.47060952775428
 21
488.51228039633537
  0
TEXT
  8
_1-1_寸法4
 62
    7
 10
147.47060952775428
 20
488.51228039633486
 40
24
 41
0.7999999999999998
 50
0
  1
防臭インナー２号
  0
TEXT
  8
_1-1_寸法4
 62
    7
 10
526.92936107457717
 20
601.35702948607025
 40
24
 41
0.8000000000000001
 50
0
  1
Ｃ部
  0
LINE
  8
_1-1_寸法4
  6
CONTINUOUS
 62
    7
 10
450.21214115628027
 20
277.96893414179533
 11
458.21214115628004
 21
264.11252768124427
  0
LINE
  8
_1-1_寸法4
  6
CONTINUOUS
 62
    7
 10
450.21214115628027
 20
277.96893414179533
 11
450.21214115628004
 21
261.96893414179533
  0
LINE
  8
_1-1_寸法4
  6
CONTINUOUS
 62
    7
 10
450.21214115628027
 20
277.96893414179533
 11
465.61939182669994
 21
220.46829183483692
  0
LINE
  8
_1-1_寸法4
  6
CONTINUOUS
 62
    7
 10
465.61939182669994
 20
220.46829183483692
 11
600.01939182670003
 21
220.46829183483692
  0
TEXT
  8
_1-1_寸法4
 62
    7
 10
465.61939182669994
 20
220.46829183483692
 40
24
 41
0.7999999999999999
 50
0
  1
防水マス横引き
  0
TEXT
  8
_0-7_枠細線
 62
    5
 10
324.39967780636175
 20
141.31557351350762
 40
40
 41
0.8
 50
0
  1
排水部詳細図
  0
TEXT
  8
_0-7_枠細線
 62
    5
 10
540.24589114937862
 20
144.81793200407355
 40
32
 41
0.6000000000000002
 50
0
  1
Ｓ＝１：４
  0
LINE
  8
_0-a_極細1
  6
CONTINUOUS
 62
    7
 10
394.2927892612995
 20
852.10512277644023
 11
413.49278734130075
 21
852.10512277644023
  0
LINE
  8
_0-a_極細1
  6
CONTINUOUS
 62
    7
 10
394.2927892612995
 20
853.17178933644038
 11
413.49278734130075
 21
853.17178933644038
  0
LINE
  8
_0-a_極細1
  6
CONTINUOUS
 62
    7
 10
394.12091336857225
 20
854.23845589644054
 11
413.49278734130075
 21
854.23845589644054
  0
LINE
  8
_0-a_極細1
  6
CONTINUOUS
 62
    7
 10
393.05424680857232
 20
855.3051224564407
 11
413.49278734130075
 21
855.3051224564407
  0
LINE
  8
_0-a_極細1
  6
CONTINUOUS
 62
    7
 10
391.98758024857216
 20
856.37178901644086
 11
413.49278734130075
 21
856.37178901644086
  0
LINE
  8
_0-a_極細1
  6
CONTINUOUS
 62
    7
 10
392.33133203402667
 20
857.43845557644011
 11
413.49278734130075
 21
857.43845557644011
  0
LINE
  8
_0-a_極細1
  6
CONTINUOUS
 62
    7
 10
393.39799859402683
 20
858.50512213644026
 11
413.49278734130075
 21
858.50512213644026
  0
LINE
  8
_0-a_極細1
  6
CONTINUOUS
 62
    7
 10
394.2927892612995
 20
859.57178869644042
 11
413.49278734130075
 21
859.57178869644042
  0
LINE
  8
_0-a_極細1
  6
CONTINUOUS
 62
    7
 10
394.2927892612995
 20
860.63845525644058
 11
413.49278734130075
 21
860.63845525644058
  0
LINE
  8
_0-a_極細1
  6
CONTINUOUS
 62
    7
 10
394.2927892612995
 20
861.70512181644074
 11
413.49278734130075
 21
861.70512181644074
  0
LINE
  8
_0-a_極細1
  6
CONTINUOUS
 62
    7
 10
394.2927892612995
 20
862.77178837643999
 11
413.49278734130075
 21
862.77178837643999
  0
LINE
  8
_0-a_極細1
  6
CONTINUOUS
 62
    7
 10
394.2927892612995
 20
863.83845493644014
 11
413.49278734130075
 21
863.83845493644014
  0
LINE
  8
_0-a_極細1
  6
CONTINUOUS
 62
    7
 10
394.2927892612995
 20
864.9051214964403
 11
413.49278734130075
 21
864.9051214964403
  0
LINE
  8
_0-a_極細1
  6
CONTINUOUS
 62
    7
 10
394.2927892612995
 20
865.97178805644046
 11
413.49278734130075
 21
865.97178805644046
  0
LINE
  8
_0-a_極細1
  6
CONTINUOUS
 62
    7
 10
393.58758008857194
 20
867.03845461644062
 11
413.86889890008865
 21
867.03845461644062
  0
LINE
  8
_0-a_極細1
  6
CONTINUOUS
 62
    7
 10
392.52091352857201
 20
868.10512117644078
 11
414.43778773208851
 21
868.10512117644078
  0
LINE
  8
_0-a_極細1
  6
CONTINUOUS
 62
    7
 10
391.7979987540275
 20
869.17178773644093
 11
415.00667656408859
 21
869.17178773644093
  0
LINE
  8
_0-a_極細1
  6
CONTINUOUS
 62
    7
 10
392.86466531402743
 20
870.23845429644109
 11
415.57556539608868
 21
870.23845429644109
  0
LINE
  8
_0-a_極細1
  6
CONTINUOUS
 62
    7
 10
393.93133187402714
 20
871.30512085644125
 11
416.14445422808876
 21
871.30512085644125
  0
LINE
  8
_0-a_極細1
  6
CONTINUOUS
 62
    7
 10
394.2927892612995
 20
872.37178741644141
 11
416.71334306008885
 21
872.37178741644141
  0
LINE
  8
_0-a_極細1
  6
CONTINUOUS
 62
    7
 10
394.2927892612995
 20
873.43845397644156
 11
417.28223189208848
 21
873.43845397644156
  0
LINE
  8
_0-a_極細1
  6
CONTINUOUS
 62
    7
 10
448.20247554590878
 20
826.07702114491451
 11
448.20247554590878
 21
908.39672169784819
  0
LINE
  8
_0-a_極細1
  6
CONTINUOUS
 62
    7
 10
447.13580898590885
 20
825.01035458491435
 11
447.13580898590885
 21
908.16599344430335
  0
LINE
  8
_0-a_極細1
  6
CONTINUOUS
 62
    7
 10
446.06914242590915
 20
823.9436880249142
 11
446.06914242590915
 21
907.69618941524834
  0
LINE
  8
_0-a_極細1
  6
CONTINUOUS
 62
    7
 10
445.00247586590899
 20
822.87702146491404
 11
445.00247586590899
 21
906.90537200925621
  0
LINE
  8
_0-a_極細1
  6
CONTINUOUS
 62
    7
 10
443.93580930590906
 20
821.81035490491388
 11
443.93580930590906
 21
905.52392800956034
  0
LINE
  8
_0-a_極細1
  6
CONTINUOUS
 62
    7
 10
442.8691427459089
 20
820.74368834491463
 11
442.8691427459089
 21
901.36634127844911
  0
LINE
  8
_0-a_極細1
  6
CONTINUOUS
 62
    7
 10
441.80247618590874
 20
819.67702178491356
 11
441.80247618590874
 21
899.15695317305756
  0
LINE
  8
_0-a_極細1
  6
CONTINUOUS
 62
    7
 10
440.73580962590904
 20
818.83399686030509
 11
440.73580962590904
 21
897.83592856273037
  0
LINE
  8
_0-a_極細1
  6
CONTINUOUS
 62
    7
 10
439.66914306590911
 20
818.83399686030509
 11
439.66914306590911
 21
896.90139228866985
  0
LINE
  8
_0-a_極細1
  6
CONTINUOUS
 62
    7
 10
438.60247650590873
 20
818.83399686030509
 11
438.60247650590873
 21
896.21588370162601
  0
LINE
  8
_0-a_極細1
  6
CONTINUOUS
 62
    7
 10
437.5358099459088
 20
818.83399686030509
 11
437.5358099459088
 21
895.71856752212545
  0
LINE
  8
_0-a_極細1
  6
CONTINUOUS
 62
    7
 10
436.46914338590886
 20
818.83399686030509
 11
436.46914338590886
 21
895.37744269278494
  0
LINE
  8
_0-a_極細1
  6
CONTINUOUS
 62
    7
 10
435.40247682590871
 20
818.83399686030509
 11
435.40247682590871
 21
895.17471675741774
  0
LINE
  8
_0-a_極細1
  6
CONTINUOUS
 62
    7
 10
434.33581026590855
 20
818.83399686030509
 11
434.33581026590855
 21
895.10110091984291
  0
LINE
  8
_0-a_極細1
  6
CONTINUOUS
 62
    7
 10
433.26914370590862
 20
818.83399686030509
 11
433.26914370590862
 21
895.10065590030547
  0
LINE
  8
_0-a_極細1
  6
CONTINUOUS
 62
    7
 10
432.20247714590823
 20
818.83399686030509
 11
432.20247714590823
 21
895.10065590030547
  0
LINE
  8
_0-a_極細1
  6
CONTINUOUS
 62
    7
 10
431.1358105859083
 20
818.83399686030509
 11
431.1358105859083
 21
895.10065590030547
  0
LINE
  8
_0-a_極細1
  6
CONTINUOUS
 62
    7
 10
430.0691440259086
 20
818.83399686030509
 11
430.0691440259086
 21
895.10065590030547
  0
LINE
  8
_0-a_極細1
  6
CONTINUOUS
 62
    7
 10
429.00247746590844
 20
818.83399686030509
 11
429.00247746590844
 21
895.10065590030547
  0
LINE
  8
_0-a_極細1
  6
CONTINUOUS
 62
    7
 10
427.93581090590851
 20
818.83399686030509
 11
427.93581090590851
 21
895.10065590030547
  0
LINE
  8
_0-a_極細1
  6
CONTINUOUS
 62
    7
 10
426.86914434590835
 20
818.83399686030509
 11
426.86914434590835
 21
895.00630371508589
  0
LINE
  8
_0-a_極細1
  6
CONTINUOUS
 62
    7
 10
425.8024777859082
 20
818.83399686030509
 11
425.8024777859082
 21
894.69590483846071
  0
LINE
  8
_0-a_極細1
  6
CONTINUOUS
 62
    7
 10
424.73581122590849
 20
818.83399686030509
 11
424.73581122590849
 21
894.12596776084877
  0
LINE
  8
_0-a_極細1
  6
CONTINUOUS
 62
    7
 10
423.66914466590856
 20
818.83399686030509
 11
423.66914466590856
 21
893.17772709366284
  0
LINE
  8
_0-a_極細1
  6
CONTINUOUS
 62
    7
 10
422.6024781059084
 20
818.83399686030509
 11
422.6024781059084
 21
891.33713057066427
  0
LINE
  8
_0-a_極細1
  6
CONTINUOUS
 62
    7
 10
421.53581154590847
 20
818.83399686030509
 11
421.53581154590847
 21
829.50066246030485
  0
LINE
  8
_0-a_極細1
  6
CONTINUOUS
 62
    7
 10
420.46914498590831
 20
818.83399686030509
 11
420.46914498590831
 21
829.50066246030485
  0
LINE
  8
_0-a_極細1
  6
CONTINUOUS
 62
    7
 10
419.40247842590816
 20
818.83399686030509
 11
419.40247842590816
 21
829.50066246030485
  0
LINE
  8
_0-a_極細1
  6
CONTINUOUS
 62
    7
 10
418.335811865908
 20
818.83399686030509
 11
418.335811865908
 21
829.50066246030485
  0
LINE
  8
_0-a_極細1
  6
CONTINUOUS
 62
    7
 10
417.26914530590807
 20
818.83399686030509
 11
417.26914530590807
 21
829.50066246030485
  0
LINE
  8
_0-a_極細1
  6
CONTINUOUS
 62
    7
 10
416.20247874590791
 20
818.83399686030509
 11
416.20247874590791
 21
829.50066246030485
  0
LINE
  8
_0-a_極細1
  6
CONTINUOUS
 62
    7
 10
415.13581218590821
 20
818.83399686030509
 11
415.13581218590821
 21
829.50066246030485
  0
LINE
  8
_0-a_極細1
  6
CONTINUOUS
 62
    7
 10
414.06914562590828
 20
818.83399686030509
 11
414.06914562590828
 21
829.50066246030485
  0
LINE
  8
_0-a_極細1
  6
CONTINUOUS
 62
    7
 10
413.00247906590789
 20
818.83399686030509
 11
413.00247906590789
 21
829.50066246030485
  0
LINE
  8
_0-a_極細1
  6
CONTINUOUS
 62
    7
 10
411.93581250590796
 20
818.83399686030509
 11
411.93581250590796
 21
829.50066246030485
  0
LINE
  8
_0-a_極細1
  6
CONTINUOUS
 62
    7
 10
410.86914594590894
 20
808.16733126030442
 11
410.86914594590894
 21
840.16732806030461
  0
LINE
  8
_0-a_極細1
  6
CONTINUOUS
 62
    7
 10
409.80247938590924
 20
808.16733126030442
 11
409.80247938590924
 21
840.16732806030461
  0
LINE
  8
_0-a_極細1
  6
CONTINUOUS
 62
    7
 10
408.73581282590931
 20
808.16733126030442
 11
408.73581282590931
 21
811.86536451192853
  0
LINE
  8
_0-a_極細1
  6
CONTINUOUS
 62
    7
 10
408.73581282590931
 20
819.37148480655662
 11
408.73581282590931
 21
840.16732806030461
  0
LINE
  8
_0-a_極細1
  6
CONTINUOUS
 62
    7
 10
407.66914626590915
 20
808.16733126030442
 11
407.66914626590915
 21
808.95271428269746
  0
LINE
  8
_0-a_極細1
  6
CONTINUOUS
 62
    7
 10
407.66914626590915
 20
819.37148480655662
 11
407.66914626590915
 21
840.16732806030461
  0
LINE
  8
_0-a_極細1
  6
CONTINUOUS
 62
    7
 10
406.60247970590899
 20
819.37148480655662
 11
406.60247970590899
 21
840.16732806030461
  0
LINE
  8
_0-a_極細1
  6
CONTINUOUS
 62
    7
 10
405.53581314590929
 20
819.37148480655662
 11
405.53581314590929
 21
840.16732806030461
  0
LINE
  8
_0-a_極細1
  6
CONTINUOUS
 62
    7
 10
404.46914658590913
 20
819.37148480655662
 11
404.46914658590913
 21
840.16732806030461
  0
LINE
  8
_0-a_極細1
  6
CONTINUOUS
 62
    7
 10
403.4024800259092
 20
819.37148480655662
 11
403.4024800259092
 21
840.16732806030461
  0
LINE
  8
_0-a_極細1
  6
CONTINUOUS
 62
    7
 10
402.33581346590904
 20
819.37148480655662
 11
402.33581346590904
 21
840.16732806030461
  0
LINE
  8
_0-a_極細1
  6
CONTINUOUS
 62
    7
 10
401.26914690590888
 20
819.37148480655662
 11
401.26914690590888
 21
840.16732806030461
  0
LINE
  8
_0-a_極細1
  6
CONTINUOUS
 62
    7
 10
400.20248034590895
 20
819.37148480655662
 11
400.20248034590895
 21
840.16732806030461
  0
LINE
  8
_0-a_極細1
  6
CONTINUOUS
 62
    7
 10
399.13581378590879
 20
819.37148480655662
 11
399.13581378590879
 21
840.16732806030461
  0
LINE
  8
_0-a_極細1
  6
CONTINUOUS
 62
    7
 10
398.06914722590864
 20
819.37148480655662
 11
398.06914722590864
 21
840.16732806030461
  0
LINE
  8
_0-a_極細1
  6
CONTINUOUS
 62
    7
 10
397.00248066590871
 20
819.37148480655662
 11
397.00248066590871
 21
840.16732806030461
  0
LINE
  8
_0-a_極細1
  6
CONTINUOUS
 62
    7
 10
382.29279046129977
 20
803.37148640655698
 11
382.29279046129977
 21
818.83399686030509
  0
ARC
  8
_0-a_極細1
  6
CONTINUOUS
 62
    7
 10
366.29279206130059
 20
819.37148480655662
 40
15.999998399999999
 50
358.07490068720392
 51
50.029499419964075
  0
LINE
  8
_0-a_極細1
  6
CONTINUOUS
 62
    7
 10
448.84745047249999
 20
901.17178453644021
 11
455.55623962727009
 21
901.17178453644021
  0
LINE
  8
_0-a_極細1
  6
CONTINUOUS
 62
    7
 10
448.84745047249999
 20
902.23845109644037
 11
464.78423870447023
 21
902.23845109644037
  0
LINE
  8
_0-a_極細1
  6
CONTINUOUS
 62
    7
 10
448.84745047249999
 20
903.30511765644053
 11
474.01223778167014
 21
903.30511765644053
  0
LINE
  8
_0-a_極細1
  6
CONTINUOUS
 62
    7
 10
448.84745047249999
 20
904.37178421644069
 11
483.24023685887005
 21
904.37178421644069
  0
LINE
  8
_0-a_極細1
  6
CONTINUOUS
 62
    7
 10
448.84745047249999
 20
905.43845077644085
 11
485.75944678129963
 21
905.43845077644085
  0
LINE
  8
_0-a_極細1
  6
CONTINUOUS
 62
    7
 10
448.84745047249999
 20
906.505117336441
 11
485.75944678129963
 21
906.505117336441
  0
LINE
  8
_0-a_極細1
  6
CONTINUOUS
 62
    7
 10
448.84745047249999
 20
907.57178389644116
 11
485.75944678129963
 21
907.57178389644116
  0
LINE
  8
_0-a_極細1
  6
CONTINUOUS
 62
    7
 10
450.54751542510598
 20
908.63845045644132
 11
485.75944678129963
 21
908.63845045644132
  0
LINE
  8
_0-a_極細1
  6
CONTINUOUS
 62
    7
 10
458.03657730430587
 20
909.70511701644057
 11
485.75944678129963
 21
909.70511701644057
  0
LINE
  8
_0-a_極細1
  6
CONTINUOUS
 62
    7
 10
465.52563918350552
 20
910.77178357644073
 11
485.75944678129963
 21
910.77178357644073
  0
LINE
  8
_0-a_極細1
  6
CONTINUOUS
 62
    7
 10
473.0147010627054
 20
911.83845013644088
 11
485.75944678129963
 21
911.83845013644088
  0
LINE
  8
_0-a_極細1
  6
CONTINUOUS
 62
    7
 10
480.50376294190505
 20
912.90511669644013
 11
485.75944678129963
 21
912.90511669644013
  0
LINE
  8
_0-a_極細1
  6
CONTINUOUS
 62
    7
 10
485.75944678129963
 20
913.72964603740559
 11
485.75944678129963
 21
917.42469107947556
  0
LINE
  8
_0-a_極細1
  6
CONTINUOUS
 62
    7
 10
448.84745047249999
 20
912.16732086030527
 11
485.75944678129963
 21
917.42469107947556
  0
LINE
  8
_0-a_極細1
  6
CONTINUOUS
 62
    7
 10
414.29278726129928
 20
875.37147920655673
 11
414.29278726129928
 21
880.16732406030508
  0
LINE
  8
_0-a_極細1
  6
CONTINUOUS
 62
    7
 10
414.29278726129928
 20
842.83814912655555
 11
414.29278726129928
 21
850.83814832655582
  0
LINE
  8
_0-a_極細1
  6
CONTINUOUS
 62
    7
 10
394.29278926129973
 20
866.33324544371328
 11
394.29278926129973
 21
859.39991280371316
  0
LINE
  8
_0-a_極細1
  6
CONTINUOUS
 62
    7
 10
394.29278926129973
 20
854.06658000371328
 11
394.29278926129973
 21
851.39991360371289
  0
LINE
  8
_0-a_極細1
  6
CONTINUOUS
 62
    7
 10
413.49278734130053
 20
866.33324544371328
 11
413.49278734130053
 21
851.39991360371289
  0
LINE
  8
_0-a_極細1
  6
CONTINUOUS
 62
    7
 10
391.62612286129956
 20
868.99991184371277
 11
394.29278926129973
 21
871.66657824371316
  0
LINE
  8
_0-a_極細1
  6
CONTINUOUS
 62
    7
 10
394.29278926129973
 20
866.33324544371328
 11
391.62612286129956
 21
868.99991184371277
  0
LINE
  8
_0-a_極細1
  6
CONTINUOUS
 62
    7
 10
394.29278926129973
 20
854.06658000371328
 11
391.62612286129956
 21
856.73324640371368
  0
LINE
  8
_0-a_極細1
  6
CONTINUOUS
 62
    7
 10
391.62612286129956
 20
856.73324640371368
 11
394.29278926129973
 21
859.39991280371316
  0
LINE
  8
_0-a_極細1
  6
CONTINUOUS
 62
    7
 10
413.49278734130053
 20
866.33324544371328
 11
417.75945358129979
 21
874.33324464371265
  0
LINE
  8
_0-a_極細1
  6
CONTINUOUS
 62
    7
 10
394.29278926129973
 20
874.33324464371265
 11
394.29278926129973
 21
871.66657824371316
  0
ARC
  8
_0-a_極細1
  6
CONTINUOUS
 62
    7
 10
427.35945262130008
 20
906.83398806030539
 40
2.6666664000000004
 50
24.054548999991212
 51
89.999999999999915
  0
ARC
  8
_0-a_極細1
  6
CONTINUOUS
 62
    7
 10
428.95945246130032
 20
899.90065542030527
 40
1.0666665599999394
 50
269.99999999999977
 51
359.99999999999966
  0
ARC
  8
_0-a_極細1
  6
CONTINUOUS
 62
    7
 10
427.35945262130008
 20
906.83398806030539
 40
2.6666664000000004
 50
0
 51
24.054548999991212
  0
LINE
  8
_0-a_極細1
  6
CONTINUOUS
 62
    7
 10
418.55945350129969
 20
882.83399046030456
 11
418.5594535013015
 21
898.83398886030602
  0
LINE
  8
_0-a_極細1
  6
CONTINUOUS
 62
    7
 10
418.5594535013015
 20
898.83398886030602
 11
428.95945246130032
 21
898.83398886030602
  0
LINE
  8
_0-a_極細1
  6
CONTINUOUS
 62
    7
 10
430.02611902130025
 20
899.90065542030527
 11
430.02611902130025
 21
906.83398806030539
  0
LINE
  8
_0-a_極細1
  6
CONTINUOUS
 62
    7
 10
411.62612086129957
 20
818.83399686030509
 11
440.95945126129936
 21
818.83399686030509
  0
LINE
  8
_0-a_極細1
  6
CONTINUOUS
 62
    7
 10
407.19847330406492
 20
808.16733126030442
 11
411.62612086129957
 21
808.16733126030442
  0
LINE
  8
_0-a_極細1
  6
CONTINUOUS
 62
    7
 10
411.62612086129957
 20
833.2339954203054
 11
418.55945350129969
 21
833.2339954203054
  0
LINE
  8
_0-a_極細1
  6
CONTINUOUS
 62
    7
 10
411.62612086129957
 20
829.50066246030485
 11
422.29278646129933
 21
829.50066246030485
  0
LINE
  8
_0-a_極細1
  6
CONTINUOUS
 62
    7
 10
411.62612086129957
 20
808.16733126030442
 11
411.62612086129957
 21
840.16732806030461
  0
LINE
  8
_0-a_極細1
  6
CONTINUOUS
 62
    7
 10
448.84745047249999
 20
826.7219960715048
 11
440.95945126129936
 21
818.83399686030509
  0
LINE
  8
_0-a_極細1
  6
CONTINUOUS
 62
    7
 10
422.29278646129933
 20
829.50066246030485
 11
422.29278646130024
 21
889.50065646030464
  0
ARC
  8
_0-a_極細1
  6
CONTINUOUS
 62
    7
 10
427.89278590129993
 20
889.50065646030464
 40
5.5999994400000617
 50
89.999999999999915
 51
179.99999999999983
  0
LINE
  8
_0-a_極細1
  6
CONTINUOUS
 62
    7
 10
434.24597993264774
 20
895.10065590030547
 11
427.89278590129993
 21
895.10065590030547
  0
ARC
  8
_0-a_極細1
  6
CONTINUOUS
 62
    7
 10
434.24597993264774
 20
904.16732166030499
 40
9.066665759999939
 50
269.99999999999977
 51
356.64911199999898
  0
ARC
  8
_0-a_極細1
  6
CONTINUOUS
 62
    7
 10
434.24597993264774
 20
904.16732166030499
 40
5.3333328000000009
 50
269.99999999999977
 51
356.64911200000421
  0
ARC
  8
_0-a_極細1
  6
CONTINUOUS
 62
    7
 10
448.84745047249999
 20
902.83398846030479
 40
9.3333324000000015
 50
89.999999999999915
 51
175.84901000000053
  0
ARC
  8
_0-a_極細1
  6
CONTINUOUS
 62
    7
 10
427.89278590129993
 20
889.50065646030464
 40
9.3333324000000015
 50
89.999999999999915
 51
179.99999999999983
  0
LINE
  8
_0-a_極細1
  6
CONTINUOUS
 62
    7
 10
430.29278566130029
 20
898.83398886030602
 11
430.29278566130029
 21
912.16732086030527
  0
LINE
  8
_0-a_極細1
  6
CONTINUOUS
 62
    7
 10
418.55945350129969
 20
833.2339954203054
 11
418.55945350129969
 21
889.50065646030464
  0
LINE
  8
_0-a_極細1
  6
CONTINUOUS
 62
    7
 10
434.24597993264774
 20
898.83398886030602
 11
427.89278590129993
 21
898.83398886030602
  0
LINE
  8
_0-a_極細1
  6
CONTINUOUS
 62
    7
 10
396.95945566130035
 20
840.16732806030461
 11
418.55945350129969
 21
840.16732806030461
  0
LINE
  8
_0-a_極細1
  6
CONTINUOUS
 62
    7
 10
485.75944678129963
 20
904.66298027740606
 11
448.84745047249999
 21
900.39631403740634
  0
LINE
  8
_0-a_極細1
  6
CONTINUOUS
 62
    7
 10
448.84745047249817
 20
799.06299083740589
 11
440.95945126129936
 21
803.32965707740561
  0
LINE
  8
_0-a_極細1
  6
CONTINUOUS
 62
    7
 10
440.95945126129936
 20
803.32965707740561
 11
440.95945126129936
 21
818.83399686030509
  0
LINE
  8
_0-a_極細1
  6
CONTINUOUS
 62
    7
 10
485.75944678129963
 20
832.95760611461094
 11
485.75944678129963
 21
917.34872834216469
  0
LINE
  8
_0-a_極細1
  6
CONTINUOUS
 62
    7
 10
464.95944886129928
 20
829.99632107740592
 11
485.75944678129963
 21
829.99632107740592
  0
LINE
  8
_0-a_極細1
  6
CONTINUOUS
 62
    7
 10
485.75944678129963
 20
829.99632107740592
 11
485.75944678129963
 21
832.95760611461094
  0
LINE
  8
_0-a_極細1
  6
CONTINUOUS
 62
    7
 10
464.95944886129928
 20
787.32965867740506
 11
464.95944886129928
 21
829.99632107740592
  0
LINE
  8
_0-a_極細1
  6
CONTINUOUS
 62
    7
 10
448.84745047249999
 20
908.39631032406862
 11
485.75944678129963
 21
913.65368337833581
  0
LINE
  8
_0-a_極細1
  6
CONTINUOUS
 62
    7
 10
448.84745047249999
 20
826.7219960715048
 11
448.84745047249999
 21
908.43398790030562
  0
ARC
  8
_0-a_極細1
  6
CONTINUOUS
 62
    7
 10
448.84745047249999
 20
902.83398846030479
 40
5.5999994400000617
 50
89.999999999999915
 51
175.84900999999761
  0
LINE
  8
_0-a_極細1
  6
CONTINUOUS
 62
    7
 10
398.29278886129987
 20
803.37148640655698
 11
382.29279046129977
 21
803.37148640655698
  0
ARC
  8
_0-a_極細1
  6
CONTINUOUS
 62
    7
 10
398.29278886129987
 20
814.03815200655674
 40
10.666665600000002
 50
269.99999999999977
 51
359.99999999999966
  0
LINE
  8
_0-a_極細1
  6
CONTINUOUS
 62
    7
 10
408.95945446129986
 20
814.03815200655674
 11
408.95945446129986
 21
819.37148480655662
  0
LINE
  8
_0-a_極細1
  6
CONTINUOUS
 62
    7
 10
408.95945446129986
 20
819.37148480655662
 11
396.95945566130035
 21
819.37148480655662
  0
LINE
  8
_0-a_極細1
  6
CONTINUOUS
 62
    7
 10
414.29278726129928
 20
842.83814912655555
 11
396.95945566130035
 21
842.83814912655555
  0
LINE
  8
_0-a_極細1
  6
CONTINUOUS
 62
    7
 10
396.95945566130035
 20
819.37148480655662
 11
396.95945566130035
 21
842.83814912655646
  0
LINE
  8
_0-a_極細1
  6
CONTINUOUS
 62
    7
 10
412.69278742130041
 20
880.16732406030508
 11
412.69278742130041
 21
885.50065686030496
  0
ARC
  8
_0-a_極細1
  6
CONTINUOUS
 62
    7
 10
415.89278710129997
 20
882.83399046030456
 40
2.6666664000000004
 50
269.99999999999977
 51
359.99999999999966
  0
CIRCLE
  8
_0-a_極細1
  6
CONTINUOUS
 62
    7
 10
419.76041261381761
 20
866.38673824799127
 40
99.281077021678641
  0
ARC
  8
_0-a_極細1
  6
CONTINUOUS
 62
    7
 10
478.29278086129943
 20
764.23565032014096
 40
26.666664000000004
 50
120.00000000000082
 51
161.13978923390152
  0
LINE
  8
_0-a_極細1
  6
CONTINUOUS
 62
    7
 10
438.2927848612992
 20
768.85067602757329
 11
438.2927848612992
 21
799.06299083740589
  0
LINE
  8
_0-a_極細1
  6
CONTINUOUS
 62
    7
 10
462.8486847600077
 20
785.97480542108508
 11
464.95944886129996
 21
788.08556952237734
  0
LINE
  8
_0-a_極細1
  6
CONTINUOUS
 62
    7
 10
438.29278486129965
 20
768.96137710078631
 11
464.95944886129996
 21
795.62804110078662
  0
LINE
  8
_0-a_極細1
  6
CONTINUOUS
 62
    7
 10
438.2927848612992
 20
772.7326128899914
 11
464.95944886129996
 21
799.39927688999171
  0
LINE
  8
_0-a_極細1
  6
CONTINUOUS
 62
    7
 10
438.2927848612992
 20
776.50384867919649
 11
464.95944886129996
 21
803.1705126791968
  0
LINE
  8
_0-a_極細1
  6
CONTINUOUS
 62
    7
 10
438.2927848612992
 20
780.27508446840068
 11
464.95944886129996
 21
806.94174846840099
  0
LINE
  8
_0-a_極細1
  6
CONTINUOUS
 62
    7
 10
438.2927848612992
 20
784.04632025760577
 11
464.95944886129996
 21
810.71298425760517
  0
LINE
  8
_0-a_極細1
  6
CONTINUOUS
 62
    7
 10
484.24278568110003
 20
829.99632107740592
 11
485.75944678129963
 21
831.51298217760552
  0
LINE
  8
_0-a_極細1
  6
CONTINUOUS
 62
    7
 10
438.2927848612992
 20
787.81755604680995
 11
464.95944886129996
 21
814.48422004681026
  0
LINE
  8
_0-a_極細1
  6
CONTINUOUS
 62
    7
 10
480.47154989189562
 20
829.99632107740592
 11
485.75944678130031
 21
835.28421796681062
  0
LINE
  8
_0-a_極細1
  6
CONTINUOUS
 62
    7
 10
438.2927848612992
 20
791.58879183601505
 11
445.76698386269072
 21
799.06299083740589
  0
LINE
  8
_0-a_極細1
  6
CONTINUOUS
 62
    7
 10
446.84832361163626
 20
800.14433058635143
 11
464.95944886129996
 21
818.25545583601536
  0
LINE
  8
_0-a_極細1
  6
CONTINUOUS
 62
    7
 10
476.70031410269075
 20
829.99632107740592
 11
485.75944678129963
 21
839.0554537560148
  0
LINE
  8
_0-a_極細1
  6
CONTINUOUS
 62
    7
 10
438.2927848612992
 20
795.36002762521923
 11
441.99574807348654
 21
799.0629908374068
  0
LINE
  8
_0-a_極細1
  6
CONTINUOUS
 62
    7
 10
444.40090907357876
 20
801.46815183749834
 11
464.95944886129996
 21
822.02669162521954
  0
LINE
  8
_0-a_極細1
  6
CONTINUOUS
 62
    7
 10
472.92907831348634
 20
829.99632107740592
 11
485.75944678129963
 21
842.82668954521989
  0
LINE
  8
_0-a_極細1
  6
CONTINUOUS
 62
    7
 10
441.9534945355208
 20
802.79197308864525
 11
464.95944886129996
 21
825.79792741442373
  0
LINE
  8
_0-a_極細1
  6
CONTINUOUS
 62
    7
 10
469.15784252428125
 20
829.99632107740592
 11
485.75944678129963
 21
846.59792533442408
  0
LINE
  8
_0-a_極細1
  6
CONTINUOUS
 62
    7
 10
440.95945126129959
 20
805.5691656036289
 11
464.95944886129996
 21
829.56916320362882
  0
LINE
  8
_0-a_極細1
  6
CONTINUOUS
 62
    7
 10
465.38660673507707
 20
829.99632107740592
 11
485.75944678129963
 21
850.36916112362917
  0
LINE
  8
_0-a_極細1
  6
CONTINUOUS
 62
    7
 10
440.95945126129959
 20
809.34040139283309
 11
485.75944678129963
 21
854.14039691283335
  0
LINE
  8
_0-a_極細1
  6
CONTINUOUS
 62
    7
 10
440.95945126129959
 20
813.11163718203727
 11
485.75944678130031
 21
857.91163270203845
  0
LINE
  8
_0-a_極細1
  6
CONTINUOUS
 62
    7
 10
440.95945126129959
 20
816.88287297124236
 11
485.75944678130031
 21
861.68286849124263
  0
LINE
  8
_0-a_極細1
  6
CONTINUOUS
 62
    7
 10
448.84745047250044
 20
828.54210797164808
 11
485.75944678129963
 21
865.45410428044772
  0
LINE
  8
_0-a_極細1
  6
CONTINUOUS
 62
    7
 10
448.84745047250044
 20
832.31334376085226
 11
485.75944678129963
 21
869.22534006965191
  0
LINE
  8
_0-a_極細1
  6
CONTINUOUS
 62
    7
 10
448.84745047249999
 20
836.08457955005736
 11
485.75944678129963
 21
872.996575858857
  0
LINE
  8
_0-a_極細1
  6
CONTINUOUS
 62
    7
 10
448.84745047249999
 20
839.85581533926154
 11
485.75944678129963
 21
876.76781164806118
  0
LINE
  8
_0-a_極細1
  6
CONTINUOUS
 62
    7
 10
448.84745047250044
 20
843.62705112846663
 11
485.75944678130031
 21
880.53904743726628
  0
LINE
  8
_0-a_極細1
  6
CONTINUOUS
 62
    7
 10
448.84745047250044
 20
847.39828691767082
 11
485.75944678130031
 21
884.31028322647046
  0
LINE
  8
_0-a_極細1
  6
CONTINUOUS
 62
    7
 10
448.84745047250044
 20
851.16952270687591
 11
485.75944678130031
 21
888.08151901567555
  0
LINE
  8
_0-a_極細1
  6
CONTINUOUS
 62
    7
 10
448.84745047250044
 20
854.94075849608009
 11
485.75944678129963
 21
891.85275480487974
  0
LINE
  8
_0-a_極細1
  6
CONTINUOUS
 62
    7
 10
448.84745047250044
 20
858.71199428528519
 11
485.75944678129963
 21
895.62399059408483
  0
LINE
  8
_0-a_極細1
  6
CONTINUOUS
 62
    7
 10
448.84745047250044
 20
862.48323007448937
 11
485.75944678129963
 21
899.39522638328901
  0
LINE
  8
_0-a_極細1
  6
CONTINUOUS
 62
    7
 10
448.84745047249999
 20
866.25446586369446
 11
485.75944678130031
 21
903.16646217249411
  0
LINE
  8
_0-a_極細1
  6
CONTINUOUS
 62
    7
 10
448.84745047249999
 20
870.02570165289865
 11
483.1874289585603
 21
904.36568013895896
  0
LINE
  8
_0-a_極細1
  6
CONTINUOUS
 62
    7
 10
448.84745047249999
 20
873.79693744210283
 11
478.92330170858781
 21
903.87278867819089
  0
LINE
  8
_0-a_極細1
  6
CONTINUOUS
 62
    7
 10
448.84745047249999
 20
877.56817323130792
 11
474.65917445861419
 21
903.37989721742281
  0
LINE
  8
_0-a_極細1
  6
CONTINUOUS
 62
    7
 10
448.84745047249999
 20
881.33940902051302
 11
470.39504720864147
 21
902.88700575665382
  0
LINE
  8
_0-a_極細1
  6
CONTINUOUS
 62
    7
 10
448.84745047249999
 20
885.1106448097172
 11
466.13091995866785
 21
902.39411429588483
  0
LINE
  8
_0-a_極細1
  6
CONTINUOUS
 62
    7
 10
448.84745047249999
 20
888.88188059892138
 11
461.86679270869513
 21
901.90122283511676
  0
LINE
  8
_0-a_極細1
  6
CONTINUOUS
 62
    7
 10
448.84745047249999
 20
892.65311638812648
 11
457.60266545872219
 21
901.40833137434868
  0
LINE
  8
_0-a_極細1
  6
CONTINUOUS
 62
    7
 10
448.84745047249999
 20
896.42435217733157
 11
453.33853820874901
 21
900.91543991357969
  0
LINE
  8
_0-a_極細1
  6
CONTINUOUS
 62
    7
 10
448.84745047249999
 20
900.19558796653575
 11
449.07441095877584
 21
900.4225484528107
  0
LINE
  8
_0-a_極細1
  6
CONTINUOUS
 62
    7
 10
442.95597832569638
 20
769.85333477597862
 11
464.95944886129996
 21
791.85680531158243
  0
LINE
  8
_0-a_極細1
  6
CONTINUOUS
 62
    7
 10
448.11454273552704
 20
771.24066339660487
 11
456.55362576035441
 21
779.67974642143247
  0
LINE
  8
_0-a_極細1
  6
CONTINUOUS
 62
    7
 10
346.79298639375565
 20
799.06299083740589
 11
448.84745047249817
 21
799.06299083740589
  0
LINE
  8
_0-a_極細1
  6
CONTINUOUS
 62
    7
 10
343.07575463824423
 20
803.32965707740561
 11
440.95945126129936
 21
803.32965707740561
  0
LINE
  8
_0-a_極細1
  6
CONTINUOUS
 62
    7
 10
332.60842444888635
 20
818.83399686030509
 11
382.29279046129977
 21
818.83399686030509
  0
LINE
  8
_0-a_極細1
  6
CONTINUOUS
 62
    7
 10
334.60256138825116
 20
917.42469107947556
 11
485.75944678129963
 21
917.42469107947556
  0
LINE
  8
_0-a_極細1
  6
CONTINUOUS
 62
    7
 10
331.66460959084952
 20
912.16732086030618
 11
448.84745047249999
 21
912.16732086030527
  0
LINE
  8
_0-a_極細1
  6
CONTINUOUS
 62
    7
 10
330.32930793864261
 20
909.50065446030578
 11
427.35945262130008
 21
909.50065446030487
  0
LINE
  8
_0-a_極細1
  6
CONTINUOUS
 62
    7
 10
322.33664564771038
 20
885.50065686030587
 11
412.69278742130041
 21
885.50065686030496
  0
LINE
  8
_0-a_極細1
  6
CONTINUOUS
 62
    7
 10
321.44038561395382
 20
880.16732406030508
 11
415.89278710129997
 21
880.16732406030508
  0
LINE
  8
_0-a_極細1
  6
CONTINUOUS
 62
    7
 10
414.29278726129928
 20
875.37147920655673
 11
320.88672205615694
 21
875.37147920655673
  0
LINE
  8
_0-a_極細1
  6
CONTINUOUS
 62
    7
 10
320.79786772592956
 20
874.33324464371265
 11
417.75945358129979
 21
874.33324464371265
  0
LINE
  8
_0-a_極細1
  6
CONTINUOUS
 62
    7
 10
320.51373217390005
 20
868.99991184371368
 11
391.62612286129956
 21
868.99991184371277
  0
LINE
  8
_0-a_極細1
  6
CONTINUOUS
 62
    7
 10
320.94977376456745
 20
856.73324640371368
 11
391.62612286129956
 21
856.73324640371368
  0
LINE
  8
_0-a_極細1
  6
CONTINUOUS
 62
    7
 10
321.61701068752336
 20
851.39991360371289
 11
413.49278734130053
 21
851.39991360371289
  0
LINE
  8
_0-a_極細1
  6
CONTINUOUS
 62
    7
 10
414.29278726129928
 20
850.83814832655582
 11
321.70444081179244
 21
850.83814832655582
  0
LINE
  8
_0-a_極細1
  6
CONTINUOUS
 62
    7
 10
396.95945566130035
 20
842.83814912655646
 11
323.31251888370889
 21
842.83814912655646
  0
LINE
  8
_0-d_寸法1
  6
CONTINUOUS
 62
    7
 10
475.1279608115301
 20
907.33509292518568
 11
481.65902571060656
 21
921.94143371554287
  0
LINE
  8
_0-d_寸法1
  6
CONTINUOUS
 62
    7
 10
475.1279608115301
 20
907.33509292518568
 11
488.08719932307372
 21
916.71902265642973
  0
LINE
  8
_0-d_寸法1
  6
CONTINUOUS
 62
    7
 10
475.1279608115301
 20
907.33509292518568
 11
507.86066123121941
 21
947.62519623589117
  0
LINE
  8
_0-d_寸法1
  6
CONTINUOUS
 62
    7
 10
507.86066123121941
 20
947.62519623589117
 11
578.26066123121939
 21
947.62519623589117
  0
TEXT
  8
_0-d_寸法1
 62
    7
 10
507.86066123121941
 20
947.62519623589117
 40
24
 41
0.7333333333333333
 50
0
  1
パッキン
  0
LINE
  8
_0-a_極細1
  6
CONTINUOUS
 62
    7
 10
367.13581698590929
 20
809.76733110030557
 11
367.13581698590929
 21
818.83399686030509
  0
LINE
  8
_0-a_極細1
  6
CONTINUOUS
 62
    7
 10
366.06915042590936
 20
809.76733110030557
 11
366.06915042590936
 21
818.83399686030509
  0
LINE
  8
_0-a_極細1
  6
CONTINUOUS
 62
    7
 10
365.0024838659092
 20
809.76733110030557
 11
365.0024838659092
 21
818.83399686030509
  0
LINE
  8
_0-a_極細1
  6
CONTINUOUS
 62
    7
 10
363.93581730590904
 20
809.76733110030557
 11
363.93581730590904
 21
818.83399686030509
  0
LINE
  8
_0-a_極細1
  6
CONTINUOUS
 62
    7
 10
362.86915074590911
 20
809.76733110030557
 11
362.86915074590911
 21
818.83399686030509
  0
LINE
  8
_0-a_極細1
  6
CONTINUOUS
 62
    7
 10
361.80248418590872
 20
809.76733110030557
 11
361.80248418590872
 21
818.83399686030509
  0
LINE
  8
_0-a_極細1
  6
CONTINUOUS
 62
    7
 10
360.73581762590879
 20
809.76733110030557
 11
360.73581762590879
 21
818.83399686030509
  0
LINE
  8
_0-a_極細1
  6
CONTINUOUS
 62
    7
 10
359.66915106590909
 20
809.76733110030557
 11
359.66915106590909
 21
818.83399686030509
  0
LINE
  8
_0-a_極細1
  6
CONTINUOUS
 62
    7
 10
358.60248450590893
 20
809.76733110030557
 11
358.60248450590893
 21
818.83399686030509
  0
LINE
  8
_0-a_極細1
  6
CONTINUOUS
 62
    7
 10
357.535817945909
 20
809.76733110030557
 11
357.535817945909
 21
818.83399686030509
  0
LINE
  8
_0-a_極細1
  6
CONTINUOUS
 62
    7
 10
356.46915138590884
 20
809.76733110030557
 11
356.46915138590884
 21
818.83399686030509
  0
LINE
  8
_0-a_極細1
  6
CONTINUOUS
 62
    7
 10
355.40248482590869
 20
809.76733110030557
 11
355.40248482590869
 21
818.83399686030509
  0
LINE
  8
_0-a_極細1
  6
CONTINUOUS
 62
    7
 10
354.33581826590853
 20
809.76733110030557
 11
354.33581826590853
 21
818.83399686030509
  0
LINE
  8
_0-a_極細1
  6
CONTINUOUS
 62
    7
 10
353.26915170590883
 20
809.76733110030557
 11
353.26915170590883
 21
818.83399686030509
  0
LINE
  8
_0-a_極細1
  6
CONTINUOUS
 62
    7
 10
352.20248514590867
 20
809.76733110030557
 11
352.20248514590867
 21
818.83399686030509
  0
LINE
  8
_0-a_極細1
  6
CONTINUOUS
 62
    7
 10
351.13581858590874
 20
809.76733110030557
 11
351.13581858590874
 21
818.83399686030509
  0
LINE
  8
_0-a_極細1
  6
CONTINUOUS
 62
    7
 10
350.06915202590881
 20
809.76733110030557
 11
350.06915202590881
 21
818.83399686030509
  0
LINE
  8
_0-a_極細1
  6
CONTINUOUS
 62
    7
 10
349.00248546590865
 20
809.76733110030557
 11
349.00248546590865
 21
818.83399686030509
  0
LINE
  8
_0-a_極細1
  6
CONTINUOUS
 62
    7
 10
347.93581890590849
 20
809.76733110030557
 11
347.93581890590849
 21
818.83399686030509
  0
LINE
  8
_0-a_極細1
  6
CONTINUOUS
 62
    7
 10
346.86915234590833
 20
809.76733110030557
 11
346.86915234590833
 21
818.83399686030509
  0
LINE
  8
_0-a_極細1
  6
CONTINUOUS
 62
    7
 10
345.80248578590817
 20
809.76733110030557
 11
345.80248578590817
 21
818.83399686030509
  0
LINE
  8
_0-a_極細1
  6
CONTINUOUS
 62
    7
 10
344.73581922590847
 20
809.76733110030557
 11
344.73581922590847
 21
818.83399686030509
  0
LINE
  8
_0-a_極細1
  6
CONTINUOUS
 62
    7
 10
343.66915266590854
 20
809.76733110030557
 11
343.66915266590854
 21
818.83399686030509
  0
LINE
  8
_0-a_極細1
  6
CONTINUOUS
 62
    7
 10
342.60248610590838
 20
809.76733110030557
 11
342.60248610590838
 21
818.83399686030509
  0
LINE
  8
_0-a_極細1
  6
CONTINUOUS
 62
    7
 10
341.53581954590845
 20
809.76733110030557
 11
341.53581954590845
 21
818.83399686030509
  0
LINE
  8
_0-a_極細1
  6
CONTINUOUS
 62
    7
 10
367.81979457526631
 20
809.76733110030557
 11
367.81979457526631
 21
818.83399686030509
  0
LINE
  8
_0-a_極細1
  6
CONTINUOUS
 62
    7
 10
341.153130575266
 20
809.76733110030557
 11
341.153130575266
 21
818.83399686030509
  0
LINE
  8
_0-a_極細1
  6
CONTINUOUS
 62
    7
 10
341.153130575266
 20
809.76733110030557
 11
367.81979457526631
 21
809.76733110030557
  0
ARC
  8
_0-a_極細1
  6
CONTINUOUS
 62
    7
 10
358.29279286129986
 20
805.36746487362518
 40
31.999996799999998
 50
55.166292356155061
 51
148.68484545273029
  0
LINE
  8
_0-a_極細1
  6
CONTINUOUS
 62
    7
 10
382.22365080211489
 20
818.83399686030509
 11
382.22365080211489
 21
820.8573140633099
  0
LINE
  8
_0-a_極細1
  6
CONTINUOUS
 62
    7
 10
380.62365080211475
 20
818.83399686030509
 11
380.62365080211475
 21
826.48671049172128
  0
LINE
  8
_0-a_極細1
  6
CONTINUOUS
 62
    7
 10
379.02365080211462
 20
818.83399686030509
 11
379.02365080211462
 21
829.06298543965943
  0
LINE
  8
_0-a_極細1
  6
CONTINUOUS
 62
    7
 10
377.42365080211471
 20
818.83399686030509
 11
377.42365080211471
 21
830.86513229079912
  0
LINE
  8
_0-a_極細1
  6
CONTINUOUS
 62
    7
 10
375.82365080211457
 20
818.83399686030509
 11
375.82365080211457
 21
832.13813567319642
  0
LINE
  8
_0-a_極細1
  6
CONTINUOUS
 62
    7
 10
374.22365080211466
 20
818.83399686030509
 11
374.22365080211466
 21
833.12007845270284
  0
LINE
  8
_0-a_極細1
  6
CONTINUOUS
 62
    7
 10
372.62365080211475
 20
818.83399686030509
 11
372.62365080211475
 21
833.97911120654692
  0
LINE
  8
_0-a_極細1
  6
CONTINUOUS
 62
    7
 10
371.02365080211439
 20
818.83399686030509
 11
371.02365080211439
 21
834.72602497610308
  0
LINE
  8
_0-a_極細1
  6
CONTINUOUS
 62
    7
 10
369.42365080211471
 20
818.83399686030509
 11
369.42365080211471
 21
835.36919476877313
  0
LINE
  8
_0-a_極細1
  6
CONTINUOUS
 62
    7
 10
367.82365080211457
 20
818.83399686030509
 11
367.82365080211457
 21
835.91517415127885
  0
LINE
  8
_0-a_極細1
  6
CONTINUOUS
 62
    7
 10
366.22365080211466
 20
818.83399686030509
 11
366.22365080211466
 21
836.36909850030145
  0
LINE
  8
_0-a_極細1
  6
CONTINUOUS
 62
    7
 10
364.62365080211453
 20
818.83399686030509
 11
364.62365080211453
 21
836.73496450195501
  0
LINE
  8
_0-a_極細1
  6
CONTINUOUS
 62
    7
 10
363.02365080211439
 20
818.83399686030509
 11
363.02365080211439
 21
837.01582625844014
  0
LINE
  8
_0-a_極細1
  6
CONTINUOUS
 62
    7
 10
361.42365080211425
 20
818.83399686030509
 11
361.42365080211425
 21
837.21393286859177
  0
LINE
  8
_0-a_極細1
  6
CONTINUOUS
 62
    7
 10
359.82365080211457
 20
818.83399686030509
 11
359.82365080211457
 21
837.33082310089969
  0
LINE
  8
_0-a_極細1
  6
CONTINUOUS
 62
    7
 10
358.22365080211421
 20
818.83399686030509
 11
358.22365080211421
 21
837.36738697627527
  0
LINE
  8
_0-a_極細1
  6
CONTINUOUS
 62
    7
 10
356.62365080211453
 20
818.83399686030509
 11
356.62365080211453
 21
837.32390021904951
  0
LINE
  8
_0-a_極細1
  6
CONTINUOUS
 62
    7
 10
355.02365080211439
 20
818.83399686030509
 11
355.02365080211439
 21
837.20003475726674
  0
LINE
  8
_0-a_極細1
  6
CONTINUOUS
 62
    7
 10
353.42365080211448
 20
818.83399686030509
 11
353.42365080211448
 21
836.99484621965996
  0
LINE
  8
_0-a_極細1
  6
CONTINUOUS
 62
    7
 10
351.82365080211434
 20
818.83399686030509
 11
351.82365080211434
 21
836.7067373000574
  0
LINE
  8
_0-a_極細1
  6
CONTINUOUS
 62
    7
 10
350.22365080211421
 20
818.83399686030509
 11
350.22365080211421
 21
836.3333935958309
  0
LINE
  8
_0-a_極細1
  6
CONTINUOUS
 62
    7
 10
348.6236508021143
 20
818.83399686030509
 11
348.6236508021143
 21
835.8716856805778
  0
LINE
  8
_0-a_極細1
  6
CONTINUOUS
 62
    7
 10
347.02365080211439
 20
818.83399686030509
 11
347.02365080211439
 21
835.31752718491146
  0
LINE
  8
_0-a_極細1
  6
CONTINUOUS
 62
    7
 10
345.42365080211403
 20
818.83399686030509
 11
345.42365080211403
 21
834.66567263212994
  0
LINE
  8
_0-a_極細1
  6
CONTINUOUS
 62
    7
 10
343.82365080211434
 20
818.83399686030509
 11
343.82365080211434
 21
833.90942912402545
  0
LINE
  8
_0-a_極細1
  6
CONTINUOUS
 62
    7
 10
342.22365080211421
 20
818.83399686030509
 11
342.22365080211421
 21
833.04023973777123
  0
LINE
  8
_0-a_極細1
  6
CONTINUOUS
 62
    7
 10
340.6236508021143
 20
818.83399686030509
 11
340.6236508021143
 21
832.04706783342056
  0
LINE
  8
_0-a_極細1
  6
CONTINUOUS
 62
    7
 10
339.02365080211416
 20
818.83399686030509
 11
339.02365080211416
 21
830.9154581314707
  0
LINE
  8
_0-a_極細1
  6
CONTINUOUS
 62
    7
 10
337.42365080211403
 20
818.83399686030509
 11
337.42365080211403
 21
829.62604490036131
  0
LINE
  8
_0-a_極細1
  6
CONTINUOUS
 62
    7
 10
335.82365080211412
 20
818.83399686030509
 11
335.82365080211412
 21
828.15205287350193
  0
LINE
  8
_0-a_極細1
  6
CONTINUOUS
 62
    7
 10
334.22365080211421
 20
818.83399686030509
 11
334.22365080211421
 21
826.45481168954223
  0
LINE
  8
_0-a_極細1
  6
CONTINUOUS
 62
    7
 10
332.62365080211384
 20
818.83399686030509
 11
332.62365080211384
 21
824.47492260994761
  0
LINE
  8
_0-a_極細1
  6
CONTINUOUS
 62
    7
 10
331.02365080211416
 20
821.86124714730261
 11
331.02365080211416
 21
822.11242490809411
  0
LINE
  8
_0-d_寸法1
  6
CONTINUOUS
 62
    7
 10
406.26894911981799
 20
858.62113288882585
 11
417.58260100723078
 21
847.30736777855236
  0
LINE
  8
_0-d_寸法1
  6
CONTINUOUS
 62
    7
 10
406.26894911981799
 20
858.62113288882585
 11
410.40997650875443
 21
843.16629894717255
  0
LINE
  8
_0-d_寸法1
  6
CONTINUOUS
 62
    7
 10
406.26894911981799
 20
858.62113288882585
 11
472.98240239696952
 21
743.06870697220268
  0
LINE
  8
_0-d_寸法1
  6
CONTINUOUS
 62
    7
 10
472.98240239696952
 20
743.06870697220268
 11
648.98240239696941
 21
743.06870697220268
  0
TEXT
  8
_0-d_寸法1
 62
    7
 10
472.98240239696952
 20
743.06870697220268
 40
24
 41
0.7333333333333333
 50
0
  1
防臭インナーパッキン
  0
LINE
  8
_0-d_寸法1
  6
CONTINUOUS
 62
    7
 10
474.0287650416908
 20
837.59759331779799
 11
485.34299850467733
 21
826.28440980717482
  0
LINE
  8
_0-d_寸法1
  6
CONTINUOUS
 62
    7
 10
474.0287650416908
 20
837.59759331779799
 11
478.17058688967347
 21
822.14297226842984
  0
LINE
  8
_0-d_寸法1
  6
CONTINUOUS
 62
    7
 10
474.0287650416908
 20
837.59759331779799
 11
507.34565384464713
 21
779.89723251541557
  0
LINE
  8
_0-d_寸法1
  6
CONTINUOUS
 62
    7
 10
507.34565384464713
 20
779.89723251541557
 11
630.54565384464729
 21
779.89723251541557
  0
TEXT
  8
_0-d_寸法1
 62
    7
 10
507.34565384464713
 20
779.89723251541557
 40
24
 41
0.7333333333333333
 50
0
  1
ロックフランジ
  0
TEXT
  8
_0-7_枠細線
 62
    5
 10
339.05645725810405
 20
685.84369636823078
 40
40
 41
0.8
 50
0
  1
Ｃ部拡大図
  0
LINE
  8
_1-2_極細2
  6
CONTINUOUS
 62
    2
 10
1297.1137059576315
 20
290.38019193517027
 11
1273.1137059576317
 21
290.38019193517027
  0
LINE
  8
_1-2_極細2
  6
CONTINUOUS
 62
    2
 10
918.44703929096499
 20
290.38019193517027
 11
942.44703929096477
 21
290.38019193517027
  0
LINE
  8
_1-2_極細2
  6
CONTINUOUS
 62
    2
 10
1299.7803726242976
 20
271.7135252685033
 11
1299.7803726242983
 21
293.04685860183679
  0
LINE
  8
_1-2_極細2
  6
CONTINUOUS
 62
    2
 10
915.78037262429825
 20
271.71352526850376
 11
915.78037262429825
 21
293.04685860183679
  0
LINE
  8
_1-2_極細2
  6
CONTINUOUS
 62
    2
 10
915.78037262429825
 20
293.04685860183679
 11
945.11370595763151
 21
293.04685860183679
  0
LINE
  8
_1-2_極細2
  6
CONTINUOUS
 62
    2
 10
1270.4470392909652
 20
293.04685860183679
 11
1299.7803726242983
 21
293.04685860183679
  0
LINE
  8
_1-2_極細2
  6
CONTINUOUS
 62
    2
 10
945.11370595763151
 20
242.38019193516982
 11
945.11370595763151
 21
293.04685860183679
  0
LINE
  8
_1-2_極細2
  6
CONTINUOUS
 62
    2
 10
918.44703929096499
 20
271.71352526850376
 11
918.44703929096499
 21
290.38019193517027
  0
LINE
  8
_1-2_極細2
  6
CONTINUOUS
 62
    2
 10
915.78037262429825
 20
271.71352526850376
 11
918.44703929096499
 21
271.71352526850376
  0
LINE
  8
_1-2_極細2
  6
CONTINUOUS
 62
    2
 10
1297.1137059576311
 20
271.7135252685033
 11
1297.1137059576315
 21
290.38019193517027
  0
LINE
  8
_1-2_極細2
  6
CONTINUOUS
 62
    2
 10
1297.1137059576311
 20
271.7135252685033
 11
1299.7803726242976
 21
271.7135252685033
  0
LINE
  8
_1-2_極細2
  6
CONTINUOUS
 62
    2
 10
1270.4470392909652
 20
242.38019193516982
 11
945.11370595763151
 21
242.38019193516982
  0
LINE
  8
_1-2_極細2
  6
CONTINUOUS
 62
    2
 10
1270.4470392909652
 20
242.38019193516982
 11
1270.4470392909652
 21
293.04685860183679
  0
LINE
  8
_1-2_極細2
  6
CONTINUOUS
 62
    2
 10
1273.1137059576317
 20
290.38019193517027
 11
1273.1137059576317
 21
239.7135252685033
  0
LINE
  8
_1-2_極細2
  6
CONTINUOUS
 62
    2
 10
1273.1137059576317
 20
239.7135252685033
 11
942.44703929096477
 21
239.7135252685033
  0
LINE
  8
_1-2_極細2
  6
CONTINUOUS
 62
    2
 10
942.44703929096477
 20
290.38019193517027
 11
942.44703929096477
 21
239.7135252685033
  0
LINE
  8
_1-3_細線2
  6
CONTINUOUS
 62
    4
 10
1242.3137059576316
 20
267.9401923106451
 11
1242.3137059576316
 21
257.35352564397806
  0
LINE
  8
_1-3_細線2
  6
CONTINUOUS
 62
    4
 10
1138.5803726242984
 20
287.18019231064488
 11
1118.3137059576331
 21
287.18019231064488
  0
LINE
  8
_1-3_細線2
  6
CONTINUOUS
 62
    4
 10
1118.3137059576331
 20
287.18019231064488
 11
1118.3137059576331
 21
247.71352564397819
  0
LINE
  8
_1-3_細線2
  6
CONTINUOUS
 62
    4
 10
1242.3137059576316
 20
287.18019231064488
 11
1242.3137059576316
 21
247.71352564397819
  0
LINE
  8
_1-3_細線2
  6
CONTINUOUS
 62
    4
 10
1179.9137059576306
 20
287.18019231064488
 11
1159.6470392909653
 21
287.18019231064488
  0
LINE
  8
_1-3_細線2
  6
CONTINUOUS
 62
    4
 10
1221.2470392909638
 20
287.18019231064488
 11
1200.9803726242974
 21
287.18019231064488
  0
LINE
  8
_1-3_細線2
  6
CONTINUOUS
 62
    4
 10
1262.5803726242975
 20
287.18019231064488
 11
1242.3137059576316
 21
287.18019231064488
  0
LINE
  8
_1-3_細線2
  6
CONTINUOUS
 62
    4
 10
1200.9803726242974
 20
287.18019231064488
 11
1200.9803726242974
 21
247.71352564397819
  0
LINE
  8
_1-3_細線2
  6
CONTINUOUS
 62
    4
 10
1159.6470392909653
 20
287.18019231064488
 11
1159.6470392909653
 21
247.71352564397819
  0
LINE
  8
_1-3_細線2
  6
CONTINUOUS
 62
    4
 10
1076.9803726242988
 20
287.18019231064488
 11
1097.2470392909654
 21
287.18019231064488
  0
LINE
  8
_1-3_細線2
  6
CONTINUOUS
 62
    4
 10
1097.2470392909654
 20
287.18019231064488
 11
1097.2470392909654
 21
247.71352564397819
  0
LINE
  8
_1-3_細線2
  6
CONTINUOUS
 62
    4
 10
1035.6470392909659
 20
287.18019231064488
 11
1055.9137059576331
 21
287.18019231064488
  0
LINE
  8
_1-3_細線2
  6
CONTINUOUS
 62
    4
 10
1055.9137059576331
 20
287.18019231064488
 11
1055.9137059576331
 21
247.71352564397819
  0
LINE
  8
_1-3_細線2
  6
CONTINUOUS
 62
    4
 10
973.24703929096745
 20
287.18019231064488
 11
973.24703929096745
 21
247.71352564397819
  0
LINE
  8
_1-3_細線2
  6
CONTINUOUS
 62
    4
 10
994.31370595763315
 20
287.18019231064488
 11
1014.5803726243003
 21
287.18019231064488
  0
LINE
  8
_1-3_細線2
  6
CONTINUOUS
 62
    4
 10
952.98037262430103
 20
287.18019231064488
 11
973.24703929096745
 21
287.18019231064488
  0
LINE
  8
_1-3_細線2
  6
CONTINUOUS
 62
    4
 10
1014.5803726243003
 20
287.18019231064488
 11
1014.5803726243003
 21
247.71352564397819
  0
ARC
  8
_1-3_細線2
  6
CONTINUOUS
 62
    4
 10
1262.5803726242984
 20
287.18019231064488
 40
3.1999999999999997
 50
0
 51
89.999999999999915
  0
LINE
  8
_1-3_細線2
  6
CONTINUOUS
 62
    4
 10
1239.1137059576308
 20
287.18019231064488
 11
1239.1137059576308
 21
247.71352564397819
  0
LINE
  8
_1-3_細線2
  6
CONTINUOUS
 62
    4
 10
1262.5803726242984
 20
290.38019231064516
 11
1242.3137059576309
 21
290.38019231064516
  0
ARC
  8
_1-3_細線2
  6
CONTINUOUS
 62
    4
 10
1242.3137059576309
 20
287.18019231064488
 40
3.1999999999999997
 50
89.999999999999915
 51
179.99999999999983
  0
ARC
  8
_1-3_細線2
  6
CONTINUOUS
 62
    4
 10
1221.2470392909645
 20
287.18019231064488
 40
3.1999999999999997
 50
0
 51
89.999999999999915
  0
LINE
  8
_1-3_細線2
  6
CONTINUOUS
 62
    4
 10
1197.7803726242983
 20
287.18019231064488
 11
1197.7803726242983
 21
247.71352564397819
  0
LINE
  8
_1-3_細線2
  6
CONTINUOUS
 62
    4
 10
1221.2470392909645
 20
290.38019231064516
 11
1200.9803726242988
 21
290.38019231064516
  0
ARC
  8
_1-3_細線2
  6
CONTINUOUS
 62
    4
 10
1200.9803726242988
 20
287.18019231064488
 40
3.1999999999999997
 50
89.999999999999915
 51
179.99999999999983
  0
ARC
  8
_1-3_細線2
  6
CONTINUOUS
 62
    4
 10
1179.9137059576312
 20
287.18019231064488
 40
3.1999999999999997
 50
0
 51
89.999999999999915
  0
LINE
  8
_1-3_細線2
  6
CONTINUOUS
 62
    4
 10
1156.4470392909645
 20
287.18019231064488
 11
1156.4470392909645
 21
247.71352564397819
  0
LINE
  8
_1-3_細線2
  6
CONTINUOUS
 62
    4
 10
1179.9137059576312
 20
290.38019231064516
 11
1159.6470392909646
 21
290.38019231064516
  0
ARC
  8
_1-3_細線2
  6
CONTINUOUS
 62
    4
 10
1159.6470392909646
 20
287.18019231064488
 40
3.1999999999999997
 50
89.999999999999915
 51
179.99999999999983
  0
ARC
  8
_1-3_細線2
  6
CONTINUOUS
 62
    4
 10
1138.5803726242991
 20
287.18019231064488
 40
3.1999999999999997
 50
0
 51
89.999999999999915
  0
LINE
  8
_1-3_細線2
  6
CONTINUOUS
 62
    4
 10
1115.1137059576324
 20
287.18019231064488
 11
1115.1137059576324
 21
247.71352564397819
  0
LINE
  8
_1-3_細線2
  6
CONTINUOUS
 62
    4
 10
1138.5803726242991
 20
290.38019231064516
 11
1118.3137059576325
 21
290.38019231064516
  0
ARC
  8
_1-3_細線2
  6
CONTINUOUS
 62
    4
 10
1118.3137059576325
 20
287.18019231064488
 40
3.1999999999999997
 50
89.999999999999915
 51
179.99999999999983
  0
LINE
  8
_1-3_細線2
  6
CONTINUOUS
 62
    4
 10
1100.4470392909659
 20
287.18019231064488
 11
1100.4470392909659
 21
247.71352564397819
  0
ARC
  8
_1-3_細線2
  6
CONTINUOUS
 62
    4
 10
1097.2470392909654
 20
287.18019231064488
 40
3.1999999999999997
 50
0
 51
89.999999999999915
  0
LINE
  8
_1-3_細線2
  6
CONTINUOUS
 62
    4
 10
1076.9803726242983
 20
290.38019231064516
 11
1097.2470392909654
 21
290.38019231064516
  0
ARC
  8
_1-3_細線2
  6
CONTINUOUS
 62
    4
 10
1076.9803726242983
 20
287.18019231064488
 40
3.1999999999999997
 50
89.999999999999915
 51
179.99999999999983
  0
LINE
  8
_1-3_細線2
  6
CONTINUOUS
 62
    4
 10
1059.1137059576331
 20
287.18019231064488
 11
1059.1137059576331
 21
247.71352564397819
  0
ARC
  8
_1-3_細線2
  6
CONTINUOUS
 62
    4
 10
1055.9137059576331
 20
287.18019231064488
 40
3.1999999999999997
 50
0
 51
89.999999999999915
  0
LINE
  8
_1-3_細線2
  6
CONTINUOUS
 62
    4
 10
1035.6470392909655
 20
290.38019231064516
 11
1055.9137059576331
 21
290.38019231064516
  0
ARC
  8
_1-3_細線2
  6
CONTINUOUS
 62
    4
 10
1035.6470392909657
 20
287.18019231064488
 40
3.1999999999999997
 50
90.000000000004064
 51
179.99999999999983
  0
LINE
  8
_1-3_細線2
  6
CONTINUOUS
 62
    4
 10
1017.7803726243003
 20
287.18019231064488
 11
1017.7803726243003
 21
247.71352564397819
  0
ARC
  8
_1-3_細線2
  6
CONTINUOUS
 62
    4
 10
1014.5803726243003
 20
287.18019231064488
 40
3.1999999999999997
 50
0
 51
89.999999999999915
  0
LINE
  8
_1-3_細線2
  6
CONTINUOUS
 62
    4
 10
994.31370595763292
 20
290.38019231064516
 11
1014.5803726243003
 21
290.38019231064516
  0
ARC
  8
_1-3_細線2
  6
CONTINUOUS
 62
    4
 10
994.31370595763292
 20
287.18019231064488
 40
3.1999999999999997
 50
89.999999999999915
 51
179.99999999999983
  0
LINE
  8
_1-3_細線2
  6
CONTINUOUS
 62
    4
 10
976.44703929096613
 20
287.18019231064488
 11
976.44703929096613
 21
247.71352564397819
  0
ARC
  8
_1-3_細線2
  6
CONTINUOUS
 62
    4
 10
973.24703929096631
 20
287.18019231064488
 40
3.1999999999999997
 50
0
 51
89.999999999999915
  0
LINE
  8
_1-3_細線2
  6
CONTINUOUS
 62
    4
 10
952.98037262430012
 20
290.38019231064516
 11
973.24703929096631
 21
290.38019231064516
  0
ARC
  8
_1-3_細線2
  6
CONTINUOUS
 62
    4
 10
952.98037262430012
 20
287.18019231064488
 40
3.1999999999999997
 50
89.999999999999915
 51
179.99999999999983
  0
LINE
  8
_1-3_細線2
  6
CONTINUOUS
 62
    4
 10
973.24703929096745
 20
247.71352564397819
 11
976.44703929096613
 21
247.71352564397819
  0
LINE
  8
_1-3_細線2
  6
CONTINUOUS
 62
    4
 10
1014.5803726243003
 20
247.71352564397819
 11
1017.7803726243003
 21
247.71352564397819
  0
LINE
  8
_1-3_細線2
  6
CONTINUOUS
 62
    4
 10
1055.9137059576331
 20
247.71352564397819
 11
1059.1137059576331
 21
247.71352564397819
  0
LINE
  8
_1-3_細線2
  6
CONTINUOUS
 62
    4
 10
1097.2470392909654
 20
247.71352564397819
 11
1100.4470392909659
 21
247.71352564397819
  0
LINE
  8
_1-3_細線2
  6
CONTINUOUS
 62
    4
 10
1115.1137059576324
 20
247.71352564397819
 11
1118.3137059576331
 21
247.71352564397819
  0
LINE
  8
_1-3_細線2
  6
CONTINUOUS
 62
    4
 10
1156.4470392909645
 20
247.71352564397819
 11
1159.6470392909653
 21
247.71352564397819
  0
LINE
  8
_1-3_細線2
  6
CONTINUOUS
 62
    4
 10
1197.7803726242983
 20
247.71352564397819
 11
1200.9803726242974
 21
247.71352564397819
  0
LINE
  8
_1-3_細線2
  6
CONTINUOUS
 62
    4
 10
1239.1137059576308
 20
247.71352564397819
 11
1242.3137059576316
 21
247.71352564397819
  0
LINE
  8
_1-3_細線2
  6
CONTINUOUS
 62
    4
 10
1141.7803726242992
 20
274.38019193516982
 11
1138.5803726242984
 21
274.38019193516982
  0
LINE
  8
_1-3_細線2
  6
CONTINUOUS
 62
    4
 10
1265.7803726242983
 20
274.38019193516982
 11
1262.5803726242975
 21
274.38019193516982
  0
LINE
  8
_1-3_細線2
  6
CONTINUOUS
 62
    4
 10
1224.4470392909645
 20
274.38019193516982
 11
1221.2470392909638
 21
274.38019193516982
  0
LINE
  8
_1-3_細線2
  6
CONTINUOUS
 62
    4
 10
1183.1137059576313
 20
274.38019193516982
 11
1179.9137059576306
 21
274.38019193516982
  0
LINE
  8
_1-3_細線2
  6
CONTINUOUS
 62
    4
 10
1073.7803726242983
 20
274.38019193516982
 11
1076.980372624299
 21
274.38019193516982
  0
LINE
  8
_1-3_細線2
  6
CONTINUOUS
 62
    4
 10
1032.4470392909659
 20
274.38019193516982
 11
1035.6470392909666
 21
274.38019193516982
  0
LINE
  8
_1-3_細線2
  6
CONTINUOUS
 62
    4
 10
949.7803726243003
 20
274.38019193516982
 11
952.98037262430103
 21
274.38019193516982
  0
LINE
  8
_1-3_細線2
  6
CONTINUOUS
 62
    4
 10
991.1137059576331
 20
274.38019193516982
 11
994.31370595763383
 21
274.38019193516982
  0
LINE
  8
_1-3_細線2
  6
CONTINUOUS
 62
    4
 10
1138.5803726242984
 20
287.18019231064488
 11
1138.5803726242984
 21
274.38019193516982
  0
LINE
  8
_1-3_細線2
  6
CONTINUOUS
 62
    4
 10
1221.2470392909638
 20
287.18019231064488
 11
1221.2470392909638
 21
274.38019193516982
  0
LINE
  8
_1-3_細線2
  6
CONTINUOUS
 62
    4
 10
1262.5803726242975
 20
287.18019231064488
 11
1262.5803726242975
 21
274.38019193516982
  0
LINE
  8
_1-3_細線2
  6
CONTINUOUS
 62
    4
 10
1179.9137059576306
 20
287.18019231064488
 11
1179.9137059576306
 21
274.38019193516982
  0
LINE
  8
_1-3_細線2
  6
CONTINUOUS
 62
    4
 10
1076.9803726242988
 20
287.18019231064488
 11
1076.980372624299
 21
274.38019193516982
  0
LINE
  8
_1-3_細線2
  6
CONTINUOUS
 62
    4
 10
1035.6470392909659
 20
287.18019231064488
 11
1035.6470392909666
 21
274.38019193516982
  0
LINE
  8
_1-3_細線2
  6
CONTINUOUS
 62
    4
 10
952.98037262430103
 20
287.18019231064488
 11
952.98037262430103
 21
274.38019193516982
  0
LINE
  8
_1-3_細線2
  6
CONTINUOUS
 62
    4
 10
994.31370595763315
 20
287.18019231064488
 11
994.31370595763383
 21
274.38019193516982
  0
LINE
  8
_1-3_細線2
  6
CONTINUOUS
 62
    4
 10
1265.7803726242983
 20
287.18019231064488
 11
1265.7803726242983
 21
274.38019193516982
  0
LINE
  8
_1-3_細線2
  6
CONTINUOUS
 62
    4
 10
1224.4470392909645
 20
287.18019231064488
 11
1224.4470392909645
 21
274.38019193516982
  0
LINE
  8
_1-3_細線2
  6
CONTINUOUS
 62
    4
 10
1183.1137059576313
 20
287.18019231064488
 11
1183.1137059576313
 21
274.38019193516982
  0
LINE
  8
_1-3_細線2
  6
CONTINUOUS
 62
    4
 10
1141.7803726242992
 20
287.18019231064488
 11
1141.7803726242992
 21
274.38019193516982
  0
LINE
  8
_1-3_細線2
  6
CONTINUOUS
 62
    4
 10
1073.7803726242983
 20
287.18019231064488
 11
1073.7803726242983
 21
274.38019193516982
  0
LINE
  8
_1-3_細線2
  6
CONTINUOUS
 62
    4
 10
1032.4470392909659
 20
287.18019231064488
 11
1032.4470392909659
 21
274.38019193516982
  0
LINE
  8
_1-3_細線2
  6
CONTINUOUS
 62
    4
 10
991.1137059576331
 20
287.18019231064488
 11
991.1137059576331
 21
274.38019193516982
  0
LINE
  8
_1-3_細線2
  6
CONTINUOUS
 62
    4
 10
949.7803726243003
 20
287.18019231064488
 11
949.7803726243003
 21
274.38019193516982
  0
ARC
  8
_1-3_細線2
  6
CONTINUOUS
 62
    4
 10
960.45571129096697
 20
248.24685860183752
 40
0.5333333333333335
 50
179.99999999999983
 51
269.99999999999977
  0
LINE
  8
_1-3_細線2
  6
CONTINUOUS
 62
    4
 10
962.58037262430094
 20
247.71352526850376
 11
960.45571129096697
 21
247.71352526850376
  0
ARC
  8
_1-3_細線2
  6
CONTINUOUS
 62
    4
 10
960.45571129096697
 20
273.84685860183697
 40
0.5333333333333335
 50
89.999999999999915
 51
179.99999999999983
  0
LINE
  8
_1-3_細線2
  6
CONTINUOUS
 62
    4
 10
962.58037262430094
 20
274.38019193517073
 11
960.45571129096697
 21
274.38019193517073
  0
LINE
  8
_1-3_細線2
  6
CONTINUOUS
 62
    4
 10
959.92237795763253
 20
259.71352526850376
 11
959.92237795763253
 21
248.24685860183752
  0
LINE
  8
_1-3_細線2
  6
CONTINUOUS
 62
    4
 10
959.92237795763253
 20
273.84685860183697
 11
959.92237795763253
 21
259.71352526850376
  0
ARC
  8
_1-3_細線2
  6
CONTINUOUS
 62
    4
 10
963.91370595763419
 20
285.04685860183679
 40
1.333333333333333
 50
89.999999999999915
 51
179.99999999999983
  0
LINE
  8
_1-3_細線2
  6
CONTINUOUS
 62
    4
 10
971.91370595763419
 20
286.38019193516982
 11
963.91370595763419
 21
286.38019193516982
  0
ARC
  8
_1-3_細線2
  6
CONTINUOUS
 62
    4
 10
971.91370595763419
 20
285.04685860183679
 40
1.333333333333333
 50
0
 51
89.999999999999915
  0
LINE
  8
_1-3_細線2
  6
CONTINUOUS
 62
    4
 10
962.58037262430094
 20
285.04685860183679
 11
962.58037262430094
 21
243.7135252685033
  0
ARC
  8
_1-3_細線2
  6
CONTINUOUS
 62
    4
 10
963.91370595763419
 20
243.7135252685033
 40
1.333333333333333
 50
179.99999999999983
 51
269.99999999999977
  0
LINE
  8
_1-3_細線2
  6
CONTINUOUS
 62
    4
 10
963.91370595763419
 20
242.38019193516982
 11
971.91370595763419
 21
242.38019193516982
  0
LINE
  8
_1-3_細線2
  6
CONTINUOUS
 62
    4
 10
973.24703929096745
 20
243.7135252685033
 11
973.24703929096745
 21
285.04685860183679
  0
ARC
  8
_1-3_細線2
  6
CONTINUOUS
 62
    4
 10
971.91370595763419
 20
243.7135252685033
 40
1.333333333333333
 50
269.99999999999977
 51
359.99999999999966
  0
LINE
  8
_1-3_細線2
  6
CONTINUOUS
 62
    4
 10
976.44703929096727
 20
251.84685860183652
 11
1014.5803726243003
 21
251.84685860183652
  0
LINE
  8
_1-3_細線2
  6
CONTINUOUS
 62
    4
 10
976.44703929096727
 20
270.24685860183661
 11
1014.5803726243003
 21
270.24685860183661
  0
LINE
  8
_1-3_細線2
  6
CONTINUOUS
 62
    4
 10
1017.7803726243012
 20
251.84685860183652
 11
1055.9137059576342
 21
251.84685860183652
  0
LINE
  8
_1-3_細線2
  6
CONTINUOUS
 62
    4
 10
1017.7803726243012
 20
270.24685860183661
 11
1055.9137059576342
 21
270.24685860183661
  0
LINE
  8
_1-3_細線2
  6
CONTINUOUS
 62
    4
 10
1059.113705957634
 20
251.84685860183652
 11
1097.2470392909668
 21
251.84685860183652
  0
LINE
  8
_1-3_細線2
  6
CONTINUOUS
 62
    4
 10
1059.113705957634
 20
270.24685860183661
 11
1097.2470392909668
 21
270.24685860183661
  0
LINE
  8
_1-3_細線2
  6
CONTINUOUS
 62
    4
 10
1100.4470392909666
 20
270.24685860183661
 11
1115.1137059576324
 21
270.24685860183661
  0
LINE
  8
_1-3_細線2
  6
CONTINUOUS
 62
    4
 10
1100.4470392909666
 20
251.84685860183652
 11
1115.1137059576324
 21
251.84685860183652
  0
ARC
  8
_1-3_細線2
  6
CONTINUOUS
 62
    4
 10
1255.1050342297644
 20
248.24685860183752
 40
0.5333333333333335
 50
269.99999999999977
 51
359.99999999999966
  0
LINE
  8
_1-3_細線2
  6
CONTINUOUS
 62
    4
 10
1252.9803728964307
 20
247.71352526850376
 11
1255.1050342297644
 21
247.71352526850376
  0
ARC
  8
_1-3_細線2
  6
CONTINUOUS
 62
    4
 10
1255.1050342297644
 20
273.84685860183697
 40
0.5333333333333335
 50
0
 51
89.999999999999915
  0
LINE
  8
_1-3_細線2
  6
CONTINUOUS
 62
    4
 10
1252.9803728964307
 20
274.38019193517073
 11
1255.1050342297644
 21
274.38019193517073
  0
LINE
  8
_1-3_細線2
  6
CONTINUOUS
 62
    4
 10
1255.6383675630987
 20
259.71352526850376
 11
1255.6383675630987
 21
248.24685860183752
  0
LINE
  8
_1-3_細線2
  6
CONTINUOUS
 62
    4
 10
1255.6383675630987
 20
273.84685860183697
 11
1255.6383675630987
 21
259.71352526850376
  0
ARC
  8
_1-3_細線2
  6
CONTINUOUS
 62
    4
 10
1251.6470395630972
 20
285.04685860183679
 40
1.333333333333333
 50
0
 51
89.999999999999915
  0
LINE
  8
_1-3_細線2
  6
CONTINUOUS
 62
    4
 10
1243.6470395630972
 20
286.38019193516982
 11
1251.6470395630972
 21
286.38019193516982
  0
ARC
  8
_1-3_細線2
  6
CONTINUOUS
 62
    4
 10
1243.6470395630972
 20
285.04685860183679
 40
1.333333333333333
 50
89.999999999999915
 51
179.99999999999983
  0
LINE
  8
_1-3_細線2
  6
CONTINUOUS
 62
    4
 10
1252.9803728964307
 20
285.04685860183679
 11
1252.9803728964307
 21
243.7135252685033
  0
ARC
  8
_1-3_細線2
  6
CONTINUOUS
 62
    4
 10
1251.6470395630972
 20
243.7135252685033
 40
1.333333333333333
 50
269.99999999999977
 51
359.99999999999966
  0
LINE
  8
_1-3_細線2
  6
CONTINUOUS
 62
    4
 10
1251.6470395630972
 20
242.38019193516982
 11
1243.6470395630972
 21
242.38019193516982
  0
LINE
  8
_1-3_細線2
  6
CONTINUOUS
 62
    4
 10
1242.313706229764
 20
243.7135252685033
 11
1242.313706229764
 21
285.04685860183679
  0
ARC
  8
_1-3_細線2
  6
CONTINUOUS
 62
    4
 10
1243.6470395630972
 20
243.7135252685033
 40
1.333333333333333
 50
179.99999999999983
 51
269.99999999999977
  0
LINE
  8
_1-3_細線2
  6
CONTINUOUS
 62
    4
 10
1239.1137062297639
 20
251.84685860183652
 11
1200.9803728964312
 21
251.84685860183652
  0
LINE
  8
_1-3_細線2
  6
CONTINUOUS
 62
    4
 10
1239.1137062297639
 20
270.24685860183661
 11
1200.9803728964312
 21
270.24685860183661
  0
LINE
  8
_1-3_細線2
  6
CONTINUOUS
 62
    4
 10
1197.78037289643
 20
251.84685860183652
 11
1159.6470395630972
 21
251.84685860183652
  0
LINE
  8
_1-3_細線2
  6
CONTINUOUS
 62
    4
 10
1197.78037289643
 20
270.24685860183661
 11
1159.6470395630972
 21
270.24685860183661
  0
LINE
  8
_1-3_細線2
  6
CONTINUOUS
 62
    4
 10
1156.4470395630972
 20
251.84685860183652
 11
1118.3137062297646
 21
251.84685860183652
  0
LINE
  8
_1-3_細線2
  6
CONTINUOUS
 62
    4
 10
1156.4470395630972
 20
270.24685860183661
 11
1118.3137062297646
 21
270.24685860183661
  0
LINE
  8
_1-2_極細2
  6
CENTER1
 62
    2
 10
948.58061960488567
 20
261.04685860183679
 11
1268.0297121826768
 21
261.04685860183679
  0
LINE
  8
_1-2_極細2
  6
CONTINUOUS
 62
    2
 10
959.92237795763253
 20
261.04685860183679
 11
951.91033529096558
 21
261.04685860183679
  0
LINE
  8
_1-3_細線2
  6
CONTINUOUS
 62
    4
 10
959.92237795763253
 20
251.71352526850467
 11
951.91030329096725
 21
251.71352526850467
  0
ARC
  8
_1-3_細線2
  6
CONTINUOUS
 62
    4
 10
951.91030329096725
 20
252.24685860183752
 40
0.5333333333333335
 50
179.99999999999983
 51
269.99999999999977
  0
ARC
  8
_1-2_極細2
  6
CONTINUOUS
 62
    2
 10
972.06491662429949
 20
256.37980260183838
 40
20.687882666666667
 50
166.96197800000505
 51
193.03566999999961
  0
ARC
  8
_1-3_細線2
  6
CONTINUOUS
 62
    4
 10
951.91030329096725
 20
269.84685860183788
 40
0.5333333333333335
 50
89.999999999999915
 51
179.99999999999983
  0
ARC
  8
_1-2_極細2
  6
CONTINUOUS
 62
    2
 10
972.06491662429949
 20
265.7139092685037
 40
20.687882666666667
 50
166.96433000000002
 51
193.0380219999995
  0
LINE
  8
_1-3_細線2
  6
CONTINUOUS
 62
    4
 10
959.92237795763253
 20
270.38019193517073
 11
951.91030329096725
 21
270.38019193517073
  0
LINE
  8
_1-3_細線2
  6
CONTINUOUS
 62
    4
 10
951.37696995763281
 20
252.24685860183752
 11
951.37696995763281
 21
269.84685860183788
  0
LINE
  8
_1-2_極細2
  6
CONTINUOUS
 62
    2
 10
1255.6383675630987
 20
261.04685860183679
 11
1263.6504102297658
 21
261.04685860183679
  0
LINE
  8
_1-3_細線2
  6
CONTINUOUS
 62
    4
 10
1255.6383675630987
 20
251.71352526850467
 11
1263.6504422297639
 21
251.71352526850467
  0
ARC
  8
_1-3_細線2
  6
CONTINUOUS
 62
    4
 10
1263.6504422297639
 20
252.24685860183752
 40
0.5333333333333335
 50
269.99999999999977
 51
359.99999999999966
  0
ARC
  8
_1-2_極細2
  6
CONTINUOUS
 62
    2
 10
1243.4958288964317
 20
256.37980260183838
 40
20.687882666666667
 50
346.96432999999968
 51
13.038021999994573
  0
ARC
  8
_1-3_細線2
  6
CONTINUOUS
 62
    4
 10
1263.6504422297639
 20
269.84685860183788
 40
0.5333333333333335
 50
0
 51
89.999999999999915
  0
ARC
  8
_1-2_極細2
  6
CONTINUOUS
 62
    2
 10
1243.4958288964317
 20
265.7139092685037
 40
20.687882666666667
 50
346.96197799999976
 51
13.035669999999625
  0
LINE
  8
_1-3_細線2
  6
CONTINUOUS
 62
    4
 10
1255.6383675630987
 20
270.38019193517073
 11
1263.6504422297639
 21
270.38019193517073
  0
LINE
  8
_1-3_細線2
  6
CONTINUOUS
 62
    4
 10
1264.1837755630984
 20
252.24685860183752
 11
1264.1837755630984
 21
269.84685860183788
  0
LINE
  8
_1-2_極細2
  6
CENTER1
 62
    2
 10
1107.7803726242983
 20
317.1750161818926
 11
1107.7803726242983
 21
222.78186715924164
  0
LINE
  8
_1-5_寸法2
  6
CONTINUOUS
 62
    7
 10
915.78037262429825
 20
309.04685860183679
 11
915.78037262429825
 21
493.04685860183679
  0
LINE
  8
_1-5_寸法2
  6
CONTINUOUS
 62
    7
 10
915.78037262429825
 20
485.04685860183679
 11
931.23518584492331
 21
489.18796332347711
  0
LINE
  8
_1-5_寸法2
  6
CONTINUOUS
 62
    7
 10
915.78037262429825
 20
485.04685860183679
 11
931.23518584492331
 21
480.90575388019647
  0
LINE
  8
_1-5_寸法2
  6
CONTINUOUS
 62
    7
 10
1299.7803726242983
 20
309.04685860183679
 11
1299.7803726242983
 21
493.04685860183679
  0
LINE
  8
_1-5_寸法2
  6
CONTINUOUS
 62
    7
 10
1299.7803726242983
 20
485.04685860183679
 11
1284.3255594036732
 21
480.90575388019653
  0
LINE
  8
_1-5_寸法2
  6
CONTINUOUS
 62
    7
 10
1299.7803726242983
 20
485.04685860183679
 11
1284.3255594036732
 21
489.18796332347716
  0
LINE
  8
_1-5_寸法2
  6
CONTINUOUS
 62
    7
 10
915.78037262429825
 20
485.04685860183679
 11
1299.7803726242983
 21
485.04685860183679
  0
TEXT
  8
_1-5_寸法2
 62
    7
 10
1089.7803726242983
 20
485.04685860183679
 40
24
 41
1
 50
0
  1
144
  0
LINE
  8
_1-5_寸法2
  6
CONTINUOUS
 62
    7
 10
1270.4470392909652
 20
309.04685860183679
 11
1270.4470392909657
 21
437.04685860183679
  0
LINE
  8
_1-5_寸法2
  6
CONTINUOUS
 62
    7
 10
1270.4470392909657
 20
429.04685860183679
 11
1285.9018525115907
 21
433.18796332347711
  0
LINE
  8
_1-5_寸法2
  6
CONTINUOUS
 62
    7
 10
1270.4470392909657
 20
429.04685860183679
 11
1285.9018525115907
 21
424.90575388019647
  0
LINE
  8
_1-5_寸法2
  6
CONTINUOUS
 62
    7
 10
1299.7803726242983
 20
309.04685860183679
 11
1299.7803726242989
 21
437.04685860183679
  0
LINE
  8
_1-5_寸法2
  6
CONTINUOUS
 62
    7
 10
1299.7803726242989
 20
429.04685860183679
 11
1284.3255594036739
 21
424.90575388019653
  0
LINE
  8
_1-5_寸法2
  6
CONTINUOUS
 62
    7
 10
1299.7803726242989
 20
429.04685860183679
 11
1284.3255594036739
 21
433.18796332347716
  0
LINE
  8
_1-5_寸法2
  6
CONTINUOUS
 62
    7
 10
1270.4470392909657
 20
429.04685860183679
 11
1299.7803726242989
 21
429.04685860183679
  0
TEXT
  8
_1-5_寸法2
 62
    7
 10
1273.1137059576324
 20
429.04685860183679
 40
24
 41
1
 50
0
  1
11
  0
LINE
  8
_1-5_寸法2
  6
CONTINUOUS
 62
    7
 10
949.7803726243003
 20
309.04685860183679
 11
949.78037262430053
 21
437.04685860183679
  0
LINE
  8
_1-5_寸法2
  6
CONTINUOUS
 62
    7
 10
949.78037262430053
 20
429.04685860183679
 11
965.23518584492558
 21
433.18796332347711
  0
LINE
  8
_1-5_寸法2
  6
CONTINUOUS
 62
    7
 10
949.78037262430053
 20
429.04685860183679
 11
965.23518584492558
 21
424.90575388019647
  0
LINE
  8
_1-5_寸法2
  6
CONTINUOUS
 62
    7
 10
1265.7803726242983
 20
309.04685860183679
 11
1265.7803726242992
 21
437.04685860183679
  0
LINE
  8
_1-5_寸法2
  6
CONTINUOUS
 62
    7
 10
1265.7803726242992
 20
429.04685860183679
 11
1250.3255594036741
 21
424.90575388019653
  0
LINE
  8
_1-5_寸法2
  6
CONTINUOUS
 62
    7
 10
1265.7803726242992
 20
429.04685860183679
 11
1250.3255594036741
 21
433.18796332347716
  0
LINE
  8
_1-5_寸法2
  6
CONTINUOUS
 62
    7
 10
949.78037262430053
 20
429.04685860183679
 11
1265.7803726242992
 21
429.04685860183679
  0
TEXT
  8
_1-5_寸法2
 62
    7
 10
1077.7803726242996
 20
429.04685860183679
 40
24
 41
1
 50
0
  1
118.5
  0
LINE
  8
_1-5_寸法2
  6
CONTINUOUS
 62
    7
 10
915.78037262429837
 20
309.04685860183679
 11
915.78037262429893
 21
437.04685860183679
  0
LINE
  8
_1-5_寸法2
  6
CONTINUOUS
 62
    7
 10
915.78037262429893
 20
429.04685860183679
 11
931.23518584492399
 21
433.18796332347711
  0
LINE
  8
_1-5_寸法2
  6
CONTINUOUS
 62
    7
 10
915.78037262429893
 20
429.04685860183679
 11
931.23518584492399
 21
424.90575388019647
  0
LINE
  8
_1-5_寸法2
  6
CONTINUOUS
 62
    7
 10
945.11370595763151
 20
309.04685860183679
 11
945.11370595763174
 21
437.04685860183679
  0
LINE
  8
_1-5_寸法2
  6
CONTINUOUS
 62
    7
 10
945.11370595763174
 20
429.04685860183679
 11
929.65889273700668
 21
424.90575388019653
  0
LINE
  8
_1-5_寸法2
  6
CONTINUOUS
 62
    7
 10
945.11370595763174
 20
429.04685860183679
 11
929.65889273700668
 21
433.18796332347716
  0
LINE
  8
_1-5_寸法2
  6
CONTINUOUS
 62
    7
 10
915.78037262429893
 20
429.04685860183679
 11
945.11370595763174
 21
429.04685860183679
  0
TEXT
  8
_1-5_寸法2
 62
    7
 10
918.44703929096568
 20
429.04685860183679
 40
24
 41
1
 50
0
  1
11
  0
LINE
  8
_1-5_寸法2
  6
CONTINUOUS
 62
    7
 10
1059.1137059576331
 20
309.04685860183679
 11
1059.1137059576333
 21
381.04685860183679
  0
LINE
  8
_1-5_寸法2
  6
CONTINUOUS
 62
    7
 10
1059.1137059576333
 20
373.04685860183679
 11
1043.6588927370083
 21
368.90575388019653
  0
LINE
  8
_1-5_寸法2
  6
CONTINUOUS
 62
    7
 10
1059.1137059576333
 20
373.04685860183679
 11
1043.6588927370083
 21
377.18796332347716
  0
LINE
  8
_1-5_寸法2
  6
CONTINUOUS
 62
    7
 10
1073.7803726242985
 20
309.04685860183679
 11
1073.7803726242989
 21
381.04685860183679
  0
LINE
  8
_1-5_寸法2
  6
CONTINUOUS
 62
    7
 10
1005.196295567299
 20
373.04685860183679
 11
1073.7803726242989
 21
373.04685860183679
  0
TEXT
  8
_1-5_寸法2
 62
    7
 10
1005.1962955672989
 20
373.04685860183679
 40
24
 41
1
 50
0
  1
5.5
  0
LINE
  8
_1-5_寸法2
  6
CONTINUOUS
 62
    7
 10
1073.7803726242989
 20
373.04685860183679
 11
1089.235185844924
 21
377.18796332347699
  0
LINE
  8
_1-5_寸法2
  6
CONTINUOUS
 62
    7
 10
1073.7803726242989
 20
373.04685860183679
 11
1089.235185844924
 21
368.90575388019636
  0
LINE
  8
_1-5_寸法2
  6
CONTINUOUS
 62
    7
 10
1100.4470392909659
 20
309.04685860183679
 11
1100.4470392909659
 21
381.04685860183679
  0
LINE
  8
_1-5_寸法2
  6
CONTINUOUS
 62
    7
 10
1100.4470392909659
 20
373.04685860183679
 11
1084.9922260703408
 21
368.90575388019653
  0
LINE
  8
_1-5_寸法2
  6
CONTINUOUS
 62
    7
 10
1100.4470392909659
 20
373.04685860183679
 11
1084.9922260703408
 21
377.18796332347716
  0
LINE
  8
_1-5_寸法2
  6
CONTINUOUS
 62
    7
 10
1073.7803726242989
 20
373.04685860183679
 11
1100.4470392909659
 21
373.04685860183679
  0
TEXT
  8
_1-5_寸法2
 62
    7
 10
1075.1137059576329
 20
373.04685860183679
 40
24
 41
1
 50
0
  1
10
  0
LINE
  8
_1-5_寸法2
  6
CONTINUOUS
 62
    7
 10
899.78037262429825
 20
293.0468586018369
 11
827.78037262429825
 21
293.04685860183736
  0
LINE
  8
_1-5_寸法2
  6
CONTINUOUS
 62
    7
 10
835.78037262429825
 20
293.04685860183724
 11
839.92147734593857
 21
277.59204538121207
  0
LINE
  8
_1-5_寸法2
  6
CONTINUOUS
 62
    7
 10
835.78037262429825
 20
293.04685860183724
 11
831.63926790265793
 21
277.59204538121207
  0
LINE
  8
_1-5_寸法2
  6
CONTINUOUS
 62
    7
 10
926.44703929096477
 20
239.71352526850342
 11
827.78037262429825
 21
239.71352526850376
  0
LINE
  8
_1-5_寸法2
  6
CONTINUOUS
 62
    7
 10
835.78037262429825
 20
239.71352526850376
 11
831.63926790265793
 21
255.16833848912893
  0
LINE
  8
_1-5_寸法2
  6
CONTINUOUS
 62
    7
 10
835.78037262429825
 20
239.71352526850376
 11
839.92147734593857
 21
255.16833848912881
  0
LINE
  8
_1-5_寸法2
  6
CONTINUOUS
 62
    7
 10
835.78037262429825
 20
293.04685860183724
 11
835.78037262429825
 21
239.71352526850376
  0
TEXT
  8
_1-5_寸法2
 62
    7
 10
835.78037262429825
 20
254.38019193517027
 40
24
 41
1
 50
90
  1
20
  0
LINE
  8
_1-5_寸法2
  6
CONTINUOUS
 62
    7
 10
1315.7803726242976
 20
271.71352526850319
 11
1387.780372624298
 21
271.71352526850228
  0
LINE
  8
_1-5_寸法2
  6
CONTINUOUS
 62
    7
 10
1379.780372624298
 20
271.71352526850239
 11
1375.6392679026578
 21
287.16833848912756
  0
LINE
  8
_1-5_寸法2
  6
CONTINUOUS
 62
    7
 10
1379.780372624298
 20
271.71352526850239
 11
1383.9214773459385
 21
287.16833848912756
  0
LINE
  8
_1-5_寸法2
  6
CONTINUOUS
 62
    7
 10
1315.7803726242976
 20
293.04685860183668
 11
1387.780372624298
 21
293.04685860183577
  0
LINE
  8
_1-5_寸法2
  6
CONTINUOUS
 62
    7
 10
1379.780372624298
 20
293.04685860183588
 11
1383.9214773459385
 21
277.59204538121071
  0
LINE
  8
_1-5_寸法2
  6
CONTINUOUS
 62
    7
 10
1379.780372624298
 20
293.04685860183588
 11
1375.6392679026578
 21
277.59204538121071
  0
LINE
  8
_1-5_寸法2
  6
CONTINUOUS
 62
    7
 10
1379.780372624298
 20
271.71352526850239
 11
1379.780372624298
 21
293.04685860183588
  0
TEXT
  8
_1-5_寸法2
 62
    7
 10
1379.780372624298
 20
276.38019193516936
 40
24
 41
1
 50
90
  1
8
  0
TEXT
  8
_0-7_枠細線
 62
    5
 10
1027.7803726242985
 20
172.73988302722398
 40
40
 41
0.8
 50
0
  1
断面詳細図
  0
TEXT
  8
_0-7_枠細線
 62
    5
 10
1211.6987242229682
 20
175.89661883556516
 40
32
 41
0.6
 50
0
  1
Ｓ＝１：３
  0
LINE
  8
_0-5_寸法線
  6
CONTINUOUS
 62
    7
 10
1278.2512335199729
 20
776.94785872527177
 11
1278.2512335199729
 21
760.94785872527177
  0
LINE
  8
_0-5_寸法線
  6
CONTINUOUS
 62
    7
 10
1278.2512335199729
 20
776.94785872527177
 11
1270.2512335199729
 21
763.09145226472083
  0
LINE
  8
_0-5_寸法線
  6
CONTINUOUS
 62
    7
 10
1278.2512335199729
 20
776.94785872527177
 11
1237.5972675131422
 21
625.22519205860522
  0
LINE
  8
_0-5_寸法線
  6
CONTINUOUS
 62
    7
 10
1237.5972675131422
 20
625.22519205860522
 11
1026.3972675131424
 21
625.2251920586059
  0
TEXT
  8
_0-5_寸法線
 62
    7
 10
1026.3972675131424
 20
625.22519205860522
 40
24
 41
0.7999999999999998
 50
0
  1
縦引き排水トラップ一式
  0
LINE
  8
_0-5_寸法線
  6
CONTINUOUS
 62
    7
 10
1400.0037602689461
 20
822.53425831448101
 11
1482.0037602689461
 21
822.5342583144801
  0
LINE
  8
_0-5_寸法線
  6
CONTINUOUS
 62
    7
 10
1474.0037602689461
 20
822.53425831448021
 11
1469.8626555473058
 21
837.98907153510527
  0
LINE
  8
_0-5_寸法線
  6
CONTINUOUS
 62
    7
 10
1474.0037602689461
 20
822.53425831448021
 11
1478.1448649905865
 21
837.98907153510527
  0
LINE
  8
_0-5_寸法線
  6
CONTINUOUS
 62
    7
 10
1410.0037602689461
 20
842.53425831448101
 11
1482.0037602689461
 21
842.53425831448021
  0
LINE
  8
_0-5_寸法線
  6
CONTINUOUS
 62
    7
 10
1474.0037602689461
 20
842.53425831448033
 11
1478.1448649905865
 21
827.07944509385527
  0
LINE
  8
_0-5_寸法線
  6
CONTINUOUS
 62
    7
 10
1474.0037602689461
 20
842.53425831448033
 11
1469.8626555473058
 21
827.07944509385527
  0
LINE
  8
_0-5_寸法線
  6
CONTINUOUS
 62
    7
 10
1474.0037602689461
 20
822.53425831448021
 11
1474.0037602689461
 21
842.53425831448033
  0
TEXT
  8
_0-5_寸法線
 62
    7
 10
1474.0037602689461
 20
820.53425831448021
 40
24
 41
1
 50
90
  1
20
  0
ENDSEC
  0
EOF
