  0
SECTION
  2
HEADER
  9
$ACADVER
  1
AC1009
  9
$INSBASE
 10
0
 20
0
 30
0
  9
$EXTMIN
 10
0
 20
0
  9
$EXTMAX
 10
1485
 20
1050
  9
$LIMMIN
 10
0
 20
0
  9
$LIMMAX
 10
1485
 20
1050
  9
$LTSCALE
 40
5
  0
ENDSEC
  0
SECTION
  2
TABLES
  0
TABLE
  2
LTYPE
 70
     9
  0
LTYPE
  2
CONTINUOUS
 70
    64
  3
実線
 72
    65
 73
     0
 40
0.0
  0
LTYPE
  2
DASHED1
 70
    64
  3
--  --  --  --  --  --  --  --  
 72
    65
 73
     2
 40
2.5
 49
1.25
 49
-1.25
  0
LTYPE
  2
DASHED2
 70
    64
  3
----    ----    ----    ----    
 72
    65
 73
     2
 40
5.0
 49
2.5
 49
-2.5
  0
LTYPE
  2
DASHED3
 70
    64
  3
------  ------  ------  ------  
 72
    65
 73
     2
 40
5.0
 49
3.75
 49
-1.25
  0
LTYPE
  2
CENTER1
 70
    64
  3
----- - ----- - ----- - ----- - 
 72
    65
 73
     4
 40
10.0
 49
6.25
 49
-1.25
 49
1.25
 49
-1.25
  0
LTYPE
  2
CENTER2
 70
    64
  3
----------  --  ----------  --  
 72
    65
 73
     4
 40
20.0
 49
12.5
 49
-2.5
 49
2.5
 49
-2.5
  0
LTYPE
  2
PHANTOM1
 70
    64
  3
--- - - --- - - --- - - --- - - 
 72
    65
 73
     6
 40
10.0
 49
3.25
 49
-1.25
 49
1.25
 49
-1.25
 49
1.25
 49
-1.25
  0
LTYPE
  2
PHANTOM2
 70
    64
  3
--------  -  -  --------  -  -  
 72
    65
 73
     6
 40
20.0
 49
10.0
 49
-2.5
 49
1.25
 49
-2.5
 49
1.25
 49
-2.5
  0
LTYPE
  2
DOT
 70
    64
  3
-   -   -   -   -   -   -   -   
 72
    65
 73
     2
 40
2.5
 49
0.625
 49
-1.875
  0
LTYPE
  2
DUMMY
 70
    64
  3
ダミー
 72
    65
 73
     0
 40
0.0
  0
LTYPE
  2
RAND1
 70
    64
  3
ランダム線1
 72
    65
 73
     4
 40
10.0
 49
1.0
 49
-2.0
 49
3.0
 49
-4.0
  0
LTYPE
  2
RAND2
 70
    64
  3
ランダム線2
 72
    65
 73
     4
 40
14.0
 49
2.0
 49
-3.0
 49
4.0
 49
-5.0
  0
LTYPE
  2
RAND3
 70
    64
  3
ランダム線3
 72
    65
 73
     4
 40
18.0
 49
3.0
 49
-4.0
 49
5.0
 49
-6.0
  0
LTYPE
  2
RAND4
 70
    64
  3
ランダム線4
 72
    65
 73
     4
 40
22.0
 49
4.0
 49
-5.0
 49
6.0
 49
-7.0
  0
LTYPE
  2
RAND5
 70
    64
  3
ランダム線5
 72
    65
 73
     4
 40
26.0
 49
5.0
 49
-6.0
 49
7.0
 49
-8.0
  0
LTYPE
  2
LONG1
 70
    64
  3
----------  --  ----------  --  
 72
    65
 73
     4
 40
40.0
 49
32.5
 49
-2.5
 49
2.5
 49
-2.5
  0
LTYPE
  2
LONG2
 70
    64
  3
--------  -  -  --------  -  -  
 72
    65
 73
     6
 40
40.0
 49
30.0
 49
-2.5
 49
1.25
 49
-2.5
 49
1.25
 49
-2.5
  0
LTYPE
  2
LONG3
 70
    64
  3
+++++++++++++++..+++++++++++++++
 72
    65
 73
     2
 40
40.0
 49
37.5
 49
-2.5
  0
LTYPE
  2
LONG4
 70
    64
  3
+++++++++++++++..+++++++++++++++
 72
    65
 73
     2
 40
80.0
 49
75.0
 49
-5.0
  0
LTYPE
  2
LONG5
 70
    64
  3
----------  --  ----------  --  
 72
    65
 73
     4
 40
60.0
 49
37.5
 49
-7.5
 49
7.5
 49
-7.5
  0
LTYPE
  2
dashed
 70
   64
  3
-------   -------------   ------
 72
   65
 73
    2
 40
7.5
 49
6
 49
-1.5
  0
LTYPE
  2
dashed_spaced
 70
   64
  3
----        --------        ----
 72
   65
 73
    2
 40
12
 49
6
 49
-6
  0
LTYPE
  2
long_dashed_dotted
 70
   64
  3
------------- --- --------------
 72
   65
 73
    4
 40
15.25
 49
12
 49
-1.5
 49
0.25
 49
-1.5
  0
LTYPE
  2
long_dashed_double-dotted
 70
   64
  3
----------- --- --- ------------
 72
   65
 73
    6
 40
17
 49
12
 49
-1.5
 49
0.25
 49
-1.5
 49
0.25
 49
-1.5
  0
LTYPE
  2
long_dashed_triplicate-dotted
 70
   64
  3
--------- --- --- --- ----------
 72
   65
 73
    8
 40
18.75
 49
12
 49
-1.5
 49
0.25
 49
-1.5
 49
0.25
 49
-1.5
 49
0.25
 49
-1.5
  0
LTYPE
  2
dotted
 70
   64
  3
   -       -       -       -    
 72
   65
 73
    2
 40
1.75
 49
0.25
 49
-1.5
  0
LTYPE
  2
chain
 70
   64
  3
-------------- -- --------------
 72
   65
 73
    4
 40
18.5
 49
12
 49
-1.5
 49
3.5
 49
-1.5
  0
LTYPE
  2
chain_double_dash
 70
   64
  3
------------ -- -- -------------
 72
   65
 73
    6
 40
23.5
 49
12
 49
-1.5
 49
3.5
 49
-1.5
 49
3.5
 49
-1.5
  0
LTYPE
  2
dashed_dotted
 70
   64
  3
-----------     -     ----------
 72
   65
 73
    4
 40
9.25
 49
6
 49
-1.5
 49
0.25
 49
-1.5
  0
LTYPE
  2
double-dashed_dotted
 70
   64
  3
------   -----------   -   -----
 72
   65
 73
    6
 40
16.75
 49
6
 49
-1.5
 49
6
 49
-1.5
 49
0.25
 49
-1.5
  0
LTYPE
  2
dashed_double-dotted
 70
   64
  3
---------    -    -    ---------
 72
   65
 73
    6
 40
11
 49
6
 49
-1.5
 49
0.25
 49
-1.5
 49
0.25
 49
-1.5
  0
LTYPE
  2
double-dashed_double-dotted
 70
   64
  3
-----   ---------   -   -   ----
 72
   65
 73
    8
 40
18.5
 49
6
 49
-1.5
 49
6
 49
-1.5
 49
0.25
 49
-1.5
 49
0.25
 49
-1.5
  0
LTYPE
  2
dashed_triplicate-dotted
 70
   64
  3
-------    -    -    -    ------
 72
   65
 73
    8
 40
12.75
 49
6
 49
-1.5
 49
0.25
 49
-1.5
 49
0.25
 49
-1.5
 49
0.25
 49
-1.5
  0
LTYPE
  2
double-dashed_triplicate-dotted
 70
   64
  3
-----  ---------  -  -  -  -----
 72
   65
 73
   10
 40
20.25
 49
6
 49
-1.5
 49
6
 49
-1.5
 49
0.25
 49
-1.5
 49
0.25
 49
-1.5
 49
0.25
 49
-1.5
  0
LTYPE
  2
undefined
 70
   64
  3
--------------------------------
 72
   65
 73
    0
 40
0
  0
ENDTAB
  0
TABLE
  2
STYLE
  5
3
100
AcDbSymbolTable
 70
     1
  0
STYLE
  5
10
100
AcDbSymbolTableRecord
100
AcDbTextStyleTableRecord
  2
STANDARD
 70
     0
 40
0.0
 41
1.0
 50
0.0
 71
     0
 42
0.2
  3
txt
  4
bigfont.shx
  0
STYLE
  5
26
100
AcDbSymbolTableRecord
100
AcDbTextStyleTableRecord
  2
TATEGAKI
 70
    68
 40
0.0
 41
1.0
 50
0.0
 71
     0
 42
1.0
  3
txt
  4
bigfont.shx
  0
ENDTAB
  0
TABLE
  2
LAYER
 70
   10
  0
LAYER
  2
_0-0_計極細
 70
   64
 62
    7
  6
CONTINUOUS
  0
LAYER
  2
_0-1_計細線
 70
   64
 62
    7
  6
CONTINUOUS
  0
LAYER
  2
_0-5_寸法線
 70
   64
 62
    7
  6
CONTINUOUS
  0
LAYER
  2
_0-7_枠細線
 70
   64
 62
    7
  6
CONTINUOUS
  0
LAYER
  2
_0-8_枠中線
 70
   64
 62
    7
  6
CONTINUOUS
  0
LAYER
  2
_0-9_枠極太
 70
   64
 62
    7
  6
CONTINUOUS
  0
LAYER
  2
_0-a_極細3
 70
   64
 62
    7
  6
CONTINUOUS
  0
LAYER
  2
_0-b_細線3
 70
   64
 62
    7
  6
CONTINUOUS
  0
LAYER
  2
_0-d_寸法3
 70
   64
 62
    7
  6
CONTINUOUS
  0
LAYER
  2
ADD_LINE
 70
   64
 62
    7
  6
CONTINUOUS
  0
ENDTAB
  0
ENDSEC
  0
SECTION
  2
BLOCKS
  0
ENDSEC
  0
SECTION
  2
ENTITIES
  0
LINE
  8
_0-7_枠細線
  6
CONTINUOUS
 62
    5
 10
1185
 20
180
 11
1185
 21
100
  0
TEXT
  8
_0-7_枠細線
 62
    5
 10
937.5
 20
97.5
 40
17.5
 41
1
 50
0
  1
備考
  7
TATEGAKI
  0
TEXT
  8
_0-7_枠細線
 62
    5
 10
937.5
 20
137.5
 40
17.5
 41
1
 50
0
  1
品番
  7
TATEGAKI
  0
TEXT
  8
_0-7_枠細線
 62
    5
 10
937.5
 20
177.5
 40
17.5
 41
1
 50
0
  1
品名
  7
TATEGAKI
  0
LINE
  8
_0-7_枠細線
  6
CONTINUOUS
 62
    5
 10
1185
 20
140
 11
925
 21
140
  0
LINE
  8
_0-7_枠細線
  6
CONTINUOUS
 62
    5
 10
950
 20
180
 11
950
 21
60
  0
LINE
  8
_0-8_枠中線
  6
CONTINUOUS
 62
    5
 10
1425
 20
180
 11
925
 21
180
  0
LINE
  8
_0-8_枠中線
  6
CONTINUOUS
 62
    5
 10
925
 20
180
 11
925
 21
60
  0
LINE
  8
_0-7_枠細線
  6
CONTINUOUS
 62
    5
 10
1245
 20
180
 11
1245
 21
60
  0
TEXT
  8
_0-7_枠細線
 62
    5
 10
1192.5
 20
160
 40
15
 41
1
 50
0
  1
縮　尺
  0
LINE
  8
_0-7_枠細線
  6
CONTINUOUS
 62
    5
 10
1185
 20
155
 11
1245
 21
155
  0
LINE
  8
_0-7_枠細線
  6
CONTINUOUS
 62
    5
 10
1245
 20
100
 11
925
 21
100
  0
LINE
  8
_0-7_枠細線
  6
CONTINUOUS
 62
    5
 10
1425
 20
90
 11
1245
 21
90
  0
LINE
  8
_0-7_枠細線
  6
CONTINUOUS
 62
    5
 10
1245
 20
120
 11
1425
 21
120
  0
LINE
  8
_0-7_枠細線
  6
CONTINUOUS
 62
    5
 10
1425
 20
140
 11
1245
 21
140
  0
TEXT
  8
_0-7_枠細線
 62
    5
 10
1255
 20
147.5
 40
25
 41
0.8
 50
0
  1
株式会社シマブン
  0
TEXT
  8
_0-7_枠細線
 62
    5
 10
1252.5
 20
60
 40
15
 41
1
 50
0
  1
年月日
  0
TEXT
  8
_0-7_枠細線
 62
    5
 10
1252.5
 20
75
 40
15
 41
1
 50
0
  1
作　成
  0
TEXT
  8
_0-7_枠細線
 62
    5
 10
1256.25
 20
122.5
 40
15
 41
1
 50
0
  1
承 認
  0
LINE
  8
_0-7_枠細線
  6
CONTINUOUS
 62
    5
 10
1305
 20
140
 11
1305
 21
60
  0
TEXT
  8
_0-7_枠細線
 62
    5
 10
1316.25
 20
122.5
 40
15
 41
1
 50
0
  1
検 図
  0
LINE
  8
_0-7_枠細線
  6
CONTINUOUS
 62
    5
 10
1365
 20
140
 11
1365
 21
90
  0
TEXT
  8
_0-7_枠細線
 62
    5
 10
1375
 20
95
 40
20
 41
1
 50
0
  1
藤戸
  0
TEXT
  8
_0-7_枠細線
 62
    5
 10
1376.25
 20
122.5
 40
15
 41
1
 50
0
  1
設 計
  0
TEXT
  8
_0-7_枠細線
 62
    5
 10
1255
 20
95
 40
20
 41
1
 50
0
  1
隠塚
  0
TEXT
  8
_0-7_枠細線
 62
    5
 10
1315
 20
95
 40
20
 41
1
 50
0
  1
渋田
  0
TEXT
  8
_0-7_枠細線
 62
    5
 10
1193.9999999999998
 20
117.5
 40
20
 41
0.7000000000000001
 50
0
  1
１：５
  0
TEXT
  8
_0-7_枠細線
 62
    5
 10
960.5
 20
69.999999999999858
 40
20
 41
0.5999999999999998
 50
0
  1
品番・色については表参照のこと
  0
TEXT
  8
_0-7_枠細線
 62
    5
 10
1309.9999999999998
 20
67.499999999999929
 40
15.000000000000009
 41
0.6666666666666665
 50
0
  1
２０１０年０３月０１日
  0
TEXT
  8
_0-7_枠細線
 62
    5
 10
960.5
 20
158.74999999999994
 40
20.000000000000007
 41
0.5999999999999998
 50
0
  1
セーフティグレーチングＨ２０タイプ
  0
TEXT
  8
_0-7_枠細線
 62
    5
 10
1128.5
 20
141.25
 40
20.000000000000007
 41
0.5999999999999998
 50
0
  1
集水マス
  0
LINE
  8
_0-7_枠細線
  6
CONTINUOUS
 62
    5
 10
1425
 20
942.5
 11
890
 21
942.5
  0
TEXT
  8
_0-7_枠細線
 62
    5
 10
895
 20
945
 40
12.5
 41
1
 50
0
  1
記号
  0
TEXT
  8
_0-7_枠細線
 62
    5
 10
996.875
 20
945
 40
12.5
 41
1
 50
0
  1
訂　 正　 記　 事
  0
TEXT
  8
_0-7_枠細線
 62
    5
 10
1181.25
 20
945
 40
12.5
 41
1
 50
0
  1
訂 正 年 月 日
  0
TEXT
  8
_0-7_枠細線
 62
    5
 10
1306.25
 20
945
 40
12.5
 41
1
 50
0
  1
備　　　　　考
  0
LINE
  8
_0-7_枠細線
  6
CONTINUOUS
 62
    5
 10
1425
 20
925
 11
890
 21
925
  0
TEXT
  8
_0-7_枠細線
 62
    5
 10
938.85037037037023
 20
927.5
 40
12.5
 41
1
 50
0
  1
品番・色記号変更
  0
TEXT
  8
_0-7_枠細線
 62
    5
 10
1180
 20
927.5
 40
12.5
 41
0.7199999999999999
 50
0
  1
２０１３．０３．１３
  0
LINE
  8
_0-7_枠細線
  6
CONTINUOUS
 62
    5
 10
1425
 20
907.5
 11
890
 21
907.5
  0
LINE
  8
_0-7_枠細線
  6
CONTINUOUS
 62
    5
 10
1425
 20
890
 11
890
 21
890
  0
TEXT
  8
_0-7_枠細線
 62
    5
 10
938.85037037037023
 20
910
 40
12.5
 41
1
 50
0
  1
クロスバーピッチ変更
  0
TEXT
  8
_0-7_枠細線
 62
    5
 10
938.85037037037023
 20
892.5
 40
12.5
 41
1
 50
0
  1
取外具形状変更
  0
TEXT
  8
_0-7_枠細線
 62
    5
 10
1180
 20
910
 40
12.5
 41
0.7199999999999999
 50
0
  1
２０１５．１１．２０
  0
LINE
  8
_0-7_枠細線
  6
CONTINUOUS
 62
    5
 10
915
 20
908.94233397174685
 11
907.5
 21
923.94233397174685
  0
LINE
  8
_0-7_枠細線
  6
CONTINUOUS
 62
    5
 10
900
 20
908.94233397174685
 11
915
 21
908.94233397174685
  0
LINE
  8
_0-7_枠細線
  6
CONTINUOUS
 62
    5
 10
907.5
 20
923.94233397174685
 11
900
 21
908.94233397174685
  0
TEXT
  8
_0-7_枠細線
 62
    5
 10
902.36515126814822
 20
908.63533172636664
 40
12.5
 41
0.8
 50
0
  1
１
  0
TEXT
  8
_0-7_枠細線
 62
    5
 10
902.36515126814822
 20
891.13533172636664
 40
12.5
 41
0.8
 50
0
  1
２
  0
LINE
  8
_0-7_枠細線
  6
CONTINUOUS
 62
    5
 10
1425
 20
872.5
 11
890
 21
872.5
  0
LINE
  8
_0-7_枠細線
  6
CONTINUOUS
 62
    5
 10
907.5
 20
906.44233397174685
 11
900
 21
891.44233397174685
  0
LINE
  8
_0-7_枠細線
  6
CONTINUOUS
 62
    5
 10
900
 20
891.44233397174685
 11
915
 21
891.44233397174685
  0
LINE
  8
_0-7_枠細線
  6
CONTINUOUS
 62
    5
 10
915
 20
891.44233397174685
 11
907.5
 21
906.44233397174685
  0
TEXT
  8
_0-7_枠細線
 62
    5
 10
902.36515126814822
 20
873.39465008156549
 40
12.5
 41
0.8
 50
0
  1
３
  0
TEXT
  8
_0-7_枠細線
 62
    5
 10
1180
 20
875
 40
12.5
 41
0.7199999999999999
 50
0
  1
２０１７．０４．０１
  0
LINE
  8
_0-7_枠細線
  6
CONTINUOUS
 62
    5
 10
915
 20
856.44233397174685
 11
907.5
 21
871.44233397174685
  0
LINE
  8
_0-7_枠細線
  6
CONTINUOUS
 62
    5
 10
900
 20
856.44233397174685
 11
915
 21
856.44233397174685
  0
LINE
  8
_0-7_枠細線
  6
CONTINUOUS
 62
    5
 10
907.5
 20
871.44233397174685
 11
900
 21
856.44233397174685
  0
TEXT
  8
_0-7_枠細線
 62
    5
 10
1180
 20
857.5
 40
12.5
 41
0.7199999999999999
 50
0
  1
２０１７．０４．０１
  0
TEXT
  8
_0-7_枠細線
 62
    5
 10
938.85037037037023
 20
857.5
 40
12.5
 41
1
 50
0
  1
ブラウン色（Ｃ）追加
  0
LINE
  8
_0-7_枠細線
  6
CONTINUOUS
 62
    5
 10
1425
 20
855
 11
890
 21
855
  0
LINE
  8
_0-7_枠細線
  6
CONTINUOUS
 62
    5
 10
907.5
 20
888.94233397174685
 11
900
 21
873.94233397174685
  0
LINE
  8
_0-7_枠細線
  6
CONTINUOUS
 62
    5
 10
900
 20
873.94233397174685
 11
915
 21
873.94233397174685
  0
LINE
  8
_0-7_枠細線
  6
CONTINUOUS
 62
    5
 10
915
 20
873.94233397174685
 11
907.5
 21
888.94233397174685
  0
TEXT
  8
_0-7_枠細線
 62
    5
 10
902.36515126814822
 20
855.49351400689704
 40
12.5
 41
0.8
 50
0
  1
４
  0
TEXT
  8
_0-7_枠細線
 62
    5
 10
938.85037037037023
 20
875
 40
12.5
 41
1
 50
0
  1
取外具形状変更
  0
TEXT
  8
_0-7_枠細線
 62
    5
 10
1180
 20
892.5
 40
12.5
 41
0.7199999999999999
 50
0
  1
２０１５．１１．２０
  0
LINE
  8
_0-9_枠極太
  6
CONTINUOUS
 62
    5
 10
60
 20
60
 11
60
 21
960
  0
LINE
  8
_0-9_枠極太
  6
CONTINUOUS
 62
    5
 10
60
 20
960
 11
1425
 21
960
  0
LINE
  8
_0-9_枠極太
  6
CONTINUOUS
 62
    5
 10
1425
 20
960
 11
1425
 21
60
  0
LINE
  8
_0-9_枠極太
  6
CONTINUOUS
 62
    5
 10
1425
 20
60
 11
60
 21
60
  0
LINE
  8
_0-7_枠細線
  6
CONTINUOUS
 62
    5
 10
915
 20
838.94233397174685
 11
907.5
 21
853.94233397174685
  0
LINE
  8
_0-7_枠細線
  6
CONTINUOUS
 62
    5
 10
900
 20
838.94233397174685
 11
915
 21
838.94233397174685
  0
LINE
  8
_0-7_枠細線
  6
CONTINUOUS
 62
    5
 10
907.5
 20
853.94233397174685
 11
900
 21
838.94233397174685
  0
LINE
  8
_0-7_枠細線
  6
CONTINUOUS
 62
    5
 10
1425
 20
837.5
 11
890
 21
837.5
  0
TEXT
  8
_0-7_枠細線
 62
    5
 10
1180
 20
840
 40
12.5
 41
0.7199999999999999
 50
0
  1
２０１９．０９．０１
  0
TEXT
  8
_0-7_枠細線
 62
    5
 10
902.36515126814822
 20
837.99351400689704
 40
12.5
 41
0.8
 50
0
  1
５
  0
TEXT
  8
_0-7_枠細線
 62
    5
 10
938.85037037037023
 20
840
 40
12.5
 41
1
 50
0
  1
アンカー材質･厚み変更
  0
LINE
  8
_0-7_枠細線
  6
CONTINUOUS
 62
    5
 10
1275
 20
837.5
 11
1275
 21
959.99999999999909
  0
LINE
  8
_0-7_枠細線
  6
CONTINUOUS
 62
    5
 10
1175
 20
837.5
 11
1175
 21
959.99999999999909
  0
LINE
  8
_0-7_枠細線
  6
CONTINUOUS
 62
    5
 10
925
 20
837.5
 11
925
 21
959.99999999999909
  0
LINE
  8
_0-7_枠細線
  6
CONTINUOUS
 62
    5
 10
890
 20
837.5
 11
890
 21
959.99999999999909
  0
TEXT
  8
_0-7_枠細線
 62
    5
 10
960.5
 20
109.99999999999993
 40
20.000000000000007
 41
0.5999999999999998
 50
0
  1
ＧＲＳ－２０Ｋ３５０
  0
LINE
  8
_0-1_計細線
  6
CONTINUOUS
 62
    3
 10
1095.850000000733
 20
658.45999999999992
 11
1100.3000000005518
 21
658.45999999999992
  0
LINE
  8
_0-1_計細線
  6
CONTINUOUS
 62
    3
 10
1086.7000000001535
 20
658.45999999999992
 11
1091.1500000007327
 21
658.45999999999992
  0
LINE
  8
_0-1_計細線
  6
CONTINUOUS
 62
    3
 10
1086.7000000011183
 20
671.4599999999997
 11
1091.1500000007327
 21
671.4599999999997
  0
LINE
  8
_0-1_計細線
  6
CONTINUOUS
 62
    3
 10
1095.850000000733
 20
671.4599999999997
 11
1100.300000000552
 21
671.4599999999997
  0
LINE
  8
_0-1_計細線
  6
CONTINUOUS
 62
    3
 10
1095.850000000733
 20
676.36024125980737
 11
1095.850000000733
 21
656.36024125980703
  0
LINE
  8
_0-1_計細線
  6
CONTINUOUS
 62
    3
 10
1091.1500000007327
 20
656.36024125980703
 11
1091.1500000007327
 21
676.36024125980737
  0
LINE
  8
_0-1_計細線
  6
CONTINUOUS
 62
    3
 10
1095.850000000733
 20
656.36024125980703
 11
1091.1500000007327
 21
656.36024125980703
  0
LINE
  8
_0-1_計細線
  6
CONTINUOUS
 62
    3
 10
1091.1500000007327
 20
676.36024125980737
 11
1095.850000000733
 21
676.36024125980737
  0
LINE
  8
_0-1_計細線
  6
DASHED2
 62
    3
 10
1091.1500000007327
 20
659.36024125980725
 11
1095.850000000733
 21
659.36024125980725
  0
LINE
  8
_0-1_計細線
  6
DASHED2
 62
    3
 10
1091.1500000007327
 20
673.36024125980748
 11
1095.850000000733
 21
673.36024125980748
  0
ARC
  8
_0-1_計細線
  6
CONTINUOUS
 62
    3
 10
1080.3000000011034
 20
674.15999999999997
 40
1.0000000000000004
 50
89.999999999999915
 51
179.99999999999983
  0
ARC
  8
_0-1_計細線
  6
CONTINUOUS
 62
    3
 10
1080.7679491924309
 20
676.15999999999963
 40
1.0000000000000004
 50
269.99999999999977
 51
330.00000000002012
  0
ARC
  8
_0-1_計細線
  6
CONTINUOUS
 62
    3
 10
1082.5
 20
675.15999999999974
 40
1.0000000000000004
 50
89.999999999999915
 51
149.99999999999622
  0
LINE
  8
_0-1_計細線
  6
CONTINUOUS
 62
    3
 10
1080.3000000011034
 20
675.15999999999974
 11
1080.7679491924309
 21
675.15999999999974
  0
ARC
  8
_0-1_計細線
  6
CONTINUOUS
 62
    3
 10
1089.6999999988966
 20
674.15999999999997
 40
1.0000000000000004
 50
0
 51
89.999999999999915
  0
ARC
  8
_0-1_計細線
  6
CONTINUOUS
 62
    3
 10
1089.2320508075688
 20
676.15999999999963
 40
1.0000000000000004
 50
209.99999999998565
 51
269.99999999999977
  0
ARC
  8
_0-1_計細線
  6
CONTINUOUS
 62
    3
 10
1087.5
 20
675.15999999999974
 40
1.0000000000000004
 50
30.000000000003801
 51
89.999999999999929
  0
LINE
  8
_0-1_計細線
  6
CONTINUOUS
 62
    3
 10
1089.6999999988966
 20
675.15999999999974
 11
1089.2320508075688
 21
675.15999999999974
  0
ARC
  8
_0-1_計細線
  6
CONTINUOUS
 62
    3
 10
1079.8000000011034
 20
672.7600000000001
 40
0.5000000000000002
 50
179.99999999999983
 51
269.99999999999977
  0
LINE
  8
_0-1_計細線
  6
CONTINUOUS
 62
    3
 10
1079.3000000011036
 20
674.15999999999997
 11
1079.3000000011036
 21
672.7600000000001
  0
ARC
  8
_0-1_計細線
  6
CONTINUOUS
 62
    3
 10
1090.1999999988966
 20
672.7600000000001
 40
0.5000000000000002
 50
269.99999999999977
 51
359.99999999999966
  0
LINE
  8
_0-1_計細線
  6
CONTINUOUS
 62
    3
 10
1090.6999999988966
 20
674.15999999999997
 11
1090.6999999988966
 21
672.7600000000001
  0
ARC
  8
_0-1_計細線
  6
CONTINUOUS
 62
    3
 10
1082.3000000011036
 20
671.26000000000022
 40
1.0000000000000004
 50
0
 51
89.999999999999915
  0
LINE
  8
_0-1_計細線
  6
CONTINUOUS
 62
    3
 10
1082.3000000011036
 20
672.25999999999976
 11
1079.8000000011034
 21
672.25999999999976
  0
ARC
  8
_0-1_計細線
  6
CONTINUOUS
 62
    3
 10
1087.7000000011037
 20
671.26000000000022
 40
1.0000000000000004
 50
89.999999999999915
 51
179.99999999999983
  0
LINE
  8
_0-1_計細線
  6
CONTINUOUS
 62
    3
 10
1087.6999999988966
 20
672.25999999999976
 11
1090.1999999988966
 21
672.25999999999976
  0
LINE
  8
_0-1_計細線
  6
CONTINUOUS
 62
    3
 10
1087.5
 20
676.15999999999963
 11
1082.5
 21
676.15999999999963
  0
LINE
  8
_0-1_計細線
  6
CONTINUOUS
 62
    3
 10
1083.3
 20
656.15999999999997
 11
1083.3000000011034
 21
671.26000000000022
  0
LINE
  8
_0-1_計細線
  6
CONTINUOUS
 62
    3
 10
1086.6999999999998
 20
656.15999999999997
 11
1086.7000000011035
 21
671.26000000000022
  0
LINE
  8
_0-1_計細線
  6
CONTINUOUS
 62
    3
 10
1086.6999999999998
 20
656.15999999999997
 11
1083.3
 21
656.15999999999997
  0
LINE
  8
_0-1_計細線
  6
CONTINUOUS
 62
    3
 10
1257.496747812789
 20
664.95999999999992
 11
1260.5012638127887
 21
664.95999999999992
  0
LINE
  8
_0-1_計細線
  6
CONTINUOUS
 62
    3
 10
1257.496747812789
 20
661.46000000000049
 11
1260.5012758127884
 21
661.46000000000049
  0
ARC
  8
_0-1_計細線
  6
CONTINUOUS
 62
    3
 10
1260.5012758127884
 20
661.66000000000031
 40
0.2000000000000001
 50
269.99999999999977
 51
359.99999999999966
  0
ARC
  8
_0-1_計細線
  6
CONTINUOUS
 62
    3
 10
1252.9432958127888
 20
663.20985400000052
 40
7.7579560000000019
 50
346.96432999999968
 51
13.038021999994573
  0
ARC
  8
_0-1_計細線
  6
CONTINUOUS
 62
    3
 10
1260.5012758127884
 20
668.26000000000033
 40
0.2000000000000001
 50
0
 51
89.999999999999915
  0
ARC
  8
_0-1_計細線
  6
CONTINUOUS
 62
    3
 10
1252.9432958127888
 20
666.71014400000001
 40
7.7579560000000019
 50
346.96197799999976
 51
13.035669999999625
  0
LINE
  8
_0-1_計細線
  6
CONTINUOUS
 62
    3
 10
1257.496747812789
 20
668.46000000000015
 11
1260.5012758127884
 21
668.46000000000015
  0
LINE
  8
_0-1_計細線
  6
CONTINUOUS
 62
    3
 10
1260.7012758127889
 20
661.66000000000031
 11
1260.7012758127889
 21
668.26000000000033
  0
ARC
  8
_0-1_計細線
  6
CONTINUOUS
 62
    3
 10
1257.2967478127885
 20
658.66000000000031
 40
0.2000000000000001
 50
269.99999999999977
 51
359.99999999999966
  0
LINE
  8
_0-1_計細線
  6
CONTINUOUS
 62
    3
 10
1255.9999998127882
 20
658.45999999999992
 11
1257.2967478127885
 21
658.45999999999992
  0
ARC
  8
_0-1_計細線
  6
CONTINUOUS
 62
    3
 10
1257.2967478127885
 20
671.25999999999988
 40
0.2000000000000001
 50
0
 51
89.999999999999915
  0
LINE
  8
_0-1_計細線
  6
CONTINUOUS
 62
    3
 10
1255.9999998127882
 20
671.46000000000015
 11
1257.2967478127885
 21
671.46000000000015
  0
LINE
  8
_0-1_計細線
  6
CONTINUOUS
 62
    3
 10
1257.496747812789
 20
664.46000000000004
 11
1257.496747812789
 21
658.66000000000031
  0
LINE
  8
_0-1_計細線
  6
CONTINUOUS
 62
    3
 10
1257.496747812789
 20
671.25999999999988
 11
1257.496747812789
 21
664.46000000000004
  0
LINE
  8
_0-1_計細線
  6
CONTINUOUS
 62
    3
 10
912.50325218721116
 20
664.95999999999992
 11
909.49873618721108
 21
664.95999999999992
  0
LINE
  8
_0-1_計細線
  6
CONTINUOUS
 62
    3
 10
912.50325218721116
 20
661.46000000000049
 11
909.49872418721156
 21
661.46000000000049
  0
ARC
  8
_0-1_計細線
  6
CONTINUOUS
 62
    3
 10
909.49872418721156
 20
661.66000000000031
 40
0.2000000000000001
 50
179.99999999999983
 51
269.99999999999977
  0
ARC
  8
_0-1_計細線
  6
CONTINUOUS
 62
    3
 10
917.05670418721127
 20
663.20985400000052
 40
7.7579560000000019
 50
166.96197800000505
 51
193.03566999999961
  0
ARC
  8
_0-1_計細線
  6
CONTINUOUS
 62
    3
 10
909.49872418721156
 20
668.26000000000033
 40
0.2000000000000001
 50
89.999999999999915
 51
179.99999999999983
  0
ARC
  8
_0-1_計細線
  6
CONTINUOUS
 62
    3
 10
917.05670418721127
 20
666.71014400000001
 40
7.7579560000000019
 50
166.96433000000002
 51
193.0380219999995
  0
LINE
  8
_0-1_計細線
  6
CONTINUOUS
 62
    3
 10
912.50325218721116
 20
668.46000000000015
 11
909.49872418721156
 21
668.46000000000015
  0
LINE
  8
_0-1_計細線
  6
CONTINUOUS
 62
    3
 10
909.29872418721129
 20
661.66000000000031
 11
909.29872418721129
 21
668.26000000000033
  0
ARC
  8
_0-1_計細線
  6
CONTINUOUS
 62
    3
 10
912.70325218721155
 20
658.66000000000031
 40
0.2000000000000001
 50
179.99999999999983
 51
269.99999999999977
  0
LINE
  8
_0-1_計細線
  6
CONTINUOUS
 62
    3
 10
914.00000018721141
 20
658.45999999999992
 11
912.70325218721155
 21
658.45999999999992
  0
ARC
  8
_0-1_計細線
  6
CONTINUOUS
 62
    3
 10
912.70325218721155
 20
671.25999999999988
 40
0.2000000000000001
 50
89.999999999999915
 51
179.99999999999983
  0
LINE
  8
_0-1_計細線
  6
CONTINUOUS
 62
    3
 10
914.00000018721141
 20
671.46000000000015
 11
912.70325218721155
 21
671.46000000000015
  0
LINE
  8
_0-1_計細線
  6
CONTINUOUS
 62
    3
 10
912.50325218721116
 20
664.46000000000004
 11
912.50325218721116
 21
658.66000000000031
  0
LINE
  8
_0-1_計細線
  6
CONTINUOUS
 62
    3
 10
912.50325218721116
 20
671.25999999999988
 11
912.50325218721116
 21
664.46000000000004
  0
LINE
  8
_0-1_計細線
  6
CONTINUOUS
 62
    3
 10
930.60000018883079
 20
671.4599999999997
 11
917.40000018883075
 21
671.4599999999997
  0
LINE
  8
_0-1_計細線
  6
CONTINUOUS
 62
    3
 10
930.60000018883045
 20
658.45999999999992
 11
917.40000018883075
 21
658.45999999999992
  0
LINE
  8
_0-1_計細線
  6
CONTINUOUS
 62
    3
 10
947.30000018900239
 20
671.4599999999997
 11
934.00000018900232
 21
671.4599999999997
  0
LINE
  8
_0-1_計細線
  6
CONTINUOUS
 62
    3
 10
947.30000018900239
 20
658.45999999999992
 11
934.00000018900232
 21
658.45999999999992
  0
LINE
  8
_0-1_計細線
  6
CONTINUOUS
 62
    3
 10
964.30000018902081
 20
671.4599999999997
 11
950.70000018902067
 21
671.4599999999997
  0
LINE
  8
_0-1_計細線
  6
CONTINUOUS
 62
    3
 10
981.30000018919247
 20
671.4599999999997
 11
967.70000018919234
 21
671.4599999999997
  0
LINE
  8
_0-1_計細線
  6
CONTINUOUS
 62
    3
 10
998.30000018936414
 20
671.4599999999997
 11
984.700000189364
 21
671.4599999999997
  0
LINE
  8
_0-1_計細線
  6
CONTINUOUS
 62
    3
 10
1015.300000189536
 20
671.4599999999997
 11
1001.7000001895358
 21
671.4599999999997
  0
LINE
  8
_0-1_計細線
  6
CONTINUOUS
 62
    3
 10
964.30000018902035
 20
658.45999999999992
 11
950.7000001890201
 21
658.45999999999992
  0
LINE
  8
_0-1_計細線
  6
CONTINUOUS
 62
    3
 10
981.30000018919213
 20
658.45999999999992
 11
967.70000018919234
 21
658.45999999999992
  0
LINE
  8
_0-1_計細線
  6
CONTINUOUS
 62
    3
 10
998.30000018936414
 20
658.45999999999992
 11
984.700000189364
 21
658.45999999999992
  0
LINE
  8
_0-1_計細線
  6
CONTINUOUS
 62
    3
 10
1015.3000001895361
 20
658.45999999999992
 11
1001.700000189536
 21
658.45999999999992
  0
LINE
  8
_0-1_計細線
  6
CONTINUOUS
 62
    3
 10
1239.4000000025142
 20
671.4599999999997
 11
1252.6000000025142
 21
671.4599999999997
  0
LINE
  8
_0-1_計細線
  6
CONTINUOUS
 62
    3
 10
1239.4000000025142
 20
658.45999999999992
 11
1252.6000000025144
 21
658.45999999999992
  0
LINE
  8
_0-1_計細線
  6
CONTINUOUS
 62
    3
 10
1222.7000000023424
 20
671.4599999999997
 11
1236.0000000023429
 21
671.4599999999997
  0
LINE
  8
_0-1_計細線
  6
CONTINUOUS
 62
    3
 10
1222.7000000023424
 20
658.45999999999992
 11
1236.0000000023429
 21
658.45999999999992
  0
LINE
  8
_0-1_計細線
  6
CONTINUOUS
 62
    3
 10
1205.700000002324
 20
671.4599999999997
 11
1219.3000000023242
 21
671.4599999999997
  0
LINE
  8
_0-1_計細線
  6
CONTINUOUS
 62
    3
 10
1188.7000000021524
 20
671.4599999999997
 11
1202.3000000021525
 21
671.4599999999997
  0
LINE
  8
_0-1_計細線
  6
CONTINUOUS
 62
    3
 10
1171.7000000019807
 20
671.4599999999997
 11
1185.3000000019808
 21
671.4599999999997
  0
LINE
  8
_0-1_計細線
  6
CONTINUOUS
 62
    3
 10
1018.6999999994662
 20
671.4599999999997
 11
1032.2999999994663
 21
671.4599999999997
  0
LINE
  8
_0-1_計細線
  6
CONTINUOUS
 62
    3
 10
1154.7000000018088
 20
671.4599999999997
 11
1168.3000000018092
 21
671.4599999999997
  0
LINE
  8
_0-1_計細線
  6
CONTINUOUS
 62
    3
 10
1137.7000000014468
 20
671.4599999999997
 11
1151.300000001447
 21
671.4599999999997
  0
LINE
  8
_0-1_計細線
  6
CONTINUOUS
 62
    3
 10
1035.6999999994664
 20
671.4599999999997
 11
1049.2999999994665
 21
671.4599999999997
  0
LINE
  8
_0-1_計細線
  6
CONTINUOUS
 62
    3
 10
1052.6999999998288
 20
671.4599999999997
 11
1066.2999999998283
 21
671.4599999999997
  0
LINE
  8
_0-1_計細線
  6
CONTINUOUS
 62
    3
 10
1069.7000000001901
 20
671.4599999999997
 11
1083.3000000001898
 21
671.4599999999997
  0
LINE
  8
_0-1_計細線
  6
CONTINUOUS
 62
    3
 10
1103.7000000009134
 20
671.4599999999997
 11
1117.3000000009138
 21
671.4599999999997
  0
LINE
  8
_0-1_計細線
  6
CONTINUOUS
 62
    3
 10
1120.7000000012756
 20
671.4599999999997
 11
1134.3000000012753
 21
671.4599999999997
  0
LINE
  8
_0-1_計細線
  6
CONTINUOUS
 62
    3
 10
1205.7000000023243
 20
658.45999999999992
 11
1219.3000000023244
 21
658.45999999999992
  0
LINE
  8
_0-1_計細線
  6
CONTINUOUS
 62
    3
 10
1188.7000000021528
 20
658.45999999999992
 11
1202.3000000021525
 21
658.45999999999992
  0
LINE
  8
_0-1_計細線
  6
CONTINUOUS
 62
    3
 10
1171.7000000019807
 20
658.45999999999992
 11
1185.3000000019806
 21
658.45999999999992
  0
LINE
  8
_0-1_計細線
  6
CONTINUOUS
 62
    3
 10
1018.6999999994662
 20
658.45999999999992
 11
1032.2999999994663
 21
658.45999999999992
  0
LINE
  8
_0-1_計細線
  6
CONTINUOUS
 62
    3
 10
1154.7000000018086
 20
658.45999999999992
 11
1168.3000000018087
 21
658.45999999999992
  0
LINE
  8
_0-1_計細線
  6
CONTINUOUS
 62
    3
 10
1137.7000000014471
 20
658.45999999999992
 11
1151.3000000014472
 21
658.45999999999992
  0
LINE
  8
_0-1_計細線
  6
CONTINUOUS
 62
    3
 10
1035.6999999994662
 20
658.45999999999992
 11
1049.2999999994663
 21
658.45999999999992
  0
LINE
  8
_0-1_計細線
  6
CONTINUOUS
 62
    3
 10
1052.6999999998284
 20
658.45999999999992
 11
1066.2999999998283
 21
658.45999999999992
  0
LINE
  8
_0-1_計細線
  6
CONTINUOUS
 62
    3
 10
1069.7000000001899
 20
658.45999999999992
 11
1083.3000000001898
 21
658.45999999999992
  0
LINE
  8
_0-1_計細線
  6
CONTINUOUS
 62
    3
 10
1103.7000000009134
 20
658.45999999999992
 11
1117.3000000009133
 21
658.45999999999992
  0
LINE
  8
_0-1_計細線
  6
CONTINUOUS
 62
    3
 10
1120.7000000012754
 20
658.45999999999992
 11
1134.3000000012757
 21
658.45999999999992
  0
ARC
  8
_0-1_計細線
  6
CONTINUOUS
 62
    3
 10
920.40000018776391
 20
674.15999999999997
 40
1.0000000000000004
 50
0
 51
89.999999999999915
  0
ARC
  8
_0-1_計細線
  6
CONTINUOUS
 62
    3
 10
919.93205099643603
 20
676.15999999999963
 40
1.0000000000000004
 50
209.99999999998889
 51
269.99999999999977
  0
ARC
  8
_0-1_計細線
  6
CONTINUOUS
 62
    3
 10
918.20000018886731
 20
675.15999999999974
 40
1.0000000000000004
 50
30.000000000007059
 51
89.999999999999929
  0
LINE
  8
_0-1_計細線
  6
CONTINUOUS
 62
    3
 10
920.40000018776391
 20
675.15999999999974
 11
919.93205099643603
 21
675.15999999999974
  0
ARC
  8
_0-1_計細線
  6
CONTINUOUS
 62
    3
 10
911.00000018997048
 20
674.15999999999997
 40
1.0000000000000004
 50
89.999999999999915
 51
179.99999999999983
  0
ARC
  8
_0-1_計細線
  6
CONTINUOUS
 62
    3
 10
911.46794938129847
 20
676.15999999999963
 40
1.0000000000000004
 50
269.99999999999977
 51
330.00000000001035
  0
ARC
  8
_0-1_計細線
  6
CONTINUOUS
 62
    3
 10
913.20000018886731
 20
675.15999999999974
 40
1.0000000000000004
 50
90.00000000001954
 51
150.00000000000273
  0
LINE
  8
_0-1_計細線
  6
CONTINUOUS
 62
    3
 10
911.00000018997048
 20
675.15999999999974
 11
911.46794938129847
 21
675.15999999999974
  0
ARC
  8
_0-1_計細線
  6
CONTINUOUS
 62
    3
 10
920.90000018776379
 20
672.7600000000001
 40
0.5000000000000002
 50
269.99999999999977
 51
359.99999999999966
  0
LINE
  8
_0-1_計細線
  6
CONTINUOUS
 62
    3
 10
921.40000018776345
 20
674.15999999999997
 11
921.40000018776345
 21
672.7600000000001
  0
ARC
  8
_0-1_計細線
  6
CONTINUOUS
 62
    3
 10
910.50000018997082
 20
672.7600000000001
 40
0.5000000000000002
 50
179.99999999999983
 51
269.99999999999977
  0
LINE
  8
_0-1_計細線
  6
CONTINUOUS
 62
    3
 10
910.00000018997082
 20
674.15999999999997
 11
910.00000018997082
 21
672.7600000000001
  0
ARC
  8
_0-1_計細線
  6
CONTINUOUS
 62
    3
 10
918.40000018776345
 20
671.26000000000022
 40
1.0000000000000004
 50
89.999999999999915
 51
179.99999999999983
  0
LINE
  8
_0-1_計細線
  6
CONTINUOUS
 62
    3
 10
918.40000018776345
 20
672.25999999999976
 11
920.90000018776379
 21
672.25999999999976
  0
ARC
  8
_0-1_計細線
  6
CONTINUOUS
 62
    3
 10
913.00000018776359
 20
671.26000000000022
 40
1.0000000000000004
 50
0
 51
89.999999999999915
  0
LINE
  8
_0-1_計細線
  6
CONTINUOUS
 62
    3
 10
913.00000018997082
 20
672.25999999999976
 11
910.50000018997082
 21
672.25999999999976
  0
LINE
  8
_0-1_計細線
  6
CONTINUOUS
 62
    3
 10
913.20000018886731
 20
676.15999999999963
 11
918.20000018886731
 21
676.15999999999963
  0
LINE
  8
_0-1_計細線
  6
CONTINUOUS
 62
    3
 10
917.40000018886735
 20
656.15999999999997
 11
917.40000018776357
 21
671.26000000000022
  0
LINE
  8
_0-1_計細線
  6
CONTINUOUS
 62
    3
 10
914.00000018886715
 20
656.15999999999997
 11
914.00000018776325
 21
671.26000000000022
  0
LINE
  8
_0-1_計細線
  6
CONTINUOUS
 62
    3
 10
914.00000018886715
 20
656.15999999999997
 11
917.40000018886735
 21
656.15999999999997
  0
ARC
  8
_0-1_計細線
  6
CONTINUOUS
 62
    3
 10
937.00000018808907
 20
674.15999999999997
 40
1.0000000000000004
 50
0
 51
89.999999999999915
  0
ARC
  8
_0-1_計細線
  6
CONTINUOUS
 62
    3
 10
936.53205099676143
 20
676.15999999999963
 40
1.0000000000000004
 50
209.99999999998889
 51
269.99999999999977
  0
ARC
  8
_0-1_計細線
  6
CONTINUOUS
 62
    3
 10
934.80000018919259
 20
675.15999999999974
 40
1.0000000000000004
 50
30.000000000000544
 51
89.999999999999929
  0
LINE
  8
_0-1_計細線
  6
CONTINUOUS
 62
    3
 10
937.00000018808907
 20
675.15999999999974
 11
936.53205099676143
 21
675.15999999999974
  0
ARC
  8
_0-1_計細線
  6
CONTINUOUS
 62
    3
 10
927.60000019029587
 20
674.15999999999997
 40
1.0000000000000004
 50
89.999999999999915
 51
179.99999999999983
  0
ARC
  8
_0-1_計細線
  6
CONTINUOUS
 62
    3
 10
928.06794938162386
 20
676.15999999999963
 40
1.0000000000000004
 50
269.99999999999977
 51
330.00000000001364
  0
ARC
  8
_0-1_計細線
  6
CONTINUOUS
 62
    3
 10
929.8000001891927
 20
675.15999999999974
 40
1.0000000000000004
 50
90.000000000013031
 51
149.99999999999622
  0
LINE
  8
_0-1_計細線
  6
CONTINUOUS
 62
    3
 10
927.60000019029587
 20
675.15999999999974
 11
928.06794938162386
 21
675.15999999999974
  0
ARC
  8
_0-1_計細線
  6
CONTINUOUS
 62
    3
 10
937.50000018808919
 20
672.7600000000001
 40
0.5000000000000002
 50
269.99999999999977
 51
359.99999999999966
  0
LINE
  8
_0-1_計細線
  6
CONTINUOUS
 62
    3
 10
938.00000018808885
 20
674.15999999999997
 11
938.00000018808885
 21
672.7600000000001
  0
ARC
  8
_0-1_計細線
  6
CONTINUOUS
 62
    3
 10
927.1000001902961
 20
672.7600000000001
 40
0.5000000000000002
 50
179.99999999999983
 51
269.99999999999977
  0
LINE
  8
_0-1_計細線
  6
CONTINUOUS
 62
    3
 10
926.60000019029621
 20
674.15999999999997
 11
926.60000019029621
 21
672.7600000000001
  0
ARC
  8
_0-1_計細線
  6
CONTINUOUS
 62
    3
 10
935.00000018808896
 20
671.26000000000022
 40
1.0000000000000004
 50
89.999999999999915
 51
179.99999999999983
  0
LINE
  8
_0-1_計細線
  6
CONTINUOUS
 62
    3
 10
935.00000018808896
 20
672.25999999999976
 11
937.50000018808919
 21
672.25999999999976
  0
ARC
  8
_0-1_計細線
  6
CONTINUOUS
 62
    3
 10
929.60000018808898
 20
671.26000000000022
 40
1.0000000000000004
 50
0
 51
89.999999999999915
  0
LINE
  8
_0-1_計細線
  6
CONTINUOUS
 62
    3
 10
929.60000019029621
 20
672.25999999999976
 11
927.1000001902961
 21
672.25999999999976
  0
LINE
  8
_0-1_計細線
  6
CONTINUOUS
 62
    3
 10
929.8000001891927
 20
676.15999999999963
 11
934.80000018919259
 21
676.15999999999963
  0
LINE
  8
_0-1_計細線
  6
CONTINUOUS
 62
    3
 10
934.00000018919275
 20
656.15999999999997
 11
934.00000018808896
 21
671.26000000000022
  0
LINE
  8
_0-1_計細線
  6
CONTINUOUS
 62
    3
 10
930.60000018919254
 20
656.15999999999997
 11
930.60000018808921
 21
671.26000000000022
  0
LINE
  8
_0-1_計細線
  6
CONTINUOUS
 62
    3
 10
930.60000018919254
 20
656.15999999999997
 11
934.00000018919275
 21
656.15999999999997
  0
ARC
  8
_0-1_計細線
  6
CONTINUOUS
 62
    3
 10
953.7000001881072
 20
674.15999999999997
 40
1.0000000000000004
 50
0
 51
89.999999999999915
  0
ARC
  8
_0-1_計細線
  6
CONTINUOUS
 62
    3
 10
953.23205099677944
 20
676.15999999999963
 40
1.0000000000000004
 50
209.99999999999542
 51
269.99999999999977
  0
ARC
  8
_0-1_計細線
  6
CONTINUOUS
 62
    3
 10
951.50000018921094
 20
675.15999999999974
 40
1.0000000000000004
 50
30.000000000000544
 51
89.999999999999929
  0
LINE
  8
_0-1_計細線
  6
CONTINUOUS
 62
    3
 10
953.7000001881072
 20
675.15999999999974
 11
953.23205099677944
 21
675.15999999999974
  0
ARC
  8
_0-1_計細線
  6
CONTINUOUS
 62
    3
 10
944.30000019031422
 20
674.15999999999997
 40
1.0000000000000004
 50
89.999999999999915
 51
179.99999999999983
  0
ARC
  8
_0-1_計細線
  6
CONTINUOUS
 62
    3
 10
944.76794938164164
 20
676.15999999999963
 40
1.0000000000000004
 50
269.99999999999977
 51
330.00000000001364
  0
ARC
  8
_0-1_計細線
  6
CONTINUOUS
 62
    3
 10
946.50000018921048
 20
675.15999999999974
 40
1.0000000000000004
 50
89.999999999999915
 51
149.99999999999946
  0
LINE
  8
_0-1_計細線
  6
CONTINUOUS
 62
    3
 10
944.30000019031422
 20
675.15999999999974
 11
944.76794938164164
 21
675.15999999999974
  0
ARC
  8
_0-1_計細線
  6
CONTINUOUS
 62
    3
 10
954.20000018810697
 20
672.7600000000001
 40
0.5000000000000002
 50
269.99999999999977
 51
359.99999999999966
  0
LINE
  8
_0-1_計細線
  6
CONTINUOUS
 62
    3
 10
954.70000018810708
 20
674.15999999999997
 11
954.70000018810708
 21
672.7600000000001
  0
ARC
  8
_0-1_計細線
  6
CONTINUOUS
 62
    3
 10
943.80000019031456
 20
672.7600000000001
 40
0.5000000000000002
 50
179.99999999999983
 51
269.99999999999977
  0
LINE
  8
_0-1_計細線
  6
CONTINUOUS
 62
    3
 10
943.30000019031399
 20
674.15999999999997
 11
943.30000019031399
 21
672.7600000000001
  0
ARC
  8
_0-1_計細線
  6
CONTINUOUS
 62
    3
 10
951.70000018810697
 20
671.26000000000022
 40
1.0000000000000004
 50
89.999999999999915
 51
179.99999999999983
  0
LINE
  8
_0-1_計細線
  6
CONTINUOUS
 62
    3
 10
951.70000018810697
 20
672.25999999999976
 11
954.20000018810697
 21
672.25999999999976
  0
ARC
  8
_0-1_計細線
  6
CONTINUOUS
 62
    3
 10
946.30000018810711
 20
671.26000000000022
 40
1.0000000000000004
 50
0
 51
89.999999999999915
  0
LINE
  8
_0-1_計細線
  6
CONTINUOUS
 62
    3
 10
946.30000019031456
 20
672.25999999999976
 11
943.80000019031456
 21
672.25999999999976
  0
LINE
  8
_0-1_計細線
  6
CONTINUOUS
 62
    3
 10
946.50000018921048
 20
676.15999999999963
 11
951.50000018921094
 21
676.15999999999963
  0
LINE
  8
_0-1_計細線
  6
CONTINUOUS
 62
    3
 10
950.70000018921053
 20
656.15999999999997
 11
950.7000001881072
 21
671.26000000000022
  0
LINE
  8
_0-1_計細線
  6
CONTINUOUS
 62
    3
 10
947.30000018921055
 20
656.15999999999997
 11
947.30000018810699
 21
671.26000000000022
  0
LINE
  8
_0-1_計細線
  6
CONTINUOUS
 62
    3
 10
947.30000018921055
 20
656.15999999999997
 11
950.70000018921053
 21
656.15999999999997
  0
ARC
  8
_0-1_計細線
  6
CONTINUOUS
 62
    3
 10
970.70000018827886
 20
674.15999999999997
 40
1.0000000000000004
 50
0
 51
89.999999999999915
  0
ARC
  8
_0-1_計細線
  6
CONTINUOUS
 62
    3
 10
970.23205099695144
 20
676.15999999999963
 40
1.0000000000000004
 50
209.99999999998889
 51
269.99999999999977
  0
ARC
  8
_0-1_計細線
  6
CONTINUOUS
 62
    3
 10
968.5000001893826
 20
675.15999999999974
 40
1.0000000000000004
 50
29.999999999997289
 51
89.999999999999929
  0
LINE
  8
_0-1_計細線
  6
CONTINUOUS
 62
    3
 10
970.70000018827886
 20
675.15999999999974
 11
970.23205099695144
 21
675.15999999999974
  0
ARC
  8
_0-1_計細線
  6
CONTINUOUS
 62
    3
 10
961.30000019048589
 20
674.15999999999997
 40
1.0000000000000004
 50
89.999999999999915
 51
179.99999999999983
  0
ARC
  8
_0-1_計細線
  6
CONTINUOUS
 62
    3
 10
961.76794938181365
 20
676.15999999999963
 40
1.0000000000000004
 50
269.99999999999977
 51
330.00000000000387
  0
ARC
  8
_0-1_計細線
  6
CONTINUOUS
 62
    3
 10
963.50000018938272
 20
675.15999999999974
 40
1.0000000000000004
 50
90.000000000032571
 51
150.00000000001575
  0
LINE
  8
_0-1_計細線
  6
CONTINUOUS
 62
    3
 10
961.30000019048589
 20
675.15999999999974
 11
961.76794938181365
 21
675.15999999999974
  0
ARC
  8
_0-1_計細線
  6
CONTINUOUS
 62
    3
 10
971.20000018827864
 20
672.7600000000001
 40
0.5000000000000002
 50
269.99999999999977
 51
359.99999999999966
  0
LINE
  8
_0-1_計細線
  6
CONTINUOUS
 62
    3
 10
971.70000018827909
 20
674.15999999999997
 11
971.70000018827909
 21
672.7600000000001
  0
ARC
  8
_0-1_計細線
  6
CONTINUOUS
 62
    3
 10
960.800000190486
 20
672.7600000000001
 40
0.5000000000000002
 50
179.99999999999983
 51
269.99999999999977
  0
LINE
  8
_0-1_計細線
  6
CONTINUOUS
 62
    3
 10
960.30000019048589
 20
674.15999999999997
 11
960.30000019048589
 21
672.7600000000001
  0
ARC
  8
_0-1_計細線
  6
CONTINUOUS
 62
    3
 10
968.70000018827909
 20
671.26000000000022
 40
1.0000000000000004
 50
89.999999999999915
 51
179.99999999999983
  0
LINE
  8
_0-1_計細線
  6
CONTINUOUS
 62
    3
 10
968.70000018827909
 20
672.25999999999976
 11
971.20000018827864
 21
672.25999999999976
  0
ARC
  8
_0-1_計細線
  6
CONTINUOUS
 62
    3
 10
963.300000188279
 20
671.26000000000022
 40
1.0000000000000004
 50
0
 51
89.999999999999915
  0
LINE
  8
_0-1_計細線
  6
CONTINUOUS
 62
    3
 10
963.30000019048612
 20
672.25999999999976
 11
960.800000190486
 21
672.25999999999976
  0
LINE
  8
_0-1_計細線
  6
CONTINUOUS
 62
    3
 10
963.50000018938272
 20
676.15999999999963
 11
968.5000001893826
 21
676.15999999999963
  0
LINE
  8
_0-1_計細線
  6
CONTINUOUS
 62
    3
 10
967.70000018938254
 20
656.15999999999997
 11
967.70000018827886
 21
671.26000000000022
  0
LINE
  8
_0-1_計細線
  6
CONTINUOUS
 62
    3
 10
964.30000018938256
 20
656.15999999999997
 11
964.30000018827855
 21
671.26000000000022
  0
LINE
  8
_0-1_計細線
  6
CONTINUOUS
 62
    3
 10
964.30000018938256
 20
656.15999999999997
 11
967.70000018938254
 21
656.15999999999997
  0
ARC
  8
_0-1_計細線
  6
CONTINUOUS
 62
    3
 10
987.70000018845053
 20
674.15999999999997
 40
1.0000000000000004
 50
0
 51
89.999999999999915
  0
ARC
  8
_0-1_計細線
  6
CONTINUOUS
 62
    3
 10
987.23205099712288
 20
676.15999999999963
 40
1.0000000000000004
 50
209.99999999998889
 51
269.99999999999977
  0
ARC
  8
_0-1_計細線
  6
CONTINUOUS
 62
    3
 10
985.50000018955427
 20
675.15999999999974
 40
1.0000000000000004
 50
30.000000000007059
 51
89.999999999999929
  0
LINE
  8
_0-1_計細線
  6
CONTINUOUS
 62
    3
 10
987.70000018845053
 20
675.15999999999974
 11
987.23205099712288
 21
675.15999999999974
  0
ARC
  8
_0-1_計細線
  6
CONTINUOUS
 62
    3
 10
978.30000019065778
 20
674.15999999999997
 40
1.0000000000000004
 50
89.999999999999915
 51
179.99999999999983
  0
ARC
  8
_0-1_計細線
  6
CONTINUOUS
 62
    3
 10
978.76794938198555
 20
676.15999999999963
 40
1.0000000000000004
 50
269.99999999999977
 51
330.00000000000387
  0
ARC
  8
_0-1_計細線
  6
CONTINUOUS
 62
    3
 10
980.50000018955416
 20
675.15999999999974
 40
1.0000000000000004
 50
90.000000000013031
 51
149.99999999999946
  0
LINE
  8
_0-1_計細線
  6
CONTINUOUS
 62
    3
 10
978.30000019065778
 20
675.15999999999974
 11
978.76794938198555
 21
675.15999999999974
  0
ARC
  8
_0-1_計細線
  6
CONTINUOUS
 62
    3
 10
988.20000018845064
 20
672.7600000000001
 40
0.5000000000000002
 50
269.99999999999977
 51
359.99999999999966
  0
LINE
  8
_0-1_計細線
  6
CONTINUOUS
 62
    3
 10
988.70000018845053
 20
674.15999999999997
 11
988.70000018845053
 21
672.7600000000001
  0
ARC
  8
_0-1_計細線
  6
CONTINUOUS
 62
    3
 10
977.80000019065767
 20
672.7600000000001
 40
0.5000000000000002
 50
179.99999999999983
 51
269.99999999999977
  0
LINE
  8
_0-1_計細線
  6
CONTINUOUS
 62
    3
 10
977.30000019065778
 20
674.15999999999997
 11
977.30000019065778
 21
672.7600000000001
  0
ARC
  8
_0-1_計細線
  6
CONTINUOUS
 62
    3
 10
985.70000018845064
 20
671.26000000000022
 40
1.0000000000000004
 50
89.999999999999915
 51
179.99999999999983
  0
LINE
  8
_0-1_計細線
  6
CONTINUOUS
 62
    3
 10
985.70000018845064
 20
672.25999999999976
 11
988.20000018845064
 21
672.25999999999976
  0
ARC
  8
_0-1_計細線
  6
CONTINUOUS
 62
    3
 10
980.30000018845044
 20
671.26000000000022
 40
1.0000000000000004
 50
0
 51
89.999999999999915
  0
LINE
  8
_0-1_計細線
  6
CONTINUOUS
 62
    3
 10
980.30000019065812
 20
672.25999999999976
 11
977.80000019065767
 21
672.25999999999976
  0
LINE
  8
_0-1_計細線
  6
CONTINUOUS
 62
    3
 10
980.50000018955416
 20
676.15999999999963
 11
985.50000018955427
 21
676.15999999999963
  0
LINE
  8
_0-1_計細線
  6
CONTINUOUS
 62
    3
 10
984.70000018955443
 20
656.15999999999997
 11
984.70000018845053
 21
671.26000000000022
  0
LINE
  8
_0-1_計細線
  6
CONTINUOUS
 62
    3
 10
981.300000189554
 20
656.15999999999997
 11
981.30000018845044
 21
671.26000000000022
  0
LINE
  8
_0-1_計細線
  6
CONTINUOUS
 62
    3
 10
981.300000189554
 20
656.15999999999997
 11
984.70000018955443
 21
656.15999999999997
  0
ARC
  8
_0-1_計細線
  6
CONTINUOUS
 62
    3
 10
1004.7000001886222
 20
674.15999999999997
 40
1.0000000000000004
 50
0
 51
89.999999999999915
  0
ARC
  8
_0-1_計細線
  6
CONTINUOUS
 62
    3
 10
1004.232050997295
 20
676.15999999999963
 40
1.0000000000000004
 50
209.99999999998565
 51
269.99999999999977
  0
ARC
  8
_0-1_計細線
  6
CONTINUOUS
 62
    3
 10
1002.5000001897261
 20
675.15999999999974
 40
1.0000000000000004
 50
30.000000000000544
 51
89.999999999999929
  0
LINE
  8
_0-1_計細線
  6
CONTINUOUS
 62
    3
 10
1004.7000001886222
 20
675.15999999999974
 11
1004.232050997295
 21
675.15999999999974
  0
ARC
  8
_0-1_計細線
  6
CONTINUOUS
 62
    3
 10
995.30000019082979
 20
674.15999999999997
 40
1.0000000000000004
 50
89.999999999999915
 51
179.99999999999983
  0
ARC
  8
_0-1_計細線
  6
CONTINUOUS
 62
    3
 10
995.76794938215721
 20
676.15999999999963
 40
1.0000000000000004
 50
269.99999999999977
 51
330.00000000001364
  0
ARC
  8
_0-1_計細線
  6
CONTINUOUS
 62
    3
 10
997.50000018972628
 20
675.15999999999974
 40
1.0000000000000004
 50
89.999999999999915
 51
149.99999999999946
  0
LINE
  8
_0-1_計細線
  6
CONTINUOUS
 62
    3
 10
995.30000019082979
 20
675.15999999999974
 11
995.76794938215721
 21
675.15999999999974
  0
ARC
  8
_0-1_計細線
  6
CONTINUOUS
 62
    3
 10
1005.2000001886227
 20
672.7600000000001
 40
0.5000000000000002
 50
269.99999999999977
 51
359.99999999999966
  0
LINE
  8
_0-1_計細線
  6
CONTINUOUS
 62
    3
 10
1005.7000001886224
 20
674.15999999999997
 11
1005.7000001886224
 21
672.7600000000001
  0
ARC
  8
_0-1_計細線
  6
CONTINUOUS
 62
    3
 10
994.80000019082968
 20
672.7600000000001
 40
0.5000000000000002
 50
179.99999999999983
 51
269.99999999999977
  0
LINE
  8
_0-1_計細線
  6
CONTINUOUS
 62
    3
 10
994.30000019082968
 20
674.15999999999997
 11
994.30000019082968
 21
672.7600000000001
  0
ARC
  8
_0-1_計細線
  6
CONTINUOUS
 62
    3
 10
1002.7000001886224
 20
671.26000000000022
 40
1.0000000000000004
 50
89.999999999999915
 51
179.99999999999983
  0
LINE
  8
_0-1_計細線
  6
CONTINUOUS
 62
    3
 10
1002.7000001886224
 20
672.25999999999976
 11
1005.2000001886227
 21
672.25999999999976
  0
ARC
  8
_0-1_計細線
  6
CONTINUOUS
 62
    3
 10
997.30000018862245
 20
671.26000000000022
 40
1.0000000000000004
 50
0
 51
89.999999999999915
  0
LINE
  8
_0-1_計細線
  6
CONTINUOUS
 62
    3
 10
997.30000019082979
 20
672.25999999999976
 11
994.80000019082968
 21
672.25999999999976
  0
LINE
  8
_0-1_計細線
  6
CONTINUOUS
 62
    3
 10
997.50000018972628
 20
676.15999999999963
 11
1002.5000001897261
 21
676.15999999999963
  0
LINE
  8
_0-1_計細線
  6
CONTINUOUS
 62
    3
 10
1001.7000001897261
 20
656.15999999999997
 11
1001.7000001886225
 21
671.26000000000022
  0
LINE
  8
_0-1_計細線
  6
CONTINUOUS
 62
    3
 10
998.30000018972612
 20
656.15999999999997
 11
998.30000018862211
 21
671.26000000000022
  0
LINE
  8
_0-1_計細線
  6
CONTINUOUS
 62
    3
 10
998.30000018972612
 20
656.15999999999997
 11
1001.7000001897261
 21
656.15999999999997
  0
ARC
  8
_0-1_計細線
  6
CONTINUOUS
 62
    3
 10
1249.6000000035813
 20
674.15999999999997
 40
1.0000000000000004
 50
89.999999999999915
 51
179.99999999999983
  0
ARC
  8
_0-1_計細線
  6
CONTINUOUS
 62
    3
 10
1250.0679491949088
 20
676.15999999999963
 40
1.0000000000000004
 50
269.99999999999977
 51
330.00000000001364
  0
ARC
  8
_0-1_計細線
  6
CONTINUOUS
 62
    3
 10
1251.8000000024774
 20
675.15999999999974
 40
1.0000000000000004
 50
89.999999999999915
 51
149.99999999998971
  0
LINE
  8
_0-1_計細線
  6
CONTINUOUS
 62
    3
 10
1249.6000000035813
 20
675.15999999999974
 11
1250.0679491949088
 21
675.15999999999974
  0
ARC
  8
_0-1_計細線
  6
CONTINUOUS
 62
    3
 10
1259.000000001374
 20
674.15999999999997
 40
1.0000000000000004
 50
0
 51
89.999999999999915
  0
ARC
  8
_0-1_計細線
  6
CONTINUOUS
 62
    3
 10
1258.5320508100467
 20
676.15999999999963
 40
1.0000000000000004
 50
209.99999999998565
 51
269.99999999999977
  0
ARC
  8
_0-1_計細線
  6
CONTINUOUS
 62
    3
 10
1256.8000000024776
 20
675.15999999999974
 40
1.0000000000000004
 50
30.000000000003801
 51
89.999999999986969
  0
LINE
  8
_0-1_計細線
  6
CONTINUOUS
 62
    3
 10
1259.000000001374
 20
675.15999999999974
 11
1258.5320508100467
 21
675.15999999999974
  0
ARC
  8
_0-1_計細線
  6
CONTINUOUS
 62
    3
 10
1249.100000003581
 20
672.7600000000001
 40
0.5000000000000002
 50
179.99999999999983
 51
269.99999999999977
  0
LINE
  8
_0-1_計細線
  6
CONTINUOUS
 62
    3
 10
1248.6000000035813
 20
674.15999999999997
 11
1248.6000000035813
 21
672.7600000000001
  0
ARC
  8
_0-1_計細線
  6
CONTINUOUS
 62
    3
 10
1259.5000000013742
 20
672.7600000000001
 40
0.5000000000000002
 50
269.99999999999977
 51
359.99999999999966
  0
LINE
  8
_0-1_計細線
  6
CONTINUOUS
 62
    3
 10
1260.000000001374
 20
674.15999999999997
 11
1260.000000001374
 21
672.7600000000001
  0
ARC
  8
_0-1_計細線
  6
CONTINUOUS
 62
    3
 10
1251.6000000035815
 20
671.26000000000022
 40
1.0000000000000004
 50
0
 51
89.999999999999915
  0
LINE
  8
_0-1_計細線
  6
CONTINUOUS
 62
    3
 10
1251.6000000035815
 20
672.25999999999976
 11
1249.100000003581
 21
672.25999999999976
  0
ARC
  8
_0-1_計細線
  6
CONTINUOUS
 62
    3
 10
1257.0000000035814
 20
671.26000000000022
 40
1.0000000000000004
 50
89.999999999999915
 51
179.99999999999983
  0
LINE
  8
_0-1_計細線
  6
CONTINUOUS
 62
    3
 10
1257.000000001374
 20
672.25999999999976
 11
1259.5000000013742
 21
672.25999999999976
  0
LINE
  8
_0-1_計細線
  6
CONTINUOUS
 62
    3
 10
1256.8000000024776
 20
676.15999999999963
 11
1251.8000000024774
 21
676.15999999999963
  0
LINE
  8
_0-1_計細線
  6
CONTINUOUS
 62
    3
 10
1252.6000000024778
 20
656.15999999999997
 11
1252.6000000035813
 21
671.26000000000022
  0
LINE
  8
_0-1_計細線
  6
CONTINUOUS
 62
    3
 10
1256.0000000024777
 20
656.15999999999997
 11
1256.0000000035814
 21
671.26000000000022
  0
LINE
  8
_0-1_計細線
  6
CONTINUOUS
 62
    3
 10
1256.0000000024777
 20
656.15999999999997
 11
1252.6000000024778
 21
656.15999999999997
  0
ARC
  8
_0-1_計細線
  6
CONTINUOUS
 62
    3
 10
1233.0000000032558
 20
674.15999999999997
 40
1.0000000000000004
 50
89.999999999999915
 51
179.99999999999983
  0
ARC
  8
_0-1_計細線
  6
CONTINUOUS
 62
    3
 10
1233.4679491945835
 20
676.15999999999963
 40
1.0000000000000004
 50
269.99999999999977
 51
330.00000000000711
  0
ARC
  8
_0-1_計細線
  6
CONTINUOUS
 62
    3
 10
1235.2000000021526
 20
675.15999999999974
 40
1.0000000000000004
 50
89.999999999999915
 51
150.00000000000273
  0
LINE
  8
_0-1_計細線
  6
CONTINUOUS
 62
    3
 10
1233.0000000032558
 20
675.15999999999974
 11
1233.4679491945835
 21
675.15999999999974
  0
ARC
  8
_0-1_計細線
  6
CONTINUOUS
 62
    3
 10
1242.400000001049
 20
674.15999999999997
 40
1.0000000000000004
 50
0
 51
89.999999999999915
  0
ARC
  8
_0-1_計細線
  6
CONTINUOUS
 62
    3
 10
1241.932050809721
 20
676.15999999999963
 40
1.0000000000000004
 50
209.99999999999216
 51
269.99999999999977
  0
ARC
  8
_0-1_計細線
  6
CONTINUOUS
 62
    3
 10
1240.2000000021521
 20
675.15999999999974
 40
1.0000000000000004
 50
29.999999999997289
 51
89.999999999986969
  0
LINE
  8
_0-1_計細線
  6
CONTINUOUS
 62
    3
 10
1242.400000001049
 20
675.15999999999974
 11
1241.932050809721
 21
675.15999999999974
  0
ARC
  8
_0-1_計細線
  6
CONTINUOUS
 62
    3
 10
1232.5000000032558
 20
672.7600000000001
 40
0.5000000000000002
 50
179.99999999999983
 51
269.99999999999977
  0
LINE
  8
_0-1_計細線
  6
CONTINUOUS
 62
    3
 10
1232.000000003256
 20
674.15999999999997
 11
1232.000000003256
 21
672.7600000000001
  0
ARC
  8
_0-1_計細線
  6
CONTINUOUS
 62
    3
 10
1242.9000000010487
 20
672.7600000000001
 40
0.5000000000000002
 50
269.99999999999977
 51
359.99999999999966
  0
LINE
  8
_0-1_計細線
  6
CONTINUOUS
 62
    3
 10
1243.4000000010487
 20
674.15999999999997
 11
1243.4000000010487
 21
672.7600000000001
  0
ARC
  8
_0-1_計細線
  6
CONTINUOUS
 62
    3
 10
1235.000000003256
 20
671.26000000000022
 40
1.0000000000000004
 50
0
 51
89.999999999999915
  0
LINE
  8
_0-1_計細線
  6
CONTINUOUS
 62
    3
 10
1235.000000003256
 20
672.25999999999976
 11
1232.5000000032558
 21
672.25999999999976
  0
ARC
  8
_0-1_計細線
  6
CONTINUOUS
 62
    3
 10
1240.4000000032559
 20
671.26000000000022
 40
1.0000000000000004
 50
89.999999999999915
 51
179.99999999999983
  0
LINE
  8
_0-1_計細線
  6
CONTINUOUS
 62
    3
 10
1240.4000000010485
 20
672.25999999999976
 11
1242.9000000010487
 21
672.25999999999976
  0
LINE
  8
_0-1_計細線
  6
CONTINUOUS
 62
    3
 10
1240.2000000021521
 20
676.15999999999963
 11
1235.2000000021526
 21
676.15999999999963
  0
LINE
  8
_0-1_計細線
  6
CONTINUOUS
 62
    3
 10
1236.0000000021521
 20
656.15999999999997
 11
1236.0000000032558
 21
671.26000000000022
  0
LINE
  8
_0-1_計細線
  6
CONTINUOUS
 62
    3
 10
1239.4000000021524
 20
656.15999999999997
 11
1239.4000000032561
 21
671.26000000000022
  0
LINE
  8
_0-1_計細線
  6
CONTINUOUS
 62
    3
 10
1239.4000000021524
 20
656.15999999999997
 11
1236.0000000021521
 21
656.15999999999997
  0
ARC
  8
_0-1_計細線
  6
CONTINUOUS
 62
    3
 10
1216.3000000032378
 20
674.15999999999997
 40
1.0000000000000004
 50
89.999999999999915
 51
179.99999999999983
  0
ARC
  8
_0-1_計細線
  6
CONTINUOUS
 62
    3
 10
1216.7679491945651
 20
676.15999999999963
 40
1.0000000000000004
 50
269.99999999999977
 51
330.00000000001364
  0
ARC
  8
_0-1_計細線
  6
CONTINUOUS
 62
    3
 10
1218.5000000021339
 20
675.15999999999974
 40
1.0000000000000004
 50
89.999999999999915
 51
149.99999999999622
  0
LINE
  8
_0-1_計細線
  6
CONTINUOUS
 62
    3
 10
1216.3000000032378
 20
675.15999999999974
 11
1216.7679491945651
 21
675.15999999999974
  0
ARC
  8
_0-1_計細線
  6
CONTINUOUS
 62
    3
 10
1225.7000000010307
 20
674.15999999999997
 40
1.0000000000000004
 50
0
 51
89.999999999999915
  0
ARC
  8
_0-1_計細線
  6
CONTINUOUS
 62
    3
 10
1225.2320508097032
 20
676.15999999999963
 40
1.0000000000000004
 50
209.99999999998565
 51
269.99999999999977
  0
ARC
  8
_0-1_計細線
  6
CONTINUOUS
 62
    3
 10
1223.5000000021344
 20
675.15999999999974
 40
1.0000000000000004
 50
30.000000000003801
 51
89.999999999999929
  0
LINE
  8
_0-1_計細線
  6
CONTINUOUS
 62
    3
 10
1225.7000000010307
 20
675.15999999999974
 11
1225.2320508097032
 21
675.15999999999974
  0
ARC
  8
_0-1_計細線
  6
CONTINUOUS
 62
    3
 10
1215.800000003238
 20
672.7600000000001
 40
0.5000000000000002
 50
179.99999999999983
 51
269.99999999999977
  0
LINE
  8
_0-1_計細線
  6
CONTINUOUS
 62
    3
 10
1215.3000000032378
 20
674.15999999999997
 11
1215.3000000032378
 21
672.7600000000001
  0
ARC
  8
_0-1_計細線
  6
CONTINUOUS
 62
    3
 10
1226.2000000010307
 20
672.7600000000001
 40
0.5000000000000002
 50
269.99999999999977
 51
359.99999999999966
  0
LINE
  8
_0-1_計細線
  6
CONTINUOUS
 62
    3
 10
1226.7000000010307
 20
674.15999999999997
 11
1226.7000000010307
 21
672.7600000000001
  0
ARC
  8
_0-1_計細線
  6
CONTINUOUS
 62
    3
 10
1218.3000000032378
 20
671.26000000000022
 40
1.0000000000000004
 50
0
 51
89.999999999999915
  0
LINE
  8
_0-1_計細線
  6
CONTINUOUS
 62
    3
 10
1218.3000000032378
 20
672.25999999999976
 11
1215.800000003238
 21
672.25999999999976
  0
ARC
  8
_0-1_計細線
  6
CONTINUOUS
 62
    3
 10
1223.7000000032376
 20
671.26000000000022
 40
1.0000000000000004
 50
89.999999999999915
 51
179.99999999999983
  0
LINE
  8
_0-1_計細線
  6
CONTINUOUS
 62
    3
 10
1223.7000000010303
 20
672.25999999999976
 11
1226.2000000010307
 21
672.25999999999976
  0
LINE
  8
_0-1_計細線
  6
CONTINUOUS
 62
    3
 10
1223.5000000021344
 20
676.15999999999963
 11
1218.5000000021339
 21
676.15999999999963
  0
LINE
  8
_0-1_計細線
  6
CONTINUOUS
 62
    3
 10
1219.3000000021343
 20
656.15999999999997
 11
1219.300000003238
 21
671.26000000000022
  0
LINE
  8
_0-1_計細線
  6
CONTINUOUS
 62
    3
 10
1222.7000000021339
 20
656.15999999999997
 11
1222.7000000032378
 21
671.26000000000022
  0
LINE
  8
_0-1_計細線
  6
CONTINUOUS
 62
    3
 10
1222.7000000021339
 20
656.15999999999997
 11
1219.3000000021343
 21
656.15999999999997
  0
ARC
  8
_0-1_計細線
  6
CONTINUOUS
 62
    3
 10
1199.3000000030661
 20
674.15999999999997
 40
1.0000000000000004
 50
89.999999999999915
 51
179.99999999999983
  0
ARC
  8
_0-1_計細線
  6
CONTINUOUS
 62
    3
 10
1199.7679491943934
 20
676.15999999999963
 40
1.0000000000000004
 50
269.99999999999977
 51
330.00000000000711
  0
ARC
  8
_0-1_計細線
  6
CONTINUOUS
 62
    3
 10
1201.5000000019622
 20
675.15999999999974
 40
1.0000000000000004
 50
89.999999999999915
 51
150.00000000000273
  0
LINE
  8
_0-1_計細線
  6
CONTINUOUS
 62
    3
 10
1199.3000000030661
 20
675.15999999999974
 11
1199.7679491943934
 21
675.15999999999974
  0
ARC
  8
_0-1_計細線
  6
CONTINUOUS
 62
    3
 10
1208.7000000008588
 20
674.15999999999997
 40
1.0000000000000004
 50
0
 51
89.999999999999915
  0
ARC
  8
_0-1_計細線
  6
CONTINUOUS
 62
    3
 10
1208.2320508095313
 20
676.15999999999963
 40
1.0000000000000004
 50
209.99999999998565
 51
269.99999999999977
  0
ARC
  8
_0-1_計細線
  6
CONTINUOUS
 62
    3
 10
1206.500000001962
 20
675.15999999999974
 40
1.0000000000000004
 50
29.999999999990774
 51
89.99999999996092
  0
LINE
  8
_0-1_計細線
  6
CONTINUOUS
 62
    3
 10
1208.7000000008588
 20
675.15999999999974
 11
1208.2320508095313
 21
675.15999999999974
  0
ARC
  8
_0-1_計細線
  6
CONTINUOUS
 62
    3
 10
1198.8000000030659
 20
672.7600000000001
 40
0.5000000000000002
 50
179.99999999999983
 51
269.99999999999977
  0
LINE
  8
_0-1_計細線
  6
CONTINUOUS
 62
    3
 10
1198.3000000030661
 20
674.15999999999997
 11
1198.3000000030661
 21
672.7600000000001
  0
ARC
  8
_0-1_計細線
  6
CONTINUOUS
 62
    3
 10
1209.2000000008588
 20
672.7600000000001
 40
0.5000000000000002
 50
269.99999999999977
 51
359.99999999999966
  0
LINE
  8
_0-1_計細線
  6
CONTINUOUS
 62
    3
 10
1209.7000000008593
 20
674.15999999999997
 11
1209.7000000008593
 21
672.7600000000001
  0
ARC
  8
_0-1_計細線
  6
CONTINUOUS
 62
    3
 10
1201.3000000030659
 20
671.26000000000022
 40
1.0000000000000004
 50
0
 51
89.999999999999915
  0
LINE
  8
_0-1_計細線
  6
CONTINUOUS
 62
    3
 10
1201.3000000030659
 20
672.25999999999976
 11
1198.8000000030659
 21
672.25999999999976
  0
ARC
  8
_0-1_計細線
  6
CONTINUOUS
 62
    3
 10
1206.7000000030657
 20
671.26000000000022
 40
1.0000000000000004
 50
89.999999999999915
 51
179.99999999999983
  0
LINE
  8
_0-1_計細線
  6
CONTINUOUS
 62
    3
 10
1206.7000000008584
 20
672.25999999999976
 11
1209.2000000008588
 21
672.25999999999976
  0
LINE
  8
_0-1_計細線
  6
CONTINUOUS
 62
    3
 10
1206.500000001962
 20
676.15999999999963
 11
1201.5000000019622
 21
676.15999999999963
  0
LINE
  8
_0-1_計細線
  6
CONTINUOUS
 62
    3
 10
1202.3000000019624
 20
656.15999999999997
 11
1202.3000000030661
 21
671.26000000000022
  0
LINE
  8
_0-1_計細線
  6
CONTINUOUS
 62
    3
 10
1205.7000000019623
 20
656.15999999999997
 11
1205.7000000030662
 21
671.26000000000022
  0
LINE
  8
_0-1_計細線
  6
CONTINUOUS
 62
    3
 10
1205.7000000019623
 20
656.15999999999997
 11
1202.3000000019624
 21
656.15999999999997
  0
ARC
  8
_0-1_計細線
  6
CONTINUOUS
 62
    3
 10
1182.3000000028942
 20
674.15999999999997
 40
1.0000000000000004
 50
89.999999999999915
 51
179.99999999999983
  0
ARC
  8
_0-1_計細線
  6
CONTINUOUS
 62
    3
 10
1182.7679491942217
 20
676.15999999999963
 40
1.0000000000000004
 50
269.99999999999977
 51
330.00000000000711
  0
ARC
  8
_0-1_計細線
  6
CONTINUOUS
 62
    3
 10
1184.5000000017906
 20
675.15999999999974
 40
1.0000000000000004
 50
89.999999999999915
 51
150.00000000000273
  0
LINE
  8
_0-1_計細線
  6
CONTINUOUS
 62
    3
 10
1182.3000000028942
 20
675.15999999999974
 11
1182.7679491942217
 21
675.15999999999974
  0
ARC
  8
_0-1_計細線
  6
CONTINUOUS
 62
    3
 10
1191.7000000006872
 20
674.15999999999997
 40
1.0000000000000004
 50
0
 51
89.999999999999915
  0
ARC
  8
_0-1_計細線
  6
CONTINUOUS
 62
    3
 10
1191.2320508093592
 20
676.15999999999963
 40
1.0000000000000004
 50
209.99999999999216
 51
269.99999999999977
  0
ARC
  8
_0-1_計細線
  6
CONTINUOUS
 62
    3
 10
1189.5000000017906
 20
675.15999999999974
 40
1.0000000000000004
 50
30.000000000003801
 51
89.999999999986969
  0
LINE
  8
_0-1_計細線
  6
CONTINUOUS
 62
    3
 10
1191.7000000006872
 20
675.15999999999974
 11
1191.2320508093592
 21
675.15999999999974
  0
ARC
  8
_0-1_計細線
  6
CONTINUOUS
 62
    3
 10
1181.800000002894
 20
672.7600000000001
 40
0.5000000000000002
 50
179.99999999999983
 51
269.99999999999977
  0
LINE
  8
_0-1_計細線
  6
CONTINUOUS
 62
    3
 10
1181.3000000028942
 20
674.15999999999997
 11
1181.3000000028942
 21
672.7600000000001
  0
ARC
  8
_0-1_計細線
  6
CONTINUOUS
 62
    3
 10
1192.2000000006872
 20
672.7600000000001
 40
0.5000000000000002
 50
269.99999999999977
 51
359.99999999999966
  0
LINE
  8
_0-1_計細線
  6
CONTINUOUS
 62
    3
 10
1192.7000000006867
 20
674.15999999999997
 11
1192.7000000006867
 21
672.7600000000001
  0
ARC
  8
_0-1_計細線
  6
CONTINUOUS
 62
    3
 10
1184.3000000028942
 20
671.26000000000022
 40
1.0000000000000004
 50
0
 51
89.999999999999915
  0
LINE
  8
_0-1_計細線
  6
CONTINUOUS
 62
    3
 10
1184.3000000028942
 20
672.25999999999976
 11
1181.800000002894
 21
672.25999999999976
  0
ARC
  8
_0-1_計細線
  6
CONTINUOUS
 62
    3
 10
1189.7000000028943
 20
671.26000000000022
 40
1.0000000000000004
 50
89.999999999999915
 51
179.99999999999983
  0
LINE
  8
_0-1_計細線
  6
CONTINUOUS
 62
    3
 10
1189.7000000006867
 20
672.25999999999976
 11
1192.2000000006872
 21
672.25999999999976
  0
LINE
  8
_0-1_計細線
  6
CONTINUOUS
 62
    3
 10
1189.5000000017906
 20
676.15999999999963
 11
1184.5000000017906
 21
676.15999999999963
  0
LINE
  8
_0-1_計細線
  6
CONTINUOUS
 62
    3
 10
1185.3000000017903
 20
656.15999999999997
 11
1185.3000000028942
 21
671.26000000000022
  0
LINE
  8
_0-1_計細線
  6
CONTINUOUS
 62
    3
 10
1188.7000000017906
 20
656.15999999999997
 11
1188.7000000028945
 21
671.26000000000022
  0
LINE
  8
_0-1_計細線
  6
CONTINUOUS
 62
    3
 10
1188.7000000017906
 20
656.15999999999997
 11
1185.3000000017903
 21
656.15999999999997
  0
ARC
  8
_0-1_計細線
  6
CONTINUOUS
 62
    3
 10
1012.3000000000183
 20
674.15999999999997
 40
1.0000000000000004
 50
89.999999999999915
 51
179.99999999999983
  0
ARC
  8
_0-1_計細線
  6
CONTINUOUS
 62
    3
 10
1012.7679491913455
 20
676.15999999999963
 40
1.0000000000000004
 50
269.99999999999977
 51
330.00000000001035
  0
ARC
  8
_0-1_計細線
  6
CONTINUOUS
 62
    3
 10
1014.4999999989143
 20
675.15999999999974
 40
1.0000000000000004
 50
89.999999999999915
 51
149.99999999999946
  0
LINE
  8
_0-1_計細線
  6
CONTINUOUS
 62
    3
 10
1012.3000000000183
 20
675.15999999999974
 11
1012.7679491913455
 21
675.15999999999974
  0
ARC
  8
_0-1_計細線
  6
CONTINUOUS
 62
    3
 10
1021.699999997811
 20
674.15999999999997
 40
1.0000000000000004
 50
0
 51
89.999999999999915
  0
ARC
  8
_0-1_計細線
  6
CONTINUOUS
 62
    3
 10
1021.2320508064836
 20
676.15999999999963
 40
1.0000000000000004
 50
209.9999999999726
 51
269.99999999999977
  0
ARC
  8
_0-1_計細線
  6
CONTINUOUS
 62
    3
 10
1019.4999999989142
 20
675.15999999999974
 40
1.0000000000000004
 50
30.000000000000544
 51
89.999999999967429
  0
LINE
  8
_0-1_計細線
  6
CONTINUOUS
 62
    3
 10
1021.699999997811
 20
675.15999999999974
 11
1021.2320508064836
 21
675.15999999999974
  0
ARC
  8
_0-1_計細線
  6
CONTINUOUS
 62
    3
 10
1011.8000000000181
 20
672.7600000000001
 40
0.5000000000000002
 50
179.99999999999983
 51
269.99999999999977
  0
LINE
  8
_0-1_計細線
  6
CONTINUOUS
 62
    3
 10
1011.300000000018
 20
674.15999999999997
 11
1011.300000000018
 21
672.7600000000001
  0
ARC
  8
_0-1_計細線
  6
CONTINUOUS
 62
    3
 10
1022.1999999978108
 20
672.7600000000001
 40
0.5000000000000002
 50
269.99999999999977
 51
359.99999999999966
  0
LINE
  8
_0-1_計細線
  6
CONTINUOUS
 62
    3
 10
1022.6999999978112
 20
674.15999999999997
 11
1022.6999999978112
 21
672.7600000000001
  0
ARC
  8
_0-1_計細線
  6
CONTINUOUS
 62
    3
 10
1014.3000000000179
 20
671.26000000000022
 40
1.0000000000000004
 50
0
 51
89.999999999999915
  0
LINE
  8
_0-1_計細線
  6
CONTINUOUS
 62
    3
 10
1014.3000000000179
 20
672.25999999999976
 11
1011.8000000000181
 21
672.25999999999976
  0
ARC
  8
_0-1_計細線
  6
CONTINUOUS
 62
    3
 10
1019.7000000000179
 20
671.26000000000022
 40
1.0000000000000004
 50
89.999999999999915
 51
179.99999999999983
  0
LINE
  8
_0-1_計細線
  6
CONTINUOUS
 62
    3
 10
1019.6999999978107
 20
672.25999999999976
 11
1022.1999999978108
 21
672.25999999999976
  0
LINE
  8
_0-1_計細線
  6
CONTINUOUS
 62
    3
 10
1019.4999999989142
 20
676.15999999999963
 11
1014.4999999989143
 21
676.15999999999963
  0
LINE
  8
_0-1_計細線
  6
CONTINUOUS
 62
    3
 10
1015.2999999989147
 20
656.15999999999997
 11
1015.3000000000179
 21
671.26000000000022
  0
LINE
  8
_0-1_計細線
  6
CONTINUOUS
 62
    3
 10
1018.6999999989143
 20
656.15999999999997
 11
1018.7000000000182
 21
671.26000000000022
  0
LINE
  8
_0-1_計細線
  6
CONTINUOUS
 62
    3
 10
1018.6999999989143
 20
656.15999999999997
 11
1015.2999999989147
 21
656.15999999999997
  0
ARC
  8
_0-1_計細線
  6
CONTINUOUS
 62
    3
 10
1165.3000000027223
 20
674.15999999999997
 40
1.0000000000000004
 50
89.999999999999915
 51
179.99999999999983
  0
ARC
  8
_0-1_計細線
  6
CONTINUOUS
 62
    3
 10
1165.7679491940498
 20
676.15999999999963
 40
1.0000000000000004
 50
269.99999999999977
 51
330.00000000001364
  0
ARC
  8
_0-1_計細線
  6
CONTINUOUS
 62
    3
 10
1167.5000000016189
 20
675.15999999999974
 40
1.0000000000000004
 50
89.999999999999915
 51
150.00000000000273
  0
LINE
  8
_0-1_計細線
  6
CONTINUOUS
 62
    3
 10
1165.3000000027223
 20
675.15999999999974
 11
1165.7679491940498
 21
675.15999999999974
  0
ARC
  8
_0-1_計細線
  6
CONTINUOUS
 62
    3
 10
1174.7000000005155
 20
674.15999999999997
 40
1.0000000000000004
 50
0
 51
89.999999999999915
  0
ARC
  8
_0-1_計細線
  6
CONTINUOUS
 62
    3
 10
1174.2320508091875
 20
676.15999999999963
 40
1.0000000000000004
 50
209.99999999998565
 51
269.99999999999977
  0
ARC
  8
_0-1_計細線
  6
CONTINUOUS
 62
    3
 10
1172.5000000016187
 20
675.15999999999974
 40
1.0000000000000004
 50
30.000000000003801
 51
89.999999999986969
  0
LINE
  8
_0-1_計細線
  6
CONTINUOUS
 62
    3
 10
1174.7000000005155
 20
675.15999999999974
 11
1174.2320508091875
 21
675.15999999999974
  0
ARC
  8
_0-1_計細線
  6
CONTINUOUS
 62
    3
 10
1164.8000000027223
 20
672.7600000000001
 40
0.5000000000000002
 50
179.99999999999983
 51
269.99999999999977
  0
LINE
  8
_0-1_計細線
  6
CONTINUOUS
 62
    3
 10
1164.3000000027223
 20
674.15999999999997
 11
1164.3000000027223
 21
672.7600000000001
  0
ARC
  8
_0-1_計細線
  6
CONTINUOUS
 62
    3
 10
1175.2000000005155
 20
672.7600000000001
 40
0.5000000000000002
 50
269.99999999999977
 51
359.99999999999966
  0
LINE
  8
_0-1_計細線
  6
CONTINUOUS
 62
    3
 10
1175.700000000515
 20
674.15999999999997
 11
1175.700000000515
 21
672.7600000000001
  0
ARC
  8
_0-1_計細線
  6
CONTINUOUS
 62
    3
 10
1167.3000000027223
 20
671.26000000000022
 40
1.0000000000000004
 50
0
 51
89.999999999999915
  0
LINE
  8
_0-1_計細線
  6
CONTINUOUS
 62
    3
 10
1167.3000000027223
 20
672.25999999999976
 11
1164.8000000027223
 21
672.25999999999976
  0
ARC
  8
_0-1_計細線
  6
CONTINUOUS
 62
    3
 10
1172.7000000027224
 20
671.26000000000022
 40
1.0000000000000004
 50
89.999999999999915
 51
179.99999999999983
  0
LINE
  8
_0-1_計細線
  6
CONTINUOUS
 62
    3
 10
1172.700000000515
 20
672.25999999999976
 11
1175.2000000005155
 21
672.25999999999976
  0
LINE
  8
_0-1_計細線
  6
CONTINUOUS
 62
    3
 10
1172.5000000016187
 20
676.15999999999963
 11
1167.5000000016189
 21
676.15999999999963
  0
LINE
  8
_0-1_計細線
  6
CONTINUOUS
 62
    3
 10
1168.3000000016186
 20
656.15999999999997
 11
1168.3000000027223
 21
671.26000000000022
  0
LINE
  8
_0-1_計細線
  6
CONTINUOUS
 62
    3
 10
1171.7000000016187
 20
656.15999999999997
 11
1171.7000000027224
 21
671.26000000000022
  0
LINE
  8
_0-1_計細線
  6
CONTINUOUS
 62
    3
 10
1171.7000000016187
 20
656.15999999999997
 11
1168.3000000016186
 21
656.15999999999997
  0
ARC
  8
_0-1_計細線
  6
CONTINUOUS
 62
    3
 10
1148.3000000023603
 20
674.15999999999997
 40
1.0000000000000004
 50
89.999999999999915
 51
179.99999999999983
  0
ARC
  8
_0-1_計細線
  6
CONTINUOUS
 62
    3
 10
1148.7679491936879
 20
676.15999999999963
 40
1.0000000000000004
 50
269.99999999999977
 51
330.00000000000711
  0
ARC
  8
_0-1_計細線
  6
CONTINUOUS
 62
    3
 10
1150.5000000012567
 20
675.15999999999974
 40
1.0000000000000004
 50
89.999999999999915
 51
150.00000000000273
  0
LINE
  8
_0-1_計細線
  6
CONTINUOUS
 62
    3
 10
1148.3000000023603
 20
675.15999999999974
 11
1148.7679491936879
 21
675.15999999999974
  0
ARC
  8
_0-1_計細線
  6
CONTINUOUS
 62
    3
 10
1157.7000000001533
 20
674.15999999999997
 40
1.0000000000000004
 50
0
 51
89.999999999999915
  0
ARC
  8
_0-1_計細線
  6
CONTINUOUS
 62
    3
 10
1157.232050808826
 20
676.15999999999963
 40
1.0000000000000004
 50
209.99999999998565
 51
269.99999999999977
  0
ARC
  8
_0-1_計細線
  6
CONTINUOUS
 62
    3
 10
1155.5000000012569
 20
675.15999999999974
 40
1.0000000000000004
 50
29.999999999997289
 51
89.999999999999929
  0
LINE
  8
_0-1_計細線
  6
CONTINUOUS
 62
    3
 10
1157.7000000001533
 20
675.15999999999974
 11
1157.232050808826
 21
675.15999999999974
  0
ARC
  8
_0-1_計細線
  6
CONTINUOUS
 62
    3
 10
1147.8000000023608
 20
672.7600000000001
 40
0.5000000000000002
 50
179.99999999999983
 51
269.99999999999977
  0
LINE
  8
_0-1_計細線
  6
CONTINUOUS
 62
    3
 10
1147.3000000023603
 20
674.15999999999997
 11
1147.3000000023603
 21
672.7600000000001
  0
ARC
  8
_0-1_計細線
  6
CONTINUOUS
 62
    3
 10
1158.2000000001535
 20
672.7600000000001
 40
0.5000000000000002
 50
269.99999999999977
 51
359.99999999999966
  0
LINE
  8
_0-1_計細線
  6
CONTINUOUS
 62
    3
 10
1158.7000000001535
 20
674.15999999999997
 11
1158.7000000001535
 21
672.7600000000001
  0
ARC
  8
_0-1_計細線
  6
CONTINUOUS
 62
    3
 10
1150.3000000023603
 20
671.26000000000022
 40
1.0000000000000004
 50
0
 51
89.999999999999915
  0
LINE
  8
_0-1_計細線
  6
CONTINUOUS
 62
    3
 10
1150.3000000023603
 20
672.25999999999976
 11
1147.8000000023608
 21
672.25999999999976
  0
ARC
  8
_0-1_計細線
  6
CONTINUOUS
 62
    3
 10
1155.7000000023609
 20
671.26000000000022
 40
1.0000000000000004
 50
89.999999999999915
 51
179.99999999999983
  0
LINE
  8
_0-1_計細線
  6
CONTINUOUS
 62
    3
 10
1155.7000000001535
 20
672.25999999999976
 11
1158.2000000001535
 21
672.25999999999976
  0
LINE
  8
_0-1_計細線
  6
CONTINUOUS
 62
    3
 10
1155.5000000012569
 20
676.15999999999963
 11
1150.5000000012567
 21
676.15999999999963
  0
LINE
  8
_0-1_計細線
  6
CONTINUOUS
 62
    3
 10
1151.3000000012571
 20
656.15999999999997
 11
1151.3000000023608
 21
671.26000000000022
  0
LINE
  8
_0-1_計細線
  6
CONTINUOUS
 62
    3
 10
1154.7000000012572
 20
656.15999999999997
 11
1154.7000000023609
 21
671.26000000000022
  0
LINE
  8
_0-1_計細線
  6
CONTINUOUS
 62
    3
 10
1154.7000000012572
 20
656.15999999999997
 11
1151.3000000012571
 21
656.15999999999997
  0
ARC
  8
_0-1_計細線
  6
CONTINUOUS
 62
    3
 10
1029.3000000000179
 20
674.15999999999997
 40
1.0000000000000004
 50
89.999999999999915
 51
179.99999999999983
  0
ARC
  8
_0-1_計細線
  6
CONTINUOUS
 62
    3
 10
1029.7679491913455
 20
676.15999999999963
 40
1.0000000000000004
 50
269.99999999999977
 51
330.00000000002012
  0
ARC
  8
_0-1_計細線
  6
CONTINUOUS
 62
    3
 10
1031.4999999989147
 20
675.15999999999974
 40
1.0000000000000004
 50
89.999999999999915
 51
150.00000000000273
  0
LINE
  8
_0-1_計細線
  6
CONTINUOUS
 62
    3
 10
1029.3000000000179
 20
675.15999999999974
 11
1029.7679491913455
 21
675.15999999999974
  0
ARC
  8
_0-1_計細線
  6
CONTINUOUS
 62
    3
 10
1038.6999999978107
 20
674.15999999999997
 40
1.0000000000000004
 50
0
 51
89.999999999999915
  0
ARC
  8
_0-1_計細線
  6
CONTINUOUS
 62
    3
 10
1038.2320508064834
 20
676.15999999999963
 40
1.0000000000000004
 50
209.99999999999216
 51
269.99999999999977
  0
ARC
  8
_0-1_計細線
  6
CONTINUOUS
 62
    3
 10
1036.4999999989145
 20
675.15999999999974
 40
1.0000000000000004
 50
29.999999999997289
 51
89.999999999999929
  0
LINE
  8
_0-1_計細線
  6
CONTINUOUS
 62
    3
 10
1038.6999999978107
 20
675.15999999999974
 11
1038.2320508064834
 21
675.15999999999974
  0
ARC
  8
_0-1_計細線
  6
CONTINUOUS
 62
    3
 10
1028.8000000000181
 20
672.7600000000001
 40
0.5000000000000002
 50
179.99999999999983
 51
269.99999999999977
  0
LINE
  8
_0-1_計細線
  6
CONTINUOUS
 62
    3
 10
1028.3000000000184
 20
674.15999999999997
 11
1028.3000000000184
 21
672.7600000000001
  0
ARC
  8
_0-1_計細線
  6
CONTINUOUS
 62
    3
 10
1039.1999999978111
 20
672.7600000000001
 40
0.5000000000000002
 50
269.99999999999977
 51
359.99999999999966
  0
LINE
  8
_0-1_計細線
  6
CONTINUOUS
 62
    3
 10
1039.6999999978111
 20
674.15999999999997
 11
1039.6999999978111
 21
672.7600000000001
  0
ARC
  8
_0-1_計細線
  6
CONTINUOUS
 62
    3
 10
1031.3000000000184
 20
671.26000000000022
 40
1.0000000000000004
 50
0
 51
89.999999999999915
  0
LINE
  8
_0-1_計細線
  6
CONTINUOUS
 62
    3
 10
1031.3000000000184
 20
672.25999999999976
 11
1028.8000000000181
 21
672.25999999999976
  0
ARC
  8
_0-1_計細線
  6
CONTINUOUS
 62
    3
 10
1036.700000000018
 20
671.26000000000022
 40
1.0000000000000004
 50
89.999999999999915
 51
179.99999999999983
  0
LINE
  8
_0-1_計細線
  6
CONTINUOUS
 62
    3
 10
1036.6999999978109
 20
672.25999999999976
 11
1039.1999999978111
 21
672.25999999999976
  0
LINE
  8
_0-1_計細線
  6
CONTINUOUS
 62
    3
 10
1036.4999999989145
 20
676.15999999999963
 11
1031.4999999989147
 21
676.15999999999963
  0
LINE
  8
_0-1_計細線
  6
CONTINUOUS
 62
    3
 10
1032.2999999989145
 20
656.15999999999997
 11
1032.3000000000179
 21
671.26000000000022
  0
LINE
  8
_0-1_計細線
  6
CONTINUOUS
 62
    3
 10
1035.6999999989143
 20
656.15999999999997
 11
1035.700000000018
 21
671.26000000000022
  0
LINE
  8
_0-1_計細線
  6
CONTINUOUS
 62
    3
 10
1035.6999999989143
 20
656.15999999999997
 11
1032.2999999989145
 21
656.15999999999997
  0
ARC
  8
_0-1_計細線
  6
CONTINUOUS
 62
    3
 10
1046.3000000003804
 20
674.15999999999997
 40
1.0000000000000004
 50
89.999999999999915
 51
179.99999999999983
  0
ARC
  8
_0-1_計細線
  6
CONTINUOUS
 62
    3
 10
1046.7679491917074
 20
676.15999999999963
 40
1.0000000000000004
 50
269.99999999999977
 51
330.00000000001364
  0
ARC
  8
_0-1_計細線
  6
CONTINUOUS
 62
    3
 10
1048.4999999992765
 20
675.15999999999974
 40
1.0000000000000004
 50
89.999999999999915
 51
150.00000000000273
  0
LINE
  8
_0-1_計細線
  6
CONTINUOUS
 62
    3
 10
1046.3000000003804
 20
675.15999999999974
 11
1046.7679491917074
 21
675.15999999999974
  0
ARC
  8
_0-1_計細線
  6
CONTINUOUS
 62
    3
 10
1055.6999999981726
 20
674.15999999999997
 40
1.0000000000000004
 50
0
 51
89.999999999999915
  0
ARC
  8
_0-1_計細線
  6
CONTINUOUS
 62
    3
 10
1055.2320508068451
 20
676.15999999999963
 40
1.0000000000000004
 50
209.99999999998565
 51
269.99999999999977
  0
ARC
  8
_0-1_計細線
  6
CONTINUOUS
 62
    3
 10
1053.4999999992767
 20
675.15999999999974
 40
1.0000000000000004
 50
30.000000000016829
 51
89.999999999999929
  0
LINE
  8
_0-1_計細線
  6
CONTINUOUS
 62
    3
 10
1055.6999999981726
 20
675.15999999999974
 11
1055.2320508068451
 21
675.15999999999974
  0
ARC
  8
_0-1_計細線
  6
CONTINUOUS
 62
    3
 10
1045.8000000003804
 20
672.7600000000001
 40
0.5000000000000002
 50
179.99999999999983
 51
269.99999999999977
  0
LINE
  8
_0-1_計細線
  6
CONTINUOUS
 62
    3
 10
1045.3000000003799
 20
674.15999999999997
 11
1045.3000000003799
 21
672.7600000000001
  0
ARC
  8
_0-1_計細線
  6
CONTINUOUS
 62
    3
 10
1056.1999999981726
 20
672.7600000000001
 40
0.5000000000000002
 50
269.99999999999977
 51
359.99999999999966
  0
LINE
  8
_0-1_計細線
  6
CONTINUOUS
 62
    3
 10
1056.6999999981726
 20
674.15999999999997
 11
1056.6999999981726
 21
672.7600000000001
  0
ARC
  8
_0-1_計細線
  6
CONTINUOUS
 62
    3
 10
1048.3000000003799
 20
671.26000000000022
 40
1.0000000000000004
 50
0
 51
89.999999999999915
  0
LINE
  8
_0-1_計細線
  6
CONTINUOUS
 62
    3
 10
1048.3000000003799
 20
672.25999999999976
 11
1045.8000000003804
 21
672.25999999999976
  0
ARC
  8
_0-1_計細線
  6
CONTINUOUS
 62
    3
 10
1053.70000000038
 20
671.26000000000022
 40
1.0000000000000004
 50
89.999999999999915
 51
179.99999999999983
  0
LINE
  8
_0-1_計細線
  6
CONTINUOUS
 62
    3
 10
1053.6999999981729
 20
672.25999999999976
 11
1056.1999999981726
 21
672.25999999999976
  0
LINE
  8
_0-1_計細線
  6
CONTINUOUS
 62
    3
 10
1053.4999999992767
 20
676.15999999999963
 11
1048.4999999992765
 21
676.15999999999963
  0
LINE
  8
_0-1_計細線
  6
CONTINUOUS
 62
    3
 10
1049.2999999992762
 20
656.15999999999997
 11
1049.3000000003801
 21
671.26000000000022
  0
LINE
  8
_0-1_計細線
  6
CONTINUOUS
 62
    3
 10
1052.6999999992763
 20
656.15999999999997
 11
1052.70000000038
 21
671.26000000000022
  0
LINE
  8
_0-1_計細線
  6
CONTINUOUS
 62
    3
 10
1052.6999999992763
 20
656.15999999999997
 11
1049.2999999992762
 21
656.15999999999997
  0
ARC
  8
_0-1_計細線
  6
CONTINUOUS
 62
    3
 10
1063.3000000007416
 20
674.15999999999997
 40
1.0000000000000004
 50
89.999999999999915
 51
179.99999999999983
  0
ARC
  8
_0-1_計細線
  6
CONTINUOUS
 62
    3
 10
1063.7679491920696
 20
676.15999999999963
 40
1.0000000000000004
 50
269.99999999999977
 51
330.00000000000711
  0
ARC
  8
_0-1_計細線
  6
CONTINUOUS
 62
    3
 10
1065.4999999996385
 20
675.15999999999974
 40
1.0000000000000004
 50
89.999999999999915
 51
150.00000000000273
  0
LINE
  8
_0-1_計細線
  6
CONTINUOUS
 62
    3
 10
1063.3000000007416
 20
675.15999999999974
 11
1063.7679491920696
 21
675.15999999999974
  0
ARC
  8
_0-1_計細線
  6
CONTINUOUS
 62
    3
 10
1072.6999999985346
 20
674.15999999999997
 40
1.0000000000000004
 50
0
 51
89.999999999999915
  0
ARC
  8
_0-1_計細線
  6
CONTINUOUS
 62
    3
 10
1072.2320508072071
 20
676.15999999999963
 40
1.0000000000000004
 50
209.99999999999216
 51
269.99999999999977
  0
ARC
  8
_0-1_計細線
  6
CONTINUOUS
 62
    3
 10
1070.4999999996382
 20
675.15999999999974
 40
1.0000000000000004
 50
29.999999999997289
 51
89.999999999986969
  0
LINE
  8
_0-1_計細線
  6
CONTINUOUS
 62
    3
 10
1072.6999999985346
 20
675.15999999999974
 11
1072.2320508072071
 21
675.15999999999974
  0
ARC
  8
_0-1_計細線
  6
CONTINUOUS
 62
    3
 10
1062.8000000007419
 20
672.7600000000001
 40
0.5000000000000002
 50
179.99999999999983
 51
269.99999999999977
  0
LINE
  8
_0-1_計細線
  6
CONTINUOUS
 62
    3
 10
1062.3000000007421
 20
674.15999999999997
 11
1062.3000000007421
 21
672.7600000000001
  0
ARC
  8
_0-1_計細線
  6
CONTINUOUS
 62
    3
 10
1073.1999999985348
 20
672.7600000000001
 40
0.5000000000000002
 50
269.99999999999977
 51
359.99999999999966
  0
LINE
  8
_0-1_計細線
  6
CONTINUOUS
 62
    3
 10
1073.6999999985346
 20
674.15999999999997
 11
1073.6999999985346
 21
672.7600000000001
  0
ARC
  8
_0-1_計細線
  6
CONTINUOUS
 62
    3
 10
1065.3000000007421
 20
671.26000000000022
 40
1.0000000000000004
 50
0
 51
89.999999999999915
  0
LINE
  8
_0-1_計細線
  6
CONTINUOUS
 62
    3
 10
1065.3000000007421
 20
672.25999999999976
 11
1062.8000000007419
 21
672.25999999999976
  0
ARC
  8
_0-1_計細線
  6
CONTINUOUS
 62
    3
 10
1070.700000000742
 20
671.26000000000022
 40
1.0000000000000004
 50
89.999999999999915
 51
179.99999999999983
  0
LINE
  8
_0-1_計細線
  6
CONTINUOUS
 62
    3
 10
1070.6999999985346
 20
672.25999999999976
 11
1073.1999999985348
 21
672.25999999999976
  0
LINE
  8
_0-1_計細線
  6
CONTINUOUS
 62
    3
 10
1070.4999999996382
 20
676.15999999999963
 11
1065.4999999996385
 21
676.15999999999963
  0
LINE
  8
_0-1_計細線
  6
CONTINUOUS
 62
    3
 10
1066.2999999996382
 20
656.15999999999997
 11
1066.3000000007419
 21
671.26000000000022
  0
LINE
  8
_0-1_計細線
  6
CONTINUOUS
 62
    3
 10
1069.6999999996385
 20
656.15999999999997
 11
1069.700000000742
 21
671.26000000000022
  0
LINE
  8
_0-1_計細線
  6
CONTINUOUS
 62
    3
 10
1069.6999999996385
 20
656.15999999999997
 11
1066.2999999996382
 21
656.15999999999997
  0
ARC
  8
_0-1_計細線
  6
CONTINUOUS
 62
    3
 10
1097.3000000014654
 20
674.15999999999997
 40
1.0000000000000004
 50
89.999999999999915
 51
179.99999999999983
  0
ARC
  8
_0-1_計細線
  6
CONTINUOUS
 62
    3
 10
1097.7679491927929
 20
676.15999999999963
 40
1.0000000000000004
 50
269.99999999999977
 51
330.00000000000711
  0
ARC
  8
_0-1_計細線
  6
CONTINUOUS
 62
    3
 10
1099.500000000362
 20
675.15999999999974
 40
1.0000000000000004
 50
89.999999999999915
 51
150.00000000000924
  0
LINE
  8
_0-1_計細線
  6
CONTINUOUS
 62
    3
 10
1097.3000000014654
 20
675.15999999999974
 11
1097.7679491927929
 21
675.15999999999974
  0
ARC
  8
_0-1_計細線
  6
CONTINUOUS
 62
    3
 10
1106.6999999992584
 20
674.15999999999997
 40
1.0000000000000004
 50
0
 51
89.999999999999915
  0
ARC
  8
_0-1_計細線
  6
CONTINUOUS
 62
    3
 10
1106.2320508079304
 20
676.15999999999963
 40
1.0000000000000004
 50
209.99999999999216
 51
269.99999999999977
  0
ARC
  8
_0-1_計細線
  6
CONTINUOUS
 62
    3
 10
1104.5000000003615
 20
675.15999999999974
 40
1.0000000000000004
 50
29.999999999997289
 51
89.99999999996092
  0
LINE
  8
_0-1_計細線
  6
CONTINUOUS
 62
    3
 10
1106.6999999992584
 20
675.15999999999974
 11
1106.2320508079304
 21
675.15999999999974
  0
ARC
  8
_0-1_計細線
  6
CONTINUOUS
 62
    3
 10
1096.8000000014652
 20
672.7600000000001
 40
0.5000000000000002
 50
179.99999999999983
 51
269.99999999999977
  0
LINE
  8
_0-1_計細線
  6
CONTINUOUS
 62
    3
 10
1096.3000000014654
 20
674.15999999999997
 11
1096.3000000014654
 21
672.7600000000001
  0
ARC
  8
_0-1_計細線
  6
CONTINUOUS
 62
    3
 10
1107.1999999992581
 20
672.7600000000001
 40
0.5000000000000002
 50
269.99999999999977
 51
359.99999999999966
  0
LINE
  8
_0-1_計細線
  6
CONTINUOUS
 62
    3
 10
1107.6999999992581
 20
674.15999999999997
 11
1107.6999999992581
 21
672.7600000000001
  0
ARC
  8
_0-1_計細線
  6
CONTINUOUS
 62
    3
 10
1099.3000000014654
 20
671.26000000000022
 40
1.0000000000000004
 50
0
 51
89.999999999999915
  0
LINE
  8
_0-1_計細線
  6
CONTINUOUS
 62
    3
 10
1099.3000000014654
 20
672.25999999999976
 11
1096.8000000014652
 21
672.25999999999976
  0
ARC
  8
_0-1_計細線
  6
CONTINUOUS
 62
    3
 10
1104.7000000014652
 20
671.26000000000022
 40
1.0000000000000004
 50
89.999999999999915
 51
179.99999999999983
  0
LINE
  8
_0-1_計細線
  6
CONTINUOUS
 62
    3
 10
1104.6999999992579
 20
672.25999999999976
 11
1107.1999999992581
 21
672.25999999999976
  0
LINE
  8
_0-1_計細線
  6
CONTINUOUS
 62
    3
 10
1104.5000000003615
 20
676.15999999999963
 11
1099.500000000362
 21
676.15999999999963
  0
LINE
  8
_0-1_計細線
  6
CONTINUOUS
 62
    3
 10
1100.3000000003615
 20
656.15999999999997
 11
1100.3000000014658
 21
671.26000000000022
  0
LINE
  8
_0-1_計細線
  6
CONTINUOUS
 62
    3
 10
1103.7000000003618
 20
656.15999999999997
 11
1103.7000000014655
 21
671.26000000000022
  0
LINE
  8
_0-1_計細線
  6
CONTINUOUS
 62
    3
 10
1103.7000000003618
 20
656.15999999999997
 11
1100.3000000003615
 21
656.15999999999997
  0
ARC
  8
_0-1_計細線
  6
CONTINUOUS
 62
    3
 10
1114.3000000018271
 20
674.15999999999997
 40
1.0000000000000004
 50
89.999999999999915
 51
179.99999999999983
  0
ARC
  8
_0-1_計細線
  6
CONTINUOUS
 62
    3
 10
1114.7679491931544
 20
676.15999999999963
 40
1.0000000000000004
 50
269.99999999999977
 51
330.00000000001364
  0
ARC
  8
_0-1_計細線
  6
CONTINUOUS
 62
    3
 10
1116.5000000007235
 20
675.15999999999974
 40
1.0000000000000004
 50
89.999999999999915
 51
149.99999999999622
  0
LINE
  8
_0-1_計細線
  6
CONTINUOUS
 62
    3
 10
1114.3000000018271
 20
675.15999999999974
 11
1114.7679491931544
 21
675.15999999999974
  0
ARC
  8
_0-1_計細線
  6
CONTINUOUS
 62
    3
 10
1123.6999999996199
 20
674.15999999999997
 40
1.0000000000000004
 50
0
 51
89.999999999999915
  0
ARC
  8
_0-1_計細線
  6
CONTINUOUS
 62
    3
 10
1123.2320508082926
 20
676.15999999999963
 40
1.0000000000000004
 50
209.9999999999726
 51
269.99999999999977
  0
ARC
  8
_0-1_計細線
  6
CONTINUOUS
 62
    3
 10
1121.5000000007237
 20
675.15999999999974
 40
1.0000000000000004
 50
30.000000000016829
 51
89.999999999999929
  0
LINE
  8
_0-1_計細線
  6
CONTINUOUS
 62
    3
 10
1123.6999999996199
 20
675.15999999999974
 11
1123.2320508082926
 21
675.15999999999974
  0
ARC
  8
_0-1_計細線
  6
CONTINUOUS
 62
    3
 10
1113.8000000018274
 20
672.7600000000001
 40
0.5000000000000002
 50
179.99999999999983
 51
269.99999999999977
  0
LINE
  8
_0-1_計細線
  6
CONTINUOUS
 62
    3
 10
1113.3000000018269
 20
674.15999999999997
 11
1113.3000000018269
 21
672.7600000000001
  0
ARC
  8
_0-1_計細線
  6
CONTINUOUS
 62
    3
 10
1124.1999999996199
 20
672.7600000000001
 40
0.5000000000000002
 50
269.99999999999977
 51
359.99999999999966
  0
LINE
  8
_0-1_計細線
  6
CONTINUOUS
 62
    3
 10
1124.6999999996201
 20
674.15999999999997
 11
1124.6999999996201
 21
672.7600000000001
  0
ARC
  8
_0-1_計細線
  6
CONTINUOUS
 62
    3
 10
1116.3000000018269
 20
671.26000000000022
 40
1.0000000000000004
 50
0
 51
89.999999999999915
  0
LINE
  8
_0-1_計細線
  6
CONTINUOUS
 62
    3
 10
1116.3000000018269
 20
672.25999999999976
 11
1113.8000000018274
 21
672.25999999999976
  0
ARC
  8
_0-1_計細線
  6
CONTINUOUS
 62
    3
 10
1121.7000000018274
 20
671.26000000000022
 40
1.0000000000000004
 50
89.999999999999915
 51
179.99999999999983
  0
LINE
  8
_0-1_計細線
  6
CONTINUOUS
 62
    3
 10
1121.6999999996201
 20
672.25999999999976
 11
1124.1999999996199
 21
672.25999999999976
  0
LINE
  8
_0-1_計細線
  6
CONTINUOUS
 62
    3
 10
1121.5000000007237
 20
676.15999999999963
 11
1116.5000000007235
 21
676.15999999999963
  0
LINE
  8
_0-1_計細線
  6
CONTINUOUS
 62
    3
 10
1117.3000000007237
 20
656.15999999999997
 11
1117.3000000018271
 21
671.26000000000022
  0
LINE
  8
_0-1_計細線
  6
CONTINUOUS
 62
    3
 10
1120.7000000007233
 20
656.15999999999997
 11
1120.7000000018272
 21
671.26000000000022
  0
LINE
  8
_0-1_計細線
  6
CONTINUOUS
 62
    3
 10
1120.7000000007233
 20
656.15999999999997
 11
1117.3000000007237
 21
656.15999999999997
  0
ARC
  8
_0-1_計細線
  6
CONTINUOUS
 62
    3
 10
1131.3000000021887
 20
674.15999999999997
 40
1.0000000000000004
 50
89.999999999999915
 51
179.99999999999983
  0
ARC
  8
_0-1_計細線
  6
CONTINUOUS
 62
    3
 10
1131.7679491935166
 20
676.15999999999963
 40
1.0000000000000004
 50
269.99999999999977
 51
330.00000000001364
  0
ARC
  8
_0-1_計細線
  6
CONTINUOUS
 62
    3
 10
1133.500000001085
 20
675.15999999999974
 40
1.0000000000000004
 50
89.999999999999915
 51
149.9999999999832
  0
LINE
  8
_0-1_計細線
  6
CONTINUOUS
 62
    3
 10
1131.3000000021887
 20
675.15999999999974
 11
1131.7679491935166
 21
675.15999999999974
  0
ARC
  8
_0-1_計細線
  6
CONTINUOUS
 62
    3
 10
1140.6999999999816
 20
674.15999999999997
 40
1.0000000000000004
 50
0
 51
89.999999999999915
  0
ARC
  8
_0-1_計細線
  6
CONTINUOUS
 62
    3
 10
1140.2320508086541
 20
676.15999999999963
 40
1.0000000000000004
 50
209.99999999999216
 51
269.99999999999977
  0
ARC
  8
_0-1_計細線
  6
CONTINUOUS
 62
    3
 10
1138.5000000010855
 20
675.15999999999974
 40
1.0000000000000004
 50
29.999999999997289
 51
89.999999999999929
  0
LINE
  8
_0-1_計細線
  6
CONTINUOUS
 62
    3
 10
1140.6999999999816
 20
675.15999999999974
 11
1140.2320508086541
 21
675.15999999999974
  0
ARC
  8
_0-1_計細線
  6
CONTINUOUS
 62
    3
 10
1130.8000000021889
 20
672.7600000000001
 40
0.5000000000000002
 50
179.99999999999983
 51
269.99999999999977
  0
LINE
  8
_0-1_計細線
  6
CONTINUOUS
 62
    3
 10
1130.3000000021891
 20
674.15999999999997
 11
1130.3000000021891
 21
672.7600000000001
  0
ARC
  8
_0-1_計細線
  6
CONTINUOUS
 62
    3
 10
1141.1999999999819
 20
672.7600000000001
 40
0.5000000000000002
 50
269.99999999999977
 51
359.99999999999966
  0
LINE
  8
_0-1_計細線
  6
CONTINUOUS
 62
    3
 10
1141.6999999999821
 20
674.15999999999997
 11
1141.6999999999821
 21
672.7600000000001
  0
ARC
  8
_0-1_計細線
  6
CONTINUOUS
 62
    3
 10
1133.3000000021891
 20
671.26000000000022
 40
1.0000000000000004
 50
0
 51
89.999999999999915
  0
LINE
  8
_0-1_計細線
  6
CONTINUOUS
 62
    3
 10
1133.3000000021891
 20
672.25999999999976
 11
1130.8000000021889
 21
672.25999999999976
  0
ARC
  8
_0-1_計細線
  6
CONTINUOUS
 62
    3
 10
1138.7000000021892
 20
671.26000000000022
 40
1.0000000000000004
 50
89.999999999999915
 51
179.99999999999983
  0
LINE
  8
_0-1_計細線
  6
CONTINUOUS
 62
    3
 10
1138.6999999999819
 20
672.25999999999976
 11
1141.1999999999819
 21
672.25999999999976
  0
LINE
  8
_0-1_計細線
  6
CONTINUOUS
 62
    3
 10
1138.5000000010855
 20
676.15999999999963
 11
1133.500000001085
 21
676.15999999999963
  0
LINE
  8
_0-1_計細線
  6
CONTINUOUS
 62
    3
 10
1134.3000000010854
 20
656.15999999999997
 11
1134.3000000021891
 21
671.26000000000022
  0
LINE
  8
_0-1_計細線
  6
CONTINUOUS
 62
    3
 10
1137.7000000010855
 20
656.15999999999997
 11
1137.700000002189
 21
671.26000000000022
  0
LINE
  8
_0-1_計細線
  6
CONTINUOUS
 62
    3
 10
1137.7000000010855
 20
656.15999999999997
 11
1134.3000000010854
 21
656.15999999999997
  0
ARC
  8
_0-1_計細線
  6
CONTINUOUS
 62
    3
 10
907.99999999999977
 20
656.16021900100668
 40
3.0000000000000004
 50
179.99999999999983
 51
269.99999999999977
  0
LINE
  8
_0-1_計細線
  6
CONTINUOUS
 62
    3
 10
905
 20
656.16021900100668
 11
905
 21
675.66021900100668
  0
LINE
  8
_0-1_計細線
  6
CONTINUOUS
 62
    3
 10
907.99999999999977
 20
653.16021900100668
 11
934.5
 21
653.16021900100668
  0
LINE
  8
_0-1_計細線
  6
CONTINUOUS
 62
    3
 10
935
 20
653.66021900100702
 11
934.5
 21
653.16021900100668
  0
LINE
  8
_0-1_計細線
  6
CONTINUOUS
 62
    3
 10
935
 20
655.66021900100679
 11
935
 21
653.66021900100702
  0
LINE
  8
_0-1_計細線
  6
CONTINUOUS
 62
    3
 10
934.5
 20
656.16021900100668
 11
935
 21
655.66021900100679
  0
LINE
  8
_0-1_計細線
  6
CONTINUOUS
 62
    3
 10
907.99999999999977
 20
656.16021900100668
 11
934.5
 21
656.16021900100668
  0
LINE
  8
_0-1_計細線
  6
CONTINUOUS
 62
    3
 10
905.49999999999977
 20
676.16021900100702
 11
905
 21
675.66021900100668
  0
LINE
  8
_0-1_計細線
  6
CONTINUOUS
 62
    3
 10
907.5
 20
676.16021900100702
 11
905.49999999999977
 21
676.16021900100702
  0
LINE
  8
_0-1_計細線
  6
CONTINUOUS
 62
    3
 10
907.99999999999977
 20
675.66021900100668
 11
907.5
 21
676.16021900100702
  0
LINE
  8
_0-1_計細線
  6
CONTINUOUS
 62
    3
 10
907.99999999999977
 20
656.16021900100668
 11
907.99999999999977
 21
675.66021900100668
  0
ARC
  8
_0-1_計細線
  6
CONTINUOUS
 62
    3
 10
1262
 20
656.16021900100668
 40
3.0000000000000004
 50
269.99999999999977
 51
359.99999999999966
  0
LINE
  8
_0-1_計細線
  6
CONTINUOUS
 62
    3
 10
1265
 20
656.16021900100668
 11
1265
 21
675.66021900100668
  0
LINE
  8
_0-1_計細線
  6
CONTINUOUS
 62
    3
 10
1262
 20
653.16021900100668
 11
1235.4999999999995
 21
653.16021900100668
  0
LINE
  8
_0-1_計細線
  6
CONTINUOUS
 62
    3
 10
1234.9999999999998
 20
653.66021900100702
 11
1235.4999999999995
 21
653.16021900100668
  0
LINE
  8
_0-1_計細線
  6
CONTINUOUS
 62
    3
 10
1234.9999999999998
 20
655.66021900100679
 11
1234.9999999999998
 21
653.66021900100702
  0
LINE
  8
_0-1_計細線
  6
CONTINUOUS
 62
    3
 10
1235.4999999999995
 20
656.16021900100668
 11
1234.9999999999998
 21
655.66021900100679
  0
LINE
  8
_0-1_計細線
  6
CONTINUOUS
 62
    3
 10
1262
 20
656.16021900100668
 11
1235.4999999999995
 21
656.16021900100668
  0
LINE
  8
_0-1_計細線
  6
CONTINUOUS
 62
    3
 10
1264.5000000000002
 20
676.16021900100702
 11
1265
 21
675.66021900100668
  0
LINE
  8
_0-1_計細線
  6
CONTINUOUS
 62
    3
 10
1262.5
 20
676.16021900100702
 11
1264.5000000000002
 21
676.16021900100702
  0
LINE
  8
_0-1_計細線
  6
CONTINUOUS
 62
    3
 10
1262
 20
675.66021900100668
 11
1262.5
 21
676.16021900100702
  0
LINE
  8
_0-1_計細線
  6
CONTINUOUS
 62
    3
 10
1262
 20
656.16021900100668
 11
1262
 21
675.66021900100668
  0
LINE
  8
_0-0_計極細
  6
CENTER1
 62
    2
 10
1267.313838877456
 20
664.95999999999992
 11
901.98853023548065
 21
664.95999999999992
  0
LINE
  8
_0-0_計極細
  6
CENTER1
 62
    2
 10
1085
 20
646.44872130973727
 11
1085
 21
684.5187213097405
  0
LINE
  8
_0-0_計極細
  6
CENTER1
 62
    2
 10
885.49999999999977
 20
603.19417483033487
 11
885.49999999999977
 21
637.17698790876182
  0
LINE
  8
_0-0_計極細
  6
CONTINUOUS
 62
    2
 10
880.99999999999977
 20
634.61155580999628
 11
880.99999999999977
 21
608.16021900100657
  0
LINE
  8
_0-0_計極細
  6
CONTINUOUS
 62
    2
 10
890
 20
634.61155580999628
 11
880.99999999999977
 21
634.61155580999628
  0
LINE
  8
_0-0_計極細
  6
CONTINUOUS
 62
    2
 10
890
 20
608.16021900100657
 11
890
 21
634.61155580999628
  0
LINE
  8
_0-0_計極細
  6
CENTER1
 62
    2
 10
874.3036083875478
 20
626.23567846802746
 11
912.72222067708697
 21
640.21890975904842
  0
LINE
  8
_0-0_計極細
  6
CONTINUOUS
 62
    2
 10
878.81595906770883
 20
623.08923969850855
 11
911.89056596191745
 21
635.12741211805644
  0
LINE
  8
_0-0_計極細
  6
CONTINUOUS
 62
    2
 10
875.73777777777764
 20
631.54647328558201
 11
908.81238467198682
 21
643.58464570512967
  0
LINE
  8
_0-0_計極細
  6
CONTINUOUS
 62
    2
 10
908.81238467198682
 20
643.58464570512967
 11
911.89056596191745
 21
635.12741211805644
  0
LINE
  8
_0-0_計極細
  6
CONTINUOUS
 62
    2
 10
878.81595906770883
 20
623.08923969850855
 11
875.73777777777764
 21
631.54647328558201
  0
CIRCLE
  8
_0-0_計極細
  6
CONTINUOUS
 62
    2
 10
887.10792145586868
 20
664.39485784359465
 40
1.0953188836088352
  0
LINE
  8
_0-0_計極細
  6
CONTINUOUS
 62
    2
 10
894.6988081934212
 20
669.16021899733039
 11
900
 21
674.46141080390908
  0
LINE
  8
_0-0_計極細
  6
CONTINUOUS
 62
    2
 10
881.97088612323705
 20
669.16021898850374
 11
888.97088613574044
 21
676.16021900100679
  0
LINE
  8
_0-0_計極細
  6
CONTINUOUS
 62
    2
 10
869.24296405305199
 20
669.16021897967698
 11
876.24296407438192
 21
676.16021900100702
  0
LINE
  8
_0-0_計極細
  6
CONTINUOUS
 62
    2
 10
856.51504198286773
 20
669.16021897085
 11
863.51504201302407
 21
676.16021900100702
  0
LINE
  8
_0-0_計極細
  6
CONTINUOUS
 62
    2
 10
846.49335171293103
 20
671.86645076227148
 11
850.78711995166623
 21
676.16021900100679
  0
LINE
  8
_0-0_計極細
  6
DASHED2
 62
    2
 10
888.33484715832913
 20
669.16021899291695
 11
895.33484716641919
 21
676.16021900100702
  0
LINE
  8
_0-0_計極細
  6
DASHED2
 62
    2
 10
875.60692508814464
 20
669.16021898409031
 11
882.60692510506101
 21
676.16021900100702
  0
LINE
  8
_0-0_計極細
  6
DASHED2
 62
    2
 10
862.87900301796014
 20
669.16021897526366
 11
869.87900304370316
 21
676.16021900100702
  0
LINE
  8
_0-0_計極細
  6
DASHED2
 62
    2
 10
850.15108094777497
 20
669.16021896643701
 11
857.15108098234509
 21
676.16021900100702
  0
LINE
  8
_0-0_計極細
  6
CONTINUOUS
 62
    2
 10
904.88114584618427
 20
669.16021900100691
 11
904.99999999999989
 21
669.27907315482241
  0
LINE
  8
_0-0_計極細
  6
CONTINUOUS
 62
    2
 10
902.33556143391286
 20
669.16021900100691
 11
905
 21
671.82465756709394
  0
LINE
  8
_0-0_計極細
  6
CONTINUOUS
 62
    2
 10
900
 20
669.37024197936557
 11
905
 21
674.37024197936557
  0
LINE
  8
_0-0_計極細
  6
CONTINUOUS
 62
    2
 10
900
 20
671.9158263916371
 11
904.24439260936936
 21
676.16021900100702
  0
LINE
  8
_0-0_計極細
  6
CONTINUOUS
 62
    2
 10
900
 20
674.46141080390908
 11
901.69880819709817
 21
676.16021900100702
  0
LINE
  8
_0-0_計極細
  6
CONTINUOUS
 62
    2
 10
905
 20
674.79163887765185
 11
903.63141987664471
 21
676.16021900100702
  0
LINE
  8
_0-0_計極細
  6
CONTINUOUS
 62
    2
 10
905
 20
672.24605446537998
 11
901.0858354643733
 21
676.16021900100702
  0
LINE
  8
_0-0_計極細
  6
CONTINUOUS
 62
    2
 10
900
 20
674.7004700531088
 11
905
 21
669.70047005310846
  0
LINE
  8
_0-0_計極細
  6
CONTINUOUS
 62
    2
 10
900
 20
672.15488564083682
 11
902.99466663983014
 21
669.16021900100691
  0
LINE
  8
_0-0_計極細
  6
CONTINUOUS
 62
    2
 10
900
 20
669.60930122856541
 11
900.44908222755851
 21
669.16021900100691
  0
LINE
  8
_0-0_計極細
  6
CONTINUOUS
 62
    2
 10
905
 20
675.66021900100668
 11
905
 21
676.16021900100702
  0
LINE
  8
_0-0_計極細
  6
CONTINUOUS
 62
    2
 10
905
 20
676.16021900100702
 11
900
 21
676.16021900100702
  0
LINE
  8
_0-0_計極細
  6
CONTINUOUS
 62
    2
 10
905
 20
669.16021900100691
 11
846.49335171293103
 21
669.16021900100691
  0
LINE
  8
_0-0_計極細
  6
CONTINUOUS
 62
    2
 10
900
 20
676.16021900100702
 11
846.49335171293103
 21
676.16021900100702
  0
LINE
  8
_0-0_計極細
  6
CONTINUOUS
 62
    2
 10
900
 20
676.16021900100702
 11
900
 21
669.16021900100691
  0
CIRCLE
  8
_0-0_計極細
  6
CONTINUOUS
 62
    2
 10
923.65014367808749
 20
632.10152451026249
 40
1.0953188836088352
  0
CIRCLE
  8
_0-0_計極細
  6
CONTINUOUS
 62
    2
 10
931.07236590031278
 20
597.14862263110138
 40
0.3318518518518431
  0
CIRCLE
  8
_0-0_計極細
  6
CONTINUOUS
 62
    2
 10
930.27236590031237
 20
610.74226525100335
 40
0.3318518518518431
  0
CIRCLE
  8
_0-0_計極細
  6
CONTINUOUS
 62
    2
 10
930.86753951142271
 20
643.56819117692919
 40
1.0953188836088352
  0
LINE
  8
_0-0_計極細
  6
CONTINUOUS
 62
    2
 10
935
 20
653.16021900100668
 11
935
 21
592.41525882413964
  0
LINE
  8
_0-0_計極細
  6
CONTINUOUS
 62
    2
 10
934.5
 20
653.16021900100668
 11
935
 21
653.16021900100668
  0
CIRCLE
  8
_0-0_計極細
  6
CONTINUOUS
 62
    2
 10
851.31462413258191
 20
662.18152451026231
 40
1.0953188836088352
  0
CIRCLE
  8
_0-0_計極細
  6
CONTINUOUS
 62
    2
 10
923.98347701142313
 20
599.96819117692985
 40
1.0953188836088352
  0
CIRCLE
  8
_0-0_計極細
  6
CONTINUOUS
 62
    2
 10
921.10347701142314
 20
611.16819117692933
 40
1.0953188836088352
  0
CIRCLE
  8
_0-0_計極細
  6
CONTINUOUS
 62
    2
 10
899.516810344757
 20
613.32819117692918
 40
1.0953188836088352
  0
CIRCLE
  8
_0-0_計極細
  6
CONTINUOUS
 62
    2
 10
867.59681034475705
 20
621.00819117692913
 40
1.0953188836088352
  0
CIRCLE
  8
_0-0_計極細
  6
CONTINUOUS
 62
    2
 10
879.35681034475715
 20
643.80819117692897
 40
1.0953188836088352
  0
CIRCLE
  8
_0-0_計極細
  6
CONTINUOUS
 62
    2
 10
892.79681034475698
 20
637.72819117692904
 40
1.0953188836088352
  0
CIRCLE
  8
_0-0_計極細
  6
CONTINUOUS
 62
    2
 10
863.43287185722932
 20
661.64595974174733
 40
1.0953188836088352
  0
CIRCLE
  8
_0-0_計極細
  6
CONTINUOUS
 62
    2
 10
894.49014367809025
 20
657.48819117692858
 40
1.0953188836088352
  0
CIRCLE
  8
_0-0_計極細
  6
CONTINUOUS
 62
    2
 10
906.66347701142388
 20
644.29782080655866
 40
0.3318518518518431
  0
CIRCLE
  8
_0-0_計極細
  6
CONTINUOUS
 62
    2
 10
927.81014367809007
 20
626.45782080655874
 40
0.3318518518518431
  0
CIRCLE
  8
_0-0_計極細
  6
CONTINUOUS
 62
    2
 10
927.49014367809025
 20
637.23115413989183
 40
0.3318518518518431
  0
CIRCLE
  8
_0-0_計極細
  6
CONTINUOUS
 62
    2
 10
918.42347701142353
 20
643.20448747322507
 40
0.3318518518518431
  0
CIRCLE
  8
_0-0_計極細
  6
CONTINUOUS
 62
    2
 10
909.57014367809029
 20
622.72448747322539
 40
0.3318518518518431
  0
CIRCLE
  8
_0-0_計極細
  6
CONTINUOUS
 62
    2
 10
919.5701436780904
 20
596.55559858433674
 40
0.3318518518518431
  0
CIRCLE
  8
_0-0_計極細
  6
CONTINUOUS
 62
    2
 10
923.73014367809014
 20
605.51559858433677
 40
0.3318518518518431
  0
CIRCLE
  8
_0-0_計極細
  6
CONTINUOUS
 62
    2
 10
915.516810344757
 20
614.47559858433669
 40
0.3318518518518431
  0
CIRCLE
  8
_0-0_計極細
  6
CONTINUOUS
 62
    2
 10
907.73014367809026
 20
612.55559858433662
 40
0.3318518518518431
  0
CIRCLE
  8
_0-0_計極細
  6
CONTINUOUS
 62
    2
 10
895.78347701142388
 20
611.91559858433641
 40
0.3318518518518431
  0
CIRCLE
  8
_0-0_計極細
  6
CONTINUOUS
 62
    2
 10
897.91681034475744
 20
617.46226525100303
 40
0.3318518518518431
  0
CIRCLE
  8
_0-0_計極細
  6
CONTINUOUS
 62
    2
 10
894.18347701142375
 20
618.9555985843366
 40
0.3318518518518431
  0
CIRCLE
  8
_0-0_計極細
  6
CONTINUOUS
 62
    2
 10
900.90347701142366
 20
622.26226525100299
 40
0.3318518518518431
  0
CIRCLE
  8
_0-0_計極細
  6
CONTINUOUS
 62
    2
 10
877.32347701142419
 20
611.52893191766998
 40
0.3318518518518431
  0
CIRCLE
  8
_0-0_計極細
  6
CONTINUOUS
 62
    2
 10
873.5901436780905
 20
616.64893191766976
 40
0.3318518518518431
  0
CIRCLE
  8
_0-0_計極細
  6
CONTINUOUS
 62
    2
 10
868.36347701142415
 20
612.59559858433647
 40
0.3318518518518431
  0
CIRCLE
  8
_0-0_計極細
  6
CONTINUOUS
 62
    2
 10
871.77681034475711
 20
623.36893191766978
 40
0.3318518518518431
  0
CIRCLE
  8
_0-0_計極細
  6
CONTINUOUS
 62
    2
 10
896.44347701142374
 20
639.63559858433632
 40
0.3318518518518431
  0
CIRCLE
  8
_0-0_計極細
  6
CONTINUOUS
 62
    2
 10
880.01681034475746
 20
635.26226525100299
 40
0.3318518518518431
  0
CIRCLE
  8
_0-0_計極細
  6
CONTINUOUS
 62
    2
 10
888.87014367809024
 20
643.36893191766967
 40
0.3318518518518431
  0
CIRCLE
  8
_0-0_計極細
  6
CONTINUOUS
 62
    2
 10
896.44347701142374
 20
646.78226525100297
 40
0.3318518518518431
  0
CIRCLE
  8
_0-0_計極細
  6
CONTINUOUS
 62
    2
 10
881.40347701142355
 20
649.02226525100275
 40
0.3318518518518431
  0
CIRCLE
  8
_0-0_計極細
  6
CONTINUOUS
 62
    2
 10
869.13681034475758
 20
649.76893191766953
 40
0.3318518518518431
  0
CIRCLE
  8
_0-0_計極細
  6
CONTINUOUS
 62
    2
 10
878.41014367809066
 20
666.06893191766949
 40
0.3318518518518431
  0
CIRCLE
  8
_0-0_計極細
  6
CONTINUOUS
 62
    2
 10
885.45014367809028
 20
657.10893191766957
 40
0.3318518518518431
  0
CIRCLE
  8
_0-0_計極細
  6
CONTINUOUS
 62
    2
 10
900.38347701142357
 20
657.42893191766927
 40
0.3318518518518431
  0
CIRCLE
  8
_0-0_計極細
  6
CONTINUOUS
 62
    2
 10
896.97014367809015
 20
667.13559858433598
 40
0.3318518518518431
  0
CIRCLE
  8
_0-0_計極細
  6
CONTINUOUS
 62
    2
 10
882.03681034475721
 20
661.16226525100285
 40
0.3318518518518431
  0
CIRCLE
  8
_0-0_計極細
  6
CONTINUOUS
 62
    2
 10
864.97014367809072
 20
654.12226525100266
 40
0.3318518518518431
  0
CIRCLE
  8
_0-0_計極細
  6
CONTINUOUS
 62
    2
 10
857.39681034475768
 20
652.94893191766948
 40
0.3318518518518431
  0
CIRCLE
  8
_0-0_計極細
  6
CONTINUOUS
 62
    2
 10
851.03236590031304
 20
652.30893191766972
 40
0.3318518518518431
  0
CIRCLE
  8
_0-0_計極細
  6
CONTINUOUS
 62
    2
 10
857.23088441883147
 20
658.28226525100274
 40
0.3318518518518431
  0
LINE
  8
_0-0_計極細
  6
CONTINUOUS
 62
    2
 10
892.54681526100615
 20
592.41525889400134
 11
908.29177536801137
 21
608.16021900100657
  0
LINE
  8
_0-0_計極細
  6
CONTINUOUS
 62
    2
 10
850.1204085218211
 20
592.41525902600961
 11
865.86536849681863
 21
608.16021900100657
  0
LINE
  8
_0-0_計極細
  6
CONTINUOUS
 62
    2
 10
846.49335171293103
 20
631.21460908831193
 11
864.43896162562578
 21
649.16021900100702
  0
LINE
  8
_0-0_計極細
  6
CONTINUOUS
 62
    2
 10
888.30417458708769
 20
592.41525890720231
 11
904.04913468089205
 21
608.16021900100657
  0
LINE
  8
_0-0_計極細
  6
CONTINUOUS
 62
    2
 10
846.49335171293103
 20
593.03084290423851
 11
864.99999999999955
 21
611.53749119130771
  0
LINE
  8
_0-0_計極細
  6
CONTINUOUS
 62
    2
 10
846.49335171293103
 20
635.45724977543148
 11
860.19632093850646
 21
649.16021900100702
  0
LINE
  8
_0-0_計極細
  6
CONTINUOUS
 62
    2
 10
884.06153391316923
 20
592.41525892040329
 11
899.80649399377307
 21
608.16021900100657
  0
LINE
  8
_0-0_計極細
  6
CONTINUOUS
 62
    2
 10
846.49335171293103
 20
597.27348359135806
 11
864.99999999999955
 21
615.78013187842669
  0
LINE
  8
_0-0_計極細
  6
CONTINUOUS
 62
    2
 10
846.49335171293103
 20
639.69989046255114
 11
855.95368025138691
 21
649.16021900100702
  0
LINE
  8
_0-0_計極細
  6
CONTINUOUS
 62
    2
 10
915
 20
608.16021900100657
 11
915
 21
592.41525882413964
  0
LINE
  8
_0-0_計極細
  6
CONTINUOUS
 62
    2
 10
864.99999999999955
 20
649.16021900100702
 11
846.49335171293103
 21
649.16021900100702
  0
LINE
  8
_0-0_計極細
  6
CONTINUOUS
 62
    2
 10
915
 20
608.16021900100657
 11
864.99999999999955
 21
608.16021900100657
  0
LINE
  8
_0-0_計極細
  6
CONTINUOUS
 62
    2
 10
864.99999999999955
 20
649.16021900100702
 11
864.99999999999955
 21
608.16021900100657
  0
CIRCLE
  8
_0-0_計極細
  6
CONTINUOUS
 62
    2
 10
1281.3968103447555
 20
641.2720800658177
 40
0.3318518518518431
  0
CIRCLE
  8
_0-0_計極細
  6
CONTINUOUS
 62
    2
 10
1293.1568103447555
 20
637.91208006581758
 40
0.3318518518518431
  0
LINE
  8
_0-0_計極細
  6
CONTINUOUS
 62
    2
 10
1280.0000000000002
 20
634.61155580999628
 11
1289.0000000000005
 21
634.61155580999628
  0
LINE
  8
_0-0_計極細
  6
CENTER1
 62
    2
 10
1284.5000000000002
 20
603.19417483033487
 11
1284.5000000000002
 21
637.17698790876182
  0
LINE
  8
_0-0_計極細
  6
CONTINUOUS
 62
    2
 10
1289.0000000000005
 20
634.61155580999628
 11
1289.0000000000005
 21
608.16021900100657
  0
LINE
  8
_0-0_計極細
  6
CONTINUOUS
 62
    2
 10
1280.0000000000002
 20
608.16021900100657
 11
1280.0000000000002
 21
634.61155580999628
  0
LINE
  8
_0-0_計極細
  6
CENTER1
 62
    2
 10
1295.6963916124525
 20
626.23567846802746
 11
1257.2777793229129
 21
640.21890975904842
  0
LINE
  8
_0-0_計極細
  6
CONTINUOUS
 62
    2
 10
1291.1840409322915
 20
623.08923969850855
 11
1258.1094340380828
 21
635.12741211805644
  0
LINE
  8
_0-0_計極細
  6
CONTINUOUS
 62
    2
 10
1294.2622222222224
 20
631.54647328558201
 11
1261.1876153280132
 21
643.58464570512967
  0
LINE
  8
_0-0_計極細
  6
CONTINUOUS
 62
    2
 10
1261.1876153280132
 20
643.58464570512967
 11
1258.1094340380828
 21
635.12741211805644
  0
LINE
  8
_0-0_計極細
  6
CONTINUOUS
 62
    2
 10
1291.1840409322915
 20
623.08923969850855
 11
1294.2622222222224
 21
631.54647328558201
  0
LINE
  8
_0-0_計極細
  6
CONTINUOUS
 62
    2
 10
1311.073483240182
 20
669.16021900100691
 11
1318.0734828641084
 21
676.16021862493358
  0
LINE
  8
_0-0_計極細
  6
CONTINUOUS
 62
    2
 10
1298.345561178824
 20
669.16021900100691
 11
1305.3455609023199
 21
676.16021872450244
  0
LINE
  8
_0-0_計極細
  6
CONTINUOUS
 62
    2
 10
1285.6176391174663
 20
669.16021900100691
 11
1292.6176389405309
 21
676.16021882407165
  0
LINE
  8
_0-0_計極細
  6
CONTINUOUS
 62
    2
 10
1272.8897170561083
 20
669.16021900100691
 11
1279.8897169787424
 21
676.16021892364085
  0
LINE
  8
_0-0_計極細
  6
DASHED2
 62
    2
 10
1317.4374442708609
 20
669.16021900100691
 11
1323.5066482870689
 21
675.22942301721491
  0
LINE
  8
_0-0_計極細
  6
DASHED2
 62
    2
 10
1304.7095222095029
 20
669.16021900100691
 11
1311.7095218832139
 21
676.16021867471818
  0
LINE
  8
_0-0_計極細
  6
DASHED2
 62
    2
 10
1291.9816001481449
 20
669.16021900100691
 11
1298.9815999214256
 21
676.16021877428682
  0
LINE
  8
_0-0_計極細
  6
DASHED2
 62
    2
 10
1279.2536780867872
 20
669.16021900100691
 11
1286.2536779596362
 21
676.16021887385602
  0
LINE
  8
_0-0_計極細
  6
DASHED2
 62
    2
 10
1270
 20
672.63446297557766
 11
1273.5257559978479
 21
676.16021897342523
  0
LINE
  8
_0-0_計極細
  6
CONTINUOUS
 62
    2
 10
1270
 20
671.3616707694415
 11
1267.7985482315651
 21
669.16021900100691
  0
LINE
  8
_0-0_計極細
  6
CONTINUOUS
 62
    2
 10
1270
 20
673.90725518171291
 11
1265.2529638192937
 21
669.16021900100691
  0
LINE
  8
_0-0_計極細
  6
CONTINUOUS
 62
    2
 10
1265
 20
671.452839593985
 11
1269.707379407022
 21
676.16021900100702
  0
LINE
  8
_0-0_計極細
  6
CONTINUOUS
 62
    2
 10
1265
 20
673.99842400625641
 11
1267.1617949947504
 21
676.16021900100679
  0
LINE
  8
_0-0_計極細
  6
CONTINUOUS
 62
    2
 10
1270
 20
675.25462567530371
 11
1269.0944066742968
 21
676.16021900100702
  0
LINE
  8
_0-0_計極細
  6
CONTINUOUS
 62
    2
 10
1270
 20
672.70904126303196
 11
1266.5488222620252
 21
676.16021900100702
  0
LINE
  8
_0-0_計極細
  6
CONTINUOUS
 62
    2
 10
1270
 20
670.16345685076067
 11
1265
 21
675.16345685076067
  0
LINE
  8
_0-0_計極細
  6
CONTINUOUS
 62
    2
 10
1268.4576534374819
 20
669.16021900100691
 11
1265
 21
672.61787243848903
  0
LINE
  8
_0-0_計極細
  6
CONTINUOUS
 62
    2
 10
1265.9120690252105
 20
669.16021900100691
 11
1265
 21
670.07228802621717
  0
LINE
  8
_0-0_計極細
  6
CONTINUOUS
 62
    2
 10
1265
 20
675.66021900100668
 11
1265
 21
676.16021900100702
  0
LINE
  8
_0-0_計極細
  6
CONTINUOUS
 62
    2
 10
1265
 20
676.16021900100702
 11
1270
 21
676.16021900100702
  0
LINE
  8
_0-0_計極細
  6
CONTINUOUS
 62
    2
 10
1265
 20
669.16021900100691
 11
1323.5066482870689
 21
669.16021900100691
  0
LINE
  8
_0-0_計極細
  6
CONTINUOUS
 62
    2
 10
1270
 20
676.16021900100702
 11
1323.5066482870689
 21
676.16021900100702
  0
LINE
  8
_0-0_計極細
  6
CONTINUOUS
 62
    2
 10
1270
 20
676.16021900100702
 11
1270
 21
669.16021900100691
  0
CIRCLE
  8
_0-0_計極細
  6
CONTINUOUS
 62
    2
 10
1240.7601436780888
 20
601.57152451026252
 40
1.0953188836088352
  0
CIRCLE
  8
_0-0_計極細
  6
CONTINUOUS
 62
    2
 10
1238.9912547892
 20
645.14485784359613
 40
1.0953188836088352
  0
CIRCLE
  8
_0-0_計極細
  6
CONTINUOUS
 62
    2
 10
1239.3745881225336
 20
605.57282080655898
 40
0.3318518518518431
  0
CIRCLE
  8
_0-0_計極細
  6
CONTINUOUS
 62
    2
 10
1238.5906375052498
 20
629.12615413989204
 40
0.3318518518518431
  0
LINE
  8
_0-0_計極細
  6
CONTINUOUS
 62
    2
 10
1234.9999999999998
 20
653.16021900100668
 11
1234.9999999999998
 21
592.41525882413964
  0
LINE
  8
_0-0_計極細
  6
CONTINUOUS
 62
    2
 10
1235.4999999999995
 20
653.16021900100668
 11
1234.9999999999998
 21
653.16021900100668
  0
CIRCLE
  8
_0-0_計極細
  6
CONTINUOUS
 62
    2
 10
1276.9968103447554
 20
667.87948747322514
 40
0.3318518518518431
  0
CIRCLE
  8
_0-0_計極細
  6
CONTINUOUS
 62
    2
 10
1289.7968103447554
 20
660.48819117692858
 40
1.0953188836088352
  0
CIRCLE
  8
_0-0_計極細
  6
CONTINUOUS
 62
    2
 10
1289.7168103447552
 20
664.279487473225
 40
0.3318518518518431
  0
CIRCLE
  8
_0-0_計極細
  6
CONTINUOUS
 62
    2
 10
1308.1968103447552
 20
667.31948747322508
 40
0.3318518518518431
  0
CIRCLE
  8
_0-0_計極細
  6
CONTINUOUS
 62
    2
 10
1243.5738473817933
 20
624.05093459937405
 40
0.3318518518518431
  0
CIRCLE
  8
_0-0_計極細
  6
CONTINUOUS
 62
    2
 10
1243.4538473817929
 20
638.42426793270738
 40
0.3318518518518431
  0
CIRCLE
  8
_0-0_計極細
  6
CONTINUOUS
 62
    2
 10
1271.9334770114222
 20
641.67819117692886
 40
1.0953188836088352
  0
CIRCLE
  8
_0-0_計極細
  6
CONTINUOUS
 62
    2
 10
1302.3325925925926
 20
609.64595974174756
 40
1.0953188836088352
  0
CIRCLE
  8
_0-0_計極細
  6
CONTINUOUS
 62
    2
 10
1274.5734770114223
 20
615.75819117692936
 40
1.0953188836088352
  0
CIRCLE
  8
_0-0_計極細
  6
CONTINUOUS
 62
    2
 10
1253.4534770114224
 20
629.19819117692907
 40
1.0953188836088352
  0
CIRCLE
  8
_0-0_計極細
  6
CONTINUOUS
 62
    2
 10
1247.3201436780892
 20
611.27819117692923
 40
1.0953188836088352
  0
CIRCLE
  8
_0-0_計極細
  6
CONTINUOUS
 62
    2
 10
1289.5568103447554
 20
638.00819117692879
 40
1.0953188836088352
  0
CIRCLE
  8
_0-0_計極細
  6
CONTINUOUS
 62
    2
 10
1270.3568103447556
 20
657.20819117692884
 40
1.0953188836088352
  0
CIRCLE
  8
_0-0_計極細
  6
CONTINUOUS
 62
    2
 10
1303.6101436780884
 20
653.26152451026235
 40
1.0953188836088352
  0
CIRCLE
  8
_0-0_計極細
  6
CONTINUOUS
 62
    2
 10
1312.996810344755
 20
662.54152451026221
 40
1.0953188836088352
  0
CIRCLE
  8
_0-0_計極細
  6
CONTINUOUS
 62
    2
 10
1315.8768103447551
 20
654.27948747322478
 40
0.3318518518518431
  0
CIRCLE
  8
_0-0_計極細
  6
CONTINUOUS
 62
    2
 10
1298.1168103447553
 20
641.55948747322532
 40
0.3318518518518431
  0
CIRCLE
  8
_0-0_計極細
  6
CONTINUOUS
 62
    2
 10
1299.7968103447554
 20
657.63948747322513
 40
0.3318518518518431
  0
CIRCLE
  8
_0-0_計極細
  6
CONTINUOUS
 62
    2
 10
1289.7168103447552
 20
645.87948747322514
 40
0.3318518518518431
  0
CIRCLE
  8
_0-0_計極細
  6
CONTINUOUS
 62
    2
 10
1300.516810344755
 20
633.15948747322534
 40
0.3318518518518431
  0
CIRCLE
  8
_0-0_計極細
  6
CONTINUOUS
 62
    2
 10
1301.4768103447554
 20
620.67948747322532
 40
0.3318518518518431
  0
CIRCLE
  8
_0-0_計極細
  6
CONTINUOUS
 62
    2
 10
1297.1568103447553
 20
612.27948747322546
 40
0.3318518518518431
  0
CIRCLE
  8
_0-0_計極細
  6
CONTINUOUS
 62
    2
 10
1273.6368103447555
 20
644.19948747322542
 40
0.3318518518518431
  0
CIRCLE
  8
_0-0_計極細
  6
CONTINUOUS
 62
    2
 10
1268.2768103447554
 20
653.02615413989179
 40
0.3318518518518431
  0
CIRCLE
  8
_0-0_計極細
  6
CONTINUOUS
 62
    2
 10
1269.770143678089
 20
664.86615413989159
 40
0.3318518518518431
  0
CIRCLE
  8
_0-0_計極細
  6
CONTINUOUS
 62
    2
 10
1275.4634770114224
 20
620.45282080655886
 40
0.3318518518518431
  0
CIRCLE
  8
_0-0_計極細
  6
CONTINUOUS
 62
    2
 10
1268.7434770114223
 20
617.09282080655873
 40
0.3318518518518431
  0
CIRCLE
  8
_0-0_計極細
  6
CONTINUOUS
 62
    2
 10
1275.9434770114224
 20
611.65282080655891
 40
0.3318518518518431
  0
CIRCLE
  8
_0-0_計極細
  6
CONTINUOUS
 62
    2
 10
1259.7834770114223
 20
611.49282080655883
 40
0.3318518518518431
  0
CIRCLE
  8
_0-0_計極細
  6
CONTINUOUS
 62
    2
 10
1251.4634770114226
 20
614.37282080655893
 40
0.3318518518518431
  0
CIRCLE
  8
_0-0_計極細
  6
CONTINUOUS
 62
    2
 10
1244.5834770114225
 20
596.45282080655909
 40
0.3318518518518431
  0
CIRCLE
  8
_0-0_計極細
  6
CONTINUOUS
 62
    2
 10
1250.1834770114224
 20
607.17282080655889
 40
0.3318518518518431
  0
CIRCLE
  8
_0-0_計極細
  6
CONTINUOUS
 62
    2
 10
1260.8834770114222
 20
621.15282080655879
 40
0.3318518518518431
  0
CIRCLE
  8
_0-0_計極細
  6
CONTINUOUS
 62
    2
 10
1250.3634770114224
 20
631.36615413989205
 40
0.3318518518518431
  0
CIRCLE
  8
_0-0_計極細
  6
CONTINUOUS
 62
    2
 10
1252.8168103447556
 20
646.35282080655861
 40
0.3318518518518431
  0
CIRCLE
  8
_0-0_計極細
  6
CONTINUOUS
 62
    2
 10
1246.8434770114227
 20
643.47282080655862
 40
0.3318518518518431
  0
LINE
  8
_0-0_計極細
  6
CONTINUOUS
 62
    2
 10
1309.9740014487561
 20
592.41525882413964
 11
1323.5066483119933
 21
605.94790568737665
  0
LINE
  8
_0-0_計極細
  6
CONTINUOUS
 62
    2
 10
1267.5475945775629
 20
592.41525882413964
 11
1283.2925547544303
 21
608.16021900100657
  0
LINE
  8
_0-0_計極細
  6
CONTINUOUS
 62
    2
 10
1305
 20
629.86766424657651
 11
1323.506648287522
 21
648.37431253409829
  0
LINE
  8
_0-0_計極細
  6
CONTINUOUS
 62
    2
 10
1305.7313607616366
 20
592.41525882413964
 11
1323.5066483095463
 21
610.19054637204908
  0
LINE
  8
_0-0_計極細
  6
CONTINUOUS
 62
    2
 10
1263.3049538904436
 20
592.41525882413964
 11
1279.0499140673112
 21
608.16021900100657
  0
LINE
  8
_0-0_計極細
  6
CONTINUOUS
 62
    2
 10
1305
 20
634.11030493369572
 11
1320.0499139595809
 21
649.16021889327669
  0
LINE
  8
_0-0_計極細
  6
CONTINUOUS
 62
    2
 10
1301.4887200745172
 20
592.41525882413964
 11
1323.5066483070989
 21
614.43318705672129
  0
LINE
  8
_0-0_計極細
  6
CONTINUOUS
 62
    2
 10
1259.0623132033243
 20
592.41525882413964
 11
1274.8072733801916
 21
608.16021900100657
  0
LINE
  8
_0-0_計極細
  6
CONTINUOUS
 62
    2
 10
1305
 20
638.35294562081515
 11
1315.8072733028314
 21
649.16021892364643
  0
LINE
  8
_0-0_計極細
  6
CONTINUOUS
 62
    2
 10
1255
 20
608.16021900100657
 11
1255
 21
592.41525882413964
  0
LINE
  8
_0-0_計極細
  6
CONTINUOUS
 62
    2
 10
1305
 20
649.16021900100702
 11
1323.5066482870689
 21
649.16021900100702
  0
LINE
  8
_0-0_計極細
  6
CONTINUOUS
 62
    2
 10
1255
 20
608.16021900100657
 11
1305
 21
608.16021900100657
  0
LINE
  8
_0-0_計極細
  6
CONTINUOUS
 62
    2
 10
1305
 20
649.16021900100702
 11
1305
 21
608.16021900100657
  0
LINE
  8
_0-5_寸法線
  6
CONTINUOUS
 62
    7
 10
1076.8084795571101
 20
661.89576436351035
 11
1057.2353786102767
 21
675.60099719262257
  0
LINE
  8
_0-5_寸法線
  6
CONTINUOUS
 62
    7
 10
1061.3311388317218
 20
672.73311501086721
 11
1058.7429483806966
 21
682.39237327375793
  0
LINE
  8
_0-5_寸法線
  6
CONTINUOUS
 62
    7
 10
1061.3311388317218
 20
672.73311501086721
 11
1063.919329282747
 21
682.39237327375793
  0
LINE
  8
_0-5_寸法線
  6
CONTINUOUS
 62
    7
 10
1076.8084795571101
 20
681.89576436351012
 11
1057.2353786102769
 21
695.60099719262314
  0
LINE
  8
_0-5_寸法線
  6
CONTINUOUS
 62
    7
 10
1061.3311388317218
 20
692.73311501086766
 11
1063.919329282747
 21
683.07385674797706
  0
LINE
  8
_0-5_寸法線
  6
CONTINUOUS
 62
    7
 10
1061.3311388317218
 20
692.73311501086766
 11
1058.7429483806966
 21
683.07385674797706
  0
LINE
  8
_0-5_寸法線
  6
CONTINUOUS
 62
    7
 10
1061.3311388317218
 20
672.73311501086721
 11
1061.3311388317218
 21
692.73311501086766
  0
TEXT
  8
_0-5_寸法線
 62
    7
 10
1061.3311388317218
 20
675.23311501086755
 40
15
 41
1
 50
90
  1
20
  0
LINE
  8
_0-1_計細線
  6
CONTINUOUS
 62
    3
 10
1265.0000000000002
 20
665.16021900100657
 11
1265.0000000000002
 21
630.16021900100657
  0
LINE
  8
_0-1_計細線
  6
CONTINUOUS
 62
    3
 10
1265.0000000000002
 20
630.16021900100657
 11
1267.3000000000002
 21
630.16021900100657
  0
LINE
  8
_0-1_計細線
  6
CONTINUOUS
 62
    3
 10
1267.3000000000002
 20
630.16021900100657
 11
1267.3000000000002
 21
665.16021900100657
  0
LINE
  8
_0-1_計細線
  6
CONTINUOUS
 62
    3
 10
1267.3000000000002
 20
665.16021900100657
 11
1265.0000000000002
 21
665.16021900100657
  0
LINE
  8
_0-0_計極細
  6
CONTINUOUS
 62
    2
 10
1267.3000000000002
 20
649.16021900100657
 11
1265.0000000000002
 21
649.16021900100657
  0
LINE
  8
_0-0_計極細
  6
CONTINUOUS
 62
    2
 10
1267.3000000000002
 20
651.16021900100668
 11
1265.0000000000002
 21
651.16021900100668
  0
LINE
  8
_0-0_計極細
  6
CONTINUOUS
 62
    2
 10
1267.3000000000002
 20
647.16021900100657
 11
1265.0000000000002
 21
647.16021900100657
  0
LINE
  8
_0-0_計極細
  6
CONTINUOUS
 62
    2
 10
1267.3000000000002
 20
653.16021900100668
 11
1265.0000000000002
 21
653.16021900100668
  0
LINE
  8
_0-0_計極細
  6
CONTINUOUS
 62
    2
 10
1265.0000000000002
 20
633.16021900100657
 11
1267.3000000000002
 21
633.16021900100657
  0
LINE
  8
_0-0_計極細
  6
CONTINUOUS
 62
    2
 10
1267.3000000000002
 20
663.16021900100668
 11
1265.0000000000002
 21
663.16021900100668
  0
LINE
  8
_0-7_枠細線
  6
CONTINUOUS
 62
    5
 10
1283.9140288208207
 20
650.30830283207115
 11
1276.4140288208207
 21
665.30830283207115
  0
LINE
  8
_0-7_枠細線
  6
CONTINUOUS
 62
    5
 10
1268.9140288208207
 20
650.30830283207115
 11
1283.9140288208207
 21
650.30830283207115
  0
LINE
  8
_0-7_枠細線
  6
CONTINUOUS
 62
    5
 10
1276.4140288208207
 20
665.30830283207115
 11
1268.9140288208207
 21
650.30830283207115
  0
TEXT
  8
_0-7_枠細線
 62
    5
 10
1271.2791800889688
 20
649.35948286722112
 40
12.5
 41
0.8
 50
0
  1
５
  0
LINE
  8
_0-1_計細線
  6
CONTINUOUS
 62
    3
 10
904.99999999999989
 20
665.16021900100657
 11
904.99999999999989
 21
630.16021900100657
  0
LINE
  8
_0-1_計細線
  6
CONTINUOUS
 62
    3
 10
904.99999999999989
 20
630.16021900100657
 11
902.69999999999982
 21
630.16021900100657
  0
LINE
  8
_0-1_計細線
  6
CONTINUOUS
 62
    3
 10
902.69999999999982
 20
630.16021900100657
 11
902.69999999999982
 21
665.16021900100657
  0
LINE
  8
_0-1_計細線
  6
CONTINUOUS
 62
    3
 10
902.69999999999982
 20
665.16021900100657
 11
904.99999999999989
 21
665.16021900100657
  0
LINE
  8
_0-0_計極細
  6
CONTINUOUS
 62
    2
 10
902.69999999999982
 20
649.16021900100657
 11
904.99999999999989
 21
649.16021900100657
  0
LINE
  8
_0-0_計極細
  6
CONTINUOUS
 62
    2
 10
902.69999999999982
 20
651.16021900100668
 11
904.99999999999989
 21
651.16021900100668
  0
LINE
  8
_0-0_計極細
  6
CONTINUOUS
 62
    2
 10
902.69999999999982
 20
647.16021900100657
 11
904.99999999999989
 21
647.16021900100657
  0
LINE
  8
_0-0_計極細
  6
CONTINUOUS
 62
    2
 10
902.69999999999982
 20
653.16021900100668
 11
904.99999999999989
 21
653.16021900100668
  0
LINE
  8
_0-0_計極細
  6
CONTINUOUS
 62
    2
 10
904.99999999999989
 20
633.16021900100657
 11
902.69999999999982
 21
633.16021900100657
  0
LINE
  8
_0-0_計極細
  6
CONTINUOUS
 62
    2
 10
902.69999999999982
 20
663.16021900100668
 11
904.99999999999989
 21
663.16021900100668
  0
LINE
  8
_0-5_寸法線
  6
CONTINUOUS
 62
    7
 10
895
 20
676.16021900100679
 11
847.69999999999982
 21
676.16021900100679
  0
LINE
  8
_0-5_寸法線
  6
CONTINUOUS
 62
    7
 10
852.69999999999982
 20
676.16021900100679
 11
855.28819045102512
 21
666.50096073811608
  0
LINE
  8
_0-5_寸法線
  6
CONTINUOUS
 62
    7
 10
852.69999999999982
 20
676.16021900100679
 11
850.11180954897463
 21
666.50096073811608
  0
LINE
  8
_0-5_寸法線
  6
CONTINUOUS
 62
    7
 10
893.79999999999984
 20
653.16021900100668
 11
847.69999999999982
 21
653.16021900100645
  0
LINE
  8
_0-5_寸法線
  6
CONTINUOUS
 62
    7
 10
852.69999999999982
 20
653.16021900100645
 11
850.11180954897452
 21
662.81947726389717
  0
LINE
  8
_0-5_寸法線
  6
CONTINUOUS
 62
    7
 10
852.69999999999982
 20
653.16021900100645
 11
855.28819045102512
 21
662.81947726389717
  0
LINE
  8
_0-5_寸法線
  6
CONTINUOUS
 62
    7
 10
852.69999999999982
 20
676.16021900100679
 11
852.69999999999982
 21
653.16021900100645
  0
TEXT
  8
_0-5_寸法線
 62
    7
 10
852.69999999999982
 20
657.16021900100657
 40
15
 41
1
 50
90
  1
23
  0
LINE
  8
_0-5_寸法線
  6
CONTINUOUS
 62
    7
 10
895
 20
653.16021900100668
 11
847.69999999999982
 21
653.16021900100645
  0
LINE
  8
_0-5_寸法線
  6
CONTINUOUS
 62
    7
 10
852.69999999999982
 20
653.16021900100645
 11
855.28819045102512
 21
643.50096073811574
  0
LINE
  8
_0-5_寸法線
  6
CONTINUOUS
 62
    7
 10
852.69999999999982
 20
653.16021900100645
 11
850.11180954897463
 21
643.50096073811574
  0
LINE
  8
_0-5_寸法線
  6
CONTINUOUS
 62
    7
 10
893.79999999999984
 20
630.16021900100657
 11
847.69999999999982
 21
630.16021900100657
  0
LINE
  8
_0-5_寸法線
  6
CONTINUOUS
 62
    7
 10
852.69999999999982
 20
630.16021900100657
 11
850.11180954897452
 21
639.8194772638974
  0
LINE
  8
_0-5_寸法線
  6
CONTINUOUS
 62
    7
 10
852.69999999999982
 20
630.16021900100657
 11
855.28819045102512
 21
639.8194772638974
  0
LINE
  8
_0-5_寸法線
  6
CONTINUOUS
 62
    7
 10
852.69999999999982
 20
653.16021900100645
 11
852.69999999999982
 21
630.16021900100657
  0
TEXT
  8
_0-5_寸法線
 62
    7
 10
852.69999999999982
 20
634.16021900100657
 40
15
 41
1
 50
90
  1
23
  0
LINE
  8
_0-5_寸法線
  6
CONTINUOUS
 62
    7
 10
935
 20
648.16021900100668
 11
934.99999999999989
 21
575.16021900100657
  0
LINE
  8
_0-5_寸法線
  6
CONTINUOUS
 62
    7
 10
934.99999999999989
 20
580.16021900100657
 11
944.65925826289049
 21
582.74840945203186
  0
LINE
  8
_0-5_寸法線
  6
CONTINUOUS
 62
    7
 10
934.99999999999989
 20
580.16021900100657
 11
944.65925826289049
 21
577.57202854998138
  0
LINE
  8
_0-5_寸法線
  6
CONTINUOUS
 62
    7
 10
1234.9999999999998
 20
648.16021900100668
 11
1234.9999999999998
 21
575.16021900100657
  0
LINE
  8
_0-5_寸法線
  6
CONTINUOUS
 62
    7
 10
1234.9999999999998
 20
580.16021900100657
 11
1225.3407417371091
 21
577.57202854998138
  0
LINE
  8
_0-5_寸法線
  6
CONTINUOUS
 62
    7
 10
1234.9999999999998
 20
580.16021900100657
 11
1225.3407417371091
 21
582.74840945203186
  0
LINE
  8
_0-5_寸法線
  6
CONTINUOUS
 62
    7
 10
934.99999999999989
 20
580.16021900100657
 11
1234.9999999999998
 21
580.16021900100657
  0
TEXT
  8
_0-5_寸法線
 62
    7
 10
1073.7499999999998
 20
580.16021900100657
 40
15
 41
1
 50
0
  1
300
  0
LINE
  8
_0-5_寸法線
  6
CONTINUOUS
 62
    7
 10
905
 20
620.16021900100679
 11
904.99999999999909
 21
575.16021900100657
  0
LINE
  8
_0-5_寸法線
  6
CONTINUOUS
 62
    7
 10
904.99999999999932
 20
580.16021900100657
 11
914.65925826288992
 21
582.74840945203186
  0
LINE
  8
_0-5_寸法線
  6
CONTINUOUS
 62
    7
 10
904.99999999999932
 20
580.16021900100657
 11
914.65925826288992
 21
577.57202854998138
  0
LINE
  8
_0-5_寸法線
  6
CONTINUOUS
 62
    7
 10
934.99999999999989
 20
643.16021900100668
 11
934.99999999999864
 21
575.16021900100657
  0
LINE
  8
_0-5_寸法線
  6
CONTINUOUS
 62
    7
 10
934.99999999999875
 20
580.16021900100657
 11
925.34074173710792
 21
577.57202854998138
  0
LINE
  8
_0-5_寸法線
  6
CONTINUOUS
 62
    7
 10
934.99999999999875
 20
580.16021900100657
 11
925.34074173710792
 21
582.74840945203186
  0
LINE
  8
_0-5_寸法線
  6
CONTINUOUS
 62
    7
 10
904.99999999999932
 20
580.16021900100657
 11
934.99999999999875
 21
580.16021900100657
  0
TEXT
  8
_0-5_寸法線
 62
    7
 10
912.49999999999886
 20
580.16021900100657
 40
15
 41
1
 50
0
  1
30
  0
LINE
  8
_0-5_寸法線
  6
CONTINUOUS
 62
    7
 10
1265.0000000000002
 20
620.16021900100679
 11
1265.0000000000002
 21
575.16021900100657
  0
LINE
  8
_0-5_寸法線
  6
CONTINUOUS
 62
    7
 10
1265.0000000000002
 20
580.16021900100657
 11
1255.3407417371095
 21
577.57202854998138
  0
LINE
  8
_0-5_寸法線
  6
CONTINUOUS
 62
    7
 10
1265.0000000000002
 20
580.16021900100657
 11
1255.3407417371095
 21
582.74840945203186
  0
LINE
  8
_0-5_寸法線
  6
CONTINUOUS
 62
    7
 10
1235.0000000000002
 20
643.16021900100668
 11
1235.0000000000002
 21
575.16021900100657
  0
LINE
  8
_0-5_寸法線
  6
CONTINUOUS
 62
    7
 10
1235.0000000000002
 20
580.16021900100657
 11
1244.6592582628909
 21
582.74840945203186
  0
LINE
  8
_0-5_寸法線
  6
CONTINUOUS
 62
    7
 10
1235.0000000000002
 20
580.16021900100657
 11
1244.6592582628909
 21
577.57202854998138
  0
LINE
  8
_0-5_寸法線
  6
CONTINUOUS
 62
    7
 10
1265.0000000000002
 20
580.16021900100657
 11
1235.0000000000002
 21
580.16021900100657
  0
TEXT
  8
_0-5_寸法線
 62
    7
 10
1242.5000000000002
 20
580.16021900100657
 40
15
 41
1
 50
0
  1
30
  0
TEXT
  8
_0-7_枠細線
 62
    5
 10
1035.6825687070714
 20
528.77462509622012
 40
25
 41
0.8
 50
0
  1
断面詳細図
  0
TEXT
  8
_0-7_枠細線
 62
    5
 10
1150.6315384562395
 20
528.77462509622012
 40
20
 41
0.6
 50
0
  1
Ｓ＝１：５
  0
LINE
  8
_0-7_枠細線
  6
CONTINUOUS
 62
    5
 10
925
 20
473.73000000000047
 11
925
 21
223.73000000000002
  0
LINE
  8
_0-7_枠細線
  6
CONTINUOUS
 62
    5
 10
1270.7300000000005
 20
393.73000000000059
 11
1270.7300000000005
 21
473.73000000000059
  0
LINE
  8
_0-7_枠細線
  6
CONTINUOUS
 62
    5
 10
925
 20
323.73000000000059
 11
1225.0000000000005
 21
323.73000000000059
  0
LINE
  8
_0-7_枠細線
  6
CONTINUOUS
 62
    5
 10
925
 20
348.73000000000047
 11
1225.0000000000005
 21
348.73000000000047
  0
LINE
  8
_0-7_枠細線
  6
CONTINUOUS
 62
    5
 10
925
 20
373.73000000000047
 11
1225.0000000000005
 21
373.73000000000047
  0
LINE
  8
_0-7_枠細線
  6
CONTINUOUS
 62
    5
 10
925
 20
398.73000000000076
 11
1225.0000000000005
 21
398.73000000000076
  0
TEXT
  8
_0-7_枠細線
 62
    5
 10
1048.0000000000005
 20
403.73000000000076
 40
15
 41
0.5999999999999999
 50
0
  1
ライトグレー
  0
LINE
  8
_0-7_枠細線
  6
CONTINUOUS
 62
    5
 10
925
 20
423.73000000000047
 11
1225.0000000000005
 21
423.73000000000047
  0
TEXT
  8
_0-7_枠細線
 62
    5
 10
1057.0000000000005
 20
428.73000000000047
 40
15
 41
0.5999999999999999
 50
0
  1
ベージュ
  0
LINE
  8
_0-7_枠細線
  6
CONTINUOUS
 62
    5
 10
925
 20
448.73000000000047
 11
1225.0000000000005
 21
448.73000000000047
  0
TEXT
  8
_0-7_枠細線
 62
    5
 10
1069.0000000000005
 20
453.73000000000047
 40
15
 41
0.8000000000000001
 50
0
  1
色
  0
TEXT
  8
_0-7_枠細線
 62
    5
 10
951.00000000000034
 20
453.73000000000047
 40
15
 41
0.8000000000000001
 50
0
  1
品　　番
  0
TEXT
  8
_0-7_枠細線
 62
    5
 10
1151.0000000000005
 20
453.73000000000047
 40
15
 41
0.8000000000000001
 50
0
  1
備　　考
  0
LINE
  8
_0-7_枠細線
  6
CONTINUOUS
 62
    5
 10
925
 20
473.73000000000047
 11
1225.0000000000005
 21
473.73000000000047
  0
TEXT
  8
_0-7_枠細線
 62
    5
 10
1013.75
 20
478.73000000000047
 40
17.5
 41
1
 50
0
  1
品番表
  0
LINE
  8
_0-7_枠細線
  6
CONTINUOUS
 62
    5
 10
925
 20
248.73000000000033
 11
1225.0000000000005
 21
248.73000000000033
  0
LINE
  8
_0-7_枠細線
  6
CONTINUOUS
 62
    5
 10
925
 20
273.73000000000059
 11
1225.0000000000005
 21
273.73000000000059
  0
LINE
  8
_0-7_枠細線
  6
CONTINUOUS
 62
    5
 10
925
 20
298.7300000000007
 11
1225.0000000000005
 21
298.7300000000007
  0
TEXT
  8
_0-7_枠細線
 62
    5
 10
1057.0000000000009
 20
378.7300000000007
 40
15
 41
0.5999999999999999
 50
0
  1
ホワイト
  0
TEXT
  8
_0-7_枠細線
 62
    5
 10
1061.5000000000005
 20
353.73000000000047
 40
15
 41
0.5999999999999999
 50
0
  1
ピンク
  0
TEXT
  8
_0-7_枠細線
 62
    5
 10
1061.5000000000005
 20
328.73000000000047
 40
15
 41
0.5999999999999999
 50
0
  1
ブルー
  0
TEXT
  8
_0-7_枠細線
 62
    5
 10
1048
 20
303.73000000000059
 40
15
 41
0.5999999999999999
 50
0
  1
ダークグレー
  0
TEXT
  8
_0-7_枠細線
 62
    5
 10
1061.5000000000005
 20
278.7300000000007
 40
15
 41
0.5999999999999999
 50
0
  1
ウッド
  0
LINE
  8
_0-7_枠細線
  6
CONTINUOUS
 62
    5
 10
925
 20
223.73000000000002
 11
1225.0000000000005
 21
223.73000000000002
  0
TEXT
  8
_0-7_枠細線
 62
    5
 10
1057.0000000000009
 20
228.73000000000013
 40
15
 41
0.5999999999999999
 50
0
  1
ブラック
  0
LINE
  8
_0-7_枠細線
  6
CONTINUOUS
 62
    5
 10
1225.0000000000005
 20
473.73000000000047
 11
1225.0000000000005
 21
223.73000000000002
  0
LINE
  8
_0-7_枠細線
  6
CONTINUOUS
 62
    5
 10
1125
 20
473.73000000000047
 11
1125
 21
223.73000000000002
  0
LINE
  8
_0-7_枠細線
  6
CONTINUOUS
 62
    5
 10
1025.0000000000005
 20
473.73000000000047
 11
1025.0000000000005
 21
223.73000000000002
  0
TEXT
  8
_0-7_枠細線
 62
    5
 10
1057.0000000000005
 20
253.73000000000033
 40
15
 41
0.5999999999999999
 50
0
  1
ブラウン
  0
LINE
  8
_0-7_枠細線
  6
CONTINUOUS
 62
    5
 10
918.52762466555532
 20
254.30604122127349
 11
911.02762466555532
 21
269.30604122127352
  0
LINE
  8
_0-7_枠細線
  6
CONTINUOUS
 62
    5
 10
903.52762466555532
 20
254.30604122127349
 11
918.52762466555532
 21
254.30604122127349
  0
LINE
  8
_0-7_枠細線
  6
CONTINUOUS
 62
    5
 10
911.02762466555532
 20
269.30604122127352
 11
903.52762466555532
 21
254.30604122127349
  0
TEXT
  8
_0-7_枠細線
 62
    5
 10
905.89277593370343
 20
253.3572212564236
 40
12.5
 41
0.8
 50
0
  1
４
  0
TEXT
  8
_0-7_枠細線
 62
    5
 10
930.00000000000045
 20
428.73000000000047
 40
15
 41
0.5
 50
0
  1
ＧＲＳ－２０Ｋ３５０－Ｂ
  0
TEXT
  8
_0-7_枠細線
 62
    5
 10
930.00000000000045
 20
403.73000000000047
 40
15
 41
0.5
 50
0
  1
ＧＲＳ－２０Ｋ３５０－Ｇ
  0
TEXT
  8
_0-7_枠細線
 62
    5
 10
930.00000000000045
 20
378.7300000000007
 40
15
 41
0.5
 50
0
  1
ＧＲＳ－２０Ｋ３５０－Ｓ
  0
TEXT
  8
_0-7_枠細線
 62
    5
 10
930.00000000000045
 20
353.73000000000047
 40
15
 41
0.5
 50
0
  1
ＧＲＳ－２０Ｋ３５０－Ｐ
  0
TEXT
  8
_0-7_枠細線
 62
    5
 10
930.00000000000045
 20
328.73000000000047
 40
15
 41
0.5
 50
0
  1
ＧＲＳ－２０Ｋ３５０－Ａ
  0
TEXT
  8
_0-7_枠細線
 62
    5
 10
930.00000000000045
 20
303.73000000000059
 40
15
 41
0.5
 50
0
  1
ＧＲＳ－２０Ｋ３５０－Ｄ
  0
TEXT
  8
_0-7_枠細線
 62
    5
 10
930.00000000000045
 20
278.7300000000007
 40
15
 41
0.5
 50
0
  1
ＧＲＳ－２０Ｋ３５０－Ｍ
  0
TEXT
  8
_0-7_枠細線
 62
    5
 10
930.00000000000045
 20
253.73000000000033
 40
15
 41
0.5
 50
0
  1
ＧＲＳ－２０Ｋ３５０－Ｃ
  0
TEXT
  8
_0-7_枠細線
 62
    5
 10
930.00000000000045
 20
228.73000000000013
 40
15
 41
0.5
 50
0
  1
ＧＲＳ－２０Ｋ３５０－Ｋ
  0
TEXT
  8
_0-7_枠細線
 62
    5
 10
1293.2300000000007
 20
451.23000000000059
 40
15
 41
1
 50
0
  1
耐荷重
  0
TEXT
  8
_0-7_枠細線
 62
    5
 10
1285.7300000000007
 20
421.23000000000059
 40
15
 41
1
 50
0
  1
3.5kN/㎡
  0
TEXT
  8
_0-7_枠細線
 62
    5
 10
1278.2300000000005
 20
401.23000000000059
 40
15
 41
1
 50
0
  1
（歩道用）
  0
LINE
  8
_0-7_枠細線
  6
CONTINUOUS
 62
    5
 10
1360.7300000000007
 20
393.73000000000059
 11
1360.7300000000007
 21
473.73000000000059
  0
LINE
  8
_0-7_枠細線
  6
CONTINUOUS
 62
    5
 10
1270.7300000000005
 20
393.73000000000059
 11
1360.7300000000007
 21
393.73000000000059
  0
LINE
  8
_0-7_枠細線
  6
CONTINUOUS
 62
    5
 10
1270.7300000000005
 20
443.73000000000059
 11
1360.7300000000007
 21
443.73000000000059
  0
LINE
  8
_0-7_枠細線
  6
CONTINUOUS
 62
    5
 10
1270.7300000000005
 20
473.73000000000059
 11
1360.7300000000007
 21
473.73000000000059
  0
LINE
  8
_0-1_計細線
  6
CONTINUOUS
 62
    3
 10
625.5179582409736
 20
731.60583080108256
 11
271.5179582409732
 21
731.60583080108256
  0
LINE
  8
_0-1_計細線
  6
CONTINUOUS
 62
    3
 10
271.5179582409732
 20
377.60583080108086
 11
625.5179582409736
 21
377.60583080108086
  0
LINE
  8
_0-1_計細線
  6
CONTINUOUS
 62
    3
 10
625.5179582409736
 20
377.60583080108086
 11
625.5179582409736
 21
731.60583080108256
  0
LINE
  8
_0-1_計細線
  6
CONTINUOUS
 62
    3
 10
271.5179582409732
 20
731.60583080108256
 11
271.5179582409732
 21
377.60583080108086
  0
LINE
  8
_0-5_寸法線
  6
CONTINUOUS
 62
    7
 10
258.51795824097314
 20
729.60583080108245
 11
213.51795824097314
 21
729.60583080108245
  0
LINE
  8
_0-5_寸法線
  6
CONTINUOUS
 62
    7
 10
218.51795824097314
 20
729.60583080108245
 11
221.10614869199836
 21
719.94657253819173
  0
LINE
  8
_0-5_寸法線
  6
CONTINUOUS
 62
    7
 10
218.51795824097314
 20
729.60583080108245
 11
215.92976778994796
 21
719.94657253819173
  0
LINE
  8
_0-5_寸法線
  6
CONTINUOUS
 62
    7
 10
258.51795824097314
 20
379.60583080108137
 11
213.51795824097314
 21
379.60583080108131
  0
LINE
  8
_0-5_寸法線
  6
CONTINUOUS
 62
    7
 10
218.51795824097314
 20
379.60583080108131
 11
215.92976778994796
 21
389.26508906397203
  0
LINE
  8
_0-5_寸法線
  6
CONTINUOUS
 62
    7
 10
218.51795824097314
 20
379.60583080108131
 11
221.10614869199836
 21
389.26508906397203
  0
LINE
  8
_0-5_寸法線
  6
CONTINUOUS
 62
    7
 10
218.51795824097314
 20
729.60583080108245
 11
218.51795824097314
 21
379.60583080108131
  0
TEXT
  8
_0-5_寸法線
 62
    7
 10
218.51795824097309
 20
543.35583080108199
 40
15
 41
1
 50
89.999999999999645
  1
350
  0
LINE
  8
_0-5_寸法線
  6
CONTINUOUS
 62
    7
 10
258.51795824097314
 20
374.60583080108086
 11
143.51795824097323
 21
374.6058308010812
  0
LINE
  8
_0-5_寸法線
  6
CONTINUOUS
 62
    7
 10
148.51795824097323
 20
374.6058308010812
 11
145.9297677899481
 21
384.26508906397191
  0
LINE
  8
_0-5_寸法線
  6
CONTINUOUS
 62
    7
 10
148.51795824097323
 20
374.6058308010812
 11
151.1061486919985
 21
384.26508906397191
  0
LINE
  8
_0-5_寸法線
  6
CONTINUOUS
 62
    7
 10
258.51795824097366
 20
734.6058308010829
 11
143.51795824097323
 21
734.60583080108324
  0
LINE
  8
_0-5_寸法線
  6
CONTINUOUS
 62
    7
 10
148.51795824097323
 20
734.60583080108324
 11
151.1061486919985
 21
724.94657253819253
  0
LINE
  8
_0-5_寸法線
  6
CONTINUOUS
 62
    7
 10
148.51795824097323
 20
734.60583080108324
 11
145.9297677899481
 21
724.94657253819253
  0
LINE
  8
_0-5_寸法線
  6
CONTINUOUS
 62
    7
 10
148.51795824097323
 20
374.6058308010812
 11
148.51795824097323
 21
734.60583080108324
  0
TEXT
  8
_0-5_寸法線
 62
    7
 10
148.51795824097309
 20
543.35583080108222
 40
15
 41
1
 50
89.999999999999815
  1
360
  0
LINE
  8
_0-5_寸法線
  6
CONTINUOUS
 62
    7
 10
183.51795824097314
 20
374.60583080108108
 11
186.10614869199836
 21
364.94657253819037
  0
LINE
  8
_0-5_寸法線
  6
CONTINUOUS
 62
    7
 10
183.51795824097314
 20
374.60583080108108
 11
180.92976778994796
 21
364.94657253819042
  0
LINE
  8
_0-5_寸法線
  6
CONTINUOUS
 62
    7
 10
258.51795824097314
 20
377.60583080108086
 11
178.51795824097314
 21
377.60583080108114
  0
LINE
  8
_0-5_寸法線
  6
CONTINUOUS
 62
    7
 10
183.51795824097314
 20
349.60583080108108
 11
183.51795824097314
 21
377.60583080108114
  0
TEXT
  8
_0-5_寸法線
 62
    7
 10
183.51795824097314
 20
352.95918897221105
 40
15
 41
1
 50
90
  1
3
  0
LINE
  8
_0-5_寸法線
  6
CONTINUOUS
 62
    7
 10
183.51795824097314
 20
377.60583080108114
 11
180.92976778994796
 21
387.2650890639718
  0
LINE
  8
_0-5_寸法線
  6
CONTINUOUS
 62
    7
 10
183.51795824097314
 20
377.60583080108114
 11
186.10614869199836
 21
387.2650890639718
  0
LINE
  8
_0-5_寸法線
  6
CONTINUOUS
 62
    7
 10
258.51795824097366
 20
731.6058308010829
 11
178.51795824097314
 21
731.60583080108313
  0
LINE
  8
_0-5_寸法線
  6
CONTINUOUS
 62
    7
 10
183.51795824097314
 20
731.60583080108313
 11
186.10614869199836
 21
721.9465725381923
  0
LINE
  8
_0-5_寸法線
  6
CONTINUOUS
 62
    7
 10
183.51795824097314
 20
731.60583080108313
 11
180.92976778994796
 21
721.9465725381923
  0
LINE
  8
_0-5_寸法線
  6
CONTINUOUS
 62
    7
 10
183.51795824097314
 20
377.60583080108114
 11
183.51795824097314
 21
731.60583080108313
  0
TEXT
  8
_0-5_寸法線
 62
    7
 10
183.51795824097309
 20
543.35583080108199
 40
15
 41
1
 50
89.999999999999645
  1
354
  0
LINE
  8
_0-5_寸法線
  6
CONTINUOUS
 62
    7
 10
183.51795824097314
 20
734.60583080108313
 11
180.92976778994796
 21
744.26508906397373
  0
LINE
  8
_0-5_寸法線
  6
CONTINUOUS
 62
    7
 10
183.51795824097314
 20
734.60583080108313
 11
186.10614869199836
 21
744.26508906397373
  0
LINE
  8
_0-5_寸法線
  6
CONTINUOUS
 62
    7
 10
183.51795824097314
 20
731.60583080108313
 11
183.51795824097314
 21
759.60583080108313
  0
TEXT
  8
_0-5_寸法線
 62
    7
 10
183.51795824097314
 20
748.87159773133476
 40
15
 41
1
 50
90
  1
3
  0
LINE
  8
_0-1_計細線
  6
CONTINUOUS
 62
    3
 10
268.51795824097314
 20
374.60583080108086
 11
268.51795824097314
 21
734.60583080108245
  0
LINE
  8
_0-1_計細線
  6
CONTINUOUS
 62
    3
 10
268.51795824097314
 20
734.60583080108245
 11
628.51795824097371
 21
734.60583080108245
  0
LINE
  8
_0-1_計細線
  6
CONTINUOUS
 62
    3
 10
628.51795824097371
 20
734.60583080108245
 11
628.51795824097371
 21
374.60583080108086
  0
LINE
  8
_0-1_計細線
  6
CONTINUOUS
 62
    3
 10
628.51795824097371
 20
374.60583080108086
 11
268.51795824097314
 21
374.60583080108086
  0
LINE
  8
_0-0_計極細
  6
CONTINUOUS
 62
    2
 10
371.01795824097314
 20
548.90583080107717
 11
371.01795824097314
 21
543.30583080107726
  0
LINE
  8
_0-0_計極細
  6
CONTINUOUS
 62
    2
 10
384.0179582409732
 20
548.90583080107717
 11
384.0179582409732
 21
543.30583080107726
  0
LINE
  8
_0-0_計極細
  6
CONTINUOUS
 62
    2
 10
371.01795824097314
 20
582.90583080107854
 11
371.01795824097314
 21
577.30583080107863
  0
LINE
  8
_0-0_計極細
  6
CONTINUOUS
 62
    2
 10
384.0179582409732
 20
582.90583080107854
 11
384.0179582409732
 21
577.30583080107863
  0
LINE
  8
_0-0_計極細
  6
CONTINUOUS
 62
    2
 10
371.01795824097314
 20
599.90583080107945
 11
371.01795824097314
 21
594.30583080107908
  0
LINE
  8
_0-0_計極細
  6
CONTINUOUS
 62
    2
 10
384.0179582409732
 20
599.90583080107945
 11
384.0179582409732
 21
594.30583080107908
  0
LINE
  8
_0-0_計極細
  6
CONTINUOUS
 62
    2
 10
371.01795824097314
 20
616.9058308010799
 11
371.01795824097314
 21
611.30583080107999
  0
LINE
  8
_0-0_計極細
  6
CONTINUOUS
 62
    2
 10
384.0179582409732
 20
616.9058308010799
 11
384.0179582409732
 21
611.30583080107999
  0
LINE
  8
_0-0_計極細
  6
CONTINUOUS
 62
    2
 10
371.01795824097314
 20
633.90583080107899
 11
371.01795824097314
 21
628.30583080107908
  0
LINE
  8
_0-0_計極細
  6
CONTINUOUS
 62
    2
 10
384.0179582409732
 20
633.90583080107899
 11
384.0179582409732
 21
628.30583080107908
  0
LINE
  8
_0-0_計極細
  6
CONTINUOUS
 62
    2
 10
371.01795824097314
 20
650.90583080107808
 11
371.01795824097314
 21
645.30583080107817
  0
LINE
  8
_0-0_計極細
  6
CONTINUOUS
 62
    2
 10
384.0179582409732
 20
650.90583080107808
 11
384.0179582409732
 21
645.30583080107817
  0
LINE
  8
_0-0_計極細
  6
CONTINUOUS
 62
    2
 10
371.01795824097314
 20
667.90583080107717
 11
371.01795824097314
 21
662.30583080107738
  0
LINE
  8
_0-0_計極細
  6
CONTINUOUS
 62
    2
 10
384.0179582409732
 20
667.90583080107717
 11
384.0179582409732
 21
662.30583080107738
  0
LINE
  8
_0-0_計極細
  6
CONTINUOUS
 62
    2
 10
371.01795824097314
 20
684.90583080107626
 11
371.01795824097314
 21
679.30583080107635
  0
LINE
  8
_0-0_計極細
  6
CONTINUOUS
 62
    2
 10
384.0179582409732
 20
684.90583080107626
 11
384.0179582409732
 21
679.30583080107635
  0
LINE
  8
_0-0_計極細
  6
CONTINUOUS
 62
    2
 10
371.01795824097314
 20
701.60583080107926
 11
371.01795824097314
 21
696.30583080107954
  0
LINE
  8
_0-0_計極細
  6
CONTINUOUS
 62
    2
 10
384.0179582409732
 20
701.60583080107926
 11
384.0179582409732
 21
696.30583080107954
  0
LINE
  8
_0-0_計極細
  6
CONTINUOUS
 62
    2
 10
371.01795824097314
 20
718.20583080107826
 11
371.01795824097314
 21
713.00583080107845
  0
LINE
  8
_0-0_計極細
  6
CONTINUOUS
 62
    2
 10
384.0179582409732
 20
718.20583080107826
 11
384.0179582409732
 21
713.00583080107845
  0
LINE
  8
_0-0_計極細
  6
CONTINUOUS
 62
    2
 10
371.01795824097314
 20
526.30583080107635
 11
371.01795824097314
 21
531.90583080107626
  0
LINE
  8
_0-0_計極細
  6
CONTINUOUS
 62
    2
 10
384.0179582409732
 20
526.30583080107635
 11
384.0179582409732
 21
531.90583080107626
  0
LINE
  8
_0-0_計極細
  6
CONTINUOUS
 62
    2
 10
371.01795824097314
 20
509.30583080107544
 11
371.01795824097314
 21
514.90583080107581
  0
LINE
  8
_0-0_計極細
  6
CONTINUOUS
 62
    2
 10
384.0179582409732
 20
509.30583080107544
 11
384.0179582409732
 21
514.90583080107581
  0
LINE
  8
_0-0_計極細
  6
CONTINUOUS
 62
    2
 10
371.01795824097314
 20
492.30583080107499
 11
371.01795824097314
 21
497.90583080107496
  0
LINE
  8
_0-0_計極細
  6
CONTINUOUS
 62
    2
 10
384.0179582409732
 20
492.30583080107499
 11
384.0179582409732
 21
497.90583080107496
  0
LINE
  8
_0-0_計極細
  6
CONTINUOUS
 62
    2
 10
371.01795824097314
 20
475.3058308010759
 11
371.01795824097314
 21
480.90583080107587
  0
LINE
  8
_0-0_計極細
  6
CONTINUOUS
 62
    2
 10
384.0179582409732
 20
475.3058308010759
 11
384.0179582409732
 21
480.90583080107587
  0
LINE
  8
_0-0_計極細
  6
CONTINUOUS
 62
    2
 10
371.01795824097314
 20
458.30583080107687
 11
371.01795824097314
 21
463.90583080107672
  0
LINE
  8
_0-0_計極細
  6
CONTINUOUS
 62
    2
 10
384.0179582409732
 20
458.30583080107687
 11
384.0179582409732
 21
463.90583080107672
  0
LINE
  8
_0-0_計極細
  6
CONTINUOUS
 62
    2
 10
371.01795824097314
 20
441.30583080107778
 11
371.01795824097314
 21
446.90583080107763
  0
LINE
  8
_0-0_計極細
  6
CONTINUOUS
 62
    2
 10
384.0179582409732
 20
441.30583080107778
 11
384.0179582409732
 21
446.90583080107763
  0
LINE
  8
_0-0_計極細
  6
CONTINUOUS
 62
    2
 10
371.01795824097314
 20
424.30583080107863
 11
371.01795824097314
 21
429.90583080107854
  0
LINE
  8
_0-0_計極細
  6
CONTINUOUS
 62
    2
 10
384.0179582409732
 20
424.30583080107863
 11
384.0179582409732
 21
429.90583080107854
  0
LINE
  8
_0-0_計極細
  6
CONTINUOUS
 62
    2
 10
371.01795824097314
 20
407.60583080107563
 11
371.01795824097314
 21
412.90583080107535
  0
LINE
  8
_0-0_計極細
  6
CONTINUOUS
 62
    2
 10
384.0179582409732
 20
407.60583080107563
 11
384.0179582409732
 21
412.90583080107535
  0
LINE
  8
_0-0_計極細
  6
CONTINUOUS
 62
    2
 10
371.01795824097314
 20
391.00583080107668
 11
371.01795824097314
 21
396.2058308010765
  0
LINE
  8
_0-0_計極細
  6
CONTINUOUS
 62
    2
 10
384.0179582409732
 20
391.00583080107668
 11
384.0179582409732
 21
396.2058308010765
  0
LINE
  8
_0-0_計極細
  6
CENTER1
 62
    2
 10
377.51795824097314
 20
738.3565502255442
 11
377.51795824097314
 21
372.04800706006517
  0
LINE
  8
_0-1_計細線
  6
CONTINUOUS
 62
    3
 10
332.51795824097269
 20
560.75583080107799
 11
391.51795824097269
 21
560.75583080107799
  0
LINE
  8
_0-1_計細線
  6
CONTINUOUS
 62
    3
 10
391.51795824097269
 20
565.45583080107781
 11
332.51795824097269
 21
565.45583080107781
  0
LINE
  8
_0-1_計細線
  6
CONTINUOUS
 62
    3
 10
332.51795824097269
 20
565.45583080107781
 11
332.51795824097269
 21
560.75583080107799
  0
LINE
  8
_0-1_計細線
  6
CONTINUOUS
 62
    3
 10
381.51795824097269
 20
565.45583080107781
 11
381.51795824097269
 21
560.75583080107799
  0
LINE
  8
_0-1_計細線
  6
CONTINUOUS
 62
    3
 10
389.51795824097275
 20
565.45583080107781
 11
389.51795824097275
 21
560.75583080107799
  0
LINE
  8
_0-1_計細線
  6
CONTINUOUS
 62
    3
 10
391.51795824097269
 20
565.45583080107781
 11
391.51795824097269
 21
560.75583080107799
  0
LINE
  8
_0-1_計細線
  6
CONTINUOUS
 62
    3
 10
387.51795824097269
 20
565.45583080107781
 11
387.51795824097269
 21
560.75583080107799
  0
LINE
  8
_0-1_計細線
  6
CONTINUOUS
 62
    3
 10
385.51795824097269
 20
565.45583080107781
 11
385.51795824097269
 21
560.75583080107799
  0
LINE
  8
_0-1_計細線
  6
CONTINUOUS
 62
    3
 10
383.51795824097275
 20
565.45583080107781
 11
383.51795824097275
 21
560.75583080107799
  0
LINE
  8
_0-0_計極細
  6
CONTINUOUS
 62
    2
 10
371.01795824097314
 20
565.90583080107808
 11
371.01795824097314
 21
565.45583080107781
  0
LINE
  8
_0-0_計極細
  6
CONTINUOUS
 62
    2
 10
371.01795824097314
 20
560.75583080107799
 11
371.01795824097314
 21
560.30583080107772
  0
LINE
  8
_0-0_計極細
  6
CONTINUOUS
 62
    2
 10
384.0179582409732
 20
565.90583080107808
 11
384.0179582409732
 21
565.45583080107781
  0
LINE
  8
_0-0_計極細
  6
CONTINUOUS
 62
    2
 10
384.0179582409732
 20
560.75583080107799
 11
384.0179582409732
 21
560.30583080107772
  0
LINE
  8
_0-0_計極細
  6
CONTINUOUS
 62
    2
 10
468.0179582409732
 20
548.90583080107717
 11
468.0179582409732
 21
543.30583080107726
  0
LINE
  8
_0-0_計極細
  6
CONTINUOUS
 62
    2
 10
481.01795824097314
 20
548.90583080107717
 11
481.01795824097314
 21
543.30583080107726
  0
LINE
  8
_0-0_計極細
  6
CONTINUOUS
 62
    2
 10
468.0179582409732
 20
565.90583080107808
 11
468.0179582409732
 21
560.30583080107772
  0
LINE
  8
_0-0_計極細
  6
CONTINUOUS
 62
    2
 10
481.01795824097314
 20
565.90583080107808
 11
481.01795824097314
 21
560.30583080107772
  0
LINE
  8
_0-0_計極細
  6
CONTINUOUS
 62
    2
 10
468.0179582409732
 20
582.90583080107854
 11
468.0179582409732
 21
577.30583080107863
  0
LINE
  8
_0-0_計極細
  6
CONTINUOUS
 62
    2
 10
481.01795824097314
 20
582.90583080107854
 11
481.01795824097314
 21
577.30583080107863
  0
LINE
  8
_0-0_計極細
  6
CONTINUOUS
 62
    2
 10
468.0179582409732
 20
599.90583080107945
 11
468.0179582409732
 21
594.30583080107908
  0
LINE
  8
_0-0_計極細
  6
CONTINUOUS
 62
    2
 10
481.01795824097314
 20
599.90583080107945
 11
481.01795824097314
 21
594.30583080107908
  0
LINE
  8
_0-0_計極細
  6
CONTINUOUS
 62
    2
 10
468.0179582409732
 20
616.9058308010799
 11
468.0179582409732
 21
611.30583080107999
  0
LINE
  8
_0-0_計極細
  6
CONTINUOUS
 62
    2
 10
481.01795824097314
 20
616.9058308010799
 11
481.01795824097314
 21
611.30583080107999
  0
LINE
  8
_0-0_計極細
  6
CONTINUOUS
 62
    2
 10
468.0179582409732
 20
633.90583080107899
 11
468.0179582409732
 21
628.30583080107908
  0
LINE
  8
_0-0_計極細
  6
CONTINUOUS
 62
    2
 10
481.01795824097314
 20
633.90583080107899
 11
481.01795824097314
 21
628.30583080107908
  0
LINE
  8
_0-0_計極細
  6
CONTINUOUS
 62
    2
 10
468.0179582409732
 20
650.90583080107808
 11
468.0179582409732
 21
645.30583080107817
  0
LINE
  8
_0-0_計極細
  6
CONTINUOUS
 62
    2
 10
481.01795824097314
 20
650.90583080107808
 11
481.01795824097314
 21
645.30583080107817
  0
LINE
  8
_0-0_計極細
  6
CONTINUOUS
 62
    2
 10
468.0179582409732
 20
667.90583080107717
 11
468.0179582409732
 21
662.30583080107738
  0
LINE
  8
_0-0_計極細
  6
CONTINUOUS
 62
    2
 10
481.01795824097314
 20
667.90583080107717
 11
481.01795824097314
 21
662.30583080107738
  0
LINE
  8
_0-0_計極細
  6
CONTINUOUS
 62
    2
 10
468.0179582409732
 20
684.90583080107626
 11
468.0179582409732
 21
679.30583080107635
  0
LINE
  8
_0-0_計極細
  6
CONTINUOUS
 62
    2
 10
481.01795824097314
 20
684.90583080107626
 11
481.01795824097314
 21
679.30583080107635
  0
LINE
  8
_0-0_計極細
  6
CONTINUOUS
 62
    2
 10
468.0179582409732
 20
701.60583080107926
 11
468.0179582409732
 21
696.30583080107954
  0
LINE
  8
_0-0_計極細
  6
CONTINUOUS
 62
    2
 10
481.01795824097314
 20
701.60583080107926
 11
481.01795824097314
 21
696.30583080107954
  0
LINE
  8
_0-0_計極細
  6
CONTINUOUS
 62
    2
 10
468.0179582409732
 20
718.20583080107826
 11
468.0179582409732
 21
713.00583080107845
  0
LINE
  8
_0-0_計極細
  6
CONTINUOUS
 62
    2
 10
481.01795824097314
 20
718.20583080107826
 11
481.01795824097314
 21
713.00583080107845
  0
LINE
  8
_0-0_計極細
  6
CONTINUOUS
 62
    2
 10
468.0179582409732
 20
526.30583080107635
 11
468.0179582409732
 21
531.90583080107626
  0
LINE
  8
_0-0_計極細
  6
CONTINUOUS
 62
    2
 10
481.01795824097314
 20
526.30583080107635
 11
481.01795824097314
 21
531.90583080107626
  0
LINE
  8
_0-0_計極細
  6
CONTINUOUS
 62
    2
 10
468.0179582409732
 20
509.30583080107544
 11
468.0179582409732
 21
514.90583080107581
  0
LINE
  8
_0-0_計極細
  6
CONTINUOUS
 62
    2
 10
481.01795824097314
 20
509.30583080107544
 11
481.01795824097314
 21
514.90583080107581
  0
LINE
  8
_0-0_計極細
  6
CONTINUOUS
 62
    2
 10
468.0179582409732
 20
492.30583080107499
 11
468.0179582409732
 21
497.90583080107496
  0
LINE
  8
_0-0_計極細
  6
CONTINUOUS
 62
    2
 10
481.01795824097314
 20
492.30583080107499
 11
481.01795824097314
 21
497.90583080107496
  0
LINE
  8
_0-0_計極細
  6
CONTINUOUS
 62
    2
 10
468.0179582409732
 20
475.3058308010759
 11
468.0179582409732
 21
480.90583080107587
  0
LINE
  8
_0-0_計極細
  6
CONTINUOUS
 62
    2
 10
481.01795824097314
 20
475.3058308010759
 11
481.01795824097314
 21
480.90583080107587
  0
LINE
  8
_0-0_計極細
  6
CONTINUOUS
 62
    2
 10
468.0179582409732
 20
458.30583080107687
 11
468.0179582409732
 21
463.90583080107672
  0
LINE
  8
_0-0_計極細
  6
CONTINUOUS
 62
    2
 10
481.01795824097314
 20
458.30583080107687
 11
481.01795824097314
 21
463.90583080107672
  0
LINE
  8
_0-0_計極細
  6
CONTINUOUS
 62
    2
 10
468.0179582409732
 20
441.30583080107778
 11
468.0179582409732
 21
446.90583080107763
  0
LINE
  8
_0-0_計極細
  6
CONTINUOUS
 62
    2
 10
481.01795824097314
 20
441.30583080107778
 11
481.01795824097314
 21
446.90583080107763
  0
LINE
  8
_0-0_計極細
  6
CONTINUOUS
 62
    2
 10
468.0179582409732
 20
424.30583080107863
 11
468.0179582409732
 21
429.90583080107854
  0
LINE
  8
_0-0_計極細
  6
CONTINUOUS
 62
    2
 10
481.01795824097314
 20
424.30583080107863
 11
481.01795824097314
 21
429.90583080107854
  0
LINE
  8
_0-0_計極細
  6
CONTINUOUS
 62
    2
 10
468.0179582409732
 20
407.60583080107563
 11
468.0179582409732
 21
412.90583080107535
  0
LINE
  8
_0-0_計極細
  6
CONTINUOUS
 62
    2
 10
481.01795824097314
 20
407.60583080107563
 11
481.01795824097314
 21
412.90583080107535
  0
LINE
  8
_0-0_計極細
  6
CONTINUOUS
 62
    2
 10
468.0179582409732
 20
391.00583080107668
 11
468.0179582409732
 21
396.2058308010765
  0
LINE
  8
_0-0_計極細
  6
CONTINUOUS
 62
    2
 10
481.01795824097314
 20
391.00583080107668
 11
481.01795824097314
 21
396.2058308010765
  0
LINE
  8
_0-0_計極細
  6
CENTER1
 62
    2
 10
474.51795824097314
 20
738.3565502255442
 11
474.51795824097314
 21
372.04800706006517
  0
LINE
  8
_0-0_計極細
  6
CONTINUOUS
 62
    2
 10
513.01795824097314
 20
548.90583080107717
 11
513.01795824097314
 21
543.30583080107726
  0
LINE
  8
_0-0_計極細
  6
CONTINUOUS
 62
    2
 10
526.01795824097314
 20
548.90583080107717
 11
526.01795824097314
 21
543.30583080107726
  0
LINE
  8
_0-0_計極細
  6
CONTINUOUS
 62
    2
 10
513.01795824097314
 20
565.90583080107808
 11
513.01795824097314
 21
560.30583080107772
  0
LINE
  8
_0-0_計極細
  6
CONTINUOUS
 62
    2
 10
526.01795824097314
 20
565.90583080107808
 11
526.01795824097314
 21
560.30583080107772
  0
LINE
  8
_0-0_計極細
  6
CONTINUOUS
 62
    2
 10
513.01795824097314
 20
582.90583080107854
 11
513.01795824097314
 21
577.30583080107863
  0
LINE
  8
_0-0_計極細
  6
CONTINUOUS
 62
    2
 10
526.01795824097314
 20
582.90583080107854
 11
526.01795824097314
 21
577.30583080107863
  0
LINE
  8
_0-0_計極細
  6
CONTINUOUS
 62
    2
 10
513.01795824097314
 20
599.90583080107945
 11
513.01795824097314
 21
594.30583080107908
  0
LINE
  8
_0-0_計極細
  6
CONTINUOUS
 62
    2
 10
526.01795824097314
 20
599.90583080107945
 11
526.01795824097314
 21
594.30583080107908
  0
LINE
  8
_0-0_計極細
  6
CONTINUOUS
 62
    2
 10
513.01795824097314
 20
616.9058308010799
 11
513.01795824097314
 21
611.30583080107999
  0
LINE
  8
_0-0_計極細
  6
CONTINUOUS
 62
    2
 10
526.01795824097314
 20
616.9058308010799
 11
526.01795824097314
 21
611.30583080107999
  0
LINE
  8
_0-0_計極細
  6
CONTINUOUS
 62
    2
 10
513.01795824097314
 20
633.90583080107899
 11
513.01795824097314
 21
628.30583080107908
  0
LINE
  8
_0-0_計極細
  6
CONTINUOUS
 62
    2
 10
526.01795824097314
 20
633.90583080107899
 11
526.01795824097314
 21
628.30583080107908
  0
LINE
  8
_0-0_計極細
  6
CONTINUOUS
 62
    2
 10
513.01795824097314
 20
650.90583080107808
 11
513.01795824097314
 21
645.30583080107817
  0
LINE
  8
_0-0_計極細
  6
CONTINUOUS
 62
    2
 10
526.01795824097314
 20
650.90583080107808
 11
526.01795824097314
 21
645.30583080107817
  0
LINE
  8
_0-0_計極細
  6
CONTINUOUS
 62
    2
 10
513.01795824097314
 20
667.90583080107717
 11
513.01795824097314
 21
662.30583080107738
  0
LINE
  8
_0-0_計極細
  6
CONTINUOUS
 62
    2
 10
526.01795824097314
 20
667.90583080107717
 11
526.01795824097314
 21
662.30583080107738
  0
LINE
  8
_0-0_計極細
  6
CONTINUOUS
 62
    2
 10
513.01795824097314
 20
684.90583080107626
 11
513.01795824097314
 21
679.30583080107635
  0
LINE
  8
_0-0_計極細
  6
CONTINUOUS
 62
    2
 10
526.01795824097314
 20
684.90583080107626
 11
526.01795824097314
 21
679.30583080107635
  0
LINE
  8
_0-0_計極細
  6
CONTINUOUS
 62
    2
 10
513.01795824097314
 20
701.60583080107926
 11
513.01795824097314
 21
696.30583080107954
  0
LINE
  8
_0-0_計極細
  6
CONTINUOUS
 62
    2
 10
526.01795824097314
 20
701.60583080107926
 11
526.01795824097314
 21
696.30583080107954
  0
LINE
  8
_0-0_計極細
  6
CONTINUOUS
 62
    2
 10
513.01795824097314
 20
718.20583080107826
 11
513.01795824097314
 21
713.00583080107845
  0
LINE
  8
_0-0_計極細
  6
CONTINUOUS
 62
    2
 10
526.01795824097314
 20
718.20583080107826
 11
526.01795824097314
 21
713.00583080107845
  0
LINE
  8
_0-0_計極細
  6
CONTINUOUS
 62
    2
 10
513.01795824097314
 20
526.30583080107635
 11
513.01795824097314
 21
531.90583080107626
  0
LINE
  8
_0-0_計極細
  6
CONTINUOUS
 62
    2
 10
526.01795824097314
 20
526.30583080107635
 11
526.01795824097314
 21
531.90583080107626
  0
LINE
  8
_0-0_計極細
  6
CONTINUOUS
 62
    2
 10
513.01795824097314
 20
509.30583080107544
 11
513.01795824097314
 21
514.90583080107581
  0
LINE
  8
_0-0_計極細
  6
CONTINUOUS
 62
    2
 10
526.01795824097314
 20
509.30583080107544
 11
526.01795824097314
 21
514.90583080107581
  0
LINE
  8
_0-0_計極細
  6
CONTINUOUS
 62
    2
 10
513.01795824097314
 20
492.30583080107499
 11
513.01795824097314
 21
497.90583080107496
  0
LINE
  8
_0-0_計極細
  6
CONTINUOUS
 62
    2
 10
526.01795824097314
 20
492.30583080107499
 11
526.01795824097314
 21
497.90583080107496
  0
LINE
  8
_0-0_計極細
  6
CONTINUOUS
 62
    2
 10
513.01795824097314
 20
475.3058308010759
 11
513.01795824097314
 21
480.90583080107587
  0
LINE
  8
_0-0_計極細
  6
CONTINUOUS
 62
    2
 10
526.01795824097314
 20
475.3058308010759
 11
526.01795824097314
 21
480.90583080107587
  0
LINE
  8
_0-0_計極細
  6
CONTINUOUS
 62
    2
 10
513.01795824097314
 20
458.30583080107687
 11
513.01795824097314
 21
463.90583080107672
  0
LINE
  8
_0-0_計極細
  6
CONTINUOUS
 62
    2
 10
526.01795824097314
 20
458.30583080107687
 11
526.01795824097314
 21
463.90583080107672
  0
LINE
  8
_0-0_計極細
  6
CONTINUOUS
 62
    2
 10
513.01795824097314
 20
441.30583080107778
 11
513.01795824097314
 21
446.90583080107763
  0
LINE
  8
_0-0_計極細
  6
CONTINUOUS
 62
    2
 10
526.01795824097314
 20
441.30583080107778
 11
526.01795824097314
 21
446.90583080107763
  0
LINE
  8
_0-0_計極細
  6
CONTINUOUS
 62
    2
 10
513.01795824097314
 20
424.30583080107863
 11
513.01795824097314
 21
429.90583080107854
  0
LINE
  8
_0-0_計極細
  6
CONTINUOUS
 62
    2
 10
526.01795824097314
 20
424.30583080107863
 11
526.01795824097314
 21
429.90583080107854
  0
LINE
  8
_0-0_計極細
  6
CONTINUOUS
 62
    2
 10
513.01795824097314
 20
407.60583080107563
 11
513.01795824097314
 21
412.90583080107535
  0
LINE
  8
_0-0_計極細
  6
CONTINUOUS
 62
    2
 10
526.01795824097314
 20
407.60583080107563
 11
526.01795824097314
 21
412.90583080107535
  0
LINE
  8
_0-0_計極細
  6
CONTINUOUS
 62
    2
 10
513.01795824097314
 20
391.00583080107668
 11
513.01795824097314
 21
396.2058308010765
  0
LINE
  8
_0-0_計極細
  6
CONTINUOUS
 62
    2
 10
526.01795824097314
 20
391.00583080107668
 11
526.01795824097314
 21
396.2058308010765
  0
LINE
  8
_0-0_計極細
  6
CENTER1
 62
    2
 10
519.51795824097314
 20
738.3565502255442
 11
519.51795824097314
 21
372.04800706006517
  0
LINE
  8
_0-1_計細線
  6
CONTINUOUS
 62
    3
 10
273.51795824097314
 20
531.90583080108127
 11
623.51795824097314
 21
531.90583080108127
  0
LINE
  8
_0-1_計細線
  6
CONTINUOUS
 62
    3
 10
273.51795824097314
 20
543.30583080108181
 11
623.51795824097314
 21
543.30583080108181
  0
LINE
  8
_0-1_計細線
  6
CONTINUOUS
 62
    3
 10
273.51795824097314
 20
531.90583080108127
 11
273.51795824097314
 21
543.30583080108181
  0
LINE
  8
_0-1_計細線
  6
CONTINUOUS
 62
    3
 10
623.51795824097314
 20
531.90583080108127
 11
623.51795824097314
 21
543.30583080108181
  0
LINE
  8
_0-0_計極細
  6
CONTINUOUS
 62
    2
 10
273.51795824097314
 20
540.10583080108154
 11
623.51795824097314
 21
540.10583080108154
  0
LINE
  8
_0-0_計極細
  6
CONTINUOUS
 62
    2
 10
273.51795824097314
 20
535.10583080108154
 11
623.51795824097314
 21
535.10583080108154
  0
LINE
  8
_0-1_計細線
  6
CONTINUOUS
 62
    3
 10
273.51795824097314
 20
628.30583080107908
 11
623.51795824097314
 21
628.30583080107908
  0
LINE
  8
_0-1_計細線
  6
CONTINUOUS
 62
    3
 10
273.51795824097314
 20
616.90583080107854
 11
623.51795824097314
 21
616.90583080107854
  0
LINE
  8
_0-1_計細線
  6
CONTINUOUS
 62
    3
 10
273.51795824097314
 20
628.30583080107908
 11
273.51795824097314
 21
616.90583080107854
  0
LINE
  8
_0-1_計細線
  6
CONTINUOUS
 62
    3
 10
623.51795824097314
 20
628.30583080107908
 11
623.51795824097314
 21
616.90583080107854
  0
LINE
  8
_0-0_計極細
  6
CONTINUOUS
 62
    2
 10
273.51795824097314
 20
620.10583080107881
 11
623.51795824097314
 21
620.10583080107881
  0
LINE
  8
_0-0_計極細
  6
CONTINUOUS
 62
    2
 10
273.51795824097314
 20
625.10583080107881
 11
623.51795824097314
 21
625.10583080107881
  0
LINE
  8
_0-1_計細線
  6
CONTINUOUS
 62
    3
 10
273.51795824097314
 20
594.30583080107908
 11
623.51795824097314
 21
594.30583080107908
  0
LINE
  8
_0-1_計細線
  6
CONTINUOUS
 62
    3
 10
273.51795824097314
 20
582.90583080107854
 11
623.51795824097314
 21
582.90583080107854
  0
LINE
  8
_0-1_計細線
  6
CONTINUOUS
 62
    3
 10
273.51795824097314
 20
594.30583080107908
 11
273.51795824097314
 21
582.90583080107854
  0
LINE
  8
_0-1_計細線
  6
CONTINUOUS
 62
    3
 10
623.51795824097314
 20
594.30583080107908
 11
623.51795824097314
 21
582.90583080107854
  0
LINE
  8
_0-0_計極細
  6
CONTINUOUS
 62
    2
 10
273.51795824097314
 20
586.10583080107881
 11
623.51795824097314
 21
586.10583080107881
  0
LINE
  8
_0-0_計極細
  6
CONTINUOUS
 62
    2
 10
273.51795824097314
 20
591.10583080107881
 11
623.51795824097314
 21
591.10583080107881
  0
LINE
  8
_0-1_計細線
  6
CONTINUOUS
 62
    3
 10
273.51795824097314
 20
611.30583080107999
 11
623.51795824097314
 21
611.30583080107999
  0
LINE
  8
_0-1_計細線
  6
CONTINUOUS
 62
    3
 10
273.51795824097314
 20
599.90583080107945
 11
623.51795824097314
 21
599.90583080107945
  0
LINE
  8
_0-1_計細線
  6
CONTINUOUS
 62
    3
 10
273.51795824097314
 20
611.30583080107999
 11
273.51795824097314
 21
599.90583080107945
  0
LINE
  8
_0-1_計細線
  6
CONTINUOUS
 62
    3
 10
623.51795824097314
 20
611.30583080107999
 11
623.51795824097314
 21
599.90583080107945
  0
LINE
  8
_0-0_計極細
  6
CONTINUOUS
 62
    2
 10
273.51795824097314
 20
603.10583080107972
 11
623.51795824097314
 21
603.10583080107972
  0
LINE
  8
_0-0_計極細
  6
CONTINUOUS
 62
    2
 10
273.51795824097314
 20
608.10583080107972
 11
623.51795824097314
 21
608.10583080107972
  0
LINE
  8
_0-1_計細線
  6
CONTINUOUS
 62
    3
 10
273.51795824097314
 20
696.30583080107954
 11
623.51795824097314
 21
696.30583080107954
  0
LINE
  8
_0-1_計細線
  6
CONTINUOUS
 62
    3
 10
273.51795824097314
 20
684.90583080107899
 11
623.51795824097314
 21
684.90583080107899
  0
LINE
  8
_0-1_計細線
  6
CONTINUOUS
 62
    3
 10
273.51795824097314
 20
696.30583080107954
 11
273.51795824097314
 21
684.90583080107899
  0
LINE
  8
_0-1_計細線
  6
CONTINUOUS
 62
    3
 10
623.51795824097314
 20
696.30583080107954
 11
623.51795824097314
 21
684.90583080107899
  0
LINE
  8
_0-0_計極細
  6
CONTINUOUS
 62
    2
 10
273.51795824097314
 20
688.10583080107972
 11
623.51795824097314
 21
688.10583080107972
  0
LINE
  8
_0-0_計極細
  6
CONTINUOUS
 62
    2
 10
273.51795824097314
 20
693.10583080107972
 11
623.51795824097314
 21
693.10583080107972
  0
LINE
  8
_0-1_計細線
  6
CONTINUOUS
 62
    3
 10
273.51795824097314
 20
645.30583080107817
 11
623.51795824097314
 21
645.30583080107817
  0
LINE
  8
_0-1_計細線
  6
CONTINUOUS
 62
    3
 10
273.51795824097314
 20
633.90583080107763
 11
623.51795824097314
 21
633.90583080107763
  0
LINE
  8
_0-1_計細線
  6
CONTINUOUS
 62
    3
 10
273.51795824097314
 20
645.30583080107817
 11
273.51795824097314
 21
633.90583080107763
  0
LINE
  8
_0-1_計細線
  6
CONTINUOUS
 62
    3
 10
623.51795824097314
 20
645.30583080107817
 11
623.51795824097314
 21
633.90583080107763
  0
LINE
  8
_0-0_計極細
  6
CONTINUOUS
 62
    2
 10
273.51795824097314
 20
637.1058308010779
 11
623.51795824097314
 21
637.1058308010779
  0
LINE
  8
_0-0_計極細
  6
CONTINUOUS
 62
    2
 10
273.51795824097314
 20
642.1058308010779
 11
623.51795824097314
 21
642.1058308010779
  0
LINE
  8
_0-1_計細線
  6
CONTINUOUS
 62
    3
 10
273.51795824097314
 20
662.30583080107738
 11
623.51795824097314
 21
662.30583080107738
  0
LINE
  8
_0-1_計細線
  6
CONTINUOUS
 62
    3
 10
273.51795824097314
 20
650.90583080107672
 11
623.51795824097314
 21
650.90583080107672
  0
LINE
  8
_0-1_計細線
  6
CONTINUOUS
 62
    3
 10
273.51795824097314
 20
662.30583080107738
 11
273.51795824097314
 21
650.90583080107672
  0
LINE
  8
_0-1_計細線
  6
CONTINUOUS
 62
    3
 10
623.51795824097314
 20
662.30583080107738
 11
623.51795824097314
 21
650.90583080107672
  0
LINE
  8
_0-0_計極細
  6
CONTINUOUS
 62
    2
 10
273.51795824097314
 20
654.10583080107699
 11
623.51795824097314
 21
654.10583080107699
  0
LINE
  8
_0-0_計極細
  6
CONTINUOUS
 62
    2
 10
273.51795824097314
 20
659.10583080107699
 11
623.51795824097314
 21
659.10583080107699
  0
LINE
  8
_0-1_計細線
  6
CONTINUOUS
 62
    3
 10
273.51795824097314
 20
679.30583080107635
 11
623.51795824097314
 21
679.30583080107635
  0
LINE
  8
_0-1_計細線
  6
CONTINUOUS
 62
    3
 10
273.51795824097314
 20
667.90583080107581
 11
623.51795824097314
 21
667.90583080107581
  0
LINE
  8
_0-1_計細線
  6
CONTINUOUS
 62
    3
 10
273.51795824097314
 20
679.30583080107635
 11
273.51795824097314
 21
667.90583080107581
  0
LINE
  8
_0-1_計細線
  6
CONTINUOUS
 62
    3
 10
623.51795824097314
 20
679.30583080107635
 11
623.51795824097314
 21
667.90583080107581
  0
LINE
  8
_0-0_計極細
  6
CONTINUOUS
 62
    2
 10
273.51795824097314
 20
671.10583080107619
 11
623.51795824097314
 21
671.10583080107619
  0
LINE
  8
_0-0_計極細
  6
CONTINUOUS
 62
    2
 10
273.51795824097314
 20
676.10583080107619
 11
623.51795824097314
 21
676.10583080107619
  0
LINE
  8
_0-0_計極細
  6
CENTER2
 62
    2
 10
257.62935870395393
 20
554.60583080107745
 11
639.56269203733143
 21
554.60583080107745
  0
LINE
  8
_0-1_計細線
  6
CONTINUOUS
 62
    3
 10
273.51795824097314
 20
713.00583080107845
 11
623.51795824097314
 21
713.00583080107845
  0
LINE
  8
_0-1_計細線
  6
CONTINUOUS
 62
    3
 10
273.51795824097314
 20
701.60583080107801
 11
623.51795824097314
 21
701.60583080107801
  0
LINE
  8
_0-1_計細線
  6
CONTINUOUS
 62
    3
 10
273.51795824097314
 20
713.00583080107845
 11
273.51795824097314
 21
701.60583080107801
  0
LINE
  8
_0-1_計細線
  6
CONTINUOUS
 62
    3
 10
623.51795824097314
 20
713.00583080107845
 11
623.51795824097314
 21
701.60583080107801
  0
LINE
  8
_0-0_計極細
  6
CONTINUOUS
 62
    2
 10
273.51795824097314
 20
704.80583080107817
 11
623.51795824097314
 21
704.80583080107817
  0
LINE
  8
_0-0_計極細
  6
CONTINUOUS
 62
    2
 10
273.51795824097314
 20
709.80583080107817
 11
623.51795824097314
 21
709.80583080107817
  0
LINE
  8
_0-1_計細線
  6
CONTINUOUS
 62
    3
 10
273.51795824097314
 20
729.60583080108245
 11
623.51795824097314
 21
729.60583080108245
  0
LINE
  8
_0-1_計細線
  6
CONTINUOUS
 62
    3
 10
273.51795824097314
 20
718.2058308010819
 11
623.51795824097314
 21
718.2058308010819
  0
LINE
  8
_0-1_計細線
  6
CONTINUOUS
 62
    3
 10
273.51795824097314
 20
729.60583080108245
 11
273.51795824097314
 21
718.2058308010819
  0
LINE
  8
_0-1_計細線
  6
CONTINUOUS
 62
    3
 10
623.51795824097314
 20
729.60583080108245
 11
623.51795824097314
 21
718.2058308010819
  0
LINE
  8
_0-0_計極細
  6
CONTINUOUS
 62
    2
 10
273.51795824097314
 20
721.40583080108217
 11
623.51795824097314
 21
721.40583080108217
  0
LINE
  8
_0-0_計極細
  6
CONTINUOUS
 62
    2
 10
273.51795824097314
 20
726.40583080108217
 11
623.51795824097314
 21
726.40583080108217
  0
LINE
  8
_0-1_計細線
  6
CONTINUOUS
 62
    3
 10
273.51795824097314
 20
480.90583080107587
 11
623.51795824097314
 21
480.90583080107587
  0
LINE
  8
_0-1_計細線
  6
CONTINUOUS
 62
    3
 10
273.51795824097314
 20
492.30583080107635
 11
623.51795824097314
 21
492.30583080107635
  0
LINE
  8
_0-1_計細線
  6
CONTINUOUS
 62
    3
 10
273.51795824097314
 20
480.90583080107587
 11
273.51795824097314
 21
492.30583080107635
  0
LINE
  8
_0-1_計細線
  6
CONTINUOUS
 62
    3
 10
623.51795824097314
 20
480.90583080107587
 11
623.51795824097314
 21
492.30583080107635
  0
LINE
  8
_0-0_計極細
  6
CONTINUOUS
 62
    2
 10
273.51795824097314
 20
489.10583080107614
 11
623.51795824097314
 21
489.10583080107614
  0
LINE
  8
_0-0_計極細
  6
CONTINUOUS
 62
    2
 10
273.51795824097314
 20
484.10583080107614
 11
623.51795824097314
 21
484.10583080107614
  0
LINE
  8
_0-1_計細線
  6
CONTINUOUS
 62
    3
 10
273.51795824097314
 20
514.90583080107581
 11
623.51795824097314
 21
514.90583080107581
  0
LINE
  8
_0-1_計細線
  6
CONTINUOUS
 62
    3
 10
273.51795824097314
 20
526.30583080107635
 11
623.51795824097314
 21
526.30583080107635
  0
LINE
  8
_0-1_計細線
  6
CONTINUOUS
 62
    3
 10
273.51795824097314
 20
514.90583080107581
 11
273.51795824097314
 21
526.30583080107635
  0
LINE
  8
_0-1_計細線
  6
CONTINUOUS
 62
    3
 10
623.51795824097314
 20
514.90583080107581
 11
623.51795824097314
 21
526.30583080107635
  0
LINE
  8
_0-0_計極細
  6
CONTINUOUS
 62
    2
 10
273.51795824097314
 20
523.10583080107608
 11
623.51795824097314
 21
523.10583080107608
  0
LINE
  8
_0-0_計極細
  6
CONTINUOUS
 62
    2
 10
273.51795824097314
 20
518.10583080107608
 11
623.51795824097314
 21
518.10583080107608
  0
LINE
  8
_0-1_計細線
  6
CONTINUOUS
 62
    3
 10
273.51795824097314
 20
497.90583080107496
 11
623.51795824097314
 21
497.90583080107496
  0
LINE
  8
_0-1_計細線
  6
CONTINUOUS
 62
    3
 10
273.51795824097314
 20
509.30583080107544
 11
623.51795824097314
 21
509.30583080107544
  0
LINE
  8
_0-1_計細線
  6
CONTINUOUS
 62
    3
 10
273.51795824097314
 20
497.90583080107496
 11
273.51795824097314
 21
509.30583080107544
  0
LINE
  8
_0-1_計細線
  6
CONTINUOUS
 62
    3
 10
623.51795824097314
 20
497.90583080107496
 11
623.51795824097314
 21
509.30583080107544
  0
LINE
  8
_0-0_計極細
  6
CONTINUOUS
 62
    2
 10
273.51795824097314
 20
506.10583080107517
 11
623.51795824097314
 21
506.10583080107517
  0
LINE
  8
_0-0_計極細
  6
CONTINUOUS
 62
    2
 10
273.51795824097314
 20
501.10583080107517
 11
623.51795824097314
 21
501.10583080107517
  0
LINE
  8
_0-1_計細線
  6
CONTINUOUS
 62
    3
 10
273.51795824097314
 20
412.90583080107535
 11
623.51795824097314
 21
412.90583080107535
  0
LINE
  8
_0-1_計細線
  6
CONTINUOUS
 62
    3
 10
273.51795824097314
 20
424.30583080107596
 11
623.51795824097314
 21
424.30583080107596
  0
LINE
  8
_0-1_計細線
  6
CONTINUOUS
 62
    3
 10
273.51795824097314
 20
412.90583080107535
 11
273.51795824097314
 21
424.30583080107596
  0
LINE
  8
_0-1_計細線
  6
CONTINUOUS
 62
    3
 10
623.51795824097314
 20
412.90583080107535
 11
623.51795824097314
 21
424.30583080107596
  0
LINE
  8
_0-0_計極細
  6
CONTINUOUS
 62
    2
 10
273.51795824097314
 20
421.10583080107517
 11
623.51795824097314
 21
421.10583080107517
  0
LINE
  8
_0-0_計極細
  6
CONTINUOUS
 62
    2
 10
273.51795824097314
 20
416.10583080107517
 11
623.51795824097314
 21
416.10583080107517
  0
LINE
  8
_0-1_計細線
  6
CONTINUOUS
 62
    3
 10
273.51795824097314
 20
463.90583080107672
 11
623.51795824097314
 21
463.90583080107672
  0
LINE
  8
_0-1_計細線
  6
CONTINUOUS
 62
    3
 10
273.51795824097314
 20
475.30583080107732
 11
623.51795824097314
 21
475.30583080107732
  0
LINE
  8
_0-1_計細線
  6
CONTINUOUS
 62
    3
 10
273.51795824097314
 20
463.90583080107672
 11
273.51795824097314
 21
475.30583080107732
  0
LINE
  8
_0-1_計細線
  6
CONTINUOUS
 62
    3
 10
623.51795824097314
 20
463.90583080107672
 11
623.51795824097314
 21
475.30583080107732
  0
LINE
  8
_0-0_計極細
  6
CONTINUOUS
 62
    2
 10
273.51795824097314
 20
472.10583080107705
 11
623.51795824097314
 21
472.10583080107705
  0
LINE
  8
_0-0_計極細
  6
CONTINUOUS
 62
    2
 10
273.51795824097314
 20
467.10583080107705
 11
623.51795824097314
 21
467.10583080107705
  0
LINE
  8
_0-1_計細線
  6
CONTINUOUS
 62
    3
 10
273.51795824097314
 20
446.90583080107763
 11
623.51795824097314
 21
446.90583080107763
  0
LINE
  8
_0-1_計細線
  6
CONTINUOUS
 62
    3
 10
273.51795824097314
 20
458.30583080107823
 11
623.51795824097314
 21
458.30583080107823
  0
LINE
  8
_0-1_計細線
  6
CONTINUOUS
 62
    3
 10
273.51795824097314
 20
446.90583080107763
 11
273.51795824097314
 21
458.30583080107823
  0
LINE
  8
_0-1_計細線
  6
CONTINUOUS
 62
    3
 10
623.51795824097314
 20
446.90583080107763
 11
623.51795824097314
 21
458.30583080107823
  0
LINE
  8
_0-0_計極細
  6
CONTINUOUS
 62
    2
 10
273.51795824097314
 20
455.1058308010779
 11
623.51795824097314
 21
455.1058308010779
  0
LINE
  8
_0-0_計極細
  6
CONTINUOUS
 62
    2
 10
273.51795824097314
 20
450.1058308010779
 11
623.51795824097314
 21
450.1058308010779
  0
LINE
  8
_0-1_計細線
  6
CONTINUOUS
 62
    3
 10
273.51795824097314
 20
429.90583080107854
 11
623.51795824097314
 21
429.90583080107854
  0
LINE
  8
_0-1_計細線
  6
CONTINUOUS
 62
    3
 10
273.51795824097314
 20
441.30583080107908
 11
623.51795824097314
 21
441.30583080107908
  0
LINE
  8
_0-1_計細線
  6
CONTINUOUS
 62
    3
 10
273.51795824097314
 20
429.90583080107854
 11
273.51795824097314
 21
441.30583080107908
  0
LINE
  8
_0-1_計細線
  6
CONTINUOUS
 62
    3
 10
623.51795824097314
 20
429.90583080107854
 11
623.51795824097314
 21
441.30583080107908
  0
LINE
  8
_0-0_計極細
  6
CONTINUOUS
 62
    2
 10
273.51795824097314
 20
438.10583080107881
 11
623.51795824097314
 21
438.10583080107881
  0
LINE
  8
_0-0_計極細
  6
CONTINUOUS
 62
    2
 10
273.51795824097314
 20
433.10583080107881
 11
623.51795824097314
 21
433.10583080107881
  0
LINE
  8
_0-1_計細線
  6
CONTINUOUS
 62
    3
 10
273.51795824097314
 20
396.2058308010765
 11
623.51795824097314
 21
396.2058308010765
  0
LINE
  8
_0-1_計細線
  6
CONTINUOUS
 62
    3
 10
273.51795824097314
 20
407.60583080107699
 11
623.51795824097314
 21
407.60583080107699
  0
LINE
  8
_0-1_計細線
  6
CONTINUOUS
 62
    3
 10
273.51795824097314
 20
396.2058308010765
 11
273.51795824097314
 21
407.60583080107699
  0
LINE
  8
_0-1_計細線
  6
CONTINUOUS
 62
    3
 10
623.51795824097314
 20
396.2058308010765
 11
623.51795824097314
 21
407.60583080107699
  0
LINE
  8
_0-0_計極細
  6
CONTINUOUS
 62
    2
 10
273.51795824097314
 20
404.40583080107672
 11
623.51795824097314
 21
404.40583080107672
  0
LINE
  8
_0-0_計極細
  6
CONTINUOUS
 62
    2
 10
273.51795824097314
 20
399.40583080107672
 11
623.51795824097314
 21
399.40583080107672
  0
LINE
  8
_0-1_計細線
  6
CONTINUOUS
 62
    3
 10
273.51795824097314
 20
379.6058308010725
 11
623.51795824097314
 21
379.6058308010725
  0
LINE
  8
_0-1_計細線
  6
CONTINUOUS
 62
    3
 10
273.51795824097314
 20
391.00583080107299
 11
623.51795824097314
 21
391.00583080107299
  0
LINE
  8
_0-1_計細線
  6
CONTINUOUS
 62
    3
 10
273.51795824097314
 20
379.6058308010725
 11
273.51795824097314
 21
391.00583080107299
  0
LINE
  8
_0-1_計細線
  6
CONTINUOUS
 62
    3
 10
623.51795824097314
 20
379.6058308010725
 11
623.51795824097314
 21
391.00583080107299
  0
LINE
  8
_0-0_計極細
  6
CONTINUOUS
 62
    2
 10
273.51795824097314
 20
387.80583080107277
 11
623.51795824097314
 21
387.80583080107277
  0
LINE
  8
_0-0_計極細
  6
CONTINUOUS
 62
    2
 10
273.51795824097314
 20
382.80583080107272
 11
623.51795824097314
 21
382.80583080107272
  0
LINE
  8
_0-1_計細線
  6
CONTINUOUS
 62
    3
 10
273.51795824097314
 20
548.90583080107717
 11
623.51795824097314
 21
548.90583080107717
  0
LINE
  8
_0-1_計細線
  6
CONTINUOUS
 62
    3
 10
623.51795824097314
 20
560.30583080107772
 11
623.51795824097314
 21
548.90583080107717
  0
LINE
  8
_0-0_計極細
  6
CONTINUOUS
 62
    2
 10
273.51795824097314
 20
552.10583080107745
 11
623.51795824097314
 21
552.10583080107745
  0
LINE
  8
_0-0_計極細
  6
CONTINUOUS
 62
    2
 10
273.51795824097314
 20
557.10583080107745
 11
623.51795824097314
 21
557.10583080107745
  0
LINE
  8
_0-1_計細線
  6
CONTINUOUS
 62
    3
 10
273.51795824097314
 20
560.30583080107772
 11
273.51795824097314
 21
548.90583080107717
  0
LINE
  8
_0-1_計細線
  6
CONTINUOUS
 62
    3
 10
273.51795824097314
 20
560.30583080107772
 11
623.51795824097314
 21
560.30583080107772
  0
LINE
  8
_0-1_計細線
  6
CONTINUOUS
 62
    3
 10
273.51795824097314
 20
577.30583080107863
 11
623.51795824097314
 21
577.30583080107863
  0
LINE
  8
_0-1_計細線
  6
CONTINUOUS
 62
    3
 10
623.51795824097314
 20
577.30583080107863
 11
623.51795824097314
 21
565.90583080107808
  0
LINE
  8
_0-0_計極細
  6
CONTINUOUS
 62
    2
 10
273.51795824097314
 20
569.10583080107835
 11
623.51795824097314
 21
569.10583080107835
  0
LINE
  8
_0-0_計極細
  6
CONTINUOUS
 62
    2
 10
273.51795824097314
 20
574.10583080107835
 11
623.51795824097314
 21
574.10583080107835
  0
LINE
  8
_0-1_計細線
  6
CONTINUOUS
 62
    3
 10
273.51795824097314
 20
565.90583080107808
 11
623.51795824097314
 21
565.90583080107808
  0
LINE
  8
_0-1_計細線
  6
CONTINUOUS
 62
    3
 10
273.51795824097314
 20
577.30583080107863
 11
273.51795824097314
 21
565.90583080107808
  0
LINE
  8
_0-0_計極細
  6
CONTINUOUS
 62
    2
 10
610.01795824097314
 20
548.90583080107717
 11
610.01795824097314
 21
543.30583080107726
  0
LINE
  8
_0-0_計極細
  6
CONTINUOUS
 62
    2
 10
623.01795824097314
 20
548.90583080107717
 11
623.01795824097314
 21
543.30583080107726
  0
LINE
  8
_0-0_計極細
  6
CONTINUOUS
 62
    2
 10
610.01795824097314
 20
565.90583080107808
 11
610.01795824097314
 21
560.30583080107772
  0
LINE
  8
_0-0_計極細
  6
CONTINUOUS
 62
    2
 10
623.01795824097314
 20
565.90583080107808
 11
623.01795824097314
 21
560.30583080107772
  0
LINE
  8
_0-0_計極細
  6
CONTINUOUS
 62
    2
 10
610.01795824097314
 20
582.90583080107854
 11
610.01795824097314
 21
577.30583080107863
  0
LINE
  8
_0-0_計極細
  6
CONTINUOUS
 62
    2
 10
623.01795824097314
 20
582.90583080107854
 11
623.01795824097314
 21
577.30583080107863
  0
LINE
  8
_0-0_計極細
  6
CONTINUOUS
 62
    2
 10
610.01795824097314
 20
599.90583080107945
 11
610.01795824097314
 21
594.30583080107908
  0
LINE
  8
_0-0_計極細
  6
CONTINUOUS
 62
    2
 10
623.01795824097314
 20
599.90583080107945
 11
623.01795824097314
 21
594.30583080107908
  0
LINE
  8
_0-0_計極細
  6
CONTINUOUS
 62
    2
 10
610.01795824097314
 20
616.9058308010799
 11
610.01795824097314
 21
611.30583080107999
  0
LINE
  8
_0-0_計極細
  6
CONTINUOUS
 62
    2
 10
623.01795824097314
 20
616.9058308010799
 11
623.01795824097314
 21
611.30583080107999
  0
LINE
  8
_0-0_計極細
  6
CONTINUOUS
 62
    2
 10
610.01795824097314
 20
633.90583080107899
 11
610.01795824097314
 21
628.30583080107908
  0
LINE
  8
_0-0_計極細
  6
CONTINUOUS
 62
    2
 10
623.01795824097314
 20
633.90583080107899
 11
623.01795824097314
 21
628.30583080107908
  0
LINE
  8
_0-0_計極細
  6
CONTINUOUS
 62
    2
 10
610.01795824097314
 20
650.90583080107808
 11
610.01795824097314
 21
645.30583080107817
  0
LINE
  8
_0-0_計極細
  6
CONTINUOUS
 62
    2
 10
623.01795824097314
 20
650.90583080107808
 11
623.01795824097314
 21
645.30583080107817
  0
LINE
  8
_0-0_計極細
  6
CONTINUOUS
 62
    2
 10
610.01795824097314
 20
667.90583080107717
 11
610.01795824097314
 21
662.30583080107738
  0
LINE
  8
_0-0_計極細
  6
CONTINUOUS
 62
    2
 10
623.01795824097314
 20
667.90583080107717
 11
623.01795824097314
 21
662.30583080107738
  0
LINE
  8
_0-0_計極細
  6
CONTINUOUS
 62
    2
 10
610.01795824097314
 20
684.90583080107626
 11
610.01795824097314
 21
679.30583080107635
  0
LINE
  8
_0-0_計極細
  6
CONTINUOUS
 62
    2
 10
623.01795824097314
 20
684.90583080107626
 11
623.01795824097314
 21
679.30583080107635
  0
LINE
  8
_0-0_計極細
  6
CONTINUOUS
 62
    2
 10
610.01795824097314
 20
701.60583080107926
 11
610.01795824097314
 21
696.30583080107954
  0
LINE
  8
_0-0_計極細
  6
CONTINUOUS
 62
    2
 10
623.01795824097314
 20
701.60583080107926
 11
623.01795824097314
 21
696.30583080107954
  0
LINE
  8
_0-0_計極細
  6
CONTINUOUS
 62
    2
 10
610.01795824097314
 20
718.20583080107826
 11
610.01795824097314
 21
713.00583080107845
  0
LINE
  8
_0-0_計極細
  6
CONTINUOUS
 62
    2
 10
623.01795824097314
 20
718.20583080107826
 11
623.01795824097314
 21
713.00583080107845
  0
LINE
  8
_0-0_計極細
  6
CONTINUOUS
 62
    2
 10
610.01795824097314
 20
526.30583080107635
 11
610.01795824097314
 21
531.90583080107626
  0
LINE
  8
_0-0_計極細
  6
CONTINUOUS
 62
    2
 10
623.01795824097314
 20
526.30583080107635
 11
623.01795824097314
 21
531.90583080107626
  0
LINE
  8
_0-0_計極細
  6
CONTINUOUS
 62
    2
 10
610.01795824097314
 20
509.30583080107544
 11
610.01795824097314
 21
514.90583080107581
  0
LINE
  8
_0-0_計極細
  6
CONTINUOUS
 62
    2
 10
623.01795824097314
 20
509.30583080107544
 11
623.01795824097314
 21
514.90583080107581
  0
LINE
  8
_0-0_計極細
  6
CONTINUOUS
 62
    2
 10
610.01795824097314
 20
492.30583080107499
 11
610.01795824097314
 21
497.90583080107496
  0
LINE
  8
_0-0_計極細
  6
CONTINUOUS
 62
    2
 10
623.01795824097314
 20
492.30583080107499
 11
623.01795824097314
 21
497.90583080107496
  0
LINE
  8
_0-0_計極細
  6
CONTINUOUS
 62
    2
 10
610.01795824097314
 20
475.3058308010759
 11
610.01795824097314
 21
480.90583080107587
  0
LINE
  8
_0-0_計極細
  6
CONTINUOUS
 62
    2
 10
623.01795824097314
 20
475.3058308010759
 11
623.01795824097314
 21
480.90583080107587
  0
LINE
  8
_0-0_計極細
  6
CONTINUOUS
 62
    2
 10
610.01795824097314
 20
458.30583080107687
 11
610.01795824097314
 21
463.90583080107672
  0
LINE
  8
_0-0_計極細
  6
CONTINUOUS
 62
    2
 10
623.01795824097314
 20
458.30583080107687
 11
623.01795824097314
 21
463.90583080107672
  0
LINE
  8
_0-0_計極細
  6
CONTINUOUS
 62
    2
 10
610.01795824097314
 20
441.30583080107778
 11
610.01795824097314
 21
446.90583080107763
  0
LINE
  8
_0-0_計極細
  6
CONTINUOUS
 62
    2
 10
623.01795824097314
 20
441.30583080107778
 11
623.01795824097314
 21
446.90583080107763
  0
LINE
  8
_0-0_計極細
  6
CONTINUOUS
 62
    2
 10
610.01795824097314
 20
424.30583080107863
 11
610.01795824097314
 21
429.90583080107854
  0
LINE
  8
_0-0_計極細
  6
CONTINUOUS
 62
    2
 10
623.01795824097314
 20
424.30583080107863
 11
623.01795824097314
 21
429.90583080107854
  0
LINE
  8
_0-0_計極細
  6
CONTINUOUS
 62
    2
 10
610.01795824097314
 20
407.60583080107563
 11
610.01795824097314
 21
412.90583080107535
  0
LINE
  8
_0-0_計極細
  6
CONTINUOUS
 62
    2
 10
623.01795824097314
 20
407.60583080107563
 11
623.01795824097314
 21
412.90583080107535
  0
LINE
  8
_0-0_計極細
  6
CONTINUOUS
 62
    2
 10
610.01795824097314
 20
391.00583080107668
 11
610.01795824097314
 21
396.2058308010765
  0
LINE
  8
_0-0_計極細
  6
CONTINUOUS
 62
    2
 10
623.01795824097314
 20
391.00583080107668
 11
623.01795824097314
 21
396.2058308010765
  0
LINE
  8
_0-0_計極細
  6
CENTER1
 62
    2
 10
616.51795824097326
 20
738.3565502255442
 11
616.51795824097326
 21
372.04800706006517
  0
LINE
  8
_0-0_計極細
  6
CONTINUOUS
 62
    2
 10
274.0179582409736
 20
548.90583080107717
 11
274.0179582409736
 21
543.30583080107726
  0
LINE
  8
_0-0_計極細
  6
CONTINUOUS
 62
    2
 10
287.0179582409736
 20
548.90583080107717
 11
287.0179582409736
 21
543.30583080107726
  0
LINE
  8
_0-0_計極細
  6
CONTINUOUS
 62
    2
 10
274.0179582409736
 20
565.90583080107808
 11
274.0179582409736
 21
560.30583080107772
  0
LINE
  8
_0-0_計極細
  6
CONTINUOUS
 62
    2
 10
287.0179582409736
 20
565.90583080107808
 11
287.0179582409736
 21
560.30583080107772
  0
LINE
  8
_0-0_計極細
  6
CONTINUOUS
 62
    2
 10
274.0179582409736
 20
582.90583080107854
 11
274.0179582409736
 21
577.30583080107863
  0
LINE
  8
_0-0_計極細
  6
CONTINUOUS
 62
    2
 10
287.0179582409736
 20
582.90583080107854
 11
287.0179582409736
 21
577.30583080107863
  0
LINE
  8
_0-0_計極細
  6
CONTINUOUS
 62
    2
 10
274.0179582409736
 20
599.90583080107945
 11
274.0179582409736
 21
594.30583080107908
  0
LINE
  8
_0-0_計極細
  6
CONTINUOUS
 62
    2
 10
287.0179582409736
 20
599.90583080107945
 11
287.0179582409736
 21
594.30583080107908
  0
LINE
  8
_0-0_計極細
  6
CONTINUOUS
 62
    2
 10
274.0179582409736
 20
616.9058308010799
 11
274.0179582409736
 21
611.30583080107999
  0
LINE
  8
_0-0_計極細
  6
CONTINUOUS
 62
    2
 10
287.0179582409736
 20
616.9058308010799
 11
287.0179582409736
 21
611.30583080107999
  0
LINE
  8
_0-0_計極細
  6
CONTINUOUS
 62
    2
 10
274.0179582409736
 20
633.90583080107899
 11
274.0179582409736
 21
628.30583080107908
  0
LINE
  8
_0-0_計極細
  6
CONTINUOUS
 62
    2
 10
287.0179582409736
 20
633.90583080107899
 11
287.0179582409736
 21
628.30583080107908
  0
LINE
  8
_0-0_計極細
  6
CONTINUOUS
 62
    2
 10
274.0179582409736
 20
650.90583080107808
 11
274.0179582409736
 21
645.30583080107817
  0
LINE
  8
_0-0_計極細
  6
CONTINUOUS
 62
    2
 10
287.0179582409736
 20
650.90583080107808
 11
287.0179582409736
 21
645.30583080107817
  0
LINE
  8
_0-0_計極細
  6
CONTINUOUS
 62
    2
 10
274.0179582409736
 20
667.90583080107717
 11
274.0179582409736
 21
662.30583080107738
  0
LINE
  8
_0-0_計極細
  6
CONTINUOUS
 62
    2
 10
287.0179582409736
 20
667.90583080107717
 11
287.0179582409736
 21
662.30583080107738
  0
LINE
  8
_0-0_計極細
  6
CONTINUOUS
 62
    2
 10
274.0179582409736
 20
684.90583080107626
 11
274.0179582409736
 21
679.30583080107635
  0
LINE
  8
_0-0_計極細
  6
CONTINUOUS
 62
    2
 10
287.0179582409736
 20
684.90583080107626
 11
287.0179582409736
 21
679.30583080107635
  0
LINE
  8
_0-0_計極細
  6
CONTINUOUS
 62
    2
 10
274.0179582409736
 20
701.60583080107926
 11
274.0179582409736
 21
696.30583080107954
  0
LINE
  8
_0-0_計極細
  6
CONTINUOUS
 62
    2
 10
287.0179582409736
 20
701.60583080107926
 11
287.0179582409736
 21
696.30583080107954
  0
LINE
  8
_0-0_計極細
  6
CONTINUOUS
 62
    2
 10
274.0179582409736
 20
718.20583080107826
 11
274.0179582409736
 21
713.00583080107845
  0
LINE
  8
_0-0_計極細
  6
CONTINUOUS
 62
    2
 10
287.0179582409736
 20
718.20583080107826
 11
287.0179582409736
 21
713.00583080107845
  0
LINE
  8
_0-0_計極細
  6
CONTINUOUS
 62
    2
 10
274.0179582409736
 20
526.30583080107635
 11
274.0179582409736
 21
531.90583080107626
  0
LINE
  8
_0-0_計極細
  6
CONTINUOUS
 62
    2
 10
287.0179582409736
 20
526.30583080107635
 11
287.0179582409736
 21
531.90583080107626
  0
LINE
  8
_0-0_計極細
  6
CONTINUOUS
 62
    2
 10
274.0179582409736
 20
509.30583080107544
 11
274.0179582409736
 21
514.90583080107581
  0
LINE
  8
_0-0_計極細
  6
CONTINUOUS
 62
    2
 10
287.0179582409736
 20
509.30583080107544
 11
287.0179582409736
 21
514.90583080107581
  0
LINE
  8
_0-0_計極細
  6
CONTINUOUS
 62
    2
 10
274.0179582409736
 20
492.30583080107499
 11
274.0179582409736
 21
497.90583080107496
  0
LINE
  8
_0-0_計極細
  6
CONTINUOUS
 62
    2
 10
287.0179582409736
 20
492.30583080107499
 11
287.0179582409736
 21
497.90583080107496
  0
LINE
  8
_0-0_計極細
  6
CONTINUOUS
 62
    2
 10
274.0179582409736
 20
475.3058308010759
 11
274.0179582409736
 21
480.90583080107587
  0
LINE
  8
_0-0_計極細
  6
CONTINUOUS
 62
    2
 10
287.0179582409736
 20
475.3058308010759
 11
287.0179582409736
 21
480.90583080107587
  0
LINE
  8
_0-0_計極細
  6
CONTINUOUS
 62
    2
 10
274.0179582409736
 20
458.30583080107687
 11
274.0179582409736
 21
463.90583080107672
  0
LINE
  8
_0-0_計極細
  6
CONTINUOUS
 62
    2
 10
287.0179582409736
 20
458.30583080107687
 11
287.0179582409736
 21
463.90583080107672
  0
LINE
  8
_0-0_計極細
  6
CONTINUOUS
 62
    2
 10
274.0179582409736
 20
441.30583080107778
 11
274.0179582409736
 21
446.90583080107763
  0
LINE
  8
_0-0_計極細
  6
CONTINUOUS
 62
    2
 10
287.0179582409736
 20
441.30583080107778
 11
287.0179582409736
 21
446.90583080107763
  0
LINE
  8
_0-0_計極細
  6
CONTINUOUS
 62
    2
 10
274.0179582409736
 20
424.30583080107863
 11
274.0179582409736
 21
429.90583080107854
  0
LINE
  8
_0-0_計極細
  6
CONTINUOUS
 62
    2
 10
287.0179582409736
 20
424.30583080107863
 11
287.0179582409736
 21
429.90583080107854
  0
LINE
  8
_0-0_計極細
  6
CONTINUOUS
 62
    2
 10
274.0179582409736
 20
407.60583080107563
 11
274.0179582409736
 21
412.90583080107535
  0
LINE
  8
_0-0_計極細
  6
CONTINUOUS
 62
    2
 10
287.0179582409736
 20
407.60583080107563
 11
287.0179582409736
 21
412.90583080107535
  0
LINE
  8
_0-0_計極細
  6
CONTINUOUS
 62
    2
 10
274.0179582409736
 20
391.00583080107668
 11
274.0179582409736
 21
396.2058308010765
  0
LINE
  8
_0-0_計極細
  6
CONTINUOUS
 62
    2
 10
287.0179582409736
 20
391.00583080107668
 11
287.0179582409736
 21
396.2058308010765
  0
LINE
  8
_0-0_計極細
  6
CENTER1
 62
    2
 10
280.5179582409736
 20
738.3565502255442
 11
280.5179582409736
 21
372.04800706006517
  0
LINE
  8
_0-5_寸法線
  6
CONTINUOUS
 62
    7
 10
273.51795824097314
 20
744.60583080108245
 11
273.51795824097314
 21
789.60583080108245
  0
LINE
  8
_0-5_寸法線
  6
CONTINUOUS
 62
    7
 10
273.51795824097314
 20
784.60583080108245
 11
283.1772165038638
 21
787.19402125210763
  0
LINE
  8
_0-5_寸法線
  6
CONTINUOUS
 62
    7
 10
273.51795824097314
 20
784.60583080108245
 11
283.1772165038638
 21
782.01764035005738
  0
LINE
  8
_0-5_寸法線
  6
CONTINUOUS
 62
    7
 10
280.51795824097314
 20
744.60583080108245
 11
280.51795824097314
 21
789.60583080108245
  0
LINE
  8
_0-5_寸法線
  6
CONTINUOUS
 62
    7
 10
280.51795824097314
 20
784.60583080108245
 11
270.85869997808243
 21
782.01764035005738
  0
LINE
  8
_0-5_寸法線
  6
CONTINUOUS
 62
    7
 10
280.51795824097314
 20
784.60583080108245
 11
270.85869997808243
 21
787.19402125210763
  0
LINE
  8
_0-5_寸法線
  6
CONTINUOUS
 62
    7
 10
273.51795824097314
 20
784.60583080108245
 11
280.51795824097314
 21
784.60583080108245
  0
TEXT
  8
_0-5_寸法線
 62
    7
 10
273.26795824097314
 20
784.60583080108233
 40
15
 41
1
 50
0
  1
7
  0
LINE
  8
_0-5_寸法線
  6
CONTINUOUS
 62
    7
 10
280.51795824097314
 20
784.60583080108245
 11
290.17721650386392
 21
787.19402125210763
  0
LINE
  8
_0-5_寸法線
  6
CONTINUOUS
 62
    7
 10
280.51795824097314
 20
784.60583080108245
 11
290.17721650386375
 21
782.01764035005726
  0
LINE
  8
_0-5_寸法線
  6
CONTINUOUS
 62
    7
 10
474.51795824097314
 20
744.60583080108245
 11
474.51795824097314
 21
789.60583080108245
  0
LINE
  8
_0-5_寸法線
  6
CONTINUOUS
 62
    7
 10
474.51795824097314
 20
784.60583080108245
 11
464.85869997808243
 21
782.01764035005738
  0
LINE
  8
_0-5_寸法線
  6
CONTINUOUS
 62
    7
 10
474.51795824097314
 20
784.60583080108245
 11
464.85869997808254
 21
787.19402125210763
  0
LINE
  8
_0-5_寸法線
  6
CONTINUOUS
 62
    7
 10
280.51795824097314
 20
784.60583080108245
 11
474.51795824097314
 21
784.60583080108245
  0
TEXT
  8
_0-5_寸法線
 62
    7
 10
347.51795824097309
 20
784.60583080108233
 40
15
 41
1
 50
0
  1
2@97=194
  0
LINE
  8
_0-5_寸法線
  6
CONTINUOUS
 62
    7
 10
474.51795824097314
 20
784.60583080108245
 11
484.17721650386392
 21
787.19402125210763
  0
LINE
  8
_0-5_寸法線
  6
CONTINUOUS
 62
    7
 10
474.51795824097314
 20
784.60583080108245
 11
484.17721650386386
 21
782.01764035005726
  0
LINE
  8
_0-5_寸法線
  6
CONTINUOUS
 62
    7
 10
519.51795824097303
 20
744.60583080108245
 11
519.51795824097303
 21
789.60583080108245
  0
LINE
  8
_0-5_寸法線
  6
CONTINUOUS
 62
    7
 10
519.51795824097303
 20
784.60583080108245
 11
509.85869997808237
 21
782.01764035005738
  0
LINE
  8
_0-5_寸法線
  6
CONTINUOUS
 62
    7
 10
519.51795824097303
 20
784.60583080108245
 11
509.85869997808237
 21
787.19402125210763
  0
LINE
  8
_0-5_寸法線
  6
CONTINUOUS
 62
    7
 10
474.51795824097314
 20
784.60583080108245
 11
519.51795824097303
 21
784.60583080108245
  0
TEXT
  8
_0-5_寸法線
 62
    7
 10
489.51795824097314
 20
784.60583080108233
 40
15
 41
1
 50
0
  1
45
  0
LINE
  8
_0-5_寸法線
  6
CONTINUOUS
 62
    7
 10
519.51795824097303
 20
784.60583080108245
 11
529.17721650386375
 21
787.19402125210763
  0
LINE
  8
_0-5_寸法線
  6
CONTINUOUS
 62
    7
 10
519.51795824097303
 20
784.60583080108245
 11
529.17721650386375
 21
782.01764035005726
  0
LINE
  8
_0-5_寸法線
  6
CONTINUOUS
 62
    7
 10
616.51795824097326
 20
744.60583080108245
 11
616.51795824097326
 21
789.60583080108245
  0
LINE
  8
_0-5_寸法線
  6
CONTINUOUS
 62
    7
 10
616.51795824097326
 20
784.60583080108245
 11
606.85869997808243
 21
782.01764035005738
  0
LINE
  8
_0-5_寸法線
  6
CONTINUOUS
 62
    7
 10
616.51795824097326
 20
784.60583080108245
 11
606.85869997808243
 21
787.19402125210763
  0
LINE
  8
_0-5_寸法線
  6
CONTINUOUS
 62
    7
 10
519.51795824097303
 20
784.60583080108245
 11
616.51795824097326
 21
784.60583080108245
  0
TEXT
  8
_0-5_寸法線
 62
    7
 10
560.51795824097314
 20
784.60583080108233
 40
15
 41
1
 50
0
  1
97
  0
LINE
  8
_0-5_寸法線
  6
CONTINUOUS
 62
    7
 10
616.51795824097326
 20
784.60583080108245
 11
626.17721650386386
 21
787.19402125210763
  0
LINE
  8
_0-5_寸法線
  6
CONTINUOUS
 62
    7
 10
616.51795824097326
 20
784.60583080108245
 11
626.17721650386386
 21
782.01764035005726
  0
LINE
  8
_0-5_寸法線
  6
CONTINUOUS
 62
    7
 10
623.51795824097314
 20
744.60583080108245
 11
623.51795824097314
 21
789.60583080108245
  0
LINE
  8
_0-5_寸法線
  6
CONTINUOUS
 62
    7
 10
623.51795824097314
 20
784.60583080108245
 11
613.85869997808243
 21
782.01764035005738
  0
LINE
  8
_0-5_寸法線
  6
CONTINUOUS
 62
    7
 10
623.51795824097314
 20
784.60583080108245
 11
613.85869997808243
 21
787.19402125210763
  0
LINE
  8
_0-5_寸法線
  6
CONTINUOUS
 62
    7
 10
616.51795824097326
 20
784.60583080108245
 11
623.51795824097314
 21
784.60583080108245
  0
TEXT
  8
_0-5_寸法線
 62
    7
 10
616.26795824097314
 20
784.60583080108233
 40
15
 41
1
 50
0
  1
7
  0
LINE
  8
_0-5_寸法線
  6
CONTINUOUS
 62
    7
 10
604.03439759737
 20
571.27743049034905
 11
611.10546540923553
 21
578.34849830221447
  0
LINE
  8
_0-5_寸法線
  6
CONTINUOUS
 62
    7
 10
604.03439759737
 20
571.27743049034905
 11
613.69365586026083
 21
573.86562094137423
  0
LINE
  8
_0-5_寸法線
  6
CONTINUOUS
 62
    7
 10
604.03439759737
 20
571.27743049034905
 11
668.83439759737018
 21
608.68972793383682
  0
LINE
  8
_0-5_寸法線
  6
CONTINUOUS
 62
    7
 10
668.83439759737018
 20
608.68972793383682
 11
800.8343975973703
 21
608.68972793383682
  0
TEXT
  8
_0-5_寸法線
 62
    7
 10
668.8343975973703
 20
608.68972793383682
 40
15
 41
0.8000000000000001
 50
0
  1
セーフティグレーチング
  0
LINE
  8
_0-5_寸法線
  6
CONTINUOUS
 62
    7
 10
626.71773093070328
 20
507.78284411565352
 11
633.78879874256882
 21
514.85391192751888
  0
LINE
  8
_0-5_寸法線
  6
CONTINUOUS
 62
    7
 10
626.71773093070328
 20
507.78284411565352
 11
636.376989193594
 21
510.37103456667865
  0
LINE
  8
_0-5_寸法線
  6
CONTINUOUS
 62
    7
 10
626.71773093070328
 20
507.78284411565352
 11
668.1177309307036
 21
531.68514526010404
  0
LINE
  8
_0-5_寸法線
  6
CONTINUOUS
 62
    7
 10
668.1177309307036
 20
531.68514526010404
 11
776.11773093070371
 21
531.68514526010404
  0
TEXT
  8
_0-5_寸法線
 62
    7
 10
668.1177309307036
 20
531.68514526010404
 40
15
 41
0.8000000000000001
 50
0
  1
ＳＵＳアングル受枠
  0
TEXT
  8
_0-5_寸法線
 62
    7
 10
668.1177309307036
 20
516.68514526010404
 40
15
 41
0.8000000000000001
 50
0
  1
ＧＳＬ－２０
  0
LINE
  8
_0-5_寸法線
  6
CONTINUOUS
 62
    7
 10
360.08153774983617
 20
563.12519415061456
 11
352.10219420214111
 21
569.15263776692973
  0
LINE
  8
_0-5_寸法線
  6
CONTINUOUS
 62
    7
 10
360.08153774983617
 20
563.12519415061456
 11
356.18494534016628
 21
572.33478521606924
  0
LINE
  8
_0-5_寸法線
  6
CONTINUOUS
 62
    7
 10
360.08153774983617
 20
563.12519415061456
 11
183.46251325326861
 21
789.73050857600867
  0
LINE
  8
_0-5_寸法線
  6
CONTINUOUS
 62
    7
 10
183.46251325326861
 20
789.73050857600867
 11
123.46251325326861
 21
789.73050857600867
  0
TEXT
  8
_0-5_寸法線
 62
    7
 10
123.46251325326861
 20
789.73050857600867
 40
15
 41
0.8000000000000001
 50
0
  1
取　外　具
  0
TEXT
  8
_0-5_寸法線
 62
    7
 10
120.24219610208924
 20
773.07197994988087
 40
15
 41
0.8000000000000001
 50
0
  1
(標準付属)
  0
TEXT
  8
_0-7_枠細線
 62
    5
 10
123.43534353756013
 20
807.01063371179202
 40
12.5
 41
0.8
 50
0
  1
２
  0
LINE
  8
_0-7_枠細線
  6
CONTINUOUS
 62
    5
 10
136.07019226941205
 20
807.31763595717268
 11
128.57019226941205
 21
822.31763595717268
  0
LINE
  8
_0-7_枠細線
  6
CONTINUOUS
 62
    5
 10
121.07019226941205
 20
807.31763595717268
 11
136.07019226941205
 21
807.31763595717268
  0
LINE
  8
_0-7_枠細線
  6
CONTINUOUS
 62
    5
 10
128.57019226941205
 20
822.31763595717268
 11
121.07019226941205
 21
807.31763595717268
  0
TEXT
  8
_0-7_枠細線
 62
    5
 10
142.32723736543633
 20
806.71749098972612
 40
12.5
 41
0.8
 50
0
  1
３
  0
LINE
  8
_0-7_枠細線
  6
CONTINUOUS
 62
    5
 10
147.46208609728819
 20
822.26517487990748
 11
139.96208609728819
 21
807.26517487990748
  0
LINE
  8
_0-7_枠細線
  6
CONTINUOUS
 62
    5
 10
139.96208609728819
 20
807.26517487990748
 11
154.96208609728819
 21
807.26517487990748
  0
LINE
  8
_0-7_枠細線
  6
CONTINUOUS
 62
    5
 10
154.96208609728819
 20
807.26517487990748
 11
147.46208609728819
 21
822.26517487990748
  0
LINE
  8
_0-d_寸法3
  6
CONTINUOUS
 62
    7
 10
451.63992445384292
 20
268.36412902531367
 11
451.63992445384292
 21
310.03079569198019
  0
LINE
  8
_0-d_寸法3
  6
CONTINUOUS
 62
    7
 10
451.63992445384292
 20
305.03079569198019
 11
461.29918271673364
 21
307.61898614300537
  0
LINE
  8
_0-d_寸法3
  6
CONTINUOUS
 62
    7
 10
451.63992445384292
 20
305.03079569198019
 11
461.29918271673364
 21
302.442605240955
  0
LINE
  8
_0-d_寸法3
  6
CONTINUOUS
 62
    7
 10
480.63992445444597
 20
268.36412902531367
 11
480.63992445444597
 21
310.03079569198019
  0
LINE
  8
_0-d_寸法3
  6
CONTINUOUS
 62
    7
 10
480.63992445444597
 20
305.03079569198019
 11
470.98066619155526
 21
302.442605240955
  0
LINE
  8
_0-d_寸法3
  6
CONTINUOUS
 62
    7
 10
480.63992445444597
 20
305.03079569198019
 11
470.98066619155531
 21
307.61898614300543
  0
LINE
  8
_0-d_寸法3
  6
CONTINUOUS
 62
    7
 10
451.63992445384292
 20
305.03079569198019
 11
480.63992445444597
 21
305.03079569198019
  0
TEXT
  8
_0-d_寸法3
 62
    7
 10
440.09374654420213
 20
290.03079569198019
 40
15
 41
1
 50
0
  1
(17.4)
  0
LINE
  8
_0-d_寸法3
  6
CONTINUOUS
 62
    7
 10
480.63992445444597
 20
305.03079569198019
 11
490.29918271733663
 21
307.61898614300537
  0
LINE
  8
_0-d_寸法3
  6
CONTINUOUS
 62
    7
 10
480.63992445444597
 20
305.03079569198019
 11
490.29918271733663
 21
302.44260524095495
  0
LINE
  8
_0-d_寸法3
  6
CONTINUOUS
 62
    7
 10
509.63992445504891
 20
268.36412902531367
 11
509.63992445504891
 21
310.03079569198019
  0
LINE
  8
_0-d_寸法3
  6
CONTINUOUS
 62
    7
 10
509.63992445504891
 20
305.03079569198019
 11
499.9806661921582
 21
302.442605240955
  0
LINE
  8
_0-d_寸法3
  6
CONTINUOUS
 62
    7
 10
509.63992445504891
 20
305.03079569198019
 11
499.98066619215825
 21
307.61898614300543
  0
LINE
  8
_0-d_寸法3
  6
CONTINUOUS
 62
    7
 10
480.63992445444597
 20
305.03079569198019
 11
509.63992445504891
 21
305.03079569198019
  0
TEXT
  8
_0-d_寸法3
 62
    7
 10
477.16041321086828
 20
305.03079569198019
 40
15
 41
1
 50
0
  1
(17.4)
  0
LINE
  8
_0-d_寸法3
  6
CONTINUOUS
 62
    7
 10
403.13992445048098
 20
265.03079569198019
 11
403.13992445048098
 21
310.03079569198019
  0
LINE
  8
_0-d_寸法3
  6
CONTINUOUS
 62
    7
 10
403.13992445048098
 20
305.03079569198019
 11
393.48066618759026
 21
302.442605240955
  0
LINE
  8
_0-d_寸法3
  6
CONTINUOUS
 62
    7
 10
403.13992445048098
 20
305.03079569198019
 11
393.48066618759037
 21
307.61898614300543
  0
LINE
  8
_0-d_寸法3
  6
CONTINUOUS
 62
    7
 10
413.13992445476242
 20
265.03079569198019
 11
413.13992445476242
 21
310.03079569198019
  0
LINE
  8
_0-d_寸法3
  6
CONTINUOUS
 62
    7
 10
378.76596876731406
 20
305.03079569198019
 11
413.13992445476242
 21
305.03079569198019
  0
TEXT
  8
_0-d_寸法3
 62
    7
 10
378.76596876731406
 20
290.03079569198019
 40
15
 41
1
 50
0
  1
(6)
  0
LINE
  8
_0-d_寸法3
  6
CONTINUOUS
 62
    7
 10
413.13992445476242
 20
305.03079569198019
 11
422.79918271765314
 21
307.61898614300537
  0
LINE
  8
_0-d_寸法3
  6
CONTINUOUS
 62
    7
 10
413.13992445476242
 20
305.03079569198019
 11
422.79918271765314
 21
302.442605240955
  0
LINE
  8
_0-d_寸法3
  6
CONTINUOUS
 62
    7
 10
432.13992445108352
 20
265.03079569198019
 11
432.13992445108352
 21
310.03079569198019
  0
LINE
  8
_0-d_寸法3
  6
CONTINUOUS
 62
    7
 10
432.13992445108352
 20
305.03079569198019
 11
422.4806661881928
 21
302.442605240955
  0
LINE
  8
_0-d_寸法3
  6
CONTINUOUS
 62
    7
 10
432.13992445108352
 20
305.03079569198019
 11
422.48066618819286
 21
307.61898614300543
  0
LINE
  8
_0-d_寸法3
  6
CONTINUOUS
 62
    7
 10
413.13992445476242
 20
305.03079569198019
 11
432.13992445108352
 21
305.03079569198019
  0
TEXT
  8
_0-d_寸法3
 62
    7
 10
403.87522802657327
 20
305.03079569198019
 40
15
 41
1
 50
0
  1
11.4
  0
ARC
  8
_0-a_極細3
  6
CONTINUOUS
 62
    7
 10
540.46932777957909
 20
246.85084653362867
 40
17.558839598481345
 50
150.03871396148165
 51
205.23810402387883
  0
ARC
  8
_0-a_極細3
  6
CONTINUOUS
 62
    7
 10
508.70385258968099
 20
231.87733732099801
 40
17.558839598481345
 50
330.03871396148202
 51
25.238104023878222
  0
ARC
  8
_0-a_極細3
  6
CONTINUOUS
 62
    7
 10
395.54951234124525
 20
246.85084653362867
 40
17.558839598481345
 50
150.03871396148165
 51
205.23810402387883
  0
ARC
  8
_0-a_極細3
  6
CONTINUOUS
 62
    7
 10
363.78403715134709
 20
231.87733732099801
 40
17.558839598481345
 50
330.03871396148202
 51
25.238104023878222
  0
LINE
  8
_0-a_極細3
  6
CENTER1
 62
    7
 10
530.43869144413884
 20
239.69746235864693
 11
367.86014881621304
 21
239.69746235864693
  0
LINE
  8
_0-b_細線3
  6
CONTINUOUS
 62
    7
 10
454.47325778809591
 20
228.86412902531367
 11
477.80659112142939
 21
228.86412902531367
  0
LINE
  8
_0-b_細線3
  6
CONTINUOUS
 62
    7
 10
483.47325778869896
 20
228.86412902531367
 11
506.80659112203244
 21
228.86412902531367
  0
LINE
  8
_0-b_細線3
  6
CONTINUOUS
 62
    7
 10
396.47325778657296
 20
228.86412902531367
 11
419.80659111990644
 21
228.86412902531367
  0
LINE
  8
_0-b_細線3
  6
CONTINUOUS
 62
    7
 10
425.47325778717641
 20
228.86412902531367
 11
448.80659112050949
 21
228.86412902531367
  0
LINE
  8
_0-b_細線3
  6
CONTINUOUS
 62
    7
 10
454.47325778809591
 20
250.53079569198033
 11
477.80659112142939
 21
250.53079569198033
  0
LINE
  8
_0-b_細線3
  6
CONTINUOUS
 62
    7
 10
483.47325778869896
 20
250.53079569198033
 11
506.80659112203244
 21
250.53079569198033
  0
LINE
  8
_0-b_細線3
  6
CONTINUOUS
 62
    7
 10
396.47325778657296
 20
250.53079569198033
 11
419.80659111990644
 21
250.53079569198033
  0
LINE
  8
_0-b_細線3
  6
CONTINUOUS
 62
    7
 10
425.47325778717641
 20
250.53079569198033
 11
448.80659112050949
 21
250.53079569198033
  0
LINE
  8
_0-b_細線3
  6
CONTINUOUS
 62
    7
 10
512.4732577893019
 20
250.53079569198033
 11
523.23235418010199
 21
250.53079569198033
  0
LINE
  8
_0-b_細線3
  6
CONTINUOUS
 62
    7
 10
512.4732577893019
 20
228.86412902531367
 11
525.94082618915809
 21
228.86412902531367
  0
LINE
  8
_0-b_細線3
  6
CONTINUOUS
 62
    7
 10
378.31253874176809
 20
250.53079569198033
 11
390.80659111930345
 21
250.53079569198033
  0
LINE
  8
_0-b_細線3
  6
CONTINUOUS
 62
    7
 10
381.02101075082425
 20
228.86412902531367
 11
390.80659111930345
 21
228.86412902531367
  0
TEXT
  8
_0-7_枠細線
 62
    5
 10
417.22469092493753
 20
170.0670836765407
 40
25.000000000000007
 41
0.8
 50
0
  1
断面詳細
  0
TEXT
  8
_0-7_枠細線
 62
    5
 10
521.18718073399953
 20
173.02652349686042
 40
20.000000000000004
 41
0.5999999999999999
 50
0
  1
Ｓ＝１：３
  0
ARC
  8
_0-b_細線3
  6
CONTINUOUS
 62
    7
 10
443.80659112234895
 20
255.03079569198022
 40
1.666666666666667
 50
89.999999999999915
 51
179.99999999999983
  0
ARC
  8
_0-b_細線3
  6
CONTINUOUS
 62
    7
 10
444.58650644122781
 20
258.36412902531367
 40
1.666666666666667
 50
269.99999999999977
 51
330.00000000000301
  0
ARC
  8
_0-b_細線3
  6
CONTINUOUS
 62
    7
 10
447.47325778717595
 20
256.69746235864716
 40
1.666666666666667
 50
89.999999999999915
 51
150.00000000000134
  0
LINE
  8
_0-b_細線3
  6
CONTINUOUS
 62
    7
 10
443.80659112234895
 20
256.69746235864716
 11
444.58650644122781
 21
256.69746235864716
  0
ARC
  8
_0-b_細線3
  6
CONTINUOUS
 62
    7
 10
459.47325778533695
 20
255.03079569198022
 40
1.666666666666667
 50
0
 51
89.999999999999915
  0
ARC
  8
_0-b_細線3
  6
CONTINUOUS
 62
    7
 10
458.69334246645764
 20
258.36412902531367
 40
1.666666666666667
 50
210.00000000000404
 51
269.99999999999977
  0
ARC
  8
_0-b_細線3
  6
CONTINUOUS
 62
    7
 10
455.80659112050944
 20
256.69746235864716
 40
1.666666666666667
 50
29.999999999990862
 51
89.999999999984354
  0
LINE
  8
_0-b_細線3
  6
CONTINUOUS
 62
    7
 10
459.47325778533695
 20
256.69746235864716
 11
458.69334246645764
 21
256.69746235864716
  0
ARC
  8
_0-b_細線3
  6
CONTINUOUS
 62
    7
 10
442.97325778901546
 20
252.69746235864716
 40
0.8333333333333334
 50
179.99999999999983
 51
269.99999999999977
  0
LINE
  8
_0-b_細線3
  6
CONTINUOUS
 62
    7
 10
442.13992445568192
 20
255.03079569198022
 11
442.13992445568192
 21
252.69746235864716
  0
ARC
  8
_0-b_細線3
  6
CONTINUOUS
 62
    7
 10
460.30659111867004
 20
252.69746235864716
 40
0.8333333333333334
 50
269.99999999999977
 51
359.99999999999966
  0
LINE
  8
_0-b_細線3
  6
CONTINUOUS
 62
    7
 10
461.13992445200353
 20
255.03079569198022
 11
461.13992445200353
 21
252.69746235864716
  0
ARC
  8
_0-b_細線3
  6
CONTINUOUS
 62
    7
 10
447.13992445568192
 20
250.19746235864716
 40
1.666666666666667
 50
0
 51
89.999999999999915
  0
LINE
  8
_0-b_細線3
  6
CONTINUOUS
 62
    7
 10
447.13992445568192
 20
251.8641290253137
 11
442.97325778901546
 21
251.8641290253137
  0
ARC
  8
_0-b_細線3
  6
CONTINUOUS
 62
    7
 10
456.13992445568243
 20
250.19746235864716
 40
1.666666666666667
 50
89.999999999999915
 51
179.99999999999983
  0
LINE
  8
_0-b_細線3
  6
CONTINUOUS
 62
    7
 10
456.13992445200353
 20
251.8641290253137
 11
460.30659111867004
 21
251.8641290253137
  0
LINE
  8
_0-b_細線3
  6
CONTINUOUS
 62
    7
 10
455.80659112050944
 20
258.36412902531367
 11
447.47325778717595
 21
258.36412902531367
  0
LINE
  8
_0-b_細線3
  6
CONTINUOUS
 62
    7
 10
448.80659112050949
 20
225.03079569198033
 11
448.80659112234895
 21
250.19746235864716
  0
LINE
  8
_0-b_細線3
  6
CONTINUOUS
 62
    7
 10
454.47325778717595
 20
225.03079569198033
 11
454.47325778901586
 21
250.19746235864716
  0
LINE
  8
_0-b_細線3
  6
CONTINUOUS
 62
    7
 10
454.47325778717595
 20
225.03079569198033
 11
448.80659112050949
 21
225.03079569198033
  0
ARC
  8
_0-b_細線3
  6
CONTINUOUS
 62
    7
 10
472.80659112295189
 20
255.03079569198022
 40
1.666666666666667
 50
89.999999999999915
 51
179.99999999999983
  0
ARC
  8
_0-b_細線3
  6
CONTINUOUS
 62
    7
 10
473.58650644183086
 20
258.36412902531367
 40
1.666666666666667
 50
269.99999999999977
 51
329.99999999999523
  0
ARC
  8
_0-b_細線3
  6
CONTINUOUS
 62
    7
 10
476.47325778777895
 20
256.69746235864716
 40
1.666666666666667
 50
89.999999999999915
 51
150.00000000000915
  0
LINE
  8
_0-b_細線3
  6
CONTINUOUS
 62
    7
 10
472.80659112295189
 20
256.69746235864716
 11
473.58650644183086
 21
256.69746235864716
  0
ARC
  8
_0-b_細線3
  6
CONTINUOUS
 62
    7
 10
488.47325778593995
 20
255.03079569198022
 40
1.666666666666667
 50
0
 51
89.999999999999915
  0
ARC
  8
_0-b_細線3
  6
CONTINUOUS
 62
    7
 10
487.69334246706057
 20
258.36412902531367
 40
1.666666666666667
 50
209.99999999999622
 51
269.99999999999977
  0
ARC
  8
_0-b_細線3
  6
CONTINUOUS
 62
    7
 10
484.80659112111249
 20
256.69746235864716
 40
1.666666666666667
 50
29.999999999998682
 51
89.999999999999915
  0
LINE
  8
_0-b_細線3
  6
CONTINUOUS
 62
    7
 10
488.47325778593995
 20
256.69746235864716
 11
487.69334246706057
 21
256.69746235864716
  0
ARC
  8
_0-b_細線3
  6
CONTINUOUS
 62
    7
 10
471.97325778961891
 20
252.69746235864716
 40
0.8333333333333334
 50
179.99999999999983
 51
269.99999999999977
  0
LINE
  8
_0-b_細線3
  6
CONTINUOUS
 62
    7
 10
471.13992445628497
 20
255.03079569198022
 11
471.13992445628497
 21
252.69746235864716
  0
ARC
  8
_0-b_細線3
  6
CONTINUOUS
 62
    7
 10
489.30659111927298
 20
252.69746235864716
 40
0.8333333333333334
 50
269.99999999999977
 51
359.99999999999966
  0
LINE
  8
_0-b_細線3
  6
CONTINUOUS
 62
    7
 10
490.13992445260646
 20
255.03079569198022
 11
490.13992445260646
 21
252.69746235864716
  0
ARC
  8
_0-b_細線3
  6
CONTINUOUS
 62
    7
 10
476.13992445628497
 20
250.19746235864716
 40
1.666666666666667
 50
0
 51
89.999999999999915
  0
LINE
  8
_0-b_細線3
  6
CONTINUOUS
 62
    7
 10
476.13992445628497
 20
251.8641290253137
 11
471.97325778961891
 21
251.8641290253137
  0
ARC
  8
_0-b_細線3
  6
CONTINUOUS
 62
    7
 10
485.13992445628537
 20
250.19746235864716
 40
1.666666666666667
 50
89.999999999999915
 51
179.99999999999983
  0
LINE
  8
_0-b_細線3
  6
CONTINUOUS
 62
    7
 10
485.13992445260646
 20
251.8641290253137
 11
489.30659111927298
 21
251.8641290253137
  0
LINE
  8
_0-b_細線3
  6
CONTINUOUS
 62
    7
 10
484.80659112111249
 20
258.36412902531367
 11
476.47325778777895
 21
258.36412902531367
  0
LINE
  8
_0-b_細線3
  6
CONTINUOUS
 62
    7
 10
477.80659112111243
 20
225.03079569198033
 11
477.80659112295189
 21
250.19746235864716
  0
LINE
  8
_0-b_細線3
  6
CONTINUOUS
 62
    7
 10
483.473257787779
 20
225.03079569198033
 11
483.47325778961886
 21
250.19746235864716
  0
LINE
  8
_0-b_細線3
  6
CONTINUOUS
 62
    7
 10
483.473257787779
 20
225.03079569198033
 11
477.80659112111243
 21
225.03079569198033
  0
ARC
  8
_0-b_細線3
  6
CONTINUOUS
 62
    7
 10
501.80659112355494
 20
255.03079569198022
 40
1.666666666666667
 50
89.999999999999915
 51
179.99999999999983
  0
ARC
  8
_0-b_細線3
  6
CONTINUOUS
 62
    7
 10
502.5865064424338
 20
258.36412902531367
 40
1.666666666666667
 50
269.99999999999977
 51
329.99999999999523
  0
ARC
  8
_0-b_細線3
  6
CONTINUOUS
 62
    7
 10
505.473257788382
 20
256.69746235864716
 40
1.666666666666667
 50
89.999999999999915
 51
150.00000000000915
  0
LINE
  8
_0-b_細線3
  6
CONTINUOUS
 62
    7
 10
501.80659112355494
 20
256.69746235864716
 11
502.5865064424338
 21
256.69746235864716
  0
ARC
  8
_0-b_細線3
  6
CONTINUOUS
 62
    7
 10
517.47325778654294
 20
255.03079569198022
 40
1.666666666666667
 50
0
 51
89.999999999999915
  0
ARC
  8
_0-b_細線3
  6
CONTINUOUS
 62
    7
 10
516.69334246766357
 20
258.36412902531367
 40
1.666666666666667
 50
210.00000000000404
 51
269.99999999999977
  0
ARC
  8
_0-b_細線3
  6
CONTINUOUS
 62
    7
 10
513.80659112171543
 20
256.69746235864716
 40
1.666666666666667
 50
29.999999999990862
 51
89.999999999984354
  0
LINE
  8
_0-b_細線3
  6
CONTINUOUS
 62
    7
 10
517.47325778654294
 20
256.69746235864716
 11
516.69334246766357
 21
256.69746235864716
  0
ARC
  8
_0-b_細線3
  6
CONTINUOUS
 62
    7
 10
500.9732577902214
 20
252.69746235864716
 40
0.8333333333333334
 50
179.99999999999983
 51
269.99999999999977
  0
LINE
  8
_0-b_細線3
  6
CONTINUOUS
 62
    7
 10
500.13992445688791
 20
255.03079569198022
 11
500.13992445688791
 21
252.69746235864716
  0
ARC
  8
_0-b_細線3
  6
CONTINUOUS
 62
    7
 10
518.30659111987597
 20
252.69746235864716
 40
0.8333333333333334
 50
269.99999999999977
 51
359.99999999999966
  0
LINE
  8
_0-b_細線3
  6
CONTINUOUS
 62
    7
 10
519.13992445320946
 20
255.03079569198022
 11
519.13992445320946
 21
252.69746235864716
  0
ARC
  8
_0-b_細線3
  6
CONTINUOUS
 62
    7
 10
505.13992445688791
 20
250.19746235864716
 40
1.666666666666667
 50
0
 51
89.999999999999915
  0
LINE
  8
_0-b_細線3
  6
CONTINUOUS
 62
    7
 10
505.13992445688791
 20
251.8641290253137
 11
500.9732577902214
 21
251.8641290253137
  0
ARC
  8
_0-b_細線3
  6
CONTINUOUS
 62
    7
 10
514.13992445688791
 20
250.19746235864716
 40
1.666666666666667
 50
89.999999999999915
 51
179.99999999999983
  0
LINE
  8
_0-b_細線3
  6
CONTINUOUS
 62
    7
 10
514.13992445320901
 20
251.8641290253137
 11
518.30659111987597
 21
251.8641290253137
  0
LINE
  8
_0-b_細線3
  6
CONTINUOUS
 62
    7
 10
513.80659112171543
 20
258.36412902531367
 11
505.473257788382
 21
258.36412902531367
  0
LINE
  8
_0-b_細線3
  6
CONTINUOUS
 62
    7
 10
506.80659112171548
 20
225.03079569198033
 11
506.80659112355494
 21
250.19746235864716
  0
LINE
  8
_0-b_細線3
  6
CONTINUOUS
 62
    7
 10
512.47325778838194
 20
225.03079569198033
 11
512.47325779022185
 21
250.19746235864716
  0
LINE
  8
_0-b_細線3
  6
CONTINUOUS
 62
    7
 10
512.47325778838194
 20
225.03079569198033
 11
506.80659112171548
 21
225.03079569198033
  0
ARC
  8
_0-b_細線3
  6
CONTINUOUS
 62
    7
 10
385.806591120826
 20
255.03079569198022
 40
1.666666666666667
 50
89.999999999999915
 51
179.99999999999983
  0
ARC
  8
_0-b_細線3
  6
CONTINUOUS
 62
    7
 10
386.58650643970486
 20
258.36412902531367
 40
1.666666666666667
 50
269.99999999999977
 51
330.00000000000301
  0
ARC
  8
_0-b_細線3
  6
CONTINUOUS
 62
    7
 10
389.473257785653
 20
256.69746235864716
 40
1.666666666666667
 50
89.999999999999915
 51
150.00000000000134
  0
LINE
  8
_0-b_細線3
  6
CONTINUOUS
 62
    7
 10
385.806591120826
 20
256.69746235864716
 11
386.58650643970486
 21
256.69746235864716
  0
ARC
  8
_0-b_細線3
  6
CONTINUOUS
 62
    7
 10
401.47325778381401
 20
255.03079569198022
 40
1.666666666666667
 50
0
 51
89.999999999999915
  0
ARC
  8
_0-b_細線3
  6
CONTINUOUS
 62
    7
 10
400.69334246493509
 20
258.36412902531367
 40
1.666666666666667
 50
209.99999999999622
 51
269.99999999999977
  0
ARC
  8
_0-b_細線3
  6
CONTINUOUS
 62
    7
 10
397.80659111898649
 20
256.69746235864716
 40
1.666666666666667
 50
29.999999999990862
 51
89.999999999984354
  0
LINE
  8
_0-b_細線3
  6
CONTINUOUS
 62
    7
 10
401.47325778381401
 20
256.69746235864716
 11
400.69334246493509
 21
256.69746235864716
  0
ARC
  8
_0-b_細線3
  6
CONTINUOUS
 62
    7
 10
384.97325778749291
 20
252.69746235864716
 40
0.8333333333333334
 50
179.99999999999983
 51
269.99999999999977
  0
LINE
  8
_0-b_細線3
  6
CONTINUOUS
 62
    7
 10
384.13992445415897
 20
255.03079569198022
 11
384.13992445415897
 21
252.69746235864716
  0
ARC
  8
_0-b_細線3
  6
CONTINUOUS
 62
    7
 10
402.30659111714709
 20
252.69746235864716
 40
0.8333333333333334
 50
269.99999999999977
 51
359.99999999999966
  0
LINE
  8
_0-b_細線3
  6
CONTINUOUS
 62
    7
 10
403.13992445048098
 20
255.03079569198022
 11
403.13992445048098
 21
252.69746235864716
  0
ARC
  8
_0-b_細線3
  6
CONTINUOUS
 62
    7
 10
389.13992445415897
 20
250.19746235864716
 40
1.666666666666667
 50
0
 51
89.999999999999915
  0
LINE
  8
_0-b_細線3
  6
CONTINUOUS
 62
    7
 10
389.13992445415897
 20
251.8641290253137
 11
384.97325778749291
 21
251.8641290253137
  0
ARC
  8
_0-b_細線3
  6
CONTINUOUS
 62
    7
 10
398.13992445415948
 20
250.19746235864716
 40
1.666666666666667
 50
89.999999999999915
 51
179.99999999999983
  0
LINE
  8
_0-b_細線3
  6
CONTINUOUS
 62
    7
 10
398.13992445048058
 20
251.8641290253137
 11
402.30659111714709
 21
251.8641290253137
  0
LINE
  8
_0-b_細線3
  6
CONTINUOUS
 62
    7
 10
397.80659111898649
 20
258.36412902531367
 11
389.473257785653
 21
258.36412902531367
  0
LINE
  8
_0-b_細線3
  6
CONTINUOUS
 62
    7
 10
390.80659111898694
 20
225.03079569198033
 11
390.806591120826
 21
250.19746235864716
  0
LINE
  8
_0-b_細線3
  6
CONTINUOUS
 62
    7
 10
396.473257785653
 20
225.03079569198033
 11
396.47325778749291
 21
250.19746235864716
  0
LINE
  8
_0-b_細線3
  6
CONTINUOUS
 62
    7
 10
396.473257785653
 20
225.03079569198033
 11
390.80659111898694
 21
225.03079569198033
  0
ARC
  8
_0-b_細線3
  6
CONTINUOUS
 62
    7
 10
414.80659112142894
 20
255.03079569198022
 40
1.666666666666667
 50
89.999999999999915
 51
179.99999999999983
  0
ARC
  8
_0-b_細線3
  6
CONTINUOUS
 62
    7
 10
415.58650644030831
 20
258.36412902531367
 40
1.666666666666667
 50
269.99999999999977
 51
329.99999999998744
  0
ARC
  8
_0-b_細線3
  6
CONTINUOUS
 62
    7
 10
418.473257786256
 20
256.69746235864716
 40
1.666666666666667
 50
89.999999999999915
 51
150.00000000000915
  0
LINE
  8
_0-b_細線3
  6
CONTINUOUS
 62
    7
 10
414.80659112142894
 20
256.69746235864716
 11
415.58650644030831
 21
256.69746235864716
  0
ARC
  8
_0-b_細線3
  6
CONTINUOUS
 62
    7
 10
430.473257784417
 20
255.03079569198022
 40
1.666666666666667
 50
0
 51
89.999999999999915
  0
ARC
  8
_0-b_細線3
  6
CONTINUOUS
 62
    7
 10
429.69334246553763
 20
258.36412902531367
 40
1.666666666666667
 50
210.00000000000404
 51
269.99999999999977
  0
ARC
  8
_0-b_細線3
  6
CONTINUOUS
 62
    7
 10
426.80659111958994
 20
256.69746235864716
 40
1.666666666666667
 50
29.999999999998682
 51
89.999999999999915
  0
LINE
  8
_0-b_細線3
  6
CONTINUOUS
 62
    7
 10
430.473257784417
 20
256.69746235864716
 11
429.69334246553763
 21
256.69746235864716
  0
ARC
  8
_0-b_細線3
  6
CONTINUOUS
 62
    7
 10
413.97325778809596
 20
252.69746235864716
 40
0.8333333333333334
 50
179.99999999999983
 51
269.99999999999977
  0
LINE
  8
_0-b_細線3
  6
CONTINUOUS
 62
    7
 10
413.13992445476242
 20
255.03079569198022
 11
413.13992445476242
 21
252.69746235864716
  0
ARC
  8
_0-b_細線3
  6
CONTINUOUS
 62
    7
 10
431.30659111775003
 20
252.69746235864716
 40
0.8333333333333334
 50
269.99999999999977
 51
359.99999999999966
  0
LINE
  8
_0-b_細線3
  6
CONTINUOUS
 62
    7
 10
432.13992445108352
 20
255.03079569198022
 11
432.13992445108352
 21
252.69746235864716
  0
ARC
  8
_0-b_細線3
  6
CONTINUOUS
 62
    7
 10
418.13992445476242
 20
250.19746235864716
 40
1.666666666666667
 50
0
 51
89.999999999999915
  0
LINE
  8
_0-b_細線3
  6
CONTINUOUS
 62
    7
 10
418.13992445476242
 20
251.8641290253137
 11
413.97325778809596
 21
251.8641290253137
  0
ARC
  8
_0-b_細線3
  6
CONTINUOUS
 62
    7
 10
427.13992445476242
 20
250.19746235864716
 40
1.666666666666667
 50
89.999999999999915
 51
179.99999999999983
  0
LINE
  8
_0-b_細線3
  6
CONTINUOUS
 62
    7
 10
427.13992445108352
 20
251.8641290253137
 11
431.30659111775003
 21
251.8641290253137
  0
LINE
  8
_0-b_細線3
  6
CONTINUOUS
 62
    7
 10
426.80659111958994
 20
258.36412902531367
 11
418.473257786256
 21
258.36412902531367
  0
LINE
  8
_0-b_細線3
  6
CONTINUOUS
 62
    7
 10
419.80659111958948
 20
225.03079569198033
 11
419.80659112142894
 21
250.19746235864716
  0
LINE
  8
_0-b_細線3
  6
CONTINUOUS
 62
    7
 10
425.47325778625645
 20
225.03079569198033
 11
425.47325778809591
 21
250.19746235864716
  0
LINE
  8
_0-b_細線3
  6
CONTINUOUS
 62
    7
 10
425.47325778625645
 20
225.03079569198033
 11
419.80659111958948
 21
225.03079569198033
  0
LINE
  8
_0-d_寸法3
  6
CONTINUOUS
 62
    7
 10
517.83144489825486
 20
230.76656005549083
 11
553.18378662394036
 21
255.52053622518162
  0
LINE
  8
_0-d_寸法3
  6
CONTINUOUS
 62
    7
 10
549.08802640249542
 20
252.65265404342639
 11
546.49983595147023
 21
262.31191230631703
  0
LINE
  8
_0-d_寸法3
  6
CONTINUOUS
 62
    7
 10
549.08802640249542
 20
252.65265404342639
 11
551.6762168535206
 21
262.31191230631703
  0
LINE
  8
_0-d_寸法3
  6
CONTINUOUS
 62
    7
 10
517.83144489825486
 20
264.09989338882417
 11
553.18378662394036
 21
288.85386955851493
  0
LINE
  8
_0-d_寸法3
  6
CONTINUOUS
 62
    7
 10
549.08802640249542
 20
285.98598737675968
 11
551.6762168535206
 21
276.32672911386896
  0
LINE
  8
_0-d_寸法3
  6
CONTINUOUS
 62
    7
 10
549.08802640249542
 20
285.98598737675968
 11
546.49983595147012
 21
276.32672911386908
  0
LINE
  8
_0-d_寸法3
  6
CONTINUOUS
 62
    7
 10
549.08802640249542
 20
252.65265404342639
 11
549.08802640249542
 21
285.98598737675968
  0
TEXT
  8
_0-d_寸法3
 62
    7
 10
549.08802640249542
 20
261.81932071009402
 40
15
 41
1
 50
90
  1
20
  0
LINE
  8
_0-7_枠細線
  6
CONTINUOUS
 62
    5
 10
639.62302206321726
 20
803.92835803928369
 11
632.12302206321726
 21
788.92835803928369
  0
LINE
  8
_0-7_枠細線
  6
CONTINUOUS
 62
    5
 10
632.12302206321726
 20
788.92835803928369
 11
647.12302206321726
 21
788.92835803928369
  0
LINE
  8
_0-7_枠細線
  6
CONTINUOUS
 62
    5
 10
647.12302206321726
 20
788.92835803928369
 11
639.62302206321726
 21
803.92835803928369
  0
TEXT
  8
_0-7_枠細線
 62
    5
 10
636.98817333136537
 20
788.38067414910233
 40
12.5
 41
0.8
 50
0
  1
1
  0
LINE
  8
_0-5_寸法線
  6
CONTINUOUS
 62
    7
 10
268.51795824097314
 20
744.60583080108245
 11
268.51795824097337
 21
894.60583080108245
  0
LINE
  8
_0-5_寸法線
  6
CONTINUOUS
 62
    7
 10
268.51795824097337
 20
889.60583080108245
 11
278.17721650386403
 21
892.19402125210763
  0
LINE
  8
_0-5_寸法線
  6
CONTINUOUS
 62
    7
 10
268.51795824097337
 20
889.60583080108245
 11
278.17721650386403
 21
887.01764035005738
  0
LINE
  8
_0-5_寸法線
  6
CONTINUOUS
 62
    7
 10
628.51795824097371
 20
744.60583080108245
 11
628.51795824097405
 21
894.60583080108245
  0
LINE
  8
_0-5_寸法線
  6
CONTINUOUS
 62
    7
 10
628.51795824097405
 20
889.60583080108245
 11
618.85869997808334
 21
887.01764035005738
  0
LINE
  8
_0-5_寸法線
  6
CONTINUOUS
 62
    7
 10
628.51795824097405
 20
889.60583080108245
 11
618.85869997808334
 21
892.19402125210763
  0
LINE
  8
_0-5_寸法線
  6
CONTINUOUS
 62
    7
 10
268.51795824097337
 20
889.60583080108245
 11
628.51795824097405
 21
889.60583080108245
  0
TEXT
  8
_0-5_寸法線
 62
    7
 10
437.26795824097343
 20
889.60583080108233
 40
15
 41
1
 50
0
  1
360
  0
LINE
  8
_0-5_寸法線
  6
CONTINUOUS
 62
    7
 10
268.51795824097314
 20
854.60583080108245
 11
258.85869997808243
 21
852.01764035005738
  0
LINE
  8
_0-5_寸法線
  6
CONTINUOUS
 62
    7
 10
268.51795824097314
 20
854.60583080108245
 11
258.85869997808248
 21
857.19402125210763
  0
LINE
  8
_0-5_寸法線
  6
CONTINUOUS
 62
    7
 10
271.5179582409732
 20
744.60583080108245
 11
271.5179582409732
 21
859.60583080108245
  0
LINE
  8
_0-5_寸法線
  6
CONTINUOUS
 62
    7
 10
243.51795824097314
 20
854.60583080108245
 11
271.5179582409732
 21
854.60583080108245
  0
TEXT
  8
_0-5_寸法線
 62
    7
 10
247.41188198170633
 20
854.60583080108233
 40
15
 41
1
 50
0
  1
3
  0
LINE
  8
_0-5_寸法線
  6
CONTINUOUS
 62
    7
 10
271.5179582409732
 20
854.60583080108245
 11
281.17721650386386
 21
857.19402125210763
  0
LINE
  8
_0-5_寸法線
  6
CONTINUOUS
 62
    7
 10
271.5179582409732
 20
854.60583080108245
 11
281.17721650386386
 21
852.01764035005726
  0
LINE
  8
_0-5_寸法線
  6
CONTINUOUS
 62
    7
 10
625.5179582409736
 20
744.60583080108245
 11
625.51795824097371
 21
859.60583080108245
  0
LINE
  8
_0-5_寸法線
  6
CONTINUOUS
 62
    7
 10
625.51795824097371
 20
854.60583080108245
 11
615.858699978083
 21
852.01764035005738
  0
LINE
  8
_0-5_寸法線
  6
CONTINUOUS
 62
    7
 10
625.51795824097371
 20
854.60583080108245
 11
615.858699978083
 21
857.19402125210763
  0
LINE
  8
_0-5_寸法線
  6
CONTINUOUS
 62
    7
 10
271.5179582409732
 20
854.60583080108245
 11
625.51795824097371
 21
854.60583080108245
  0
TEXT
  8
_0-5_寸法線
 62
    7
 10
437.26795824097331
 20
854.60583080108233
 40
15
 41
1
 50
0
  1
354
  0
LINE
  8
_0-5_寸法線
  6
CONTINUOUS
 62
    7
 10
628.51795824097371
 20
854.60583080108245
 11
638.17721650386443
 21
857.19402125210763
  0
LINE
  8
_0-5_寸法線
  6
CONTINUOUS
 62
    7
 10
628.51795824097371
 20
854.60583080108245
 11
638.17721650386443
 21
852.01764035005726
  0
LINE
  8
_0-5_寸法線
  6
CONTINUOUS
 62
    7
 10
625.51795824097371
 20
854.60583080108245
 11
653.51795824097383
 21
854.60583080108245
  0
TEXT
  8
_0-5_寸法線
 62
    7
 10
642.68560460944332
 20
854.60583080108245
 40
15
 41
1
 50
0
  1
3
  0
LINE
  8
_0-5_寸法線
  6
CONTINUOUS
 62
    7
 10
273.51795824097314
 20
744.60583080108245
 11
273.51795824097326
 21
824.60583080108245
  0
LINE
  8
_0-5_寸法線
  6
CONTINUOUS
 62
    7
 10
273.51795824097326
 20
819.60583080108245
 11
283.17721650386386
 21
822.19402125210763
  0
LINE
  8
_0-5_寸法線
  6
CONTINUOUS
 62
    7
 10
273.51795824097326
 20
819.60583080108245
 11
283.17721650386386
 21
817.01764035005738
  0
LINE
  8
_0-5_寸法線
  6
CONTINUOUS
 62
    7
 10
623.51795824097314
 20
744.60583080108245
 11
623.51795824097326
 21
824.60583080108245
  0
LINE
  8
_0-5_寸法線
  6
CONTINUOUS
 62
    7
 10
623.51795824097326
 20
819.60583080108245
 11
613.85869997808254
 21
817.01764035005738
  0
LINE
  8
_0-5_寸法線
  6
CONTINUOUS
 62
    7
 10
623.51795824097326
 20
819.60583080108245
 11
613.85869997808254
 21
822.19402125210763
  0
LINE
  8
_0-5_寸法線
  6
CONTINUOUS
 62
    7
 10
273.51795824097326
 20
819.60583080108245
 11
623.51795824097326
 21
819.60583080108245
  0
TEXT
  8
_0-5_寸法線
 62
    7
 10
437.26795824097331
 20
819.60583080108245
 40
15
 41
1
 50
0
  1
350
  0
LINE
  8
_0-5_寸法線
  6
CONTINUOUS
 62
    7
 10
910.00000018997082
 20
686.16021900100702
 11
910.00000018997093
 21
731.16021900100702
  0
LINE
  8
_0-5_寸法線
  6
CONTINUOUS
 62
    7
 10
910.00000018997093
 20
726.16021900100702
 11
919.65925845286165
 21
728.74840945203221
  0
LINE
  8
_0-5_寸法線
  6
CONTINUOUS
 62
    7
 10
910.00000018997093
 20
726.16021900100702
 11
919.65925845286165
 21
723.57202854998195
  0
LINE
  8
_0-5_寸法線
  6
CONTINUOUS
 62
    7
 10
1260.000000001374
 20
686.15999999999963
 11
1260.0000000013742
 21
731.16021900100702
  0
LINE
  8
_0-5_寸法線
  6
CONTINUOUS
 62
    7
 10
1260.0000000013742
 20
726.16021900100702
 11
1250.3407417384835
 21
723.57202854998195
  0
LINE
  8
_0-5_寸法線
  6
CONTINUOUS
 62
    7
 10
1260.0000000013742
 20
726.16021900100702
 11
1250.3407417384835
 21
728.74840945203221
  0
LINE
  8
_0-5_寸法線
  6
CONTINUOUS
 62
    7
 10
910.00000018997093
 20
726.16021900100702
 11
1260.0000000013742
 21
726.16021900100702
  0
TEXT
  8
_0-5_寸法線
 62
    7
 10
1073.7500000956725
 20
726.16021900100702
 40
15
 41
1
 50
0
  1
350
  0
LINE
  8
_0-5_寸法線
  6
CONTINUOUS
 62
    7
 10
905
 20
681.16021900100702
 11
905
 21
801.16021900100702
  0
LINE
  8
_0-5_寸法線
  6
CONTINUOUS
 62
    7
 10
905
 20
796.16021900100702
 11
914.65925826289083
 21
798.74840945203232
  0
LINE
  8
_0-5_寸法線
  6
CONTINUOUS
 62
    7
 10
905
 20
796.16021900100702
 11
914.65925826289083
 21
793.57202854998195
  0
LINE
  8
_0-5_寸法線
  6
CONTINUOUS
 62
    7
 10
1265
 20
681.16021900100702
 11
1265.0000000000002
 21
801.16021900100702
  0
LINE
  8
_0-5_寸法線
  6
CONTINUOUS
 62
    7
 10
1265.0000000000002
 20
796.16021900100702
 11
1255.3407417371095
 21
793.57202854998195
  0
LINE
  8
_0-5_寸法線
  6
CONTINUOUS
 62
    7
 10
1265.0000000000002
 20
796.16021900100702
 11
1255.3407417371095
 21
798.74840945203232
  0
LINE
  8
_0-5_寸法線
  6
CONTINUOUS
 62
    7
 10
905
 20
796.16021900100702
 11
1265.0000000000002
 21
796.16021900100702
  0
TEXT
  8
_0-5_寸法線
 62
    7
 10
1073.7500000000002
 20
796.16021900100702
 40
15
 41
1
 50
0
  1
360
  0
LINE
  8
_0-5_寸法線
  6
CONTINUOUS
 62
    7
 10
905
 20
761.16021900100702
 11
895.34074173710928
 21
758.57202854998195
  0
LINE
  8
_0-5_寸法線
  6
CONTINUOUS
 62
    7
 10
905
 20
761.16021900100702
 11
895.34074173710928
 21
763.74840945203221
  0
LINE
  8
_0-5_寸法線
  6
CONTINUOUS
 62
    7
 10
907.99999999999977
 20
680.66021900100668
 11
907.99999999999977
 21
766.16021900100702
  0
LINE
  8
_0-5_寸法線
  6
CONTINUOUS
 62
    7
 10
880
 20
761.16021900100702
 11
907.99999999999977
 21
761.16021900100702
  0
TEXT
  8
_0-5_寸法線
 62
    7
 10
883.8553320560768
 20
761.16021900100702
 40
15
 41
1
 50
0
  1
3
  0
LINE
  8
_0-5_寸法線
  6
CONTINUOUS
 62
    7
 10
907.99999999999977
 20
761.16021900100702
 11
917.65925826289049
 21
763.74840945203221
  0
LINE
  8
_0-5_寸法線
  6
CONTINUOUS
 62
    7
 10
907.99999999999977
 20
761.16021900100702
 11
917.65925826289049
 21
758.57202854998195
  0
LINE
  8
_0-5_寸法線
  6
CONTINUOUS
 62
    7
 10
1262
 20
680.66021900100668
 11
1262.0000000000002
 21
766.16021900100702
  0
LINE
  8
_0-5_寸法線
  6
CONTINUOUS
 62
    7
 10
1262.0000000000002
 20
761.16021900100702
 11
1252.3407417371095
 21
758.57202854998195
  0
LINE
  8
_0-5_寸法線
  6
CONTINUOUS
 62
    7
 10
1262.0000000000002
 20
761.16021900100702
 11
1252.3407417371095
 21
763.74840945203221
  0
LINE
  8
_0-5_寸法線
  6
CONTINUOUS
 62
    7
 10
907.99999999999977
 20
761.16021900100702
 11
1262.0000000000002
 21
761.16021900100702
  0
TEXT
  8
_0-5_寸法線
 62
    7
 10
1073.75
 20
761.16021900100702
 40
15
 41
1
 50
0
  1
354
  0
LINE
  8
_0-5_寸法線
  6
CONTINUOUS
 62
    7
 10
1265.0000000000002
 20
761.16021900100702
 11
1274.6592582628909
 21
763.74840945203221
  0
LINE
  8
_0-5_寸法線
  6
CONTINUOUS
 62
    7
 10
1265.0000000000002
 20
761.16021900100702
 11
1274.6592582628909
 21
758.57202854998172
  0
LINE
  8
_0-5_寸法線
  6
CONTINUOUS
 62
    7
 10
1262.0000000000002
 20
761.16021900100702
 11
1290.0000000000002
 21
761.16021900100702
  0
TEXT
  8
_0-5_寸法線
 62
    7
 10
1278.4420369636387
 20
761.16021900100702
 40
15
 41
1
 50
0
  1
3
  0
ENDSEC
  0
EOF
