  0
SECTION
  2
HEADER
  9
$ACADVER
  1
AC1009
  9
$INSBASE
 10
0
 20
0
 30
0
  9
$EXTMIN
 10
0
 20
0
  9
$EXTMAX
 10
1485
 20
1050
  9
$LIMMIN
 10
0
 20
0
  9
$LIMMAX
 10
1485
 20
1050
  9
$LTSCALE
 40
5
  0
ENDSEC
  0
SECTION
  2
TABLES
  0
TABLE
  2
LTYPE
 70
     9
  0
LTYPE
  2
CONTINUOUS
 70
    64
  3
実線
 72
    65
 73
     0
 40
0.0
  0
LTYPE
  2
DASHED1
 70
    64
  3
--  --  --  --  --  --  --  --  
 72
    65
 73
     2
 40
2.5
 49
1.25
 49
-1.25
  0
LTYPE
  2
DASHED2
 70
    64
  3
----    ----    ----    ----    
 72
    65
 73
     2
 40
5.0
 49
2.5
 49
-2.5
  0
LTYPE
  2
DASHED3
 70
    64
  3
------  ------  ------  ------  
 72
    65
 73
     2
 40
5.0
 49
3.75
 49
-1.25
  0
LTYPE
  2
CENTER1
 70
    64
  3
----- - ----- - ----- - ----- - 
 72
    65
 73
     4
 40
10.0
 49
6.25
 49
-1.25
 49
1.25
 49
-1.25
  0
LTYPE
  2
CENTER2
 70
    64
  3
----------  --  ----------  --  
 72
    65
 73
     4
 40
20.0
 49
12.5
 49
-2.5
 49
2.5
 49
-2.5
  0
LTYPE
  2
PHANTOM1
 70
    64
  3
--- - - --- - - --- - - --- - - 
 72
    65
 73
     6
 40
10.0
 49
3.25
 49
-1.25
 49
1.25
 49
-1.25
 49
1.25
 49
-1.25
  0
LTYPE
  2
PHANTOM2
 70
    64
  3
--------  -  -  --------  -  -  
 72
    65
 73
     6
 40
20.0
 49
10.0
 49
-2.5
 49
1.25
 49
-2.5
 49
1.25
 49
-2.5
  0
LTYPE
  2
DOT
 70
    64
  3
-   -   -   -   -   -   -   -   
 72
    65
 73
     2
 40
2.5
 49
0.625
 49
-1.875
  0
LTYPE
  2
DUMMY
 70
    64
  3
ダミー
 72
    65
 73
     0
 40
0.0
  0
LTYPE
  2
RAND1
 70
    64
  3
ランダム線1
 72
    65
 73
     4
 40
10.0
 49
1.0
 49
-2.0
 49
3.0
 49
-4.0
  0
LTYPE
  2
RAND2
 70
    64
  3
ランダム線2
 72
    65
 73
     4
 40
14.0
 49
2.0
 49
-3.0
 49
4.0
 49
-5.0
  0
LTYPE
  2
RAND3
 70
    64
  3
ランダム線3
 72
    65
 73
     4
 40
18.0
 49
3.0
 49
-4.0
 49
5.0
 49
-6.0
  0
LTYPE
  2
RAND4
 70
    64
  3
ランダム線4
 72
    65
 73
     4
 40
22.0
 49
4.0
 49
-5.0
 49
6.0
 49
-7.0
  0
LTYPE
  2
RAND5
 70
    64
  3
ランダム線5
 72
    65
 73
     4
 40
26.0
 49
5.0
 49
-6.0
 49
7.0
 49
-8.0
  0
LTYPE
  2
LONG1
 70
    64
  3
----------  --  ----------  --  
 72
    65
 73
     4
 40
40.0
 49
32.5
 49
-2.5
 49
2.5
 49
-2.5
  0
LTYPE
  2
LONG2
 70
    64
  3
--------  -  -  --------  -  -  
 72
    65
 73
     6
 40
40.0
 49
30.0
 49
-2.5
 49
1.25
 49
-2.5
 49
1.25
 49
-2.5
  0
LTYPE
  2
LONG3
 70
    64
  3
+++++++++++++++..+++++++++++++++
 72
    65
 73
     2
 40
40.0
 49
37.5
 49
-2.5
  0
LTYPE
  2
LONG4
 70
    64
  3
+++++++++++++++..+++++++++++++++
 72
    65
 73
     2
 40
80.0
 49
75.0
 49
-5.0
  0
LTYPE
  2
LONG5
 70
    64
  3
----------  --  ----------  --  
 72
    65
 73
     4
 40
60.0
 49
37.5
 49
-7.5
 49
7.5
 49
-7.5
  0
LTYPE
  2
dashed
 70
   64
  3
-------   -------------   ------
 72
   65
 73
    2
 40
7.5
 49
6
 49
-1.5
  0
LTYPE
  2
dashed_spaced
 70
   64
  3
----        --------        ----
 72
   65
 73
    2
 40
12
 49
6
 49
-6
  0
LTYPE
  2
long_dashed_dotted
 70
   64
  3
------------- --- --------------
 72
   65
 73
    4
 40
15.25
 49
12
 49
-1.5
 49
0.25
 49
-1.5
  0
LTYPE
  2
long_dashed_double-dotted
 70
   64
  3
----------- --- --- ------------
 72
   65
 73
    6
 40
17
 49
12
 49
-1.5
 49
0.25
 49
-1.5
 49
0.25
 49
-1.5
  0
LTYPE
  2
long_dashed_triplicate-dotted
 70
   64
  3
--------- --- --- --- ----------
 72
   65
 73
    8
 40
18.75
 49
12
 49
-1.5
 49
0.25
 49
-1.5
 49
0.25
 49
-1.5
 49
0.25
 49
-1.5
  0
LTYPE
  2
dotted
 70
   64
  3
   -       -       -       -    
 72
   65
 73
    2
 40
1.75
 49
0.25
 49
-1.5
  0
LTYPE
  2
chain
 70
   64
  3
-------------- -- --------------
 72
   65
 73
    4
 40
18.5
 49
12
 49
-1.5
 49
3.5
 49
-1.5
  0
LTYPE
  2
chain_double_dash
 70
   64
  3
------------ -- -- -------------
 72
   65
 73
    6
 40
23.5
 49
12
 49
-1.5
 49
3.5
 49
-1.5
 49
3.5
 49
-1.5
  0
LTYPE
  2
dashed_dotted
 70
   64
  3
-----------     -     ----------
 72
   65
 73
    4
 40
9.25
 49
6
 49
-1.5
 49
0.25
 49
-1.5
  0
LTYPE
  2
double-dashed_dotted
 70
   64
  3
------   -----------   -   -----
 72
   65
 73
    6
 40
16.75
 49
6
 49
-1.5
 49
6
 49
-1.5
 49
0.25
 49
-1.5
  0
LTYPE
  2
dashed_double-dotted
 70
   64
  3
---------    -    -    ---------
 72
   65
 73
    6
 40
11
 49
6
 49
-1.5
 49
0.25
 49
-1.5
 49
0.25
 49
-1.5
  0
LTYPE
  2
double-dashed_double-dotted
 70
   64
  3
-----   ---------   -   -   ----
 72
   65
 73
    8
 40
18.5
 49
6
 49
-1.5
 49
6
 49
-1.5
 49
0.25
 49
-1.5
 49
0.25
 49
-1.5
  0
LTYPE
  2
dashed_triplicate-dotted
 70
   64
  3
-------    -    -    -    ------
 72
   65
 73
    8
 40
12.75
 49
6
 49
-1.5
 49
0.25
 49
-1.5
 49
0.25
 49
-1.5
 49
0.25
 49
-1.5
  0
LTYPE
  2
double-dashed_triplicate-dotted
 70
   64
  3
-----  ---------  -  -  -  -----
 72
   65
 73
   10
 40
20.25
 49
6
 49
-1.5
 49
6
 49
-1.5
 49
0.25
 49
-1.5
 49
0.25
 49
-1.5
 49
0.25
 49
-1.5
  0
LTYPE
  2
undefined
 70
   64
  3
--------------------------------
 72
   65
 73
    0
 40
0
  0
ENDTAB
  0
TABLE
  2
STYLE
  5
3
100
AcDbSymbolTable
 70
     1
  0
STYLE
  5
10
100
AcDbSymbolTableRecord
100
AcDbTextStyleTableRecord
  2
STANDARD
 70
     0
 40
0.0
 41
1.0
 50
0.0
 71
     0
 42
0.2
  3
txt
  4
bigfont.shx
  0
STYLE
  5
26
100
AcDbSymbolTableRecord
100
AcDbTextStyleTableRecord
  2
TATEGAKI
 70
    68
 40
0.0
 41
1.0
 50
0.0
 71
     0
 42
1.0
  3
txt
  4
bigfont.shx
  0
ENDTAB
  0
TABLE
  2
LAYER
 70
   10
  0
LAYER
  2
_0-0_計極細
 70
   64
 62
    7
  6
CONTINUOUS
  0
LAYER
  2
_0-1_計細線
 70
   64
 62
    7
  6
CONTINUOUS
  0
LAYER
  2
_0-5_寸法線
 70
   64
 62
    7
  6
CONTINUOUS
  0
LAYER
  2
_0-7_枠細線
 70
   64
 62
    7
  6
CONTINUOUS
  0
LAYER
  2
_0-8_枠中線
 70
   64
 62
    7
  6
CONTINUOUS
  0
LAYER
  2
_0-9_枠極太
 70
   64
 62
    7
  6
CONTINUOUS
  0
LAYER
  2
_0-a_極細3
 70
   64
 62
    7
  6
CONTINUOUS
  0
LAYER
  2
_0-b_細線3
 70
   64
 62
    7
  6
CONTINUOUS
  0
LAYER
  2
_0-d_寸法3
 70
   64
 62
    7
  6
CONTINUOUS
  0
LAYER
  2
ADD_LINE
 70
   64
 62
    7
  6
CONTINUOUS
  0
ENDTAB
  0
ENDSEC
  0
SECTION
  2
BLOCKS
  0
ENDSEC
  0
SECTION
  2
ENTITIES
  0
LINE
  8
_0-7_枠細線
  6
CONTINUOUS
 62
    5
 10
1185
 20
180
 11
1185
 21
100
  0
TEXT
  8
_0-7_枠細線
 62
    5
 10
937.5
 20
97.5
 40
17.5
 41
1
 50
0
  1
備考
  7
TATEGAKI
  0
TEXT
  8
_0-7_枠細線
 62
    5
 10
937.5
 20
137.5
 40
17.5
 41
1
 50
0
  1
品番
  7
TATEGAKI
  0
TEXT
  8
_0-7_枠細線
 62
    5
 10
937.5
 20
177.5
 40
17.5
 41
1
 50
0
  1
品名
  7
TATEGAKI
  0
LINE
  8
_0-7_枠細線
  6
CONTINUOUS
 62
    5
 10
1185
 20
140
 11
925
 21
140
  0
LINE
  8
_0-7_枠細線
  6
CONTINUOUS
 62
    5
 10
950
 20
180
 11
950
 21
60
  0
LINE
  8
_0-8_枠中線
  6
CONTINUOUS
 62
    5
 10
1425
 20
180
 11
925
 21
180
  0
LINE
  8
_0-8_枠中線
  6
CONTINUOUS
 62
    5
 10
925
 20
180
 11
925
 21
60
  0
LINE
  8
_0-7_枠細線
  6
CONTINUOUS
 62
    5
 10
1245
 20
180
 11
1245
 21
60
  0
TEXT
  8
_0-7_枠細線
 62
    5
 10
1192.5
 20
160
 40
15
 41
1
 50
0
  1
縮　尺
  0
LINE
  8
_0-7_枠細線
  6
CONTINUOUS
 62
    5
 10
1185
 20
155
 11
1245
 21
155
  0
LINE
  8
_0-7_枠細線
  6
CONTINUOUS
 62
    5
 10
1245
 20
100
 11
925
 21
100
  0
LINE
  8
_0-7_枠細線
  6
CONTINUOUS
 62
    5
 10
1425
 20
90
 11
1245
 21
90
  0
LINE
  8
_0-7_枠細線
  6
CONTINUOUS
 62
    5
 10
1245
 20
120
 11
1425
 21
120
  0
LINE
  8
_0-7_枠細線
  6
CONTINUOUS
 62
    5
 10
1425
 20
140
 11
1245
 21
140
  0
TEXT
  8
_0-7_枠細線
 62
    5
 10
1255
 20
147.5
 40
25
 41
0.8
 50
0
  1
株式会社シマブン
  0
TEXT
  8
_0-7_枠細線
 62
    5
 10
1252.5
 20
60
 40
15
 41
1
 50
0
  1
年月日
  0
TEXT
  8
_0-7_枠細線
 62
    5
 10
1252.5
 20
75
 40
15
 41
1
 50
0
  1
作　成
  0
TEXT
  8
_0-7_枠細線
 62
    5
 10
1256.25
 20
122.5
 40
15
 41
1
 50
0
  1
承 認
  0
LINE
  8
_0-7_枠細線
  6
CONTINUOUS
 62
    5
 10
1305
 20
140
 11
1305
 21
60
  0
TEXT
  8
_0-7_枠細線
 62
    5
 10
1316.25
 20
122.5
 40
15
 41
1
 50
0
  1
検 図
  0
LINE
  8
_0-7_枠細線
  6
CONTINUOUS
 62
    5
 10
1365
 20
140
 11
1365
 21
90
  0
TEXT
  8
_0-7_枠細線
 62
    5
 10
1375
 20
95
 40
20
 41
1
 50
0
  1
藤戸
  0
TEXT
  8
_0-7_枠細線
 62
    5
 10
1376.25
 20
122.5
 40
15
 41
1
 50
0
  1
設 計
  0
TEXT
  8
_0-7_枠細線
 62
    5
 10
1255
 20
95
 40
20
 41
1
 50
0
  1
隠塚
  0
TEXT
  8
_0-7_枠細線
 62
    5
 10
1315
 20
95
 40
20
 41
1
 50
0
  1
渋田
  0
TEXT
  8
_0-7_枠細線
 62
    5
 10
1193.9999999999998
 20
117.5
 40
20
 41
0.7000000000000001
 50
0
  1
１：５
  0
TEXT
  8
_0-7_枠細線
 62
    5
 10
960.5
 20
69.999999999999858
 40
20
 41
0.5999999999999998
 50
0
  1
品番・色については表参照のこと
  0
TEXT
  8
_0-7_枠細線
 62
    5
 10
1309.9999999999998
 20
67.499999999999929
 40
15.000000000000009
 41
0.6666666666666665
 50
0
  1
２０１０年０３月０１日
  0
TEXT
  8
_0-7_枠細線
 62
    5
 10
960.5
 20
158.74999999999994
 40
20.000000000000007
 41
0.5999999999999998
 50
0
  1
セーフティグレーチングＨ２５タイプ
  0
TEXT
  8
_0-7_枠細線
 62
    5
 10
1128.5
 20
141.25
 40
20.000000000000007
 41
0.5999999999999998
 50
0
  1
集水マス
  0
LINE
  8
_0-7_枠細線
  6
CONTINUOUS
 62
    5
 10
1425
 20
942.5
 11
890
 21
942.5
  0
TEXT
  8
_0-7_枠細線
 62
    5
 10
895
 20
945
 40
12.5
 41
1
 50
0
  1
記号
  0
TEXT
  8
_0-7_枠細線
 62
    5
 10
996.875
 20
945
 40
12.5
 41
1
 50
0
  1
訂　 正　 記　 事
  0
TEXT
  8
_0-7_枠細線
 62
    5
 10
1181.25
 20
945
 40
12.5
 41
1
 50
0
  1
訂 正 年 月 日
  0
TEXT
  8
_0-7_枠細線
 62
    5
 10
1306.25
 20
945
 40
12.5
 41
1
 50
0
  1
備　　　　　考
  0
LINE
  8
_0-7_枠細線
  6
CONTINUOUS
 62
    5
 10
1425
 20
925
 11
890
 21
925
  0
TEXT
  8
_0-7_枠細線
 62
    5
 10
938.85037037037023
 20
927.5
 40
12.5
 41
1
 50
0
  1
品番・色記号変更
  0
TEXT
  8
_0-7_枠細線
 62
    5
 10
1180
 20
927.5
 40
12.5
 41
0.7199999999999999
 50
0
  1
２０１３．０３．１３
  0
LINE
  8
_0-7_枠細線
  6
CONTINUOUS
 62
    5
 10
1425
 20
907.5
 11
890
 21
907.5
  0
LINE
  8
_0-7_枠細線
  6
CONTINUOUS
 62
    5
 10
1425
 20
890
 11
890
 21
890
  0
TEXT
  8
_0-7_枠細線
 62
    5
 10
938.85037037037023
 20
910
 40
12.5
 41
1
 50
0
  1
クロスバーピッチ変更
  0
TEXT
  8
_0-7_枠細線
 62
    5
 10
938.85037037037023
 20
892.5
 40
12.5
 41
1
 50
0
  1
取外具形状変更
  0
TEXT
  8
_0-7_枠細線
 62
    5
 10
1180
 20
910
 40
12.5
 41
0.7199999999999999
 50
0
  1
２０１５．１１．２０
  0
LINE
  8
_0-7_枠細線
  6
CONTINUOUS
 62
    5
 10
915
 20
908.94233397174685
 11
907.5
 21
923.94233397174685
  0
LINE
  8
_0-7_枠細線
  6
CONTINUOUS
 62
    5
 10
900
 20
908.94233397174685
 11
915
 21
908.94233397174685
  0
LINE
  8
_0-7_枠細線
  6
CONTINUOUS
 62
    5
 10
907.5
 20
923.94233397174685
 11
900
 21
908.94233397174685
  0
TEXT
  8
_0-7_枠細線
 62
    5
 10
902.36515126814822
 20
908.63533172636664
 40
12.5
 41
0.8
 50
0
  1
１
  0
TEXT
  8
_0-7_枠細線
 62
    5
 10
902.36515126814822
 20
891.13533172636664
 40
12.5
 41
0.8
 50
0
  1
２
  0
LINE
  8
_0-7_枠細線
  6
CONTINUOUS
 62
    5
 10
1425
 20
872.5
 11
890
 21
872.5
  0
LINE
  8
_0-7_枠細線
  6
CONTINUOUS
 62
    5
 10
907.5
 20
906.44233397174685
 11
900
 21
891.44233397174685
  0
LINE
  8
_0-7_枠細線
  6
CONTINUOUS
 62
    5
 10
900
 20
891.44233397174685
 11
915
 21
891.44233397174685
  0
LINE
  8
_0-7_枠細線
  6
CONTINUOUS
 62
    5
 10
915
 20
891.44233397174685
 11
907.5
 21
906.44233397174685
  0
TEXT
  8
_0-7_枠細線
 62
    5
 10
902.36515126814822
 20
873.39465008156549
 40
12.5
 41
0.8
 50
0
  1
３
  0
TEXT
  8
_0-7_枠細線
 62
    5
 10
1180
 20
875
 40
12.5
 41
0.7199999999999999
 50
0
  1
２０１７．０４．０１
  0
LINE
  8
_0-7_枠細線
  6
CONTINUOUS
 62
    5
 10
915
 20
856.44233397174685
 11
907.5
 21
871.44233397174685
  0
LINE
  8
_0-7_枠細線
  6
CONTINUOUS
 62
    5
 10
900
 20
856.44233397174685
 11
915
 21
856.44233397174685
  0
LINE
  8
_0-7_枠細線
  6
CONTINUOUS
 62
    5
 10
907.5
 20
871.44233397174685
 11
900
 21
856.44233397174685
  0
TEXT
  8
_0-7_枠細線
 62
    5
 10
1180
 20
857.5
 40
12.5
 41
0.7199999999999999
 50
0
  1
２０１７．０４．０１
  0
TEXT
  8
_0-7_枠細線
 62
    5
 10
938.85037037037023
 20
857.5
 40
12.5
 41
1
 50
0
  1
ブラウン色（Ｃ）追加
  0
LINE
  8
_0-7_枠細線
  6
CONTINUOUS
 62
    5
 10
1425
 20
855
 11
890
 21
855
  0
LINE
  8
_0-7_枠細線
  6
CONTINUOUS
 62
    5
 10
907.5
 20
888.94233397174685
 11
900
 21
873.94233397174685
  0
LINE
  8
_0-7_枠細線
  6
CONTINUOUS
 62
    5
 10
900
 20
873.94233397174685
 11
915
 21
873.94233397174685
  0
LINE
  8
_0-7_枠細線
  6
CONTINUOUS
 62
    5
 10
915
 20
873.94233397174685
 11
907.5
 21
888.94233397174685
  0
TEXT
  8
_0-7_枠細線
 62
    5
 10
902.36515126814822
 20
855.49351400689704
 40
12.5
 41
0.8
 50
0
  1
４
  0
TEXT
  8
_0-7_枠細線
 62
    5
 10
938.85037037037023
 20
875
 40
12.5
 41
1
 50
0
  1
取外具形状変更
  0
TEXT
  8
_0-7_枠細線
 62
    5
 10
1180
 20
892.5
 40
12.5
 41
0.7199999999999999
 50
0
  1
２０１５．１１．２０
  0
LINE
  8
_0-9_枠極太
  6
CONTINUOUS
 62
    5
 10
60
 20
60
 11
60
 21
960
  0
LINE
  8
_0-9_枠極太
  6
CONTINUOUS
 62
    5
 10
60
 20
960
 11
1425
 21
960
  0
LINE
  8
_0-9_枠極太
  6
CONTINUOUS
 62
    5
 10
1425
 20
960
 11
1425
 21
60
  0
LINE
  8
_0-9_枠極太
  6
CONTINUOUS
 62
    5
 10
1425
 20
60
 11
60
 21
60
  0
LINE
  8
_0-7_枠細線
  6
CONTINUOUS
 62
    5
 10
915
 20
838.94233397174685
 11
907.5
 21
853.94233397174685
  0
LINE
  8
_0-7_枠細線
  6
CONTINUOUS
 62
    5
 10
900
 20
838.94233397174685
 11
915
 21
838.94233397174685
  0
LINE
  8
_0-7_枠細線
  6
CONTINUOUS
 62
    5
 10
907.5
 20
853.94233397174685
 11
900
 21
838.94233397174685
  0
LINE
  8
_0-7_枠細線
  6
CONTINUOUS
 62
    5
 10
1425
 20
837.5
 11
890
 21
837.5
  0
TEXT
  8
_0-7_枠細線
 62
    5
 10
1180
 20
840
 40
12.5
 41
0.7199999999999999
 50
0
  1
２０１９．０９．０１
  0
TEXT
  8
_0-7_枠細線
 62
    5
 10
902.36515126814822
 20
837.99351400689704
 40
12.5
 41
0.8
 50
0
  1
５
  0
TEXT
  8
_0-7_枠細線
 62
    5
 10
938.85037037037023
 20
840
 40
12.5
 41
1
 50
0
  1
アンカー材質･厚み変更
  0
LINE
  8
_0-7_枠細線
  6
CONTINUOUS
 62
    5
 10
1275
 20
837.5
 11
1275
 21
959.99999999999909
  0
LINE
  8
_0-7_枠細線
  6
CONTINUOUS
 62
    5
 10
1175
 20
837.5
 11
1175
 21
959.99999999999909
  0
LINE
  8
_0-7_枠細線
  6
CONTINUOUS
 62
    5
 10
925
 20
837.5
 11
925
 21
959.99999999999909
  0
LINE
  8
_0-7_枠細線
  6
CONTINUOUS
 62
    5
 10
890
 20
837.5
 11
890
 21
959.99999999999909
  0
TEXT
  8
_0-7_枠細線
 62
    5
 10
960.5
 20
109.99999999999993
 40
20.000000000000007
 41
0.5999999999999998
 50
0
  1
ＧＲＳ－２５Ｋ１５０
  0
LINE
  8
_0-1_計細線
  6
CONTINUOUS
 62
    3
 10
373.5179582409711
 20
560.30583080107976
 11
373.5179582409711
 21
548.90583080107922
  0
LINE
  8
_0-1_計細線
  6
CONTINUOUS
 62
    3
 10
373.5179582409711
 20
548.90583080107922
 11
523.51795824097144
 21
548.90583080107922
  0
LINE
  8
_0-1_計細線
  6
CONTINUOUS
 62
    3
 10
523.51795824097144
 20
560.30583080107976
 11
523.51795824097144
 21
548.90583080107922
  0
LINE
  8
_0-0_計極細
  6
CONTINUOUS
 62
    2
 10
373.5179582409711
 20
552.10583080107949
 11
523.51795824097144
 21
552.10583080107949
  0
LINE
  8
_0-0_計極細
  6
CONTINUOUS
 62
    2
 10
373.5179582409711
 20
557.10583080107949
 11
523.51795824097144
 21
557.10583080107949
  0
LINE
  8
_0-1_計細線
  6
CONTINUOUS
 62
    3
 10
373.5179582409711
 20
560.30583080107976
 11
523.51795824097144
 21
560.30583080107976
  0
LINE
  8
_0-1_計細線
  6
CONTINUOUS
 62
    3
 10
373.5179582409711
 20
577.70583080108031
 11
373.5179582409711
 21
566.30583080107976
  0
LINE
  8
_0-0_計極細
  6
CONTINUOUS
 62
    2
 10
374.01795824097115
 20
566.30583080107976
 11
374.01795824097115
 21
560.30583080107976
  0
LINE
  8
_0-0_計極細
  6
CONTINUOUS
 62
    2
 10
387.0179582409711
 20
566.30583080107976
 11
387.0179582409711
 21
560.30583080107976
  0
LINE
  8
_0-1_計細線
  6
CONTINUOUS
 62
    3
 10
373.5179582409711
 20
577.70583080108031
 11
523.51795824097144
 21
577.70583080108031
  0
LINE
  8
_0-1_計細線
  6
CONTINUOUS
 62
    3
 10
523.51795824097144
 20
577.70583080108031
 11
523.51795824097144
 21
566.30583080107976
  0
LINE
  8
_0-0_計極細
  6
CONTINUOUS
 62
    2
 10
373.5179582409711
 20
569.50583080108004
 11
523.51795824097144
 21
569.50583080108004
  0
LINE
  8
_0-0_計極細
  6
CONTINUOUS
 62
    2
 10
373.5179582409711
 20
574.50583080108004
 11
523.51795824097144
 21
574.50583080108004
  0
LINE
  8
_0-1_計細線
  6
CONTINUOUS
 62
    3
 10
373.5179582409711
 20
566.30583080107976
 11
523.51795824097144
 21
566.30583080107976
  0
LINE
  8
_0-0_計極細
  6
CONTINUOUS
 62
    2
 10
510.01795824097115
 20
566.30583080107976
 11
510.01795824097115
 21
560.30583080107976
  0
LINE
  8
_0-0_計極細
  6
CONTINUOUS
 62
    2
 10
523.0179582409711
 20
566.30583080107976
 11
523.0179582409711
 21
560.30583080107976
  0
LINE
  8
_0-1_計細線
  6
CONTINUOUS
 62
    3
 10
432.51795824097024
 20
560.95583080107986
 11
491.51795824097019
 21
560.95583080107986
  0
LINE
  8
_0-1_計細線
  6
CONTINUOUS
 62
    3
 10
491.51795824097019
 20
565.65583080107967
 11
432.51795824097024
 21
565.65583080107967
  0
LINE
  8
_0-1_計細線
  6
CONTINUOUS
 62
    3
 10
432.51795824097024
 20
565.65583080107967
 11
432.51795824097024
 21
560.95583080107986
  0
LINE
  8
_0-1_計細線
  6
CONTINUOUS
 62
    3
 10
481.51795824097019
 20
565.65583080107967
 11
481.51795824097019
 21
560.95583080107986
  0
LINE
  8
_0-1_計細線
  6
CONTINUOUS
 62
    3
 10
489.51795824097019
 20
565.65583080107967
 11
489.51795824097019
 21
560.95583080107986
  0
LINE
  8
_0-1_計細線
  6
CONTINUOUS
 62
    3
 10
491.51795824097019
 20
565.65583080107967
 11
491.51795824097019
 21
560.95583080107986
  0
LINE
  8
_0-1_計細線
  6
CONTINUOUS
 62
    3
 10
487.51795824097024
 20
565.65583080107967
 11
487.51795824097024
 21
560.95583080107986
  0
LINE
  8
_0-1_計細線
  6
CONTINUOUS
 62
    3
 10
485.51795824097019
 20
565.65583080107967
 11
485.51795824097019
 21
560.95583080107986
  0
LINE
  8
_0-1_計細線
  6
CONTINUOUS
 62
    3
 10
483.51795824097024
 20
565.65583080107967
 11
483.51795824097024
 21
560.95583080107986
  0
LINE
  8
_0-0_計極細
  6
CONTINUOUS
 62
    2
 10
471.0179582409711
 20
560.95583080107986
 11
471.0179582409711
 21
560.30583080107976
  0
LINE
  8
_0-0_計極細
  6
CONTINUOUS
 62
    2
 10
484.01795824097115
 20
560.95583080107986
 11
484.01795824097115
 21
560.30583080107976
  0
LINE
  8
_0-0_計極細
  6
CONTINUOUS
 62
    2
 10
471.0179582409711
 20
566.30583080107976
 11
471.0179582409711
 21
565.65583080107967
  0
LINE
  8
_0-0_計極細
  6
CONTINUOUS
 62
    2
 10
484.01795824097115
 20
566.30583080107976
 11
484.01795824097115
 21
565.65583080107967
  0
LINE
  8
_0-1_計細線
  6
CONTINUOUS
 62
    3
 10
373.5179582409711
 20
595.10583080107972
 11
523.51795824097144
 21
595.10583080107972
  0
LINE
  8
_0-1_計細線
  6
CONTINUOUS
 62
    3
 10
373.5179582409711
 20
583.70583080107917
 11
523.51795824097144
 21
583.70583080107917
  0
LINE
  8
_0-1_計細線
  6
CONTINUOUS
 62
    3
 10
373.5179582409711
 20
595.10583080107972
 11
373.5179582409711
 21
583.70583080107917
  0
LINE
  8
_0-1_計細線
  6
CONTINUOUS
 62
    3
 10
523.51795824097144
 20
595.10583080107972
 11
523.51795824097144
 21
583.70583080107917
  0
LINE
  8
_0-0_計極細
  6
CONTINUOUS
 62
    2
 10
373.5179582409711
 20
586.90583080107945
 11
523.51795824097144
 21
586.90583080107945
  0
LINE
  8
_0-0_計極細
  6
CONTINUOUS
 62
    2
 10
373.5179582409711
 20
591.90583080107945
 11
523.51795824097144
 21
591.90583080107945
  0
LINE
  8
_0-0_計極細
  6
CONTINUOUS
 62
    2
 10
374.01795824097115
 20
583.70583080107917
 11
374.01795824097115
 21
577.70583080108031
  0
LINE
  8
_0-0_計極細
  6
CONTINUOUS
 62
    2
 10
387.0179582409711
 20
583.70583080107917
 11
387.0179582409711
 21
577.70583080108031
  0
LINE
  8
_0-0_計極細
  6
CONTINUOUS
 62
    2
 10
471.0179582409711
 20
583.70583080107917
 11
471.0179582409711
 21
577.70583080108031
  0
LINE
  8
_0-0_計極細
  6
CONTINUOUS
 62
    2
 10
484.01795824097115
 20
583.70583080107917
 11
484.01795824097115
 21
577.70583080108031
  0
LINE
  8
_0-0_計極細
  6
CONTINUOUS
 62
    2
 10
510.01795824097115
 20
583.70583080107917
 11
510.01795824097115
 21
577.70583080108031
  0
LINE
  8
_0-0_計極細
  6
CONTINUOUS
 62
    2
 10
523.0179582409711
 20
583.70583080107917
 11
523.0179582409711
 21
577.70583080108031
  0
LINE
  8
_0-1_計細線
  6
CONTINUOUS
 62
    3
 10
373.5179582409711
 20
612.50583080108026
 11
523.51795824097144
 21
612.50583080108026
  0
LINE
  8
_0-1_計細線
  6
CONTINUOUS
 62
    3
 10
373.5179582409711
 20
601.10583080107972
 11
523.51795824097144
 21
601.10583080107972
  0
LINE
  8
_0-1_計細線
  6
CONTINUOUS
 62
    3
 10
373.5179582409711
 20
612.50583080108026
 11
373.5179582409711
 21
601.10583080107972
  0
LINE
  8
_0-1_計細線
  6
CONTINUOUS
 62
    3
 10
523.51795824097144
 20
612.50583080108026
 11
523.51795824097144
 21
601.10583080107972
  0
LINE
  8
_0-0_計極細
  6
CONTINUOUS
 62
    2
 10
373.5179582409711
 20
604.30583080107999
 11
523.51795824097144
 21
604.30583080107999
  0
LINE
  8
_0-0_計極細
  6
CONTINUOUS
 62
    2
 10
373.5179582409711
 20
609.30583080107999
 11
523.51795824097144
 21
609.30583080107999
  0
LINE
  8
_0-0_計極細
  6
CONTINUOUS
 62
    2
 10
374.01795824097115
 20
601.10583080107972
 11
374.01795824097115
 21
595.10583080107972
  0
LINE
  8
_0-0_計極細
  6
CONTINUOUS
 62
    2
 10
387.0179582409711
 20
601.10583080107972
 11
387.0179582409711
 21
595.10583080107972
  0
LINE
  8
_0-0_計極細
  6
CONTINUOUS
 62
    2
 10
471.0179582409711
 20
601.10583080107972
 11
471.0179582409711
 21
595.10583080107972
  0
LINE
  8
_0-0_計極細
  6
CONTINUOUS
 62
    2
 10
484.01795824097115
 20
601.10583080107972
 11
484.01795824097115
 21
595.10583080107972
  0
LINE
  8
_0-0_計極細
  6
CONTINUOUS
 62
    2
 10
510.01795824097115
 20
601.10583080107972
 11
510.01795824097115
 21
595.10583080107972
  0
LINE
  8
_0-0_計極細
  6
CONTINUOUS
 62
    2
 10
523.0179582409711
 20
601.10583080107972
 11
523.0179582409711
 21
595.10583080107972
  0
LINE
  8
_0-1_計細線
  6
CONTINUOUS
 62
    3
 10
373.5179582409711
 20
629.6058308010804
 11
523.51795824097144
 21
629.6058308010804
  0
LINE
  8
_0-1_計細線
  6
CONTINUOUS
 62
    3
 10
373.5179582409711
 20
618.20583080107986
 11
523.51795824097144
 21
618.20583080107986
  0
LINE
  8
_0-1_計細線
  6
CONTINUOUS
 62
    3
 10
373.5179582409711
 20
629.6058308010804
 11
373.5179582409711
 21
618.20583080107986
  0
LINE
  8
_0-1_計細線
  6
CONTINUOUS
 62
    3
 10
523.51795824097144
 20
629.6058308010804
 11
523.51795824097144
 21
618.20583080107986
  0
LINE
  8
_0-0_計極細
  6
CONTINUOUS
 62
    2
 10
373.5179582409711
 20
621.40583080108013
 11
523.51795824097144
 21
621.40583080108013
  0
LINE
  8
_0-0_計極細
  6
CONTINUOUS
 62
    2
 10
373.5179582409711
 20
626.40583080108013
 11
523.51795824097144
 21
626.40583080108013
  0
LINE
  8
_0-0_計極細
  6
CONTINUOUS
 62
    2
 10
374.01795824097115
 20
618.20583080108122
 11
374.01795824097115
 21
612.50583080108026
  0
LINE
  8
_0-0_計極細
  6
CONTINUOUS
 62
    2
 10
387.0179582409711
 20
618.20583080108122
 11
387.0179582409711
 21
612.50583080108026
  0
LINE
  8
_0-0_計極細
  6
CONTINUOUS
 62
    2
 10
471.0179582409711
 20
618.20583080108122
 11
471.0179582409711
 21
612.50583080108026
  0
LINE
  8
_0-0_計極細
  6
CONTINUOUS
 62
    2
 10
484.01795824097115
 20
618.20583080108122
 11
484.01795824097115
 21
612.50583080108026
  0
LINE
  8
_0-0_計極細
  6
CONTINUOUS
 62
    2
 10
510.01795824097115
 20
618.20583080108122
 11
510.01795824097115
 21
612.50583080108026
  0
LINE
  8
_0-0_計極細
  6
CONTINUOUS
 62
    2
 10
523.0179582409711
 20
618.20583080108122
 11
523.0179582409711
 21
612.50583080108026
  0
LINE
  8
_0-1_計細線
  6
CONTINUOUS
 62
    3
 10
525.51795824097189
 20
631.6058308010804
 11
371.51795824097115
 21
631.6058308010804
  0
LINE
  8
_0-0_計極細
  6
CONTINUOUS
 62
    2
 10
374.01795824097115
 20
548.90583080107922
 11
374.01795824097115
 21
542.90583080107467
  0
LINE
  8
_0-0_計極細
  6
CONTINUOUS
 62
    2
 10
387.0179582409711
 20
548.90583080107922
 11
387.0179582409711
 21
542.90583080107467
  0
LINE
  8
_0-0_計極細
  6
CONTINUOUS
 62
    2
 10
471.0179582409711
 20
548.90583080107922
 11
471.0179582409711
 21
542.90583080107467
  0
LINE
  8
_0-0_計極細
  6
CONTINUOUS
 62
    2
 10
484.01795824097115
 20
548.90583080107922
 11
484.01795824097115
 21
542.90583080107467
  0
LINE
  8
_0-1_計細線
  6
CONTINUOUS
 62
    3
 10
373.5179582409711
 20
531.50583080107867
 11
523.51795824097144
 21
531.50583080107867
  0
LINE
  8
_0-1_計細線
  6
CONTINUOUS
 62
    3
 10
373.5179582409711
 20
542.90583080107922
 11
523.51795824097144
 21
542.90583080107922
  0
LINE
  8
_0-1_計細線
  6
CONTINUOUS
 62
    3
 10
373.5179582409711
 20
531.50583080107867
 11
373.5179582409711
 21
542.90583080107922
  0
LINE
  8
_0-1_計細線
  6
CONTINUOUS
 62
    3
 10
523.51795824097144
 20
531.50583080107867
 11
523.51795824097144
 21
542.90583080107922
  0
LINE
  8
_0-0_計極細
  6
CONTINUOUS
 62
    2
 10
373.5179582409711
 20
539.70583080107895
 11
523.51795824097144
 21
539.70583080107895
  0
LINE
  8
_0-0_計極細
  6
CONTINUOUS
 62
    2
 10
373.5179582409711
 20
534.70583080107895
 11
523.51795824097144
 21
534.70583080107895
  0
LINE
  8
_0-0_計極細
  6
CONTINUOUS
 62
    2
 10
510.01795824097115
 20
548.90583080107922
 11
510.01795824097115
 21
542.90583080107467
  0
LINE
  8
_0-0_計極細
  6
CONTINUOUS
 62
    2
 10
523.0179582409711
 20
548.90583080107922
 11
523.0179582409711
 21
542.90583080107467
  0
LINE
  8
_0-1_計細線
  6
CONTINUOUS
 62
    3
 10
373.5179582409711
 20
514.10583080107926
 11
523.51795824097144
 21
514.10583080107926
  0
LINE
  8
_0-1_計細線
  6
CONTINUOUS
 62
    3
 10
373.5179582409711
 20
525.50583080107981
 11
523.51795824097144
 21
525.50583080107981
  0
LINE
  8
_0-1_計細線
  6
CONTINUOUS
 62
    3
 10
373.5179582409711
 20
514.10583080107926
 11
373.5179582409711
 21
525.50583080107981
  0
LINE
  8
_0-1_計細線
  6
CONTINUOUS
 62
    3
 10
523.51795824097144
 20
514.10583080107926
 11
523.51795824097144
 21
525.50583080107981
  0
LINE
  8
_0-0_計極細
  6
CONTINUOUS
 62
    2
 10
373.5179582409711
 20
522.30583080107908
 11
523.51795824097144
 21
522.30583080107908
  0
LINE
  8
_0-0_計極細
  6
CONTINUOUS
 62
    2
 10
373.5179582409711
 20
517.30583080107908
 11
523.51795824097144
 21
517.30583080107908
  0
LINE
  8
_0-0_計極細
  6
CONTINUOUS
 62
    2
 10
374.01795824097115
 20
525.50583080107981
 11
374.01795824097115
 21
531.50583080107867
  0
LINE
  8
_0-0_計極細
  6
CONTINUOUS
 62
    2
 10
387.0179582409711
 20
525.50583080107981
 11
387.0179582409711
 21
531.50583080107867
  0
LINE
  8
_0-0_計極細
  6
CONTINUOUS
 62
    2
 10
471.0179582409711
 20
525.50583080107981
 11
471.0179582409711
 21
531.50583080107867
  0
LINE
  8
_0-0_計極細
  6
CONTINUOUS
 62
    2
 10
484.01795824097115
 20
525.50583080107981
 11
484.01795824097115
 21
531.50583080107867
  0
LINE
  8
_0-0_計極細
  6
CONTINUOUS
 62
    2
 10
510.01795824097115
 20
525.50583080107981
 11
510.01795824097115
 21
531.50583080107867
  0
LINE
  8
_0-0_計極細
  6
CONTINUOUS
 62
    2
 10
523.0179582409711
 20
525.50583080107981
 11
523.0179582409711
 21
531.50583080107867
  0
LINE
  8
_0-1_計細線
  6
CONTINUOUS
 62
    3
 10
373.5179582409711
 20
496.70583080107946
 11
523.51795824097144
 21
496.70583080107946
  0
LINE
  8
_0-1_計細線
  6
CONTINUOUS
 62
    3
 10
373.5179582409711
 20
508.10583080107995
 11
523.51795824097144
 21
508.10583080107995
  0
LINE
  8
_0-1_計細線
  6
CONTINUOUS
 62
    3
 10
373.5179582409711
 20
496.70583080107946
 11
373.5179582409711
 21
508.10583080107995
  0
LINE
  8
_0-1_計細線
  6
CONTINUOUS
 62
    3
 10
523.51795824097144
 20
496.70583080107946
 11
523.51795824097144
 21
508.10583080107995
  0
LINE
  8
_0-0_計極細
  6
CONTINUOUS
 62
    2
 10
373.5179582409711
 20
504.90583080107967
 11
523.51795824097144
 21
504.90583080107967
  0
LINE
  8
_0-0_計極細
  6
CONTINUOUS
 62
    2
 10
373.5179582409711
 20
499.90583080107967
 11
523.51795824097144
 21
499.90583080107967
  0
LINE
  8
_0-0_計極細
  6
CONTINUOUS
 62
    2
 10
374.01795824097115
 20
508.10583080107995
 11
374.01795824097115
 21
514.10583080107926
  0
LINE
  8
_0-0_計極細
  6
CONTINUOUS
 62
    2
 10
387.0179582409711
 20
508.10583080107995
 11
387.0179582409711
 21
514.10583080107926
  0
LINE
  8
_0-0_計極細
  6
CONTINUOUS
 62
    2
 10
471.0179582409711
 20
508.10583080107995
 11
471.0179582409711
 21
514.10583080107926
  0
LINE
  8
_0-0_計極細
  6
CONTINUOUS
 62
    2
 10
484.01795824097115
 20
508.10583080107995
 11
484.01795824097115
 21
514.10583080107926
  0
LINE
  8
_0-0_計極細
  6
CONTINUOUS
 62
    2
 10
510.01795824097115
 20
508.10583080107995
 11
510.01795824097115
 21
514.10583080107926
  0
LINE
  8
_0-0_計極細
  6
CONTINUOUS
 62
    2
 10
523.0179582409711
 20
508.10583080107995
 11
523.0179582409711
 21
514.10583080107926
  0
LINE
  8
_0-1_計細線
  6
CONTINUOUS
 62
    3
 10
373.5179582409711
 20
479.60583080107858
 11
523.51795824097144
 21
479.60583080107858
  0
LINE
  8
_0-1_計細線
  6
CONTINUOUS
 62
    3
 10
373.5179582409711
 20
491.00583080107918
 11
523.51795824097144
 21
491.00583080107918
  0
LINE
  8
_0-1_計細線
  6
CONTINUOUS
 62
    3
 10
373.5179582409711
 20
479.60583080107858
 11
373.5179582409711
 21
491.00583080107918
  0
LINE
  8
_0-1_計細線
  6
CONTINUOUS
 62
    3
 10
523.51795824097144
 20
479.60583080107858
 11
523.51795824097144
 21
491.00583080107918
  0
LINE
  8
_0-0_計極細
  6
CONTINUOUS
 62
    2
 10
373.5179582409711
 20
487.80583080107886
 11
523.51795824097144
 21
487.80583080107886
  0
LINE
  8
_0-0_計極細
  6
CONTINUOUS
 62
    2
 10
373.5179582409711
 20
482.80583080107886
 11
523.51795824097144
 21
482.80583080107886
  0
LINE
  8
_0-0_計極細
  6
CONTINUOUS
 62
    2
 10
374.01795824097115
 20
491.00583080107782
 11
374.01795824097115
 21
496.70583080107986
  0
LINE
  8
_0-0_計極細
  6
CONTINUOUS
 62
    2
 10
387.0179582409711
 20
491.00583080107782
 11
387.0179582409711
 21
496.70583080107986
  0
LINE
  8
_0-0_計極細
  6
CONTINUOUS
 62
    2
 10
471.0179582409711
 20
491.00583080107782
 11
471.0179582409711
 21
496.70583080107986
  0
LINE
  8
_0-0_計極細
  6
CONTINUOUS
 62
    2
 10
484.01795824097115
 20
491.00583080107782
 11
484.01795824097115
 21
496.70583080107986
  0
LINE
  8
_0-0_計極細
  6
CONTINUOUS
 62
    2
 10
510.01795824097115
 20
491.00583080107782
 11
510.01795824097115
 21
496.70583080107986
  0
LINE
  8
_0-0_計極細
  6
CONTINUOUS
 62
    2
 10
523.0179582409711
 20
491.00583080107782
 11
523.0179582409711
 21
496.70583080107986
  0
LINE
  8
_0-1_計細線
  6
CONTINUOUS
 62
    3
 10
371.51795824097115
 20
477.60583080107864
 11
525.51795824097189
 21
477.60583080107864
  0
LINE
  8
_0-1_計細線
  6
CONTINUOUS
 62
    3
 10
371.51795824097115
 20
631.6058308010804
 11
371.51795824097115
 21
477.60583080107864
  0
LINE
  8
_0-0_計極細
  6
CENTER1
 62
    2
 10
380.5179582409711
 20
638.35655022554215
 11
380.5179582409711
 21
471.84800706006695
  0
LINE
  8
_0-0_計極細
  6
CENTER1
 62
    2
 10
477.51795824097115
 20
638.35655022554215
 11
477.51795824097115
 21
471.84800706006695
  0
LINE
  8
_0-1_計細線
  6
CONTINUOUS
 62
    3
 10
525.51795824097189
 20
477.60583080107864
 11
525.51795824097189
 21
631.6058308010804
  0
LINE
  8
_0-1_計細線
  6
CONTINUOUS
 62
    3
 10
368.5179582409711
 20
474.60583080107858
 11
368.5179582409711
 21
634.6058308010804
  0
LINE
  8
_0-1_計細線
  6
CONTINUOUS
 62
    3
 10
368.5179582409711
 20
634.6058308010804
 11
528.51795824097178
 21
634.6058308010804
  0
LINE
  8
_0-1_計細線
  6
CONTINUOUS
 62
    3
 10
528.51795824097178
 20
634.6058308010804
 11
528.51795824097178
 21
474.60583080107858
  0
LINE
  8
_0-1_計細線
  6
CONTINUOUS
 62
    3
 10
528.51795824097178
 20
474.60583080107858
 11
368.5179582409711
 21
474.60583080107858
  0
LINE
  8
_0-0_計極細
  6
CENTER1
 62
    2
 10
516.5179582409711
 20
638.35655022554215
 11
516.5179582409711
 21
471.84800706006695
  0
LINE
  8
_0-5_寸法線
  6
CONTINUOUS
 62
    7
 10
358.5179582409711
 20
629.6058308010804
 11
313.51795824097087
 21
629.6058308010804
  0
LINE
  8
_0-5_寸法線
  6
CONTINUOUS
 62
    7
 10
318.51795824097087
 20
629.6058308010804
 11
321.10614869199617
 21
619.94657253818968
  0
LINE
  8
_0-5_寸法線
  6
CONTINUOUS
 62
    7
 10
318.51795824097087
 20
629.6058308010804
 11
315.92976778994569
 21
619.94657253818968
  0
LINE
  8
_0-5_寸法線
  6
CONTINUOUS
 62
    7
 10
358.5179582409711
 20
479.60583080107909
 11
313.51795824097087
 21
479.60583080107909
  0
LINE
  8
_0-5_寸法線
  6
CONTINUOUS
 62
    7
 10
318.51795824097087
 20
479.60583080107909
 11
315.92976778994569
 21
489.26508906396975
  0
LINE
  8
_0-5_寸法線
  6
CONTINUOUS
 62
    7
 10
318.51795824097087
 20
479.60583080107909
 11
321.10614869199617
 21
489.26508906396975
  0
LINE
  8
_0-5_寸法線
  6
CONTINUOUS
 62
    7
 10
318.51795824097087
 20
629.6058308010804
 11
318.51795824097087
 21
479.60583080107909
  0
TEXT
  8
_0-5_寸法線
 62
    7
 10
318.5179582409711
 20
543.35583080107972
 40
15
 41
1
 50
90
  1
150
  0
LINE
  8
_0-5_寸法線
  6
CONTINUOUS
 62
    7
 10
358.5179582409711
 20
474.6058308010787
 11
243.51795824097138
 21
474.60583080107909
  0
LINE
  8
_0-5_寸法線
  6
CONTINUOUS
 62
    7
 10
248.51795824097138
 20
474.60583080107909
 11
245.92976778994611
 21
484.26508906396975
  0
LINE
  8
_0-5_寸法線
  6
CONTINUOUS
 62
    7
 10
248.51795824097138
 20
474.60583080107909
 11
251.10614869199651
 21
484.26508906396975
  0
LINE
  8
_0-5_寸法線
  6
CONTINUOUS
 62
    7
 10
358.51795824097161
 20
634.60583080108086
 11
243.51795824097138
 21
634.60583080108131
  0
LINE
  8
_0-5_寸法線
  6
CONTINUOUS
 62
    7
 10
248.51795824097138
 20
634.60583080108131
 11
251.10614869199651
 21
624.94657253819059
  0
LINE
  8
_0-5_寸法線
  6
CONTINUOUS
 62
    7
 10
248.51795824097138
 20
634.60583080108131
 11
245.92976778994611
 21
624.94657253819059
  0
LINE
  8
_0-5_寸法線
  6
CONTINUOUS
 62
    7
 10
248.51795824097138
 20
474.60583080107909
 11
248.51795824097138
 21
634.60583080108131
  0
TEXT
  8
_0-5_寸法線
 62
    7
 10
248.51795824097132
 20
543.35583080108017
 40
15
 41
1
 50
89.999999999999815
  1
160
  0
LINE
  8
_0-5_寸法線
  6
CONTINUOUS
 62
    7
 10
283.51795824097138
 20
474.60583080107909
 11
286.10614869199651
 21
464.94657253818838
  0
LINE
  8
_0-5_寸法線
  6
CONTINUOUS
 62
    7
 10
283.51795824097138
 20
474.60583080107909
 11
280.92976778994614
 21
464.94657253818843
  0
LINE
  8
_0-5_寸法線
  6
CONTINUOUS
 62
    7
 10
358.5179582409711
 20
477.60583080107864
 11
278.51795824097138
 21
477.60583080107904
  0
LINE
  8
_0-5_寸法線
  6
CONTINUOUS
 62
    7
 10
283.51795824097138
 20
449.60583080107909
 11
283.51795824097138
 21
477.60583080107904
  0
TEXT
  8
_0-5_寸法線
 62
    7
 10
283.51795824097138
 20
452.95918897220901
 40
15
 41
1
 50
90
  1
3
  0
LINE
  8
_0-5_寸法線
  6
CONTINUOUS
 62
    7
 10
283.51795824097138
 20
477.60583080107904
 11
280.92976778994614
 21
487.26508906396975
  0
LINE
  8
_0-5_寸法線
  6
CONTINUOUS
 62
    7
 10
283.51795824097138
 20
477.60583080107904
 11
286.10614869199657
 21
487.26508906396975
  0
LINE
  8
_0-5_寸法線
  6
CONTINUOUS
 62
    7
 10
358.51795824097161
 20
631.60583080108086
 11
278.51795824097138
 21
631.60583080108086
  0
LINE
  8
_0-5_寸法線
  6
CONTINUOUS
 62
    7
 10
283.51795824097138
 20
631.60583080108086
 11
286.10614869199651
 21
621.94657253819014
  0
LINE
  8
_0-5_寸法線
  6
CONTINUOUS
 62
    7
 10
283.51795824097138
 20
631.60583080108086
 11
280.92976778994614
 21
621.94657253819014
  0
LINE
  8
_0-5_寸法線
  6
CONTINUOUS
 62
    7
 10
283.51795824097138
 20
477.60583080107904
 11
283.51795824097138
 21
631.60583080108086
  0
TEXT
  8
_0-5_寸法線
 62
    7
 10
283.51795824097138
 20
543.35583080107995
 40
15
 41
1
 50
90
  1
154
  0
LINE
  8
_0-5_寸法線
  6
CONTINUOUS
 62
    7
 10
283.51795824097138
 20
634.60583080108086
 11
280.92976778994614
 21
644.26508906397157
  0
LINE
  8
_0-5_寸法線
  6
CONTINUOUS
 62
    7
 10
283.51795824097138
 20
634.60583080108086
 11
286.10614869199657
 21
644.26508906397157
  0
LINE
  8
_0-5_寸法線
  6
CONTINUOUS
 62
    7
 10
283.51795824097138
 20
631.60583080108086
 11
283.51795824097138
 21
659.60583080108097
  0
TEXT
  8
_0-5_寸法線
 62
    7
 10
283.51795824097138
 20
648.87159773133271
 40
15
 41
1
 50
90
  1
3
  0
LINE
  8
_0-0_計極細
  6
CENTER2
 62
    2
 10
351.2200100230674
 20
554.60583080107949
 11
537.53619767512964
 21
554.60583080107949
  0
LINE
  8
_0-5_寸法線
  6
CONTINUOUS
 62
    7
 10
504.03439759736818
 20
571.73354346491192
 11
511.10546540923366
 21
578.80461127677734
  0
LINE
  8
_0-5_寸法線
  6
CONTINUOUS
 62
    7
 10
504.03439759736818
 20
571.73354346491192
 11
513.6936558602589
 21
574.3217339159371
  0
LINE
  8
_0-5_寸法線
  6
CONTINUOUS
 62
    7
 10
504.03439759736818
 20
571.73354346491192
 11
568.83439759736837
 21
609.1458409083998
  0
LINE
  8
_0-5_寸法線
  6
CONTINUOUS
 62
    7
 10
568.83439759736837
 20
609.1458409083998
 11
700.83439759736848
 21
609.1458409083998
  0
TEXT
  8
_0-5_寸法線
 62
    7
 10
568.83439759736837
 20
609.1458409083998
 40
15
 41
0.8000000000000001
 50
0
  1
セーフティグレーチング
  0
LINE
  8
_0-5_寸法線
  6
CONTINUOUS
 62
    7
 10
526.71773093070135
 20
508.2389570902165
 11
533.78879874256688
 21
515.31002490208186
  0
LINE
  8
_0-5_寸法線
  6
CONTINUOUS
 62
    7
 10
526.71773093070135
 20
508.2389570902165
 11
536.37698919359207
 21
510.82714754124169
  0
LINE
  8
_0-5_寸法線
  6
CONTINUOUS
 62
    7
 10
526.71773093070135
 20
508.2389570902165
 11
568.11773093070178
 21
532.14125823466702
  0
LINE
  8
_0-5_寸法線
  6
CONTINUOUS
 62
    7
 10
568.11773093070178
 20
532.14125823466702
 11
676.11773093070178
 21
532.14125823466702
  0
TEXT
  8
_0-5_寸法線
 62
    7
 10
568.11773093070178
 20
532.14125823466702
 40
15
 41
0.8000000000000001
 50
0
  1
ＳＵＳアングル受枠
  0
LINE
  8
_0-5_寸法線
  6
CONTINUOUS
 62
    7
 10
443.08707771761647
 20
564.58709186681745
 11
435.10773417312589
 21
570.61453548737495
  0
LINE
  8
_0-5_寸法線
  6
CONTINUOUS
 62
    7
 10
443.08707771761647
 20
564.58709186681745
 11
439.19048531284295
 21
573.79668293434383
  0
LINE
  8
_0-5_寸法線
  6
CONTINUOUS
 62
    7
 10
443.08707771761647
 20
564.58709186681745
 11
342.88019981867473
 21
693.15427857561554
  0
LINE
  8
_0-5_寸法線
  6
CONTINUOUS
 62
    7
 10
342.88019981867473
 20
693.15427857561554
 11
282.88019981867478
 21
693.15427857561554
  0
TEXT
  8
_0-5_寸法線
 62
    7
 10
282.88019981867478
 20
693.15427857561554
 40
15
 41
0.8000000000000001
 50
0
  1
取　外　具
  0
TEXT
  8
_0-5_寸法線
 62
    7
 10
278.97731624029802
 20
676.06779181405955
 40
15
 41
0.8000000000000001
 50
0
  1
(標準付属)
  0
TEXT
  8
_0-7_枠細線
 62
    5
 10
282.17046367576899
 20
710.00644557597082
 40
12.5
 41
0.8
 50
0
  1
２
  0
LINE
  8
_0-7_枠細線
  6
CONTINUOUS
 62
    5
 10
294.80531240762082
 20
710.31344782135136
 11
287.30531240762082
 21
725.31344782135136
  0
LINE
  8
_0-7_枠細線
  6
CONTINUOUS
 62
    5
 10
279.80531240762082
 20
710.31344782135136
 11
294.80531240762082
 21
710.31344782135136
  0
LINE
  8
_0-7_枠細線
  6
CONTINUOUS
 62
    5
 10
287.30531240762082
 20
725.31344782135136
 11
279.80531240762082
 21
710.31344782135136
  0
TEXT
  8
_0-7_枠細線
 62
    5
 10
301.06235750364522
 20
709.71330285390479
 40
12.5
 41
0.8
 50
0
  1
３
  0
LINE
  8
_0-7_枠細線
  6
CONTINUOUS
 62
    5
 10
306.19720623549711
 20
725.26098674408615
 11
298.69720623549711
 21
710.26098674408615
  0
LINE
  8
_0-7_枠細線
  6
CONTINUOUS
 62
    5
 10
298.69720623549711
 20
710.26098674408615
 11
313.69720623549711
 21
710.26098674408615
  0
LINE
  8
_0-7_枠細線
  6
CONTINUOUS
 62
    5
 10
313.69720623549711
 20
710.26098674408615
 11
306.19720623549711
 21
725.26098674408615
  0
LINE
  8
_0-5_寸法線
  6
CONTINUOUS
 62
    7
 10
368.5179582409711
 20
644.6058308010804
 11
368.51795824097138
 21
794.60583080108051
  0
LINE
  8
_0-5_寸法線
  6
CONTINUOUS
 62
    7
 10
368.51795824097138
 20
789.60583080108051
 11
378.17721650386204
 21
792.19402125210559
  0
LINE
  8
_0-5_寸法線
  6
CONTINUOUS
 62
    7
 10
368.51795824097138
 20
789.60583080108051
 11
378.17721650386204
 21
787.01764035005522
  0
LINE
  8
_0-5_寸法線
  6
CONTINUOUS
 62
    7
 10
528.51795824097178
 20
644.6058308010804
 11
528.51795824097178
 21
794.60583080108051
  0
LINE
  8
_0-5_寸法線
  6
CONTINUOUS
 62
    7
 10
528.51795824097178
 20
789.60583080108051
 11
518.85869997808106
 21
787.01764035005522
  0
LINE
  8
_0-5_寸法線
  6
CONTINUOUS
 62
    7
 10
528.51795824097178
 20
789.60583080108051
 11
518.85869997808106
 21
792.19402125210559
  0
LINE
  8
_0-5_寸法線
  6
CONTINUOUS
 62
    7
 10
368.51795824097138
 20
789.60583080108051
 11
528.51795824097178
 21
789.60583080108051
  0
TEXT
  8
_0-5_寸法線
 62
    7
 10
437.26795824097138
 20
789.60583080108017
 40
15
 41
1
 50
0
  1
160
  0
LINE
  8
_0-5_寸法線
  6
CONTINUOUS
 62
    7
 10
368.51795824097144
 20
754.6058308010804
 11
358.85869997808072
 21
752.01764035005522
  0
LINE
  8
_0-5_寸法線
  6
CONTINUOUS
 62
    7
 10
368.51795824097144
 20
754.6058308010804
 11
358.85869997808078
 21
757.19402125210559
  0
LINE
  8
_0-5_寸法線
  6
CONTINUOUS
 62
    7
 10
371.51795824097115
 20
644.6058308010804
 11
371.51795824097144
 21
759.6058308010804
  0
LINE
  8
_0-5_寸法線
  6
CONTINUOUS
 62
    7
 10
343.51795824097144
 20
754.6058308010804
 11
371.51795824097144
 21
754.6058308010804
  0
TEXT
  8
_0-5_寸法線
 62
    7
 10
347.41188198170448
 20
754.60583080108017
 40
15
 41
1
 50
0
  1
3
  0
LINE
  8
_0-5_寸法線
  6
CONTINUOUS
 62
    7
 10
371.51795824097144
 20
754.6058308010804
 11
381.17721650386216
 21
757.19402125210559
  0
LINE
  8
_0-5_寸法線
  6
CONTINUOUS
 62
    7
 10
371.51795824097144
 20
754.6058308010804
 11
381.1772165038621
 21
752.0176403500551
  0
LINE
  8
_0-5_寸法線
  6
CONTINUOUS
 62
    7
 10
525.51795824097189
 20
644.6058308010804
 11
525.51795824097189
 21
759.6058308010804
  0
LINE
  8
_0-5_寸法線
  6
CONTINUOUS
 62
    7
 10
525.51795824097189
 20
754.6058308010804
 11
515.85869997808106
 21
752.01764035005522
  0
LINE
  8
_0-5_寸法線
  6
CONTINUOUS
 62
    7
 10
525.51795824097189
 20
754.6058308010804
 11
515.85869997808106
 21
757.19402125210559
  0
LINE
  8
_0-5_寸法線
  6
CONTINUOUS
 62
    7
 10
371.51795824097144
 20
754.6058308010804
 11
525.51795824097189
 21
754.6058308010804
  0
TEXT
  8
_0-5_寸法線
 62
    7
 10
437.26795824097144
 20
754.60583080108017
 40
15
 41
1
 50
0
  1
154
  0
LINE
  8
_0-5_寸法線
  6
CONTINUOUS
 62
    7
 10
528.51795824097178
 20
754.6058308010804
 11
538.1772165038625
 21
757.19402125210559
  0
LINE
  8
_0-5_寸法線
  6
CONTINUOUS
 62
    7
 10
528.51795824097178
 20
754.6058308010804
 11
538.1772165038625
 21
752.0176403500551
  0
LINE
  8
_0-5_寸法線
  6
CONTINUOUS
 62
    7
 10
525.51795824097189
 20
754.6058308010804
 11
553.51795824097178
 21
754.6058308010804
  0
TEXT
  8
_0-5_寸法線
 62
    7
 10
542.68560460944161
 20
754.6058308010804
 40
15
 41
1
 50
0
  1
3
  0
LINE
  8
_0-5_寸法線
  6
CONTINUOUS
 62
    7
 10
373.5179582409711
 20
644.6058308010804
 11
373.51795824097121
 21
724.6058308010804
  0
LINE
  8
_0-5_寸法線
  6
CONTINUOUS
 62
    7
 10
373.51795824097121
 20
719.6058308010804
 11
383.17721650386193
 21
722.19402125210559
  0
LINE
  8
_0-5_寸法線
  6
CONTINUOUS
 62
    7
 10
373.51795824097121
 20
719.6058308010804
 11
383.17721650386193
 21
717.01764035005522
  0
LINE
  8
_0-5_寸法線
  6
CONTINUOUS
 62
    7
 10
523.51795824097144
 20
644.6058308010804
 11
523.51795824097144
 21
724.6058308010804
  0
LINE
  8
_0-5_寸法線
  6
CONTINUOUS
 62
    7
 10
523.51795824097144
 20
719.6058308010804
 11
513.85869997808072
 21
717.01764035005522
  0
LINE
  8
_0-5_寸法線
  6
CONTINUOUS
 62
    7
 10
523.51795824097144
 20
719.6058308010804
 11
513.85869997808072
 21
722.19402125210559
  0
LINE
  8
_0-5_寸法線
  6
CONTINUOUS
 62
    7
 10
373.51795824097121
 20
719.6058308010804
 11
523.51795824097144
 21
719.6058308010804
  0
TEXT
  8
_0-5_寸法線
 62
    7
 10
437.26795824097138
 20
719.6058308010804
 40
15
 41
1
 50
0
  1
150
  0
LINE
  8
_0-1_計細線
  6
CONTINUOUS
 62
    3
 10
1086.70000000039
 20
663.46000000000004
 11
1091.3277575233169
 21
663.46000000000004
  0
LINE
  8
_0-1_計細線
  6
CONTINUOUS
 62
    3
 10
1096.0277575233167
 20
663.46000000000004
 11
1100.7000000005519
 21
663.46000000000004
  0
LINE
  8
_0-1_計細線
  6
CONTINUOUS
 62
    3
 10
1096.0277575233167
 20
676.46000000000004
 11
1100.7000000005519
 21
676.46000000000004
  0
LINE
  8
_0-1_計細線
  6
CONTINUOUS
 62
    3
 10
1086.7000000011139
 20
676.46000000000004
 11
1091.3277575233169
 21
676.46000000000004
  0
LINE
  8
_0-1_計細線
  6
CONTINUOUS
 62
    3
 10
1096.0277575233167
 20
681.36024125980737
 11
1096.0277575233167
 21
661.36024125980703
  0
LINE
  8
_0-1_計細線
  6
CONTINUOUS
 62
    3
 10
1091.3277575233169
 20
661.36024125980703
 11
1091.3277575233169
 21
681.36024125980737
  0
LINE
  8
_0-1_計細線
  6
CONTINUOUS
 62
    3
 10
1096.0277575233167
 20
661.36024125980703
 11
1091.3277575233169
 21
661.36024125980703
  0
LINE
  8
_0-1_計細線
  6
CONTINUOUS
 62
    3
 10
1091.3277575233169
 20
681.36024125980737
 11
1096.0277575233167
 21
681.36024125980737
  0
LINE
  8
_0-1_計細線
  6
DASHED2
 62
    3
 10
1091.3277575233169
 20
664.36024125980691
 11
1096.0277575233167
 21
664.36024125980691
  0
LINE
  8
_0-1_計細線
  6
DASHED2
 62
    3
 10
1091.3277575233169
 20
678.36024125980748
 11
1096.0277575233167
 21
678.36024125980748
  0
ARC
  8
_0-1_計細線
  6
CONTINUOUS
 62
    3
 10
1080.3000000011025
 20
679.15999999999997
 40
1
 50
89.999999999999915
 51
179.99999999999983
  0
ARC
  8
_0-1_計細線
  6
CONTINUOUS
 62
    3
 10
1080.7679491924309
 20
681.15999999999997
 40
1
 50
269.99999999999977
 51
330.0000000000154
  0
ARC
  8
_0-1_計細線
  6
CONTINUOUS
 62
    3
 10
1082.5
 20
680.16000000000008
 40
1
 50
89.999999999999915
 51
149.99999999999534
  0
LINE
  8
_0-1_計細線
  6
CONTINUOUS
 62
    3
 10
1080.3000000011025
 20
680.16000000000008
 11
1080.7679491924309
 21
680.16000000000008
  0
ARC
  8
_0-1_計細線
  6
CONTINUOUS
 62
    3
 10
1089.6999999988957
 20
679.15999999999997
 40
1
 50
0
 51
89.999999999999915
  0
ARC
  8
_0-1_計細線
  6
CONTINUOUS
 62
    3
 10
1089.2320508075682
 20
681.15999999999997
 40
1
 50
210.00000000000995
 51
269.99999999999977
  0
ARC
  8
_0-1_計細線
  6
CONTINUOUS
 62
    3
 10
1087.4999999999991
 20
680.16000000000008
 40
1
 50
29.99999999997862
 51
89.999999999999915
  0
LINE
  8
_0-1_計細線
  6
CONTINUOUS
 62
    3
 10
1089.6999999988957
 20
680.16000000000008
 11
1089.2320508075682
 21
680.16000000000008
  0
ARC
  8
_0-1_計細線
  6
CONTINUOUS
 62
    3
 10
1079.8000000011025
 20
677.7600000000001
 40
0.5
 50
179.99999999999983
 51
269.99999999999977
  0
LINE
  8
_0-1_計細線
  6
CONTINUOUS
 62
    3
 10
1079.3000000011034
 20
679.15999999999997
 11
1079.3000000011034
 21
677.7600000000001
  0
ARC
  8
_0-1_計細線
  6
CONTINUOUS
 62
    3
 10
1090.1999999988957
 20
677.7600000000001
 40
0.5
 50
269.99999999999977
 51
359.99999999999966
  0
LINE
  8
_0-1_計細線
  6
CONTINUOUS
 62
    3
 10
1090.6999999988966
 20
679.15999999999997
 11
1090.6999999988966
 21
677.7600000000001
  0
ARC
  8
_0-1_計細線
  6
CONTINUOUS
 62
    3
 10
1082.3000000011034
 20
676.26000000000022
 40
1
 50
0
 51
89.999999999999915
  0
LINE
  8
_0-1_計細線
  6
CONTINUOUS
 62
    3
 10
1082.3000000011034
 20
677.25999999999999
 11
1079.8000000011025
 21
677.25999999999999
  0
ARC
  8
_0-1_計細線
  6
CONTINUOUS
 62
    3
 10
1087.700000001103
 20
676.26000000000022
 40
1
 50
89.999999999999915
 51
179.99999999999983
  0
LINE
  8
_0-1_計細線
  6
CONTINUOUS
 62
    3
 10
1087.6999999988966
 20
677.25999999999999
 11
1090.1999999988957
 21
677.25999999999999
  0
LINE
  8
_0-1_計細線
  6
CONTINUOUS
 62
    3
 10
1087.4999999999991
 20
681.15999999999997
 11
1082.5
 21
681.15999999999997
  0
LINE
  8
_0-1_計細線
  6
CONTINUOUS
 62
    3
 10
1083.2999999999993
 20
656.15999999999997
 11
1083.3000000011025
 21
676.26000000000022
  0
LINE
  8
_0-1_計細線
  6
CONTINUOUS
 62
    3
 10
1086.6999999999998
 20
656.15999999999997
 11
1086.700000001103
 21
676.26000000000022
  0
LINE
  8
_0-1_計細線
  6
CONTINUOUS
 62
    3
 10
1086.6999999999998
 20
656.15999999999997
 11
1083.2999999999993
 21
656.15999999999997
  0
LINE
  8
_0-1_計細線
  6
CONTINUOUS
 62
    3
 10
1157.4967480019986
 20
669.95999999999992
 11
1160.5012640019995
 21
669.95999999999992
  0
LINE
  8
_0-1_計細線
  6
CONTINUOUS
 62
    3
 10
1157.4967480019986
 20
666.46000000000049
 11
1160.5012760019981
 21
666.46000000000049
  0
ARC
  8
_0-1_計細線
  6
CONTINUOUS
 62
    3
 10
1160.5012760019981
 20
666.66000000000031
 40
0.2000000000000001
 50
269.99999999999977
 51
359.99999999999966
  0
ARC
  8
_0-1_計細線
  6
CONTINUOUS
 62
    3
 10
1152.9432960019985
 20
668.20985400000052
 40
7.7579560000000001
 50
346.96433000000042
 51
13.038021999993861
  0
ARC
  8
_0-1_計細線
  6
CONTINUOUS
 62
    3
 10
1160.5012760019981
 20
673.26000000000067
 40
0.2000000000000001
 50
0
 51
89.999999999999915
  0
ARC
  8
_0-1_計細線
  6
CONTINUOUS
 62
    3
 10
1152.9432960019985
 20
671.71014400000001
 40
7.7579560000000001
 50
346.96197800000215
 51
13.035669999998861
  0
LINE
  8
_0-1_計細線
  6
CONTINUOUS
 62
    3
 10
1157.4967480019986
 20
673.46000000000049
 11
1160.5012760019981
 21
673.46000000000049
  0
LINE
  8
_0-1_計細線
  6
CONTINUOUS
 62
    3
 10
1160.7012760019988
 20
666.66000000000031
 11
1160.7012760019988
 21
673.26000000000067
  0
ARC
  8
_0-1_計細線
  6
CONTINUOUS
 62
    3
 10
1157.2967480019997
 20
663.66000000000031
 40
0.2000000000000001
 50
269.99999999999977
 51
359.99999999999966
  0
LINE
  8
_0-1_計細線
  6
CONTINUOUS
 62
    3
 10
1156.0000000019982
 20
663.46000000000015
 11
1157.2967480019997
 21
663.46000000000015
  0
ARC
  8
_0-1_計細線
  6
CONTINUOUS
 62
    3
 10
1157.2967480019997
 20
676.25999999999999
 40
0.2000000000000001
 50
0
 51
89.999999999999915
  0
LINE
  8
_0-1_計細線
  6
CONTINUOUS
 62
    3
 10
1156.0000000019982
 20
676.46000000000049
 11
1157.2967480019997
 21
676.46000000000049
  0
LINE
  8
_0-1_計細線
  6
CONTINUOUS
 62
    3
 10
1157.4967480019986
 20
669.46000000000015
 11
1157.4967480019986
 21
663.66000000000031
  0
LINE
  8
_0-1_計細線
  6
CONTINUOUS
 62
    3
 10
1157.4967480019986
 20
676.25999999999999
 11
1157.4967480019986
 21
669.46000000000015
  0
LINE
  8
_0-1_計細線
  6
CONTINUOUS
 62
    3
 10
1012.5032519980005
 20
669.95999999999992
 11
1009.4987359979996
 21
669.95999999999992
  0
LINE
  8
_0-1_計細線
  6
CONTINUOUS
 62
    3
 10
1012.5032519980005
 20
666.46000000000049
 11
1009.4987239980002
 21
666.46000000000049
  0
ARC
  8
_0-1_計細線
  6
CONTINUOUS
 62
    3
 10
1009.4987239980002
 20
666.66000000000031
 40
0.2000000000000001
 50
179.99999999999983
 51
269.99999999999977
  0
ARC
  8
_0-1_計細線
  6
CONTINUOUS
 62
    3
 10
1017.0567039980006
 20
668.20985400000052
 40
7.7579560000000001
 50
166.96197800000581
 51
193.03566999999887
  0
ARC
  8
_0-1_計細線
  6
CONTINUOUS
 62
    3
 10
1009.4987239980002
 20
673.26000000000067
 40
0.2000000000000001
 50
89.999999999999915
 51
179.99999999999983
  0
ARC
  8
_0-1_計細線
  6
CONTINUOUS
 62
    3
 10
1017.0567039980006
 20
671.71014400000001
 40
7.7579560000000001
 50
166.96433000000079
 51
193.03802199999708
  0
LINE
  8
_0-1_計細線
  6
CONTINUOUS
 62
    3
 10
1012.5032519980005
 20
673.46000000000049
 11
1009.4987239980002
 21
673.46000000000049
  0
LINE
  8
_0-1_計細線
  6
CONTINUOUS
 62
    3
 10
1009.2987239980012
 20
666.66000000000031
 11
1009.2987239980012
 21
673.26000000000067
  0
ARC
  8
_0-1_計細線
  6
CONTINUOUS
 62
    3
 10
1012.7032519980003
 20
663.66000000000031
 40
0.2000000000000001
 50
179.99999999999983
 51
269.99999999999977
  0
LINE
  8
_0-1_計細線
  6
CONTINUOUS
 62
    3
 10
1013.999999998
 20
663.46000000000015
 11
1012.7032519980003
 21
663.46000000000015
  0
ARC
  8
_0-1_計細線
  6
CONTINUOUS
 62
    3
 10
1012.7032519980003
 20
676.25999999999999
 40
0.2000000000000001
 50
89.999999999999915
 51
179.99999999999983
  0
LINE
  8
_0-1_計細線
  6
CONTINUOUS
 62
    3
 10
1013.999999998
 20
676.46000000000049
 11
1012.7032519980003
 21
676.46000000000049
  0
LINE
  8
_0-1_計細線
  6
CONTINUOUS
 62
    3
 10
1012.5032519980005
 20
669.46000000000015
 11
1012.5032519980005
 21
663.66000000000031
  0
LINE
  8
_0-1_計細線
  6
CONTINUOUS
 62
    3
 10
1012.5032519980005
 20
676.25999999999999
 11
1012.5032519980005
 21
669.46000000000015
  0
LINE
  8
_0-1_計細線
  6
CONTINUOUS
 62
    3
 10
1121.5000000012751
 20
676.46000000000004
 11
1135.5000000012751
 21
676.46000000000004
  0
LINE
  8
_0-1_計細線
  6
CONTINUOUS
 62
    3
 10
1104.1000000009126
 20
676.46000000000004
 11
1118.1000000009126
 21
676.46000000000004
  0
LINE
  8
_0-1_計細線
  6
CONTINUOUS
 62
    3
 10
1069.3000000001903
 20
676.46000000000004
 11
1083.3000000001894
 21
676.46000000000004
  0
LINE
  8
_0-1_計細線
  6
CONTINUOUS
 62
    3
 10
1051.8999999998277
 20
676.46000000000004
 11
1065.8999999998277
 21
676.46000000000004
  0
LINE
  8
_0-1_計細線
  6
CONTINUOUS
 62
    3
 10
1034.4999999994652
 20
676.46000000000004
 11
1048.499999999467
 21
676.46000000000004
  0
LINE
  8
_0-1_計細線
  6
CONTINUOUS
 62
    3
 10
1138.9000000016367
 20
676.46000000000004
 11
1152.6000000016365
 21
676.46000000000004
  0
LINE
  8
_0-1_計細線
  6
CONTINUOUS
 62
    3
 10
1017.3999999991038
 20
676.46000000000004
 11
1031.0999999991045
 21
676.46000000000004
  0
LINE
  8
_0-1_計細線
  6
CONTINUOUS
 62
    3
 10
1121.5000000012751
 20
663.46000000000004
 11
1135.5000000012751
 21
663.46000000000004
  0
LINE
  8
_0-1_計細線
  6
CONTINUOUS
 62
    3
 10
1104.1000000009126
 20
663.46000000000004
 11
1118.1000000009126
 21
663.46000000000004
  0
LINE
  8
_0-1_計細線
  6
CONTINUOUS
 62
    3
 10
1069.3000000001903
 20
663.46000000000004
 11
1083.3000000001894
 21
663.46000000000004
  0
LINE
  8
_0-1_計細線
  6
CONTINUOUS
 62
    3
 10
1051.8999999998277
 20
663.46000000000004
 11
1065.8999999998277
 21
663.46000000000004
  0
LINE
  8
_0-1_計細線
  6
CONTINUOUS
 62
    3
 10
1034.4999999994652
 20
663.46000000000004
 11
1048.499999999467
 21
663.46000000000004
  0
LINE
  8
_0-1_計細線
  6
CONTINUOUS
 62
    3
 10
1138.9000000016367
 20
663.46000000000004
 11
1152.6000000016365
 21
663.46000000000004
  0
LINE
  8
_0-1_計細線
  6
CONTINUOUS
 62
    3
 10
1017.3999999991038
 20
663.46000000000004
 11
1031.0999999991045
 21
663.46000000000004
  0
ARC
  8
_0-1_計細線
  6
CONTINUOUS
 62
    3
 10
1149.6000000025506
 20
679.15999999999997
 40
1
 50
89.999999999999915
 51
179.99999999999983
  0
ARC
  8
_0-1_計細線
  6
CONTINUOUS
 62
    3
 10
1150.0679491938781
 20
681.15999999999997
 40
1
 50
269.99999999999977
 51
330.0000000000154
  0
ARC
  8
_0-1_計細線
  6
CONTINUOUS
 62
    3
 10
1151.8000000014472
 20
680.16000000000008
 40
1
 50
89.999999999999915
 51
149.99999999999534
  0
LINE
  8
_0-1_計細線
  6
CONTINUOUS
 62
    3
 10
1149.6000000025506
 20
680.16000000000008
 11
1150.0679491938781
 21
680.16000000000008
  0
ARC
  8
_0-1_計細線
  6
CONTINUOUS
 62
    3
 10
1159.0000000003429
 20
679.15999999999997
 40
1
 50
0
 51
89.999999999999915
  0
ARC
  8
_0-1_計細線
  6
CONTINUOUS
 62
    3
 10
1158.5320508090153
 20
681.15999999999997
 40
1
 50
210.00000000000995
 51
269.99999999999977
  0
ARC
  8
_0-1_計細線
  6
CONTINUOUS
 62
    3
 10
1156.8000000014463
 20
680.16000000000008
 40
1
 50
29.99999999997862
 51
89.999999999999915
  0
LINE
  8
_0-1_計細線
  6
CONTINUOUS
 62
    3
 10
1159.0000000003429
 20
680.16000000000008
 11
1158.5320508090153
 21
680.16000000000008
  0
ARC
  8
_0-1_計細線
  6
CONTINUOUS
 62
    3
 10
1149.1000000025497
 20
677.7600000000001
 40
0.5
 50
179.99999999999983
 51
269.99999999999977
  0
LINE
  8
_0-1_計細線
  6
CONTINUOUS
 62
    3
 10
1148.6000000025506
 20
679.15999999999997
 11
1148.6000000025506
 21
677.7600000000001
  0
ARC
  8
_0-1_計細線
  6
CONTINUOUS
 62
    3
 10
1159.5000000003429
 20
677.7600000000001
 40
0.5
 50
269.99999999999977
 51
359.99999999999966
  0
LINE
  8
_0-1_計細線
  6
CONTINUOUS
 62
    3
 10
1160.0000000003438
 20
679.15999999999997
 11
1160.0000000003438
 21
677.7600000000001
  0
ARC
  8
_0-1_計細線
  6
CONTINUOUS
 62
    3
 10
1151.6000000025506
 20
676.26000000000022
 40
1
 50
0
 51
89.999999999999915
  0
LINE
  8
_0-1_計細線
  6
CONTINUOUS
 62
    3
 10
1151.6000000025506
 20
677.25999999999999
 11
1149.1000000025497
 21
677.25999999999999
  0
ARC
  8
_0-1_計細線
  6
CONTINUOUS
 62
    3
 10
1157.0000000025502
 20
676.26000000000022
 40
1
 50
89.999999999999915
 51
179.99999999999983
  0
LINE
  8
_0-1_計細線
  6
CONTINUOUS
 62
    3
 10
1157.0000000003438
 20
677.25999999999999
 11
1159.5000000003429
 21
677.25999999999999
  0
LINE
  8
_0-1_計細線
  6
CONTINUOUS
 62
    3
 10
1156.8000000014463
 20
681.15999999999997
 11
1151.8000000014472
 21
681.15999999999997
  0
LINE
  8
_0-1_計細線
  6
CONTINUOUS
 62
    3
 10
1152.6000000014465
 20
656.15999999999997
 11
1152.6000000025506
 21
676.26000000000022
  0
LINE
  8
_0-1_計細線
  6
CONTINUOUS
 62
    3
 10
1156.000000001447
 20
656.15999999999997
 11
1156.0000000025502
 21
676.26000000000022
  0
LINE
  8
_0-1_計細線
  6
CONTINUOUS
 62
    3
 10
1156.000000001447
 20
656.15999999999997
 11
1152.6000000014465
 21
656.15999999999997
  0
ARC
  8
_0-1_計細線
  6
CONTINUOUS
 62
    3
 10
1132.5000000021882
 20
679.15999999999997
 40
1
 50
89.999999999999915
 51
179.99999999999983
  0
ARC
  8
_0-1_計細線
  6
CONTINUOUS
 62
    3
 10
1132.9679491935158
 20
681.15999999999997
 40
1
 50
269.99999999999977
 51
330.0000000000154
  0
ARC
  8
_0-1_計細線
  6
CONTINUOUS
 62
    3
 10
1134.7000000010848
 20
680.16000000000008
 40
1
 50
89.999999999999915
 51
149.99999999999534
  0
LINE
  8
_0-1_計細線
  6
CONTINUOUS
 62
    3
 10
1132.5000000021882
 20
680.16000000000008
 11
1132.9679491935158
 21
680.16000000000008
  0
ARC
  8
_0-1_計細線
  6
CONTINUOUS
 62
    3
 10
1141.8999999999814
 20
679.15999999999997
 40
1
 50
0
 51
89.999999999999915
  0
ARC
  8
_0-1_計細線
  6
CONTINUOUS
 62
    3
 10
1141.432050808653
 20
681.15999999999997
 40
1
 50
210.00000000000995
 51
269.99999999999977
  0
ARC
  8
_0-1_計細線
  6
CONTINUOUS
 62
    3
 10
1139.7000000010839
 20
680.16000000000008
 40
1
 50
29.99999999997862
 51
89.999999999947889
  0
LINE
  8
_0-1_計細線
  6
CONTINUOUS
 62
    3
 10
1141.8999999999814
 20
680.16000000000008
 11
1141.432050808653
 21
680.16000000000008
  0
ARC
  8
_0-1_計細線
  6
CONTINUOUS
 62
    3
 10
1132.0000000021882
 20
677.7600000000001
 40
0.5
 50
179.99999999999983
 51
269.99999999999977
  0
LINE
  8
_0-1_計細線
  6
CONTINUOUS
 62
    3
 10
1131.5000000021882
 20
679.15999999999997
 11
1131.5000000021882
 21
677.7600000000001
  0
ARC
  8
_0-1_計細線
  6
CONTINUOUS
 62
    3
 10
1142.3999999999814
 20
677.7600000000001
 40
0.5
 50
269.99999999999977
 51
359.99999999999966
  0
LINE
  8
_0-1_計細線
  6
CONTINUOUS
 62
    3
 10
1142.8999999999814
 20
679.15999999999997
 11
1142.8999999999814
 21
677.7600000000001
  0
ARC
  8
_0-1_計細線
  6
CONTINUOUS
 62
    3
 10
1134.5000000021882
 20
676.26000000000022
 40
1
 50
0
 51
89.999999999999915
  0
LINE
  8
_0-1_計細線
  6
CONTINUOUS
 62
    3
 10
1134.5000000021882
 20
677.25999999999999
 11
1132.0000000021882
 21
677.25999999999999
  0
ARC
  8
_0-1_計細線
  6
CONTINUOUS
 62
    3
 10
1139.9000000021879
 20
676.26000000000022
 40
1
 50
89.999999999999915
 51
179.99999999999983
  0
LINE
  8
_0-1_計細線
  6
CONTINUOUS
 62
    3
 10
1139.8999999999814
 20
677.25999999999999
 11
1142.3999999999814
 21
677.25999999999999
  0
LINE
  8
_0-1_計細線
  6
CONTINUOUS
 62
    3
 10
1139.7000000010839
 20
681.15999999999997
 11
1134.7000000010848
 21
681.15999999999997
  0
LINE
  8
_0-1_計細線
  6
CONTINUOUS
 62
    3
 10
1135.5000000010841
 20
656.15999999999997
 11
1135.5000000021882
 21
676.26000000000022
  0
LINE
  8
_0-1_計細線
  6
CONTINUOUS
 62
    3
 10
1138.9000000010847
 20
656.15999999999997
 11
1138.9000000021897
 21
676.26000000000022
  0
LINE
  8
_0-1_計細線
  6
CONTINUOUS
 62
    3
 10
1138.9000000010847
 20
656.15999999999997
 11
1135.5000000010841
 21
656.15999999999997
  0
ARC
  8
_0-1_計細線
  6
CONTINUOUS
 62
    3
 10
1115.1000000018266
 20
679.15999999999997
 40
1
 50
89.999999999999915
 51
179.99999999999983
  0
ARC
  8
_0-1_計細線
  6
CONTINUOUS
 62
    3
 10
1115.5679491931533
 20
681.15999999999997
 40
1
 50
269.99999999999977
 51
330.0000000000154
  0
ARC
  8
_0-1_計細線
  6
CONTINUOUS
 62
    3
 10
1117.3000000007223
 20
680.16000000000008
 40
1
 50
89.999999999999915
 51
149.99999999999534
  0
LINE
  8
_0-1_計細線
  6
CONTINUOUS
 62
    3
 10
1115.1000000018266
 20
680.16000000000008
 11
1115.5679491931533
 21
680.16000000000008
  0
ARC
  8
_0-1_計細線
  6
CONTINUOUS
 62
    3
 10
1124.4999999996189
 20
679.15999999999997
 40
1
 50
0
 51
89.999999999999915
  0
ARC
  8
_0-1_計細線
  6
CONTINUOUS
 62
    3
 10
1124.0320508082914
 20
681.15999999999997
 40
1
 50
210.00000000000995
 51
269.99999999999977
  0
ARC
  8
_0-1_計細線
  6
CONTINUOUS
 62
    3
 10
1122.3000000007232
 20
680.16000000000008
 40
1
 50
30.000000000004672
 51
89.999999999999915
  0
LINE
  8
_0-1_計細線
  6
CONTINUOUS
 62
    3
 10
1124.4999999996189
 20
680.16000000000008
 11
1124.0320508082914
 21
680.16000000000008
  0
ARC
  8
_0-1_計細線
  6
CONTINUOUS
 62
    3
 10
1114.6000000018266
 20
677.7600000000001
 40
0.5
 50
179.99999999999983
 51
269.99999999999977
  0
LINE
  8
_0-1_計細線
  6
CONTINUOUS
 62
    3
 10
1114.1000000018266
 20
679.15999999999997
 11
1114.1000000018266
 21
677.7600000000001
  0
ARC
  8
_0-1_計細線
  6
CONTINUOUS
 62
    3
 10
1124.9999999996198
 20
677.7600000000001
 40
0.5
 50
269.99999999999977
 51
359.99999999999966
  0
LINE
  8
_0-1_計細線
  6
CONTINUOUS
 62
    3
 10
1125.4999999996189
 20
679.15999999999997
 11
1125.4999999996189
 21
677.7600000000001
  0
ARC
  8
_0-1_計細線
  6
CONTINUOUS
 62
    3
 10
1117.1000000018266
 20
676.26000000000022
 40
1
 50
0
 51
89.999999999999915
  0
LINE
  8
_0-1_計細線
  6
CONTINUOUS
 62
    3
 10
1117.1000000018266
 20
677.25999999999999
 11
1114.6000000018266
 21
677.25999999999999
  0
ARC
  8
_0-1_計細線
  6
CONTINUOUS
 62
    3
 10
1122.5000000018263
 20
676.26000000000022
 40
1
 50
89.999999999999915
 51
179.99999999999983
  0
LINE
  8
_0-1_計細線
  6
CONTINUOUS
 62
    3
 10
1122.4999999996189
 20
677.25999999999999
 11
1124.9999999996198
 21
677.25999999999999
  0
LINE
  8
_0-1_計細線
  6
CONTINUOUS
 62
    3
 10
1122.3000000007232
 20
681.15999999999997
 11
1117.3000000007223
 21
681.15999999999997
  0
LINE
  8
_0-1_計細線
  6
CONTINUOUS
 62
    3
 10
1118.1000000007225
 20
656.15999999999997
 11
1118.1000000018266
 21
676.26000000000022
  0
LINE
  8
_0-1_計細線
  6
CONTINUOUS
 62
    3
 10
1121.5000000007221
 20
656.15999999999997
 11
1121.5000000018272
 21
676.26000000000022
  0
LINE
  8
_0-1_計細線
  6
CONTINUOUS
 62
    3
 10
1121.5000000007221
 20
656.15999999999997
 11
1118.1000000007225
 21
656.15999999999997
  0
ARC
  8
_0-1_計細線
  6
CONTINUOUS
 62
    3
 10
1097.700000001465
 20
679.15999999999997
 40
1
 50
89.999999999999915
 51
179.99999999999983
  0
ARC
  8
_0-1_計細線
  6
CONTINUOUS
 62
    3
 10
1098.1679491927925
 20
681.15999999999997
 40
1
 50
269.99999999999977
 51
329.99999999998937
  0
ARC
  8
_0-1_計細線
  6
CONTINUOUS
 62
    3
 10
1099.9000000003616
 20
680.16000000000008
 40
1
 50
89.999999999999915
 51
150.00000000002137
  0
LINE
  8
_0-1_計細線
  6
CONTINUOUS
 62
    3
 10
1097.700000001465
 20
680.16000000000008
 11
1098.1679491927925
 21
680.16000000000008
  0
ARC
  8
_0-1_計細線
  6
CONTINUOUS
 62
    3
 10
1107.0999999992582
 20
679.15999999999997
 40
1
 50
0
 51
89.999999999999915
  0
ARC
  8
_0-1_計細線
  6
CONTINUOUS
 62
    3
 10
1106.6320508079307
 20
681.15999999999997
 40
1
 50
209.99999999998388
 51
269.99999999999977
  0
ARC
  8
_0-1_計細線
  6
CONTINUOUS
 62
    3
 10
1104.9000000003616
 20
680.16000000000008
 40
1
 50
30.000000000004672
 51
89.999999999999915
  0
LINE
  8
_0-1_計細線
  6
CONTINUOUS
 62
    3
 10
1107.0999999992582
 20
680.16000000000008
 11
1106.6320508079307
 21
680.16000000000008
  0
ARC
  8
_0-1_計細線
  6
CONTINUOUS
 62
    3
 10
1097.200000001465
 20
677.7600000000001
 40
0.5
 50
179.99999999999983
 51
269.99999999999977
  0
LINE
  8
_0-1_計細線
  6
CONTINUOUS
 62
    3
 10
1096.700000001465
 20
679.15999999999997
 11
1096.700000001465
 21
677.7600000000001
  0
ARC
  8
_0-1_計細線
  6
CONTINUOUS
 62
    3
 10
1107.5999999992573
 20
677.7600000000001
 40
0.5
 50
269.99999999999977
 51
359.99999999999966
  0
LINE
  8
_0-1_計細線
  6
CONTINUOUS
 62
    3
 10
1108.0999999992573
 20
679.15999999999997
 11
1108.0999999992573
 21
677.7600000000001
  0
ARC
  8
_0-1_計細線
  6
CONTINUOUS
 62
    3
 10
1099.700000001465
 20
676.26000000000022
 40
1
 50
0
 51
89.999999999999915
  0
LINE
  8
_0-1_計細線
  6
CONTINUOUS
 62
    3
 10
1099.700000001465
 20
677.25999999999999
 11
1097.200000001465
 21
677.25999999999999
  0
ARC
  8
_0-1_計細線
  6
CONTINUOUS
 62
    3
 10
1105.1000000014656
 20
676.26000000000022
 40
1
 50
89.999999999999915
 51
179.99999999999983
  0
LINE
  8
_0-1_計細線
  6
CONTINUOUS
 62
    3
 10
1105.0999999992573
 20
677.25999999999999
 11
1107.5999999992573
 21
677.25999999999999
  0
LINE
  8
_0-1_計細線
  6
CONTINUOUS
 62
    3
 10
1104.9000000003616
 20
681.15999999999997
 11
1099.9000000003616
 21
681.15999999999997
  0
LINE
  8
_0-1_計細線
  6
CONTINUOUS
 62
    3
 10
1100.7000000003618
 20
656.15999999999997
 11
1100.700000001465
 21
676.26000000000022
  0
LINE
  8
_0-1_計細線
  6
CONTINUOUS
 62
    3
 10
1104.1000000003614
 20
656.15999999999997
 11
1104.1000000014647
 21
676.26000000000022
  0
LINE
  8
_0-1_計細線
  6
CONTINUOUS
 62
    3
 10
1104.1000000003614
 20
656.15999999999997
 11
1100.7000000003618
 21
656.15999999999997
  0
ARC
  8
_0-1_計細線
  6
CONTINUOUS
 62
    3
 10
1062.9000000007418
 20
679.15999999999997
 40
1
 50
89.999999999999915
 51
179.99999999999983
  0
ARC
  8
_0-1_計細線
  6
CONTINUOUS
 62
    3
 10
1063.3679491920684
 20
681.15999999999997
 40
1
 50
269.99999999999977
 51
330.0000000000154
  0
ARC
  8
_0-1_計細線
  6
CONTINUOUS
 62
    3
 10
1065.0999999996375
 20
680.16000000000008
 40
1
 50
89.999999999999915
 51
149.99999999999534
  0
LINE
  8
_0-1_計細線
  6
CONTINUOUS
 62
    3
 10
1062.9000000007418
 20
680.16000000000008
 11
1063.3679491920684
 21
680.16000000000008
  0
ARC
  8
_0-1_計細線
  6
CONTINUOUS
 62
    3
 10
1072.2999999985341
 20
679.15999999999997
 40
1
 50
0
 51
89.999999999999915
  0
ARC
  8
_0-1_計細線
  6
CONTINUOUS
 62
    3
 10
1071.8320508072065
 20
681.15999999999997
 40
1
 50
209.99999999998388
 51
269.99999999999977
  0
ARC
  8
_0-1_計細線
  6
CONTINUOUS
 62
    3
 10
1070.0999999996366
 20
680.16000000000008
 40
1
 50
29.99999999997862
 51
89.999999999895778
  0
LINE
  8
_0-1_計細線
  6
CONTINUOUS
 62
    3
 10
1072.2999999985341
 20
680.16000000000008
 11
1071.8320508072065
 21
680.16000000000008
  0
ARC
  8
_0-1_計細線
  6
CONTINUOUS
 62
    3
 10
1062.4000000007409
 20
677.7600000000001
 40
0.5
 50
179.99999999999983
 51
269.99999999999977
  0
LINE
  8
_0-1_計細線
  6
CONTINUOUS
 62
    3
 10
1061.9000000007409
 20
679.15999999999997
 11
1061.9000000007409
 21
677.7600000000001
  0
ARC
  8
_0-1_計細線
  6
CONTINUOUS
 62
    3
 10
1072.799999998535
 20
677.7600000000001
 40
0.5
 50
269.99999999999977
 51
359.99999999999966
  0
LINE
  8
_0-1_計細線
  6
CONTINUOUS
 62
    3
 10
1073.2999999985341
 20
679.15999999999997
 11
1073.2999999985341
 21
677.7600000000001
  0
ARC
  8
_0-1_計細線
  6
CONTINUOUS
 62
    3
 10
1064.9000000007409
 20
676.26000000000022
 40
1
 50
0
 51
89.999999999999915
  0
LINE
  8
_0-1_計細線
  6
CONTINUOUS
 62
    3
 10
1064.9000000007409
 20
677.25999999999999
 11
1062.4000000007409
 21
677.25999999999999
  0
ARC
  8
_0-1_計細線
  6
CONTINUOUS
 62
    3
 10
1070.3000000007405
 20
676.26000000000022
 40
1
 50
89.999999999999915
 51
179.99999999999983
  0
LINE
  8
_0-1_計細線
  6
CONTINUOUS
 62
    3
 10
1070.2999999985341
 20
677.25999999999999
 11
1072.799999998535
 21
677.25999999999999
  0
LINE
  8
_0-1_計細線
  6
CONTINUOUS
 62
    3
 10
1070.0999999996366
 20
681.15999999999997
 11
1065.0999999996375
 21
681.15999999999997
  0
LINE
  8
_0-1_計細線
  6
CONTINUOUS
 62
    3
 10
1065.8999999996377
 20
656.15999999999997
 11
1065.9000000007418
 21
676.26000000000022
  0
LINE
  8
_0-1_計細線
  6
CONTINUOUS
 62
    3
 10
1069.2999999996373
 20
656.15999999999997
 11
1069.3000000007414
 21
676.26000000000022
  0
LINE
  8
_0-1_計細線
  6
CONTINUOUS
 62
    3
 10
1069.2999999996373
 20
656.15999999999997
 11
1065.8999999996377
 21
656.15999999999997
  0
ARC
  8
_0-1_計細線
  6
CONTINUOUS
 62
    3
 10
1045.5000000003793
 20
679.15999999999997
 40
1
 50
89.999999999999915
 51
179.99999999999983
  0
ARC
  8
_0-1_計細線
  6
CONTINUOUS
 62
    3
 10
1045.9679491917068
 20
681.15999999999997
 40
1
 50
269.99999999999977
 51
329.99999999998937
  0
ARC
  8
_0-1_計細線
  6
CONTINUOUS
 62
    3
 10
1047.699999999275
 20
680.16000000000008
 40
1
 50
89.999999999999915
 51
149.99999999999534
  0
LINE
  8
_0-1_計細線
  6
CONTINUOUS
 62
    3
 10
1045.5000000003793
 20
680.16000000000008
 11
1045.9679491917068
 21
680.16000000000008
  0
ARC
  8
_0-1_計細線
  6
CONTINUOUS
 62
    3
 10
1054.8999999981734
 20
679.15999999999997
 40
1
 50
0
 51
89.999999999999915
  0
ARC
  8
_0-1_計細線
  6
CONTINUOUS
 62
    3
 10
1054.4320508068449
 20
681.15999999999997
 40
1
 50
209.99999999998388
 51
269.99999999999977
  0
ARC
  8
_0-1_計細線
  6
CONTINUOUS
 62
    3
 10
1052.6999999992759
 20
680.16000000000008
 40
1
 50
30.000000000004672
 51
89.999999999999915
  0
LINE
  8
_0-1_計細線
  6
CONTINUOUS
 62
    3
 10
1054.8999999981734
 20
680.16000000000008
 11
1054.4320508068449
 21
680.16000000000008
  0
ARC
  8
_0-1_計細線
  6
CONTINUOUS
 62
    3
 10
1045.0000000003802
 20
677.7600000000001
 40
0.5
 50
179.99999999999983
 51
269.99999999999977
  0
LINE
  8
_0-1_計細線
  6
CONTINUOUS
 62
    3
 10
1044.5000000003793
 20
679.15999999999997
 11
1044.5000000003793
 21
677.7600000000001
  0
ARC
  8
_0-1_計細線
  6
CONTINUOUS
 62
    3
 10
1055.3999999981725
 20
677.7600000000001
 40
0.5
 50
269.99999999999977
 51
359.99999999999966
  0
LINE
  8
_0-1_計細線
  6
CONTINUOUS
 62
    3
 10
1055.8999999981716
 20
679.15999999999997
 11
1055.8999999981716
 21
677.7600000000001
  0
ARC
  8
_0-1_計細線
  6
CONTINUOUS
 62
    3
 10
1047.5000000003793
 20
676.26000000000022
 40
1
 50
0
 51
89.999999999999915
  0
LINE
  8
_0-1_計細線
  6
CONTINUOUS
 62
    3
 10
1047.5000000003793
 20
677.25999999999999
 11
1045.0000000003802
 21
677.25999999999999
  0
ARC
  8
_0-1_計細線
  6
CONTINUOUS
 62
    3
 10
1052.9000000003798
 20
676.26000000000022
 40
1
 50
89.999999999999915
 51
179.99999999999983
  0
LINE
  8
_0-1_計細線
  6
CONTINUOUS
 62
    3
 10
1052.8999999981716
 20
677.25999999999999
 11
1055.3999999981725
 21
677.25999999999999
  0
LINE
  8
_0-1_計細線
  6
CONTINUOUS
 62
    3
 10
1052.6999999992759
 20
681.15999999999997
 11
1047.699999999275
 21
681.15999999999997
  0
LINE
  8
_0-1_計細線
  6
CONTINUOUS
 62
    3
 10
1048.499999999276
 20
656.15999999999997
 11
1048.5000000003793
 21
676.26000000000022
  0
LINE
  8
_0-1_計細線
  6
CONTINUOUS
 62
    3
 10
1051.8999999992757
 20
656.15999999999997
 11
1051.9000000003798
 21
676.26000000000022
  0
LINE
  8
_0-1_計細線
  6
CONTINUOUS
 62
    3
 10
1051.8999999992757
 20
656.15999999999997
 11
1048.499999999276
 21
656.15999999999997
  0
ARC
  8
_0-1_計細線
  6
CONTINUOUS
 62
    3
 10
1028.1000000000176
 20
679.15999999999997
 40
1
 50
89.999999999999915
 51
179.99999999999983
  0
ARC
  8
_0-1_計細線
  6
CONTINUOUS
 62
    3
 10
1028.5679491913452
 20
681.15999999999997
 40
1
 50
269.99999999999977
 51
329.99999999998937
  0
ARC
  8
_0-1_計細線
  6
CONTINUOUS
 62
    3
 10
1030.2999999989142
 20
680.16000000000008
 40
1
 50
89.999999999999915
 51
150.00000000002137
  0
LINE
  8
_0-1_計細線
  6
CONTINUOUS
 62
    3
 10
1028.1000000000176
 20
680.16000000000008
 11
1028.5679491913452
 21
680.16000000000008
  0
ARC
  8
_0-1_計細線
  6
CONTINUOUS
 62
    3
 10
1037.4999999978108
 20
679.15999999999997
 40
1
 50
0
 51
89.999999999999915
  0
ARC
  8
_0-1_計細線
  6
CONTINUOUS
 62
    3
 10
1037.0320508064833
 20
681.15999999999997
 40
1
 50
210.00000000000995
 51
269.99999999999977
  0
ARC
  8
_0-1_計細線
  6
CONTINUOUS
 62
    3
 10
1035.2999999989142
 20
680.16000000000008
 40
1
 50
29.99999999997862
 51
89.999999999999915
  0
LINE
  8
_0-1_計細線
  6
CONTINUOUS
 62
    3
 10
1037.4999999978108
 20
680.16000000000008
 11
1037.0320508064833
 21
680.16000000000008
  0
ARC
  8
_0-1_計細線
  6
CONTINUOUS
 62
    3
 10
1027.6000000000176
 20
677.7600000000001
 40
0.5
 50
179.99999999999983
 51
269.99999999999977
  0
LINE
  8
_0-1_計細線
  6
CONTINUOUS
 62
    3
 10
1027.1000000000186
 20
679.15999999999997
 11
1027.1000000000186
 21
677.7600000000001
  0
ARC
  8
_0-1_計細線
  6
CONTINUOUS
 62
    3
 10
1037.9999999978099
 20
677.7600000000001
 40
0.5
 50
269.99999999999977
 51
359.99999999999966
  0
LINE
  8
_0-1_計細線
  6
CONTINUOUS
 62
    3
 10
1038.4999999978099
 20
679.15999999999997
 11
1038.4999999978099
 21
677.7600000000001
  0
ARC
  8
_0-1_計細線
  6
CONTINUOUS
 62
    3
 10
1030.1000000000186
 20
676.26000000000022
 40
1
 50
0
 51
89.999999999999915
  0
LINE
  8
_0-1_計細線
  6
CONTINUOUS
 62
    3
 10
1030.1000000000186
 20
677.25999999999999
 11
1027.6000000000176
 21
677.25999999999999
  0
ARC
  8
_0-1_計細線
  6
CONTINUOUS
 62
    3
 10
1035.5000000000182
 20
676.26000000000022
 40
1
 50
89.999999999999915
 51
179.99999999999983
  0
LINE
  8
_0-1_計細線
  6
CONTINUOUS
 62
    3
 10
1035.4999999978099
 20
677.25999999999999
 11
1037.9999999978099
 21
677.25999999999999
  0
LINE
  8
_0-1_計細線
  6
CONTINUOUS
 62
    3
 10
1035.2999999989142
 20
681.15999999999997
 11
1030.2999999989142
 21
681.15999999999997
  0
LINE
  8
_0-1_計細線
  6
CONTINUOUS
 62
    3
 10
1031.0999999989144
 20
656.15999999999997
 11
1031.1000000000176
 21
676.26000000000022
  0
LINE
  8
_0-1_計細線
  6
CONTINUOUS
 62
    3
 10
1034.4999999989141
 20
656.15999999999997
 11
1034.5000000000173
 21
676.26000000000022
  0
LINE
  8
_0-1_計細線
  6
CONTINUOUS
 62
    3
 10
1034.4999999989141
 20
656.15999999999997
 11
1031.0999999989144
 21
656.15999999999997
  0
ARC
  8
_0-1_計細線
  6
CONTINUOUS
 62
    3
 10
1010.9999999996563
 20
679.15999999999997
 40
1
 50
89.999999999999915
 51
179.99999999999983
  0
ARC
  8
_0-1_計細線
  6
CONTINUOUS
 62
    3
 10
1011.4679491909839
 20
681.15999999999997
 40
1
 50
269.99999999999977
 51
330.0000000000154
  0
ARC
  8
_0-1_計細線
  6
CONTINUOUS
 62
    3
 10
1013.1999999985528
 20
680.16000000000008
 40
1
 50
89.999999999999915
 51
149.99999999999534
  0
LINE
  8
_0-1_計細線
  6
CONTINUOUS
 62
    3
 10
1010.9999999996563
 20
680.16000000000008
 11
1011.4679491909839
 21
680.16000000000008
  0
ARC
  8
_0-1_計細線
  6
CONTINUOUS
 62
    3
 10
1020.3999999974485
 20
679.15999999999997
 40
1
 50
0
 51
89.999999999999915
  0
ARC
  8
_0-1_計細線
  6
CONTINUOUS
 62
    3
 10
1019.932050806121
 20
681.15999999999997
 40
1
 50
210.00000000000995
 51
269.99999999999977
  0
ARC
  8
_0-1_計細線
  6
CONTINUOUS
 62
    3
 10
1018.199999998552
 20
680.16000000000008
 40
1
 50
29.99999999997862
 51
89.999999999999915
  0
LINE
  8
_0-1_計細線
  6
CONTINUOUS
 62
    3
 10
1020.3999999974485
 20
680.16000000000008
 11
1019.932050806121
 21
680.16000000000008
  0
ARC
  8
_0-1_計細線
  6
CONTINUOUS
 62
    3
 10
1010.4999999996562
 20
677.7600000000001
 40
0.5
 50
179.99999999999983
 51
269.99999999999977
  0
LINE
  8
_0-1_計細線
  6
CONTINUOUS
 62
    3
 10
1009.9999999996562
 20
679.15999999999997
 11
1009.9999999996562
 21
677.7600000000001
  0
ARC
  8
_0-1_計細線
  6
CONTINUOUS
 62
    3
 10
1020.8999999974486
 20
677.7600000000001
 40
0.5
 50
269.99999999999977
 51
359.99999999999966
  0
LINE
  8
_0-1_計細線
  6
CONTINUOUS
 62
    3
 10
1021.3999999974494
 20
679.15999999999997
 11
1021.3999999974494
 21
677.7600000000001
  0
ARC
  8
_0-1_計細線
  6
CONTINUOUS
 62
    3
 10
1012.9999999996562
 20
676.26000000000022
 40
1
 50
0
 51
89.999999999999915
  0
LINE
  8
_0-1_計細線
  6
CONTINUOUS
 62
    3
 10
1012.9999999996562
 20
677.25999999999999
 11
1010.4999999996562
 21
677.25999999999999
  0
ARC
  8
_0-1_計細線
  6
CONTINUOUS
 62
    3
 10
1018.3999999996558
 20
676.26000000000022
 40
1
 50
89.999999999999915
 51
179.99999999999983
  0
LINE
  8
_0-1_計細線
  6
CONTINUOUS
 62
    3
 10
1018.3999999974494
 20
677.25999999999999
 11
1020.8999999974486
 21
677.25999999999999
  0
LINE
  8
_0-1_計細線
  6
CONTINUOUS
 62
    3
 10
1018.199999998552
 20
681.15999999999997
 11
1013.1999999985528
 21
681.15999999999997
  0
LINE
  8
_0-1_計細線
  6
CONTINUOUS
 62
    3
 10
1013.9999999985521
 20
656.15999999999997
 11
1013.9999999996563
 21
676.26000000000022
  0
LINE
  8
_0-1_計細線
  6
CONTINUOUS
 62
    3
 10
1017.3999999985527
 20
656.15999999999997
 11
1017.3999999996558
 21
676.26000000000022
  0
LINE
  8
_0-1_計細線
  6
CONTINUOUS
 62
    3
 10
1017.3999999985527
 20
656.15999999999997
 11
1013.9999999985521
 21
656.15999999999997
  0
ARC
  8
_0-1_計細線
  6
CONTINUOUS
 62
    3
 10
1162
 20
656.15999999999997
 40
3.0000000000000004
 50
269.99999999999977
 51
359.99999999999966
  0
LINE
  8
_0-1_計細線
  6
CONTINUOUS
 62
    3
 10
1165
 20
656.15999999999997
 11
1165
 21
680.6600000000002
  0
LINE
  8
_0-1_計細線
  6
CONTINUOUS
 62
    3
 10
1162
 20
653.16000000000008
 11
1135.4999999999991
 21
653.16000000000008
  0
LINE
  8
_0-1_計細線
  6
CONTINUOUS
 62
    3
 10
1135
 20
653.66000000000008
 11
1135.4999999999991
 21
653.16000000000008
  0
LINE
  8
_0-1_計細線
  6
CONTINUOUS
 62
    3
 10
1135
 20
655.66000000000008
 11
1135
 21
653.66000000000008
  0
LINE
  8
_0-1_計細線
  6
CONTINUOUS
 62
    3
 10
1135.4999999999991
 20
656.15999999999997
 11
1135
 21
655.66000000000008
  0
LINE
  8
_0-1_計細線
  6
CONTINUOUS
 62
    3
 10
1162
 20
656.15999999999997
 11
1135.4999999999991
 21
656.15999999999997
  0
LINE
  8
_0-1_計細線
  6
CONTINUOUS
 62
    3
 10
1164.5
 20
681.15999999999997
 11
1165
 21
680.6600000000002
  0
LINE
  8
_0-1_計細線
  6
CONTINUOUS
 62
    3
 10
1162.4999999999991
 20
681.15999999999997
 11
1164.5
 21
681.15999999999997
  0
LINE
  8
_0-1_計細線
  6
CONTINUOUS
 62
    3
 10
1162
 20
680.6600000000002
 11
1162.4999999999991
 21
681.15999999999997
  0
LINE
  8
_0-1_計細線
  6
CONTINUOUS
 62
    3
 10
1162
 20
656.15999999999997
 11
1162
 21
680.6600000000002
  0
ARC
  8
_0-1_計細線
  6
CONTINUOUS
 62
    3
 10
1007.9999999999991
 20
656.15999999999997
 40
3.0000000000000004
 50
179.99999999999983
 51
269.99999999999977
  0
LINE
  8
_0-1_計細線
  6
CONTINUOUS
 62
    3
 10
1004.9999999999991
 20
656.15999999999997
 11
1004.9999999999991
 21
680.6600000000002
  0
LINE
  8
_0-1_計細線
  6
CONTINUOUS
 62
    3
 10
1007.9999999999991
 20
653.16000000000008
 11
1034.5
 21
653.16000000000008
  0
LINE
  8
_0-1_計細線
  6
CONTINUOUS
 62
    3
 10
1034.9999999999991
 20
653.66000000000008
 11
1034.5
 21
653.16000000000008
  0
LINE
  8
_0-1_計細線
  6
CONTINUOUS
 62
    3
 10
1034.9999999999991
 20
655.66000000000008
 11
1034.9999999999991
 21
653.66000000000008
  0
LINE
  8
_0-1_計細線
  6
CONTINUOUS
 62
    3
 10
1034.5
 20
656.15999999999997
 11
1034.9999999999991
 21
655.66000000000008
  0
LINE
  8
_0-1_計細線
  6
CONTINUOUS
 62
    3
 10
1007.9999999999991
 20
656.15999999999997
 11
1034.5
 21
656.15999999999997
  0
LINE
  8
_0-1_計細線
  6
CONTINUOUS
 62
    3
 10
1005.4999999999983
 20
681.15999999999997
 11
1004.9999999999991
 21
680.6600000000002
  0
LINE
  8
_0-1_計細線
  6
CONTINUOUS
 62
    3
 10
1007.5
 20
681.15999999999997
 11
1005.4999999999983
 21
681.15999999999997
  0
LINE
  8
_0-1_計細線
  6
CONTINUOUS
 62
    3
 10
1007.9999999999991
 20
680.6600000000002
 11
1007.5
 21
681.15999999999997
  0
LINE
  8
_0-1_計細線
  6
CONTINUOUS
 62
    3
 10
1007.9999999999991
 20
656.15999999999997
 11
1007.9999999999991
 21
680.6600000000002
  0
LINE
  8
_0-1_計細線
  6
CONTINUOUS
 62
    3
 10
1004.9999999999991
 20
665.16000000000008
 11
1004.9999999999991
 21
630.15999999999997
  0
LINE
  8
_0-1_計細線
  6
CONTINUOUS
 62
    3
 10
1004.9999999999991
 20
630.15999999999997
 11
1002.6999999999998
 21
630.15999999999997
  0
LINE
  8
_0-1_計細線
  6
CONTINUOUS
 62
    3
 10
1002.6999999999998
 20
630.15999999999997
 11
1002.6999999999998
 21
665.16000000000008
  0
LINE
  8
_0-1_計細線
  6
CONTINUOUS
 62
    3
 10
1002.6999999999998
 20
665.16000000000008
 11
1004.9999999999991
 21
665.16000000000008
  0
LINE
  8
_0-0_計極細
  6
CONTINUOUS
 62
    2
 10
1002.6999999999998
 20
649.16000000000008
 11
1004.9999999999991
 21
649.16000000000008
  0
LINE
  8
_0-0_計極細
  6
CONTINUOUS
 62
    2
 10
1002.6999999999998
 20
651.15999999999997
 11
1004.9999999999991
 21
651.15999999999997
  0
LINE
  8
_0-0_計極細
  6
CONTINUOUS
 62
    2
 10
1002.6999999999998
 20
647.15999999999997
 11
1004.9999999999991
 21
647.15999999999997
  0
LINE
  8
_0-0_計極細
  6
CONTINUOUS
 62
    2
 10
1002.6999999999998
 20
653.16000000000008
 11
1004.9999999999991
 21
653.16000000000008
  0
LINE
  8
_0-0_計極細
  6
CONTINUOUS
 62
    2
 10
1004.9999999999991
 20
633.16000000000008
 11
1002.6999999999998
 21
633.16000000000008
  0
LINE
  8
_0-0_計極細
  6
CONTINUOUS
 62
    2
 10
1002.6999999999998
 20
663.16000000000008
 11
1004.9999999999991
 21
663.16000000000008
  0
LINE
  8
_0-1_計細線
  6
CONTINUOUS
 62
    3
 10
1165
 20
665.16000000000008
 11
1165
 21
630.15999999999997
  0
LINE
  8
_0-1_計細線
  6
CONTINUOUS
 62
    3
 10
1165
 20
630.15999999999997
 11
1167.2999999999993
 21
630.15999999999997
  0
LINE
  8
_0-1_計細線
  6
CONTINUOUS
 62
    3
 10
1167.2999999999993
 20
630.15999999999997
 11
1167.2999999999993
 21
665.16000000000008
  0
LINE
  8
_0-1_計細線
  6
CONTINUOUS
 62
    3
 10
1167.2999999999993
 20
665.16000000000008
 11
1165
 21
665.16000000000008
  0
LINE
  8
_0-0_計極細
  6
CONTINUOUS
 62
    2
 10
1167.2999999999993
 20
649.16000000000008
 11
1165
 21
649.16000000000008
  0
LINE
  8
_0-0_計極細
  6
CONTINUOUS
 62
    2
 10
1167.2999999999993
 20
651.15999999999997
 11
1165
 21
651.15999999999997
  0
LINE
  8
_0-0_計極細
  6
CONTINUOUS
 62
    2
 10
1167.2999999999993
 20
647.15999999999997
 11
1165
 21
647.15999999999997
  0
LINE
  8
_0-0_計極細
  6
CONTINUOUS
 62
    2
 10
1167.2999999999993
 20
653.16000000000008
 11
1165
 21
653.16000000000008
  0
LINE
  8
_0-0_計極細
  6
CONTINUOUS
 62
    2
 10
1165
 20
633.16000000000008
 11
1167.2999999999993
 21
633.16000000000008
  0
LINE
  8
_0-0_計極細
  6
CONTINUOUS
 62
    2
 10
1167.2999999999993
 20
663.16000000000008
 11
1165
 21
663.16000000000008
  0
LINE
  8
_0-0_計極細
  6
CENTER1
 62
    2
 10
1163.8721647772363
 20
669.95999999999992
 11
1004.0076045332753
 21
669.95999999999992
  0
CIRCLE
  8
_0-0_計極細
  6
CONTINUOUS
 62
    2
 10
1181.5390325669778
 20
641.74593513888578
 40
0.3318518518518431
  0
CIRCLE
  8
_0-0_計極細
  6
CONTINUOUS
 62
    2
 10
1193.2990325669771
 20
638.38593513888588
 40
0.3318518518518431
  0
LINE
  8
_0-0_計極細
  6
CONTINUOUS
 62
    2
 10
1180
 20
634.61133680898968
 11
1189
 21
634.61133680898968
  0
LINE
  8
_0-0_計極細
  6
CENTER1
 62
    2
 10
1184.5
 20
603.19395582932827
 11
1184.5
 21
637.17676890775533
  0
LINE
  8
_0-0_計極細
  6
CONTINUOUS
 62
    2
 10
1189
 20
634.61133680898968
 11
1189
 21
608.16000000000008
  0
LINE
  8
_0-0_計極細
  6
CONTINUOUS
 62
    2
 10
1180
 20
608.16000000000008
 11
1180
 21
634.61133680898968
  0
LINE
  8
_0-0_計極細
  6
CENTER1
 62
    2
 10
1195.6963916124523
 20
626.23545946702086
 11
1157.2777793229125
 21
640.21869075804193
  0
LINE
  8
_0-0_計極細
  6
CONTINUOUS
 62
    2
 10
1191.1840409322904
 20
623.08902069750206
 11
1158.1094340380823
 21
635.12719311704984
  0
LINE
  8
_0-0_計極細
  6
CONTINUOUS
 62
    2
 10
1194.2622222222217
 20
631.5462542845753
 11
1161.1876153280127
 21
643.58442670412319
  0
LINE
  8
_0-0_計極細
  6
CONTINUOUS
 62
    2
 10
1161.1876153280127
 20
643.58442670412319
 11
1158.1094340380823
 21
635.12719311704984
  0
LINE
  8
_0-0_計極細
  6
CONTINUOUS
 62
    2
 10
1191.1840409322904
 20
623.08902069750206
 11
1194.2622222222217
 21
631.5462542845753
  0
LINE
  8
_0-0_計極細
  6
CENTER1
 62
    2
 10
985.49999999999909
 20
603.19395582932827
 11
985.49999999999909
 21
637.17676890775533
  0
LINE
  8
_0-0_計極細
  6
CONTINUOUS
 62
    2
 10
980.99999999999909
 20
634.61133680898968
 11
980.99999999999909
 21
608.16000000000008
  0
LINE
  8
_0-0_計極細
  6
CONTINUOUS
 62
    2
 10
989.99999999999909
 20
634.61133680898968
 11
980.99999999999909
 21
634.61133680898968
  0
LINE
  8
_0-0_計極細
  6
CONTINUOUS
 62
    2
 10
989.99999999999909
 20
608.16000000000008
 11
989.99999999999909
 21
634.61133680898968
  0
LINE
  8
_0-0_計極細
  6
CENTER1
 62
    2
 10
974.30360838754677
 20
626.23545946702086
 11
1012.7222206770866
 21
640.21869075804193
  0
LINE
  8
_0-0_計極細
  6
CONTINUOUS
 62
    2
 10
978.81595906770883
 20
623.08902069750206
 11
1011.8905659619168
 21
635.12719311704984
  0
LINE
  8
_0-0_計極細
  6
CONTINUOUS
 62
    2
 10
975.73777777777752
 20
631.5462542845753
 11
1008.8123846719864
 21
643.58442670412319
  0
LINE
  8
_0-0_計極細
  6
CONTINUOUS
 62
    2
 10
1008.8123846719864
 20
643.58442670412319
 11
1011.8905659619168
 21
635.12719311704984
  0
LINE
  8
_0-0_計極細
  6
CONTINUOUS
 62
    2
 10
978.81595906770883
 20
623.08902069750206
 11
975.73777777777752
 21
631.5462542845753
  0
CIRCLE
  8
_0-0_計極細
  6
CONTINUOUS
 62
    2
 10
1140.7601436780888
 20
601.57130550925558
 40
1.0953188836088352
  0
CIRCLE
  8
_0-0_計極細
  6
CONTINUOUS
 62
    2
 10
1138.9912547892
 20
645.14463884258919
 40
1.0953188836088352
  0
CIRCLE
  8
_0-0_計極細
  6
CONTINUOUS
 62
    2
 10
1139.3745881225341
 20
605.57260180555204
 40
0.3318518518518431
  0
CIRCLE
  8
_0-0_計極細
  6
CONTINUOUS
 62
    2
 10
1138.5906375052491
 20
629.12593513888521
 40
0.3318518518518431
  0
LINE
  8
_0-0_計極細
  6
CONTINUOUS
 62
    2
 10
1135
 20
653.16000000000008
 11
1135
 21
592.4150398231327
  0
LINE
  8
_0-0_計極細
  6
CONTINUOUS
 62
    2
 10
1135.4999999999991
 20
653.16000000000008
 11
1135
 21
653.16000000000008
  0
CIRCLE
  8
_0-0_計極細
  6
CONTINUOUS
 62
    2
 10
1176.9968103447545
 20
667.87926847221809
 40
0.3318518518518431
  0
CIRCLE
  8
_0-0_計極細
  6
CONTINUOUS
 62
    2
 10
1189.7968103447547
 20
660.48797217592198
 40
1.0953188836088352
  0
CIRCLE
  8
_0-0_計極細
  6
CONTINUOUS
 62
    2
 10
1189.7168103447548
 20
664.27926847221829
 40
0.3318518518518431
  0
CIRCLE
  8
_0-0_計極細
  6
CONTINUOUS
 62
    2
 10
1198.9168103447537
 20
667.84797217592188
 40
1.0953188836088352
  0
CIRCLE
  8
_0-0_計極細
  6
CONTINUOUS
 62
    2
 10
1192.1168103447544
 20
668.99926847221809
 40
0.3318518518518431
  0
CIRCLE
  8
_0-0_計極細
  6
CONTINUOUS
 62
    2
 10
1208.1968103447543
 20
667.31926847221803
 40
0.3318518518518431
  0
CIRCLE
  8
_0-0_計極細
  6
CONTINUOUS
 62
    2
 10
1218.2768103447543
 20
667.31926847221803
 40
0.3318518518518431
  0
LINE
  8
_0-0_計極細
  6
CONTINUOUS
 62
    2
 10
1211.0734832401813
 20
674.15999999999997
 11
1218.073482864108
 21
681.15999962392664
  0
LINE
  8
_0-0_計極細
  6
CONTINUOUS
 62
    2
 10
1198.3455611788231
 20
674.16000000000008
 11
1205.3455609023194
 21
681.15999972349573
  0
LINE
  8
_0-0_計極細
  6
CONTINUOUS
 62
    2
 10
1185.6176391174649
 20
674.15999999999997
 11
1192.61763894053
 21
681.15999982306494
  0
LINE
  8
_0-0_計極細
  6
CONTINUOUS
 62
    2
 10
1172.8897170561077
 20
674.15999999999997
 11
1179.8897169787415
 21
681.15999992263414
  0
LINE
  8
_0-0_計極細
  6
DASHED2
 62
    2
 10
1217.4374442708595
 20
674.16000000000008
 11
1223.5066482870679
 21
680.22920401620797
  0
LINE
  8
_0-0_計極細
  6
DASHED2
 62
    2
 10
1204.7095222095022
 20
674.15999999999997
 11
1211.7095218832128
 21
681.15999967371113
  0
LINE
  8
_0-0_計極細
  6
DASHED2
 62
    2
 10
1191.981600148144
 20
674.15999999999997
 11
1198.9815999214252
 21
681.15999977328033
  0
LINE
  8
_0-0_計極細
  6
DASHED2
 62
    2
 10
1179.2536780867867
 20
674.15999999999997
 11
1186.2536779596358
 21
681.15999987284954
  0
LINE
  8
_0-0_計極細
  6
DASHED2
 62
    2
 10
1169.9999999999991
 20
677.63424397457061
 11
1173.5257559978472
 21
681.1599999724184
  0
LINE
  8
_0-0_計極細
  6
CONTINUOUS
 62
    2
 10
1169.9999999999991
 20
676.36145176843479
 11
1167.7985482315644
 21
674.15999999999997
  0
LINE
  8
_0-0_計極細
  6
CONTINUOUS
 62
    2
 10
1169.9999999999991
 20
678.90703618070643
 11
1165.2529638192937
 21
674.15999999999997
  0
LINE
  8
_0-0_計極細
  6
CONTINUOUS
 62
    2
 10
1165
 20
676.45262059297806
 11
1169.7073794070211
 21
681.15999999999997
  0
LINE
  8
_0-0_計極細
  6
CONTINUOUS
 62
    2
 10
1165
 20
678.9982050052497
 11
1167.1617949947504
 21
681.15999999999997
  0
LINE
  8
_0-0_計極細
  6
CONTINUOUS
 62
    2
 10
1169.9999999999991
 20
680.25440667429677
 11
1169.0944066742959
 21
681.15999999999997
  0
LINE
  8
_0-0_計極細
  6
CONTINUOUS
 62
    2
 10
1169.9999999999991
 20
677.70882226202514
 11
1166.5488222620252
 21
681.15999999999997
  0
LINE
  8
_0-0_計極細
  6
CONTINUOUS
 62
    2
 10
1169.9999999999991
 20
675.16323784975373
 11
1165
 21
680.16323784975361
  0
LINE
  8
_0-0_計極細
  6
CONTINUOUS
 62
    2
 10
1168.4576534374819
 20
674.15999999999997
 11
1165
 21
677.61765343748209
  0
LINE
  8
_0-0_計極細
  6
CONTINUOUS
 62
    2
 10
1165.9120690252093
 20
674.15999999999997
 11
1165
 21
675.07206902521045
  0
LINE
  8
_0-0_計極細
  6
CONTINUOUS
 62
    2
 10
1165
 20
680.6600000000002
 11
1165
 21
681.15999999999997
  0
LINE
  8
_0-0_計極細
  6
CONTINUOUS
 62
    2
 10
1165
 20
681.15999999999997
 11
1169.9999999999991
 21
681.15999999999997
  0
LINE
  8
_0-0_計極細
  6
CONTINUOUS
 62
    2
 10
1165
 20
674.15999999999997
 11
1223.5066482870679
 21
674.15999999999997
  0
LINE
  8
_0-0_計極細
  6
CONTINUOUS
 62
    2
 10
1169.9999999999991
 20
681.15999999999997
 11
1223.5066482870679
 21
681.15999999999997
  0
LINE
  8
_0-0_計極細
  6
CONTINUOUS
 62
    2
 10
1169.9999999999991
 20
681.15999999999997
 11
1169.9999999999991
 21
674.15999999999997
  0
CIRCLE
  8
_0-0_計極細
  6
CONTINUOUS
 62
    2
 10
1143.5738473817928
 20
624.05071559836711
 40
0.3318518518518431
  0
CIRCLE
  8
_0-0_計極細
  6
CONTINUOUS
 62
    2
 10
1143.453847381792
 20
638.42404893170033
 40
0.3318518518518431
  0
CIRCLE
  8
_0-0_計極細
  6
CONTINUOUS
 62
    2
 10
1171.9334770114219
 20
641.67797217592226
 40
1.0953188836088352
  0
CIRCLE
  8
_0-0_計極細
  6
CONTINUOUS
 62
    2
 10
1202.3325925925919
 20
609.64574074074085
 40
1.0953188836088352
  0
CIRCLE
  8
_0-0_計極細
  6
CONTINUOUS
 62
    2
 10
1174.5734770114213
 20
615.75797217592242
 40
1.0953188836088352
  0
CIRCLE
  8
_0-0_計極細
  6
CONTINUOUS
 62
    2
 10
1153.4534770114224
 20
629.19797217592247
 40
1.0953188836088352
  0
CIRCLE
  8
_0-0_計極細
  6
CONTINUOUS
 62
    2
 10
1147.3201436780892
 20
611.27797217592251
 40
1.0953188836088352
  0
CIRCLE
  8
_0-0_計極細
  6
CONTINUOUS
 62
    2
 10
1189.5568103447549
 20
638.00797217592219
 40
1.0953188836088352
  0
CIRCLE
  8
_0-0_計極細
  6
CONTINUOUS
 62
    2
 10
1170.3568103447551
 20
657.2079721759219
 40
1.0953188836088352
  0
CIRCLE
  8
_0-0_計極細
  6
CONTINUOUS
 62
    2
 10
1203.6101436780882
 20
653.26130550925541
 40
1.0953188836088352
  0
CIRCLE
  8
_0-0_計極細
  6
CONTINUOUS
 62
    2
 10
1212.9968103447545
 20
662.54130550925527
 40
1.0953188836088352
  0
CIRCLE
  8
_0-0_計極細
  6
CONTINUOUS
 62
    2
 10
1215.8768103447537
 20
654.27926847221829
 40
0.3318518518518431
  0
CIRCLE
  8
_0-0_計極細
  6
CONTINUOUS
 62
    2
 10
1198.1168103447544
 20
641.55926847221838
 40
0.3318518518518431
  0
CIRCLE
  8
_0-0_計極細
  6
CONTINUOUS
 62
    2
 10
1199.7968103447547
 20
657.63926847221808
 40
0.3318518518518431
  0
CIRCLE
  8
_0-0_計極細
  6
CONTINUOUS
 62
    2
 10
1189.7168103447548
 20
645.87926847221843
 40
0.3318518518518431
  0
CIRCLE
  8
_0-0_計極細
  6
CONTINUOUS
 62
    2
 10
1200.516810344755
 20
633.15926847221851
 40
0.3318518518518431
  0
CIRCLE
  8
_0-0_計極細
  6
CONTINUOUS
 62
    2
 10
1201.476810344755
 20
620.67926847221872
 40
0.3318518518518431
  0
CIRCLE
  8
_0-0_計極細
  6
CONTINUOUS
 62
    2
 10
1197.1568103447544
 20
612.27926847221875
 40
0.3318518518518431
  0
CIRCLE
  8
_0-0_計極細
  6
CONTINUOUS
 62
    2
 10
1173.6368103447548
 20
644.19926847221848
 40
0.3318518518518431
  0
CIRCLE
  8
_0-0_計極細
  6
CONTINUOUS
 62
    2
 10
1168.2768103447543
 20
653.02593513888496
 40
0.3318518518518431
  0
CIRCLE
  8
_0-0_計極細
  6
CONTINUOUS
 62
    2
 10
1169.7701436780881
 20
664.86593513888477
 40
0.3318518518518431
  0
CIRCLE
  8
_0-0_計極細
  6
CONTINUOUS
 62
    2
 10
1175.4634770114217
 20
620.45260180555181
 40
0.3318518518518431
  0
CIRCLE
  8
_0-0_計極細
  6
CONTINUOUS
 62
    2
 10
1168.7434770114223
 20
617.09260180555191
 40
0.3318518518518431
  0
CIRCLE
  8
_0-0_計極細
  6
CONTINUOUS
 62
    2
 10
1175.9434770114212
 20
611.65260180555197
 40
0.3318518518518431
  0
CIRCLE
  8
_0-0_計極細
  6
CONTINUOUS
 62
    2
 10
1159.7834770114214
 20
611.49260180555211
 40
0.3318518518518431
  0
CIRCLE
  8
_0-0_計極細
  6
CONTINUOUS
 62
    2
 10
1151.4634770114217
 20
614.37260180555188
 40
0.3318518518518431
  0
CIRCLE
  8
_0-0_計極細
  6
CONTINUOUS
 62
    2
 10
1144.5834770114225
 20
596.45260180555215
 40
0.3318518518518431
  0
CIRCLE
  8
_0-0_計極細
  6
CONTINUOUS
 62
    2
 10
1150.1834770114228
 20
607.17260180555218
 40
0.3318518518518431
  0
CIRCLE
  8
_0-0_計極細
  6
CONTINUOUS
 62
    2
 10
1160.8834770114217
 20
621.15260180555197
 40
0.3318518518518431
  0
CIRCLE
  8
_0-0_計極細
  6
CONTINUOUS
 62
    2
 10
1150.3634770114222
 20
631.36593513888511
 40
0.3318518518518431
  0
CIRCLE
  8
_0-0_計極細
  6
CONTINUOUS
 62
    2
 10
1152.8168103447551
 20
646.35260180555167
 40
0.3318518518518431
  0
CIRCLE
  8
_0-0_計極細
  6
CONTINUOUS
 62
    2
 10
1146.8434770114218
 20
643.47260180555179
 40
0.3318518518518431
  0
LINE
  8
_0-0_計極細
  6
CONTINUOUS
 62
    2
 10
1209.9740014487552
 20
592.4150398231327
 11
1223.5066483119926
 21
605.94768668637005
  0
LINE
  8
_0-0_計極細
  6
CONTINUOUS
 62
    2
 10
1167.5475945775634
 20
592.4150398231327
 11
1183.2925547544291
 21
608.16000000000008
  0
LINE
  8
_0-0_計極細
  6
CONTINUOUS
 62
    2
 10
1205
 20
629.86744524556957
 11
1223.5066482875209
 21
648.3740935330917
  0
LINE
  8
_0-0_計極細
  6
CONTINUOUS
 62
    2
 10
1205.7313607616361
 20
592.4150398231327
 11
1223.5066483095452
 21
610.19032737104226
  0
LINE
  8
_0-0_計極細
  6
CONTINUOUS
 62
    2
 10
1163.3049538904434
 20
592.4150398231327
 11
1179.049914067311
 21
608.16000000000008
  0
LINE
  8
_0-0_計極細
  6
CONTINUOUS
 62
    2
 10
1205
 20
634.110085932689
 11
1220.0499139595804
 21
649.15999989226987
  0
LINE
  8
_0-0_計極細
  6
CONTINUOUS
 62
    2
 10
1201.4887200745161
 20
592.4150398231327
 11
1223.5066483070987
 21
614.43296805571435
  0
LINE
  8
_0-0_計極細
  6
CONTINUOUS
 62
    2
 10
1159.0623132033243
 20
592.4150398231327
 11
1174.807273380191
 21
608.16000000000008
  0
LINE
  8
_0-0_計極細
  6
CONTINUOUS
 62
    2
 10
1205
 20
638.35272661980821
 11
1215.8072733028312
 21
649.15999992263949
  0
LINE
  8
_0-0_計極細
  6
CONTINUOUS
 62
    2
 10
1154.9999999999991
 20
608.16000000000008
 11
1154.9999999999991
 21
592.4150398231327
  0
LINE
  8
_0-0_計極細
  6
CONTINUOUS
 62
    2
 10
1205
 20
649.16000000000008
 11
1223.5066482870679
 21
649.16000000000008
  0
LINE
  8
_0-0_計極細
  6
CONTINUOUS
 62
    2
 10
1154.9999999999991
 20
608.16000000000008
 11
1205
 21
608.16000000000008
  0
LINE
  8
_0-0_計極細
  6
CONTINUOUS
 62
    2
 10
1205
 20
649.16000000000008
 11
1205
 21
608.16000000000008
  0
CIRCLE
  8
_0-0_計極細
  6
CONTINUOUS
 62
    2
 10
1023.6501436780873
 20
632.10130550925578
 40
1.0953188836088352
  0
CIRCLE
  8
_0-0_計極細
  6
CONTINUOUS
 62
    2
 10
1031.0723659003115
 20
597.14840363009444
 40
0.3318518518518431
  0
CIRCLE
  8
_0-0_計極細
  6
CONTINUOUS
 62
    2
 10
1030.2723659003123
 20
610.74204624999652
 40
0.3318518518518431
  0
CIRCLE
  8
_0-0_計極細
  6
CONTINUOUS
 62
    2
 10
1030.8675395114215
 20
643.56797217592248
 40
1.0953188836088352
  0
LINE
  8
_0-0_計極細
  6
CONTINUOUS
 62
    2
 10
1034.9999999999991
 20
653.16000000000008
 11
1034.9999999999991
 21
592.4150398231327
  0
LINE
  8
_0-0_計極細
  6
CONTINUOUS
 62
    2
 10
1034.5
 20
653.16000000000008
 11
1034.9999999999991
 21
653.16000000000008
  0
CIRCLE
  8
_0-0_計極細
  6
CONTINUOUS
 62
    2
 10
951.31462413258214
 20
662.18130550925537
 40
1.0953188836088352
  0
CIRCLE
  8
_0-0_計極細
  6
CONTINUOUS
 62
    2
 10
986.81014367808984
 20
668.76797217592195
 40
1.0953188836088352
  0
CIRCLE
  8
_0-0_計極細
  6
CONTINUOUS
 62
    2
 10
987.26347701142288
 20
666.17537958332935
 40
0.3318518518518431
  0
CIRCLE
  8
_0-0_計極細
  6
CONTINUOUS
 62
    2
 10
960.06347701142386
 20
669.74871291666261
 40
0.3318518518518431
  0
CIRCLE
  8
_0-0_計極細
  6
CONTINUOUS
 62
    2
 10
951.03236590031338
 20
670.08056476851448
 40
0.3318518518518431
  0
LINE
  8
_0-0_計極細
  6
CONTINUOUS
 62
    2
 10
994.69880819342154
 20
674.15999999632368
 11
1000
 21
679.46119180290202
  0
LINE
  8
_0-0_計極細
  6
CONTINUOUS
 62
    2
 10
981.97088612323751
 20
674.1599999874968
 11
988.97088613573942
 21
681.15999999999997
  0
LINE
  8
_0-0_計極細
  6
CONTINUOUS
 62
    2
 10
969.24296405305188
 20
674.15999997867004
 11
976.24296407438123
 21
681.15999999999997
  0
LINE
  8
_0-0_計極細
  6
CONTINUOUS
 62
    2
 10
956.51504198286705
 20
674.15999996984328
 11
963.51504201302305
 21
681.15999999999997
  0
LINE
  8
_0-0_計極細
  6
CONTINUOUS
 62
    2
 10
946.49335171293035
 20
676.86623176126454
 11
950.78711995166486
 21
681.15999999999997
  0
LINE
  8
_0-0_計極細
  6
DASHED2
 62
    2
 10
988.33484715832867
 20
674.15999999191035
 11
995.33484716641851
 21
681.16000000000031
  0
LINE
  8
_0-0_計極細
  6
DASHED2
 62
    2
 10
975.60692508814464
 20
674.15999998308348
 11
982.60692510506135
 21
681.15999999999997
  0
LINE
  8
_0-0_計極細
  6
DASHED2
 62
    2
 10
962.8790030179598
 20
674.15999997425672
 11
969.87900304370214
 21
681.15999999999997
  0
LINE
  8
_0-0_計極細
  6
DASHED2
 62
    2
 10
950.15108094777497
 20
674.15999996542996
 11
957.15108098234396
 21
681.15999999999997
  0
LINE
  8
_0-0_計極細
  6
CONTINUOUS
 62
    2
 10
1004.8811458461842
 20
674.15999999999997
 11
1004.9999999999991
 21
674.2788541538157
  0
LINE
  8
_0-0_計極細
  6
CONTINUOUS
 62
    2
 10
1002.3355614339117
 20
674.15999999999997
 11
1004.9999999999991
 21
676.82443856608734
  0
LINE
  8
_0-0_計極細
  6
CONTINUOUS
 62
    2
 10
1000
 20
674.37002297835886
 11
1004.9999999999991
 21
679.37002297835875
  0
LINE
  8
_0-0_計極細
  6
CONTINUOUS
 62
    2
 10
1000
 20
676.91560739063038
 11
1004.2443926093683
 21
681.15999999999997
  0
LINE
  8
_0-0_計極細
  6
CONTINUOUS
 62
    2
 10
1000
 20
679.46119180290202
 11
1001.6988081970976
 21
681.15999999999997
  0
LINE
  8
_0-0_計極細
  6
CONTINUOUS
 62
    2
 10
1004.9999999999991
 20
679.79141987664491
 11
1003.631419876644
 21
681.15999999999997
  0
LINE
  8
_0-0_計極細
  6
CONTINUOUS
 62
    2
 10
1004.9999999999991
 20
677.24583546437339
 11
1001.0858354643724
 21
681.15999999999997
  0
LINE
  8
_0-0_計極細
  6
CONTINUOUS
 62
    2
 10
1000
 20
679.70025105210186
 11
1004.9999999999991
 21
674.70025105210186
  0
LINE
  8
_0-0_計極細
  6
CONTINUOUS
 62
    2
 10
1000
 20
677.15466663983022
 11
1002.9946666398291
 21
674.15999999999997
  0
LINE
  8
_0-0_計極細
  6
CONTINUOUS
 62
    2
 10
1000
 20
674.6090822275587
 11
1000.4490822275585
 21
674.15999999999997
  0
LINE
  8
_0-0_計極細
  6
CONTINUOUS
 62
    2
 10
1004.9999999999991
 20
680.6600000000002
 11
1004.9999999999991
 21
681.15999999999997
  0
LINE
  8
_0-0_計極細
  6
CONTINUOUS
 62
    2
 10
1004.9999999999991
 20
681.15999999999997
 11
1000
 21
681.15999999999997
  0
LINE
  8
_0-0_計極細
  6
CONTINUOUS
 62
    2
 10
1004.9999999999991
 20
674.15999999999997
 11
946.49335171293035
 21
674.15999999999997
  0
LINE
  8
_0-0_計極細
  6
CONTINUOUS
 62
    2
 10
1000
 20
681.15999999999997
 11
946.49335171293035
 21
681.15999999999997
  0
LINE
  8
_0-0_計極細
  6
CONTINUOUS
 62
    2
 10
1000
 20
681.15999999999997
 11
1000
 21
674.15999999999997
  0
CIRCLE
  8
_0-0_計極細
  6
CONTINUOUS
 62
    2
 10
1023.9834770114231
 20
599.9679721759228
 40
1.0953188836088352
  0
CIRCLE
  8
_0-0_計極細
  6
CONTINUOUS
 62
    2
 10
1021.103477011423
 20
611.16797217592261
 40
1.0953188836088352
  0
CIRCLE
  8
_0-0_計極細
  6
CONTINUOUS
 62
    2
 10
999.51681034475678
 20
613.32797217592258
 40
1.0953188836088352
  0
CIRCLE
  8
_0-0_計極細
  6
CONTINUOUS
 62
    2
 10
967.5968103447567
 20
621.00797217592242
 40
1.0953188836088352
  0
CIRCLE
  8
_0-0_計極細
  6
CONTINUOUS
 62
    2
 10
979.35681034475692
 20
643.80797217592215
 40
1.0953188836088352
  0
CIRCLE
  8
_0-0_計極細
  6
CONTINUOUS
 62
    2
 10
992.79681034475652
 20
637.72797217592233
 40
1.0953188836088352
  0
CIRCLE
  8
_0-0_計極細
  6
CONTINUOUS
 62
    2
 10
963.43287185722886
 20
661.64574074074085
 40
1.0953188836088352
  0
CIRCLE
  8
_0-0_計極細
  6
CONTINUOUS
 62
    2
 10
994.49014367808923
 20
657.48797217592198
 40
1.0953188836088352
  0
CIRCLE
  8
_0-0_計極細
  6
CONTINUOUS
 62
    2
 10
1006.6634770114234
 20
644.29760180555172
 40
0.3318518518518431
  0
CIRCLE
  8
_0-0_計極細
  6
CONTINUOUS
 62
    2
 10
1027.8101436780889
 20
626.45760180555169
 40
0.3318518518518431
  0
CIRCLE
  8
_0-0_計極細
  6
CONTINUOUS
 62
    2
 10
1027.4901436780892
 20
637.23093513888534
 40
0.3318518518518431
  0
CIRCLE
  8
_0-0_計極細
  6
CONTINUOUS
 62
    2
 10
1018.4234770114235
 20
643.20426847221836
 40
0.3318518518518431
  0
CIRCLE
  8
_0-0_計極細
  6
CONTINUOUS
 62
    2
 10
1009.5701436780901
 20
622.72426847221845
 40
0.3318518518518431
  0
CIRCLE
  8
_0-0_計極細
  6
CONTINUOUS
 62
    2
 10
1019.5701436780901
 20
596.5553795833298
 40
0.3318518518518431
  0
CIRCLE
  8
_0-0_計極細
  6
CONTINUOUS
 62
    2
 10
1023.730143678089
 20
605.51537958332983
 40
0.3318518518518431
  0
CIRCLE
  8
_0-0_計極細
  6
CONTINUOUS
 62
    2
 10
1015.5168103447568
 20
614.47537958332987
 40
0.3318518518518431
  0
CIRCLE
  8
_0-0_計極細
  6
CONTINUOUS
 62
    2
 10
1007.7301436780899
 20
612.55537958332968
 40
0.3318518518518431
  0
CIRCLE
  8
_0-0_計極細
  6
CONTINUOUS
 62
    2
 10
995.7834770114232
 20
611.9153795833297
 40
0.3318518518518431
  0
CIRCLE
  8
_0-0_計極細
  6
CONTINUOUS
 62
    2
 10
997.91681034475641
 20
617.46204624999655
 40
0.3318518518518431
  0
CIRCLE
  8
_0-0_計極細
  6
CONTINUOUS
 62
    2
 10
994.18347701142295
 20
618.95537958332955
 40
0.3318518518518431
  0
CIRCLE
  8
_0-0_計極細
  6
CONTINUOUS
 62
    2
 10
1000.9034770114232
 20
622.26204624999639
 40
0.3318518518518431
  0
CIRCLE
  8
_0-0_計極細
  6
CONTINUOUS
 62
    2
 10
977.32347701142317
 20
611.52871291666293
 40
0.3318518518518431
  0
CIRCLE
  8
_0-0_計極細
  6
CONTINUOUS
 62
    2
 10
973.5901436780897
 20
616.64871291666293
 40
0.3318518518518431
  0
CIRCLE
  8
_0-0_計極細
  6
CONTINUOUS
 62
    2
 10
968.36347701142313
 20
612.59537958332976
 40
0.3318518518518431
  0
CIRCLE
  8
_0-0_計極細
  6
CONTINUOUS
 62
    2
 10
971.77681034475711
 20
623.36871291666307
 40
0.3318518518518431
  0
CIRCLE
  8
_0-0_計極細
  6
CONTINUOUS
 62
    2
 10
996.44347701142226
 20
639.63537958332961
 40
0.3318518518518431
  0
CIRCLE
  8
_0-0_計極細
  6
CONTINUOUS
 62
    2
 10
980.01681034475678
 20
635.26204624999605
 40
0.3318518518518431
  0
CIRCLE
  8
_0-0_計極細
  6
CONTINUOUS
 62
    2
 10
988.87014367809024
 20
643.36871291666273
 40
0.3318518518518431
  0
CIRCLE
  8
_0-0_計極細
  6
CONTINUOUS
 62
    2
 10
996.44347701142226
 20
646.78204624999603
 40
0.3318518518518431
  0
CIRCLE
  8
_0-0_計極細
  6
CONTINUOUS
 62
    2
 10
981.40347701142321
 20
649.02204624999615
 40
0.3318518518518431
  0
CIRCLE
  8
_0-0_計極細
  6
CONTINUOUS
 62
    2
 10
969.13681034475667
 20
649.76871291666259
 40
0.3318518518518431
  0
CIRCLE
  8
_0-0_計極細
  6
CONTINUOUS
 62
    2
 10
978.41014367808941
 20
666.06871291666255
 40
0.3318518518518431
  0
CIRCLE
  8
_0-0_計極細
  6
CONTINUOUS
 62
    2
 10
985.45014367809017
 20
657.10871291666263
 40
0.3318518518518431
  0
CIRCLE
  8
_0-0_計極細
  6
CONTINUOUS
 62
    2
 10
1000.3834770114227
 20
657.42871291666279
 40
0.3318518518518431
  0
CIRCLE
  8
_0-0_計極細
  6
CONTINUOUS
 62
    2
 10
996.97014367809061
 20
667.13537958332938
 40
0.3318518518518431
  0
CIRCLE
  8
_0-0_計極細
  6
CONTINUOUS
 62
    2
 10
982.0368103447563
 20
661.16204624999591
 40
0.3318518518518431
  0
CIRCLE
  8
_0-0_計極細
  6
CONTINUOUS
 62
    2
 10
964.97014367809072
 20
654.12204624999606
 40
0.3318518518518431
  0
CIRCLE
  8
_0-0_計極細
  6
CONTINUOUS
 62
    2
 10
957.39681034475689
 20
652.94871291666277
 40
0.3318518518518431
  0
CIRCLE
  8
_0-0_計極細
  6
CONTINUOUS
 62
    2
 10
951.03236590031338
 20
652.30871291666278
 40
0.3318518518518431
  0
CIRCLE
  8
_0-0_計極細
  6
CONTINUOUS
 62
    2
 10
957.23088441883192
 20
658.28204624999603
 40
0.3318518518518431
  0
LINE
  8
_0-0_計極細
  6
CONTINUOUS
 62
    2
 10
992.54681526100649
 20
592.41503989299463
 11
1008.2917753680113
 21
608.16000000000008
  0
LINE
  8
_0-0_計極細
  6
CONTINUOUS
 62
    2
 10
950.12040852182156
 20
592.41504002500255
 11
965.86536849681761
 21
608.16000000000008
  0
LINE
  8
_0-0_計極細
  6
CONTINUOUS
 62
    2
 10
946.49335171293035
 20
631.21439008730533
 11
964.43896162562578
 21
649.16000000000008
  0
LINE
  8
_0-0_計極細
  6
CONTINUOUS
 62
    2
 10
988.3041745870878
 20
592.4150399061956
 11
1004.0491346808914
 21
608.16000000000008
  0
LINE
  8
_0-0_計極細
  6
CONTINUOUS
 62
    2
 10
946.49335171293035
 20
593.03062390323191
 11
964.99999999999829
 21
611.53727219030065
  0
LINE
  8
_0-0_計極細
  6
CONTINUOUS
 62
    2
 10
946.49335171293035
 20
635.45703077442477
 11
960.19632093850589
 21
649.16000000000008
  0
LINE
  8
_0-0_計極細
  6
CONTINUOUS
 62
    2
 10
984.06153391316923
 20
592.41503991939635
 11
999.80649399377228
 21
608.16000000000008
  0
LINE
  8
_0-0_計極細
  6
CONTINUOUS
 62
    2
 10
946.49335171293035
 20
597.27326459035112
 11
964.99999999999829
 21
615.77991287741997
  0
LINE
  8
_0-0_計極細
  6
CONTINUOUS
 62
    2
 10
946.49335171293035
 20
639.69967146154409
 11
955.95368025138578
 21
649.16000000000008
  0
LINE
  8
_0-0_計極細
  6
CONTINUOUS
 62
    2
 10
1015
 20
608.16000000000008
 11
1015
 21
592.4150398231327
  0
LINE
  8
_0-0_計極細
  6
CONTINUOUS
 62
    2
 10
964.99999999999829
 20
649.16000000000008
 11
946.49335171293035
 21
649.16000000000008
  0
LINE
  8
_0-0_計極細
  6
CONTINUOUS
 62
    2
 10
1015
 20
608.16000000000008
 11
964.99999999999829
 21
608.16000000000008
  0
LINE
  8
_0-0_計極細
  6
CONTINUOUS
 62
    2
 10
964.99999999999829
 20
649.16000000000008
 11
964.99999999999829
 21
608.16000000000008
  0
LINE
  8
_0-0_計極細
  6
CENTER1
 62
    2
 10
1085
 20
646.44850230873021
 11
1085
 21
689.51850230873401
  0
LINE
  8
_0-5_寸法線
  6
CONTINUOUS
 62
    7
 10
1076.8084795571101
 20
661.89576436351058
 11
1057.3626008324682
 21
675.51191523361706
  0
LINE
  8
_0-5_寸法線
  6
CONTINUOUS
 62
    7
 10
1061.458361053913
 20
672.64403305186181
 11
1058.8701706028878
 21
682.30329131475264
  0
LINE
  8
_0-5_寸法線
  6
CONTINUOUS
 62
    7
 10
1061.458361053913
 20
672.64403305186181
 11
1064.0465515049382
 21
682.30329131475264
  0
LINE
  8
_0-5_寸法線
  6
CONTINUOUS
 62
    7
 10
1076.8084795571101
 20
686.89576436351058
 11
1057.3626008324682
 21
700.51191523361706
  0
LINE
  8
_0-5_寸法線
  6
CONTINUOUS
 62
    7
 10
1061.458361053913
 20
697.64403305186181
 11
1064.0465515049382
 21
687.98477478897109
  0
LINE
  8
_0-5_寸法線
  6
CONTINUOUS
 62
    7
 10
1061.458361053913
 20
697.64403305186181
 11
1058.8701706028878
 21
687.98477478897109
  0
LINE
  8
_0-5_寸法線
  6
CONTINUOUS
 62
    7
 10
1061.458361053913
 20
672.64403305186181
 11
1061.458361053913
 21
697.64403305186181
  0
TEXT
  8
_0-5_寸法線
 62
    7
 10
1061.458361053913
 20
677.64403305186181
 40
15
 41
1
 50
90
  1
25
  0
LINE
  8
_0-5_寸法線
  6
CONTINUOUS
 62
    7
 10
1004.9999999999991
 20
686.15999999999997
 11
1004.9999999999991
 21
806.15999999999997
  0
LINE
  8
_0-5_寸法線
  6
CONTINUOUS
 62
    7
 10
1004.9999999999991
 20
801.15999999999997
 11
1014.6592582628898
 21
803.74819045102527
  0
LINE
  8
_0-5_寸法線
  6
CONTINUOUS
 62
    7
 10
1004.9999999999991
 20
801.15999999999997
 11
1014.6592582628898
 21
798.5718095489749
  0
LINE
  8
_0-5_寸法線
  6
CONTINUOUS
 62
    7
 10
1165
 20
686.15999999999997
 11
1165
 21
806.15999999999997
  0
LINE
  8
_0-5_寸法線
  6
CONTINUOUS
 62
    7
 10
1165
 20
801.15999999999997
 11
1155.3407417371093
 21
798.5718095489749
  0
LINE
  8
_0-5_寸法線
  6
CONTINUOUS
 62
    7
 10
1165
 20
801.15999999999997
 11
1155.3407417371093
 21
803.74819045102527
  0
LINE
  8
_0-5_寸法線
  6
CONTINUOUS
 62
    7
 10
1004.9999999999991
 20
801.15999999999997
 11
1165
 21
801.15999999999997
  0
TEXT
  8
_0-5_寸法線
 62
    7
 10
1073.75
 20
801.15999999999997
 40
15
 41
1
 50
0
  1
160
  0
LINE
  8
_0-7_枠細線
  6
CONTINUOUS
 62
    5
 10
1183.9140288208205
 20
650.30808383106444
 11
1176.4140288208205
 21
665.30808383106444
  0
LINE
  8
_0-7_枠細線
  6
CONTINUOUS
 62
    5
 10
1168.9140288208205
 20
650.30808383106444
 11
1183.9140288208205
 21
650.30808383106444
  0
LINE
  8
_0-7_枠細線
  6
CONTINUOUS
 62
    5
 10
1176.4140288208205
 20
665.30808383106444
 11
1168.9140288208205
 21
650.30808383106444
  0
TEXT
  8
_0-7_枠細線
 62
    5
 10
1171.2791800889686
 20
649.35926386621463
 40
12.5
 41
0.8
 50
0
  1
５
  0
LINE
  8
_0-5_寸法線
  6
CONTINUOUS
 62
    7
 10
1165
 20
620.15999999999997
 11
1165
 21
575.15999999999985
  0
LINE
  8
_0-5_寸法線
  6
CONTINUOUS
 62
    7
 10
1165
 20
580.15999999999985
 11
1155.3407417371093
 21
577.57180954897467
  0
LINE
  8
_0-5_寸法線
  6
CONTINUOUS
 62
    7
 10
1165
 20
580.15999999999985
 11
1155.3407417371093
 21
582.74819045102504
  0
LINE
  8
_0-5_寸法線
  6
CONTINUOUS
 62
    7
 10
1135
 20
643.16000000000008
 11
1135
 21
575.15999999999985
  0
LINE
  8
_0-5_寸法線
  6
CONTINUOUS
 62
    7
 10
1135
 20
580.15999999999985
 11
1144.6592582628907
 21
582.74819045102504
  0
LINE
  8
_0-5_寸法線
  6
CONTINUOUS
 62
    7
 10
1135
 20
580.15999999999985
 11
1144.6592582628907
 21
577.57180954897467
  0
LINE
  8
_0-5_寸法線
  6
CONTINUOUS
 62
    7
 10
1165
 20
580.15999999999985
 11
1135
 21
580.15999999999985
  0
TEXT
  8
_0-5_寸法線
 62
    7
 10
1142.5
 20
580.15999999999985
 40
15
 41
1
 50
0
  1
30
  0
LINE
  8
_0-5_寸法線
  6
CONTINUOUS
 62
    7
 10
1004.9999999999991
 20
620.15999999999997
 11
1004.9999999999991
 21
575.15999999999985
  0
LINE
  8
_0-5_寸法線
  6
CONTINUOUS
 62
    7
 10
1004.9999999999991
 20
580.15999999999985
 11
1014.6592582628898
 21
582.74819045102504
  0
LINE
  8
_0-5_寸法線
  6
CONTINUOUS
 62
    7
 10
1004.9999999999991
 20
580.15999999999985
 11
1014.6592582628898
 21
577.57180954897467
  0
LINE
  8
_0-5_寸法線
  6
CONTINUOUS
 62
    7
 10
1034.9999999999991
 20
643.16000000000008
 11
1034.9999999999991
 21
575.15999999999985
  0
LINE
  8
_0-5_寸法線
  6
CONTINUOUS
 62
    7
 10
1034.9999999999991
 20
580.15999999999985
 11
1025.3407417371086
 21
577.57180954897467
  0
LINE
  8
_0-5_寸法線
  6
CONTINUOUS
 62
    7
 10
1034.9999999999991
 20
580.15999999999985
 11
1025.3407417371086
 21
582.74819045102504
  0
LINE
  8
_0-5_寸法線
  6
CONTINUOUS
 62
    7
 10
1004.9999999999991
 20
580.15999999999985
 11
1034.9999999999991
 21
580.15999999999985
  0
TEXT
  8
_0-5_寸法線
 62
    7
 10
1012.4999999999991
 20
580.15999999999985
 40
15
 41
1
 50
0
  1
30
  0
LINE
  8
_0-5_寸法線
  6
CONTINUOUS
 62
    7
 10
1034.9999999999991
 20
648.16000000000008
 11
1034.9999999999991
 21
575.15999999999997
  0
LINE
  8
_0-5_寸法線
  6
CONTINUOUS
 62
    7
 10
1034.9999999999991
 20
580.15999999999997
 11
1044.6592582628898
 21
582.74819045102515
  0
LINE
  8
_0-5_寸法線
  6
CONTINUOUS
 62
    7
 10
1034.9999999999991
 20
580.15999999999997
 11
1044.6592582628898
 21
577.57180954897478
  0
LINE
  8
_0-5_寸法線
  6
CONTINUOUS
 62
    7
 10
1135
 20
648.16000000000008
 11
1135
 21
575.15999999999997
  0
LINE
  8
_0-5_寸法線
  6
CONTINUOUS
 62
    7
 10
1135
 20
580.15999999999997
 11
1125.3407417371093
 21
577.57180954897478
  0
LINE
  8
_0-5_寸法線
  6
CONTINUOUS
 62
    7
 10
1135
 20
580.15999999999997
 11
1125.3407417371093
 21
582.74819045102515
  0
LINE
  8
_0-5_寸法線
  6
CONTINUOUS
 62
    7
 10
1034.9999999999991
 20
580.15999999999997
 11
1135
 21
580.15999999999997
  0
TEXT
  8
_0-5_寸法線
 62
    7
 10
1073.75
 20
580.15999999999997
 40
15
 41
1
 50
0
  1
100
  0
LINE
  8
_0-5_寸法線
  6
CONTINUOUS
 62
    7
 10
994.99999999999909
 20
681.16000000000008
 11
947.69999999999982
 21
681.16000000000031
  0
LINE
  8
_0-5_寸法線
  6
CONTINUOUS
 62
    7
 10
952.69999999999982
 20
681.16000000000031
 11
955.28819045102512
 21
671.50074173710959
  0
LINE
  8
_0-5_寸法線
  6
CONTINUOUS
 62
    7
 10
952.69999999999982
 20
681.16000000000031
 11
950.11180954897463
 21
671.50074173710959
  0
LINE
  8
_0-5_寸法線
  6
CONTINUOUS
 62
    7
 10
993.79999999999939
 20
653.16000000000008
 11
947.69999999999982
 21
653.1600000000002
  0
LINE
  8
_0-5_寸法線
  6
CONTINUOUS
 62
    7
 10
952.69999999999982
 20
653.1600000000002
 11
950.11180954897463
 21
662.81925826289103
  0
LINE
  8
_0-5_寸法線
  6
CONTINUOUS
 62
    7
 10
952.69999999999982
 20
653.1600000000002
 11
955.28819045102512
 21
662.81925826289103
  0
LINE
  8
_0-5_寸法線
  6
CONTINUOUS
 62
    7
 10
952.69999999999982
 20
681.16000000000031
 11
952.69999999999982
 21
653.1600000000002
  0
TEXT
  8
_0-5_寸法線
 62
    7
 10
952.69999999999982
 20
659.6600000000002
 40
15
 41
1
 50
90
  1
28
  0
LINE
  8
_0-5_寸法線
  6
CONTINUOUS
 62
    7
 10
994.99999999999909
 20
653.16000000000008
 11
947.69999999999982
 21
653.16000000000008
  0
LINE
  8
_0-5_寸法線
  6
CONTINUOUS
 62
    7
 10
952.69999999999982
 20
653.16000000000008
 11
955.28819045102512
 21
643.50074173710925
  0
LINE
  8
_0-5_寸法線
  6
CONTINUOUS
 62
    7
 10
952.69999999999982
 20
653.16000000000008
 11
950.11180954897463
 21
643.50074173710925
  0
LINE
  8
_0-5_寸法線
  6
CONTINUOUS
 62
    7
 10
993.79999999999939
 20
630.15999999999985
 11
947.69999999999982
 21
630.15999999999985
  0
LINE
  8
_0-5_寸法線
  6
CONTINUOUS
 62
    7
 10
952.69999999999982
 20
630.15999999999985
 11
950.11180954897463
 21
639.81925826289057
  0
LINE
  8
_0-5_寸法線
  6
CONTINUOUS
 62
    7
 10
952.69999999999982
 20
630.15999999999985
 11
955.28819045102512
 21
639.81925826289057
  0
LINE
  8
_0-5_寸法線
  6
CONTINUOUS
 62
    7
 10
952.69999999999982
 20
653.16000000000008
 11
952.69999999999982
 21
630.15999999999985
  0
TEXT
  8
_0-5_寸法線
 62
    7
 10
952.69999999999982
 20
634.15999999999997
 40
15
 41
1
 50
90
  1
23
  0
LINE
  8
_0-7_枠細線
  6
CONTINUOUS
 62
    5
 10
925
 20
323.73000000000059
 11
1225.0000000000005
 21
323.73000000000059
  0
LINE
  8
_0-7_枠細線
  6
CONTINUOUS
 62
    5
 10
925
 20
348.73000000000047
 11
1225.0000000000005
 21
348.73000000000047
  0
LINE
  8
_0-7_枠細線
  6
CONTINUOUS
 62
    5
 10
925
 20
373.73000000000047
 11
1225.0000000000005
 21
373.73000000000047
  0
LINE
  8
_0-7_枠細線
  6
CONTINUOUS
 62
    5
 10
925
 20
398.73000000000076
 11
1225.0000000000005
 21
398.73000000000076
  0
TEXT
  8
_0-7_枠細線
 62
    5
 10
1048.0000000000005
 20
403.73000000000076
 40
15
 41
0.5999999999999999
 50
0
  1
ライトグレー
  0
LINE
  8
_0-7_枠細線
  6
CONTINUOUS
 62
    5
 10
925
 20
423.73000000000047
 11
1225.0000000000005
 21
423.73000000000047
  0
TEXT
  8
_0-7_枠細線
 62
    5
 10
1057.0000000000005
 20
428.73000000000047
 40
15
 41
0.5999999999999999
 50
0
  1
ベージュ
  0
LINE
  8
_0-7_枠細線
  6
CONTINUOUS
 62
    5
 10
925
 20
448.73000000000047
 11
1225.0000000000005
 21
448.73000000000047
  0
TEXT
  8
_0-7_枠細線
 62
    5
 10
1069.0000000000005
 20
453.73000000000047
 40
15
 41
0.8000000000000001
 50
0
  1
色
  0
TEXT
  8
_0-7_枠細線
 62
    5
 10
951.00000000000034
 20
453.73000000000047
 40
15
 41
0.8000000000000001
 50
0
  1
品　　番
  0
TEXT
  8
_0-7_枠細線
 62
    5
 10
1151.0000000000005
 20
453.73000000000047
 40
15
 41
0.8000000000000001
 50
0
  1
備　　考
  0
LINE
  8
_0-7_枠細線
  6
CONTINUOUS
 62
    5
 10
925
 20
473.73000000000047
 11
1225.0000000000005
 21
473.73000000000047
  0
TEXT
  8
_0-7_枠細線
 62
    5
 10
1013.75
 20
478.73000000000047
 40
17.5
 41
1
 50
0
  1
品番表
  0
LINE
  8
_0-7_枠細線
  6
CONTINUOUS
 62
    5
 10
925
 20
248.73000000000033
 11
1225.0000000000005
 21
248.73000000000033
  0
LINE
  8
_0-7_枠細線
  6
CONTINUOUS
 62
    5
 10
925
 20
273.73000000000059
 11
1225.0000000000005
 21
273.73000000000059
  0
LINE
  8
_0-7_枠細線
  6
CONTINUOUS
 62
    5
 10
925
 20
298.7300000000007
 11
1225.0000000000005
 21
298.7300000000007
  0
TEXT
  8
_0-7_枠細線
 62
    5
 10
1057.0000000000009
 20
378.7300000000007
 40
15
 41
0.5999999999999999
 50
0
  1
ホワイト
  0
TEXT
  8
_0-7_枠細線
 62
    5
 10
1061.5000000000005
 20
353.73000000000047
 40
15
 41
0.5999999999999999
 50
0
  1
ピンク
  0
TEXT
  8
_0-7_枠細線
 62
    5
 10
1061.5000000000005
 20
328.73000000000047
 40
15
 41
0.5999999999999999
 50
0
  1
ブルー
  0
TEXT
  8
_0-7_枠細線
 62
    5
 10
1048
 20
303.73000000000059
 40
15
 41
0.5999999999999999
 50
0
  1
ダークグレー
  0
TEXT
  8
_0-7_枠細線
 62
    5
 10
1061.5000000000005
 20
278.7300000000007
 40
15
 41
0.5999999999999999
 50
0
  1
ウッド
  0
LINE
  8
_0-7_枠細線
  6
CONTINUOUS
 62
    5
 10
925
 20
223.73000000000002
 11
1225.0000000000005
 21
223.73000000000002
  0
TEXT
  8
_0-7_枠細線
 62
    5
 10
1057.0000000000009
 20
228.73000000000013
 40
15
 41
0.5999999999999999
 50
0
  1
ブラック
  0
LINE
  8
_0-7_枠細線
  6
CONTINUOUS
 62
    5
 10
1225.0000000000005
 20
473.73000000000047
 11
1225.0000000000005
 21
223.73000000000002
  0
LINE
  8
_0-7_枠細線
  6
CONTINUOUS
 62
    5
 10
1125
 20
473.73000000000047
 11
1125
 21
223.73000000000002
  0
LINE
  8
_0-7_枠細線
  6
CONTINUOUS
 62
    5
 10
1025.0000000000005
 20
473.73000000000047
 11
1025.0000000000005
 21
223.73000000000002
  0
LINE
  8
_0-7_枠細線
  6
CONTINUOUS
 62
    5
 10
925
 20
473.73000000000047
 11
925
 21
223.73000000000002
  0
TEXT
  8
_0-7_枠細線
 62
    5
 10
1057.0000000000005
 20
253.73000000000033
 40
15
 41
0.5999999999999999
 50
0
  1
ブラウン
  0
LINE
  8
_0-7_枠細線
  6
CONTINUOUS
 62
    5
 10
918.52762466555532
 20
254.30604122127349
 11
911.02762466555532
 21
269.30604122127352
  0
LINE
  8
_0-7_枠細線
  6
CONTINUOUS
 62
    5
 10
903.52762466555532
 20
254.30604122127349
 11
918.52762466555532
 21
254.30604122127349
  0
LINE
  8
_0-7_枠細線
  6
CONTINUOUS
 62
    5
 10
911.02762466555532
 20
269.30604122127352
 11
903.52762466555532
 21
254.30604122127349
  0
TEXT
  8
_0-7_枠細線
 62
    5
 10
905.89277593370343
 20
253.3572212564236
 40
12.5
 41
0.8
 50
0
  1
４
  0
LINE
  8
_0-7_枠細線
  6
CONTINUOUS
 62
    5
 10
1270.7300000000005
 20
393.73000000000059
 11
1270.7300000000005
 21
473.73000000000059
  0
TEXT
  8
_0-7_枠細線
 62
    5
 10
1293.2300000000007
 20
451.23000000000059
 40
15
 41
1
 50
0
  1
耐荷重
  0
TEXT
  8
_0-7_枠細線
 62
    5
 10
1285.7300000000007
 20
421.23000000000059
 40
15
 41
1
 50
0
  1
3.5kN/㎡
  0
TEXT
  8
_0-7_枠細線
 62
    5
 10
1278.2300000000005
 20
401.23000000000059
 40
15
 41
1
 50
0
  1
（歩道用）
  0
LINE
  8
_0-7_枠細線
  6
CONTINUOUS
 62
    5
 10
1360.7300000000007
 20
393.73000000000059
 11
1360.7300000000007
 21
473.73000000000059
  0
LINE
  8
_0-7_枠細線
  6
CONTINUOUS
 62
    5
 10
1270.7300000000005
 20
393.73000000000059
 11
1360.7300000000007
 21
393.73000000000059
  0
LINE
  8
_0-7_枠細線
  6
CONTINUOUS
 62
    5
 10
1270.7300000000005
 20
443.73000000000059
 11
1360.7300000000007
 21
443.73000000000059
  0
LINE
  8
_0-7_枠細線
  6
CONTINUOUS
 62
    5
 10
1270.7300000000005
 20
473.73000000000059
 11
1360.7300000000007
 21
473.73000000000059
  0
TEXT
  8
_0-7_枠細線
 62
    5
 10
1039.8881953048526
 20
523.60133171286338
 40
25
 41
0.8
 50
0
  1
断面詳細図
  0
TEXT
  8
_0-7_枠細線
 62
    5
 10
1154.8371650540209
 20
525.13585606414028
 40
20
 41
0.6
 50
0
  1
Ｓ＝１：５
  0
LINE
  8
_0-d_寸法3
  6
CONTINUOUS
 62
    7
 10
440.69639358076614
 20
229.09093285812048
 11
440.69639358076614
 21
270.75759952478705
  0
LINE
  8
_0-d_寸法3
  6
CONTINUOUS
 62
    7
 10
440.69639358076614
 20
265.75759952478705
 11
450.3556518436568
 21
268.34578997581224
  0
LINE
  8
_0-d_寸法3
  6
CONTINUOUS
 62
    7
 10
440.69639358076614
 20
265.75759952478705
 11
450.3556518436568
 21
263.16940907376187
  0
LINE
  8
_0-d_寸法3
  6
CONTINUOUS
 62
    7
 10
469.69639358136902
 20
229.09093285812048
 11
469.69639358136902
 21
270.75759952478705
  0
LINE
  8
_0-d_寸法3
  6
CONTINUOUS
 62
    7
 10
469.69639358136902
 20
265.75759952478705
 11
460.03713531847836
 21
263.16940907376187
  0
LINE
  8
_0-d_寸法3
  6
CONTINUOUS
 62
    7
 10
469.69639358136902
 20
265.75759952478705
 11
460.03713531847836
 21
268.34578997581229
  0
LINE
  8
_0-d_寸法3
  6
CONTINUOUS
 62
    7
 10
440.69639358076614
 20
265.75759952478705
 11
469.69639358136902
 21
265.75759952478705
  0
TEXT
  8
_0-d_寸法3
 62
    7
 10
429.15021567112478
 20
250.75759952478705
 40
15
 41
1
 50
0
  1
(17.4)
  0
LINE
  8
_0-d_寸法3
  6
CONTINUOUS
 62
    7
 10
469.69639358136902
 20
265.75759952478705
 11
479.35565184425974
 21
268.34578997581218
  0
LINE
  8
_0-d_寸法3
  6
CONTINUOUS
 62
    7
 10
469.69639358136902
 20
265.75759952478705
 11
479.35565184425968
 21
263.16940907376181
  0
LINE
  8
_0-d_寸法3
  6
CONTINUOUS
 62
    7
 10
498.69639358197213
 20
229.09093285812048
 11
498.69639358197213
 21
270.75759952478705
  0
LINE
  8
_0-d_寸法3
  6
CONTINUOUS
 62
    7
 10
498.69639358197213
 20
265.75759952478705
 11
489.03713531908136
 21
263.16940907376187
  0
LINE
  8
_0-d_寸法3
  6
CONTINUOUS
 62
    7
 10
498.69639358197213
 20
265.75759952478705
 11
489.03713531908147
 21
268.34578997581229
  0
LINE
  8
_0-d_寸法3
  6
CONTINUOUS
 62
    7
 10
469.69639358136902
 20
265.75759952478705
 11
498.69639358197213
 21
265.75759952478705
  0
TEXT
  8
_0-d_寸法3
 62
    7
 10
466.21688233779139
 20
265.75759952478705
 40
15
 41
1
 50
0
  1
(17.4)
  0
LINE
  8
_0-d_寸法3
  6
CONTINUOUS
 62
    7
 10
392.19639357740414
 20
225.75759952478705
 11
392.19639357740414
 21
270.75759952478705
  0
LINE
  8
_0-d_寸法3
  6
CONTINUOUS
 62
    7
 10
392.19639357740414
 20
265.75759952478705
 11
382.53713531451342
 21
263.16940907376187
  0
LINE
  8
_0-d_寸法3
  6
CONTINUOUS
 62
    7
 10
392.19639357740414
 20
265.75759952478705
 11
382.53713531451348
 21
268.34578997581229
  0
LINE
  8
_0-d_寸法3
  6
CONTINUOUS
 62
    7
 10
402.19639358168564
 20
225.75759952478705
 11
402.19639358168564
 21
270.75759952478705
  0
LINE
  8
_0-d_寸法3
  6
CONTINUOUS
 62
    7
 10
367.82243789423711
 20
265.75759952478705
 11
402.19639358168564
 21
265.75759952478705
  0
TEXT
  8
_0-d_寸法3
 62
    7
 10
367.82243789423711
 20
250.75759952478705
 40
15
 41
1
 50
0
  1
(6)
  0
LINE
  8
_0-d_寸法3
  6
CONTINUOUS
 62
    7
 10
402.19639358168564
 20
265.75759952478705
 11
411.8556518445763
 21
268.34578997581224
  0
LINE
  8
_0-d_寸法3
  6
CONTINUOUS
 62
    7
 10
402.19639358168564
 20
265.75759952478705
 11
411.8556518445763
 21
263.16940907376187
  0
LINE
  8
_0-d_寸法3
  6
CONTINUOUS
 62
    7
 10
421.19639357800668
 20
225.75759952478705
 11
421.19639357800668
 21
270.75759952478705
  0
LINE
  8
_0-d_寸法3
  6
CONTINUOUS
 62
    7
 10
421.19639357800668
 20
265.75759952478705
 11
411.5371353151159
 21
263.16940907376187
  0
LINE
  8
_0-d_寸法3
  6
CONTINUOUS
 62
    7
 10
421.19639357800668
 20
265.75759952478705
 11
411.53713531511596
 21
268.34578997581229
  0
LINE
  8
_0-d_寸法3
  6
CONTINUOUS
 62
    7
 10
402.19639358168564
 20
265.75759952478705
 11
421.19639357800668
 21
265.75759952478705
  0
TEXT
  8
_0-d_寸法3
 62
    7
 10
392.93169715349615
 20
265.75759952478705
 40
15
 41
1
 50
0
  1
11.4
  0
ARC
  8
_0-a_極細3
  6
CONTINUOUS
 62
    7
 10
529.52579690650225
 20
207.57765036643551
 40
17.558839598481345
 50
150.03871396148173
 51
205.23810402387875
  0
ARC
  8
_0-a_極細3
  6
CONTINUOUS
 62
    7
 10
497.76032171660415
 20
192.60414115380485
 40
17.558839598481345
 50
330.03871396148202
 51
25.238104023878119
  0
ARC
  8
_0-a_極細3
  6
CONTINUOUS
 62
    7
 10
384.60598146816835
 20
207.57765036643551
 40
17.558839598481345
 50
150.03871396148173
 51
205.23810402387869
  0
ARC
  8
_0-a_極細3
  6
CONTINUOUS
 62
    7
 10
352.8405062782702
 20
192.60414115380485
 40
17.558839598481345
 50
330.03871396148202
 51
25.238104023878119
  0
ARC
  8
_0-b_細線3
  6
CONTINUOUS
 62
    7
 10
432.863060249272
 20
215.75759952478705
 40
1.666666666666667
 50
89.999999999999915
 51
179.99999999999983
  0
ARC
  8
_0-b_細線3
  6
CONTINUOUS
 62
    7
 10
433.64297556815103
 20
219.09093285812048
 40
1.666666666666667
 50
269.99999999999977
 51
330.00000000000279
  0
ARC
  8
_0-b_細線3
  6
CONTINUOUS
 62
    7
 10
436.529726914099
 20
217.42426619145405
 40
1.666666666666667
 50
89.999999999999915
 51
150.00000000000134
  0
LINE
  8
_0-b_細線3
  6
CONTINUOUS
 62
    7
 10
432.863060249272
 20
217.42426619145405
 11
433.64297556815103
 21
217.42426619145405
  0
ARC
  8
_0-b_細線3
  6
CONTINUOUS
 62
    7
 10
448.52972691226
 20
215.75759952478705
 40
1.666666666666667
 50
0
 51
89.999999999999915
  0
ARC
  8
_0-b_細線3
  6
CONTINUOUS
 62
    7
 10
447.74981159338068
 20
219.09093285812048
 40
1.666666666666667
 50
210.00000000000236
 51
269.99999999999977
  0
ARC
  8
_0-b_細線3
  6
CONTINUOUS
 62
    7
 10
444.8630602474326
 20
217.42426619145405
 40
1.666666666666667
 50
29.999999999991843
 51
89.999999999986329
  0
LINE
  8
_0-b_細線3
  6
CONTINUOUS
 62
    7
 10
448.52972691226
 20
217.42426619145405
 11
447.74981159338068
 21
217.42426619145405
  0
ARC
  8
_0-b_細線3
  6
CONTINUOUS
 62
    7
 10
432.02972691593857
 20
213.424266191454
 40
0.8333333333333334
 50
179.99999999999983
 51
269.99999999999977
  0
LINE
  8
_0-b_細線3
  6
CONTINUOUS
 62
    7
 10
431.19639358260514
 20
215.75759952478705
 11
431.19639358260514
 21
213.424266191454
  0
ARC
  8
_0-b_細線3
  6
CONTINUOUS
 62
    7
 10
449.36306024559315
 20
213.424266191454
 40
0.8333333333333334
 50
269.99999999999977
 51
359.99999999999966
  0
LINE
  8
_0-b_細線3
  6
CONTINUOUS
 62
    7
 10
450.19639357892657
 20
215.75759952478705
 11
450.19639357892657
 21
213.424266191454
  0
ARC
  8
_0-b_細線3
  6
CONTINUOUS
 62
    7
 10
436.19639358260514
 20
210.924266191454
 40
1.666666666666667
 50
0
 51
89.999999999999915
  0
LINE
  8
_0-b_細線3
  6
CONTINUOUS
 62
    7
 10
436.19639358260514
 20
212.59093285812057
 11
432.02972691593857
 21
212.59093285812057
  0
ARC
  8
_0-b_細線3
  6
CONTINUOUS
 62
    7
 10
445.19639358260548
 20
210.924266191454
 40
1.666666666666667
 50
89.999999999999915
 51
179.99999999999983
  0
LINE
  8
_0-b_細線3
  6
CONTINUOUS
 62
    7
 10
445.19639357892657
 20
212.59093285812057
 11
449.36306024559315
 21
212.59093285812057
  0
LINE
  8
_0-b_細線3
  6
CONTINUOUS
 62
    7
 10
444.8630602474326
 20
219.09093285812048
 11
436.529726914099
 21
219.09093285812048
  0
LINE
  8
_0-b_細線3
  6
CONTINUOUS
 62
    7
 10
437.86306024743254
 20
177.42426619145405
 11
437.863060249272
 21
210.924266191454
  0
LINE
  8
_0-b_細線3
  6
CONTINUOUS
 62
    7
 10
443.52972691409917
 20
177.42426619145405
 11
443.52972691593891
 21
210.924266191454
  0
LINE
  8
_0-b_細線3
  6
CONTINUOUS
 62
    7
 10
443.52972691409917
 20
177.42426619145405
 11
437.86306024743254
 21
177.42426619145405
  0
ARC
  8
_0-b_細線3
  6
CONTINUOUS
 62
    7
 10
461.86306024987505
 20
215.75759952478705
 40
1.666666666666667
 50
89.999999999999915
 51
179.99999999999983
  0
ARC
  8
_0-b_細線3
  6
CONTINUOUS
 62
    7
 10
462.64297556875391
 20
219.09093285812048
 40
1.666666666666667
 50
269.99999999999977
 51
329.9999999999979
  0
ARC
  8
_0-b_細線3
  6
CONTINUOUS
 62
    7
 10
465.529726914702
 20
217.42426619145405
 40
1.666666666666667
 50
89.999999999999915
 51
150.00000000000819
  0
LINE
  8
_0-b_細線3
  6
CONTINUOUS
 62
    7
 10
461.86306024987505
 20
217.42426619145405
 11
462.64297556875391
 21
217.42426619145405
  0
ARC
  8
_0-b_細線3
  6
CONTINUOUS
 62
    7
 10
477.529726912863
 20
215.75759952478705
 40
1.666666666666667
 50
0
 51
89.999999999999915
  0
ARC
  8
_0-b_細線3
  6
CONTINUOUS
 62
    7
 10
476.74981159398374
 20
219.09093285812048
 40
1.666666666666667
 50
209.99999999999451
 51
269.99999999999977
  0
ARC
  8
_0-b_細線3
  6
CONTINUOUS
 62
    7
 10
473.86306024803559
 20
217.42426619145405
 40
1.666666666666667
 50
29.999999999998682
 51
89.999999999999915
  0
LINE
  8
_0-b_細線3
  6
CONTINUOUS
 62
    7
 10
477.529726912863
 20
217.42426619145405
 11
476.74981159398374
 21
217.42426619145405
  0
ARC
  8
_0-b_細線3
  6
CONTINUOUS
 62
    7
 10
461.02972691654202
 20
213.424266191454
 40
0.8333333333333334
 50
179.99999999999983
 51
269.99999999999977
  0
LINE
  8
_0-b_細線3
  6
CONTINUOUS
 62
    7
 10
460.19639358320802
 20
215.75759952478705
 11
460.19639358320802
 21
213.424266191454
  0
ARC
  8
_0-b_細線3
  6
CONTINUOUS
 62
    7
 10
478.36306024619603
 20
213.424266191454
 40
0.8333333333333334
 50
269.99999999999977
 51
359.99999999999966
  0
LINE
  8
_0-b_細線3
  6
CONTINUOUS
 62
    7
 10
479.19639357952963
 20
215.75759952478705
 11
479.19639357952963
 21
213.424266191454
  0
ARC
  8
_0-b_細線3
  6
CONTINUOUS
 62
    7
 10
465.19639358320802
 20
210.924266191454
 40
1.666666666666667
 50
0
 51
89.999999999999915
  0
LINE
  8
_0-b_細線3
  6
CONTINUOUS
 62
    7
 10
465.19639358320802
 20
212.59093285812057
 11
461.02972691654202
 21
212.59093285812057
  0
ARC
  8
_0-b_細線3
  6
CONTINUOUS
 62
    7
 10
474.19639358320853
 20
210.924266191454
 40
1.666666666666667
 50
89.999999999999915
 51
179.99999999999983
  0
LINE
  8
_0-b_細線3
  6
CONTINUOUS
 62
    7
 10
474.19639357952963
 20
212.59093285812057
 11
478.36306024619603
 21
212.59093285812057
  0
LINE
  8
_0-b_細線3
  6
CONTINUOUS
 62
    7
 10
473.86306024803559
 20
219.09093285812048
 11
465.529726914702
 21
219.09093285812048
  0
LINE
  8
_0-b_細線3
  6
CONTINUOUS
 62
    7
 10
466.86306024803559
 20
177.42426619145405
 11
466.86306024987505
 21
210.924266191454
  0
LINE
  8
_0-b_細線3
  6
CONTINUOUS
 62
    7
 10
472.52972691470205
 20
177.42426619145405
 11
472.5297269165419
 21
210.924266191454
  0
LINE
  8
_0-b_細線3
  6
CONTINUOUS
 62
    7
 10
472.52972691470205
 20
177.42426619145405
 11
466.86306024803559
 21
177.42426619145405
  0
ARC
  8
_0-b_細線3
  6
CONTINUOUS
 62
    7
 10
490.86306025047804
 20
215.75759952478705
 40
1.666666666666667
 50
89.999999999999915
 51
179.99999999999983
  0
ARC
  8
_0-b_細線3
  6
CONTINUOUS
 62
    7
 10
491.64297556935702
 20
219.09093285812048
 40
1.666666666666667
 50
269.99999999999977
 51
329.99999999999693
  0
ARC
  8
_0-b_細線3
  6
CONTINUOUS
 62
    7
 10
494.5297269153051
 20
217.42426619145405
 40
1.666666666666667
 50
89.999999999999915
 51
150.00000000000915
  0
LINE
  8
_0-b_細線3
  6
CONTINUOUS
 62
    7
 10
490.86306025047804
 20
217.42426619145405
 11
491.64297556935702
 21
217.42426619145405
  0
ARC
  8
_0-b_細線3
  6
CONTINUOUS
 62
    7
 10
506.52972691346611
 20
215.75759952478705
 40
1.666666666666667
 50
0
 51
89.999999999999915
  0
ARC
  8
_0-b_細線3
  6
CONTINUOUS
 62
    7
 10
505.74981159458673
 20
219.09093285812048
 40
1.666666666666667
 50
210.00000000000236
 51
269.99999999999977
  0
ARC
  8
_0-b_細線3
  6
CONTINUOUS
 62
    7
 10
502.86306024863859
 20
217.42426619145405
 40
1.666666666666667
 50
29.999999999990862
 51
89.999999999984354
  0
LINE
  8
_0-b_細線3
  6
CONTINUOUS
 62
    7
 10
506.52972691346611
 20
217.42426619145405
 11
505.74981159458673
 21
217.42426619145405
  0
ARC
  8
_0-b_細線3
  6
CONTINUOUS
 62
    7
 10
490.02972691714461
 20
213.424266191454
 40
0.8333333333333334
 50
179.99999999999983
 51
269.99999999999977
  0
LINE
  8
_0-b_細線3
  6
CONTINUOUS
 62
    7
 10
489.19639358381113
 20
215.75759952478705
 11
489.19639358381113
 21
213.424266191454
  0
ARC
  8
_0-b_細線3
  6
CONTINUOUS
 62
    7
 10
507.36306024679919
 20
213.424266191454
 40
0.8333333333333334
 50
269.99999999999977
 51
359.99999999999966
  0
LINE
  8
_0-b_細線3
  6
CONTINUOUS
 62
    7
 10
508.19639358013262
 20
215.75759952478705
 11
508.19639358013262
 21
213.424266191454
  0
ARC
  8
_0-b_細線3
  6
CONTINUOUS
 62
    7
 10
494.19639358381113
 20
210.924266191454
 40
1.666666666666667
 50
0
 51
89.999999999999915
  0
LINE
  8
_0-b_細線3
  6
CONTINUOUS
 62
    7
 10
494.19639358381113
 20
212.59093285812057
 11
490.02972691714461
 21
212.59093285812057
  0
ARC
  8
_0-b_細線3
  6
CONTINUOUS
 62
    7
 10
503.19639358381107
 20
210.924266191454
 40
1.666666666666667
 50
89.999999999999915
 51
179.99999999999983
  0
LINE
  8
_0-b_細線3
  6
CONTINUOUS
 62
    7
 10
503.19639358013217
 20
212.59093285812057
 11
507.36306024679919
 21
212.59093285812057
  0
LINE
  8
_0-b_細線3
  6
CONTINUOUS
 62
    7
 10
502.86306024863859
 20
219.09093285812048
 11
494.5297269153051
 21
219.09093285812048
  0
LINE
  8
_0-b_細線3
  6
CONTINUOUS
 62
    7
 10
495.86306024863859
 20
177.42426619145405
 11
495.86306025047804
 21
210.924266191454
  0
LINE
  8
_0-b_細線3
  6
CONTINUOUS
 62
    7
 10
501.52972691530516
 20
177.42426619145405
 11
501.52972691714501
 21
210.924266191454
  0
LINE
  8
_0-b_細線3
  6
CONTINUOUS
 62
    7
 10
501.52972691530516
 20
177.42426619145405
 11
495.86306024863859
 21
177.42426619145405
  0
ARC
  8
_0-b_細線3
  6
CONTINUOUS
 62
    7
 10
374.86306024774899
 20
215.75759952478705
 40
1.666666666666667
 50
89.999999999999915
 51
179.99999999999983
  0
ARC
  8
_0-b_細線3
  6
CONTINUOUS
 62
    7
 10
375.64297556662802
 20
219.09093285812048
 40
1.666666666666667
 50
269.99999999999977
 51
330.00000000000375
  0
ARC
  8
_0-b_細線3
  6
CONTINUOUS
 62
    7
 10
378.52972691257611
 20
217.42426619145405
 40
1.666666666666667
 50
89.999999999999915
 51
150.0000000000023
  0
LINE
  8
_0-b_細線3
  6
CONTINUOUS
 62
    7
 10
374.86306024774899
 20
217.42426619145405
 11
375.64297556662802
 21
217.42426619145405
  0
ARC
  8
_0-b_細線3
  6
CONTINUOUS
 62
    7
 10
390.52972691073711
 20
215.75759952478705
 40
1.666666666666667
 50
0
 51
89.999999999999915
  0
ARC
  8
_0-b_細線3
  6
CONTINUOUS
 62
    7
 10
389.74981159185825
 20
219.09093285812048
 40
1.666666666666667
 50
209.99999999999451
 51
269.99999999999977
  0
ARC
  8
_0-b_細線3
  6
CONTINUOUS
 62
    7
 10
386.86306024590965
 20
217.42426619145405
 40
1.666666666666667
 50
29.999999999990862
 51
89.999999999986315
  0
LINE
  8
_0-b_細線3
  6
CONTINUOUS
 62
    7
 10
390.52972691073711
 20
217.42426619145405
 11
389.74981159185825
 21
217.42426619145405
  0
ARC
  8
_0-b_細線3
  6
CONTINUOUS
 62
    7
 10
374.02972691441607
 20
213.424266191454
 40
0.8333333333333334
 50
179.99999999999983
 51
269.99999999999977
  0
LINE
  8
_0-b_細線3
  6
CONTINUOUS
 62
    7
 10
373.19639358108213
 20
215.75759952478705
 11
373.19639358108213
 21
213.424266191454
  0
ARC
  8
_0-b_細線3
  6
CONTINUOUS
 62
    7
 10
391.3630602440702
 20
213.424266191454
 40
0.8333333333333334
 50
269.99999999999977
 51
359.99999999999966
  0
LINE
  8
_0-b_細線3
  6
CONTINUOUS
 62
    7
 10
392.19639357740414
 20
215.75759952478705
 11
392.19639357740414
 21
213.424266191454
  0
ARC
  8
_0-b_細線3
  6
CONTINUOUS
 62
    7
 10
378.19639358108213
 20
210.924266191454
 40
1.666666666666667
 50
0
 51
89.999999999999915
  0
LINE
  8
_0-b_細線3
  6
CONTINUOUS
 62
    7
 10
378.19639358108213
 20
212.59093285812057
 11
374.02972691441607
 21
212.59093285812057
  0
ARC
  8
_0-b_細線3
  6
CONTINUOUS
 62
    7
 10
387.19639358108253
 20
210.924266191454
 40
1.666666666666667
 50
89.999999999999915
 51
179.99999999999983
  0
LINE
  8
_0-b_細線3
  6
CONTINUOUS
 62
    7
 10
387.19639357740363
 20
212.59093285812057
 11
391.3630602440702
 21
212.59093285812057
  0
LINE
  8
_0-b_細線3
  6
CONTINUOUS
 62
    7
 10
386.86306024590965
 20
219.09093285812048
 11
378.52972691257611
 21
219.09093285812048
  0
LINE
  8
_0-b_細線3
  6
CONTINUOUS
 62
    7
 10
379.86306024591011
 20
177.42426619145405
 11
379.86306024774899
 21
210.924266191454
  0
LINE
  8
_0-b_細線3
  6
CONTINUOUS
 62
    7
 10
385.52972691257617
 20
177.42426619145405
 11
385.52972691441602
 21
210.924266191454
  0
LINE
  8
_0-b_細線3
  6
CONTINUOUS
 62
    7
 10
385.52972691257617
 20
177.42426619145405
 11
379.86306024591011
 21
177.42426619145405
  0
ARC
  8
_0-b_細線3
  6
CONTINUOUS
 62
    7
 10
403.8630602483521
 20
215.75759952478705
 40
1.666666666666667
 50
89.999999999999915
 51
179.99999999999983
  0
ARC
  8
_0-b_細線3
  6
CONTINUOUS
 62
    7
 10
404.64297556723153
 20
219.09093285812048
 40
1.666666666666667
 50
269.99999999999977
 51
329.99999999998812
  0
ARC
  8
_0-b_細線3
  6
CONTINUOUS
 62
    7
 10
407.52972691317922
 20
217.42426619145405
 40
1.666666666666667
 50
89.999999999999915
 51
150.00000000001012
  0
LINE
  8
_0-b_細線3
  6
CONTINUOUS
 62
    7
 10
403.8630602483521
 20
217.42426619145405
 11
404.64297556723153
 21
217.42426619145405
  0
ARC
  8
_0-b_細線3
  6
CONTINUOUS
 62
    7
 10
419.52972691134022
 20
215.75759952478705
 40
1.666666666666667
 50
0
 51
89.999999999999915
  0
ARC
  8
_0-b_細線3
  6
CONTINUOUS
 62
    7
 10
418.74981159246079
 20
219.09093285812048
 40
1.666666666666667
 50
210.00000000000333
 51
269.99999999999977
  0
ARC
  8
_0-b_細線3
  6
CONTINUOUS
 62
    7
 10
415.8630602465131
 20
217.42426619145405
 40
1.666666666666667
 50
29.999999999997708
 51
89.999999999999901
  0
LINE
  8
_0-b_細線3
  6
CONTINUOUS
 62
    7
 10
419.52972691134022
 20
217.42426619145405
 11
418.74981159246079
 21
217.42426619145405
  0
ARC
  8
_0-b_細線3
  6
CONTINUOUS
 62
    7
 10
403.02972691501907
 20
213.424266191454
 40
0.8333333333333334
 50
179.99999999999983
 51
269.99999999999977
  0
LINE
  8
_0-b_細線3
  6
CONTINUOUS
 62
    7
 10
402.19639358168564
 20
215.75759952478705
 11
402.19639358168564
 21
213.424266191454
  0
ARC
  8
_0-b_細線3
  6
CONTINUOUS
 62
    7
 10
420.36306024467308
 20
213.424266191454
 40
0.8333333333333334
 50
269.99999999999977
 51
359.99999999999966
  0
LINE
  8
_0-b_細線3
  6
CONTINUOUS
 62
    7
 10
421.19639357800668
 20
215.75759952478705
 11
421.19639357800668
 21
213.424266191454
  0
ARC
  8
_0-b_細線3
  6
CONTINUOUS
 62
    7
 10
407.19639358168564
 20
210.924266191454
 40
1.666666666666667
 50
0
 51
89.999999999999915
  0
LINE
  8
_0-b_細線3
  6
CONTINUOUS
 62
    7
 10
407.19639358168564
 20
212.59093285812057
 11
403.02972691501907
 21
212.59093285812057
  0
ARC
  8
_0-b_細線3
  6
CONTINUOUS
 62
    7
 10
416.19639358168558
 20
210.924266191454
 40
1.666666666666667
 50
89.999999999999915
 51
179.99999999999983
  0
LINE
  8
_0-b_細線3
  6
CONTINUOUS
 62
    7
 10
416.19639357800668
 20
212.59093285812057
 11
420.36306024467308
 21
212.59093285812057
  0
LINE
  8
_0-b_細線3
  6
CONTINUOUS
 62
    7
 10
415.8630602465131
 20
219.09093285812048
 11
407.52972691317922
 21
219.09093285812048
  0
LINE
  8
_0-b_細線3
  6
CONTINUOUS
 62
    7
 10
408.86306024651265
 20
177.42426619145405
 11
408.8630602483521
 21
210.924266191454
  0
LINE
  8
_0-b_細線3
  6
CONTINUOUS
 62
    7
 10
414.52972691317967
 20
177.42426619145405
 11
414.52972691501913
 21
210.924266191454
  0
LINE
  8
_0-b_細線3
  6
CONTINUOUS
 62
    7
 10
414.52972691317967
 20
177.42426619145405
 11
408.86306024651265
 21
177.42426619145405
  0
LINE
  8
_0-d_寸法3
  6
CONTINUOUS
 62
    7
 10
506.88791402517808
 20
183.16003055496452
 11
542.24025575086353
 21
207.91400672465528
  0
LINE
  8
_0-d_寸法3
  6
CONTINUOUS
 62
    7
 10
538.14449552941858
 20
205.0461245429
 11
535.55630507839339
 21
214.70538280579069
  0
LINE
  8
_0-d_寸法3
  6
CONTINUOUS
 62
    7
 10
538.14449552941858
 20
205.0461245429
 11
540.73268598044376
 21
214.70538280579069
  0
LINE
  8
_0-d_寸法3
  6
CONTINUOUS
 62
    7
 10
506.88791402517808
 20
224.82669722163098
 11
542.24025575086353
 21
249.58067339132182
  0
LINE
  8
_0-d_寸法3
  6
CONTINUOUS
 62
    7
 10
538.14449552941858
 20
246.71279120956655
 11
540.73268598044376
 21
237.05353294667589
  0
LINE
  8
_0-d_寸法3
  6
CONTINUOUS
 62
    7
 10
538.14449552941858
 20
246.71279120956655
 11
535.55630507839328
 21
237.05353294667589
  0
LINE
  8
_0-d_寸法3
  6
CONTINUOUS
 62
    7
 10
538.14449552941858
 20
205.0461245429
 11
538.14449552941858
 21
246.71279120956655
  0
TEXT
  8
_0-d_寸法3
 62
    7
 10
538.14449552941858
 20
218.3794578762344
 40
15
 41
1
 50
90
  1
25
  0
LINE
  8
_0-a_極細3
  6
CENTER1
 62
    7
 10
519.495160571062
 20
200.42426619145374
 11
356.9166179431362
 21
200.42426619145374
  0
LINE
  8
_0-b_細線3
  6
CONTINUOUS
 62
    7
 10
443.52972691501907
 20
189.5909328581206
 11
466.86306024835244
 21
189.5909328581206
  0
LINE
  8
_0-b_細線3
  6
CONTINUOUS
 62
    7
 10
472.52972691562206
 20
189.5909328581206
 11
495.86306024895555
 21
189.5909328581206
  0
LINE
  8
_0-b_細線3
  6
CONTINUOUS
 62
    7
 10
385.52972691349612
 20
189.5909328581206
 11
408.86306024682966
 21
189.5909328581206
  0
LINE
  8
_0-b_細線3
  6
CONTINUOUS
 62
    7
 10
414.52972691409957
 20
189.5909328581206
 11
437.86306024743254
 21
189.5909328581206
  0
LINE
  8
_0-b_細線3
  6
CONTINUOUS
 62
    7
 10
443.52972691501907
 20
211.25759952478731
 11
466.86306024835244
 21
211.25759952478731
  0
LINE
  8
_0-b_細線3
  6
CONTINUOUS
 62
    7
 10
472.52972691562206
 20
211.25759952478731
 11
495.86306024895555
 21
211.25759952478731
  0
LINE
  8
_0-b_細線3
  6
CONTINUOUS
 62
    7
 10
385.52972691349612
 20
211.25759952478731
 11
408.86306024682966
 21
211.25759952478731
  0
LINE
  8
_0-b_細線3
  6
CONTINUOUS
 62
    7
 10
414.52972691409957
 20
211.25759952478731
 11
437.86306024743254
 21
211.25759952478731
  0
LINE
  8
_0-b_細線3
  6
CONTINUOUS
 62
    7
 10
501.52972691622506
 20
211.25759952478731
 11
512.28882330702515
 21
211.25759952478731
  0
LINE
  8
_0-b_細線3
  6
CONTINUOUS
 62
    7
 10
501.52972691622506
 20
189.5909328581206
 11
514.99729531608125
 21
189.5909328581206
  0
LINE
  8
_0-b_細線3
  6
CONTINUOUS
 62
    7
 10
367.3690078686912
 20
211.25759952478731
 11
379.86306024622655
 21
211.25759952478731
  0
LINE
  8
_0-b_細線3
  6
CONTINUOUS
 62
    7
 10
370.07747987774729
 20
189.5909328581206
 11
379.86306024622655
 21
189.5909328581206
  0
TEXT
  8
_0-7_枠細線
 62
    5
 10
400.96306024651221
 20
128.5404661036894
 40
25.000000000000004
 41
0.8
 50
0
  1
断面詳細
  0
TEXT
  8
_0-7_枠細線
 62
    5
 10
505.91202999568031
 20
131.49990592400917
 40
20
 41
0.6
 50
0
  1
Ｓ＝１：３
  0
TEXT
  8
_0-5_寸法線
 62
    7
 10
568.11773093070178
 20
517.14125823466702
 40
15
 41
0.8000000000000001
 50
0
  1
ＧＳＬ－２５
  0
TEXT
  8
_0-7_枠細線
 62
    5
 10
930.00000000000045
 20
428.73000000000047
 40
15
 41
0.5
 50
0
  1
ＧＲＳ－２５Ｋ１５０－Ｂ
  0
TEXT
  8
_0-7_枠細線
 62
    5
 10
930.00000000000045
 20
403.73000000000047
 40
15
 41
0.5
 50
0
  1
ＧＲＳ－２５Ｋ１５０－Ｇ
  0
TEXT
  8
_0-7_枠細線
 62
    5
 10
930.00000000000045
 20
378.7300000000007
 40
15
 41
0.5
 50
0
  1
ＧＲＳ－２５Ｋ１５０－Ｓ
  0
TEXT
  8
_0-7_枠細線
 62
    5
 10
930.00000000000045
 20
353.73000000000047
 40
15
 41
0.5
 50
0
  1
ＧＲＳ－２５Ｋ１５０－Ｐ
  0
TEXT
  8
_0-7_枠細線
 62
    5
 10
930.00000000000045
 20
328.73000000000047
 40
15
 41
0.5
 50
0
  1
ＧＲＳ－２５Ｋ１５０－Ａ
  0
TEXT
  8
_0-7_枠細線
 62
    5
 10
930.00000000000045
 20
303.73000000000059
 40
15
 41
0.5
 50
0
  1
ＧＲＳ－２５Ｋ１５０－Ｄ
  0
TEXT
  8
_0-7_枠細線
 62
    5
 10
930.00000000000045
 20
278.7300000000007
 40
15
 41
0.5
 50
0
  1
ＧＲＳ－２５Ｋ１５０－Ｍ
  0
TEXT
  8
_0-7_枠細線
 62
    5
 10
930.00000000000045
 20
253.73000000000036
 40
15
 41
0.5
 50
0
  1
ＧＲＳ－２５Ｋ１５０－Ｃ
  0
TEXT
  8
_0-7_枠細線
 62
    5
 10
930.00000000000045
 20
228.73000000000013
 40
15
 41
0.5
 50
0
  1
ＧＲＳ－２５Ｋ１５０－Ｋ
  0
LINE
  8
_0-7_枠細線
  6
CONTINUOUS
 62
    5
 10
539.62302206321544
 20
703.92835803928153
 11
532.12302206321544
 21
688.92835803928153
  0
LINE
  8
_0-7_枠細線
  6
CONTINUOUS
 62
    5
 10
532.12302206321544
 20
688.92835803928153
 11
547.12302206321544
 21
688.92835803928153
  0
LINE
  8
_0-7_枠細線
  6
CONTINUOUS
 62
    5
 10
547.12302206321544
 20
688.92835803928153
 11
539.62302206321544
 21
703.92835803928153
  0
TEXT
  8
_0-7_枠細線
 62
    5
 10
536.98817333136367
 20
688.38067414910017
 40
12.5
 41
0.8
 50
0
  1
1
  0
LINE
  8
_0-5_寸法線
  6
CONTINUOUS
 62
    7
 10
1009.9999999996562
 20
691.15999999999997
 11
1009.9999999996564
 21
736.16000000000008
  0
LINE
  8
_0-5_寸法線
  6
CONTINUOUS
 62
    7
 10
1009.9999999996564
 20
731.16000000000008
 11
1019.659258262547
 21
733.74819045102527
  0
LINE
  8
_0-5_寸法線
  6
CONTINUOUS
 62
    7
 10
1009.9999999996564
 20
731.16000000000008
 11
1019.659258262547
 21
728.5718095489749
  0
LINE
  8
_0-5_寸法線
  6
CONTINUOUS
 62
    7
 10
1160.0000000003438
 20
691.16000000000008
 11
1160.000000000344
 21
736.16000000000008
  0
LINE
  8
_0-5_寸法線
  6
CONTINUOUS
 62
    7
 10
1160.000000000344
 20
731.16000000000008
 11
1150.3407417374533
 21
728.5718095489749
  0
LINE
  8
_0-5_寸法線
  6
CONTINUOUS
 62
    7
 10
1160.000000000344
 20
731.16000000000008
 11
1150.3407417374533
 21
733.74819045102527
  0
LINE
  8
_0-5_寸法線
  6
CONTINUOUS
 62
    7
 10
1009.9999999996564
 20
731.16000000000008
 11
1160.000000000344
 21
731.16000000000008
  0
TEXT
  8
_0-5_寸法線
 62
    7
 10
1073.7500000000002
 20
731.16000000000008
 40
15
 41
1
 50
0
  1
150
  0
LINE
  8
_0-5_寸法線
  6
CONTINUOUS
 62
    7
 10
1004.9999999999991
 20
766.15999999999997
 11
995.34074173710849
 21
763.5718095489749
  0
LINE
  8
_0-5_寸法線
  6
CONTINUOUS
 62
    7
 10
1004.9999999999991
 20
766.15999999999997
 11
995.34074173710849
 21
768.74819045102527
  0
LINE
  8
_0-5_寸法線
  6
CONTINUOUS
 62
    7
 10
1007.9999999999991
 20
685.6600000000002
 11
1007.9999999999991
 21
771.15999999999997
  0
LINE
  8
_0-5_寸法線
  6
CONTINUOUS
 62
    7
 10
979.99999999999909
 20
766.15999999999997
 11
1007.9999999999991
 21
766.15999999999997
  0
TEXT
  8
_0-5_寸法線
 62
    7
 10
983.85533205607601
 20
766.15999999999997
 40
15
 41
1
 50
0
  1
3
  0
LINE
  8
_0-5_寸法線
  6
CONTINUOUS
 62
    7
 10
1007.9999999999991
 20
766.15999999999997
 11
1017.6592582628899
 21
768.74819045102527
  0
LINE
  8
_0-5_寸法線
  6
CONTINUOUS
 62
    7
 10
1007.9999999999991
 20
766.15999999999997
 11
1017.6592582628899
 21
763.5718095489749
  0
LINE
  8
_0-5_寸法線
  6
CONTINUOUS
 62
    7
 10
1162
 20
685.6600000000002
 11
1162
 21
771.15999999999997
  0
LINE
  8
_0-5_寸法線
  6
CONTINUOUS
 62
    7
 10
1162
 20
766.15999999999997
 11
1152.3407417371093
 21
763.5718095489749
  0
LINE
  8
_0-5_寸法線
  6
CONTINUOUS
 62
    7
 10
1162
 20
766.15999999999997
 11
1152.3407417371093
 21
768.74819045102527
  0
LINE
  8
_0-5_寸法線
  6
CONTINUOUS
 62
    7
 10
1007.9999999999991
 20
766.15999999999997
 11
1162
 21
766.15999999999997
  0
TEXT
  8
_0-5_寸法線
 62
    7
 10
1073.7499999999995
 20
766.15999999999997
 40
15
 41
1
 50
0
  1
154
  0
LINE
  8
_0-5_寸法線
  6
CONTINUOUS
 62
    7
 10
1165
 20
766.15999999999997
 11
1174.6592582628907
 21
768.74819045102527
  0
LINE
  8
_0-5_寸法線
  6
CONTINUOUS
 62
    7
 10
1165
 20
766.15999999999997
 11
1174.6592582628907
 21
763.57180954897467
  0
LINE
  8
_0-5_寸法線
  6
CONTINUOUS
 62
    7
 10
1162
 20
766.15999999999997
 11
1190
 21
766.15999999999997
  0
TEXT
  8
_0-5_寸法線
 62
    7
 10
1178.3147512025143
 20
766.15999999999997
 40
15
 41
1
 50
0
  1
3
  0
LINE
  8
_0-5_寸法線
  6
CONTINUOUS
 62
    7
 10
373.5179582409711
 20
644.6058308010804
 11
373.5179582409711
 21
689.6058308010804
  0
LINE
  8
_0-5_寸法線
  6
CONTINUOUS
 62
    7
 10
373.5179582409711
 20
684.6058308010804
 11
383.17721650386176
 21
687.19402125210559
  0
LINE
  8
_0-5_寸法線
  6
CONTINUOUS
 62
    7
 10
373.5179582409711
 20
684.6058308010804
 11
383.17721650386176
 21
682.01764035005522
  0
LINE
  8
_0-5_寸法線
  6
CONTINUOUS
 62
    7
 10
380.5179582409711
 20
644.6058308010804
 11
380.5179582409711
 21
689.6058308010804
  0
LINE
  8
_0-5_寸法線
  6
CONTINUOUS
 62
    7
 10
380.5179582409711
 20
684.6058308010804
 11
370.85869997808038
 21
682.01764035005522
  0
LINE
  8
_0-5_寸法線
  6
CONTINUOUS
 62
    7
 10
380.5179582409711
 20
684.6058308010804
 11
370.85869997808049
 21
687.19402125210559
  0
LINE
  8
_0-5_寸法線
  6
CONTINUOUS
 62
    7
 10
373.5179582409711
 20
684.6058308010804
 11
380.5179582409711
 21
684.6058308010804
  0
TEXT
  8
_0-5_寸法線
 62
    7
 10
375.12483618926319
 20
684.6058308010804
 40
15
 41
1
 50
0
  1
7
  0
LINE
  8
_0-5_寸法線
  6
CONTINUOUS
 62
    7
 10
380.5179582409711
 20
684.6058308010804
 11
390.17721650386187
 21
687.19402125210559
  0
LINE
  8
_0-5_寸法線
  6
CONTINUOUS
 62
    7
 10
380.5179582409711
 20
684.6058308010804
 11
390.17721650386181
 21
682.0176403500551
  0
LINE
  8
_0-5_寸法線
  6
CONTINUOUS
 62
    7
 10
477.51795824097115
 20
644.6058308010804
 11
477.51795824097115
 21
689.6058308010804
  0
LINE
  8
_0-5_寸法線
  6
CONTINUOUS
 62
    7
 10
477.51795824097115
 20
684.6058308010804
 11
467.85869997808044
 21
682.01764035005522
  0
LINE
  8
_0-5_寸法線
  6
CONTINUOUS
 62
    7
 10
477.51795824097115
 20
684.6058308010804
 11
467.85869997808049
 21
687.19402125210559
  0
LINE
  8
_0-5_寸法線
  6
CONTINUOUS
 62
    7
 10
380.5179582409711
 20
684.6058308010804
 11
477.51795824097115
 21
684.6058308010804
  0
TEXT
  8
_0-5_寸法線
 62
    7
 10
421.51795824097115
 20
684.60583080108017
 40
15
 41
1
 50
0
  1
97
  0
LINE
  8
_0-5_寸法線
  6
CONTINUOUS
 62
    7
 10
477.51795824097115
 20
684.6058308010804
 11
487.17721650386181
 21
687.19402125210559
  0
LINE
  8
_0-5_寸法線
  6
CONTINUOUS
 62
    7
 10
477.51795824097115
 20
684.6058308010804
 11
487.17721650386181
 21
682.0176403500551
  0
LINE
  8
_0-5_寸法線
  6
CONTINUOUS
 62
    7
 10
516.5179582409711
 20
644.6058308010804
 11
516.5179582409711
 21
689.6058308010804
  0
LINE
  8
_0-5_寸法線
  6
CONTINUOUS
 62
    7
 10
516.5179582409711
 20
684.6058308010804
 11
506.85869997808038
 21
682.01764035005522
  0
LINE
  8
_0-5_寸法線
  6
CONTINUOUS
 62
    7
 10
516.5179582409711
 20
684.6058308010804
 11
506.85869997808049
 21
687.19402125210559
  0
LINE
  8
_0-5_寸法線
  6
CONTINUOUS
 62
    7
 10
477.51795824097115
 20
684.6058308010804
 11
516.5179582409711
 21
684.6058308010804
  0
TEXT
  8
_0-5_寸法線
 62
    7
 10
489.5179582409711
 20
684.60583080108017
 40
15
 41
1
 50
0
  1
39
  0
LINE
  8
_0-5_寸法線
  6
CONTINUOUS
 62
    7
 10
516.5179582409711
 20
684.6058308010804
 11
526.17721650386193
 21
687.19402125210559
  0
LINE
  8
_0-5_寸法線
  6
CONTINUOUS
 62
    7
 10
516.5179582409711
 20
684.6058308010804
 11
526.17721650386193
 21
682.0176403500551
  0
LINE
  8
_0-5_寸法線
  6
CONTINUOUS
 62
    7
 10
523.51795824097144
 20
644.6058308010804
 11
523.51795824097144
 21
689.6058308010804
  0
LINE
  8
_0-5_寸法線
  6
CONTINUOUS
 62
    7
 10
523.51795824097144
 20
684.6058308010804
 11
513.85869997808061
 21
682.01764035005522
  0
LINE
  8
_0-5_寸法線
  6
CONTINUOUS
 62
    7
 10
523.51795824097144
 20
684.6058308010804
 11
513.85869997808061
 21
687.19402125210559
  0
LINE
  8
_0-5_寸法線
  6
CONTINUOUS
 62
    7
 10
516.5179582409711
 20
684.6058308010804
 11
523.51795824097144
 21
684.6058308010804
  0
TEXT
  8
_0-5_寸法線
 62
    7
 10
516.26795824097132
 20
684.60583080108017
 40
15
 41
1
 50
0
  1
7
  0
ENDSEC
  0
EOF
