  0
SECTION
  2
HEADER
  9
$ACADVER
  1
AC1009
  9
$INSBASE
 10
0
 20
0
 30
0
  9
$EXTMIN
 10
0
 20
0
  9
$EXTMAX
 10
1485
 20
1050
  9
$LIMMIN
 10
0
 20
0
  9
$LIMMAX
 10
1485
 20
1050
  9
$LTSCALE
 40
5
  0
ENDSEC
  0
SECTION
  2
TABLES
  0
TABLE
  2
LTYPE
 70
     9
  0
LTYPE
  2
CONTINUOUS
 70
    64
  3
実線
 72
    65
 73
     0
 40
0.0
  0
LTYPE
  2
DASHED1
 70
    64
  3
--  --  --  --  --  --  --  --  
 72
    65
 73
     2
 40
2.5
 49
1.25
 49
-1.25
  0
LTYPE
  2
DASHED2
 70
    64
  3
----    ----    ----    ----    
 72
    65
 73
     2
 40
5.0
 49
2.5
 49
-2.5
  0
LTYPE
  2
DASHED3
 70
    64
  3
------  ------  ------  ------  
 72
    65
 73
     2
 40
5.0
 49
3.75
 49
-1.25
  0
LTYPE
  2
CENTER1
 70
    64
  3
----- - ----- - ----- - ----- - 
 72
    65
 73
     4
 40
10.0
 49
6.25
 49
-1.25
 49
1.25
 49
-1.25
  0
LTYPE
  2
CENTER2
 70
    64
  3
----------  --  ----------  --  
 72
    65
 73
     4
 40
20.0
 49
12.5
 49
-2.5
 49
2.5
 49
-2.5
  0
LTYPE
  2
PHANTOM1
 70
    64
  3
--- - - --- - - --- - - --- - - 
 72
    65
 73
     6
 40
10.0
 49
3.25
 49
-1.25
 49
1.25
 49
-1.25
 49
1.25
 49
-1.25
  0
LTYPE
  2
PHANTOM2
 70
    64
  3
--------  -  -  --------  -  -  
 72
    65
 73
     6
 40
20.0
 49
10.0
 49
-2.5
 49
1.25
 49
-2.5
 49
1.25
 49
-2.5
  0
LTYPE
  2
DOT
 70
    64
  3
-   -   -   -   -   -   -   -   
 72
    65
 73
     2
 40
2.5
 49
0.625
 49
-1.875
  0
LTYPE
  2
DUMMY
 70
    64
  3
ダミー
 72
    65
 73
     0
 40
0.0
  0
LTYPE
  2
RAND1
 70
    64
  3
ランダム線1
 72
    65
 73
     4
 40
10.0
 49
1.0
 49
-2.0
 49
3.0
 49
-4.0
  0
LTYPE
  2
RAND2
 70
    64
  3
ランダム線2
 72
    65
 73
     4
 40
14.0
 49
2.0
 49
-3.0
 49
4.0
 49
-5.0
  0
LTYPE
  2
RAND3
 70
    64
  3
ランダム線3
 72
    65
 73
     4
 40
18.0
 49
3.0
 49
-4.0
 49
5.0
 49
-6.0
  0
LTYPE
  2
RAND4
 70
    64
  3
ランダム線4
 72
    65
 73
     4
 40
22.0
 49
4.0
 49
-5.0
 49
6.0
 49
-7.0
  0
LTYPE
  2
RAND5
 70
    64
  3
ランダム線5
 72
    65
 73
     4
 40
26.0
 49
5.0
 49
-6.0
 49
7.0
 49
-8.0
  0
LTYPE
  2
LONG1
 70
    64
  3
----------  --  ----------  --  
 72
    65
 73
     4
 40
40.0
 49
32.5
 49
-2.5
 49
2.5
 49
-2.5
  0
LTYPE
  2
LONG2
 70
    64
  3
--------  -  -  --------  -  -  
 72
    65
 73
     6
 40
40.0
 49
30.0
 49
-2.5
 49
1.25
 49
-2.5
 49
1.25
 49
-2.5
  0
LTYPE
  2
LONG3
 70
    64
  3
+++++++++++++++..+++++++++++++++
 72
    65
 73
     2
 40
40.0
 49
37.5
 49
-2.5
  0
LTYPE
  2
LONG4
 70
    64
  3
+++++++++++++++..+++++++++++++++
 72
    65
 73
     2
 40
80.0
 49
75.0
 49
-5.0
  0
LTYPE
  2
LONG5
 70
    64
  3
----------  --  ----------  --  
 72
    65
 73
     4
 40
60.0
 49
37.5
 49
-7.5
 49
7.5
 49
-7.5
  0
LTYPE
  2
dashed
 70
   64
  3
-------   -------------   ------
 72
   65
 73
    2
 40
7.5
 49
6
 49
-1.5
  0
LTYPE
  2
dashed_spaced
 70
   64
  3
----        --------        ----
 72
   65
 73
    2
 40
12
 49
6
 49
-6
  0
LTYPE
  2
long_dashed_dotted
 70
   64
  3
------------- --- --------------
 72
   65
 73
    4
 40
15.25
 49
12
 49
-1.5
 49
0.25
 49
-1.5
  0
LTYPE
  2
long_dashed_double-dotted
 70
   64
  3
----------- --- --- ------------
 72
   65
 73
    6
 40
17
 49
12
 49
-1.5
 49
0.25
 49
-1.5
 49
0.25
 49
-1.5
  0
LTYPE
  2
long_dashed_triplicate-dotted
 70
   64
  3
--------- --- --- --- ----------
 72
   65
 73
    8
 40
18.75
 49
12
 49
-1.5
 49
0.25
 49
-1.5
 49
0.25
 49
-1.5
 49
0.25
 49
-1.5
  0
LTYPE
  2
dotted
 70
   64
  3
   -       -       -       -    
 72
   65
 73
    2
 40
1.75
 49
0.25
 49
-1.5
  0
LTYPE
  2
chain
 70
   64
  3
-------------- -- --------------
 72
   65
 73
    4
 40
18.5
 49
12
 49
-1.5
 49
3.5
 49
-1.5
  0
LTYPE
  2
chain_double_dash
 70
   64
  3
------------ -- -- -------------
 72
   65
 73
    6
 40
23.5
 49
12
 49
-1.5
 49
3.5
 49
-1.5
 49
3.5
 49
-1.5
  0
LTYPE
  2
dashed_dotted
 70
   64
  3
-----------     -     ----------
 72
   65
 73
    4
 40
9.25
 49
6
 49
-1.5
 49
0.25
 49
-1.5
  0
LTYPE
  2
double-dashed_dotted
 70
   64
  3
------   -----------   -   -----
 72
   65
 73
    6
 40
16.75
 49
6
 49
-1.5
 49
6
 49
-1.5
 49
0.25
 49
-1.5
  0
LTYPE
  2
dashed_double-dotted
 70
   64
  3
---------    -    -    ---------
 72
   65
 73
    6
 40
11
 49
6
 49
-1.5
 49
0.25
 49
-1.5
 49
0.25
 49
-1.5
  0
LTYPE
  2
double-dashed_double-dotted
 70
   64
  3
-----   ---------   -   -   ----
 72
   65
 73
    8
 40
18.5
 49
6
 49
-1.5
 49
6
 49
-1.5
 49
0.25
 49
-1.5
 49
0.25
 49
-1.5
  0
LTYPE
  2
dashed_triplicate-dotted
 70
   64
  3
-------    -    -    -    ------
 72
   65
 73
    8
 40
12.75
 49
6
 49
-1.5
 49
0.25
 49
-1.5
 49
0.25
 49
-1.5
 49
0.25
 49
-1.5
  0
LTYPE
  2
double-dashed_triplicate-dotted
 70
   64
  3
-----  ---------  -  -  -  -----
 72
   65
 73
   10
 40
20.25
 49
6
 49
-1.5
 49
6
 49
-1.5
 49
0.25
 49
-1.5
 49
0.25
 49
-1.5
 49
0.25
 49
-1.5
  0
LTYPE
  2
undefined
 70
   64
  3
--------------------------------
 72
   65
 73
    0
 40
0
  0
ENDTAB
  0
TABLE
  2
STYLE
  5
3
100
AcDbSymbolTable
 70
     1
  0
STYLE
  5
10
100
AcDbSymbolTableRecord
100
AcDbTextStyleTableRecord
  2
STANDARD
 70
     0
 40
0.0
 41
1.0
 50
0.0
 71
     0
 42
0.2
  3
txt
  4
bigfont.shx
  0
STYLE
  5
26
100
AcDbSymbolTableRecord
100
AcDbTextStyleTableRecord
  2
TATEGAKI
 70
    68
 40
0.0
 41
1.0
 50
0.0
 71
     0
 42
1.0
  3
txt
  4
bigfont.shx
  0
ENDTAB
  0
TABLE
  2
LAYER
 70
   10
  0
LAYER
  2
_0-0_計極細
 70
   64
 62
    7
  6
CONTINUOUS
  0
LAYER
  2
_0-1_計細線
 70
   64
 62
    7
  6
CONTINUOUS
  0
LAYER
  2
_0-5_寸法線
 70
   64
 62
    7
  6
CONTINUOUS
  0
LAYER
  2
_0-7_枠細線
 70
   64
 62
    7
  6
CONTINUOUS
  0
LAYER
  2
_0-8_枠中線
 70
   64
 62
    7
  6
CONTINUOUS
  0
LAYER
  2
_0-9_枠極太
 70
   64
 62
    7
  6
CONTINUOUS
  0
LAYER
  2
_0-a_極細3
 70
   64
 62
    7
  6
CONTINUOUS
  0
LAYER
  2
_0-b_細線3
 70
   64
 62
    7
  6
CONTINUOUS
  0
LAYER
  2
_0-d_寸法3
 70
   64
 62
    7
  6
CONTINUOUS
  0
LAYER
  2
ADD_LINE
 70
   64
 62
    7
  6
CONTINUOUS
  0
ENDTAB
  0
ENDSEC
  0
SECTION
  2
BLOCKS
  0
ENDSEC
  0
SECTION
  2
ENTITIES
  0
LINE
  8
_0-7_枠細線
  6
CONTINUOUS
 62
    5
 10
1185
 20
180
 11
1185
 21
100
  0
TEXT
  8
_0-7_枠細線
 62
    5
 10
937.5
 20
97.5
 40
17.5
 41
1
 50
0
  1
備考
  7
TATEGAKI
  0
TEXT
  8
_0-7_枠細線
 62
    5
 10
937.5
 20
137.5
 40
17.5
 41
1
 50
0
  1
品番
  7
TATEGAKI
  0
TEXT
  8
_0-7_枠細線
 62
    5
 10
937.5
 20
177.5
 40
17.5
 41
1
 50
0
  1
品名
  7
TATEGAKI
  0
LINE
  8
_0-7_枠細線
  6
CONTINUOUS
 62
    5
 10
1185
 20
140
 11
925
 21
140
  0
LINE
  8
_0-7_枠細線
  6
CONTINUOUS
 62
    5
 10
950
 20
180
 11
950
 21
60
  0
LINE
  8
_0-8_枠中線
  6
CONTINUOUS
 62
    5
 10
1425
 20
180
 11
925
 21
180
  0
LINE
  8
_0-8_枠中線
  6
CONTINUOUS
 62
    5
 10
925
 20
180
 11
925
 21
60
  0
LINE
  8
_0-7_枠細線
  6
CONTINUOUS
 62
    5
 10
1245
 20
180
 11
1245
 21
60
  0
TEXT
  8
_0-7_枠細線
 62
    5
 10
1192.5
 20
160
 40
15
 41
1
 50
0
  1
縮　尺
  0
LINE
  8
_0-7_枠細線
  6
CONTINUOUS
 62
    5
 10
1185
 20
155
 11
1245
 21
155
  0
LINE
  8
_0-7_枠細線
  6
CONTINUOUS
 62
    5
 10
1245
 20
100
 11
925
 21
100
  0
LINE
  8
_0-7_枠細線
  6
CONTINUOUS
 62
    5
 10
1425
 20
90
 11
1245
 21
90
  0
LINE
  8
_0-7_枠細線
  6
CONTINUOUS
 62
    5
 10
1245
 20
120
 11
1425
 21
120
  0
LINE
  8
_0-7_枠細線
  6
CONTINUOUS
 62
    5
 10
1425
 20
140
 11
1245
 21
140
  0
TEXT
  8
_0-7_枠細線
 62
    5
 10
1255
 20
147.5
 40
25
 41
0.8
 50
0
  1
株式会社シマブン
  0
TEXT
  8
_0-7_枠細線
 62
    5
 10
1252.5
 20
60
 40
15
 41
1
 50
0
  1
年月日
  0
TEXT
  8
_0-7_枠細線
 62
    5
 10
1252.5
 20
75
 40
15
 41
1
 50
0
  1
作　成
  0
TEXT
  8
_0-7_枠細線
 62
    5
 10
1256.25
 20
122.5
 40
15
 41
1
 50
0
  1
承 認
  0
LINE
  8
_0-7_枠細線
  6
CONTINUOUS
 62
    5
 10
1305
 20
140
 11
1305
 21
60
  0
TEXT
  8
_0-7_枠細線
 62
    5
 10
1316.25
 20
122.5
 40
15
 41
1
 50
0
  1
検 図
  0
LINE
  8
_0-7_枠細線
  6
CONTINUOUS
 62
    5
 10
1365
 20
140
 11
1365
 21
90
  0
TEXT
  8
_0-7_枠細線
 62
    5
 10
1375
 20
95
 40
20
 41
1
 50
0
  1
藤戸
  0
TEXT
  8
_0-7_枠細線
 62
    5
 10
1376.25
 20
122.5
 40
15
 41
1
 50
0
  1
設 計
  0
TEXT
  8
_0-7_枠細線
 62
    5
 10
1255
 20
95
 40
20
 41
1
 50
0
  1
隠塚
  0
TEXT
  8
_0-7_枠細線
 62
    5
 10
1315
 20
95
 40
20
 41
1
 50
0
  1
渋田
  0
TEXT
  8
_0-7_枠細線
 62
    5
 10
1193.9999999999998
 20
117.5
 40
20
 41
0.7000000000000001
 50
0
  1
１：５
  0
TEXT
  8
_0-7_枠細線
 62
    5
 10
960.5
 20
69.999999999999858
 40
20
 41
0.5999999999999998
 50
0
  1
品番・色については表参照のこと
  0
TEXT
  8
_0-7_枠細線
 62
    5
 10
1309.9999999999998
 20
67.499999999999929
 40
15.000000000000009
 41
0.6666666666666665
 50
0
  1
２０１０年０３月０１日
  0
TEXT
  8
_0-7_枠細線
 62
    5
 10
960.5
 20
158.74999999999994
 40
20.000000000000007
 41
0.5999999999999998
 50
0
  1
セーフティグレーチングＨ２５タイプ
  0
TEXT
  8
_0-7_枠細線
 62
    5
 10
1128.5
 20
141.25
 40
20.000000000000007
 41
0.5999999999999998
 50
0
  1
集水マス
  0
LINE
  8
_0-7_枠細線
  6
CONTINUOUS
 62
    5
 10
1425
 20
942.5
 11
890
 21
942.5
  0
TEXT
  8
_0-7_枠細線
 62
    5
 10
895
 20
945
 40
12.5
 41
1
 50
0
  1
記号
  0
TEXT
  8
_0-7_枠細線
 62
    5
 10
996.875
 20
945
 40
12.5
 41
1
 50
0
  1
訂　 正　 記　 事
  0
TEXT
  8
_0-7_枠細線
 62
    5
 10
1181.25
 20
945
 40
12.5
 41
1
 50
0
  1
訂 正 年 月 日
  0
TEXT
  8
_0-7_枠細線
 62
    5
 10
1306.25
 20
945
 40
12.5
 41
1
 50
0
  1
備　　　　　考
  0
LINE
  8
_0-7_枠細線
  6
CONTINUOUS
 62
    5
 10
1425
 20
925
 11
890
 21
925
  0
TEXT
  8
_0-7_枠細線
 62
    5
 10
938.85037037037023
 20
927.5
 40
12.5
 41
1
 50
0
  1
品番・色記号変更
  0
TEXT
  8
_0-7_枠細線
 62
    5
 10
1180
 20
927.5
 40
12.5
 41
0.7199999999999999
 50
0
  1
２０１３．０３．１３
  0
LINE
  8
_0-7_枠細線
  6
CONTINUOUS
 62
    5
 10
1425
 20
907.5
 11
890
 21
907.5
  0
LINE
  8
_0-7_枠細線
  6
CONTINUOUS
 62
    5
 10
1425
 20
890
 11
890
 21
890
  0
TEXT
  8
_0-7_枠細線
 62
    5
 10
938.85037037037023
 20
910
 40
12.5
 41
1
 50
0
  1
クロスバーピッチ変更
  0
TEXT
  8
_0-7_枠細線
 62
    5
 10
938.85037037037023
 20
892.5
 40
12.5
 41
1
 50
0
  1
取外具形状変更
  0
TEXT
  8
_0-7_枠細線
 62
    5
 10
1180
 20
910
 40
12.5
 41
0.7199999999999999
 50
0
  1
２０１５．１１．２０
  0
LINE
  8
_0-7_枠細線
  6
CONTINUOUS
 62
    5
 10
915
 20
908.94233397174685
 11
907.5
 21
923.94233397174685
  0
LINE
  8
_0-7_枠細線
  6
CONTINUOUS
 62
    5
 10
900
 20
908.94233397174685
 11
915
 21
908.94233397174685
  0
LINE
  8
_0-7_枠細線
  6
CONTINUOUS
 62
    5
 10
907.5
 20
923.94233397174685
 11
900
 21
908.94233397174685
  0
TEXT
  8
_0-7_枠細線
 62
    5
 10
902.36515126814822
 20
908.63533172636664
 40
12.5
 41
0.8
 50
0
  1
１
  0
TEXT
  8
_0-7_枠細線
 62
    5
 10
902.36515126814822
 20
891.13533172636664
 40
12.5
 41
0.8
 50
0
  1
２
  0
LINE
  8
_0-7_枠細線
  6
CONTINUOUS
 62
    5
 10
1425
 20
872.5
 11
890
 21
872.5
  0
LINE
  8
_0-7_枠細線
  6
CONTINUOUS
 62
    5
 10
907.5
 20
906.44233397174685
 11
900
 21
891.44233397174685
  0
LINE
  8
_0-7_枠細線
  6
CONTINUOUS
 62
    5
 10
900
 20
891.44233397174685
 11
915
 21
891.44233397174685
  0
LINE
  8
_0-7_枠細線
  6
CONTINUOUS
 62
    5
 10
915
 20
891.44233397174685
 11
907.5
 21
906.44233397174685
  0
TEXT
  8
_0-7_枠細線
 62
    5
 10
902.36515126814822
 20
873.39465008156549
 40
12.5
 41
0.8
 50
0
  1
３
  0
TEXT
  8
_0-7_枠細線
 62
    5
 10
1180
 20
875
 40
12.5
 41
0.7199999999999999
 50
0
  1
２０１７．０４．０１
  0
LINE
  8
_0-7_枠細線
  6
CONTINUOUS
 62
    5
 10
915
 20
856.44233397174685
 11
907.5
 21
871.44233397174685
  0
LINE
  8
_0-7_枠細線
  6
CONTINUOUS
 62
    5
 10
900
 20
856.44233397174685
 11
915
 21
856.44233397174685
  0
LINE
  8
_0-7_枠細線
  6
CONTINUOUS
 62
    5
 10
907.5
 20
871.44233397174685
 11
900
 21
856.44233397174685
  0
TEXT
  8
_0-7_枠細線
 62
    5
 10
1180
 20
857.5
 40
12.5
 41
0.7199999999999999
 50
0
  1
２０１７．０４．０１
  0
TEXT
  8
_0-7_枠細線
 62
    5
 10
938.85037037037023
 20
857.5
 40
12.5
 41
1
 50
0
  1
ブラウン色（Ｃ）追加
  0
LINE
  8
_0-7_枠細線
  6
CONTINUOUS
 62
    5
 10
1425
 20
855
 11
890
 21
855
  0
LINE
  8
_0-7_枠細線
  6
CONTINUOUS
 62
    5
 10
907.5
 20
888.94233397174685
 11
900
 21
873.94233397174685
  0
LINE
  8
_0-7_枠細線
  6
CONTINUOUS
 62
    5
 10
900
 20
873.94233397174685
 11
915
 21
873.94233397174685
  0
LINE
  8
_0-7_枠細線
  6
CONTINUOUS
 62
    5
 10
915
 20
873.94233397174685
 11
907.5
 21
888.94233397174685
  0
TEXT
  8
_0-7_枠細線
 62
    5
 10
902.36515126814822
 20
855.49351400689704
 40
12.5
 41
0.8
 50
0
  1
４
  0
TEXT
  8
_0-7_枠細線
 62
    5
 10
938.85037037037023
 20
875
 40
12.5
 41
1
 50
0
  1
取外具形状変更
  0
TEXT
  8
_0-7_枠細線
 62
    5
 10
1180
 20
892.5
 40
12.5
 41
0.7199999999999999
 50
0
  1
２０１５．１１．２０
  0
LINE
  8
_0-9_枠極太
  6
CONTINUOUS
 62
    5
 10
60
 20
60
 11
60
 21
960
  0
LINE
  8
_0-9_枠極太
  6
CONTINUOUS
 62
    5
 10
60
 20
960
 11
1425
 21
960
  0
LINE
  8
_0-9_枠極太
  6
CONTINUOUS
 62
    5
 10
1425
 20
960
 11
1425
 21
60
  0
LINE
  8
_0-9_枠極太
  6
CONTINUOUS
 62
    5
 10
1425
 20
60
 11
60
 21
60
  0
LINE
  8
_0-7_枠細線
  6
CONTINUOUS
 62
    5
 10
915
 20
838.94233397174685
 11
907.5
 21
853.94233397174685
  0
LINE
  8
_0-7_枠細線
  6
CONTINUOUS
 62
    5
 10
900
 20
838.94233397174685
 11
915
 21
838.94233397174685
  0
LINE
  8
_0-7_枠細線
  6
CONTINUOUS
 62
    5
 10
907.5
 20
853.94233397174685
 11
900
 21
838.94233397174685
  0
LINE
  8
_0-7_枠細線
  6
CONTINUOUS
 62
    5
 10
1425
 20
837.5
 11
890
 21
837.5
  0
TEXT
  8
_0-7_枠細線
 62
    5
 10
1180
 20
840
 40
12.5
 41
0.7199999999999999
 50
0
  1
２０１９．０９．０１
  0
TEXT
  8
_0-7_枠細線
 62
    5
 10
902.36515126814822
 20
837.99351400689704
 40
12.5
 41
0.8
 50
0
  1
５
  0
TEXT
  8
_0-7_枠細線
 62
    5
 10
938.85037037037023
 20
840
 40
12.5
 41
1
 50
0
  1
アンカー材質･厚み変更
  0
LINE
  8
_0-7_枠細線
  6
CONTINUOUS
 62
    5
 10
1275
 20
837.5
 11
1275
 21
959.99999999999909
  0
LINE
  8
_0-7_枠細線
  6
CONTINUOUS
 62
    5
 10
1175
 20
837.5
 11
1175
 21
959.99999999999909
  0
LINE
  8
_0-7_枠細線
  6
CONTINUOUS
 62
    5
 10
925
 20
837.5
 11
925
 21
959.99999999999909
  0
LINE
  8
_0-7_枠細線
  6
CONTINUOUS
 62
    5
 10
890
 20
837.5
 11
890
 21
959.99999999999909
  0
TEXT
  8
_0-7_枠細線
 62
    5
 10
960.5
 20
109.99999999999993
 40
20.000000000000007
 41
0.5999999999999998
 50
0
  1
ＧＲＳ－２５Ｋ２５０
  0
LINE
  8
_0-7_枠細線
  6
CONTINUOUS
 62
    5
 10
924.99999999999989
 20
323.73000000000059
 11
1225.0000000000005
 21
323.73000000000059
  0
LINE
  8
_0-7_枠細線
  6
CONTINUOUS
 62
    5
 10
924.99999999999989
 20
348.73000000000047
 11
1225.0000000000005
 21
348.73000000000047
  0
LINE
  8
_0-7_枠細線
  6
CONTINUOUS
 62
    5
 10
924.99999999999989
 20
373.73000000000047
 11
1225.0000000000005
 21
373.73000000000047
  0
LINE
  8
_0-7_枠細線
  6
CONTINUOUS
 62
    5
 10
924.99999999999989
 20
398.73000000000076
 11
1225.0000000000005
 21
398.73000000000076
  0
TEXT
  8
_0-7_枠細線
 62
    5
 10
1048.0000000000005
 20
403.73000000000076
 40
15.000000000000002
 41
0.5999999999999999
 50
0
  1
ライトグレー
  0
LINE
  8
_0-7_枠細線
  6
CONTINUOUS
 62
    5
 10
924.99999999999989
 20
423.73000000000047
 11
1225.0000000000005
 21
423.73000000000047
  0
TEXT
  8
_0-7_枠細線
 62
    5
 10
1057.0000000000005
 20
428.73000000000047
 40
15.000000000000002
 41
0.5999999999999999
 50
0
  1
ベージュ
  0
LINE
  8
_0-7_枠細線
  6
CONTINUOUS
 62
    5
 10
924.99999999999989
 20
448.73000000000047
 11
1225.0000000000005
 21
448.73000000000047
  0
TEXT
  8
_0-7_枠細線
 62
    5
 10
1069.0000000000005
 20
453.73000000000047
 40
15.000000000000002
 41
0.8
 50
0
  1
色
  0
TEXT
  8
_0-7_枠細線
 62
    5
 10
951.00000000000045
 20
453.73000000000047
 40
15.000000000000002
 41
0.8
 50
0
  1
品　　番
  0
TEXT
  8
_0-7_枠細線
 62
    5
 10
1151.0000000000009
 20
453.73000000000047
 40
15.000000000000002
 41
0.8
 50
0
  1
備　　考
  0
LINE
  8
_0-7_枠細線
  6
CONTINUOUS
 62
    5
 10
924.99999999999989
 20
473.73000000000047
 11
1225.0000000000005
 21
473.73000000000047
  0
TEXT
  8
_0-7_枠細線
 62
    5
 10
1013.75
 20
478.73000000000047
 40
17.5
 41
1
 50
0
  1
品番表
  0
LINE
  8
_0-7_枠細線
  6
CONTINUOUS
 62
    5
 10
924.99999999999989
 20
248.73000000000033
 11
1225.0000000000005
 21
248.73000000000033
  0
LINE
  8
_0-7_枠細線
  6
CONTINUOUS
 62
    5
 10
924.99999999999989
 20
273.73000000000059
 11
1225.0000000000005
 21
273.73000000000059
  0
LINE
  8
_0-7_枠細線
  6
CONTINUOUS
 62
    5
 10
924.99999999999989
 20
298.7300000000007
 11
1225.0000000000005
 21
298.7300000000007
  0
TEXT
  8
_0-7_枠細線
 62
    5
 10
1057.0000000000009
 20
378.7300000000007
 40
15.000000000000002
 41
0.5999999999999999
 50
0
  1
ホワイト
  0
TEXT
  8
_0-7_枠細線
 62
    5
 10
1061.5000000000005
 20
353.73000000000047
 40
15.000000000000002
 41
0.5999999999999999
 50
0
  1
ピンク
  0
TEXT
  8
_0-7_枠細線
 62
    5
 10
1061.5000000000005
 20
328.73000000000047
 40
15.000000000000002
 41
0.5999999999999999
 50
0
  1
ブルー
  0
TEXT
  8
_0-7_枠細線
 62
    5
 10
1048
 20
303.73000000000059
 40
15.000000000000002
 41
0.5999999999999999
 50
0
  1
ダークグレー
  0
TEXT
  8
_0-7_枠細線
 62
    5
 10
1061.5000000000005
 20
278.7300000000007
 40
15.000000000000002
 41
0.5999999999999999
 50
0
  1
ウッド
  0
LINE
  8
_0-7_枠細線
  6
CONTINUOUS
 62
    5
 10
924.99999999999989
 20
223.73000000000002
 11
1225.0000000000005
 21
223.73000000000002
  0
TEXT
  8
_0-7_枠細線
 62
    5
 10
1057.0000000000009
 20
228.73000000000008
 40
15.000000000000002
 41
0.5999999999999999
 50
0
  1
ブラック
  0
LINE
  8
_0-7_枠細線
  6
CONTINUOUS
 62
    5
 10
1225.0000000000005
 20
473.73000000000047
 11
1225.0000000000005
 21
223.73000000000002
  0
LINE
  8
_0-7_枠細線
  6
CONTINUOUS
 62
    5
 10
1125
 20
473.73000000000047
 11
1125
 21
223.73000000000002
  0
LINE
  8
_0-7_枠細線
  6
CONTINUOUS
 62
    5
 10
1025.0000000000005
 20
473.73000000000047
 11
1025.0000000000005
 21
223.73000000000002
  0
LINE
  8
_0-7_枠細線
  6
CONTINUOUS
 62
    5
 10
924.99999999999989
 20
473.73000000000047
 11
924.99999999999989
 21
223.73000000000002
  0
TEXT
  8
_0-7_枠細線
 62
    5
 10
1057.0000000000005
 20
253.73000000000033
 40
15.000000000000002
 41
0.5999999999999999
 50
0
  1
ブラウン
  0
LINE
  8
_0-7_枠細線
  6
CONTINUOUS
 62
    5
 10
918.52762466555521
 20
254.30604122127349
 11
911.02762466555521
 21
269.30604122127352
  0
LINE
  8
_0-7_枠細線
  6
CONTINUOUS
 62
    5
 10
903.52762466555521
 20
254.30604122127349
 11
918.52762466555521
 21
254.30604122127349
  0
LINE
  8
_0-7_枠細線
  6
CONTINUOUS
 62
    5
 10
911.02762466555521
 20
269.30604122127352
 11
903.52762466555521
 21
254.30604122127349
  0
TEXT
  8
_0-7_枠細線
 62
    5
 10
905.89277593370343
 20
253.3572212564236
 40
12.5
 41
0.8
 50
0
  1
４
  0
LINE
  8
_0-7_枠細線
  6
CONTINUOUS
 62
    5
 10
1270.7300000000005
 20
393.73000000000059
 11
1270.7300000000005
 21
473.7300000000007
  0
TEXT
  8
_0-7_枠細線
 62
    5
 10
1293.2300000000007
 20
451.2300000000007
 40
15.000000000000002
 41
1
 50
0
  1
耐荷重
  0
TEXT
  8
_0-7_枠細線
 62
    5
 10
1285.7300000000007
 20
421.23000000000059
 40
15.000000000000002
 41
1
 50
0
  1
3.5kN/㎡
  0
TEXT
  8
_0-7_枠細線
 62
    5
 10
1278.2300000000005
 20
401.23000000000059
 40
15.000000000000002
 41
1
 50
0
  1
（歩道用）
  0
LINE
  8
_0-7_枠細線
  6
CONTINUOUS
 62
    5
 10
1360.7300000000007
 20
393.73000000000059
 11
1360.7300000000007
 21
473.7300000000007
  0
LINE
  8
_0-7_枠細線
  6
CONTINUOUS
 62
    5
 10
1270.7300000000005
 20
393.73000000000059
 11
1360.7300000000007
 21
393.73000000000059
  0
LINE
  8
_0-7_枠細線
  6
CONTINUOUS
 62
    5
 10
1270.7300000000005
 20
443.7300000000007
 11
1360.7300000000007
 21
443.7300000000007
  0
LINE
  8
_0-7_枠細線
  6
CONTINUOUS
 62
    5
 10
1270.7300000000005
 20
473.7300000000007
 11
1360.7300000000007
 21
473.7300000000007
  0
LINE
  8
_0-5_寸法線
  6
CONTINUOUS
 62
    7
 10
576.71773093070192
 20
499.2973512508031
 11
583.78879874256745
 21
506.36841906266852
  0
LINE
  8
_0-5_寸法線
  6
CONTINUOUS
 62
    7
 10
576.71773093070192
 20
499.2973512508031
 11
586.37698919359264
 21
501.88554170182834
  0
LINE
  8
_0-5_寸法線
  6
CONTINUOUS
 62
    7
 10
576.71773093070192
 20
499.2973512508031
 11
618.11773093070246
 21
523.19965239525368
  0
LINE
  8
_0-5_寸法線
  6
CONTINUOUS
 62
    7
 10
618.11773093070246
 20
523.19965239525368
 11
726.11773093070258
 21
523.19965239525368
  0
TEXT
  8
_0-5_寸法線
 62
    7
 10
618.11773093070246
 20
523.19965239525368
 40
15
 41
0.8000000000000001
 50
0
  1
ＳＵＳアングル受枠
  0
LINE
  8
_0-1_計細線
  6
CONTINUOUS
 62
    3
 10
575.51795824097258
 20
427.60583080107978
 11
575.51795824097258
 21
681.60583080108142
  0
LINE
  8
_0-1_計細線
  6
CONTINUOUS
 62
    3
 10
321.51795824097189
 20
681.60583080108142
 11
321.51795824097189
 21
427.60583080107978
  0
LINE
  8
_0-5_寸法線
  6
CONTINUOUS
 62
    7
 10
308.51795824097195
 20
679.60583080108131
 11
263.51795824097167
 21
679.60583080108131
  0
LINE
  8
_0-5_寸法線
  6
CONTINUOUS
 62
    7
 10
268.51795824097167
 20
679.60583080108131
 11
271.10614869199696
 21
669.94657253819059
  0
LINE
  8
_0-5_寸法線
  6
CONTINUOUS
 62
    7
 10
268.51795824097167
 20
679.60583080108131
 11
265.92976778994654
 21
669.94657253819059
  0
LINE
  8
_0-5_寸法線
  6
CONTINUOUS
 62
    7
 10
308.51795824097195
 20
429.60583080108023
 11
263.51795824097167
 21
429.60583080108023
  0
LINE
  8
_0-5_寸法線
  6
CONTINUOUS
 62
    7
 10
268.51795824097167
 20
429.60583080108023
 11
265.92976778994654
 21
439.26508906397089
  0
LINE
  8
_0-5_寸法線
  6
CONTINUOUS
 62
    7
 10
268.51795824097167
 20
429.60583080108023
 11
271.10614869199696
 21
439.26508906397089
  0
LINE
  8
_0-5_寸法線
  6
CONTINUOUS
 62
    7
 10
268.51795824097167
 20
679.60583080108131
 11
268.51795824097167
 21
429.60583080108023
  0
TEXT
  8
_0-5_寸法線
 62
    7
 10
268.51795824097212
 20
543.35583080108086
 40
15
 41
1
 50
90
  1
250
  0
LINE
  8
_0-5_寸法線
  6
CONTINUOUS
 62
    7
 10
308.51795824097195
 20
424.60583080107983
 11
193.51795824097209
 21
424.60583080108023
  0
LINE
  8
_0-5_寸法線
  6
CONTINUOUS
 62
    7
 10
198.51795824097209
 20
424.60583080108023
 11
195.92976778994696
 21
434.26508906397089
  0
LINE
  8
_0-5_寸法線
  6
CONTINUOUS
 62
    7
 10
198.51795824097209
 20
424.60583080108023
 11
201.10614869199736
 21
434.26508906397089
  0
LINE
  8
_0-5_寸法線
  6
CONTINUOUS
 62
    7
 10
308.51795824097258
 20
684.60583080108177
 11
193.51795824097209
 21
684.60583080108222
  0
LINE
  8
_0-5_寸法線
  6
CONTINUOUS
 62
    7
 10
198.51795824097209
 20
684.60583080108222
 11
201.10614869199736
 21
674.9465725381915
  0
LINE
  8
_0-5_寸法線
  6
CONTINUOUS
 62
    7
 10
198.51795824097209
 20
684.60583080108222
 11
195.92976778994696
 21
674.9465725381915
  0
LINE
  8
_0-5_寸法線
  6
CONTINUOUS
 62
    7
 10
198.51795824097209
 20
424.60583080108023
 11
198.51795824097209
 21
684.60583080108222
  0
TEXT
  8
_0-5_寸法線
 62
    7
 10
198.51795824097209
 20
543.3558308010812
 40
15
 41
1
 50
89.999999999999815
  1
260
  0
LINE
  8
_0-5_寸法線
  6
CONTINUOUS
 62
    7
 10
233.51795824097209
 20
424.60583080107995
 11
236.1061486919973
 21
414.94657253818929
  0
LINE
  8
_0-5_寸法線
  6
CONTINUOUS
 62
    7
 10
233.51795824097209
 20
424.60583080107995
 11
230.92976778994688
 21
414.94657253818929
  0
LINE
  8
_0-5_寸法線
  6
CONTINUOUS
 62
    7
 10
308.51795824097195
 20
427.60583080107978
 11
228.51795824097209
 21
427.60583080108
  0
LINE
  8
_0-5_寸法線
  6
CONTINUOUS
 62
    7
 10
233.51795824097209
 20
399.60583080107995
 11
233.51795824097209
 21
427.60583080108
  0
TEXT
  8
_0-5_寸法線
 62
    7
 10
233.51795824097209
 20
402.95918897220986
 40
15
 41
1
 50
90
  1
3
  0
LINE
  8
_0-5_寸法線
  6
CONTINUOUS
 62
    7
 10
233.51795824097209
 20
427.60583080108
 11
230.92976778994696
 21
437.26508906397066
  0
LINE
  8
_0-5_寸法線
  6
CONTINUOUS
 62
    7
 10
233.51795824097209
 20
427.60583080108
 11
236.10614869199736
 21
437.26508906397066
  0
LINE
  8
_0-5_寸法線
  6
CONTINUOUS
 62
    7
 10
308.51795824097258
 20
681.60583080108177
 11
228.51795824097209
 21
681.60583080108199
  0
LINE
  8
_0-5_寸法線
  6
CONTINUOUS
 62
    7
 10
233.51795824097209
 20
681.60583080108199
 11
236.1061486919973
 21
671.94657253819116
  0
LINE
  8
_0-5_寸法線
  6
CONTINUOUS
 62
    7
 10
233.51795824097209
 20
681.60583080108199
 11
230.92976778994688
 21
671.94657253819116
  0
LINE
  8
_0-5_寸法線
  6
CONTINUOUS
 62
    7
 10
233.51795824097209
 20
427.60583080108
 11
233.51795824097209
 21
681.60583080108199
  0
TEXT
  8
_0-5_寸法線
 62
    7
 10
233.51795824097209
 20
543.35583080108086
 40
15
 41
1
 50
89.999999999999815
  1
254
  0
LINE
  8
_0-5_寸法線
  6
CONTINUOUS
 62
    7
 10
233.51795824097209
 20
684.60583080108199
 11
230.92976778994696
 21
694.2650890639726
  0
LINE
  8
_0-5_寸法線
  6
CONTINUOUS
 62
    7
 10
233.51795824097209
 20
684.60583080108199
 11
236.10614869199736
 21
694.2650890639726
  0
LINE
  8
_0-5_寸法線
  6
CONTINUOUS
 62
    7
 10
233.51795824097209
 20
681.60583080108199
 11
233.51795824097209
 21
709.60583080108199
  0
TEXT
  8
_0-5_寸法線
 62
    7
 10
233.51795824097209
 20
698.87159773133362
 40
15
 41
1
 50
90
  1
3
  0
LINE
  8
_0-1_計細線
  6
CONTINUOUS
 62
    3
 10
575.51795824097258
 20
681.60583080108142
 11
321.51795824097189
 21
681.60583080108142
  0
LINE
  8
_0-1_計細線
  6
CONTINUOUS
 62
    3
 10
321.51795824097189
 20
427.60583080107978
 11
575.51795824097258
 21
427.60583080107978
  0
LINE
  8
_0-1_計細線
  6
CONTINUOUS
 62
    3
 10
318.51795824097195
 20
424.60583080107972
 11
318.51795824097195
 21
684.60583080108131
  0
LINE
  8
_0-1_計細線
  6
CONTINUOUS
 62
    3
 10
318.51795824097195
 20
684.60583080108131
 11
578.51795824097258
 21
684.60583080108131
  0
LINE
  8
_0-1_計細線
  6
CONTINUOUS
 62
    3
 10
578.51795824097258
 20
684.60583080108131
 11
578.51795824097258
 21
424.60583080107972
  0
LINE
  8
_0-1_計細線
  6
CONTINUOUS
 62
    3
 10
578.51795824097258
 20
424.60583080107972
 11
318.51795824097195
 21
424.60583080107972
  0
LINE
  8
_0-0_計極細
  6
CONTINUOUS
 62
    2
 10
324.01795824097269
 20
526.30583080108272
 11
324.01795824097269
 21
531.90583080108263
  0
LINE
  8
_0-0_計極細
  6
CONTINUOUS
 62
    2
 10
337.01795824097269
 20
526.30583080108272
 11
337.01795824097269
 21
531.90583080108263
  0
LINE
  8
_0-0_計極細
  6
CONTINUOUS
 62
    2
 10
324.01795824097269
 20
548.90583080107899
 11
324.01795824097269
 21
543.30583080107863
  0
LINE
  8
_0-0_計極細
  6
CONTINUOUS
 62
    2
 10
337.01795824097269
 20
548.90583080107899
 11
337.01795824097269
 21
543.30583080107863
  0
LINE
  8
_0-0_計極細
  6
CONTINUOUS
 62
    2
 10
324.01795824097269
 20
565.9058308010799
 11
324.01795824097269
 21
560.30583080107954
  0
LINE
  8
_0-0_計極細
  6
CONTINUOUS
 62
    2
 10
337.01795824097269
 20
565.9058308010799
 11
337.01795824097269
 21
560.30583080107954
  0
LINE
  8
_0-0_計極細
  6
CONTINUOUS
 62
    2
 10
324.01795824097269
 20
582.90583080108036
 11
324.01795824097269
 21
577.30583080108045
  0
LINE
  8
_0-0_計極細
  6
CONTINUOUS
 62
    2
 10
337.01795824097269
 20
582.90583080108036
 11
337.01795824097269
 21
577.30583080108045
  0
LINE
  8
_0-0_計極細
  6
CONTINUOUS
 62
    2
 10
324.01795824097269
 20
668.20583080108077
 11
324.01795824097269
 21
662.30583080108113
  0
LINE
  8
_0-0_計極細
  6
CONTINUOUS
 62
    2
 10
337.01795824097269
 20
668.20583080108077
 11
337.01795824097269
 21
662.30583080108113
  0
LINE
  8
_0-0_計極細
  6
CONTINUOUS
 62
    2
 10
324.01795824097269
 20
441.00583080108208
 11
324.01795824097269
 21
446.90583080108217
  0
LINE
  8
_0-0_計極細
  6
CONTINUOUS
 62
    2
 10
337.01795824097269
 20
441.00583080108208
 11
337.01795824097269
 21
446.90583080108217
  0
LINE
  8
_0-0_計極細
  6
CENTER1
 62
    2
 10
330.51795824097263
 20
688.35655022554408
 11
330.51795824097263
 21
421.84800706006945
  0
LINE
  8
_0-0_計極細
  6
CONTINUOUS
 62
    2
 10
324.01795824097269
 20
599.90583080108081
 11
324.01795824097269
 21
594.3058308010809
  0
LINE
  8
_0-0_計極細
  6
CONTINUOUS
 62
    2
 10
337.01795824097269
 20
599.90583080108081
 11
337.01795824097269
 21
594.3058308010809
  0
LINE
  8
_0-0_計極細
  6
CONTINUOUS
 62
    2
 10
324.01795824097269
 20
616.90583080108172
 11
324.01795824097269
 21
611.30583080108136
  0
LINE
  8
_0-0_計極細
  6
CONTINUOUS
 62
    2
 10
337.01795824097269
 20
616.90583080108172
 11
337.01795824097269
 21
611.30583080108136
  0
LINE
  8
_0-0_計極細
  6
CONTINUOUS
 62
    2
 10
324.01795824097269
 20
633.90583080108263
 11
324.01795824097269
 21
628.30583080108227
  0
LINE
  8
_0-0_計極細
  6
CONTINUOUS
 62
    2
 10
337.01795824097269
 20
633.90583080108263
 11
337.01795824097269
 21
628.30583080108227
  0
LINE
  8
_0-0_計極細
  6
CONTINUOUS
 62
    2
 10
324.01795824097269
 20
650.9058308010832
 11
324.01795824097269
 21
645.30583080108318
  0
LINE
  8
_0-0_計極細
  6
CONTINUOUS
 62
    2
 10
337.01795824097269
 20
650.9058308010832
 11
337.01795824097269
 21
645.30583080108318
  0
LINE
  8
_0-0_計極細
  6
CONTINUOUS
 62
    2
 10
324.01795824097269
 20
509.30583080108227
 11
324.01795824097269
 21
514.90583080108217
  0
LINE
  8
_0-0_計極細
  6
CONTINUOUS
 62
    2
 10
337.01795824097269
 20
509.30583080108227
 11
337.01795824097269
 21
514.90583080108217
  0
LINE
  8
_0-0_計極細
  6
CONTINUOUS
 62
    2
 10
324.01795824097269
 20
492.30583080108141
 11
324.01795824097269
 21
497.90583080108178
  0
LINE
  8
_0-0_計極細
  6
CONTINUOUS
 62
    2
 10
337.01795824097269
 20
492.30583080108141
 11
337.01795824097269
 21
497.90583080108178
  0
LINE
  8
_0-0_計極細
  6
CONTINUOUS
 62
    2
 10
324.01795824097269
 20
475.30583080108045
 11
324.01795824097269
 21
480.90583080108081
  0
LINE
  8
_0-0_計極細
  6
CONTINUOUS
 62
    2
 10
337.01795824097269
 20
475.30583080108045
 11
337.01795824097269
 21
480.90583080108081
  0
LINE
  8
_0-0_計極細
  6
CONTINUOUS
 62
    2
 10
324.01795824097269
 20
458.30583080107999
 11
324.01795824097269
 21
463.90583080107996
  0
LINE
  8
_0-0_計極細
  6
CONTINUOUS
 62
    2
 10
337.01795824097269
 20
458.30583080107999
 11
337.01795824097269
 21
463.90583080107996
  0
LINE
  8
_0-0_計極細
  6
CONTINUOUS
 62
    2
 10
421.0179582409728
 20
526.30583080108272
 11
421.0179582409728
 21
531.90583080108263
  0
LINE
  8
_0-0_計極細
  6
CONTINUOUS
 62
    2
 10
434.0179582409728
 20
526.30583080108272
 11
434.0179582409728
 21
531.90583080108263
  0
LINE
  8
_0-0_計極細
  6
CONTINUOUS
 62
    2
 10
421.0179582409728
 20
548.90583080107899
 11
421.0179582409728
 21
543.30583080107863
  0
LINE
  8
_0-0_計極細
  6
CONTINUOUS
 62
    2
 10
434.0179582409728
 20
548.90583080107899
 11
434.0179582409728
 21
543.30583080107863
  0
LINE
  8
_0-0_計極細
  6
CONTINUOUS
 62
    2
 10
421.0179582409728
 20
582.90583080108036
 11
421.0179582409728
 21
577.30583080108045
  0
LINE
  8
_0-0_計極細
  6
CONTINUOUS
 62
    2
 10
434.0179582409728
 20
582.90583080108036
 11
434.0179582409728
 21
577.30583080108045
  0
LINE
  8
_0-0_計極細
  6
CONTINUOUS
 62
    2
 10
421.0179582409728
 20
668.20583080108077
 11
421.0179582409728
 21
662.30583080108113
  0
LINE
  8
_0-0_計極細
  6
CONTINUOUS
 62
    2
 10
434.0179582409728
 20
668.20583080108077
 11
434.0179582409728
 21
662.30583080108113
  0
LINE
  8
_0-0_計極細
  6
CONTINUOUS
 62
    2
 10
421.0179582409728
 20
441.00583080108208
 11
421.0179582409728
 21
446.90583080108217
  0
LINE
  8
_0-0_計極細
  6
CONTINUOUS
 62
    2
 10
434.0179582409728
 20
441.00583080108208
 11
434.0179582409728
 21
446.90583080108217
  0
LINE
  8
_0-0_計極細
  6
CENTER1
 62
    2
 10
427.5179582409728
 20
688.35655022554408
 11
427.5179582409728
 21
421.84800706006945
  0
LINE
  8
_0-0_計極細
  6
CONTINUOUS
 62
    2
 10
421.0179582409728
 20
599.90583080108081
 11
421.0179582409728
 21
594.3058308010809
  0
LINE
  8
_0-0_計極細
  6
CONTINUOUS
 62
    2
 10
434.0179582409728
 20
599.90583080108081
 11
434.0179582409728
 21
594.3058308010809
  0
LINE
  8
_0-0_計極細
  6
CONTINUOUS
 62
    2
 10
421.0179582409728
 20
616.90583080108172
 11
421.0179582409728
 21
611.30583080108136
  0
LINE
  8
_0-0_計極細
  6
CONTINUOUS
 62
    2
 10
434.0179582409728
 20
616.90583080108172
 11
434.0179582409728
 21
611.30583080108136
  0
LINE
  8
_0-0_計極細
  6
CONTINUOUS
 62
    2
 10
421.0179582409728
 20
633.90583080108263
 11
421.0179582409728
 21
628.30583080108227
  0
LINE
  8
_0-0_計極細
  6
CONTINUOUS
 62
    2
 10
434.0179582409728
 20
633.90583080108263
 11
434.0179582409728
 21
628.30583080108227
  0
LINE
  8
_0-0_計極細
  6
CONTINUOUS
 62
    2
 10
421.0179582409728
 20
650.9058308010832
 11
421.0179582409728
 21
645.30583080108318
  0
LINE
  8
_0-0_計極細
  6
CONTINUOUS
 62
    2
 10
434.0179582409728
 20
650.9058308010832
 11
434.0179582409728
 21
645.30583080108318
  0
LINE
  8
_0-0_計極細
  6
CONTINUOUS
 62
    2
 10
421.0179582409728
 20
509.30583080108227
 11
421.0179582409728
 21
514.90583080108217
  0
LINE
  8
_0-0_計極細
  6
CONTINUOUS
 62
    2
 10
434.0179582409728
 20
509.30583080108227
 11
434.0179582409728
 21
514.90583080108217
  0
LINE
  8
_0-0_計極細
  6
CONTINUOUS
 62
    2
 10
421.0179582409728
 20
492.30583080108141
 11
421.0179582409728
 21
497.90583080108178
  0
LINE
  8
_0-0_計極細
  6
CONTINUOUS
 62
    2
 10
434.0179582409728
 20
492.30583080108141
 11
434.0179582409728
 21
497.90583080108178
  0
LINE
  8
_0-0_計極細
  6
CONTINUOUS
 62
    2
 10
421.0179582409728
 20
475.30583080108045
 11
421.0179582409728
 21
480.90583080108081
  0
LINE
  8
_0-0_計極細
  6
CONTINUOUS
 62
    2
 10
434.0179582409728
 20
475.30583080108045
 11
434.0179582409728
 21
480.90583080108081
  0
LINE
  8
_0-0_計極細
  6
CONTINUOUS
 62
    2
 10
421.0179582409728
 20
458.30583080107999
 11
421.0179582409728
 21
463.90583080107996
  0
LINE
  8
_0-0_計極細
  6
CONTINUOUS
 62
    2
 10
434.0179582409728
 20
458.30583080107999
 11
434.0179582409728
 21
463.90583080107996
  0
LINE
  8
_0-1_計細線
  6
CONTINUOUS
 62
    3
 10
382.51795824097229
 20
560.75583080107981
 11
441.51795824097235
 21
560.75583080107981
  0
LINE
  8
_0-1_計細線
  6
CONTINUOUS
 62
    3
 10
441.51795824097235
 20
565.45583080107963
 11
382.51795824097229
 21
565.45583080107963
  0
LINE
  8
_0-1_計細線
  6
CONTINUOUS
 62
    3
 10
382.51795824097229
 20
565.45583080107963
 11
382.51795824097229
 21
560.75583080107981
  0
LINE
  8
_0-1_計細線
  6
CONTINUOUS
 62
    3
 10
431.51795824097235
 20
565.45583080107963
 11
431.51795824097235
 21
560.75583080107981
  0
LINE
  8
_0-1_計細線
  6
CONTINUOUS
 62
    3
 10
439.51795824097235
 20
565.45583080107963
 11
439.51795824097235
 21
560.75583080107981
  0
LINE
  8
_0-1_計細線
  6
CONTINUOUS
 62
    3
 10
441.51795824097235
 20
565.45583080107963
 11
441.51795824097235
 21
560.75583080107981
  0
LINE
  8
_0-1_計細線
  6
CONTINUOUS
 62
    3
 10
437.51795824097229
 20
565.45583080107963
 11
437.51795824097229
 21
560.75583080107981
  0
LINE
  8
_0-1_計細線
  6
CONTINUOUS
 62
    3
 10
435.51795824097235
 20
565.45583080107963
 11
435.51795824097235
 21
560.75583080107981
  0
LINE
  8
_0-1_計細線
  6
CONTINUOUS
 62
    3
 10
433.51795824097229
 20
565.45583080107963
 11
433.51795824097229
 21
560.75583080107981
  0
LINE
  8
_0-0_計極細
  6
CONTINUOUS
 62
    2
 10
421.0179582409728
 20
565.9058308010799
 11
421.0179582409728
 21
565.45583080107963
  0
LINE
  8
_0-0_計極細
  6
CONTINUOUS
 62
    2
 10
421.0179582409728
 20
560.75583080107981
 11
421.0179582409728
 21
560.30583080107954
  0
LINE
  8
_0-0_計極細
  6
CONTINUOUS
 62
    2
 10
434.0179582409728
 20
565.9058308010799
 11
434.0179582409728
 21
565.45583080107963
  0
LINE
  8
_0-0_計極細
  6
CONTINUOUS
 62
    2
 10
434.0179582409728
 20
560.75583080107981
 11
434.0179582409728
 21
560.30583080107954
  0
LINE
  8
_0-0_計極細
  6
CONTINUOUS
 62
    2
 10
463.0179582409728
 20
526.30583080108272
 11
463.0179582409728
 21
531.90583080108263
  0
LINE
  8
_0-0_計極細
  6
CONTINUOUS
 62
    2
 10
476.0179582409728
 20
526.30583080108272
 11
476.0179582409728
 21
531.90583080108263
  0
LINE
  8
_0-0_計極細
  6
CONTINUOUS
 62
    2
 10
463.0179582409728
 20
548.90583080107899
 11
463.0179582409728
 21
543.30583080107863
  0
LINE
  8
_0-0_計極細
  6
CONTINUOUS
 62
    2
 10
476.0179582409728
 20
548.90583080107899
 11
476.0179582409728
 21
543.30583080107863
  0
LINE
  8
_0-0_計極細
  6
CONTINUOUS
 62
    2
 10
463.0179582409728
 20
565.9058308010799
 11
463.0179582409728
 21
560.30583080107954
  0
LINE
  8
_0-0_計極細
  6
CONTINUOUS
 62
    2
 10
476.0179582409728
 20
565.9058308010799
 11
476.0179582409728
 21
560.30583080107954
  0
LINE
  8
_0-0_計極細
  6
CONTINUOUS
 62
    2
 10
463.0179582409728
 20
582.90583080108036
 11
463.0179582409728
 21
577.30583080108045
  0
LINE
  8
_0-0_計極細
  6
CONTINUOUS
 62
    2
 10
476.0179582409728
 20
582.90583080108036
 11
476.0179582409728
 21
577.30583080108045
  0
LINE
  8
_0-0_計極細
  6
CONTINUOUS
 62
    2
 10
463.0179582409728
 20
668.20583080108077
 11
463.0179582409728
 21
662.30583080108113
  0
LINE
  8
_0-0_計極細
  6
CONTINUOUS
 62
    2
 10
476.0179582409728
 20
668.20583080108077
 11
476.0179582409728
 21
662.30583080108113
  0
LINE
  8
_0-0_計極細
  6
CONTINUOUS
 62
    2
 10
463.0179582409728
 20
441.00583080108208
 11
463.0179582409728
 21
446.90583080108217
  0
LINE
  8
_0-0_計極細
  6
CONTINUOUS
 62
    2
 10
476.0179582409728
 20
441.00583080108208
 11
476.0179582409728
 21
446.90583080108217
  0
LINE
  8
_0-0_計極細
  6
CENTER1
 62
    2
 10
469.5179582409728
 20
688.35655022554408
 11
469.5179582409728
 21
421.84800706006945
  0
LINE
  8
_0-0_計極細
  6
CONTINUOUS
 62
    2
 10
463.0179582409728
 20
599.90583080108081
 11
463.0179582409728
 21
594.3058308010809
  0
LINE
  8
_0-0_計極細
  6
CONTINUOUS
 62
    2
 10
476.0179582409728
 20
599.90583080108081
 11
476.0179582409728
 21
594.3058308010809
  0
LINE
  8
_0-0_計極細
  6
CONTINUOUS
 62
    2
 10
463.0179582409728
 20
616.90583080108172
 11
463.0179582409728
 21
611.30583080108136
  0
LINE
  8
_0-0_計極細
  6
CONTINUOUS
 62
    2
 10
476.0179582409728
 20
616.90583080108172
 11
476.0179582409728
 21
611.30583080108136
  0
LINE
  8
_0-0_計極細
  6
CONTINUOUS
 62
    2
 10
463.0179582409728
 20
633.90583080108263
 11
463.0179582409728
 21
628.30583080108227
  0
LINE
  8
_0-0_計極細
  6
CONTINUOUS
 62
    2
 10
476.0179582409728
 20
633.90583080108263
 11
476.0179582409728
 21
628.30583080108227
  0
LINE
  8
_0-0_計極細
  6
CONTINUOUS
 62
    2
 10
463.0179582409728
 20
650.9058308010832
 11
463.0179582409728
 21
645.30583080108318
  0
LINE
  8
_0-0_計極細
  6
CONTINUOUS
 62
    2
 10
476.0179582409728
 20
650.9058308010832
 11
476.0179582409728
 21
645.30583080108318
  0
LINE
  8
_0-0_計極細
  6
CONTINUOUS
 62
    2
 10
463.0179582409728
 20
509.30583080108227
 11
463.0179582409728
 21
514.90583080108217
  0
LINE
  8
_0-0_計極細
  6
CONTINUOUS
 62
    2
 10
476.0179582409728
 20
509.30583080108227
 11
476.0179582409728
 21
514.90583080108217
  0
LINE
  8
_0-0_計極細
  6
CONTINUOUS
 62
    2
 10
463.0179582409728
 20
492.30583080108141
 11
463.0179582409728
 21
497.90583080108178
  0
LINE
  8
_0-0_計極細
  6
CONTINUOUS
 62
    2
 10
476.0179582409728
 20
492.30583080108141
 11
476.0179582409728
 21
497.90583080108178
  0
LINE
  8
_0-0_計極細
  6
CONTINUOUS
 62
    2
 10
463.0179582409728
 20
475.30583080108045
 11
463.0179582409728
 21
480.90583080108081
  0
LINE
  8
_0-0_計極細
  6
CONTINUOUS
 62
    2
 10
476.0179582409728
 20
475.30583080108045
 11
476.0179582409728
 21
480.90583080108081
  0
LINE
  8
_0-0_計極細
  6
CONTINUOUS
 62
    2
 10
463.0179582409728
 20
458.30583080107999
 11
463.0179582409728
 21
463.90583080107996
  0
LINE
  8
_0-0_計極細
  6
CONTINUOUS
 62
    2
 10
476.0179582409728
 20
458.30583080107999
 11
476.0179582409728
 21
463.90583080107996
  0
LINE
  8
_0-0_計極細
  6
CONTINUOUS
 62
    2
 10
560.01795824097258
 20
526.30583080108272
 11
560.01795824097258
 21
531.90583080108263
  0
LINE
  8
_0-0_計極細
  6
CONTINUOUS
 62
    2
 10
573.01795824097258
 20
526.30583080108272
 11
573.01795824097258
 21
531.90583080108263
  0
LINE
  8
_0-0_計極細
  6
CONTINUOUS
 62
    2
 10
560.01795824097258
 20
548.90583080107899
 11
560.01795824097258
 21
543.30583080107863
  0
LINE
  8
_0-0_計極細
  6
CONTINUOUS
 62
    2
 10
573.01795824097258
 20
548.90583080107899
 11
573.01795824097258
 21
543.30583080107863
  0
LINE
  8
_0-0_計極細
  6
CONTINUOUS
 62
    2
 10
560.01795824097258
 20
565.9058308010799
 11
560.01795824097258
 21
560.30583080107954
  0
LINE
  8
_0-0_計極細
  6
CONTINUOUS
 62
    2
 10
573.01795824097258
 20
565.9058308010799
 11
573.01795824097258
 21
560.30583080107954
  0
LINE
  8
_0-0_計極細
  6
CONTINUOUS
 62
    2
 10
560.01795824097258
 20
582.90583080108036
 11
560.01795824097258
 21
577.30583080108045
  0
LINE
  8
_0-0_計極細
  6
CONTINUOUS
 62
    2
 10
573.01795824097258
 20
582.90583080108036
 11
573.01795824097258
 21
577.30583080108045
  0
LINE
  8
_0-0_計極細
  6
CONTINUOUS
 62
    2
 10
560.01795824097258
 20
668.20583080108077
 11
560.01795824097258
 21
662.30583080108113
  0
LINE
  8
_0-0_計極細
  6
CONTINUOUS
 62
    2
 10
573.01795824097258
 20
668.20583080108077
 11
573.01795824097258
 21
662.30583080108113
  0
LINE
  8
_0-0_計極細
  6
CONTINUOUS
 62
    2
 10
560.01795824097258
 20
441.00583080108208
 11
560.01795824097258
 21
446.90583080108217
  0
LINE
  8
_0-0_計極細
  6
CONTINUOUS
 62
    2
 10
573.01795824097258
 20
441.00583080108208
 11
573.01795824097258
 21
446.90583080108217
  0
LINE
  8
_0-0_計極細
  6
CENTER1
 62
    2
 10
566.51795824097258
 20
688.35655022554408
 11
566.51795824097258
 21
421.84800706006945
  0
LINE
  8
_0-0_計極細
  6
CONTINUOUS
 62
    2
 10
560.01795824097258
 20
599.90583080108081
 11
560.01795824097258
 21
594.3058308010809
  0
LINE
  8
_0-0_計極細
  6
CONTINUOUS
 62
    2
 10
573.01795824097258
 20
599.90583080108081
 11
573.01795824097258
 21
594.3058308010809
  0
LINE
  8
_0-0_計極細
  6
CONTINUOUS
 62
    2
 10
560.01795824097258
 20
616.90583080108172
 11
560.01795824097258
 21
611.30583080108136
  0
LINE
  8
_0-0_計極細
  6
CONTINUOUS
 62
    2
 10
573.01795824097258
 20
616.90583080108172
 11
573.01795824097258
 21
611.30583080108136
  0
LINE
  8
_0-0_計極細
  6
CONTINUOUS
 62
    2
 10
560.01795824097258
 20
633.90583080108263
 11
560.01795824097258
 21
628.30583080108227
  0
LINE
  8
_0-0_計極細
  6
CONTINUOUS
 62
    2
 10
573.01795824097258
 20
633.90583080108263
 11
573.01795824097258
 21
628.30583080108227
  0
LINE
  8
_0-0_計極細
  6
CONTINUOUS
 62
    2
 10
560.01795824097258
 20
650.9058308010832
 11
560.01795824097258
 21
645.30583080108318
  0
LINE
  8
_0-0_計極細
  6
CONTINUOUS
 62
    2
 10
573.01795824097258
 20
650.9058308010832
 11
573.01795824097258
 21
645.30583080108318
  0
LINE
  8
_0-0_計極細
  6
CONTINUOUS
 62
    2
 10
560.01795824097258
 20
509.30583080108227
 11
560.01795824097258
 21
514.90583080108217
  0
LINE
  8
_0-0_計極細
  6
CONTINUOUS
 62
    2
 10
573.01795824097258
 20
509.30583080108227
 11
573.01795824097258
 21
514.90583080108217
  0
LINE
  8
_0-0_計極細
  6
CONTINUOUS
 62
    2
 10
560.01795824097258
 20
492.30583080108141
 11
560.01795824097258
 21
497.90583080108178
  0
LINE
  8
_0-0_計極細
  6
CONTINUOUS
 62
    2
 10
573.01795824097258
 20
492.30583080108141
 11
573.01795824097258
 21
497.90583080108178
  0
LINE
  8
_0-0_計極細
  6
CONTINUOUS
 62
    2
 10
560.01795824097258
 20
475.30583080108045
 11
560.01795824097258
 21
480.90583080108081
  0
LINE
  8
_0-0_計極細
  6
CONTINUOUS
 62
    2
 10
573.01795824097258
 20
475.30583080108045
 11
573.01795824097258
 21
480.90583080108081
  0
LINE
  8
_0-0_計極細
  6
CONTINUOUS
 62
    2
 10
560.01795824097258
 20
458.30583080107999
 11
560.01795824097258
 21
463.90583080107996
  0
LINE
  8
_0-0_計極細
  6
CONTINUOUS
 62
    2
 10
573.01795824097258
 20
458.30583080107999
 11
573.01795824097258
 21
463.90583080107996
  0
LINE
  8
_0-1_計細線
  6
CONTINUOUS
 62
    3
 10
323.51795824097275
 20
514.90583080108217
 11
573.51795824097258
 21
514.90583080108217
  0
LINE
  8
_0-1_計細線
  6
CONTINUOUS
 62
    3
 10
323.51795824097275
 20
526.30583080108272
 11
573.51795824097258
 21
526.30583080108272
  0
LINE
  8
_0-1_計細線
  6
CONTINUOUS
 62
    3
 10
323.51795824097275
 20
514.90583080108217
 11
323.51795824097275
 21
526.30583080108272
  0
LINE
  8
_0-1_計細線
  6
CONTINUOUS
 62
    3
 10
573.51795824097258
 20
514.90583080108217
 11
573.51795824097258
 21
526.30583080108272
  0
LINE
  8
_0-0_計極細
  6
CONTINUOUS
 62
    2
 10
323.51795824097275
 20
523.10583080108245
 11
573.51795824097258
 21
523.10583080108245
  0
LINE
  8
_0-0_計極細
  6
CONTINUOUS
 62
    2
 10
323.51795824097275
 20
518.10583080108245
 11
573.51795824097258
 21
518.10583080108245
  0
LINE
  8
_0-1_計細線
  6
CONTINUOUS
 62
    3
 10
323.51795824097275
 20
531.90583080108263
 11
573.51795824097258
 21
531.90583080108263
  0
LINE
  8
_0-1_計細線
  6
CONTINUOUS
 62
    3
 10
323.51795824097275
 20
543.30583080108318
 11
573.51795824097258
 21
543.30583080108318
  0
LINE
  8
_0-1_計細線
  6
CONTINUOUS
 62
    3
 10
323.51795824097275
 20
531.90583080108263
 11
323.51795824097275
 21
543.30583080108318
  0
LINE
  8
_0-1_計細線
  6
CONTINUOUS
 62
    3
 10
573.51795824097258
 20
531.90583080108263
 11
573.51795824097258
 21
543.30583080108318
  0
LINE
  8
_0-0_計極細
  6
CONTINUOUS
 62
    2
 10
323.51795824097275
 20
540.10583080108336
 11
573.51795824097258
 21
540.10583080108336
  0
LINE
  8
_0-0_計極細
  6
CONTINUOUS
 62
    2
 10
323.51795824097275
 20
535.10583080108336
 11
573.51795824097258
 21
535.10583080108336
  0
LINE
  8
_0-1_計細線
  6
CONTINUOUS
 62
    3
 10
323.51795824097275
 20
594.3058308010809
 11
573.51795824097258
 21
594.3058308010809
  0
LINE
  8
_0-1_計細線
  6
CONTINUOUS
 62
    3
 10
323.51795824097275
 20
582.90583080108036
 11
573.51795824097258
 21
582.90583080108036
  0
LINE
  8
_0-1_計細線
  6
CONTINUOUS
 62
    3
 10
323.51795824097275
 20
594.3058308010809
 11
323.51795824097275
 21
582.90583080108036
  0
LINE
  8
_0-1_計細線
  6
CONTINUOUS
 62
    3
 10
573.51795824097258
 20
594.3058308010809
 11
573.51795824097258
 21
582.90583080108036
  0
LINE
  8
_0-0_計極細
  6
CONTINUOUS
 62
    2
 10
323.51795824097275
 20
586.10583080108063
 11
573.51795824097258
 21
586.10583080108063
  0
LINE
  8
_0-0_計極細
  6
CONTINUOUS
 62
    2
 10
323.51795824097275
 20
591.10583080108063
 11
573.51795824097258
 21
591.10583080108063
  0
LINE
  8
_0-1_計細線
  6
CONTINUOUS
 62
    3
 10
323.51795824097275
 20
662.30583080108113
 11
573.51795824097258
 21
662.30583080108113
  0
LINE
  8
_0-1_計細線
  6
CONTINUOUS
 62
    3
 10
323.51795824097275
 20
650.90583080108092
 11
573.51795824097258
 21
650.90583080108092
  0
LINE
  8
_0-1_計細線
  6
CONTINUOUS
 62
    3
 10
323.51795824097275
 20
662.30583080108113
 11
323.51795824097275
 21
650.90583080108092
  0
LINE
  8
_0-1_計細線
  6
CONTINUOUS
 62
    3
 10
573.51795824097258
 20
662.30583080108113
 11
573.51795824097258
 21
650.90583080108092
  0
LINE
  8
_0-0_計極細
  6
CONTINUOUS
 62
    2
 10
323.51795824097275
 20
654.10583080108108
 11
573.51795824097258
 21
654.10583080108108
  0
LINE
  8
_0-0_計極細
  6
CONTINUOUS
 62
    2
 10
323.51795824097275
 20
659.10583080108142
 11
573.51795824097258
 21
659.10583080108142
  0
LINE
  8
_0-1_計細線
  6
CONTINUOUS
 62
    3
 10
323.51795824097275
 20
679.60583080108131
 11
573.51795824097258
 21
679.60583080108131
  0
LINE
  8
_0-1_計細線
  6
CONTINUOUS
 62
    3
 10
323.51795824097275
 20
668.20583080108077
 11
573.51795824097258
 21
668.20583080108077
  0
LINE
  8
_0-1_計細線
  6
CONTINUOUS
 62
    3
 10
323.51795824097275
 20
679.60583080108131
 11
323.51795824097275
 21
668.20583080108077
  0
LINE
  8
_0-1_計細線
  6
CONTINUOUS
 62
    3
 10
573.51795824097258
 20
679.60583080108131
 11
573.51795824097258
 21
668.20583080108077
  0
LINE
  8
_0-0_計極細
  6
CONTINUOUS
 62
    2
 10
323.51795824097275
 20
671.40583080108161
 11
573.51795824097258
 21
671.40583080108161
  0
LINE
  8
_0-0_計極細
  6
CONTINUOUS
 62
    2
 10
323.51795824097275
 20
676.40583080108161
 11
573.51795824097258
 21
676.40583080108161
  0
LINE
  8
_0-1_計細線
  6
CONTINUOUS
 62
    3
 10
323.51795824097275
 20
446.90583080108178
 11
573.51795824097258
 21
446.90583080108178
  0
LINE
  8
_0-1_計細線
  6
CONTINUOUS
 62
    3
 10
323.51795824097275
 20
458.30583080108227
 11
573.51795824097258
 21
458.30583080108227
  0
LINE
  8
_0-1_計細線
  6
CONTINUOUS
 62
    3
 10
323.51795824097275
 20
446.90583080108178
 11
323.51795824097275
 21
458.30583080108227
  0
LINE
  8
_0-1_計細線
  6
CONTINUOUS
 62
    3
 10
573.51795824097258
 20
446.90583080108178
 11
573.51795824097258
 21
458.30583080108227
  0
LINE
  8
_0-0_計極細
  6
CONTINUOUS
 62
    2
 10
323.51795824097275
 20
455.10583080108205
 11
573.51795824097258
 21
455.10583080108205
  0
LINE
  8
_0-0_計極細
  6
CONTINUOUS
 62
    2
 10
323.51795824097275
 20
450.10583080108205
 11
573.51795824097258
 21
450.10583080108205
  0
LINE
  8
_0-1_計細線
  6
CONTINUOUS
 62
    3
 10
323.51795824097275
 20
429.60583080108159
 11
573.51795824097258
 21
429.60583080108159
  0
LINE
  8
_0-1_計細線
  6
CONTINUOUS
 62
    3
 10
323.51795824097275
 20
441.00583080108208
 11
573.51795824097258
 21
441.00583080108208
  0
LINE
  8
_0-1_計細線
  6
CONTINUOUS
 62
    3
 10
323.51795824097275
 20
429.60583080108159
 11
323.51795824097275
 21
441.00583080108208
  0
LINE
  8
_0-1_計細線
  6
CONTINUOUS
 62
    3
 10
573.51795824097258
 20
429.60583080108159
 11
573.51795824097258
 21
441.00583080108208
  0
LINE
  8
_0-0_計極細
  6
CONTINUOUS
 62
    2
 10
323.51795824097275
 20
437.80583080108187
 11
573.51795824097258
 21
437.80583080108187
  0
LINE
  8
_0-0_計極細
  6
CONTINUOUS
 62
    2
 10
323.51795824097275
 20
432.80583080108187
 11
573.51795824097258
 21
432.80583080108187
  0
LINE
  8
_0-1_計細線
  6
CONTINUOUS
 62
    3
 10
323.51795824097275
 20
611.30583080108136
 11
573.51795824097258
 21
611.30583080108136
  0
LINE
  8
_0-1_計細線
  6
CONTINUOUS
 62
    3
 10
323.51795824097275
 20
599.90583080108081
 11
573.51795824097258
 21
599.90583080108081
  0
LINE
  8
_0-1_計細線
  6
CONTINUOUS
 62
    3
 10
323.51795824097275
 20
611.30583080108136
 11
323.51795824097275
 21
599.90583080108081
  0
LINE
  8
_0-1_計細線
  6
CONTINUOUS
 62
    3
 10
573.51795824097258
 20
611.30583080108136
 11
573.51795824097258
 21
599.90583080108081
  0
LINE
  8
_0-0_計極細
  6
CONTINUOUS
 62
    2
 10
323.51795824097275
 20
603.10583080108154
 11
573.51795824097258
 21
603.10583080108154
  0
LINE
  8
_0-0_計極細
  6
CONTINUOUS
 62
    2
 10
323.51795824097275
 20
608.10583080108154
 11
573.51795824097258
 21
608.10583080108154
  0
LINE
  8
_0-1_計細線
  6
CONTINUOUS
 62
    3
 10
323.51795824097275
 20
628.30583080108227
 11
573.51795824097258
 21
628.30583080108227
  0
LINE
  8
_0-1_計細線
  6
CONTINUOUS
 62
    3
 10
323.51795824097275
 20
616.90583080108172
 11
573.51795824097258
 21
616.90583080108172
  0
LINE
  8
_0-1_計細線
  6
CONTINUOUS
 62
    3
 10
323.51795824097275
 20
628.30583080108227
 11
323.51795824097275
 21
616.90583080108172
  0
LINE
  8
_0-1_計細線
  6
CONTINUOUS
 62
    3
 10
573.51795824097258
 20
628.30583080108227
 11
573.51795824097258
 21
616.90583080108172
  0
LINE
  8
_0-0_計極細
  6
CONTINUOUS
 62
    2
 10
323.51795824097275
 20
620.10583080108199
 11
573.51795824097258
 21
620.10583080108199
  0
LINE
  8
_0-0_計極細
  6
CONTINUOUS
 62
    2
 10
323.51795824097275
 20
625.10583080108199
 11
573.51795824097258
 21
625.10583080108199
  0
LINE
  8
_0-1_計細線
  6
CONTINUOUS
 62
    3
 10
323.51795824097275
 20
645.30583080108318
 11
573.51795824097258
 21
645.30583080108318
  0
LINE
  8
_0-1_計細線
  6
CONTINUOUS
 62
    3
 10
323.51795824097275
 20
633.90583080108263
 11
573.51795824097258
 21
633.90583080108263
  0
LINE
  8
_0-1_計細線
  6
CONTINUOUS
 62
    3
 10
323.51795824097275
 20
645.30583080108318
 11
323.51795824097275
 21
633.90583080108263
  0
LINE
  8
_0-1_計細線
  6
CONTINUOUS
 62
    3
 10
573.51795824097258
 20
645.30583080108318
 11
573.51795824097258
 21
633.90583080108263
  0
LINE
  8
_0-0_計極細
  6
CONTINUOUS
 62
    2
 10
323.51795824097275
 20
637.10583080108245
 11
573.51795824097258
 21
637.10583080108245
  0
LINE
  8
_0-0_計極細
  6
CONTINUOUS
 62
    2
 10
323.51795824097275
 20
642.10583080108245
 11
573.51795824097258
 21
642.10583080108245
  0
LINE
  8
_0-1_計細線
  6
CONTINUOUS
 62
    3
 10
323.51795824097275
 20
497.90583080108178
 11
573.51795824097258
 21
497.90583080108178
  0
LINE
  8
_0-1_計細線
  6
CONTINUOUS
 62
    3
 10
323.51795824097275
 20
509.30583080108227
 11
573.51795824097258
 21
509.30583080108227
  0
LINE
  8
_0-1_計細線
  6
CONTINUOUS
 62
    3
 10
323.51795824097275
 20
497.90583080108178
 11
323.51795824097275
 21
509.30583080108227
  0
LINE
  8
_0-1_計細線
  6
CONTINUOUS
 62
    3
 10
573.51795824097258
 20
497.90583080108178
 11
573.51795824097258
 21
509.30583080108227
  0
LINE
  8
_0-0_計極細
  6
CONTINUOUS
 62
    2
 10
323.51795824097275
 20
506.10583080108154
 11
573.51795824097258
 21
506.10583080108154
  0
LINE
  8
_0-0_計極細
  6
CONTINUOUS
 62
    2
 10
323.51795824097275
 20
501.10583080108154
 11
573.51795824097258
 21
501.10583080108154
  0
LINE
  8
_0-1_計細線
  6
CONTINUOUS
 62
    3
 10
323.51795824097275
 20
480.90583080108081
 11
573.51795824097258
 21
480.90583080108081
  0
LINE
  8
_0-1_計細線
  6
CONTINUOUS
 62
    3
 10
323.51795824097275
 20
492.30583080108141
 11
573.51795824097258
 21
492.30583080108141
  0
LINE
  8
_0-1_計細線
  6
CONTINUOUS
 62
    3
 10
323.51795824097275
 20
480.90583080108081
 11
323.51795824097275
 21
492.30583080108141
  0
LINE
  8
_0-1_計細線
  6
CONTINUOUS
 62
    3
 10
573.51795824097258
 20
480.90583080108081
 11
573.51795824097258
 21
492.30583080108141
  0
LINE
  8
_0-0_計極細
  6
CONTINUOUS
 62
    2
 10
323.51795824097275
 20
489.10583080108108
 11
573.51795824097258
 21
489.10583080108108
  0
LINE
  8
_0-0_計極細
  6
CONTINUOUS
 62
    2
 10
323.51795824097275
 20
484.10583080108108
 11
573.51795824097258
 21
484.10583080108108
  0
LINE
  8
_0-1_計細線
  6
CONTINUOUS
 62
    3
 10
323.51795824097275
 20
463.90583080107996
 11
573.51795824097258
 21
463.90583080107996
  0
LINE
  8
_0-1_計細線
  6
CONTINUOUS
 62
    3
 10
323.51795824097275
 20
475.30583080108045
 11
573.51795824097258
 21
475.30583080108045
  0
LINE
  8
_0-1_計細線
  6
CONTINUOUS
 62
    3
 10
323.51795824097275
 20
463.90583080107996
 11
323.51795824097275
 21
475.30583080108045
  0
LINE
  8
_0-1_計細線
  6
CONTINUOUS
 62
    3
 10
573.51795824097258
 20
463.90583080107996
 11
573.51795824097258
 21
475.30583080108045
  0
LINE
  8
_0-0_計極細
  6
CONTINUOUS
 62
    2
 10
323.51795824097275
 20
472.10583080108063
 11
573.51795824097258
 21
472.10583080108063
  0
LINE
  8
_0-0_計極細
  6
CONTINUOUS
 62
    2
 10
323.51795824097275
 20
467.10583080108063
 11
573.51795824097258
 21
467.10583080108063
  0
LINE
  8
_0-1_計細線
  6
CONTINUOUS
 62
    3
 10
323.51795824097275
 20
577.30583080108045
 11
573.51795824097258
 21
577.30583080108045
  0
LINE
  8
_0-1_計細線
  6
CONTINUOUS
 62
    3
 10
573.51795824097258
 20
577.30583080108045
 11
573.51795824097258
 21
565.9058308010799
  0
LINE
  8
_0-0_計極細
  6
CONTINUOUS
 62
    2
 10
323.51795824097275
 20
569.10583080107972
 11
573.51795824097258
 21
569.10583080107972
  0
LINE
  8
_0-0_計極細
  6
CONTINUOUS
 62
    2
 10
323.51795824097275
 20
574.10583080107972
 11
573.51795824097258
 21
574.10583080107972
  0
LINE
  8
_0-1_計細線
  6
CONTINUOUS
 62
    3
 10
323.51795824097275
 20
565.9058308010799
 11
573.51795824097258
 21
565.9058308010799
  0
LINE
  8
_0-1_計細線
  6
CONTINUOUS
 62
    3
 10
323.51795824097275
 20
577.30583080108045
 11
323.51795824097275
 21
565.9058308010799
  0
LINE
  8
_0-1_計細線
  6
CONTINUOUS
 62
    3
 10
323.51795824097275
 20
548.90583080107899
 11
573.51795824097258
 21
548.90583080107899
  0
LINE
  8
_0-1_計細線
  6
CONTINUOUS
 62
    3
 10
573.51795824097258
 20
560.30583080107954
 11
573.51795824097258
 21
548.90583080107899
  0
LINE
  8
_0-0_計極細
  6
CONTINUOUS
 62
    2
 10
323.51795824097275
 20
552.10583080107926
 11
573.51795824097258
 21
552.10583080107926
  0
LINE
  8
_0-0_計極細
  6
CONTINUOUS
 62
    2
 10
323.51795824097275
 20
557.10583080107926
 11
573.51795824097258
 21
557.10583080107926
  0
LINE
  8
_0-1_計細線
  6
CONTINUOUS
 62
    3
 10
323.51795824097275
 20
560.30583080107954
 11
323.51795824097275
 21
548.90583080107899
  0
LINE
  8
_0-1_計細線
  6
CONTINUOUS
 62
    3
 10
323.51795824097275
 20
560.30583080107954
 11
573.51795824097258
 21
560.30583080107954
  0
LINE
  8
_0-0_計極細
  6
CENTER2
 62
    2
 10
307.62935870395393
 20
554.60583080108131
 11
591.21663524827386
 21
554.60583080108131
  0
LINE
  8
_0-5_寸法線
  6
CONTINUOUS
 62
    7
 10
406.92164252521019
 20
563.06834520130747
 11
398.94229898071961
 21
569.09578882186486
  0
LINE
  8
_0-5_寸法線
  6
CONTINUOUS
 62
    7
 10
406.92164252521019
 20
563.06834520130747
 11
403.02505012043667
 21
572.27793626883386
  0
LINE
  8
_0-5_寸法線
  6
CONTINUOUS
 62
    7
 10
406.92164252521019
 20
563.06834520130747
 11
263.66284941912085
 21
746.87189628611964
  0
LINE
  8
_0-5_寸法線
  6
CONTINUOUS
 62
    7
 10
263.66284941912085
 20
746.87189628611964
 11
203.66284941912085
 21
746.87189628611964
  0
TEXT
  8
_0-5_寸法線
 62
    7
 10
203.66284941912085
 20
746.87189628611964
 40
15
 41
0.8000000000000001
 50
0
  1
取　外　具
  0
TEXT
  8
_0-5_寸法線
 62
    7
 10
199.55539651822221
 20
729.4429962297346
 40
15
 41
0.8000000000000001
 50
0
  1
(標準付属)
  0
TEXT
  8
_0-7_枠細線
 62
    5
 10
202.74854395369323
 20
763.38164999164587
 40
12.5
 41
0.8
 50
0
  1
２
  0
LINE
  8
_0-7_枠細線
  6
CONTINUOUS
 62
    5
 10
215.38339268554509
 20
763.68865223702642
 11
207.88339268554509
 21
778.68865223702642
  0
LINE
  8
_0-7_枠細線
  6
CONTINUOUS
 62
    5
 10
200.38339268554509
 20
763.68865223702642
 11
215.38339268554509
 21
763.68865223702642
  0
LINE
  8
_0-7_枠細線
  6
CONTINUOUS
 62
    5
 10
207.88339268554509
 20
778.68865223702642
 11
200.38339268554509
 21
763.68865223702642
  0
TEXT
  8
_0-7_枠細線
 62
    5
 10
221.64043778156937
 20
763.08850726957985
 40
12.5
 41
0.8
 50
0
  1
３
  0
LINE
  8
_0-7_枠細線
  6
CONTINUOUS
 62
    5
 10
226.77528651342129
 20
778.63619115976121
 11
219.27528651342129
 21
763.63619115976121
  0
LINE
  8
_0-7_枠細線
  6
CONTINUOUS
 62
    5
 10
219.27528651342129
 20
763.63619115976121
 11
234.27528651342129
 21
763.63619115976121
  0
LINE
  8
_0-7_枠細線
  6
CONTINUOUS
 62
    5
 10
234.27528651342129
 20
763.63619115976121
 11
226.77528651342129
 21
778.63619115976121
  0
TEXT
  8
_0-5_寸法線
 62
    7
 10
618.11773093070246
 20
508.19965239525374
 40
15
 41
0.8000000000000001
 50
0
  1
ＧＳＬ－２５
  0
LINE
  8
_0-1_計細線
  6
CONTINUOUS
 62
    3
 10
1087.3500000000004
 20
663.45999999999981
 11
1091.8000000005518
 21
663.45999999999981
  0
LINE
  8
_0-1_計細線
  6
CONTINUOUS
 62
    3
 10
1078.20000000039
 20
663.45999999999981
 11
1082.6499999999999
 21
663.45999999999981
  0
LINE
  8
_0-1_計細線
  6
CONTINUOUS
 62
    3
 10
1087.3500000000004
 20
676.45999999999958
 11
1091.8000000005518
 21
676.45999999999958
  0
LINE
  8
_0-1_計細線
  6
CONTINUOUS
 62
    3
 10
1078.2000000011146
 20
676.45999999999958
 11
1082.6499999999999
 21
676.45999999999958
  0
LINE
  8
_0-1_計細線
  6
CONTINUOUS
 62
    3
 10
1087.3500000000004
 20
681.3600222588002
 11
1087.3500000000004
 21
661.36002225879975
  0
LINE
  8
_0-1_計細線
  6
CONTINUOUS
 62
    3
 10
1082.6499999999999
 20
661.36002225879975
 11
1082.6499999999999
 21
681.3600222588002
  0
LINE
  8
_0-1_計細線
  6
CONTINUOUS
 62
    3
 10
1087.3500000000004
 20
661.36002225879975
 11
1082.6499999999999
 21
661.36002225879975
  0
LINE
  8
_0-1_計細線
  6
CONTINUOUS
 62
    3
 10
1082.6499999999999
 20
681.3600222588002
 11
1087.3500000000004
 21
681.3600222588002
  0
LINE
  8
_0-1_計細線
  6
DASHED2
 62
    3
 10
1082.6499999999999
 20
664.36002225879975
 11
1087.3500000000004
 21
664.36002225879975
  0
LINE
  8
_0-1_計細線
  6
DASHED2
 62
    3
 10
1082.6499999999999
 20
678.3600222588002
 11
1087.3500000000004
 21
678.3600222588002
  0
ARC
  8
_0-1_計細線
  6
CONTINUOUS
 62
    3
 10
1071.8000000011034
 20
679.15999999999985
 40
1
 50
89.999999999999915
 51
179.99999999999983
  0
ARC
  8
_0-1_計細線
  6
CONTINUOUS
 62
    3
 10
1072.2679491924309
 20
681.15999999999985
 40
1
 50
269.99999999999977
 51
329.9999999999967
  0
ARC
  8
_0-1_計細線
  6
CONTINUOUS
 62
    3
 10
1074
 20
680.16000000000008
 40
1
 50
89.999999999999915
 51
150.00000000001401
  0
LINE
  8
_0-1_計細線
  6
CONTINUOUS
 62
    3
 10
1071.8000000011034
 20
680.16000000000008
 11
1072.2679491924309
 21
680.16000000000008
  0
ARC
  8
_0-1_計細線
  6
CONTINUOUS
 62
    3
 10
1081.1999999988966
 20
679.15999999999985
 40
1
 50
0
 51
89.999999999999915
  0
ARC
  8
_0-1_計細線
  6
CONTINUOUS
 62
    3
 10
1080.7320508075691
 20
681.15999999999985
 40
1
 50
210.00000000000256
 51
269.99999999999977
  0
ARC
  8
_0-1_計細線
  6
CONTINUOUS
 62
    3
 10
1079
 20
680.16000000000008
 40
1
 50
29.999999999986002
 51
89.999999999999901
  0
LINE
  8
_0-1_計細線
  6
CONTINUOUS
 62
    3
 10
1081.1999999988966
 20
680.16000000000008
 11
1080.7320508075691
 21
680.16000000000008
  0
ARC
  8
_0-1_計細線
  6
CONTINUOUS
 62
    3
 10
1071.3000000011036
 20
677.75999999999999
 40
0.5
 50
179.99999999999983
 51
269.99999999999977
  0
LINE
  8
_0-1_計細線
  6
CONTINUOUS
 62
    3
 10
1070.8000000011034
 20
679.15999999999985
 11
1070.8000000011034
 21
677.75999999999999
  0
ARC
  8
_0-1_計細線
  6
CONTINUOUS
 62
    3
 10
1081.6999999988966
 20
677.75999999999999
 40
0.5
 50
269.99999999999977
 51
359.99999999999966
  0
LINE
  8
_0-1_計細線
  6
CONTINUOUS
 62
    3
 10
1082.1999999988966
 20
679.15999999999985
 11
1082.1999999988966
 21
677.75999999999999
  0
ARC
  8
_0-1_計細線
  6
CONTINUOUS
 62
    3
 10
1073.8000000011034
 20
676.25999999999999
 40
1
 50
0
 51
89.999999999999915
  0
LINE
  8
_0-1_計細線
  6
CONTINUOUS
 62
    3
 10
1073.8000000011034
 20
677.25999999999988
 11
1071.3000000011036
 21
677.25999999999988
  0
ARC
  8
_0-1_計細線
  6
CONTINUOUS
 62
    3
 10
1079.2000000011035
 20
676.25999999999999
 40
1
 50
89.999999999999915
 51
179.99999999999983
  0
LINE
  8
_0-1_計細線
  6
CONTINUOUS
 62
    3
 10
1079.1999999988961
 20
677.25999999999988
 11
1081.6999999988966
 21
677.25999999999988
  0
LINE
  8
_0-1_計細線
  6
CONTINUOUS
 62
    3
 10
1079
 20
681.15999999999985
 11
1074
 21
681.15999999999985
  0
LINE
  8
_0-1_計細線
  6
CONTINUOUS
 62
    3
 10
1074.8000000000002
 20
656.15999999999997
 11
1074.8000000011034
 21
676.25999999999999
  0
LINE
  8
_0-1_計細線
  6
CONTINUOUS
 62
    3
 10
1078.1999999999998
 20
656.15999999999997
 11
1078.2000000011035
 21
676.25999999999999
  0
LINE
  8
_0-1_計細線
  6
CONTINUOUS
 62
    3
 10
1078.1999999999998
 20
656.15999999999997
 11
1074.8000000000002
 21
656.15999999999997
  0
LINE
  8
_0-1_計細線
  6
CONTINUOUS
 62
    3
 10
1182.4967480019995
 20
669.95999999999981
 11
1185.5012640019995
 21
669.95999999999981
  0
LINE
  8
_0-1_計細線
  6
CONTINUOUS
 62
    3
 10
1182.4967480019995
 20
666.46000000000026
 11
1185.501276001999
 21
666.46000000000026
  0
ARC
  8
_0-1_計細線
  6
CONTINUOUS
 62
    3
 10
1185.501276001999
 20
666.66000000000008
 40
0.2000000000000001
 50
269.99999999999977
 51
359.99999999999966
  0
ARC
  8
_0-1_計細線
  6
CONTINUOUS
 62
    3
 10
1177.9432960019994
 20
668.2098540000004
 40
7.7579560000000001
 50
346.96432999999968
 51
13.038021999994573
  0
ARC
  8
_0-1_計細線
  6
CONTINUOUS
 62
    3
 10
1185.501276001999
 20
673.26000000000033
 40
0.2000000000000001
 50
0
 51
89.999999999999915
  0
ARC
  8
_0-1_計細線
  6
CONTINUOUS
 62
    3
 10
1177.9432960019994
 20
671.7101439999999
 40
7.7579560000000001
 50
346.96197800000061
 51
13.035669999999625
  0
LINE
  8
_0-1_計細線
  6
CONTINUOUS
 62
    3
 10
1182.4967480019995
 20
673.46000000000015
 11
1185.501276001999
 21
673.46000000000015
  0
LINE
  8
_0-1_計細線
  6
CONTINUOUS
 62
    3
 10
1185.7012760019993
 20
666.66000000000008
 11
1185.7012760019993
 21
673.26000000000033
  0
ARC
  8
_0-1_計細線
  6
CONTINUOUS
 62
    3
 10
1182.2967480019993
 20
663.66000000000008
 40
0.2000000000000001
 50
269.99999999999977
 51
359.99999999999966
  0
LINE
  8
_0-1_計細線
  6
CONTINUOUS
 62
    3
 10
1181.0000000019991
 20
663.46000000000004
 11
1182.2967480019993
 21
663.46000000000004
  0
ARC
  8
_0-1_計細線
  6
CONTINUOUS
 62
    3
 10
1182.2967480019993
 20
676.25999999999976
 40
0.2000000000000001
 50
0
 51
89.999999999999915
  0
LINE
  8
_0-1_計細線
  6
CONTINUOUS
 62
    3
 10
1181.0000000019991
 20
676.46000000000015
 11
1182.2967480019993
 21
676.46000000000015
  0
LINE
  8
_0-1_計細線
  6
CONTINUOUS
 62
    3
 10
1182.4967480019995
 20
669.46000000000015
 11
1182.4967480019995
 21
663.66000000000008
  0
LINE
  8
_0-1_計細線
  6
CONTINUOUS
 62
    3
 10
1182.4967480019995
 20
676.25999999999976
 11
1182.4967480019995
 21
669.46000000000015
  0
LINE
  8
_0-1_計細線
  6
CONTINUOUS
 62
    3
 10
987.50325199800068
 20
669.95999999999981
 11
984.49873599800071
 21
669.95999999999981
  0
LINE
  8
_0-1_計細線
  6
CONTINUOUS
 62
    3
 10
987.50325199800068
 20
666.46000000000026
 11
984.49872399800131
 21
666.46000000000026
  0
ARC
  8
_0-1_計細線
  6
CONTINUOUS
 62
    3
 10
984.49872399800131
 20
666.66000000000008
 40
0.2000000000000001
 50
179.99999999999983
 51
269.99999999999977
  0
ARC
  8
_0-1_計細線
  6
CONTINUOUS
 62
    3
 10
992.05670399800078
 20
668.2098540000004
 40
7.7579560000000001
 50
166.96197800000505
 51
193.03566999999961
  0
ARC
  8
_0-1_計細線
  6
CONTINUOUS
 62
    3
 10
984.49872399800131
 20
673.26000000000033
 40
0.2000000000000001
 50
89.999999999999915
 51
179.99999999999983
  0
ARC
  8
_0-1_計細線
  6
CONTINUOUS
 62
    3
 10
992.05670399800078
 20
671.7101439999999
 40
7.7579560000000001
 50
166.96433000000002
 51
193.03802199999868
  0
LINE
  8
_0-1_計細線
  6
CONTINUOUS
 62
    3
 10
987.50325199800068
 20
673.46000000000015
 11
984.49872399800131
 21
673.46000000000015
  0
LINE
  8
_0-1_計細線
  6
CONTINUOUS
 62
    3
 10
984.29872399800104
 20
666.66000000000008
 11
984.29872399800104
 21
673.26000000000033
  0
ARC
  8
_0-1_計細線
  6
CONTINUOUS
 62
    3
 10
987.70325199800084
 20
663.66000000000008
 40
0.2000000000000001
 50
179.99999999999983
 51
269.99999999999977
  0
LINE
  8
_0-1_計細線
  6
CONTINUOUS
 62
    3
 10
988.99999999800116
 20
663.46000000000004
 11
987.70325199800084
 21
663.46000000000004
  0
ARC
  8
_0-1_計細線
  6
CONTINUOUS
 62
    3
 10
987.70325199800084
 20
676.25999999999976
 40
0.2000000000000001
 50
89.999999999999915
 51
179.99999999999983
  0
LINE
  8
_0-1_計細線
  6
CONTINUOUS
 62
    3
 10
988.99999999800116
 20
676.46000000000015
 11
987.70325199800084
 21
676.46000000000015
  0
LINE
  8
_0-1_計細線
  6
CONTINUOUS
 62
    3
 10
987.50325199800068
 20
669.46000000000015
 11
987.50325199800068
 21
663.66000000000008
  0
LINE
  8
_0-1_計細線
  6
CONTINUOUS
 62
    3
 10
987.50325199800068
 20
676.25999999999976
 11
987.50325199800068
 21
669.46000000000015
  0
LINE
  8
_0-1_計細線
  6
CONTINUOUS
 62
    3
 10
1163.6000000019803
 20
676.45999999999958
 11
1177.6000000019808
 21
676.45999999999958
  0
LINE
  8
_0-1_計細線
  6
CONTINUOUS
 62
    3
 10
1146.2000000018088
 20
676.45999999999958
 11
1160.2000000018088
 21
676.45999999999958
  0
LINE
  8
_0-1_計細線
  6
CONTINUOUS
 62
    3
 10
992.39999999910481
 20
676.45999999999958
 11
1006.3999999994664
 21
676.45999999999958
  0
LINE
  8
_0-1_計細線
  6
CONTINUOUS
 62
    3
 10
1009.7999999994664
 20
676.45999999999958
 11
1023.7999999994665
 21
676.45999999999958
  0
LINE
  8
_0-1_計細線
  6
CONTINUOUS
 62
    3
 10
1129.2000000014468
 20
676.45999999999958
 11
1142.8000000014472
 21
676.45999999999958
  0
LINE
  8
_0-1_計細線
  6
CONTINUOUS
 62
    3
 10
1027.1999999994664
 20
676.45999999999958
 11
1040.7999999994663
 21
676.45999999999958
  0
LINE
  8
_0-1_計細線
  6
CONTINUOUS
 62
    3
 10
1044.1999999998284
 20
676.45999999999958
 11
1057.7999999998283
 21
676.45999999999958
  0
LINE
  8
_0-1_計細線
  6
CONTINUOUS
 62
    3
 10
1061.2000000001899
 20
676.45999999999958
 11
1074.8000000001898
 21
676.45999999999958
  0
LINE
  8
_0-1_計細線
  6
CONTINUOUS
 62
    3
 10
1095.2000000009134
 20
676.45999999999958
 11
1108.8000000009133
 21
676.45999999999958
  0
LINE
  8
_0-1_計細線
  6
CONTINUOUS
 62
    3
 10
1112.2000000012754
 20
676.45999999999958
 11
1125.8000000012753
 21
676.45999999999958
  0
LINE
  8
_0-1_計細線
  6
CONTINUOUS
 62
    3
 10
1163.6000000019803
 20
663.45999999999981
 11
1177.6000000019808
 21
663.45999999999981
  0
LINE
  8
_0-1_計細線
  6
CONTINUOUS
 62
    3
 10
1146.2000000018088
 20
663.45999999999981
 11
1160.2000000018088
 21
663.45999999999981
  0
LINE
  8
_0-1_計細線
  6
CONTINUOUS
 62
    3
 10
992.39999999910481
 20
663.45999999999981
 11
1006.3999999994664
 21
663.45999999999981
  0
LINE
  8
_0-1_計細線
  6
CONTINUOUS
 62
    3
 10
1009.7999999994664
 20
663.45999999999981
 11
1023.7999999994665
 21
663.45999999999981
  0
LINE
  8
_0-1_計細線
  6
CONTINUOUS
 62
    3
 10
1129.2000000014468
 20
663.45999999999981
 11
1142.8000000014472
 21
663.45999999999981
  0
LINE
  8
_0-1_計細線
  6
CONTINUOUS
 62
    3
 10
1027.1999999994664
 20
663.45999999999981
 11
1040.7999999994663
 21
663.45999999999981
  0
LINE
  8
_0-1_計細線
  6
CONTINUOUS
 62
    3
 10
1044.1999999998284
 20
663.45999999999981
 11
1057.7999999998283
 21
663.45999999999981
  0
LINE
  8
_0-1_計細線
  6
CONTINUOUS
 62
    3
 10
1061.2000000001899
 20
663.45999999999981
 11
1074.8000000001898
 21
663.45999999999981
  0
LINE
  8
_0-1_計細線
  6
CONTINUOUS
 62
    3
 10
1095.2000000009134
 20
663.45999999999981
 11
1108.8000000009133
 21
663.45999999999981
  0
LINE
  8
_0-1_計細線
  6
CONTINUOUS
 62
    3
 10
1112.2000000012754
 20
663.45999999999981
 11
1125.8000000012753
 21
663.45999999999981
  0
ARC
  8
_0-1_計細線
  6
CONTINUOUS
 62
    3
 10
1174.6000000025506
 20
679.15999999999985
 40
1
 50
89.999999999999915
 51
179.99999999999983
  0
ARC
  8
_0-1_計細線
  6
CONTINUOUS
 62
    3
 10
1175.0679491938781
 20
681.15999999999985
 40
1
 50
269.99999999999977
 51
329.99999999998369
  0
ARC
  8
_0-1_計細線
  6
CONTINUOUS
 62
    3
 10
1176.8000000014467
 20
680.16000000000008
 40
1
 50
89.999999999999915
 51
150.00000000001401
  0
LINE
  8
_0-1_計細線
  6
CONTINUOUS
 62
    3
 10
1174.6000000025506
 20
680.16000000000008
 11
1175.0679491938781
 21
680.16000000000008
  0
ARC
  8
_0-1_計細線
  6
CONTINUOUS
 62
    3
 10
1184.0000000003433
 20
679.15999999999985
 40
1
 50
0
 51
89.999999999999915
  0
ARC
  8
_0-1_計細線
  6
CONTINUOUS
 62
    3
 10
1183.5320508090163
 20
681.15999999999985
 40
1
 50
209.99999999998954
 51
269.99999999999977
  0
ARC
  8
_0-1_計細線
  6
CONTINUOUS
 62
    3
 10
1181.8000000014472
 20
680.16000000000008
 40
1
 50
29.99999999999903
 51
89.999999999999901
  0
LINE
  8
_0-1_計細線
  6
CONTINUOUS
 62
    3
 10
1184.0000000003433
 20
680.16000000000008
 11
1183.5320508090163
 21
680.16000000000008
  0
ARC
  8
_0-1_計細線
  6
CONTINUOUS
 62
    3
 10
1174.1000000025506
 20
677.75999999999999
 40
0.5
 50
179.99999999999983
 51
269.99999999999977
  0
LINE
  8
_0-1_計細線
  6
CONTINUOUS
 62
    3
 10
1173.6000000025506
 20
679.15999999999985
 11
1173.6000000025506
 21
677.75999999999999
  0
ARC
  8
_0-1_計細線
  6
CONTINUOUS
 62
    3
 10
1184.5000000003433
 20
677.75999999999999
 40
0.5
 50
269.99999999999977
 51
359.99999999999966
  0
LINE
  8
_0-1_計細線
  6
CONTINUOUS
 62
    3
 10
1185.0000000003438
 20
679.15999999999985
 11
1185.0000000003438
 21
677.75999999999999
  0
ARC
  8
_0-1_計細線
  6
CONTINUOUS
 62
    3
 10
1176.6000000025506
 20
676.25999999999999
 40
1
 50
0
 51
89.999999999999915
  0
LINE
  8
_0-1_計細線
  6
CONTINUOUS
 62
    3
 10
1176.6000000025506
 20
677.25999999999988
 11
1174.1000000025506
 21
677.25999999999988
  0
ARC
  8
_0-1_計細線
  6
CONTINUOUS
 62
    3
 10
1182.0000000025502
 20
676.25999999999999
 40
1
 50
89.999999999999915
 51
179.99999999999983
  0
LINE
  8
_0-1_計細線
  6
CONTINUOUS
 62
    3
 10
1182.0000000003429
 20
677.25999999999988
 11
1184.5000000003433
 21
677.25999999999988
  0
LINE
  8
_0-1_計細線
  6
CONTINUOUS
 62
    3
 10
1181.8000000014472
 20
681.15999999999985
 11
1176.8000000014467
 21
681.15999999999985
  0
LINE
  8
_0-1_計細線
  6
CONTINUOUS
 62
    3
 10
1177.6000000014474
 20
656.15999999999997
 11
1177.6000000025506
 21
676.25999999999999
  0
LINE
  8
_0-1_計細線
  6
CONTINUOUS
 62
    3
 10
1181.000000001447
 20
656.15999999999997
 11
1181.0000000025507
 21
676.25999999999999
  0
LINE
  8
_0-1_計細線
  6
CONTINUOUS
 62
    3
 10
1181.000000001447
 20
656.15999999999997
 11
1177.6000000014474
 21
656.15999999999997
  0
ARC
  8
_0-1_計細線
  6
CONTINUOUS
 62
    3
 10
1157.2000000027224
 20
679.15999999999985
 40
1
 50
89.999999999999915
 51
179.99999999999983
  0
ARC
  8
_0-1_計細線
  6
CONTINUOUS
 62
    3
 10
1157.6679491940499
 20
681.15999999999985
 40
1
 50
269.99999999999977
 51
329.9999999999967
  0
ARC
  8
_0-1_計細線
  6
CONTINUOUS
 62
    3
 10
1159.4000000016185
 20
680.16000000000008
 40
1
 50
89.999999999999915
 51
150.00000000000097
  0
LINE
  8
_0-1_計細線
  6
CONTINUOUS
 62
    3
 10
1157.2000000027224
 20
680.16000000000008
 11
1157.6679491940499
 21
680.16000000000008
  0
ARC
  8
_0-1_計細線
  6
CONTINUOUS
 62
    3
 10
1166.6000000005151
 20
679.15999999999985
 40
1
 50
0
 51
89.999999999999915
  0
ARC
  8
_0-1_計細線
  6
CONTINUOUS
 62
    3
 10
1166.1320508091876
 20
681.15999999999985
 40
1
 50
210.00000000000256
 51
269.99999999999977
  0
ARC
  8
_0-1_計細線
  6
CONTINUOUS
 62
    3
 10
1164.4000000016185
 20
680.16000000000008
 40
1
 50
29.999999999986002
 51
89.999999999973952
  0
LINE
  8
_0-1_計細線
  6
CONTINUOUS
 62
    3
 10
1166.6000000005151
 20
680.16000000000008
 11
1166.1320508091876
 21
680.16000000000008
  0
ARC
  8
_0-1_計細線
  6
CONTINUOUS
 62
    3
 10
1156.7000000027219
 20
677.75999999999999
 40
0.5
 50
179.99999999999983
 51
269.99999999999977
  0
LINE
  8
_0-1_計細線
  6
CONTINUOUS
 62
    3
 10
1156.2000000027224
 20
679.15999999999985
 11
1156.2000000027224
 21
677.75999999999999
  0
ARC
  8
_0-1_計細線
  6
CONTINUOUS
 62
    3
 10
1167.1000000005151
 20
677.75999999999999
 40
0.5
 50
269.99999999999977
 51
359.99999999999966
  0
LINE
  8
_0-1_計細線
  6
CONTINUOUS
 62
    3
 10
1167.6000000005151
 20
679.15999999999985
 11
1167.6000000005151
 21
677.75999999999999
  0
ARC
  8
_0-1_計細線
  6
CONTINUOUS
 62
    3
 10
1159.2000000027224
 20
676.25999999999999
 40
1
 50
0
 51
89.999999999999915
  0
LINE
  8
_0-1_計細線
  6
CONTINUOUS
 62
    3
 10
1159.2000000027224
 20
677.25999999999988
 11
1156.7000000027219
 21
677.25999999999988
  0
ARC
  8
_0-1_計細線
  6
CONTINUOUS
 62
    3
 10
1164.6000000027225
 20
676.25999999999999
 40
1
 50
89.999999999999915
 51
179.99999999999983
  0
LINE
  8
_0-1_計細線
  6
CONTINUOUS
 62
    3
 10
1164.6000000005151
 20
677.25999999999988
 11
1167.1000000005151
 21
677.25999999999988
  0
LINE
  8
_0-1_計細線
  6
CONTINUOUS
 62
    3
 10
1164.4000000016185
 20
681.15999999999985
 11
1159.4000000016185
 21
681.15999999999985
  0
LINE
  8
_0-1_計細線
  6
CONTINUOUS
 62
    3
 10
1160.2000000016187
 20
656.15999999999997
 11
1160.2000000027224
 21
676.25999999999999
  0
LINE
  8
_0-1_計細線
  6
CONTINUOUS
 62
    3
 10
1163.6000000016188
 20
656.15999999999997
 11
1163.6000000027225
 21
676.25999999999999
  0
LINE
  8
_0-1_計細線
  6
CONTINUOUS
 62
    3
 10
1163.6000000016188
 20
656.15999999999997
 11
1160.2000000016187
 21
656.15999999999997
  0
ARC
  8
_0-1_計細線
  6
CONTINUOUS
 62
    3
 10
985.99999999965667
 20
679.15999999999985
 40
1
 50
89.999999999999915
 51
179.99999999999983
  0
ARC
  8
_0-1_計細線
  6
CONTINUOUS
 62
    3
 10
986.46794919098397
 20
681.15999999999985
 40
1
 50
269.99999999999977
 51
329.99999999999346
  0
ARC
  8
_0-1_計細線
  6
CONTINUOUS
 62
    3
 10
988.19999999855281
 20
680.16000000000008
 40
1
 50
89.999999999999915
 51
150.00000000001401
  0
LINE
  8
_0-1_計細線
  6
CONTINUOUS
 62
    3
 10
985.99999999965667
 20
680.16000000000008
 11
986.46794919098397
 21
680.16000000000008
  0
ARC
  8
_0-1_計細線
  6
CONTINUOUS
 62
    3
 10
995.39999999744953
 20
679.15999999999985
 40
1
 50
0
 51
89.999999999999915
  0
ARC
  8
_0-1_計細線
  6
CONTINUOUS
 62
    3
 10
994.93205080612188
 20
681.15999999999985
 40
1
 50
210.00000000000583
 51
269.99999999999977
  0
ARC
  8
_0-1_計細線
  6
CONTINUOUS
 62
    3
 10
993.19999999855281
 20
680.16000000000008
 40
1
 50
29.999999999986002
 51
89.999999999999901
  0
LINE
  8
_0-1_計細線
  6
CONTINUOUS
 62
    3
 10
995.39999999744953
 20
680.16000000000008
 11
994.93205080612188
 21
680.16000000000008
  0
ARC
  8
_0-1_計細線
  6
CONTINUOUS
 62
    3
 10
985.49999999965644
 20
677.75999999999999
 40
0.5
 50
179.99999999999983
 51
269.99999999999977
  0
LINE
  8
_0-1_計細線
  6
CONTINUOUS
 62
    3
 10
984.99999999965644
 20
679.15999999999985
 11
984.99999999965644
 21
677.75999999999999
  0
ARC
  8
_0-1_計細線
  6
CONTINUOUS
 62
    3
 10
995.89999999744941
 20
677.75999999999999
 40
0.5
 50
269.99999999999977
 51
359.99999999999966
  0
LINE
  8
_0-1_計細線
  6
CONTINUOUS
 62
    3
 10
996.3999999974493
 20
679.15999999999985
 11
996.3999999974493
 21
677.75999999999999
  0
ARC
  8
_0-1_計細線
  6
CONTINUOUS
 62
    3
 10
987.99999999965632
 20
676.25999999999999
 40
1
 50
0
 51
89.999999999999915
  0
LINE
  8
_0-1_計細線
  6
CONTINUOUS
 62
    3
 10
987.99999999965632
 20
677.25999999999988
 11
985.49999999965644
 21
677.25999999999988
  0
ARC
  8
_0-1_計細線
  6
CONTINUOUS
 62
    3
 10
993.39999999965676
 20
676.25999999999999
 40
1
 50
89.999999999999915
 51
179.99999999999983
  0
LINE
  8
_0-1_計細線
  6
CONTINUOUS
 62
    3
 10
993.3999999974493
 20
677.25999999999988
 11
995.89999999744941
 21
677.25999999999988
  0
LINE
  8
_0-1_計細線
  6
CONTINUOUS
 62
    3
 10
993.19999999855281
 20
681.15999999999985
 11
988.19999999855281
 21
681.15999999999985
  0
LINE
  8
_0-1_計細線
  6
CONTINUOUS
 62
    3
 10
988.99999999855299
 20
656.15999999999997
 11
988.99999999965655
 21
676.25999999999999
  0
LINE
  8
_0-1_計細線
  6
CONTINUOUS
 62
    3
 10
992.39999999855286
 20
656.15999999999997
 11
992.39999999965653
 21
676.25999999999999
  0
LINE
  8
_0-1_計細線
  6
CONTINUOUS
 62
    3
 10
992.39999999855286
 20
656.15999999999997
 11
988.99999999855299
 21
656.15999999999997
  0
ARC
  8
_0-1_計細線
  6
CONTINUOUS
 62
    3
 10
1003.4000000000181
 20
679.15999999999985
 40
1
 50
89.999999999999915
 51
179.99999999999983
  0
ARC
  8
_0-1_計細線
  6
CONTINUOUS
 62
    3
 10
1003.8679491913457
 20
681.15999999999985
 40
1
 50
269.99999999999977
 51
329.99999999999346
  0
ARC
  8
_0-1_計細線
  6
CONTINUOUS
 62
    3
 10
1005.5999999989147
 20
680.16000000000008
 40
1
 50
89.999999999999915
 51
150.00000000001074
  0
LINE
  8
_0-1_計細線
  6
CONTINUOUS
 62
    3
 10
1003.4000000000181
 20
680.16000000000008
 11
1003.8679491913457
 21
680.16000000000008
  0
ARC
  8
_0-1_計細線
  6
CONTINUOUS
 62
    3
 10
1012.799999997811
 20
679.15999999999985
 40
1
 50
0
 51
89.999999999999915
  0
ARC
  8
_0-1_計細線
  6
CONTINUOUS
 62
    3
 10
1012.3320508064836
 20
681.15999999999985
 40
1
 50
209.99999999999932
 51
269.99999999999977
  0
ARC
  8
_0-1_計細線
  6
CONTINUOUS
 62
    3
 10
1010.5999999989144
 20
680.16000000000008
 40
1
 50
29.99999999998926
 51
89.999999999986969
  0
LINE
  8
_0-1_計細線
  6
CONTINUOUS
 62
    3
 10
1012.799999997811
 20
680.16000000000008
 11
1012.3320508064836
 21
680.16000000000008
  0
ARC
  8
_0-1_計細線
  6
CONTINUOUS
 62
    3
 10
1002.9000000000184
 20
677.75999999999999
 40
0.5
 50
179.99999999999983
 51
269.99999999999977
  0
LINE
  8
_0-1_計細線
  6
CONTINUOUS
 62
    3
 10
1002.4000000000183
 20
679.15999999999985
 11
1002.4000000000183
 21
677.75999999999999
  0
ARC
  8
_0-1_計細線
  6
CONTINUOUS
 62
    3
 10
1013.299999997811
 20
677.75999999999999
 40
0.5
 50
269.99999999999977
 51
359.99999999999966
  0
LINE
  8
_0-1_計細線
  6
CONTINUOUS
 62
    3
 10
1013.799999997811
 20
679.15999999999985
 11
1013.799999997811
 21
677.75999999999999
  0
ARC
  8
_0-1_計細線
  6
CONTINUOUS
 62
    3
 10
1005.4000000000183
 20
676.25999999999999
 40
1
 50
0
 51
89.999999999999915
  0
LINE
  8
_0-1_計細線
  6
CONTINUOUS
 62
    3
 10
1005.4000000000183
 20
677.25999999999988
 11
1002.9000000000184
 21
677.25999999999988
  0
ARC
  8
_0-1_計細線
  6
CONTINUOUS
 62
    3
 10
1010.8000000000181
 20
676.25999999999999
 40
1
 50
89.999999999999915
 51
179.99999999999983
  0
LINE
  8
_0-1_計細線
  6
CONTINUOUS
 62
    3
 10
1010.7999999978108
 20
677.25999999999988
 11
1013.299999997811
 21
677.25999999999988
  0
LINE
  8
_0-1_計細線
  6
CONTINUOUS
 62
    3
 10
1010.5999999989144
 20
681.15999999999985
 11
1005.5999999989147
 21
681.15999999999985
  0
LINE
  8
_0-1_計細線
  6
CONTINUOUS
 62
    3
 10
1006.3999999989147
 20
656.15999999999997
 11
1006.4000000000181
 21
676.25999999999999
  0
LINE
  8
_0-1_計細線
  6
CONTINUOUS
 62
    3
 10
1009.7999999989146
 20
656.15999999999997
 11
1009.8000000000184
 21
676.25999999999999
  0
LINE
  8
_0-1_計細線
  6
CONTINUOUS
 62
    3
 10
1009.7999999989146
 20
656.15999999999997
 11
1006.3999999989147
 21
656.15999999999997
  0
ARC
  8
_0-1_計細線
  6
CONTINUOUS
 62
    3
 10
1139.8000000023608
 20
679.15999999999985
 40
1
 50
89.999999999999915
 51
179.99999999999983
  0
ARC
  8
_0-1_計細線
  6
CONTINUOUS
 62
    3
 10
1140.2679491936879
 20
681.15999999999985
 40
1
 50
269.99999999999977
 51
329.9999999999967
  0
ARC
  8
_0-1_計細線
  6
CONTINUOUS
 62
    3
 10
1142.0000000012569
 20
680.16000000000008
 40
1
 50
89.999999999999915
 51
150.00000000001401
  0
LINE
  8
_0-1_計細線
  6
CONTINUOUS
 62
    3
 10
1139.8000000023608
 20
680.16000000000008
 11
1140.2679491936879
 21
680.16000000000008
  0
ARC
  8
_0-1_計細線
  6
CONTINUOUS
 62
    3
 10
1149.2000000001535
 20
679.15999999999985
 40
1
 50
0
 51
89.999999999999915
  0
ARC
  8
_0-1_計細線
  6
CONTINUOUS
 62
    3
 10
1148.7320508088255
 20
681.15999999999985
 40
1
 50
210.00000000000256
 51
269.99999999999977
  0
ARC
  8
_0-1_計細線
  6
CONTINUOUS
 62
    3
 10
1147.0000000012569
 20
680.16000000000008
 40
1
 50
29.99999999999903
 51
89.999999999999901
  0
LINE
  8
_0-1_計細線
  6
CONTINUOUS
 62
    3
 10
1149.2000000001535
 20
680.16000000000008
 11
1148.7320508088255
 21
680.16000000000008
  0
ARC
  8
_0-1_計細線
  6
CONTINUOUS
 62
    3
 10
1139.3000000023608
 20
677.75999999999999
 40
0.5
 50
179.99999999999983
 51
269.99999999999977
  0
LINE
  8
_0-1_計細線
  6
CONTINUOUS
 62
    3
 10
1138.8000000023603
 20
679.15999999999985
 11
1138.8000000023603
 21
677.75999999999999
  0
ARC
  8
_0-1_計細線
  6
CONTINUOUS
 62
    3
 10
1149.7000000001535
 20
677.75999999999999
 40
0.5
 50
269.99999999999977
 51
359.99999999999966
  0
LINE
  8
_0-1_計細線
  6
CONTINUOUS
 62
    3
 10
1150.2000000001531
 20
679.15999999999985
 11
1150.2000000001531
 21
677.75999999999999
  0
ARC
  8
_0-1_計細線
  6
CONTINUOUS
 62
    3
 10
1141.8000000023603
 20
676.25999999999999
 40
1
 50
0
 51
89.999999999999915
  0
LINE
  8
_0-1_計細線
  6
CONTINUOUS
 62
    3
 10
1141.8000000023603
 20
677.25999999999988
 11
1139.3000000023608
 21
677.25999999999988
  0
ARC
  8
_0-1_計細線
  6
CONTINUOUS
 62
    3
 10
1147.2000000023604
 20
676.25999999999999
 40
1
 50
89.999999999999915
 51
179.99999999999983
  0
LINE
  8
_0-1_計細線
  6
CONTINUOUS
 62
    3
 10
1147.2000000001531
 20
677.25999999999988
 11
1149.7000000001535
 21
677.25999999999988
  0
LINE
  8
_0-1_計細線
  6
CONTINUOUS
 62
    3
 10
1147.0000000012569
 20
681.15999999999985
 11
1142.0000000012569
 21
681.15999999999985
  0
LINE
  8
_0-1_計細線
  6
CONTINUOUS
 62
    3
 10
1142.8000000012571
 20
656.15999999999997
 11
1142.8000000023608
 21
676.25999999999999
  0
LINE
  8
_0-1_計細線
  6
CONTINUOUS
 62
    3
 10
1146.2000000012567
 20
656.15999999999997
 11
1146.2000000023609
 21
676.25999999999999
  0
LINE
  8
_0-1_計細線
  6
CONTINUOUS
 62
    3
 10
1146.2000000012567
 20
656.15999999999997
 11
1142.8000000012571
 21
656.15999999999997
  0
ARC
  8
_0-1_計細線
  6
CONTINUOUS
 62
    3
 10
1020.800000000018
 20
679.15999999999985
 40
1
 50
89.999999999999915
 51
179.99999999999983
  0
ARC
  8
_0-1_計細線
  6
CONTINUOUS
 62
    3
 10
1021.2679491913457
 20
681.15999999999985
 40
1
 50
269.99999999999977
 51
329.99999999999346
  0
ARC
  8
_0-1_計細線
  6
CONTINUOUS
 62
    3
 10
1022.9999999989145
 20
680.16000000000008
 40
1
 50
89.999999999999915
 51
150.00000000001074
  0
LINE
  8
_0-1_計細線
  6
CONTINUOUS
 62
    3
 10
1020.800000000018
 20
680.16000000000008
 11
1021.2679491913457
 21
680.16000000000008
  0
ARC
  8
_0-1_計細線
  6
CONTINUOUS
 62
    3
 10
1030.1999999978109
 20
679.15999999999985
 40
1
 50
0
 51
89.999999999999915
  0
ARC
  8
_0-1_計細線
  6
CONTINUOUS
 62
    3
 10
1029.7320508064836
 20
681.15999999999985
 40
1
 50
209.99999999999605
 51
269.99999999999977
  0
ARC
  8
_0-1_計細線
  6
CONTINUOUS
 62
    3
 10
1027.9999999989145
 20
680.16000000000008
 40
1
 50
29.999999999992518
 51
89.999999999999901
  0
LINE
  8
_0-1_計細線
  6
CONTINUOUS
 62
    3
 10
1030.1999999978109
 20
680.16000000000008
 11
1029.7320508064836
 21
680.16000000000008
  0
ARC
  8
_0-1_計細線
  6
CONTINUOUS
 62
    3
 10
1020.3000000000184
 20
677.75999999999999
 40
0.5
 50
179.99999999999983
 51
269.99999999999977
  0
LINE
  8
_0-1_計細線
  6
CONTINUOUS
 62
    3
 10
1019.8000000000183
 20
679.15999999999985
 11
1019.8000000000183
 21
677.75999999999999
  0
ARC
  8
_0-1_計細線
  6
CONTINUOUS
 62
    3
 10
1030.6999999978111
 20
677.75999999999999
 40
0.5
 50
269.99999999999977
 51
359.99999999999966
  0
LINE
  8
_0-1_計細線
  6
CONTINUOUS
 62
    3
 10
1031.1999999978111
 20
679.15999999999985
 11
1031.1999999978111
 21
677.75999999999999
  0
ARC
  8
_0-1_計細線
  6
CONTINUOUS
 62
    3
 10
1022.8000000000181
 20
676.25999999999999
 40
1
 50
0
 51
89.999999999999915
  0
LINE
  8
_0-1_計細線
  6
CONTINUOUS
 62
    3
 10
1022.8000000000181
 20
677.25999999999988
 11
1020.3000000000184
 21
677.25999999999988
  0
ARC
  8
_0-1_計細線
  6
CONTINUOUS
 62
    3
 10
1028.200000000018
 20
676.25999999999999
 40
1
 50
89.999999999999915
 51
179.99999999999983
  0
LINE
  8
_0-1_計細線
  6
CONTINUOUS
 62
    3
 10
1028.1999999978107
 20
677.25999999999988
 11
1030.6999999978111
 21
677.25999999999988
  0
LINE
  8
_0-1_計細線
  6
CONTINUOUS
 62
    3
 10
1027.9999999989145
 20
681.15999999999985
 11
1022.9999999989145
 21
681.15999999999985
  0
LINE
  8
_0-1_計細線
  6
CONTINUOUS
 62
    3
 10
1023.7999999989147
 20
656.15999999999997
 11
1023.8000000000181
 21
676.25999999999999
  0
LINE
  8
_0-1_計細線
  6
CONTINUOUS
 62
    3
 10
1027.1999999989146
 20
656.15999999999997
 11
1027.2000000000182
 21
676.25999999999999
  0
LINE
  8
_0-1_計細線
  6
CONTINUOUS
 62
    3
 10
1027.1999999989146
 20
656.15999999999997
 11
1023.7999999989147
 21
656.15999999999997
  0
ARC
  8
_0-1_計細線
  6
CONTINUOUS
 62
    3
 10
1037.8000000003799
 20
679.15999999999985
 40
1
 50
89.999999999999915
 51
179.99999999999983
  0
ARC
  8
_0-1_計細線
  6
CONTINUOUS
 62
    3
 10
1038.2679491917074
 20
681.15999999999985
 40
1
 50
269.99999999999977
 51
329.9999999999967
  0
ARC
  8
_0-1_計細線
  6
CONTINUOUS
 62
    3
 10
1039.9999999992765
 20
680.16000000000008
 40
1
 50
89.999999999999915
 51
150.00000000001401
  0
LINE
  8
_0-1_計細線
  6
CONTINUOUS
 62
    3
 10
1037.8000000003799
 20
680.16000000000008
 11
1038.2679491917074
 21
680.16000000000008
  0
ARC
  8
_0-1_計細線
  6
CONTINUOUS
 62
    3
 10
1047.1999999981726
 20
679.15999999999985
 40
1
 50
0
 51
89.999999999999915
  0
ARC
  8
_0-1_計細線
  6
CONTINUOUS
 62
    3
 10
1046.7320508068451
 20
681.15999999999985
 40
1
 50
210.00000000000256
 51
269.99999999999977
  0
ARC
  8
_0-1_計細線
  6
CONTINUOUS
 62
    3
 10
1044.9999999992765
 20
680.16000000000008
 40
1
 50
29.99999999999903
 51
89.999999999999901
  0
LINE
  8
_0-1_計細線
  6
CONTINUOUS
 62
    3
 10
1047.1999999981726
 20
680.16000000000008
 11
1046.7320508068451
 21
680.16000000000008
  0
ARC
  8
_0-1_計細線
  6
CONTINUOUS
 62
    3
 10
1037.3000000003801
 20
677.75999999999999
 40
0.5
 50
179.99999999999983
 51
269.99999999999977
  0
LINE
  8
_0-1_計細線
  6
CONTINUOUS
 62
    3
 10
1036.8000000003799
 20
679.15999999999985
 11
1036.8000000003799
 21
677.75999999999999
  0
ARC
  8
_0-1_計細線
  6
CONTINUOUS
 62
    3
 10
1047.6999999981729
 20
677.75999999999999
 40
0.5
 50
269.99999999999977
 51
359.99999999999966
  0
LINE
  8
_0-1_計細線
  6
CONTINUOUS
 62
    3
 10
1048.1999999981726
 20
679.15999999999985
 11
1048.1999999981726
 21
677.75999999999999
  0
ARC
  8
_0-1_計細線
  6
CONTINUOUS
 62
    3
 10
1039.8000000003799
 20
676.25999999999999
 40
1
 50
0
 51
89.999999999999915
  0
LINE
  8
_0-1_計細線
  6
CONTINUOUS
 62
    3
 10
1039.8000000003799
 20
677.25999999999988
 11
1037.3000000003801
 21
677.25999999999988
  0
ARC
  8
_0-1_計細線
  6
CONTINUOUS
 62
    3
 10
1045.20000000038
 20
676.25999999999999
 40
1
 50
89.999999999999915
 51
179.99999999999983
  0
LINE
  8
_0-1_計細線
  6
CONTINUOUS
 62
    3
 10
1045.1999999981726
 20
677.25999999999988
 11
1047.6999999981729
 21
677.25999999999988
  0
LINE
  8
_0-1_計細線
  6
CONTINUOUS
 62
    3
 10
1044.9999999992765
 20
681.15999999999985
 11
1039.9999999992765
 21
681.15999999999985
  0
LINE
  8
_0-1_計細線
  6
CONTINUOUS
 62
    3
 10
1040.7999999992762
 20
656.15999999999997
 11
1040.8000000003799
 21
676.25999999999999
  0
LINE
  8
_0-1_計細線
  6
CONTINUOUS
 62
    3
 10
1044.1999999992763
 20
656.15999999999997
 11
1044.20000000038
 21
676.25999999999999
  0
LINE
  8
_0-1_計細線
  6
CONTINUOUS
 62
    3
 10
1044.1999999992763
 20
656.15999999999997
 11
1040.7999999992762
 21
656.15999999999997
  0
ARC
  8
_0-1_計細線
  6
CONTINUOUS
 62
    3
 10
1054.8000000007419
 20
679.15999999999985
 40
1
 50
89.999999999999915
 51
179.99999999999983
  0
ARC
  8
_0-1_計細線
  6
CONTINUOUS
 62
    3
 10
1055.2679491920694
 20
681.15999999999985
 40
1
 50
269.99999999999977
 51
329.9999999999967
  0
ARC
  8
_0-1_計細線
  6
CONTINUOUS
 62
    3
 10
1056.9999999996385
 20
680.16000000000008
 40
1
 50
89.999999999999915
 51
150.00000000001401
  0
LINE
  8
_0-1_計細線
  6
CONTINUOUS
 62
    3
 10
1054.8000000007419
 20
680.16000000000008
 11
1055.2679491920694
 21
680.16000000000008
  0
ARC
  8
_0-1_計細線
  6
CONTINUOUS
 62
    3
 10
1064.1999999985346
 20
679.15999999999985
 40
1
 50
0
 51
89.999999999999915
  0
ARC
  8
_0-1_計細線
  6
CONTINUOUS
 62
    3
 10
1063.7320508072073
 20
681.15999999999985
 40
1
 50
209.99999999999605
 51
269.99999999999977
  0
ARC
  8
_0-1_計細線
  6
CONTINUOUS
 62
    3
 10
1061.999999999638
 20
680.16000000000008
 40
1
 50
29.999999999986002
 51
89.999999999973952
  0
LINE
  8
_0-1_計細線
  6
CONTINUOUS
 62
    3
 10
1064.1999999985346
 20
680.16000000000008
 11
1063.7320508072073
 21
680.16000000000008
  0
ARC
  8
_0-1_計細線
  6
CONTINUOUS
 62
    3
 10
1054.3000000007419
 20
677.75999999999999
 40
0.5
 50
179.99999999999983
 51
269.99999999999977
  0
LINE
  8
_0-1_計細線
  6
CONTINUOUS
 62
    3
 10
1053.8000000007419
 20
679.15999999999985
 11
1053.8000000007419
 21
677.75999999999999
  0
ARC
  8
_0-1_計細線
  6
CONTINUOUS
 62
    3
 10
1064.6999999985346
 20
677.75999999999999
 40
0.5
 50
269.99999999999977
 51
359.99999999999966
  0
LINE
  8
_0-1_計細線
  6
CONTINUOUS
 62
    3
 10
1065.1999999985351
 20
679.15999999999985
 11
1065.1999999985351
 21
677.75999999999999
  0
ARC
  8
_0-1_計細線
  6
CONTINUOUS
 62
    3
 10
1056.8000000007419
 20
676.25999999999999
 40
1
 50
0
 51
89.999999999999915
  0
LINE
  8
_0-1_計細線
  6
CONTINUOUS
 62
    3
 10
1056.8000000007419
 20
677.25999999999988
 11
1054.3000000007419
 21
677.25999999999988
  0
ARC
  8
_0-1_計細線
  6
CONTINUOUS
 62
    3
 10
1062.200000000742
 20
676.25999999999999
 40
1
 50
89.999999999999915
 51
179.99999999999983
  0
LINE
  8
_0-1_計細線
  6
CONTINUOUS
 62
    3
 10
1062.1999999985346
 20
677.25999999999988
 11
1064.6999999985346
 21
677.25999999999988
  0
LINE
  8
_0-1_計細線
  6
CONTINUOUS
 62
    3
 10
1061.999999999638
 20
681.15999999999985
 11
1056.9999999996385
 21
681.15999999999985
  0
LINE
  8
_0-1_計細線
  6
CONTINUOUS
 62
    3
 10
1057.7999999996384
 20
656.15999999999997
 11
1057.8000000007419
 21
676.25999999999999
  0
LINE
  8
_0-1_計細線
  6
CONTINUOUS
 62
    3
 10
1061.1999999996383
 20
656.15999999999997
 11
1061.200000000742
 21
676.25999999999999
  0
LINE
  8
_0-1_計細線
  6
CONTINUOUS
 62
    3
 10
1061.1999999996383
 20
656.15999999999997
 11
1057.7999999996384
 21
656.15999999999997
  0
ARC
  8
_0-1_計細線
  6
CONTINUOUS
 62
    3
 10
1088.8000000014654
 20
679.15999999999985
 40
1
 50
89.999999999999915
 51
179.99999999999983
  0
ARC
  8
_0-1_計細線
  6
CONTINUOUS
 62
    3
 10
1089.2679491927929
 20
681.15999999999985
 40
1
 50
269.99999999999977
 51
329.9999999999967
  0
ARC
  8
_0-1_計細線
  6
CONTINUOUS
 62
    3
 10
1091.000000000362
 20
680.16000000000008
 40
1
 50
89.999999999999915
 51
150.00000000001401
  0
LINE
  8
_0-1_計細線
  6
CONTINUOUS
 62
    3
 10
1088.8000000014654
 20
680.16000000000008
 11
1089.2679491927929
 21
680.16000000000008
  0
ARC
  8
_0-1_計細線
  6
CONTINUOUS
 62
    3
 10
1098.1999999992581
 20
679.15999999999985
 40
1
 50
0
 51
89.999999999999915
  0
ARC
  8
_0-1_計細線
  6
CONTINUOUS
 62
    3
 10
1097.7320508079306
 20
681.15999999999985
 40
1
 50
210.00000000000256
 51
269.99999999999977
  0
ARC
  8
_0-1_計細線
  6
CONTINUOUS
 62
    3
 10
1096.0000000003615
 20
680.16000000000008
 40
1
 50
29.999999999986002
 51
89.999999999973952
  0
LINE
  8
_0-1_計細線
  6
CONTINUOUS
 62
    3
 10
1098.1999999992581
 20
680.16000000000008
 11
1097.7320508079306
 21
680.16000000000008
  0
ARC
  8
_0-1_計細線
  6
CONTINUOUS
 62
    3
 10
1088.3000000014654
 20
677.75999999999999
 40
0.5
 50
179.99999999999983
 51
269.99999999999977
  0
LINE
  8
_0-1_計細線
  6
CONTINUOUS
 62
    3
 10
1087.8000000014654
 20
679.15999999999985
 11
1087.8000000014654
 21
677.75999999999999
  0
ARC
  8
_0-1_計細線
  6
CONTINUOUS
 62
    3
 10
1098.6999999992581
 20
677.75999999999999
 40
0.5
 50
269.99999999999977
 51
359.99999999999966
  0
LINE
  8
_0-1_計細線
  6
CONTINUOUS
 62
    3
 10
1099.1999999992581
 20
679.15999999999985
 11
1099.1999999992581
 21
677.75999999999999
  0
ARC
  8
_0-1_計細線
  6
CONTINUOUS
 62
    3
 10
1090.8000000014654
 20
676.25999999999999
 40
1
 50
0
 51
89.999999999999915
  0
LINE
  8
_0-1_計細線
  6
CONTINUOUS
 62
    3
 10
1090.8000000014654
 20
677.25999999999988
 11
1088.3000000014654
 21
677.25999999999988
  0
ARC
  8
_0-1_計細線
  6
CONTINUOUS
 62
    3
 10
1096.2000000014655
 20
676.25999999999999
 40
1
 50
89.999999999999915
 51
179.99999999999983
  0
LINE
  8
_0-1_計細線
  6
CONTINUOUS
 62
    3
 10
1096.1999999992581
 20
677.25999999999988
 11
1098.6999999992581
 21
677.25999999999988
  0
LINE
  8
_0-1_計細線
  6
CONTINUOUS
 62
    3
 10
1096.0000000003615
 20
681.15999999999985
 11
1091.000000000362
 21
681.15999999999985
  0
LINE
  8
_0-1_計細線
  6
CONTINUOUS
 62
    3
 10
1091.8000000003617
 20
656.15999999999997
 11
1091.8000000014654
 21
676.25999999999999
  0
LINE
  8
_0-1_計細線
  6
CONTINUOUS
 62
    3
 10
1095.2000000003618
 20
656.15999999999997
 11
1095.2000000014655
 21
676.25999999999999
  0
LINE
  8
_0-1_計細線
  6
CONTINUOUS
 62
    3
 10
1095.2000000003618
 20
656.15999999999997
 11
1091.8000000003617
 21
656.15999999999997
  0
ARC
  8
_0-1_計細線
  6
CONTINUOUS
 62
    3
 10
1105.8000000018274
 20
679.15999999999985
 40
1
 50
89.999999999999915
 51
179.99999999999983
  0
ARC
  8
_0-1_計細線
  6
CONTINUOUS
 62
    3
 10
1106.2679491931544
 20
681.15999999999985
 40
1
 50
269.99999999999977
 51
329.9999999999967
  0
ARC
  8
_0-1_計細線
  6
CONTINUOUS
 62
    3
 10
1108.0000000007235
 20
680.16000000000008
 40
1
 50
89.999999999999915
 51
150.00000000001401
  0
LINE
  8
_0-1_計細線
  6
CONTINUOUS
 62
    3
 10
1105.8000000018274
 20
680.16000000000008
 11
1106.2679491931544
 21
680.16000000000008
  0
ARC
  8
_0-1_計細線
  6
CONTINUOUS
 62
    3
 10
1115.1999999996196
 20
679.15999999999985
 40
1
 50
0
 51
89.999999999999915
  0
ARC
  8
_0-1_計細線
  6
CONTINUOUS
 62
    3
 10
1114.7320508082926
 20
681.15999999999985
 40
1
 50
209.99999999998954
 51
269.99999999999977
  0
ARC
  8
_0-1_計細線
  6
CONTINUOUS
 62
    3
 10
1113.0000000007235
 20
680.16000000000008
 40
1
 50
29.99999999999903
 51
89.999999999999901
  0
LINE
  8
_0-1_計細線
  6
CONTINUOUS
 62
    3
 10
1115.1999999996196
 20
680.16000000000008
 11
1114.7320508082926
 21
680.16000000000008
  0
ARC
  8
_0-1_計細線
  6
CONTINUOUS
 62
    3
 10
1105.3000000018274
 20
677.75999999999999
 40
0.5
 50
179.99999999999983
 51
269.99999999999977
  0
LINE
  8
_0-1_計細線
  6
CONTINUOUS
 62
    3
 10
1104.8000000018269
 20
679.15999999999985
 11
1104.8000000018269
 21
677.75999999999999
  0
ARC
  8
_0-1_計細線
  6
CONTINUOUS
 62
    3
 10
1115.6999999996199
 20
677.75999999999999
 40
0.5
 50
269.99999999999977
 51
359.99999999999966
  0
LINE
  8
_0-1_計細線
  6
CONTINUOUS
 62
    3
 10
1116.1999999996201
 20
679.15999999999985
 11
1116.1999999996201
 21
677.75999999999999
  0
ARC
  8
_0-1_計細線
  6
CONTINUOUS
 62
    3
 10
1107.8000000018269
 20
676.25999999999999
 40
1
 50
0
 51
89.999999999999915
  0
LINE
  8
_0-1_計細線
  6
CONTINUOUS
 62
    3
 10
1107.8000000018269
 20
677.25999999999988
 11
1105.3000000018274
 21
677.25999999999988
  0
ARC
  8
_0-1_計細線
  6
CONTINUOUS
 62
    3
 10
1113.2000000018274
 20
676.25999999999999
 40
1
 50
89.999999999999915
 51
179.99999999999983
  0
LINE
  8
_0-1_計細線
  6
CONTINUOUS
 62
    3
 10
1113.1999999996201
 20
677.25999999999988
 11
1115.6999999996199
 21
677.25999999999988
  0
LINE
  8
_0-1_計細線
  6
CONTINUOUS
 62
    3
 10
1113.0000000007235
 20
681.15999999999985
 11
1108.0000000007235
 21
681.15999999999985
  0
LINE
  8
_0-1_計細線
  6
CONTINUOUS
 62
    3
 10
1108.8000000007237
 20
656.15999999999997
 11
1108.8000000018274
 21
676.25999999999999
  0
LINE
  8
_0-1_計細線
  6
CONTINUOUS
 62
    3
 10
1112.2000000007233
 20
656.15999999999997
 11
1112.200000001827
 21
676.25999999999999
  0
LINE
  8
_0-1_計細線
  6
CONTINUOUS
 62
    3
 10
1112.2000000007233
 20
656.15999999999997
 11
1108.8000000007237
 21
656.15999999999997
  0
ARC
  8
_0-1_計細線
  6
CONTINUOUS
 62
    3
 10
1122.8000000021889
 20
679.15999999999985
 40
1
 50
89.999999999999915
 51
179.99999999999983
  0
ARC
  8
_0-1_計細線
  6
CONTINUOUS
 62
    3
 10
1123.2679491935164
 20
681.15999999999985
 40
1
 50
269.99999999999977
 51
329.9999999999967
  0
ARC
  8
_0-1_計細線
  6
CONTINUOUS
 62
    3
 10
1125.000000001085
 20
680.16000000000008
 40
1
 50
89.999999999999915
 51
150.00000000000097
  0
LINE
  8
_0-1_計細線
  6
CONTINUOUS
 62
    3
 10
1122.8000000021889
 20
680.16000000000008
 11
1123.2679491935164
 21
680.16000000000008
  0
ARC
  8
_0-1_計細線
  6
CONTINUOUS
 62
    3
 10
1132.1999999999816
 20
679.15999999999985
 40
1
 50
0
 51
89.999999999999915
  0
ARC
  8
_0-1_計細線
  6
CONTINUOUS
 62
    3
 10
1131.7320508086545
 20
681.15999999999985
 40
1
 50
210.00000000000256
 51
269.99999999999977
  0
ARC
  8
_0-1_計細線
  6
CONTINUOUS
 62
    3
 10
1130.0000000010855
 20
680.16000000000008
 40
1
 50
29.999999999986002
 51
89.999999999999901
  0
LINE
  8
_0-1_計細線
  6
CONTINUOUS
 62
    3
 10
1132.1999999999816
 20
680.16000000000008
 11
1131.7320508086545
 21
680.16000000000008
  0
ARC
  8
_0-1_計細線
  6
CONTINUOUS
 62
    3
 10
1122.3000000021889
 20
677.75999999999999
 40
0.5
 50
179.99999999999983
 51
269.99999999999977
  0
LINE
  8
_0-1_計細線
  6
CONTINUOUS
 62
    3
 10
1121.8000000021889
 20
679.15999999999985
 11
1121.8000000021889
 21
677.75999999999999
  0
ARC
  8
_0-1_計細線
  6
CONTINUOUS
 62
    3
 10
1132.6999999999816
 20
677.75999999999999
 40
0.5
 50
269.99999999999977
 51
359.99999999999966
  0
LINE
  8
_0-1_計細線
  6
CONTINUOUS
 62
    3
 10
1133.1999999999821
 20
679.15999999999985
 11
1133.1999999999821
 21
677.75999999999999
  0
ARC
  8
_0-1_計細線
  6
CONTINUOUS
 62
    3
 10
1124.8000000021889
 20
676.25999999999999
 40
1
 50
0
 51
89.999999999999915
  0
LINE
  8
_0-1_計細線
  6
CONTINUOUS
 62
    3
 10
1124.8000000021889
 20
677.25999999999988
 11
1122.3000000021889
 21
677.25999999999988
  0
ARC
  8
_0-1_計細線
  6
CONTINUOUS
 62
    3
 10
1130.200000002189
 20
676.25999999999999
 40
1
 50
89.999999999999915
 51
179.99999999999983
  0
LINE
  8
_0-1_計細線
  6
CONTINUOUS
 62
    3
 10
1130.1999999999816
 20
677.25999999999988
 11
1132.6999999999816
 21
677.25999999999988
  0
LINE
  8
_0-1_計細線
  6
CONTINUOUS
 62
    3
 10
1130.0000000010855
 20
681.15999999999985
 11
1125.000000001085
 21
681.15999999999985
  0
LINE
  8
_0-1_計細線
  6
CONTINUOUS
 62
    3
 10
1125.8000000010852
 20
656.15999999999997
 11
1125.8000000021889
 21
676.25999999999999
  0
LINE
  8
_0-1_計細線
  6
CONTINUOUS
 62
    3
 10
1129.2000000010853
 20
656.15999999999997
 11
1129.200000002189
 21
676.25999999999999
  0
LINE
  8
_0-1_計細線
  6
CONTINUOUS
 62
    3
 10
1129.2000000010853
 20
656.15999999999997
 11
1125.8000000010852
 21
656.15999999999997
  0
ARC
  8
_0-1_計細線
  6
CONTINUOUS
 62
    3
 10
1187
 20
656.15999999999997
 40
3.0000000000000004
 50
269.99999999999977
 51
359.99999999999966
  0
LINE
  8
_0-1_計細線
  6
CONTINUOUS
 62
    3
 10
1190
 20
656.15999999999997
 11
1190
 21
680.6600000000002
  0
LINE
  8
_0-1_計細線
  6
CONTINUOUS
 62
    3
 10
1187
 20
653.16000000000008
 11
1160.4999999999995
 21
653.16000000000008
  0
LINE
  8
_0-1_計細線
  6
CONTINUOUS
 62
    3
 10
1159.9999999999995
 20
653.66000000000008
 11
1160.4999999999995
 21
653.16000000000008
  0
LINE
  8
_0-1_計細線
  6
CONTINUOUS
 62
    3
 10
1159.9999999999995
 20
655.6600000000002
 11
1159.9999999999995
 21
653.66000000000008
  0
LINE
  8
_0-1_計細線
  6
CONTINUOUS
 62
    3
 10
1160.4999999999995
 20
656.15999999999997
 11
1159.9999999999995
 21
655.6600000000002
  0
LINE
  8
_0-1_計細線
  6
CONTINUOUS
 62
    3
 10
1187
 20
656.15999999999997
 11
1160.4999999999995
 21
656.15999999999997
  0
LINE
  8
_0-1_計細線
  6
CONTINUOUS
 62
    3
 10
1189.5
 20
681.16000000000008
 11
1190
 21
680.6600000000002
  0
LINE
  8
_0-1_計細線
  6
CONTINUOUS
 62
    3
 10
1187.5
 20
681.16000000000008
 11
1189.5
 21
681.16000000000008
  0
LINE
  8
_0-1_計細線
  6
CONTINUOUS
 62
    3
 10
1187
 20
680.6600000000002
 11
1187.5
 21
681.16000000000008
  0
LINE
  8
_0-1_計細線
  6
CONTINUOUS
 62
    3
 10
1187
 20
656.15999999999997
 11
1187
 21
680.6600000000002
  0
ARC
  8
_0-1_計細線
  6
CONTINUOUS
 62
    3
 10
983
 20
656.15999999999997
 40
3.0000000000000004
 50
179.99999999999983
 51
269.99999999999977
  0
LINE
  8
_0-1_計細線
  6
CONTINUOUS
 62
    3
 10
980
 20
656.15999999999997
 11
980
 21
680.6600000000002
  0
LINE
  8
_0-1_計細線
  6
CONTINUOUS
 62
    3
 10
983
 20
653.16000000000008
 11
1009.4999999999999
 21
653.16000000000008
  0
LINE
  8
_0-1_計細線
  6
CONTINUOUS
 62
    3
 10
1010
 20
653.66000000000008
 11
1009.4999999999999
 21
653.16000000000008
  0
LINE
  8
_0-1_計細線
  6
CONTINUOUS
 62
    3
 10
1010
 20
655.6600000000002
 11
1010
 21
653.66000000000008
  0
LINE
  8
_0-1_計細線
  6
CONTINUOUS
 62
    3
 10
1009.4999999999999
 20
656.15999999999997
 11
1010
 21
655.6600000000002
  0
LINE
  8
_0-1_計細線
  6
CONTINUOUS
 62
    3
 10
983
 20
656.15999999999997
 11
1009.4999999999999
 21
656.15999999999997
  0
LINE
  8
_0-1_計細線
  6
CONTINUOUS
 62
    3
 10
980.49999999999977
 20
681.16000000000008
 11
980
 21
680.6600000000002
  0
LINE
  8
_0-1_計細線
  6
CONTINUOUS
 62
    3
 10
982.49999999999989
 20
681.16000000000008
 11
980.49999999999977
 21
681.16000000000008
  0
LINE
  8
_0-1_計細線
  6
CONTINUOUS
 62
    3
 10
983
 20
680.6600000000002
 11
982.49999999999989
 21
681.16000000000008
  0
LINE
  8
_0-1_計細線
  6
CONTINUOUS
 62
    3
 10
983
 20
656.15999999999997
 11
983
 21
680.6600000000002
  0
LINE
  8
_0-0_計極細
  6
CENTER1
 62
    2
 10
1188.8721647772363
 20
669.95999999999981
 11
979.00760453327575
 21
669.95999999999981
  0
CIRCLE
  8
_0-0_計極細
  6
CONTINUOUS
 62
    2
 10
1206.9182918262377
 20
640.94000921295958
 40
0.3318518518518431
  0
CIRCLE
  8
_0-0_計極細
  6
CONTINUOUS
 62
    2
 10
1218.6782918262379
 20
637.58000921295979
 40
0.3318518518518431
  0
LINE
  8
_0-0_計極細
  6
CONTINUOUS
 62
    2
 10
1205
 20
634.61133680898956
 11
1214
 21
634.61133680898956
  0
LINE
  8
_0-0_計極細
  6
CENTER1
 62
    2
 10
1209.5
 20
603.19395582932816
 11
1209.5
 21
637.17676890775533
  0
LINE
  8
_0-0_計極細
  6
CONTINUOUS
 62
    2
 10
1214
 20
634.61133680898956
 11
1214
 21
608.16000000000008
  0
LINE
  8
_0-0_計極細
  6
CONTINUOUS
 62
    2
 10
1205
 20
608.16000000000008
 11
1205
 21
634.61133680898956
  0
LINE
  8
_0-0_計極細
  6
CENTER1
 62
    2
 10
1220.6963916124523
 20
626.23545946702075
 11
1182.2777793229129
 21
640.21869075804193
  0
LINE
  8
_0-0_計極細
  6
CONTINUOUS
 62
    2
 10
1216.1840409322913
 20
623.08902069750206
 11
1183.1094340380823
 21
635.12719311704984
  0
LINE
  8
_0-0_計極細
  6
CONTINUOUS
 62
    2
 10
1219.2622222222221
 20
631.5462542845753
 11
1186.1876153280132
 21
643.58442670412319
  0
LINE
  8
_0-0_計極細
  6
CONTINUOUS
 62
    2
 10
1186.1876153280132
 20
643.58442670412296
 11
1183.1094340380823
 21
635.12719311704984
  0
LINE
  8
_0-0_計極細
  6
CONTINUOUS
 62
    2
 10
1216.1840409322913
 20
623.08902069750206
 11
1219.2622222222221
 21
631.5462542845753
  0
LINE
  8
_0-0_計極細
  6
CENTER1
 62
    2
 10
960.5
 20
603.19395582932816
 11
960.5
 21
637.17676890775533
  0
LINE
  8
_0-0_計極細
  6
CONTINUOUS
 62
    2
 10
956
 20
634.61133680898956
 11
956
 21
608.16000000000008
  0
LINE
  8
_0-0_計極細
  6
CONTINUOUS
 62
    2
 10
965
 20
634.61133680898956
 11
956
 21
634.61133680898956
  0
LINE
  8
_0-0_計極細
  6
CONTINUOUS
 62
    2
 10
965
 20
608.16000000000008
 11
965
 21
634.61133680898956
  0
LINE
  8
_0-0_計極細
  6
CENTER1
 62
    2
 10
949.30360838754746
 20
626.23545946702075
 11
987.72222067708708
 21
640.21869075804193
  0
LINE
  8
_0-0_計極細
  6
CONTINUOUS
 62
    2
 10
953.81595906770883
 20
623.08902069750206
 11
986.89056596191745
 21
635.12719311704984
  0
LINE
  8
_0-0_計極細
  6
CONTINUOUS
 62
    2
 10
950.73777777777764
 20
631.5462542845753
 11
983.81238467198671
 21
643.58442670412319
  0
LINE
  8
_0-0_計極細
  6
CONTINUOUS
 62
    2
 10
983.81238467198671
 20
643.58442670412296
 11
986.89056596191745
 21
635.12719311704984
  0
LINE
  8
_0-0_計極細
  6
CONTINUOUS
 62
    2
 10
953.81595906770883
 20
623.08902069750206
 11
950.73777777777764
 21
631.5462542845753
  0
CIRCLE
  8
_0-0_計極細
  6
CONTINUOUS
 62
    2
 10
1165.7601436780888
 20
601.57130550925558
 40
1.0953188836088352
  0
CIRCLE
  8
_0-0_計極細
  6
CONTINUOUS
 62
    2
 10
1163.9912547892
 20
645.14463884258919
 40
1.0953188836088352
  0
CIRCLE
  8
_0-0_計極細
  6
CONTINUOUS
 62
    2
 10
1164.3745881225336
 20
605.57260180555227
 40
0.3318518518518431
  0
CIRCLE
  8
_0-0_計極細
  6
CONTINUOUS
 62
    2
 10
1163.5906375052496
 20
629.12593513888521
 40
0.3318518518518431
  0
LINE
  8
_0-0_計極細
  6
CONTINUOUS
 62
    2
 10
1159.9999999999995
 20
653.16000000000008
 11
1159.9999999999995
 21
592.41503982313259
  0
LINE
  8
_0-0_計極細
  6
CONTINUOUS
 62
    2
 10
1160.4999999999995
 20
653.16000000000008
 11
1159.9999999999995
 21
653.16000000000008
  0
CIRCLE
  8
_0-0_計極細
  6
CONTINUOUS
 62
    2
 10
1201.9968103447554
 20
667.87926847221809
 40
0.3318518518518431
  0
CIRCLE
  8
_0-0_計極細
  6
CONTINUOUS
 62
    2
 10
1214.7968103447552
 20
660.48797217592198
 40
1.0953188836088352
  0
CIRCLE
  8
_0-0_計極細
  6
CONTINUOUS
 62
    2
 10
1214.7168103447552
 20
664.27926847221829
 40
0.3318518518518431
  0
CIRCLE
  8
_0-0_計極細
  6
CONTINUOUS
 62
    2
 10
1223.916810344755
 20
667.84797217592188
 40
1.0953188836088352
  0
CIRCLE
  8
_0-0_計極細
  6
CONTINUOUS
 62
    2
 10
1217.1168103447553
 20
668.99926847221809
 40
0.3318518518518431
  0
CIRCLE
  8
_0-0_計極細
  6
CONTINUOUS
 62
    2
 10
1233.1968103447552
 20
667.31926847221803
 40
0.3318518518518431
  0
CIRCLE
  8
_0-0_計極細
  6
CONTINUOUS
 62
    2
 10
1243.2768103447547
 20
667.31926847221803
 40
0.3318518518518431
  0
LINE
  8
_0-0_計極細
  6
CONTINUOUS
 62
    2
 10
1236.0734832401818
 20
674.15999999999997
 11
1243.0734828641084
 21
681.15999962392664
  0
LINE
  8
_0-0_計極細
  6
CONTINUOUS
 62
    2
 10
1223.345561178824
 20
674.16000000000031
 11
1230.3455609023199
 21
681.15999972349584
  0
LINE
  8
_0-0_計極細
  6
CONTINUOUS
 62
    2
 10
1210.6176391174658
 20
674.15999999999997
 11
1217.6176389405309
 21
681.15999982306471
  0
LINE
  8
_0-0_計極細
  6
CONTINUOUS
 62
    2
 10
1197.8897170561081
 20
674.15999999999997
 11
1204.8897169787424
 21
681.15999992263392
  0
LINE
  8
_0-0_計極細
  6
DASHED2
 62
    2
 10
1242.4374442708609
 20
674.16000000000031
 11
1248.5066482870689
 21
680.22920401620809
  0
LINE
  8
_0-0_計極細
  6
DASHED2
 62
    2
 10
1229.7095222095027
 20
674.15999999999997
 11
1236.7095218832137
 21
681.15999967371113
  0
LINE
  8
_0-0_計極細
  6
DASHED2
 62
    2
 10
1216.9816001481449
 20
674.15999999999997
 11
1223.9815999214252
 21
681.15999977328033
  0
LINE
  8
_0-0_計極細
  6
DASHED2
 62
    2
 10
1204.2536780867872
 20
674.15999999999997
 11
1211.2536779596362
 21
681.15999987284954
  0
LINE
  8
_0-0_計極細
  6
DASHED2
 62
    2
 10
1195
 20
677.63424397457061
 11
1198.5257559978477
 21
681.1599999724184
  0
LINE
  8
_0-0_計極細
  6
CONTINUOUS
 62
    2
 10
1195
 20
676.36145176843502
 11
1192.7985482315648
 21
674.15999999999997
  0
LINE
  8
_0-0_計極細
  6
CONTINUOUS
 62
    2
 10
1195
 20
678.90703618070643
 11
1190.2529638192937
 21
674.15999999999997
  0
LINE
  8
_0-0_計極細
  6
CONTINUOUS
 62
    2
 10
1190
 20
676.45262059297806
 11
1194.707379407022
 21
681.16000000000008
  0
LINE
  8
_0-0_計極細
  6
CONTINUOUS
 62
    2
 10
1190
 20
678.9982050052497
 11
1192.1617949947504
 21
681.16000000000008
  0
LINE
  8
_0-0_計極細
  6
CONTINUOUS
 62
    2
 10
1195
 20
680.25440667429677
 11
1194.0944066742968
 21
681.16000000000008
  0
LINE
  8
_0-0_計極細
  6
CONTINUOUS
 62
    2
 10
1195
 20
677.70882226202525
 11
1191.5488222620252
 21
681.16000000000008
  0
LINE
  8
_0-0_計極細
  6
CONTINUOUS
 62
    2
 10
1195
 20
675.16323784975373
 11
1190
 21
680.16323784975373
  0
LINE
  8
_0-0_計極細
  6
CONTINUOUS
 62
    2
 10
1193.4576534374819
 20
674.15999999999997
 11
1190
 21
677.6176534374822
  0
LINE
  8
_0-0_計極細
  6
CONTINUOUS
 62
    2
 10
1190.9120690252103
 20
674.15999999999997
 11
1190
 21
675.07206902521045
  0
LINE
  8
_0-0_計極細
  6
CONTINUOUS
 62
    2
 10
1190
 20
680.6600000000002
 11
1190
 21
681.16000000000008
  0
LINE
  8
_0-0_計極細
  6
CONTINUOUS
 62
    2
 10
1190
 20
681.16000000000008
 11
1195
 21
681.16000000000008
  0
LINE
  8
_0-0_計極細
  6
CONTINUOUS
 62
    2
 10
1190
 20
674.15999999999997
 11
1248.5066482870689
 21
674.15999999999997
  0
LINE
  8
_0-0_計極細
  6
CONTINUOUS
 62
    2
 10
1195
 20
681.16000000000008
 11
1248.5066482870689
 21
681.16000000000008
  0
LINE
  8
_0-0_計極細
  6
CONTINUOUS
 62
    2
 10
1195
 20
681.16000000000008
 11
1195
 21
674.15999999999997
  0
CIRCLE
  8
_0-0_計極細
  6
CONTINUOUS
 62
    2
 10
1168.5738473817933
 20
624.05071559836711
 40
0.3318518518518431
  0
CIRCLE
  8
_0-0_計極細
  6
CONTINUOUS
 62
    2
 10
1168.4538473817929
 20
638.42404893170055
 40
0.3318518518518431
  0
CIRCLE
  8
_0-0_計極細
  6
CONTINUOUS
 62
    2
 10
1196.9334770114219
 20
641.67797217592226
 40
1.0953188836088352
  0
CIRCLE
  8
_0-0_計極細
  6
CONTINUOUS
 62
    2
 10
1227.3325925925924
 20
609.64574074074085
 40
1.0953188836088352
  0
CIRCLE
  8
_0-0_計極細
  6
CONTINUOUS
 62
    2
 10
1199.5734770114223
 20
615.75797217592265
 40
1.0953188836088352
  0
CIRCLE
  8
_0-0_計極細
  6
CONTINUOUS
 62
    2
 10
1178.4534770114224
 20
629.19797217592236
 40
1.0953188836088352
  0
CIRCLE
  8
_0-0_計極細
  6
CONTINUOUS
 62
    2
 10
1172.3201436780892
 20
611.27797217592263
 40
1.0953188836088352
  0
CIRCLE
  8
_0-0_計極細
  6
CONTINUOUS
 62
    2
 10
1214.5568103447549
 20
638.00797217592219
 40
1.0953188836088352
  0
CIRCLE
  8
_0-0_計極細
  6
CONTINUOUS
 62
    2
 10
1195.3568103447556
 20
657.2079721759219
 40
1.0953188836088352
  0
CIRCLE
  8
_0-0_計極細
  6
CONTINUOUS
 62
    2
 10
1228.6101436780882
 20
653.26130550925541
 40
1.0953188836088352
  0
CIRCLE
  8
_0-0_計極細
  6
CONTINUOUS
 62
    2
 10
1237.996810344755
 20
662.54130550925538
 40
1.0953188836088352
  0
CIRCLE
  8
_0-0_計極細
  6
CONTINUOUS
 62
    2
 10
1240.8768103447551
 20
654.27926847221829
 40
0.3318518518518431
  0
CIRCLE
  8
_0-0_計極細
  6
CONTINUOUS
 62
    2
 10
1223.1168103447549
 20
641.55926847221849
 40
0.3318518518518431
  0
CIRCLE
  8
_0-0_計極細
  6
CONTINUOUS
 62
    2
 10
1224.7968103447552
 20
657.63926847221808
 40
0.3318518518518431
  0
CIRCLE
  8
_0-0_計極細
  6
CONTINUOUS
 62
    2
 10
1214.7168103447552
 20
645.87926847221854
 40
0.3318518518518431
  0
CIRCLE
  8
_0-0_計極細
  6
CONTINUOUS
 62
    2
 10
1225.516810344755
 20
633.15926847221851
 40
0.3318518518518431
  0
CIRCLE
  8
_0-0_計極細
  6
CONTINUOUS
 62
    2
 10
1226.476810344755
 20
620.67926847221872
 40
0.3318518518518431
  0
CIRCLE
  8
_0-0_計極細
  6
CONTINUOUS
 62
    2
 10
1222.1568103447553
 20
612.27926847221875
 40
0.3318518518518431
  0
CIRCLE
  8
_0-0_計極細
  6
CONTINUOUS
 62
    2
 10
1198.6368103447553
 20
644.19926847221848
 40
0.3318518518518431
  0
CIRCLE
  8
_0-0_計極細
  6
CONTINUOUS
 62
    2
 10
1193.2768103447552
 20
653.02593513888507
 40
0.3318518518518431
  0
CIRCLE
  8
_0-0_計極細
  6
CONTINUOUS
 62
    2
 10
1194.770143678089
 20
664.86593513888488
 40
0.3318518518518431
  0
CIRCLE
  8
_0-0_計極細
  6
CONTINUOUS
 62
    2
 10
1200.4634770114221
 20
620.45260180555204
 40
0.3318518518518431
  0
CIRCLE
  8
_0-0_計極細
  6
CONTINUOUS
 62
    2
 10
1193.7434770114223
 20
617.09260180555225
 40
0.3318518518518431
  0
CIRCLE
  8
_0-0_計極細
  6
CONTINUOUS
 62
    2
 10
1200.9434770114221
 20
611.65260180555219
 40
0.3318518518518431
  0
CIRCLE
  8
_0-0_計極細
  6
CONTINUOUS
 62
    2
 10
1184.7834770114223
 20
611.492601805552
 40
0.3318518518518431
  0
CIRCLE
  8
_0-0_計極細
  6
CONTINUOUS
 62
    2
 10
1176.4634770114221
 20
614.37260180555211
 40
0.3318518518518431
  0
CIRCLE
  8
_0-0_計極細
  6
CONTINUOUS
 62
    2
 10
1169.5834770114225
 20
596.45260180555215
 40
0.3318518518518431
  0
CIRCLE
  8
_0-0_計極細
  6
CONTINUOUS
 62
    2
 10
1175.1834770114224
 20
607.17260180555218
 40
0.3318518518518431
  0
CIRCLE
  8
_0-0_計極細
  6
CONTINUOUS
 62
    2
 10
1185.8834770114222
 20
621.15260180555197
 40
0.3318518518518431
  0
CIRCLE
  8
_0-0_計極細
  6
CONTINUOUS
 62
    2
 10
1175.3634770114222
 20
631.36593513888511
 40
0.3318518518518431
  0
CIRCLE
  8
_0-0_計極細
  6
CONTINUOUS
 62
    2
 10
1177.8168103447556
 20
646.35260180555167
 40
0.3318518518518431
  0
CIRCLE
  8
_0-0_計極細
  6
CONTINUOUS
 62
    2
 10
1171.8434770114222
 20
643.4726018055519
 40
0.3318518518518431
  0
LINE
  8
_0-0_計極細
  6
CONTINUOUS
 62
    2
 10
1234.9740014487556
 20
592.41503982313259
 11
1248.5066483119931
 21
605.94768668636993
  0
LINE
  8
_0-0_計極細
  6
CONTINUOUS
 62
    2
 10
1192.5475945775629
 20
592.41503982313259
 11
1208.2925547544301
 21
608.16000000000008
  0
LINE
  8
_0-0_計極細
  6
CONTINUOUS
 62
    2
 10
1230
 20
629.8674452455698
 11
1248.5066482875218
 21
648.3740935330917
  0
LINE
  8
_0-0_計極細
  6
CONTINUOUS
 62
    2
 10
1230.7313607616366
 20
592.41503982313259
 11
1248.5066483095461
 21
610.19032737104226
  0
LINE
  8
_0-0_計極細
  6
CONTINUOUS
 62
    2
 10
1188.3049538904434
 20
592.41503982313259
 11
1204.049914067311
 21
608.16000000000008
  0
LINE
  8
_0-0_計極細
  6
CONTINUOUS
 62
    2
 10
1230
 20
634.110085932689
 11
1245.0499139595809
 21
649.15999989226998
  0
LINE
  8
_0-0_計極細
  6
CONTINUOUS
 62
    2
 10
1226.488720074517
 20
592.41503982313259
 11
1248.5066483070987
 21
614.43296805571424
  0
LINE
  8
_0-0_計極細
  6
CONTINUOUS
 62
    2
 10
1184.0623132033243
 20
592.41503982313259
 11
1199.8072733801919
 21
608.16000000000008
  0
LINE
  8
_0-0_計極細
  6
CONTINUOUS
 62
    2
 10
1230
 20
638.35272661980821
 11
1240.8072733028312
 21
649.1599999226396
  0
LINE
  8
_0-0_計極細
  6
CONTINUOUS
 62
    2
 10
1180
 20
608.16000000000008
 11
1180
 21
592.41503982313259
  0
LINE
  8
_0-0_計極細
  6
CONTINUOUS
 62
    2
 10
1230
 20
649.16000000000008
 11
1248.5066482870689
 21
649.16000000000008
  0
LINE
  8
_0-0_計極細
  6
CONTINUOUS
 62
    2
 10
1180
 20
608.16000000000008
 11
1230
 21
608.16000000000008
  0
LINE
  8
_0-0_計極細
  6
CONTINUOUS
 62
    2
 10
1230
 20
649.16000000000008
 11
1230
 21
608.16000000000008
  0
CIRCLE
  8
_0-0_計極細
  6
CONTINUOUS
 62
    2
 10
998.65014367808772
 20
632.10130550925578
 40
1.0953188836088352
  0
CIRCLE
  8
_0-0_計極細
  6
CONTINUOUS
 62
    2
 10
1006.0723659003128
 20
597.14840363009444
 40
0.3318518518518431
  0
CIRCLE
  8
_0-0_計極細
  6
CONTINUOUS
 62
    2
 10
1005.2723659003124
 20
610.74204624999652
 40
0.3318518518518431
  0
CIRCLE
  8
_0-0_計極細
  6
CONTINUOUS
 62
    2
 10
1005.8675395114227
 20
643.56797217592225
 40
1.0953188836088352
  0
LINE
  8
_0-0_計極細
  6
CONTINUOUS
 62
    2
 10
1010
 20
653.16000000000008
 11
1010
 21
592.41503982313259
  0
LINE
  8
_0-0_計極細
  6
CONTINUOUS
 62
    2
 10
1009.4999999999999
 20
653.16000000000008
 11
1010
 21
653.16000000000008
  0
CIRCLE
  8
_0-0_計極細
  6
CONTINUOUS
 62
    2
 10
926.31462413258191
 20
662.18130550925548
 40
1.0953188836088352
  0
CIRCLE
  8
_0-0_計極細
  6
CONTINUOUS
 62
    2
 10
961.81014367809053
 20
668.76797217592207
 40
1.0953188836088352
  0
CIRCLE
  8
_0-0_計極細
  6
CONTINUOUS
 62
    2
 10
962.26347701142402
 20
666.17537958332946
 40
0.3318518518518431
  0
CIRCLE
  8
_0-0_計極細
  6
CONTINUOUS
 62
    2
 10
935.0634770114242
 20
669.74871291666261
 40
0.3318518518518431
  0
CIRCLE
  8
_0-0_計極細
  6
CONTINUOUS
 62
    2
 10
926.03236590031315
 20
670.08056476851448
 40
0.3318518518518431
  0
LINE
  8
_0-0_計極細
  6
CONTINUOUS
 62
    2
 10
969.69880819342154
 20
674.15999999632368
 11
974.99999999999989
 21
679.46119180290214
  0
LINE
  8
_0-0_計極細
  6
CONTINUOUS
 62
    2
 10
956.97088612323694
 20
674.15999998749703
 11
963.9708861357401
 21
681.16000000000008
  0
LINE
  8
_0-0_計極細
  6
CONTINUOUS
 62
    2
 10
944.24296405305222
 20
674.15999997867004
 11
951.24296407438214
 21
681.16000000000008
  0
LINE
  8
_0-0_計極細
  6
CONTINUOUS
 62
    2
 10
931.51504198286761
 20
674.1599999698434
 11
938.51504201302419
 21
681.16000000000008
  0
LINE
  8
_0-0_計極細
  6
CONTINUOUS
 62
    2
 10
921.49335171293103
 20
676.86623176126454
 11
925.78711995166657
 21
681.16000000000008
  0
LINE
  8
_0-0_計極細
  6
DASHED2
 62
    2
 10
963.33484715832924
 20
674.15999999191035
 11
970.33484716641908
 21
681.16000000000008
  0
LINE
  8
_0-0_計極細
  6
DASHED2
 62
    2
 10
950.60692508814441
 20
674.15999998308371
 11
957.60692510506135
 21
681.16000000000008
  0
LINE
  8
_0-0_計極細
  6
DASHED2
 62
    2
 10
937.87900301796014
 20
674.15999997425672
 11
944.87900304370328
 21
681.16000000000008
  0
LINE
  8
_0-0_計極細
  6
DASHED2
 62
    2
 10
925.15108094777531
 20
674.15999996543007
 11
932.15108098234532
 21
681.16000000000008
  0
LINE
  8
_0-0_計極細
  6
CONTINUOUS
 62
    2
 10
979.88114584618415
 20
674.15999999999997
 11
979.99999999999977
 21
674.2788541538157
  0
LINE
  8
_0-0_計極細
  6
CONTINUOUS
 62
    2
 10
977.33556143391286
 20
674.15999999999997
 11
980
 21
676.82443856608711
  0
LINE
  8
_0-0_計極細
  6
CONTINUOUS
 62
    2
 10
974.99999999999989
 20
674.37002297835875
 11
980
 21
679.37002297835886
  0
LINE
  8
_0-0_計極細
  6
CONTINUOUS
 62
    2
 10
974.99999999999989
 20
676.91560739063038
 11
979.24439260936947
 21
681.16000000000008
  0
LINE
  8
_0-0_計極細
  6
CONTINUOUS
 62
    2
 10
974.99999999999989
 20
679.46119180290214
 11
976.69880819709806
 21
681.16000000000008
  0
LINE
  8
_0-0_計極細
  6
CONTINUOUS
 62
    2
 10
980
 20
679.79141987664502
 11
978.63141987664494
 21
681.16000000000008
  0
LINE
  8
_0-0_計極細
  6
CONTINUOUS
 62
    2
 10
980
 20
677.24583546437339
 11
976.08583546437319
 21
681.16000000000008
  0
LINE
  8
_0-0_計極細
  6
CONTINUOUS
 62
    2
 10
974.99999999999989
 20
679.70025105210198
 11
980
 21
674.70025105210186
  0
LINE
  8
_0-0_計極細
  6
CONTINUOUS
 62
    2
 10
974.99999999999989
 20
677.15466663983022
 11
977.9946666398298
 21
674.15999999999997
  0
LINE
  8
_0-0_計極細
  6
CONTINUOUS
 62
    2
 10
974.99999999999989
 20
674.60908222755893
 11
975.44908222755851
 21
674.15999999999997
  0
LINE
  8
_0-0_計極細
  6
CONTINUOUS
 62
    2
 10
980
 20
680.6600000000002
 11
980
 21
681.16000000000008
  0
LINE
  8
_0-0_計極細
  6
CONTINUOUS
 62
    2
 10
980
 20
681.16000000000008
 11
974.99999999999989
 21
681.16000000000008
  0
LINE
  8
_0-0_計極細
  6
CONTINUOUS
 62
    2
 10
980
 20
674.15999999999997
 11
921.49335171293103
 21
674.15999999999997
  0
LINE
  8
_0-0_計極細
  6
CONTINUOUS
 62
    2
 10
974.99999999999989
 20
681.16000000000008
 11
921.49335171293103
 21
681.16000000000008
  0
LINE
  8
_0-0_計極細
  6
CONTINUOUS
 62
    2
 10
974.99999999999989
 20
681.16000000000008
 11
974.99999999999989
 21
674.15999999999997
  0
CIRCLE
  8
_0-0_計極細
  6
CONTINUOUS
 62
    2
 10
998.98347701142325
 20
599.9679721759228
 40
1.0953188836088352
  0
CIRCLE
  8
_0-0_計極細
  6
CONTINUOUS
 62
    2
 10
996.10347701142348
 20
611.16797217592261
 40
1.0953188836088352
  0
CIRCLE
  8
_0-0_計極細
  6
CONTINUOUS
 62
    2
 10
974.51681034475678
 20
613.32797217592247
 40
1.0953188836088352
  0
CIRCLE
  8
_0-0_計極細
  6
CONTINUOUS
 62
    2
 10
942.59681034475716
 20
621.0079721759223
 40
1.0953188836088352
  0
CIRCLE
  8
_0-0_計極細
  6
CONTINUOUS
 62
    2
 10
954.35681034475715
 20
643.80797217592203
 40
1.0953188836088352
  0
CIRCLE
  8
_0-0_計極細
  6
CONTINUOUS
 62
    2
 10
967.79681034475732
 20
637.7279721759221
 40
1.0953188836088352
  0
CIRCLE
  8
_0-0_計極細
  6
CONTINUOUS
 62
    2
 10
938.43287185722943
 20
661.64574074074085
 40
1.0953188836088352
  0
CIRCLE
  8
_0-0_計極細
  6
CONTINUOUS
 62
    2
 10
969.49014367809036
 20
657.48797217592187
 40
1.0953188836088352
  0
CIRCLE
  8
_0-0_計極細
  6
CONTINUOUS
 62
    2
 10
981.66347701142377
 20
644.29760180555195
 40
0.3318518518518431
  0
CIRCLE
  8
_0-0_計極細
  6
CONTINUOUS
 62
    2
 10
1002.8101436780901
 20
626.45760180555203
 40
0.3318518518518431
  0
CIRCLE
  8
_0-0_計極細
  6
CONTINUOUS
 62
    2
 10
1002.4901436780902
 20
637.23093513888512
 40
0.3318518518518431
  0
CIRCLE
  8
_0-0_計極細
  6
CONTINUOUS
 62
    2
 10
993.42347701142376
 20
643.20426847221836
 40
0.3318518518518431
  0
CIRCLE
  8
_0-0_計極細
  6
CONTINUOUS
 62
    2
 10
984.5701436780904
 20
622.72426847221868
 40
0.3318518518518431
  0
CIRCLE
  8
_0-0_計極細
  6
CONTINUOUS
 62
    2
 10
994.5701436780904
 20
596.5553795833298
 40
0.3318518518518431
  0
CIRCLE
  8
_0-0_計極細
  6
CONTINUOUS
 62
    2
 10
998.73014367809037
 20
605.51537958332972
 40
0.3318518518518431
  0
CIRCLE
  8
_0-0_計極細
  6
CONTINUOUS
 62
    2
 10
990.516810344757
 20
614.47537958332975
 40
0.3318518518518431
  0
CIRCLE
  8
_0-0_計極細
  6
CONTINUOUS
 62
    2
 10
982.73014367809037
 20
612.55537958332991
 40
0.3318518518518431
  0
CIRCLE
  8
_0-0_計極細
  6
CONTINUOUS
 62
    2
 10
970.78347701142377
 20
611.9153795833297
 40
0.3318518518518431
  0
CIRCLE
  8
_0-0_計極細
  6
CONTINUOUS
 62
    2
 10
972.9168103447571
 20
617.46204624999632
 40
0.3318518518518431
  0
CIRCLE
  8
_0-0_計極細
  6
CONTINUOUS
 62
    2
 10
969.18347701142397
 20
618.95537958332977
 40
0.3318518518518431
  0
CIRCLE
  8
_0-0_計極細
  6
CONTINUOUS
 62
    2
 10
975.90347701142377
 20
622.26204624999639
 40
0.3318518518518431
  0
CIRCLE
  8
_0-0_計極細
  6
CONTINUOUS
 62
    2
 10
952.32347701142385
 20
611.52871291666315
 40
0.3318518518518431
  0
CIRCLE
  8
_0-0_計極細
  6
CONTINUOUS
 62
    2
 10
948.59014367809073
 20
616.64871291666316
 40
0.3318518518518431
  0
CIRCLE
  8
_0-0_計極細
  6
CONTINUOUS
 62
    2
 10
943.36347701142381
 20
612.59537958332987
 40
0.3318518518518431
  0
CIRCLE
  8
_0-0_計極細
  6
CONTINUOUS
 62
    2
 10
946.77681034475722
 20
623.36871291666307
 40
0.3318518518518431
  0
CIRCLE
  8
_0-0_計極細
  6
CONTINUOUS
 62
    2
 10
971.44347701142374
 20
639.6353795833295
 40
0.3318518518518431
  0
CIRCLE
  8
_0-0_計極細
  6
CONTINUOUS
 62
    2
 10
955.01681034475735
 20
635.26204624999627
 40
0.3318518518518431
  0
CIRCLE
  8
_0-0_計極細
  6
CONTINUOUS
 62
    2
 10
963.87014367809047
 20
643.36871291666284
 40
0.3318518518518431
  0
CIRCLE
  8
_0-0_計極細
  6
CONTINUOUS
 62
    2
 10
971.44347701142374
 20
646.78204624999626
 40
0.3318518518518431
  0
CIRCLE
  8
_0-0_計極細
  6
CONTINUOUS
 62
    2
 10
956.40347701142389
 20
649.02204624999615
 40
0.3318518518518431
  0
CIRCLE
  8
_0-0_計極細
  6
CONTINUOUS
 62
    2
 10
944.13681034475746
 20
649.76871291666271
 40
0.3318518518518431
  0
CIRCLE
  8
_0-0_計極細
  6
CONTINUOUS
 62
    2
 10
953.41014367809066
 20
666.06871291666266
 40
0.3318518518518431
  0
CIRCLE
  8
_0-0_計極細
  6
CONTINUOUS
 62
    2
 10
960.4501436780904
 20
657.10871291666263
 40
0.3318518518518431
  0
CIRCLE
  8
_0-0_計極細
  6
CONTINUOUS
 62
    2
 10
975.38347701142368
 20
657.42871291666256
 40
0.3318518518518431
  0
CIRCLE
  8
_0-0_計極細
  6
CONTINUOUS
 62
    2
 10
971.97014367809049
 20
667.13537958332938
 40
0.3318518518518431
  0
CIRCLE
  8
_0-0_計極細
  6
CONTINUOUS
 62
    2
 10
957.03681034475721
 20
661.16204624999591
 40
0.3318518518518431
  0
CIRCLE
  8
_0-0_計極細
  6
CONTINUOUS
 62
    2
 10
939.97014367809084
 20
654.12204624999606
 40
0.3318518518518431
  0
CIRCLE
  8
_0-0_計極細
  6
CONTINUOUS
 62
    2
 10
932.39681034475757
 20
652.948712916663
 40
0.3318518518518431
  0
CIRCLE
  8
_0-0_計極細
  6
CONTINUOUS
 62
    2
 10
926.03236590031315
 20
652.3087129166629
 40
0.3318518518518431
  0
CIRCLE
  8
_0-0_計極細
  6
CONTINUOUS
 62
    2
 10
932.23088441883135
 20
658.28204624999603
 40
0.3318518518518431
  0
LINE
  8
_0-0_計極細
  6
CONTINUOUS
 62
    2
 10
967.54681526100603
 20
592.41503989299463
 11
983.29177536801149
 21
608.16000000000008
  0
LINE
  8
_0-0_計極細
  6
CONTINUOUS
 62
    2
 10
925.12040852182122
 20
592.41504002500267
 11
940.86536849681863
 21
608.16000000000008
  0
LINE
  8
_0-0_計極細
  6
CONTINUOUS
 62
    2
 10
921.49335171293103
 20
631.21439008730533
 11
939.43896162562578
 21
649.16000000000008
  0
LINE
  8
_0-0_計極細
  6
CONTINUOUS
 62
    2
 10
963.30417458708757
 20
592.41503990619549
 11
979.04913468089205
 21
608.16000000000008
  0
LINE
  8
_0-0_計極細
  6
CONTINUOUS
 62
    2
 10
921.49335171293103
 20
593.0306239032318
 11
939.99999999999989
 21
611.53727219030077
  0
LINE
  8
_0-0_計極細
  6
CONTINUOUS
 62
    2
 10
921.49335171293103
 20
635.45703077442477
 11
935.19632093850646
 21
649.16000000000008
  0
LINE
  8
_0-0_計極細
  6
CONTINUOUS
 62
    2
 10
959.06153391316934
 20
592.41503991939624
 11
974.80649399377285
 21
608.16000000000008
  0
LINE
  8
_0-0_計極細
  6
CONTINUOUS
 62
    2
 10
921.49335171293103
 20
597.273264590351
 11
939.99999999999989
 21
615.77991287741997
  0
LINE
  8
_0-0_計極細
  6
CONTINUOUS
 62
    2
 10
921.49335171293103
 20
639.69967146154409
 11
930.95368025138725
 21
649.16000000000008
  0
LINE
  8
_0-0_計極細
  6
CONTINUOUS
 62
    2
 10
989.99999999999989
 20
608.16000000000008
 11
989.99999999999989
 21
592.41503982313259
  0
LINE
  8
_0-0_計極細
  6
CONTINUOUS
 62
    2
 10
939.99999999999989
 20
649.16000000000008
 11
921.49335171293103
 21
649.16000000000008
  0
LINE
  8
_0-0_計極細
  6
CONTINUOUS
 62
    2
 10
989.99999999999989
 20
608.16000000000008
 11
939.99999999999989
 21
608.16000000000008
  0
LINE
  8
_0-0_計極細
  6
CONTINUOUS
 62
    2
 10
939.99999999999989
 20
649.16000000000008
 11
939.99999999999989
 21
608.16000000000008
  0
LINE
  8
_0-0_計極細
  6
CENTER1
 62
    2
 10
1085
 20
646.44850230873021
 11
1085
 21
689.51850230873401
  0
LINE
  8
_0-5_寸法線
  6
CONTINUOUS
 62
    7
 10
1068.3084795571103
 20
661.89576436351047
 11
1048.8626008324677
 21
675.51191523361717
  0
LINE
  8
_0-5_寸法線
  6
CONTINUOUS
 62
    7
 10
1052.9583610539125
 20
672.64403305186192
 11
1050.3701706028874
 21
682.30329131475276
  0
LINE
  8
_0-5_寸法線
  6
CONTINUOUS
 62
    7
 10
1052.9583610539125
 20
672.64403305186192
 11
1055.5465515049377
 21
682.30329131475276
  0
LINE
  8
_0-5_寸法線
  6
CONTINUOUS
 62
    7
 10
1068.3084795571103
 20
686.89576436351047
 11
1048.8626008324675
 21
700.51191523361695
  0
LINE
  8
_0-5_寸法線
  6
CONTINUOUS
 62
    7
 10
1052.9583610539125
 20
697.64403305186181
 11
1055.5465515049377
 21
687.98477478897098
  0
LINE
  8
_0-5_寸法線
  6
CONTINUOUS
 62
    7
 10
1052.9583610539125
 20
697.64403305186181
 11
1050.3701706028874
 21
687.98477478897098
  0
LINE
  8
_0-5_寸法線
  6
CONTINUOUS
 62
    7
 10
1052.9583610539125
 20
672.64403305186192
 11
1052.9583610539125
 21
697.64403305186181
  0
TEXT
  8
_0-5_寸法線
 62
    7
 10
1052.9583610539125
 20
677.6440330518617
 40
15
 41
1
 50
90
  1
25
  0
LINE
  8
_0-5_寸法線
  6
CONTINUOUS
 62
    7
 10
980
 20
686.16000000000008
 11
980
 21
806.15999999999985
  0
LINE
  8
_0-5_寸法線
  6
CONTINUOUS
 62
    7
 10
980
 20
801.15999999999985
 11
989.65925826289072
 21
803.74819045102515
  0
LINE
  8
_0-5_寸法線
  6
CONTINUOUS
 62
    7
 10
980
 20
801.15999999999985
 11
989.65925826289072
 21
798.57180954897467
  0
LINE
  8
_0-5_寸法線
  6
CONTINUOUS
 62
    7
 10
1190
 20
686.16000000000008
 11
1190.0000000000005
 21
806.15999999999985
  0
LINE
  8
_0-5_寸法線
  6
CONTINUOUS
 62
    7
 10
1190.0000000000005
 20
801.15999999999985
 11
1180.3407417371097
 21
798.57180954897467
  0
LINE
  8
_0-5_寸法線
  6
CONTINUOUS
 62
    7
 10
1190.0000000000005
 20
801.15999999999985
 11
1180.3407417371097
 21
803.74819045102515
  0
LINE
  8
_0-5_寸法線
  6
CONTINUOUS
 62
    7
 10
980
 20
801.15999999999985
 11
1190.0000000000005
 21
801.15999999999985
  0
TEXT
  8
_0-5_寸法線
 62
    7
 10
1073.7500000000002
 20
801.15999999999985
 40
15
 41
1
 50
0
  1
210
  0
LINE
  8
_0-1_計細線
  6
CONTINUOUS
 62
    3
 10
1190
 20
665.16000000000008
 11
1190
 21
630.15999999999997
  0
LINE
  8
_0-1_計細線
  6
CONTINUOUS
 62
    3
 10
1190
 20
630.15999999999997
 11
1192.3000000000002
 21
630.15999999999997
  0
LINE
  8
_0-1_計細線
  6
CONTINUOUS
 62
    3
 10
1192.3000000000002
 20
630.15999999999997
 11
1192.3000000000002
 21
665.16000000000008
  0
LINE
  8
_0-1_計細線
  6
CONTINUOUS
 62
    3
 10
1192.3000000000002
 20
665.16000000000008
 11
1190
 21
665.16000000000008
  0
LINE
  8
_0-0_計極細
  6
CONTINUOUS
 62
    2
 10
1192.3000000000002
 20
649.15999999999997
 11
1190
 21
649.15999999999997
  0
LINE
  8
_0-0_計極細
  6
CONTINUOUS
 62
    2
 10
1192.3000000000002
 20
651.15999999999997
 11
1190
 21
651.15999999999997
  0
LINE
  8
_0-0_計極細
  6
CONTINUOUS
 62
    2
 10
1192.3000000000002
 20
647.15999999999997
 11
1190
 21
647.15999999999997
  0
LINE
  8
_0-0_計極細
  6
CONTINUOUS
 62
    2
 10
1192.3000000000002
 20
653.16000000000008
 11
1190
 21
653.16000000000008
  0
LINE
  8
_0-0_計極細
  6
CONTINUOUS
 62
    2
 10
1190
 20
633.16000000000008
 11
1192.3000000000002
 21
633.16000000000008
  0
LINE
  8
_0-0_計極細
  6
CONTINUOUS
 62
    2
 10
1192.3000000000002
 20
663.16000000000008
 11
1190
 21
663.16000000000008
  0
LINE
  8
_0-7_枠細線
  6
CONTINUOUS
 62
    5
 10
1208.9140288208205
 20
650.30808383106444
 11
1201.4140288208205
 21
665.30808383106444
  0
LINE
  8
_0-7_枠細線
  6
CONTINUOUS
 62
    5
 10
1193.9140288208205
 20
650.30808383106444
 11
1208.9140288208205
 21
650.30808383106444
  0
LINE
  8
_0-7_枠細線
  6
CONTINUOUS
 62
    5
 10
1201.4140288208205
 20
665.30808383106444
 11
1193.9140288208205
 21
650.30808383106444
  0
TEXT
  8
_0-7_枠細線
 62
    5
 10
1196.2791800889686
 20
649.35926386621463
 40
12.5
 41
0.8
 50
0
  1
５
  0
LINE
  8
_0-1_計細線
  6
CONTINUOUS
 62
    3
 10
980
 20
665.16000000000008
 11
980
 21
630.15999999999997
  0
LINE
  8
_0-1_計細線
  6
CONTINUOUS
 62
    3
 10
980
 20
630.15999999999997
 11
977.69999999999993
 21
630.15999999999997
  0
LINE
  8
_0-1_計細線
  6
CONTINUOUS
 62
    3
 10
977.69999999999993
 20
630.15999999999997
 11
977.69999999999993
 21
665.16000000000008
  0
LINE
  8
_0-1_計細線
  6
CONTINUOUS
 62
    3
 10
977.69999999999993
 20
665.16000000000008
 11
980
 21
665.16000000000008
  0
LINE
  8
_0-0_計極細
  6
CONTINUOUS
 62
    2
 10
977.69999999999993
 20
649.15999999999997
 11
980
 21
649.15999999999997
  0
LINE
  8
_0-0_計極細
  6
CONTINUOUS
 62
    2
 10
977.69999999999993
 20
651.15999999999997
 11
980
 21
651.15999999999997
  0
LINE
  8
_0-0_計極細
  6
CONTINUOUS
 62
    2
 10
977.69999999999993
 20
647.15999999999997
 11
980
 21
647.15999999999997
  0
LINE
  8
_0-0_計極細
  6
CONTINUOUS
 62
    2
 10
977.69999999999993
 20
653.16000000000008
 11
980
 21
653.16000000000008
  0
LINE
  8
_0-0_計極細
  6
CONTINUOUS
 62
    2
 10
980
 20
633.16000000000008
 11
977.69999999999993
 21
633.16000000000008
  0
LINE
  8
_0-0_計極細
  6
CONTINUOUS
 62
    2
 10
977.69999999999993
 20
663.16000000000008
 11
980
 21
663.16000000000008
  0
LINE
  8
_0-5_寸法線
  6
CONTINUOUS
 62
    7
 10
970
 20
681.15999999999997
 11
922.69999999999993
 21
681.15999999999997
  0
LINE
  8
_0-5_寸法線
  6
CONTINUOUS
 62
    7
 10
927.69999999999993
 20
681.15999999999997
 11
930.28819045102523
 21
671.50074173710937
  0
LINE
  8
_0-5_寸法線
  6
CONTINUOUS
 62
    7
 10
927.69999999999993
 20
681.15999999999997
 11
925.11180954897486
 21
671.50074173710937
  0
LINE
  8
_0-5_寸法線
  6
CONTINUOUS
 62
    7
 10
968.79999999999995
 20
653.16000000000008
 11
922.69999999999993
 21
653.1600000000002
  0
LINE
  8
_0-5_寸法線
  6
CONTINUOUS
 62
    7
 10
927.69999999999993
 20
653.1600000000002
 11
925.11180954897486
 21
662.81925826289103
  0
LINE
  8
_0-5_寸法線
  6
CONTINUOUS
 62
    7
 10
927.69999999999993
 20
653.1600000000002
 11
930.28819045102523
 21
662.81925826289103
  0
LINE
  8
_0-5_寸法線
  6
CONTINUOUS
 62
    7
 10
927.69999999999993
 20
681.15999999999997
 11
927.69999999999993
 21
653.1600000000002
  0
TEXT
  8
_0-5_寸法線
 62
    7
 10
927.69999999999993
 20
659.66000000000008
 40
15
 41
1
 50
90
  1
28
  0
LINE
  8
_0-5_寸法線
  6
CONTINUOUS
 62
    7
 10
970
 20
653.16000000000008
 11
922.69999999999993
 21
653.16000000000008
  0
LINE
  8
_0-5_寸法線
  6
CONTINUOUS
 62
    7
 10
927.69999999999993
 20
653.16000000000008
 11
930.28819045102523
 21
643.50074173710925
  0
LINE
  8
_0-5_寸法線
  6
CONTINUOUS
 62
    7
 10
927.69999999999993
 20
653.16000000000008
 11
925.11180954897463
 21
643.50074173710925
  0
LINE
  8
_0-5_寸法線
  6
CONTINUOUS
 62
    7
 10
968.79999999999995
 20
630.15999999999985
 11
922.69999999999993
 21
630.15999999999985
  0
LINE
  8
_0-5_寸法線
  6
CONTINUOUS
 62
    7
 10
927.69999999999993
 20
630.15999999999985
 11
925.11180954897486
 21
639.81925826289057
  0
LINE
  8
_0-5_寸法線
  6
CONTINUOUS
 62
    7
 10
927.69999999999993
 20
630.15999999999985
 11
930.28819045102523
 21
639.81925826289057
  0
LINE
  8
_0-5_寸法線
  6
CONTINUOUS
 62
    7
 10
927.69999999999993
 20
653.16000000000008
 11
927.69999999999993
 21
630.15999999999985
  0
TEXT
  8
_0-5_寸法線
 62
    7
 10
927.69999999999993
 20
634.15999999999985
 40
15
 41
1
 50
90
  1
23
  0
LINE
  8
_0-5_寸法線
  6
CONTINUOUS
 62
    7
 10
1190
 20
620.15999999999997
 11
1190
 21
575.15999999999985
  0
LINE
  8
_0-5_寸法線
  6
CONTINUOUS
 62
    7
 10
1190
 20
580.15999999999985
 11
1180.3407417371093
 21
577.57180954897467
  0
LINE
  8
_0-5_寸法線
  6
CONTINUOUS
 62
    7
 10
1190
 20
580.15999999999985
 11
1180.3407417371093
 21
582.74819045102504
  0
LINE
  8
_0-5_寸法線
  6
CONTINUOUS
 62
    7
 10
1160
 20
643.16000000000008
 11
1160
 21
575.15999999999985
  0
LINE
  8
_0-5_寸法線
  6
CONTINUOUS
 62
    7
 10
1160
 20
580.15999999999985
 11
1169.6592582628907
 21
582.74819045102504
  0
LINE
  8
_0-5_寸法線
  6
CONTINUOUS
 62
    7
 10
1160
 20
580.15999999999985
 11
1169.6592582628907
 21
577.57180954897467
  0
LINE
  8
_0-5_寸法線
  6
CONTINUOUS
 62
    7
 10
1190
 20
580.15999999999985
 11
1160
 21
580.15999999999985
  0
TEXT
  8
_0-5_寸法線
 62
    7
 10
1167.5
 20
580.15999999999985
 40
15
 41
1
 50
0
  1
30
  0
LINE
  8
_0-5_寸法線
  6
CONTINUOUS
 62
    7
 10
979.99999999999989
 20
620.15999999999997
 11
979.99999999999943
 21
575.15999999999985
  0
LINE
  8
_0-5_寸法線
  6
CONTINUOUS
 62
    7
 10
979.99999999999943
 20
580.15999999999985
 11
989.65925826289026
 21
582.74819045102504
  0
LINE
  8
_0-5_寸法線
  6
CONTINUOUS
 62
    7
 10
979.99999999999943
 20
580.15999999999985
 11
989.65925826289026
 21
577.57180954897467
  0
LINE
  8
_0-5_寸法線
  6
CONTINUOUS
 62
    7
 10
1009.9999999999999
 20
643.16000000000008
 11
1009.9999999999994
 21
575.15999999999985
  0
LINE
  8
_0-5_寸法線
  6
CONTINUOUS
 62
    7
 10
1009.9999999999994
 20
580.15999999999985
 11
1000.3407417371088
 21
577.57180954897467
  0
LINE
  8
_0-5_寸法線
  6
CONTINUOUS
 62
    7
 10
1009.9999999999994
 20
580.15999999999985
 11
1000.3407417371088
 21
582.74819045102504
  0
LINE
  8
_0-5_寸法線
  6
CONTINUOUS
 62
    7
 10
979.99999999999943
 20
580.15999999999985
 11
1009.9999999999994
 21
580.15999999999985
  0
TEXT
  8
_0-5_寸法線
 62
    7
 10
987.49999999999943
 20
580.15999999999985
 40
15
 41
1
 50
0
  1
30
  0
LINE
  8
_0-5_寸法線
  6
CONTINUOUS
 62
    7
 10
1010
 20
648.16000000000008
 11
1010
 21
575.15999999999997
  0
LINE
  8
_0-5_寸法線
  6
CONTINUOUS
 62
    7
 10
1010
 20
580.15999999999997
 11
1019.6592582628907
 21
582.74819045102515
  0
LINE
  8
_0-5_寸法線
  6
CONTINUOUS
 62
    7
 10
1010
 20
580.15999999999997
 11
1019.6592582628907
 21
577.57180954897478
  0
LINE
  8
_0-5_寸法線
  6
CONTINUOUS
 62
    7
 10
1159.9999999999995
 20
648.16000000000008
 11
1159.9999999999995
 21
575.15999999999997
  0
LINE
  8
_0-5_寸法線
  6
CONTINUOUS
 62
    7
 10
1159.9999999999995
 20
580.15999999999997
 11
1150.3407417371088
 21
577.57180954897478
  0
LINE
  8
_0-5_寸法線
  6
CONTINUOUS
 62
    7
 10
1159.9999999999995
 20
580.15999999999997
 11
1150.3407417371088
 21
582.74819045102515
  0
LINE
  8
_0-5_寸法線
  6
CONTINUOUS
 62
    7
 10
1010
 20
580.15999999999997
 11
1159.9999999999995
 21
580.15999999999997
  0
TEXT
  8
_0-5_寸法線
 62
    7
 10
1073.75
 20
580.15999999999997
 40
15
 41
1
 50
0
  1
150
  0
TEXT
  8
_0-7_枠細線
 62
    5
 10
1036.5588255069931
 20
533.7744060952125
 40
25
 41
0.8
 50
0
  1
断面詳細図
  0
TEXT
  8
_0-7_枠細線
 62
    5
 10
1151.5077952561614
 20
536.24060594547882
 40
20
 41
0.6
 50
0
  1
Ｓ＝１：５
  0
LINE
  8
_0-d_寸法3
  6
CONTINUOUS
 62
    7
 10
440.69639358076614
 20
229.09093285812048
 11
440.69639358076614
 21
270.75759952478705
  0
LINE
  8
_0-d_寸法3
  6
CONTINUOUS
 62
    7
 10
440.69639358076614
 20
265.75759952478705
 11
450.3556518436568
 21
268.34578997581224
  0
LINE
  8
_0-d_寸法3
  6
CONTINUOUS
 62
    7
 10
440.69639358076614
 20
265.75759952478705
 11
450.3556518436568
 21
263.16940907376187
  0
LINE
  8
_0-d_寸法3
  6
CONTINUOUS
 62
    7
 10
469.69639358136902
 20
229.09093285812048
 11
469.69639358136902
 21
270.75759952478705
  0
LINE
  8
_0-d_寸法3
  6
CONTINUOUS
 62
    7
 10
469.69639358136902
 20
265.75759952478705
 11
460.03713531847836
 21
263.16940907376187
  0
LINE
  8
_0-d_寸法3
  6
CONTINUOUS
 62
    7
 10
469.69639358136902
 20
265.75759952478705
 11
460.03713531847836
 21
268.34578997581229
  0
LINE
  8
_0-d_寸法3
  6
CONTINUOUS
 62
    7
 10
440.69639358076614
 20
265.75759952478705
 11
469.69639358136902
 21
265.75759952478705
  0
TEXT
  8
_0-d_寸法3
 62
    7
 10
429.15021567112478
 20
250.75759952478705
 40
15
 41
1
 50
0
  1
(17.4)
  0
LINE
  8
_0-d_寸法3
  6
CONTINUOUS
 62
    7
 10
469.69639358136902
 20
265.75759952478705
 11
479.35565184425974
 21
268.34578997581218
  0
LINE
  8
_0-d_寸法3
  6
CONTINUOUS
 62
    7
 10
469.69639358136902
 20
265.75759952478705
 11
479.35565184425968
 21
263.16940907376181
  0
LINE
  8
_0-d_寸法3
  6
CONTINUOUS
 62
    7
 10
498.69639358197213
 20
229.09093285812048
 11
498.69639358197213
 21
270.75759952478705
  0
LINE
  8
_0-d_寸法3
  6
CONTINUOUS
 62
    7
 10
498.69639358197213
 20
265.75759952478705
 11
489.03713531908136
 21
263.16940907376187
  0
LINE
  8
_0-d_寸法3
  6
CONTINUOUS
 62
    7
 10
498.69639358197213
 20
265.75759952478705
 11
489.03713531908147
 21
268.34578997581229
  0
LINE
  8
_0-d_寸法3
  6
CONTINUOUS
 62
    7
 10
469.69639358136902
 20
265.75759952478705
 11
498.69639358197213
 21
265.75759952478705
  0
TEXT
  8
_0-d_寸法3
 62
    7
 10
466.21688233779139
 20
265.75759952478705
 40
15
 41
1
 50
0
  1
(17.4)
  0
LINE
  8
_0-d_寸法3
  6
CONTINUOUS
 62
    7
 10
392.19639357740414
 20
225.75759952478705
 11
392.19639357740414
 21
270.75759952478705
  0
LINE
  8
_0-d_寸法3
  6
CONTINUOUS
 62
    7
 10
392.19639357740414
 20
265.75759952478705
 11
382.53713531451342
 21
263.16940907376187
  0
LINE
  8
_0-d_寸法3
  6
CONTINUOUS
 62
    7
 10
392.19639357740414
 20
265.75759952478705
 11
382.53713531451348
 21
268.34578997581229
  0
LINE
  8
_0-d_寸法3
  6
CONTINUOUS
 62
    7
 10
402.19639358168564
 20
225.75759952478705
 11
402.19639358168564
 21
270.75759952478705
  0
LINE
  8
_0-d_寸法3
  6
CONTINUOUS
 62
    7
 10
367.82243789423711
 20
265.75759952478705
 11
402.19639358168564
 21
265.75759952478705
  0
TEXT
  8
_0-d_寸法3
 62
    7
 10
367.82243789423711
 20
250.75759952478705
 40
15
 41
1
 50
0
  1
(6)
  0
LINE
  8
_0-d_寸法3
  6
CONTINUOUS
 62
    7
 10
402.19639358168564
 20
265.75759952478705
 11
411.8556518445763
 21
268.34578997581224
  0
LINE
  8
_0-d_寸法3
  6
CONTINUOUS
 62
    7
 10
402.19639358168564
 20
265.75759952478705
 11
411.8556518445763
 21
263.16940907376187
  0
LINE
  8
_0-d_寸法3
  6
CONTINUOUS
 62
    7
 10
421.19639357800668
 20
225.75759952478705
 11
421.19639357800668
 21
270.75759952478705
  0
LINE
  8
_0-d_寸法3
  6
CONTINUOUS
 62
    7
 10
421.19639357800668
 20
265.75759952478705
 11
411.5371353151159
 21
263.16940907376187
  0
LINE
  8
_0-d_寸法3
  6
CONTINUOUS
 62
    7
 10
421.19639357800668
 20
265.75759952478705
 11
411.53713531511596
 21
268.34578997581229
  0
LINE
  8
_0-d_寸法3
  6
CONTINUOUS
 62
    7
 10
402.19639358168564
 20
265.75759952478705
 11
421.19639357800668
 21
265.75759952478705
  0
TEXT
  8
_0-d_寸法3
 62
    7
 10
392.93169715349615
 20
265.75759952478705
 40
15
 41
1
 50
0
  1
11.4
  0
ARC
  8
_0-a_極細3
  6
CONTINUOUS
 62
    7
 10
529.52579690650225
 20
207.57765036643551
 40
17.558839598481345
 50
150.03871396148173
 51
205.23810402387875
  0
ARC
  8
_0-a_極細3
  6
CONTINUOUS
 62
    7
 10
497.76032171660415
 20
192.60414115380485
 40
17.558839598481345
 50
330.03871396148202
 51
25.238104023878119
  0
ARC
  8
_0-a_極細3
  6
CONTINUOUS
 62
    7
 10
384.60598146816835
 20
207.57765036643551
 40
17.558839598481345
 50
150.03871396148173
 51
205.23810402387869
  0
ARC
  8
_0-a_極細3
  6
CONTINUOUS
 62
    7
 10
352.8405062782702
 20
192.60414115380485
 40
17.558839598481345
 50
330.03871396148202
 51
25.238104023878119
  0
ARC
  8
_0-b_細線3
  6
CONTINUOUS
 62
    7
 10
432.863060249272
 20
215.75759952478705
 40
1.666666666666667
 50
89.999999999999915
 51
179.99999999999983
  0
ARC
  8
_0-b_細線3
  6
CONTINUOUS
 62
    7
 10
433.64297556815103
 20
219.09093285812048
 40
1.666666666666667
 50
269.99999999999977
 51
330.00000000000279
  0
ARC
  8
_0-b_細線3
  6
CONTINUOUS
 62
    7
 10
436.529726914099
 20
217.42426619145405
 40
1.666666666666667
 50
89.999999999999915
 51
150.00000000000134
  0
LINE
  8
_0-b_細線3
  6
CONTINUOUS
 62
    7
 10
432.863060249272
 20
217.42426619145405
 11
433.64297556815103
 21
217.42426619145405
  0
ARC
  8
_0-b_細線3
  6
CONTINUOUS
 62
    7
 10
448.52972691226
 20
215.75759952478705
 40
1.666666666666667
 50
0
 51
89.999999999999915
  0
ARC
  8
_0-b_細線3
  6
CONTINUOUS
 62
    7
 10
447.74981159338068
 20
219.09093285812048
 40
1.666666666666667
 50
210.00000000000236
 51
269.99999999999977
  0
ARC
  8
_0-b_細線3
  6
CONTINUOUS
 62
    7
 10
444.8630602474326
 20
217.42426619145405
 40
1.666666666666667
 50
29.999999999991843
 51
89.999999999986329
  0
LINE
  8
_0-b_細線3
  6
CONTINUOUS
 62
    7
 10
448.52972691226
 20
217.42426619145405
 11
447.74981159338068
 21
217.42426619145405
  0
ARC
  8
_0-b_細線3
  6
CONTINUOUS
 62
    7
 10
432.02972691593857
 20
213.424266191454
 40
0.8333333333333334
 50
179.99999999999983
 51
269.99999999999977
  0
LINE
  8
_0-b_細線3
  6
CONTINUOUS
 62
    7
 10
431.19639358260514
 20
215.75759952478705
 11
431.19639358260514
 21
213.424266191454
  0
ARC
  8
_0-b_細線3
  6
CONTINUOUS
 62
    7
 10
449.36306024559315
 20
213.424266191454
 40
0.8333333333333334
 50
269.99999999999977
 51
359.99999999999966
  0
LINE
  8
_0-b_細線3
  6
CONTINUOUS
 62
    7
 10
450.19639357892657
 20
215.75759952478705
 11
450.19639357892657
 21
213.424266191454
  0
ARC
  8
_0-b_細線3
  6
CONTINUOUS
 62
    7
 10
436.19639358260514
 20
210.924266191454
 40
1.666666666666667
 50
0
 51
89.999999999999915
  0
LINE
  8
_0-b_細線3
  6
CONTINUOUS
 62
    7
 10
436.19639358260514
 20
212.59093285812057
 11
432.02972691593857
 21
212.59093285812057
  0
ARC
  8
_0-b_細線3
  6
CONTINUOUS
 62
    7
 10
445.19639358260548
 20
210.924266191454
 40
1.666666666666667
 50
89.999999999999915
 51
179.99999999999983
  0
LINE
  8
_0-b_細線3
  6
CONTINUOUS
 62
    7
 10
445.19639357892657
 20
212.59093285812057
 11
449.36306024559315
 21
212.59093285812057
  0
LINE
  8
_0-b_細線3
  6
CONTINUOUS
 62
    7
 10
444.8630602474326
 20
219.09093285812048
 11
436.529726914099
 21
219.09093285812048
  0
LINE
  8
_0-b_細線3
  6
CONTINUOUS
 62
    7
 10
437.86306024743254
 20
177.42426619145405
 11
437.863060249272
 21
210.924266191454
  0
LINE
  8
_0-b_細線3
  6
CONTINUOUS
 62
    7
 10
443.52972691409917
 20
177.42426619145405
 11
443.52972691593891
 21
210.924266191454
  0
LINE
  8
_0-b_細線3
  6
CONTINUOUS
 62
    7
 10
443.52972691409917
 20
177.42426619145405
 11
437.86306024743254
 21
177.42426619145405
  0
ARC
  8
_0-b_細線3
  6
CONTINUOUS
 62
    7
 10
461.86306024987505
 20
215.75759952478705
 40
1.666666666666667
 50
89.999999999999915
 51
179.99999999999983
  0
ARC
  8
_0-b_細線3
  6
CONTINUOUS
 62
    7
 10
462.64297556875391
 20
219.09093285812048
 40
1.666666666666667
 50
269.99999999999977
 51
329.9999999999979
  0
ARC
  8
_0-b_細線3
  6
CONTINUOUS
 62
    7
 10
465.529726914702
 20
217.42426619145405
 40
1.666666666666667
 50
89.999999999999915
 51
150.00000000000819
  0
LINE
  8
_0-b_細線3
  6
CONTINUOUS
 62
    7
 10
461.86306024987505
 20
217.42426619145405
 11
462.64297556875391
 21
217.42426619145405
  0
ARC
  8
_0-b_細線3
  6
CONTINUOUS
 62
    7
 10
477.529726912863
 20
215.75759952478705
 40
1.666666666666667
 50
0
 51
89.999999999999915
  0
ARC
  8
_0-b_細線3
  6
CONTINUOUS
 62
    7
 10
476.74981159398374
 20
219.09093285812048
 40
1.666666666666667
 50
209.99999999999451
 51
269.99999999999977
  0
ARC
  8
_0-b_細線3
  6
CONTINUOUS
 62
    7
 10
473.86306024803559
 20
217.42426619145405
 40
1.666666666666667
 50
29.999999999998682
 51
89.999999999999915
  0
LINE
  8
_0-b_細線3
  6
CONTINUOUS
 62
    7
 10
477.529726912863
 20
217.42426619145405
 11
476.74981159398374
 21
217.42426619145405
  0
ARC
  8
_0-b_細線3
  6
CONTINUOUS
 62
    7
 10
461.02972691654202
 20
213.424266191454
 40
0.8333333333333334
 50
179.99999999999983
 51
269.99999999999977
  0
LINE
  8
_0-b_細線3
  6
CONTINUOUS
 62
    7
 10
460.19639358320802
 20
215.75759952478705
 11
460.19639358320802
 21
213.424266191454
  0
ARC
  8
_0-b_細線3
  6
CONTINUOUS
 62
    7
 10
478.36306024619603
 20
213.424266191454
 40
0.8333333333333334
 50
269.99999999999977
 51
359.99999999999966
  0
LINE
  8
_0-b_細線3
  6
CONTINUOUS
 62
    7
 10
479.19639357952963
 20
215.75759952478705
 11
479.19639357952963
 21
213.424266191454
  0
ARC
  8
_0-b_細線3
  6
CONTINUOUS
 62
    7
 10
465.19639358320802
 20
210.924266191454
 40
1.666666666666667
 50
0
 51
89.999999999999915
  0
LINE
  8
_0-b_細線3
  6
CONTINUOUS
 62
    7
 10
465.19639358320802
 20
212.59093285812057
 11
461.02972691654202
 21
212.59093285812057
  0
ARC
  8
_0-b_細線3
  6
CONTINUOUS
 62
    7
 10
474.19639358320853
 20
210.924266191454
 40
1.666666666666667
 50
89.999999999999915
 51
179.99999999999983
  0
LINE
  8
_0-b_細線3
  6
CONTINUOUS
 62
    7
 10
474.19639357952963
 20
212.59093285812057
 11
478.36306024619603
 21
212.59093285812057
  0
LINE
  8
_0-b_細線3
  6
CONTINUOUS
 62
    7
 10
473.86306024803559
 20
219.09093285812048
 11
465.529726914702
 21
219.09093285812048
  0
LINE
  8
_0-b_細線3
  6
CONTINUOUS
 62
    7
 10
466.86306024803559
 20
177.42426619145405
 11
466.86306024987505
 21
210.924266191454
  0
LINE
  8
_0-b_細線3
  6
CONTINUOUS
 62
    7
 10
472.52972691470205
 20
177.42426619145405
 11
472.5297269165419
 21
210.924266191454
  0
LINE
  8
_0-b_細線3
  6
CONTINUOUS
 62
    7
 10
472.52972691470205
 20
177.42426619145405
 11
466.86306024803559
 21
177.42426619145405
  0
ARC
  8
_0-b_細線3
  6
CONTINUOUS
 62
    7
 10
490.86306025047804
 20
215.75759952478705
 40
1.666666666666667
 50
89.999999999999915
 51
179.99999999999983
  0
ARC
  8
_0-b_細線3
  6
CONTINUOUS
 62
    7
 10
491.64297556935702
 20
219.09093285812048
 40
1.666666666666667
 50
269.99999999999977
 51
329.99999999999693
  0
ARC
  8
_0-b_細線3
  6
CONTINUOUS
 62
    7
 10
494.5297269153051
 20
217.42426619145405
 40
1.666666666666667
 50
89.999999999999915
 51
150.00000000000915
  0
LINE
  8
_0-b_細線3
  6
CONTINUOUS
 62
    7
 10
490.86306025047804
 20
217.42426619145405
 11
491.64297556935702
 21
217.42426619145405
  0
ARC
  8
_0-b_細線3
  6
CONTINUOUS
 62
    7
 10
506.52972691346611
 20
215.75759952478705
 40
1.666666666666667
 50
0
 51
89.999999999999915
  0
ARC
  8
_0-b_細線3
  6
CONTINUOUS
 62
    7
 10
505.74981159458673
 20
219.09093285812048
 40
1.666666666666667
 50
210.00000000000236
 51
269.99999999999977
  0
ARC
  8
_0-b_細線3
  6
CONTINUOUS
 62
    7
 10
502.86306024863859
 20
217.42426619145405
 40
1.666666666666667
 50
29.999999999990862
 51
89.999999999984354
  0
LINE
  8
_0-b_細線3
  6
CONTINUOUS
 62
    7
 10
506.52972691346611
 20
217.42426619145405
 11
505.74981159458673
 21
217.42426619145405
  0
ARC
  8
_0-b_細線3
  6
CONTINUOUS
 62
    7
 10
490.02972691714461
 20
213.424266191454
 40
0.8333333333333334
 50
179.99999999999983
 51
269.99999999999977
  0
LINE
  8
_0-b_細線3
  6
CONTINUOUS
 62
    7
 10
489.19639358381113
 20
215.75759952478705
 11
489.19639358381113
 21
213.424266191454
  0
ARC
  8
_0-b_細線3
  6
CONTINUOUS
 62
    7
 10
507.36306024679919
 20
213.424266191454
 40
0.8333333333333334
 50
269.99999999999977
 51
359.99999999999966
  0
LINE
  8
_0-b_細線3
  6
CONTINUOUS
 62
    7
 10
508.19639358013262
 20
215.75759952478705
 11
508.19639358013262
 21
213.424266191454
  0
ARC
  8
_0-b_細線3
  6
CONTINUOUS
 62
    7
 10
494.19639358381113
 20
210.924266191454
 40
1.666666666666667
 50
0
 51
89.999999999999915
  0
LINE
  8
_0-b_細線3
  6
CONTINUOUS
 62
    7
 10
494.19639358381113
 20
212.59093285812057
 11
490.02972691714461
 21
212.59093285812057
  0
ARC
  8
_0-b_細線3
  6
CONTINUOUS
 62
    7
 10
503.19639358381107
 20
210.924266191454
 40
1.666666666666667
 50
89.999999999999915
 51
179.99999999999983
  0
LINE
  8
_0-b_細線3
  6
CONTINUOUS
 62
    7
 10
503.19639358013217
 20
212.59093285812057
 11
507.36306024679919
 21
212.59093285812057
  0
LINE
  8
_0-b_細線3
  6
CONTINUOUS
 62
    7
 10
502.86306024863859
 20
219.09093285812048
 11
494.5297269153051
 21
219.09093285812048
  0
LINE
  8
_0-b_細線3
  6
CONTINUOUS
 62
    7
 10
495.86306024863859
 20
177.42426619145405
 11
495.86306025047804
 21
210.924266191454
  0
LINE
  8
_0-b_細線3
  6
CONTINUOUS
 62
    7
 10
501.52972691530516
 20
177.42426619145405
 11
501.52972691714501
 21
210.924266191454
  0
LINE
  8
_0-b_細線3
  6
CONTINUOUS
 62
    7
 10
501.52972691530516
 20
177.42426619145405
 11
495.86306024863859
 21
177.42426619145405
  0
ARC
  8
_0-b_細線3
  6
CONTINUOUS
 62
    7
 10
374.86306024774899
 20
215.75759952478705
 40
1.666666666666667
 50
89.999999999999915
 51
179.99999999999983
  0
ARC
  8
_0-b_細線3
  6
CONTINUOUS
 62
    7
 10
375.64297556662802
 20
219.09093285812048
 40
1.666666666666667
 50
269.99999999999977
 51
330.00000000000375
  0
ARC
  8
_0-b_細線3
  6
CONTINUOUS
 62
    7
 10
378.52972691257611
 20
217.42426619145405
 40
1.666666666666667
 50
89.999999999999915
 51
150.0000000000023
  0
LINE
  8
_0-b_細線3
  6
CONTINUOUS
 62
    7
 10
374.86306024774899
 20
217.42426619145405
 11
375.64297556662802
 21
217.42426619145405
  0
ARC
  8
_0-b_細線3
  6
CONTINUOUS
 62
    7
 10
390.52972691073711
 20
215.75759952478705
 40
1.666666666666667
 50
0
 51
89.999999999999915
  0
ARC
  8
_0-b_細線3
  6
CONTINUOUS
 62
    7
 10
389.74981159185825
 20
219.09093285812048
 40
1.666666666666667
 50
209.99999999999451
 51
269.99999999999977
  0
ARC
  8
_0-b_細線3
  6
CONTINUOUS
 62
    7
 10
386.86306024590965
 20
217.42426619145405
 40
1.666666666666667
 50
29.999999999990862
 51
89.999999999986315
  0
LINE
  8
_0-b_細線3
  6
CONTINUOUS
 62
    7
 10
390.52972691073711
 20
217.42426619145405
 11
389.74981159185825
 21
217.42426619145405
  0
ARC
  8
_0-b_細線3
  6
CONTINUOUS
 62
    7
 10
374.02972691441607
 20
213.424266191454
 40
0.8333333333333334
 50
179.99999999999983
 51
269.99999999999977
  0
LINE
  8
_0-b_細線3
  6
CONTINUOUS
 62
    7
 10
373.19639358108213
 20
215.75759952478705
 11
373.19639358108213
 21
213.424266191454
  0
ARC
  8
_0-b_細線3
  6
CONTINUOUS
 62
    7
 10
391.3630602440702
 20
213.424266191454
 40
0.8333333333333334
 50
269.99999999999977
 51
359.99999999999966
  0
LINE
  8
_0-b_細線3
  6
CONTINUOUS
 62
    7
 10
392.19639357740414
 20
215.75759952478705
 11
392.19639357740414
 21
213.424266191454
  0
ARC
  8
_0-b_細線3
  6
CONTINUOUS
 62
    7
 10
378.19639358108213
 20
210.924266191454
 40
1.666666666666667
 50
0
 51
89.999999999999915
  0
LINE
  8
_0-b_細線3
  6
CONTINUOUS
 62
    7
 10
378.19639358108213
 20
212.59093285812057
 11
374.02972691441607
 21
212.59093285812057
  0
ARC
  8
_0-b_細線3
  6
CONTINUOUS
 62
    7
 10
387.19639358108253
 20
210.924266191454
 40
1.666666666666667
 50
89.999999999999915
 51
179.99999999999983
  0
LINE
  8
_0-b_細線3
  6
CONTINUOUS
 62
    7
 10
387.19639357740363
 20
212.59093285812057
 11
391.3630602440702
 21
212.59093285812057
  0
LINE
  8
_0-b_細線3
  6
CONTINUOUS
 62
    7
 10
386.86306024590965
 20
219.09093285812048
 11
378.52972691257611
 21
219.09093285812048
  0
LINE
  8
_0-b_細線3
  6
CONTINUOUS
 62
    7
 10
379.86306024591011
 20
177.42426619145405
 11
379.86306024774899
 21
210.924266191454
  0
LINE
  8
_0-b_細線3
  6
CONTINUOUS
 62
    7
 10
385.52972691257617
 20
177.42426619145405
 11
385.52972691441602
 21
210.924266191454
  0
LINE
  8
_0-b_細線3
  6
CONTINUOUS
 62
    7
 10
385.52972691257617
 20
177.42426619145405
 11
379.86306024591011
 21
177.42426619145405
  0
ARC
  8
_0-b_細線3
  6
CONTINUOUS
 62
    7
 10
403.8630602483521
 20
215.75759952478705
 40
1.666666666666667
 50
89.999999999999915
 51
179.99999999999983
  0
ARC
  8
_0-b_細線3
  6
CONTINUOUS
 62
    7
 10
404.64297556723153
 20
219.09093285812048
 40
1.666666666666667
 50
269.99999999999977
 51
329.99999999998812
  0
ARC
  8
_0-b_細線3
  6
CONTINUOUS
 62
    7
 10
407.52972691317922
 20
217.42426619145405
 40
1.666666666666667
 50
89.999999999999915
 51
150.00000000001012
  0
LINE
  8
_0-b_細線3
  6
CONTINUOUS
 62
    7
 10
403.8630602483521
 20
217.42426619145405
 11
404.64297556723153
 21
217.42426619145405
  0
ARC
  8
_0-b_細線3
  6
CONTINUOUS
 62
    7
 10
419.52972691134022
 20
215.75759952478705
 40
1.666666666666667
 50
0
 51
89.999999999999915
  0
ARC
  8
_0-b_細線3
  6
CONTINUOUS
 62
    7
 10
418.74981159246079
 20
219.09093285812048
 40
1.666666666666667
 50
210.00000000000333
 51
269.99999999999977
  0
ARC
  8
_0-b_細線3
  6
CONTINUOUS
 62
    7
 10
415.8630602465131
 20
217.42426619145405
 40
1.666666666666667
 50
29.999999999997708
 51
89.999999999999901
  0
LINE
  8
_0-b_細線3
  6
CONTINUOUS
 62
    7
 10
419.52972691134022
 20
217.42426619145405
 11
418.74981159246079
 21
217.42426619145405
  0
ARC
  8
_0-b_細線3
  6
CONTINUOUS
 62
    7
 10
403.02972691501907
 20
213.424266191454
 40
0.8333333333333334
 50
179.99999999999983
 51
269.99999999999977
  0
LINE
  8
_0-b_細線3
  6
CONTINUOUS
 62
    7
 10
402.19639358168564
 20
215.75759952478705
 11
402.19639358168564
 21
213.424266191454
  0
ARC
  8
_0-b_細線3
  6
CONTINUOUS
 62
    7
 10
420.36306024467308
 20
213.424266191454
 40
0.8333333333333334
 50
269.99999999999977
 51
359.99999999999966
  0
LINE
  8
_0-b_細線3
  6
CONTINUOUS
 62
    7
 10
421.19639357800668
 20
215.75759952478705
 11
421.19639357800668
 21
213.424266191454
  0
ARC
  8
_0-b_細線3
  6
CONTINUOUS
 62
    7
 10
407.19639358168564
 20
210.924266191454
 40
1.666666666666667
 50
0
 51
89.999999999999915
  0
LINE
  8
_0-b_細線3
  6
CONTINUOUS
 62
    7
 10
407.19639358168564
 20
212.59093285812057
 11
403.02972691501907
 21
212.59093285812057
  0
ARC
  8
_0-b_細線3
  6
CONTINUOUS
 62
    7
 10
416.19639358168558
 20
210.924266191454
 40
1.666666666666667
 50
89.999999999999915
 51
179.99999999999983
  0
LINE
  8
_0-b_細線3
  6
CONTINUOUS
 62
    7
 10
416.19639357800668
 20
212.59093285812057
 11
420.36306024467308
 21
212.59093285812057
  0
LINE
  8
_0-b_細線3
  6
CONTINUOUS
 62
    7
 10
415.8630602465131
 20
219.09093285812048
 11
407.52972691317922
 21
219.09093285812048
  0
LINE
  8
_0-b_細線3
  6
CONTINUOUS
 62
    7
 10
408.86306024651265
 20
177.42426619145405
 11
408.8630602483521
 21
210.924266191454
  0
LINE
  8
_0-b_細線3
  6
CONTINUOUS
 62
    7
 10
414.52972691317967
 20
177.42426619145405
 11
414.52972691501913
 21
210.924266191454
  0
LINE
  8
_0-b_細線3
  6
CONTINUOUS
 62
    7
 10
414.52972691317967
 20
177.42426619145405
 11
408.86306024651265
 21
177.42426619145405
  0
LINE
  8
_0-d_寸法3
  6
CONTINUOUS
 62
    7
 10
506.88791402517808
 20
183.16003055496452
 11
542.24025575086353
 21
207.91400672465528
  0
LINE
  8
_0-d_寸法3
  6
CONTINUOUS
 62
    7
 10
538.14449552941858
 20
205.0461245429
 11
535.55630507839339
 21
214.70538280579069
  0
LINE
  8
_0-d_寸法3
  6
CONTINUOUS
 62
    7
 10
538.14449552941858
 20
205.0461245429
 11
540.73268598044376
 21
214.70538280579069
  0
LINE
  8
_0-d_寸法3
  6
CONTINUOUS
 62
    7
 10
506.88791402517808
 20
224.82669722163098
 11
542.24025575086353
 21
249.58067339132182
  0
LINE
  8
_0-d_寸法3
  6
CONTINUOUS
 62
    7
 10
538.14449552941858
 20
246.71279120956655
 11
540.73268598044376
 21
237.05353294667589
  0
LINE
  8
_0-d_寸法3
  6
CONTINUOUS
 62
    7
 10
538.14449552941858
 20
246.71279120956655
 11
535.55630507839328
 21
237.05353294667589
  0
LINE
  8
_0-d_寸法3
  6
CONTINUOUS
 62
    7
 10
538.14449552941858
 20
205.0461245429
 11
538.14449552941858
 21
246.71279120956655
  0
TEXT
  8
_0-d_寸法3
 62
    7
 10
538.14449552941858
 20
218.3794578762344
 40
15
 41
1
 50
90
  1
25
  0
LINE
  8
_0-a_極細3
  6
CENTER1
 62
    7
 10
519.495160571062
 20
200.42426619145374
 11
356.9166179431362
 21
200.42426619145374
  0
LINE
  8
_0-b_細線3
  6
CONTINUOUS
 62
    7
 10
443.52972691501907
 20
189.5909328581206
 11
466.86306024835244
 21
189.5909328581206
  0
LINE
  8
_0-b_細線3
  6
CONTINUOUS
 62
    7
 10
472.52972691562206
 20
189.5909328581206
 11
495.86306024895555
 21
189.5909328581206
  0
LINE
  8
_0-b_細線3
  6
CONTINUOUS
 62
    7
 10
385.52972691349612
 20
189.5909328581206
 11
408.86306024682966
 21
189.5909328581206
  0
LINE
  8
_0-b_細線3
  6
CONTINUOUS
 62
    7
 10
414.52972691409957
 20
189.5909328581206
 11
437.86306024743254
 21
189.5909328581206
  0
LINE
  8
_0-b_細線3
  6
CONTINUOUS
 62
    7
 10
443.52972691501907
 20
211.25759952478731
 11
466.86306024835244
 21
211.25759952478731
  0
LINE
  8
_0-b_細線3
  6
CONTINUOUS
 62
    7
 10
472.52972691562206
 20
211.25759952478731
 11
495.86306024895555
 21
211.25759952478731
  0
LINE
  8
_0-b_細線3
  6
CONTINUOUS
 62
    7
 10
385.52972691349612
 20
211.25759952478731
 11
408.86306024682966
 21
211.25759952478731
  0
LINE
  8
_0-b_細線3
  6
CONTINUOUS
 62
    7
 10
414.52972691409957
 20
211.25759952478731
 11
437.86306024743254
 21
211.25759952478731
  0
LINE
  8
_0-b_細線3
  6
CONTINUOUS
 62
    7
 10
501.52972691622506
 20
211.25759952478731
 11
512.28882330702515
 21
211.25759952478731
  0
LINE
  8
_0-b_細線3
  6
CONTINUOUS
 62
    7
 10
501.52972691622506
 20
189.5909328581206
 11
514.99729531608125
 21
189.5909328581206
  0
LINE
  8
_0-b_細線3
  6
CONTINUOUS
 62
    7
 10
367.3690078686912
 20
211.25759952478731
 11
379.86306024622655
 21
211.25759952478731
  0
LINE
  8
_0-b_細線3
  6
CONTINUOUS
 62
    7
 10
370.07747987774729
 20
189.5909328581206
 11
379.86306024622655
 21
189.5909328581206
  0
TEXT
  8
_0-7_枠細線
 62
    5
 10
400.96306024651221
 20
128.5404661036894
 40
25.000000000000004
 41
0.8
 50
0
  1
断面詳細
  0
TEXT
  8
_0-7_枠細線
 62
    5
 10
505.91202999568031
 20
131.49990592400917
 40
20
 41
0.6
 50
0
  1
Ｓ＝１：３
  0
TEXT
  8
_0-7_枠細線
 62
    5
 10
930.00000000000045
 20
428.73000000000047
 40
15.000000000000002
 41
0.5
 50
0
  1
ＧＲＳ－２５Ｋ２５０－Ｂ
  0
TEXT
  8
_0-7_枠細線
 62
    5
 10
930.00000000000045
 20
403.73000000000047
 40
15.000000000000002
 41
0.5
 50
0
  1
ＧＲＳ－２５Ｋ２５０－Ｇ
  0
TEXT
  8
_0-7_枠細線
 62
    5
 10
930.00000000000045
 20
378.7300000000007
 40
15.000000000000002
 41
0.5
 50
0
  1
ＧＲＳ－２５Ｋ２５０－Ｓ
  0
TEXT
  8
_0-7_枠細線
 62
    5
 10
930.00000000000045
 20
353.73000000000047
 40
15.000000000000002
 41
0.5
 50
0
  1
ＧＲＳ－２５Ｋ２５０－Ｐ
  0
TEXT
  8
_0-7_枠細線
 62
    5
 10
930.00000000000045
 20
328.73000000000047
 40
15.000000000000002
 41
0.5
 50
0
  1
ＧＲＳ－２５Ｋ２５０－Ａ
  0
TEXT
  8
_0-7_枠細線
 62
    5
 10
930.00000000000045
 20
303.73000000000059
 40
15.000000000000002
 41
0.5
 50
0
  1
ＧＲＳ－２５Ｋ２５０－Ｄ
  0
TEXT
  8
_0-7_枠細線
 62
    5
 10
930.00000000000045
 20
278.7300000000007
 40
15.000000000000002
 41
0.5
 50
0
  1
ＧＲＳ－２５Ｋ２５０－Ｍ
  0
TEXT
  8
_0-7_枠細線
 62
    5
 10
930.00000000000045
 20
253.73000000000036
 40
15.000000000000002
 41
0.5
 50
0
  1
ＧＲＳ－２５Ｋ２５０－Ｃ
  0
TEXT
  8
_0-7_枠細線
 62
    5
 10
930.00000000000045
 20
228.73000000000008
 40
15.000000000000002
 41
0.5
 50
0
  1
ＧＲＳ－２５Ｋ２５０－Ｋ
  0
LINE
  8
_0-7_枠細線
  6
CONTINUOUS
 62
    5
 10
589.62302206321624
 20
753.92835803928256
 11
582.12302206321624
 21
738.92835803928256
  0
LINE
  8
_0-7_枠細線
  6
CONTINUOUS
 62
    5
 10
582.12302206321624
 20
738.92835803928256
 11
597.12302206321624
 21
738.92835803928256
  0
LINE
  8
_0-7_枠細線
  6
CONTINUOUS
 62
    5
 10
597.12302206321624
 20
738.92835803928256
 11
589.62302206321624
 21
753.92835803928256
  0
TEXT
  8
_0-7_枠細線
 62
    5
 10
586.98817333136435
 20
738.3806741491012
 40
12.5
 41
0.8
 50
0
  1
1
  0
LINE
  8
_0-5_寸法線
  6
CONTINUOUS
 62
    7
 10
318.51795824097195
 20
694.60583080108131
 11
318.51795824097223
 21
844.60583080108131
  0
LINE
  8
_0-5_寸法線
  6
CONTINUOUS
 62
    7
 10
318.51795824097223
 20
839.60583080108131
 11
328.17721650386284
 21
842.1940212521065
  0
LINE
  8
_0-5_寸法線
  6
CONTINUOUS
 62
    7
 10
318.51795824097223
 20
839.60583080108131
 11
328.17721650386284
 21
837.01764035005624
  0
LINE
  8
_0-5_寸法線
  6
CONTINUOUS
 62
    7
 10
578.51795824097258
 20
694.60583080108131
 11
578.51795824097258
 21
844.60583080108131
  0
LINE
  8
_0-5_寸法線
  6
CONTINUOUS
 62
    7
 10
578.51795824097258
 20
839.60583080108131
 11
568.85869997808186
 21
837.01764035005624
  0
LINE
  8
_0-5_寸法線
  6
CONTINUOUS
 62
    7
 10
578.51795824097258
 20
839.60583080108131
 11
568.85869997808186
 21
842.1940212521065
  0
LINE
  8
_0-5_寸法線
  6
CONTINUOUS
 62
    7
 10
318.51795824097223
 20
839.60583080108131
 11
578.51795824097258
 21
839.60583080108131
  0
TEXT
  8
_0-5_寸法線
 62
    7
 10
437.26795824097223
 20
839.6058308010812
 40
15
 41
1
 50
0
  1
260
  0
LINE
  8
_0-5_寸法線
  6
CONTINUOUS
 62
    7
 10
318.51795824097223
 20
804.60583080108131
 11
308.85869997808157
 21
802.01764035005624
  0
LINE
  8
_0-5_寸法線
  6
CONTINUOUS
 62
    7
 10
318.51795824097223
 20
804.60583080108131
 11
308.85869997808157
 21
807.1940212521065
  0
LINE
  8
_0-5_寸法線
  6
CONTINUOUS
 62
    7
 10
321.51795824097201
 20
694.60583080108131
 11
321.51795824097229
 21
809.60583080108131
  0
LINE
  8
_0-5_寸法線
  6
CONTINUOUS
 62
    7
 10
293.51795824097223
 20
804.60583080108131
 11
321.51795824097229
 21
804.60583080108131
  0
TEXT
  8
_0-5_寸法線
 62
    7
 10
297.41188198170533
 20
804.6058308010812
 40
15
 41
1
 50
0
  1
3
  0
LINE
  8
_0-5_寸法線
  6
CONTINUOUS
 62
    7
 10
321.51795824097229
 20
804.60583080108131
 11
331.17721650386295
 21
807.1940212521065
  0
LINE
  8
_0-5_寸法線
  6
CONTINUOUS
 62
    7
 10
321.51795824097229
 20
804.60583080108131
 11
331.17721650386295
 21
802.01764035005613
  0
LINE
  8
_0-5_寸法線
  6
CONTINUOUS
 62
    7
 10
575.51795824097258
 20
694.60583080108131
 11
575.51795824097258
 21
809.60583080108131
  0
LINE
  8
_0-5_寸法線
  6
CONTINUOUS
 62
    7
 10
575.51795824097258
 20
804.60583080108131
 11
565.85869997808186
 21
802.01764035005624
  0
LINE
  8
_0-5_寸法線
  6
CONTINUOUS
 62
    7
 10
575.51795824097258
 20
804.60583080108131
 11
565.85869997808186
 21
807.1940212521065
  0
LINE
  8
_0-5_寸法線
  6
CONTINUOUS
 62
    7
 10
321.51795824097229
 20
804.60583080108131
 11
575.51795824097258
 21
804.60583080108131
  0
TEXT
  8
_0-5_寸法線
 62
    7
 10
437.26795824097223
 20
804.6058308010812
 40
15
 41
1
 50
0
  1
254
  0
LINE
  8
_0-5_寸法線
  6
CONTINUOUS
 62
    7
 10
578.51795824097258
 20
804.60583080108131
 11
588.17721650386329
 21
807.1940212521065
  0
LINE
  8
_0-5_寸法線
  6
CONTINUOUS
 62
    7
 10
578.51795824097258
 20
804.60583080108131
 11
588.17721650386329
 21
802.01764035005613
  0
LINE
  8
_0-5_寸法線
  6
CONTINUOUS
 62
    7
 10
575.51795824097258
 20
804.60583080108131
 11
603.51795824097258
 21
804.60583080108131
  0
TEXT
  8
_0-5_寸法線
 62
    7
 10
592.68560460944241
 20
804.60583080108131
 40
15
 41
1
 50
0
  1
3
  0
LINE
  8
_0-5_寸法線
  6
CONTINUOUS
 62
    7
 10
323.51795824097275
 20
694.60583080108131
 11
323.5179582409728
 21
774.60583080108131
  0
LINE
  8
_0-5_寸法線
  6
CONTINUOUS
 62
    7
 10
323.5179582409728
 20
769.60583080108131
 11
333.17721650386346
 21
772.1940212521065
  0
LINE
  8
_0-5_寸法線
  6
CONTINUOUS
 62
    7
 10
323.5179582409728
 20
769.60583080108131
 11
333.17721650386346
 21
767.01764035005613
  0
LINE
  8
_0-5_寸法線
  6
CONTINUOUS
 62
    7
 10
573.51795824097258
 20
694.60583080108131
 11
573.51795824097269
 21
774.60583080108131
  0
LINE
  8
_0-5_寸法線
  6
CONTINUOUS
 62
    7
 10
573.51795824097269
 20
769.60583080108131
 11
563.85869997808197
 21
767.01764035005613
  0
LINE
  8
_0-5_寸法線
  6
CONTINUOUS
 62
    7
 10
573.51795824097269
 20
769.60583080108131
 11
563.85869997808197
 21
772.1940212521065
  0
LINE
  8
_0-5_寸法線
  6
CONTINUOUS
 62
    7
 10
323.5179582409728
 20
769.60583080108131
 11
573.51795824097269
 21
769.60583080108131
  0
TEXT
  8
_0-5_寸法線
 62
    7
 10
437.2679582409728
 20
769.60583080108131
 40
15
 41
1
 50
0
  1
250
  0
LINE
  8
_0-5_寸法線
  6
CONTINUOUS
 62
    7
 10
984.99999999965644
 20
691.16000000000008
 11
984.99999999965655
 21
736.16000000000008
  0
LINE
  8
_0-5_寸法線
  6
CONTINUOUS
 62
    7
 10
984.99999999965655
 20
731.16000000000008
 11
994.65925826254716
 21
733.74819045102527
  0
LINE
  8
_0-5_寸法線
  6
CONTINUOUS
 62
    7
 10
984.99999999965655
 20
731.16000000000008
 11
994.65925826254716
 21
728.5718095489749
  0
LINE
  8
_0-5_寸法線
  6
CONTINUOUS
 62
    7
 10
1185.0000000003438
 20
691.15999999999974
 11
1185.000000000344
 21
736.16000000000008
  0
LINE
  8
_0-5_寸法線
  6
CONTINUOUS
 62
    7
 10
1185.000000000344
 20
731.16000000000008
 11
1175.3407417374533
 21
728.5718095489749
  0
LINE
  8
_0-5_寸法線
  6
CONTINUOUS
 62
    7
 10
1185.000000000344
 20
731.16000000000008
 11
1175.3407417374533
 21
733.74819045102527
  0
LINE
  8
_0-5_寸法線
  6
CONTINUOUS
 62
    7
 10
984.99999999965655
 20
731.16000000000008
 11
1185.000000000344
 21
731.16000000000008
  0
TEXT
  8
_0-5_寸法線
 62
    7
 10
1073.7500000000002
 20
731.16000000000008
 40
15
 41
1
 50
0
  1
200
  0
LINE
  8
_0-5_寸法線
  6
CONTINUOUS
 62
    7
 10
980
 20
766.15999999999985
 11
970.34074173710917
 21
763.57180954897467
  0
LINE
  8
_0-5_寸法線
  6
CONTINUOUS
 62
    7
 10
980
 20
766.15999999999985
 11
970.34074173710917
 21
768.74819045102515
  0
LINE
  8
_0-5_寸法線
  6
CONTINUOUS
 62
    7
 10
983
 20
685.6600000000002
 11
983
 21
771.15999999999985
  0
LINE
  8
_0-5_寸法線
  6
CONTINUOUS
 62
    7
 10
955
 20
766.15999999999985
 11
983
 21
766.15999999999985
  0
TEXT
  8
_0-5_寸法線
 62
    7
 10
958.85533205607669
 20
766.15999999999985
 40
15
 41
1
 50
0
  1
3
  0
LINE
  8
_0-5_寸法線
  6
CONTINUOUS
 62
    7
 10
983
 20
766.15999999999985
 11
992.6592582628906
 21
768.74819045102515
  0
LINE
  8
_0-5_寸法線
  6
CONTINUOUS
 62
    7
 10
983
 20
766.15999999999985
 11
992.6592582628906
 21
763.57180954897467
  0
LINE
  8
_0-5_寸法線
  6
CONTINUOUS
 62
    7
 10
1187
 20
685.6600000000002
 11
1187.0000000000005
 21
771.15999999999985
  0
LINE
  8
_0-5_寸法線
  6
CONTINUOUS
 62
    7
 10
1187.0000000000005
 20
766.15999999999985
 11
1177.3407417371097
 21
763.57180954897467
  0
LINE
  8
_0-5_寸法線
  6
CONTINUOUS
 62
    7
 10
1187.0000000000005
 20
766.15999999999985
 11
1177.3407417371097
 21
768.74819045102515
  0
LINE
  8
_0-5_寸法線
  6
CONTINUOUS
 62
    7
 10
983
 20
766.15999999999985
 11
1187.0000000000005
 21
766.15999999999985
  0
TEXT
  8
_0-5_寸法線
 62
    7
 10
1073.7500000000002
 20
766.15999999999985
 40
15
 41
1
 50
0
  1
204
  0
LINE
  8
_0-5_寸法線
  6
CONTINUOUS
 62
    7
 10
1190.0000000000005
 20
766.15999999999985
 11
1199.6592582628912
 21
768.74819045102515
  0
LINE
  8
_0-5_寸法線
  6
CONTINUOUS
 62
    7
 10
1190.0000000000005
 20
766.15999999999985
 11
1199.6592582628912
 21
763.57180954897456
  0
LINE
  8
_0-5_寸法線
  6
CONTINUOUS
 62
    7
 10
1187.0000000000005
 20
766.15999999999985
 11
1215.0000000000005
 21
766.15999999999985
  0
TEXT
  8
_0-5_寸法線
 62
    7
 10
1202.3980205157804
 20
766.15999999999985
 40
15
 41
1
 50
0
  1
3
  0
LINE
  8
_0-5_寸法線
  6
CONTINUOUS
 62
    7
 10
323.51795824097195
 20
694.60583080108131
 11
323.51795824097218
 21
739.60583080108131
  0
LINE
  8
_0-5_寸法線
  6
CONTINUOUS
 62
    7
 10
323.51795824097218
 20
734.60583080108131
 11
333.17721650386284
 21
737.1940212521065
  0
LINE
  8
_0-5_寸法線
  6
CONTINUOUS
 62
    7
 10
323.51795824097218
 20
734.60583080108131
 11
333.17721650386284
 21
732.01764035005613
  0
LINE
  8
_0-5_寸法線
  6
CONTINUOUS
 62
    7
 10
330.51795824097189
 20
694.60583080108131
 11
330.51795824097189
 21
739.60583080108131
  0
LINE
  8
_0-5_寸法線
  6
CONTINUOUS
 62
    7
 10
330.51795824097189
 20
734.60583080108131
 11
320.85869997808118
 21
732.01764035005613
  0
LINE
  8
_0-5_寸法線
  6
CONTINUOUS
 62
    7
 10
330.51795824097189
 20
734.60583080108131
 11
320.85869997808123
 21
737.1940212521065
  0
LINE
  8
_0-5_寸法線
  6
CONTINUOUS
 62
    7
 10
323.51795824097218
 20
734.60583080108131
 11
330.51795824097189
 21
734.60583080108131
  0
TEXT
  8
_0-5_寸法線
 62
    7
 10
325.08692253490483
 20
734.60583080108131
 40
15
 41
1
 50
0
  1
7
  0
LINE
  8
_0-5_寸法線
  6
CONTINUOUS
 62
    7
 10
330.51795824097189
 20
734.60583080108131
 11
340.17721650386261
 21
737.1940212521065
  0
LINE
  8
_0-5_寸法線
  6
CONTINUOUS
 62
    7
 10
330.51795824097189
 20
734.60583080108131
 11
340.17721650386255
 21
732.01764035005613
  0
LINE
  8
_0-5_寸法線
  6
CONTINUOUS
 62
    7
 10
427.51795824097286
 20
694.60583080108131
 11
427.51795824097303
 21
739.60583080108131
  0
LINE
  8
_0-5_寸法線
  6
CONTINUOUS
 62
    7
 10
427.51795824097303
 20
734.60583080108131
 11
417.85869997808226
 21
732.01764035005613
  0
LINE
  8
_0-5_寸法線
  6
CONTINUOUS
 62
    7
 10
427.51795824097303
 20
734.60583080108131
 11
417.85869997808231
 21
737.1940212521065
  0
LINE
  8
_0-5_寸法線
  6
CONTINUOUS
 62
    7
 10
330.51795824097189
 20
734.60583080108131
 11
427.51795824097303
 21
734.60583080108131
  0
TEXT
  8
_0-5_寸法線
 62
    7
 10
371.51795824097258
 20
734.6058308010812
 40
15
 41
1
 50
0
  1
97
  0
LINE
  8
_0-5_寸法線
  6
CONTINUOUS
 62
    7
 10
427.51795824097303
 20
734.60583080108131
 11
437.17721650386375
 21
737.1940212521065
  0
LINE
  8
_0-5_寸法線
  6
CONTINUOUS
 62
    7
 10
427.51795824097303
 20
734.60583080108131
 11
437.17721650386363
 21
732.01764035005613
  0
LINE
  8
_0-5_寸法線
  6
CONTINUOUS
 62
    7
 10
469.51795824097258
 20
694.60583080108131
 11
469.51795824097258
 21
739.60583080108131
  0
LINE
  8
_0-5_寸法線
  6
CONTINUOUS
 62
    7
 10
469.51795824097258
 20
734.60583080108131
 11
459.85869997808186
 21
732.01764035005613
  0
LINE
  8
_0-5_寸法線
  6
CONTINUOUS
 62
    7
 10
469.51795824097258
 20
734.60583080108131
 11
459.85869997808197
 21
737.1940212521065
  0
LINE
  8
_0-5_寸法線
  6
CONTINUOUS
 62
    7
 10
427.51795824097303
 20
734.60583080108131
 11
469.51795824097258
 21
734.60583080108131
  0
TEXT
  8
_0-5_寸法線
 62
    7
 10
441.0179582409728
 20
734.6058308010812
 40
15
 41
1
 50
0
  1
42
  0
LINE
  8
_0-5_寸法線
  6
CONTINUOUS
 62
    7
 10
469.51795824097258
 20
734.60583080108131
 11
479.17721650386335
 21
737.1940212521065
  0
LINE
  8
_0-5_寸法線
  6
CONTINUOUS
 62
    7
 10
469.51795824097258
 20
734.60583080108131
 11
479.17721650386329
 21
732.01764035005613
  0
LINE
  8
_0-5_寸法線
  6
CONTINUOUS
 62
    7
 10
566.51795824097212
 20
694.60583080108131
 11
566.51795824097212
 21
739.60583080108131
  0
LINE
  8
_0-5_寸法線
  6
CONTINUOUS
 62
    7
 10
566.51795824097212
 20
734.60583080108131
 11
556.8586999780814
 21
732.01764035005613
  0
LINE
  8
_0-5_寸法線
  6
CONTINUOUS
 62
    7
 10
566.51795824097212
 20
734.60583080108131
 11
556.8586999780814
 21
737.1940212521065
  0
LINE
  8
_0-5_寸法線
  6
CONTINUOUS
 62
    7
 10
469.51795824097258
 20
734.60583080108131
 11
566.51795824097212
 21
734.60583080108131
  0
TEXT
  8
_0-5_寸法線
 62
    7
 10
510.5179582409724
 20
734.6058308010812
 40
15
 41
1
 50
0
  1
97
  0
LINE
  8
_0-5_寸法線
  6
CONTINUOUS
 62
    7
 10
566.51795824097212
 20
734.60583080108131
 11
576.17721650386284
 21
737.1940212521065
  0
LINE
  8
_0-5_寸法線
  6
CONTINUOUS
 62
    7
 10
566.51795824097212
 20
734.60583080108131
 11
576.17721650386284
 21
732.01764035005613
  0
LINE
  8
_0-5_寸法線
  6
CONTINUOUS
 62
    7
 10
573.51795824097212
 20
694.60583080108131
 11
573.51795824097212
 21
739.60583080108131
  0
LINE
  8
_0-5_寸法線
  6
CONTINUOUS
 62
    7
 10
573.51795824097212
 20
734.60583080108131
 11
563.8586999780814
 21
732.01764035005613
  0
LINE
  8
_0-5_寸法線
  6
CONTINUOUS
 62
    7
 10
573.51795824097212
 20
734.60583080108131
 11
563.8586999780814
 21
737.1940212521065
  0
LINE
  8
_0-5_寸法線
  6
CONTINUOUS
 62
    7
 10
566.51795824097212
 20
734.60583080108131
 11
573.51795824097212
 21
734.60583080108131
  0
TEXT
  8
_0-5_寸法線
 62
    7
 10
564.96824482253294
 20
734.60583080108131
 40
15
 41
1
 50
0
  1
7
  0
LINE
  8
_0-5_寸法線
  6
CONTINUOUS
 62
    7
 10
563.282057762146
 20
568.13107657432556
 11
570.35312556096324
 21
575.20214439923939
  0
LINE
  8
_0-5_寸法線
  6
CONTINUOUS
 62
    7
 10
563.282057762146
 20
568.13107657432556
 11
572.94131602026073
 21
570.71926704317502
  0
LINE
  8
_0-5_寸法線
  6
CONTINUOUS
 62
    7
 10
563.282057762146
 20
568.13107657432556
 11
618.83439759736916
 21
600.20423506898646
  0
LINE
  8
_0-5_寸法線
  6
CONTINUOUS
 62
    7
 10
618.83439759736916
 20
600.20423506898646
 11
750.83439759736916
 21
600.20423506898646
  0
TEXT
  8
_0-5_寸法線
 62
    7
 10
618.83439759736916
 20
600.20423506898646
 40
15
 41
0.8000000000000001
 50
0
  1
セーフティグレーチング
  0
ENDSEC
  0
EOF
