  0
SECTION
  2
HEADER
  9
$ACADVER
  1
AC1009
  9
$INSBASE
 10
0
 20
0
 30
0
  9
$EXTMIN
 10
0
 20
0
  9
$EXTMAX
 10
2376
 20
1680
  9
$LIMMIN
 10
0
 20
0
  9
$LIMMAX
 10
2376
 20
1680
  9
$LTSCALE
 40
8
  0
ENDSEC
  0
SECTION
  2
TABLES
  0
TABLE
  2
LTYPE
 70
     9
  0
LTYPE
  2
CONTINUOUS
 70
    64
  3
実線
 72
    65
 73
     0
 40
0.0
  0
LTYPE
  2
DASHED1
 70
    64
  3
--  --  --  --  --  --  --  --  
 72
    65
 73
     2
 40
2.5
 49
1.25
 49
-1.25
  0
LTYPE
  2
DASHED2
 70
    64
  3
----    ----    ----    ----    
 72
    65
 73
     2
 40
5.0
 49
2.5
 49
-2.5
  0
LTYPE
  2
DASHED3
 70
    64
  3
------  ------  ------  ------  
 72
    65
 73
     2
 40
5.0
 49
3.75
 49
-1.25
  0
LTYPE
  2
CENTER1
 70
    64
  3
----- - ----- - ----- - ----- - 
 72
    65
 73
     4
 40
10.0
 49
6.25
 49
-1.25
 49
1.25
 49
-1.25
  0
LTYPE
  2
CENTER2
 70
    64
  3
----------  --  ----------  --  
 72
    65
 73
     4
 40
20.0
 49
12.5
 49
-2.5
 49
2.5
 49
-2.5
  0
LTYPE
  2
PHANTOM1
 70
    64
  3
--- - - --- - - --- - - --- - - 
 72
    65
 73
     6
 40
10.0
 49
3.25
 49
-1.25
 49
1.25
 49
-1.25
 49
1.25
 49
-1.25
  0
LTYPE
  2
PHANTOM2
 70
    64
  3
--------  -  -  --------  -  -  
 72
    65
 73
     6
 40
20.0
 49
10.0
 49
-2.5
 49
1.25
 49
-2.5
 49
1.25
 49
-2.5
  0
LTYPE
  2
DOT
 70
    64
  3
-   -   -   -   -   -   -   -   
 72
    65
 73
     2
 40
2.5
 49
0.625
 49
-1.875
  0
LTYPE
  2
DUMMY
 70
    64
  3
ダミー
 72
    65
 73
     0
 40
0.0
  0
LTYPE
  2
RAND1
 70
    64
  3
ランダム線1
 72
    65
 73
     4
 40
10.0
 49
1.0
 49
-2.0
 49
3.0
 49
-4.0
  0
LTYPE
  2
RAND2
 70
    64
  3
ランダム線2
 72
    65
 73
     4
 40
14.0
 49
2.0
 49
-3.0
 49
4.0
 49
-5.0
  0
LTYPE
  2
RAND3
 70
    64
  3
ランダム線3
 72
    65
 73
     4
 40
18.0
 49
3.0
 49
-4.0
 49
5.0
 49
-6.0
  0
LTYPE
  2
RAND4
 70
    64
  3
ランダム線4
 72
    65
 73
     4
 40
22.0
 49
4.0
 49
-5.0
 49
6.0
 49
-7.0
  0
LTYPE
  2
RAND5
 70
    64
  3
ランダム線5
 72
    65
 73
     4
 40
26.0
 49
5.0
 49
-6.0
 49
7.0
 49
-8.0
  0
LTYPE
  2
LONG1
 70
    64
  3
----------  --  ----------  --  
 72
    65
 73
     4
 40
40.0
 49
32.5
 49
-2.5
 49
2.5
 49
-2.5
  0
LTYPE
  2
LONG2
 70
    64
  3
--------  -  -  --------  -  -  
 72
    65
 73
     6
 40
40.0
 49
30.0
 49
-2.5
 49
1.25
 49
-2.5
 49
1.25
 49
-2.5
  0
LTYPE
  2
LONG3
 70
    64
  3
+++++++++++++++..+++++++++++++++
 72
    65
 73
     2
 40
40.0
 49
37.5
 49
-2.5
  0
LTYPE
  2
LONG4
 70
    64
  3
+++++++++++++++..+++++++++++++++
 72
    65
 73
     2
 40
80.0
 49
75.0
 49
-5.0
  0
LTYPE
  2
LONG5
 70
    64
  3
----------  --  ----------  --  
 72
    65
 73
     4
 40
60.0
 49
37.5
 49
-7.5
 49
7.5
 49
-7.5
  0
LTYPE
  2
dashed
 70
   64
  3
-------   -------------   ------
 72
   65
 73
    2
 40
7.5
 49
6
 49
-1.5
  0
LTYPE
  2
dashed_spaced
 70
   64
  3
----        --------        ----
 72
   65
 73
    2
 40
12
 49
6
 49
-6
  0
LTYPE
  2
long_dashed_dotted
 70
   64
  3
------------- --- --------------
 72
   65
 73
    4
 40
15.25
 49
12
 49
-1.5
 49
0.25
 49
-1.5
  0
LTYPE
  2
long_dashed_double-dotted
 70
   64
  3
----------- --- --- ------------
 72
   65
 73
    6
 40
17
 49
12
 49
-1.5
 49
0.25
 49
-1.5
 49
0.25
 49
-1.5
  0
LTYPE
  2
long_dashed_triplicate-dotted
 70
   64
  3
--------- --- --- --- ----------
 72
   65
 73
    8
 40
18.75
 49
12
 49
-1.5
 49
0.25
 49
-1.5
 49
0.25
 49
-1.5
 49
0.25
 49
-1.5
  0
LTYPE
  2
dotted
 70
   64
  3
   -       -       -       -    
 72
   65
 73
    2
 40
1.75
 49
0.25
 49
-1.5
  0
LTYPE
  2
chain
 70
   64
  3
-------------- -- --------------
 72
   65
 73
    4
 40
18.5
 49
12
 49
-1.5
 49
3.5
 49
-1.5
  0
LTYPE
  2
chain_double_dash
 70
   64
  3
------------ -- -- -------------
 72
   65
 73
    6
 40
23.5
 49
12
 49
-1.5
 49
3.5
 49
-1.5
 49
3.5
 49
-1.5
  0
LTYPE
  2
dashed_dotted
 70
   64
  3
-----------     -     ----------
 72
   65
 73
    4
 40
9.25
 49
6
 49
-1.5
 49
0.25
 49
-1.5
  0
LTYPE
  2
double-dashed_dotted
 70
   64
  3
------   -----------   -   -----
 72
   65
 73
    6
 40
16.75
 49
6
 49
-1.5
 49
6
 49
-1.5
 49
0.25
 49
-1.5
  0
LTYPE
  2
dashed_double-dotted
 70
   64
  3
---------    -    -    ---------
 72
   65
 73
    6
 40
11
 49
6
 49
-1.5
 49
0.25
 49
-1.5
 49
0.25
 49
-1.5
  0
LTYPE
  2
double-dashed_double-dotted
 70
   64
  3
-----   ---------   -   -   ----
 72
   65
 73
    8
 40
18.5
 49
6
 49
-1.5
 49
6
 49
-1.5
 49
0.25
 49
-1.5
 49
0.25
 49
-1.5
  0
LTYPE
  2
dashed_triplicate-dotted
 70
   64
  3
-------    -    -    -    ------
 72
   65
 73
    8
 40
12.75
 49
6
 49
-1.5
 49
0.25
 49
-1.5
 49
0.25
 49
-1.5
 49
0.25
 49
-1.5
  0
LTYPE
  2
double-dashed_triplicate-dotted
 70
   64
  3
-----  ---------  -  -  -  -----
 72
   65
 73
   10
 40
20.25
 49
6
 49
-1.5
 49
6
 49
-1.5
 49
0.25
 49
-1.5
 49
0.25
 49
-1.5
 49
0.25
 49
-1.5
  0
LTYPE
  2
undefined
 70
   64
  3
--------------------------------
 72
   65
 73
    0
 40
0
  0
ENDTAB
  0
TABLE
  2
STYLE
  5
3
100
AcDbSymbolTable
 70
     1
  0
STYLE
  5
10
100
AcDbSymbolTableRecord
100
AcDbTextStyleTableRecord
  2
STANDARD
 70
     0
 40
0.0
 41
1.0
 50
0.0
 71
     0
 42
0.2
  3
txt
  4
bigfont.shx
  0
STYLE
  5
26
100
AcDbSymbolTableRecord
100
AcDbTextStyleTableRecord
  2
TATEGAKI
 70
    68
 40
0.0
 41
1.0
 50
0.0
 71
     0
 42
1.0
  3
txt
  4
bigfont.shx
  0
ENDTAB
  0
TABLE
  2
LAYER
 70
   14
  0
LAYER
  2
_0-0_計極細
 70
   64
 62
    7
  6
CONTINUOUS
  0
LAYER
  2
_0-1_計細線
 70
   64
 62
    7
  6
CONTINUOUS
  0
LAYER
  2
_0-5_寸法線
 70
   64
 62
    7
  6
CONTINUOUS
  0
LAYER
  2
_0-7_枠細線
 70
   64
 62
    7
  6
CONTINUOUS
  0
LAYER
  2
_0-8_枠中線
 70
   64
 62
    7
  6
CONTINUOUS
  0
LAYER
  2
_0-a_極細1
 70
   64
 62
    7
  6
CONTINUOUS
  0
LAYER
  2
_0-b_細線1
 70
   64
 62
    7
  6
CONTINUOUS
  0
LAYER
  2
_0-d_寸法1
 70
   64
 62
    7
  6
CONTINUOUS
  0
LAYER
  2
_0-e_極細4
 70
   64
 62
    7
  6
CONTINUOUS
  0
LAYER
  2
_1-1_寸法4
 70
   64
 62
    7
  6
CONTINUOUS
  0
LAYER
  2
_1-2_極細3
 70
   64
 62
    7
  6
CONTINUOUS
  0
LAYER
  2
_1-3_細線3
 70
   64
 62
    7
  6
CONTINUOUS
  0
LAYER
  2
_1-5_寸法3
 70
   64
 62
    7
  6
CONTINUOUS
  0
LAYER
  2
ADD_LINE
 70
   64
 62
    7
  6
CONTINUOUS
  0
ENDTAB
  0
ENDSEC
  0
SECTION
  2
BLOCKS
  0
ENDSEC
  0
SECTION
  2
ENTITIES
  0
LINE
  8
_0-8_枠中線
  6
CONTINUOUS
 62
    5
 10
96
 20
96
 11
96
 21
1536
  0
LINE
  8
_0-8_枠中線
  6
CONTINUOUS
 62
    5
 10
96
 20
1536
 11
2280
 21
1536
  0
LINE
  8
_0-8_枠中線
  6
CONTINUOUS
 62
    5
 10
2280
 20
1536
 11
2280
 21
96
  0
LINE
  8
_0-8_枠中線
  6
CONTINUOUS
 62
    5
 10
2280
 20
96
 11
96
 21
96
  0
LINE
  8
_0-7_枠細線
  6
CONTINUOUS
 62
    5
 10
1896
 20
288
 11
1896
 21
160
  0
TEXT
  8
_0-7_枠細線
 62
    5
 10
1500
 20
156
 40
28
 41
1
 50
0
  1
備考
  7
TATEGAKI
  0
TEXT
  8
_0-7_枠細線
 62
    5
 10
1500
 20
220
 40
28
 41
1
 50
0
  1
品番
  7
TATEGAKI
  0
TEXT
  8
_0-7_枠細線
 62
    5
 10
1500
 20
284
 40
28
 41
1
 50
0
  1
品名
  7
TATEGAKI
  0
LINE
  8
_0-7_枠細線
  6
CONTINUOUS
 62
    5
 10
1896
 20
224
 11
1480
 21
224
  0
LINE
  8
_0-7_枠細線
  6
CONTINUOUS
 62
    5
 10
1520
 20
288
 11
1520
 21
96
  0
LINE
  8
_0-8_枠中線
  6
CONTINUOUS
 62
    5
 10
2280
 20
288
 11
1480
 21
288
  0
LINE
  8
_0-8_枠中線
  6
CONTINUOUS
 62
    5
 10
1480
 20
288
 11
1480
 21
96
  0
LINE
  8
_0-7_枠細線
  6
CONTINUOUS
 62
    5
 10
1992
 20
288
 11
1992
 21
96
  0
TEXT
  8
_0-7_枠細線
 62
    5
 10
1908
 20
256
 40
24
 41
1
 50
0
  1
縮　尺
  0
LINE
  8
_0-7_枠細線
  6
CONTINUOUS
 62
    5
 10
1896
 20
248
 11
1992
 21
248
  0
LINE
  8
_0-7_枠細線
  6
CONTINUOUS
 62
    5
 10
1992
 20
160
 11
1480
 21
160
  0
LINE
  8
_0-7_枠細線
  6
CONTINUOUS
 62
    5
 10
2280
 20
144
 11
1992
 21
144
  0
LINE
  8
_0-7_枠細線
  6
CONTINUOUS
 62
    5
 10
1992
 20
192
 11
2280
 21
192
  0
LINE
  8
_0-7_枠細線
  6
CONTINUOUS
 62
    5
 10
2280
 20
224
 11
1992
 21
224
  0
TEXT
  8
_0-7_枠細線
 62
    5
 10
2008
 20
236
 40
40
 41
0.8
 50
0
  1
株式会社シマブン
  0
TEXT
  8
_0-7_枠細線
 62
    5
 10
2004
 20
96
 40
24
 41
1
 50
0
  1
年月日
  0
TEXT
  8
_0-7_枠細線
 62
    5
 10
2004
 20
120
 40
24
 41
1
 50
0
  1
作　成
  0
TEXT
  8
_0-7_枠細線
 62
    5
 10
2010
 20
196
 40
24
 41
1
 50
0
  1
承 認
  0
LINE
  8
_0-7_枠細線
  6
CONTINUOUS
 62
    5
 10
2088
 20
224
 11
2088
 21
96
  0
TEXT
  8
_0-7_枠細線
 62
    5
 10
2106
 20
196
 40
24
 41
1
 50
0
  1
検 図
  0
LINE
  8
_0-7_枠細線
  6
CONTINUOUS
 62
    5
 10
2184
 20
224
 11
2184
 21
144
  0
TEXT
  8
_0-7_枠細線
 62
    5
 10
2202
 20
196
 40
24
 41
1
 50
0
  1
設 計
  0
TEXT
  8
_0-7_枠細線
 62
    5
 10
1910.4000000000001
 20
188
 40
32
 41
0.6999999999999998
 50
0
  1
１：８
  0
LINE
  8
_0-7_枠細線
  6
CONTINUOUS
 62
    5
 10
2280
 20
1508
 11
1424
 21
1508
  0
TEXT
  8
_0-7_枠細線
 62
    5
 10
1432
 20
1511.9999999999993
 40
20
 41
1
 50
0
  1
記号
  0
TEXT
  8
_0-7_枠細線
 62
    5
 10
1595
 20
1512
 40
20
 41
1
 50
0
  1
訂　 正　 記　 事
  0
TEXT
  8
_0-7_枠細線
 62
    5
 10
1890
 20
1512
 40
20
 41
1
 50
0
  1
訂 正 年 月 日
  0
TEXT
  8
_0-7_枠細線
 62
    5
 10
2090
 20
1512
 40
20
 41
1
 50
0
  1
備　　　　　考
  0
LINE
  8
_0-7_枠細線
  6
CONTINUOUS
 62
    5
 10
1424
 20
1508
 11
1424
 21
1535.9999999999991
  0
LINE
  8
_0-7_枠細線
  6
CONTINUOUS
 62
    5
 10
1480
 20
1508
 11
1480
 21
1535.9999999999991
  0
LINE
  8
_0-7_枠細線
  6
CONTINUOUS
 62
    5
 10
1880
 20
1508
 11
1880
 21
1536
  0
LINE
  8
_0-7_枠細線
  6
CONTINUOUS
 62
    5
 10
2040
 20
1508
 11
2040
 21
1535.9999999999991
  0
TEXT
  8
_0-7_枠細線
 62
    5
 10
2008
 20
152
 40
32
 41
1
 50
0
  1
大野
  0
TEXT
  8
_0-7_枠細線
 62
    5
 10
2104
 20
152
 40
32
 41
1
 50
0
  1
深川
  0
TEXT
  8
_0-7_枠細線
 62
    5
 10
2200
 20
152
 40
32
 41
1
 50
0
  1
久野
  0
TEXT
  8
_0-7_枠細線
 62
    5
 10
1079.06662595134
 20
114.84526555100319
 40
40
 41
0.8
 50
0
  1
断面詳細図
  0
TEXT
  8
_0-7_枠細線
 62
    5
 10
1262.9849775500097
 20
114.84526555100319
 40
32
 41
0.6
 50
0
  1
Ｓ＝１：３
  0
LINE
  8
_1-2_極細3
  6
CONTINUOUS
 62
    2
 10
990.68444079055325
 20
188.84247738216743
 11
990.68444079055325
 21
244.30914404883379
  0
LINE
  8
_1-2_極細3
  6
CONTINUOUS
 62
    2
 10
992.55110745721868
 20
190.70914404883456
 11
992.55110745721868
 21
246.17581071550092
  0
LINE
  8
_1-2_極細3
  6
CONTINUOUS
 62
    2
 10
967.21777412388565
 20
224.84247738216766
 11
967.21777412388565
 21
246.17581071550092
  0
LINE
  8
_1-2_極細3
  6
CONTINUOUS
 62
    2
 10
969.08444079055243
 20
224.84247738216732
 11
969.08444079055107
 21
244.30914404883424
  0
LINE
  8
_1-2_極細3
  6
CONTINUOUS
 62
    2
 10
967.21777412388565
 20
224.84247738216766
 11
969.08444079055243
 21
224.84247738216766
  0
LINE
  8
_1-2_極細3
  6
CONTINUOUS
 62
    2
 10
969.08444079055243
 20
244.30914404883379
 11
990.68444079055325
 21
244.30914404883379
  0
LINE
  8
_1-2_極細3
  6
CONTINUOUS
 62
    2
 10
967.21777412388565
 20
246.17581071550092
 11
992.55110745721868
 21
246.17581071550092
  0
LINE
  8
_1-2_極細3
  6
CONTINUOUS
 62
    2
 10
1325.8844407905526
 20
190.70914404883456
 11
1325.8844407905526
 21
246.17581071550092
  0
LINE
  8
_1-2_極細3
  6
CONTINUOUS
 62
    2
 10
1327.7511074572176
 20
188.84247738216743
 11
1327.7511074572176
 21
244.30914404883379
  0
LINE
  8
_1-2_極細3
  6
CONTINUOUS
 62
    2
 10
992.55110745721868
 20
190.70914404883456
 11
1325.8844407905526
 21
190.70914404883456
  0
LINE
  8
_1-2_極細3
  6
CONTINUOUS
 62
    2
 10
1327.7511074572176
 20
188.84247738216743
 11
990.68444079055325
 21
188.84247738216743
  0
LINE
  8
_1-2_極細3
  6
CONTINUOUS
 62
    2
 10
1349.3511074572184
 20
224.84247738216732
 11
1349.3511074572184
 21
244.30914404883379
  0
LINE
  8
_1-2_極細3
  6
CONTINUOUS
 62
    2
 10
1351.2177741238852
 20
224.84247738216732
 11
1351.2177741238856
 21
246.17581071550092
  0
LINE
  8
_1-2_極細3
  6
CONTINUOUS
 62
    2
 10
1349.3511074572184
 20
224.84247738216732
 11
1351.2177741238852
 21
224.84247738216732
  0
LINE
  8
_1-2_極細3
  6
CONTINUOUS
 62
    2
 10
1325.8844407905526
 20
246.17581071550092
 11
1351.2177741238856
 21
246.17581071550092
  0
LINE
  8
_1-2_極細3
  6
CONTINUOUS
 62
    2
 10
1327.7511074572176
 20
244.30914404883379
 11
1349.3511074572184
 21
244.30914404883379
  0
ARC
  8
_1-3_細線3
  6
CONTINUOUS
 62
    4
 10
1017.0844407905533
 20
264.3304831286448
 40
52.555815658248846
 50
259.17925751977776
 51
280.82074248022252
  0
ARC
  8
_1-3_細線3
  6
CONTINUOUS
 62
    4
 10
1017.0844407905533
 20
181.0878049690225
 40
52.55581565825014
 50
79.179257519777337
 51
100.82074248022219
  0
ARC
  8
_1-3_細線3
  6
CONTINUOUS
 62
    4
 10
1047.2177741238879
 20
77.329185184253902
 40
156.3144354430184
 50
83.731857045477739
 51
96.268142954523427
  0
ARC
  8
_1-3_細線3
  6
CONTINUOUS
 62
    4
 10
1047.2177741238879
 20
368.0891029134134
 40
156.3144354430184
 50
263.73185704547626
 51
276.26814295452186
  0
ARC
  8
_1-3_細線3
  6
CONTINUOUS
 62
    4
 10
1084.55110745722
 20
77.329185184253902
 40
156.3144354430184
 50
83.731857045477398
 51
96.268142954522602
  0
ARC
  8
_1-3_細線3
  6
CONTINUOUS
 62
    4
 10
1084.55110745722
 20
368.0891029134134
 40
156.3144354430184
 50
263.73185704547706
 51
276.2681429545222
  0
ARC
  8
_1-3_細線3
  6
CONTINUOUS
 62
    4
 10
1121.8844407905526
 20
77.329185184253902
 40
156.3144354430184
 50
83.731857045476744
 51
96.268142954522276
  0
ARC
  8
_1-3_細線3
  6
CONTINUOUS
 62
    4
 10
1121.8844407905526
 20
368.0891029134134
 40
156.3144354430184
 50
263.73185704547745
 51
276.26814295452289
  0
ARC
  8
_1-3_細線3
  6
CONTINUOUS
 62
    4
 10
1159.2177741238879
 20
77.329185184253902
 40
156.3144354430184
 50
83.731857045477739
 51
96.268142954523427
  0
ARC
  8
_1-3_細線3
  6
CONTINUOUS
 62
    4
 10
1159.2177741238879
 20
368.0891029134134
 40
156.3144354430184
 50
263.73185704547626
 51
276.26814295452186
  0
ARC
  8
_1-3_細線3
  6
CONTINUOUS
 62
    4
 10
1196.5511074572214
 20
77.329185184253902
 40
156.3144354430184
 50
83.731857045477909
 51
96.2681429545231
  0
ARC
  8
_1-3_細線3
  6
CONTINUOUS
 62
    4
 10
1196.5511074572214
 20
368.0891029134134
 40
156.3144354430184
 50
263.73185704547654
 51
276.26814295452169
  0
ARC
  8
_1-3_細線3
  6
CONTINUOUS
 62
    4
 10
1233.8844407905526
 20
77.329185184253902
 40
156.3144354430184
 50
83.731857045476744
 51
96.268142954522105
  0
ARC
  8
_1-3_細線3
  6
CONTINUOUS
 62
    4
 10
1233.8844407905526
 20
368.0891029134134
 40
156.3144354430184
 50
263.73185704547757
 51
276.26814295452289
  0
ARC
  8
_1-3_細線3
  6
CONTINUOUS
 62
    4
 10
1271.2177741238879
 20
77.329185184253902
 40
156.3144354430184
 50
83.731857045477909
 51
96.268142954523427
  0
ARC
  8
_1-3_細線3
  6
CONTINUOUS
 62
    4
 10
1271.2177741238879
 20
368.0891029134134
 40
156.3144354430184
 50
263.73185704547626
 51
276.26814295452169
  0
ARC
  8
_1-3_細線3
  6
CONTINUOUS
 62
    4
 10
1301.3511074572179
 20
264.3304831286448
 40
52.555815658248846
 50
259.17925751977731
 51
280.82074248022201
  0
ARC
  8
_1-3_細線3
  6
CONTINUOUS
 62
    4
 10
1301.3511074572179
 20
181.0878049690225
 40
52.55581565825014
 50
79.179257519777821
 51
100.82074248022219
  0
LINE
  8
_1-3_細線3
  6
CONTINUOUS
 62
    4
 10
1321.8844407905526
 20
244.04247738216668
 11
1321.8844407905526
 21
190.70914404883456
  0
LINE
  8
_1-3_細線3
  6
CONTINUOUS
 62
    4
 10
1321.8844407905526
 20
190.70914404883456
 11
1311.2177741238856
 21
190.70914404883456
  0
LINE
  8
_1-3_細線3
  6
CONTINUOUS
 62
    4
 10
1311.2177741238856
 20
190.70914404883456
 11
1311.2177741238856
 21
244.04247738216668
  0
LINE
  8
_1-3_細線3
  6
CONTINUOUS
 62
    4
 10
1311.2177741238856
 20
244.04247738216668
 11
1321.8844407905526
 21
244.04247738216668
  0
LINE
  8
_1-3_細線3
  6
CONTINUOUS
 62
    4
 10
996.55110745721868
 20
244.04247738216668
 11
996.55110745721868
 21
190.70914404883456
  0
LINE
  8
_1-3_細線3
  6
CONTINUOUS
 62
    4
 10
996.55110745721868
 20
190.70914404883456
 11
1007.2177741238856
 21
190.70914404883456
  0
LINE
  8
_1-3_細線3
  6
CONTINUOUS
 62
    4
 10
1007.2177741238856
 20
190.70914404883456
 11
1007.2177741238856
 21
244.04247738216668
  0
LINE
  8
_1-3_細線3
  6
CONTINUOUS
 62
    4
 10
1007.2177741238856
 20
244.04247738216668
 11
996.55110745721868
 21
244.04247738216668
  0
LINE
  8
_1-3_細線3
  6
CONTINUOUS
 62
    4
 10
1300.5511074572187
 20
244.04247738216668
 11
1279.2177741238856
 21
244.04247738216668
  0
LINE
  8
_1-3_細線3
  6
CONTINUOUS
 62
    4
 10
1279.2177741238856
 20
244.04247738216668
 11
1279.2177741238856
 21
240.84247738216686
  0
LINE
  8
_1-3_細線3
  6
CONTINUOUS
 62
    4
 10
1279.2177741238856
 20
240.84247738216686
 11
1288.2844407905536
 21
240.84247738216686
  0
LINE
  8
_1-3_細線3
  6
CONTINUOUS
 62
    4
 10
1288.2844407905536
 20
240.84247738216686
 11
1288.2844407905536
 21
204.04247738216668
  0
LINE
  8
_1-3_細線3
  6
CONTINUOUS
 62
    4
 10
1288.2844407905536
 20
204.04247738216668
 11
1291.484440790553
 21
204.04247738216668
  0
LINE
  8
_1-3_細線3
  6
CONTINUOUS
 62
    4
 10
1291.484440790553
 20
204.04247738216668
 11
1291.484440790553
 21
240.84247738216686
  0
LINE
  8
_1-3_細線3
  6
CONTINUOUS
 62
    4
 10
1291.484440790553
 20
240.84247738216686
 11
1300.5511074572187
 21
240.84247738216686
  0
LINE
  8
_1-3_細線3
  6
CONTINUOUS
 62
    4
 10
1300.5511074572187
 20
240.84247738216686
 11
1300.5511074572187
 21
244.04247738216668
  0
LINE
  8
_1-3_細線3
  6
CONTINUOUS
 62
    4
 10
1263.2177741238879
 20
244.04247738216668
 11
1241.8844407905526
 21
244.04247738216668
  0
LINE
  8
_1-3_細線3
  6
CONTINUOUS
 62
    4
 10
1241.8844407905526
 20
244.04247738216668
 11
1241.8844407905526
 21
240.84247738216686
  0
LINE
  8
_1-3_細線3
  6
CONTINUOUS
 62
    4
 10
1241.8844407905526
 20
240.84247738216686
 11
1250.9511074572201
 21
240.84247738216686
  0
LINE
  8
_1-3_細線3
  6
CONTINUOUS
 62
    4
 10
1250.9511074572201
 20
240.84247738216686
 11
1250.9511074572201
 21
204.04247738216668
  0
LINE
  8
_1-3_細線3
  6
CONTINUOUS
 62
    4
 10
1250.9511074572201
 20
204.04247738216668
 11
1254.1511074572186
 21
204.04247738216668
  0
LINE
  8
_1-3_細線3
  6
CONTINUOUS
 62
    4
 10
1254.1511074572186
 20
204.04247738216668
 11
1254.1511074572186
 21
240.84247738216686
  0
LINE
  8
_1-3_細線3
  6
CONTINUOUS
 62
    4
 10
1254.1511074572186
 20
240.84247738216686
 11
1263.2177741238879
 21
240.84247738216686
  0
LINE
  8
_1-3_細線3
  6
CONTINUOUS
 62
    4
 10
1263.2177741238879
 20
240.84247738216686
 11
1263.2177741238879
 21
244.04247738216668
  0
LINE
  8
_1-3_細線3
  6
CONTINUOUS
 62
    4
 10
1225.8844407905544
 20
244.04247738216668
 11
1204.5511074572214
 21
244.04247738216668
  0
LINE
  8
_1-3_細線3
  6
CONTINUOUS
 62
    4
 10
1204.5511074572214
 20
244.04247738216668
 11
1204.5511074572214
 21
240.84247738216686
  0
LINE
  8
_1-3_細線3
  6
CONTINUOUS
 62
    4
 10
1204.5511074572214
 20
240.84247738216686
 11
1213.6177741238871
 21
240.84247738216686
  0
LINE
  8
_1-3_細線3
  6
CONTINUOUS
 62
    4
 10
1213.6177741238871
 20
240.84247738216686
 11
1213.6177741238871
 21
204.04247738216668
  0
LINE
  8
_1-3_細線3
  6
CONTINUOUS
 62
    4
 10
1213.6177741238871
 20
204.04247738216668
 11
1216.8177741238869
 21
204.04247738216668
  0
LINE
  8
_1-3_細線3
  6
CONTINUOUS
 62
    4
 10
1216.8177741238869
 20
204.04247738216668
 11
1216.8177741238869
 21
240.84247738216686
  0
LINE
  8
_1-3_細線3
  6
CONTINUOUS
 62
    4
 10
1216.8177741238869
 20
240.84247738216686
 11
1225.8844407905544
 21
240.84247738216686
  0
LINE
  8
_1-3_細線3
  6
CONTINUOUS
 62
    4
 10
1225.8844407905544
 20
240.84247738216686
 11
1225.8844407905544
 21
244.04247738216668
  0
LINE
  8
_1-3_細線3
  6
CONTINUOUS
 62
    4
 10
1188.5511074572214
 20
244.04247738216668
 11
1167.2177741238879
 21
244.04247738216668
  0
LINE
  8
_1-3_細線3
  6
CONTINUOUS
 62
    4
 10
1167.2177741238879
 20
244.04247738216668
 11
1167.2177741238879
 21
240.84247738216686
  0
LINE
  8
_1-3_細線3
  6
CONTINUOUS
 62
    4
 10
1167.2177741238879
 20
240.84247738216686
 11
1176.2844407905541
 21
240.84247738216686
  0
LINE
  8
_1-3_細線3
  6
CONTINUOUS
 62
    4
 10
1176.2844407905541
 20
240.84247738216686
 11
1176.2844407905541
 21
204.04247738216668
  0
LINE
  8
_1-3_細線3
  6
CONTINUOUS
 62
    4
 10
1176.2844407905541
 20
204.04247738216668
 11
1179.4844407905543
 21
204.04247738216668
  0
LINE
  8
_1-3_細線3
  6
CONTINUOUS
 62
    4
 10
1179.4844407905543
 20
204.04247738216668
 11
1179.4844407905543
 21
240.84247738216686
  0
LINE
  8
_1-3_細線3
  6
CONTINUOUS
 62
    4
 10
1179.4844407905543
 20
240.84247738216686
 11
1188.5511074572214
 21
240.84247738216686
  0
LINE
  8
_1-3_細線3
  6
CONTINUOUS
 62
    4
 10
1188.5511074572214
 20
240.84247738216686
 11
1188.5511074572214
 21
244.04247738216668
  0
LINE
  8
_1-3_細線3
  6
CONTINUOUS
 62
    4
 10
1151.2177741238879
 20
244.04247738216668
 11
1129.8844407905526
 21
244.04247738216668
  0
LINE
  8
_1-3_細線3
  6
CONTINUOUS
 62
    4
 10
1129.8844407905526
 20
244.04247738216668
 11
1129.8844407905526
 21
240.84247738216686
  0
LINE
  8
_1-3_細線3
  6
CONTINUOUS
 62
    4
 10
1129.8844407905526
 20
240.84247738216686
 11
1138.9511074572215
 21
240.84247738216686
  0
LINE
  8
_1-3_細線3
  6
CONTINUOUS
 62
    4
 10
1138.9511074572215
 20
240.84247738216686
 11
1138.9511074572215
 21
204.04247738216668
  0
LINE
  8
_1-3_細線3
  6
CONTINUOUS
 62
    4
 10
1138.9511074572215
 20
204.04247738216668
 11
1142.1511074572222
 21
204.04247738216668
  0
LINE
  8
_1-3_細線3
  6
CONTINUOUS
 62
    4
 10
1142.1511074572222
 20
204.04247738216668
 11
1142.1511074572222
 21
240.84247738216686
  0
LINE
  8
_1-3_細線3
  6
CONTINUOUS
 62
    4
 10
1142.1511074572222
 20
240.84247738216686
 11
1151.2177741238879
 21
240.84247738216686
  0
LINE
  8
_1-3_細線3
  6
CONTINUOUS
 62
    4
 10
1151.2177741238879
 20
240.84247738216686
 11
1151.2177741238879
 21
244.04247738216668
  0
LINE
  8
_1-3_細線3
  6
CONTINUOUS
 62
    4
 10
1113.8844407905526
 20
244.04247738216668
 11
1092.55110745722
 21
244.04247738216668
  0
LINE
  8
_1-3_細線3
  6
CONTINUOUS
 62
    4
 10
1092.55110745722
 20
244.04247738216668
 11
1092.55110745722
 21
240.84247738216686
  0
LINE
  8
_1-3_細線3
  6
CONTINUOUS
 62
    4
 10
1092.55110745722
 20
240.84247738216686
 11
1101.6177741238871
 21
240.84247738216686
  0
LINE
  8
_1-3_細線3
  6
CONTINUOUS
 62
    4
 10
1101.6177741238871
 20
240.84247738216686
 11
1101.6177741238871
 21
204.04247738216668
  0
LINE
  8
_1-3_細線3
  6
CONTINUOUS
 62
    4
 10
1101.6177741238871
 20
204.04247738216668
 11
1104.8177741238869
 21
204.04247738216668
  0
LINE
  8
_1-3_細線3
  6
CONTINUOUS
 62
    4
 10
1104.8177741238869
 20
204.04247738216668
 11
1104.8177741238869
 21
240.84247738216686
  0
LINE
  8
_1-3_細線3
  6
CONTINUOUS
 62
    4
 10
1104.8177741238869
 20
240.84247738216686
 11
1113.8844407905526
 21
240.84247738216686
  0
LINE
  8
_1-3_細線3
  6
CONTINUOUS
 62
    4
 10
1113.8844407905526
 20
240.84247738216686
 11
1113.8844407905526
 21
244.04247738216668
  0
LINE
  8
_1-3_細線3
  6
CONTINUOUS
 62
    4
 10
1076.55110745722
 20
244.04247738216668
 11
1055.2177741238879
 21
244.04247738216668
  0
LINE
  8
_1-3_細線3
  6
CONTINUOUS
 62
    4
 10
1055.2177741238879
 20
244.04247738216668
 11
1055.2177741238879
 21
240.84247738216686
  0
LINE
  8
_1-3_細線3
  6
CONTINUOUS
 62
    4
 10
1055.2177741238879
 20
240.84247738216686
 11
1064.2844407905536
 21
240.84247738216686
  0
LINE
  8
_1-3_細線3
  6
CONTINUOUS
 62
    4
 10
1064.2844407905536
 20
240.84247738216686
 11
1064.2844407905536
 21
204.04247738216668
  0
LINE
  8
_1-3_細線3
  6
CONTINUOUS
 62
    4
 10
1064.2844407905536
 20
204.04247738216668
 11
1067.484440790553
 21
204.04247738216668
  0
LINE
  8
_1-3_細線3
  6
CONTINUOUS
 62
    4
 10
1067.484440790553
 20
204.04247738216668
 11
1067.484440790553
 21
240.84247738216686
  0
LINE
  8
_1-3_細線3
  6
CONTINUOUS
 62
    4
 10
1067.484440790553
 20
240.84247738216686
 11
1076.55110745722
 21
240.84247738216686
  0
LINE
  8
_1-3_細線3
  6
CONTINUOUS
 62
    4
 10
1076.55110745722
 20
240.84247738216686
 11
1076.55110745722
 21
244.04247738216668
  0
LINE
  8
_1-3_細線3
  6
CONTINUOUS
 62
    4
 10
1039.2177741238879
 20
244.04247738216668
 11
1017.8844407905526
 21
244.04247738216668
  0
LINE
  8
_1-3_細線3
  6
CONTINUOUS
 62
    4
 10
1017.8844407905526
 20
244.04247738216668
 11
1017.8844407905526
 21
240.84247738216686
  0
LINE
  8
_1-3_細線3
  6
CONTINUOUS
 62
    4
 10
1017.8844407905526
 20
240.84247738216686
 11
1026.9511074572215
 21
240.84247738216686
  0
LINE
  8
_1-3_細線3
  6
CONTINUOUS
 62
    4
 10
1026.9511074572215
 20
240.84247738216686
 11
1026.9511074572215
 21
204.04247738216668
  0
LINE
  8
_1-3_細線3
  6
CONTINUOUS
 62
    4
 10
1026.9511074572215
 20
204.04247738216668
 11
1030.1511074572222
 21
204.04247738216668
  0
LINE
  8
_1-3_細線3
  6
CONTINUOUS
 62
    4
 10
1030.1511074572222
 20
204.04247738216668
 11
1030.1511074572222
 21
240.84247738216686
  0
LINE
  8
_1-3_細線3
  6
CONTINUOUS
 62
    4
 10
1030.1511074572222
 20
240.84247738216686
 11
1039.2177741238879
 21
240.84247738216686
  0
LINE
  8
_1-3_細線3
  6
CONTINUOUS
 62
    4
 10
1039.2177741238879
 20
240.84247738216686
 11
1039.2177741238879
 21
244.04247738216668
  0
LINE
  8
_1-2_極細3
  6
CENTER1
 62
    2
 10
1159.2177741238856
 20
178.14515020544764
 11
1159.2177741238856
 21
266.33181687212414
  0
LINE
  8
_1-2_極細3
  6
CENTER1
 62
    2
 10
1330.2405731978047
 20
222.70914404883456
 11
986.95735598717511
 21
222.70914404883456
  0
LINE
  8
_1-5_寸法3
  6
CONTINUOUS
 62
    7
 10
967.21777412388565
 20
262.17581071550092
 11
967.21777412388565
 21
446.17581071550092
  0
LINE
  8
_1-5_寸法3
  6
CONTINUOUS
 62
    7
 10
967.21777412388565
 20
438.17581071550092
 11
982.6725873445107
 21
442.31691543714123
  0
LINE
  8
_1-5_寸法3
  6
CONTINUOUS
 62
    7
 10
967.21777412388565
 20
438.17581071550092
 11
982.6725873445107
 21
434.0347059938606
  0
LINE
  8
_1-5_寸法3
  6
CONTINUOUS
 62
    7
 10
1351.2177741238856
 20
262.17581071550092
 11
1351.2177741238863
 21
446.17581071550092
  0
LINE
  8
_1-5_寸法3
  6
CONTINUOUS
 62
    7
 10
1351.2177741238863
 20
438.17581071550092
 11
1335.7629609032613
 21
434.03470599386065
  0
LINE
  8
_1-5_寸法3
  6
CONTINUOUS
 62
    7
 10
1351.2177741238863
 20
438.17581071550092
 11
1335.7629609032613
 21
442.31691543714129
  0
LINE
  8
_1-5_寸法3
  6
CONTINUOUS
 62
    7
 10
967.21777412388565
 20
438.17581071550092
 11
1351.2177741238863
 21
438.17581071550092
  0
TEXT
  8
_1-5_寸法3
 62
    7
 10
1141.2177741238861
 20
438.17581071550092
 40
24
 41
1
 50
0
  1
144
  0
LINE
  8
_1-5_寸法3
  6
CONTINUOUS
 62
    7
 10
996.55110745721879
 20
262.17581071550092
 11
996.55110745721936
 21
390.17581071550092
  0
LINE
  8
_1-5_寸法3
  6
CONTINUOUS
 62
    7
 10
996.55110745721936
 20
382.17581071550092
 11
1012.0059206778444
 21
386.31691543714123
  0
LINE
  8
_1-5_寸法3
  6
CONTINUOUS
 62
    7
 10
996.55110745721936
 20
382.17581071550092
 11
1012.0059206778444
 21
378.0347059938606
  0
LINE
  8
_1-5_寸法3
  6
CONTINUOUS
 62
    7
 10
1321.8844407905526
 20
262.17581071550092
 11
1321.8844407905526
 21
390.17581071550092
  0
LINE
  8
_1-5_寸法3
  6
CONTINUOUS
 62
    7
 10
1321.8844407905526
 20
382.17581071550092
 11
1306.4296275699276
 21
378.03470599386065
  0
LINE
  8
_1-5_寸法3
  6
CONTINUOUS
 62
    7
 10
1321.8844407905526
 20
382.17581071550092
 11
1306.4296275699276
 21
386.31691543714129
  0
LINE
  8
_1-5_寸法3
  6
CONTINUOUS
 62
    7
 10
996.55110745721936
 20
382.17581071550092
 11
1321.8844407905526
 21
382.17581071550092
  0
TEXT
  8
_1-5_寸法3
 62
    7
 10
1141.2177741238859
 20
382.17581071550092
 40
24
 41
1
 50
0
  1
122
  0
LINE
  8
_1-5_寸法3
  6
CONTINUOUS
 62
    7
 10
1325.8844407905526
 20
262.17581071550092
 11
1325.8844407905528
 21
390.17581071550092
  0
LINE
  8
_1-5_寸法3
  6
CONTINUOUS
 62
    7
 10
1325.8844407905528
 20
382.17581071550092
 11
1341.3392540111779
 21
386.31691543714123
  0
LINE
  8
_1-5_寸法3
  6
CONTINUOUS
 62
    7
 10
1325.8844407905528
 20
382.17581071550092
 11
1341.3392540111779
 21
378.0347059938606
  0
LINE
  8
_1-5_寸法3
  6
CONTINUOUS
 62
    7
 10
1351.2177741238856
 20
262.17581071550092
 11
1351.2177741238859
 21
390.17581071550092
  0
LINE
  8
_1-5_寸法3
  6
CONTINUOUS
 62
    7
 10
1351.2177741238859
 20
382.17581071550092
 11
1335.7629609032608
 21
378.03470599386065
  0
LINE
  8
_1-5_寸法3
  6
CONTINUOUS
 62
    7
 10
1351.2177741238859
 20
382.17581071550092
 11
1335.7629609032608
 21
386.31691543714129
  0
LINE
  8
_1-5_寸法3
  6
CONTINUOUS
 62
    7
 10
1325.8844407905528
 20
382.17581071550092
 11
1351.2177741238859
 21
382.17581071550092
  0
TEXT
  8
_1-5_寸法3
 62
    7
 10
1314.9098928411368
 20
382.17581071550092
 40
24
 41
1
 50
0
  1
9.5
  0
LINE
  8
_1-5_寸法3
  6
CONTINUOUS
 62
    7
 10
967.21777412388565
 20
262.17581071550092
 11
967.21777412388587
 21
390.17581071550092
  0
LINE
  8
_1-5_寸法3
  6
CONTINUOUS
 62
    7
 10
967.21777412388587
 20
382.17581071550092
 11
982.67258734451093
 21
386.31691543714123
  0
LINE
  8
_1-5_寸法3
  6
CONTINUOUS
 62
    7
 10
967.21777412388587
 20
382.17581071550092
 11
982.67258734451093
 21
378.0347059938606
  0
LINE
  8
_1-5_寸法3
  6
CONTINUOUS
 62
    7
 10
992.55110745721868
 20
262.17581071550092
 11
992.5511074572189
 21
390.17581071550092
  0
LINE
  8
_1-5_寸法3
  6
CONTINUOUS
 62
    7
 10
992.5511074572189
 20
382.17581071550092
 11
977.09629423659385
 21
378.03470599386065
  0
LINE
  8
_1-5_寸法3
  6
CONTINUOUS
 62
    7
 10
992.5511074572189
 20
382.17581071550092
 11
977.09629423659385
 21
386.31691543714129
  0
LINE
  8
_1-5_寸法3
  6
CONTINUOUS
 62
    7
 10
967.21777412388587
 20
382.17581071550092
 11
992.5511074572189
 21
382.17581071550092
  0
TEXT
  8
_1-5_寸法3
 62
    7
 10
968.36383082752889
 20
382.1758107155008
 40
24
 41
1
 50
0
  1
9.5
  0
LINE
  8
_1-5_寸法3
  6
CONTINUOUS
 62
    7
 10
1113.8844407905528
 20
260.04247738216668
 11
1113.8844407905533
 21
334.17581071550092
  0
LINE
  8
_1-5_寸法3
  6
CONTINUOUS
 62
    7
 10
1113.8844407905533
 20
326.17581071550092
 11
1098.4296275699282
 21
322.0347059938606
  0
LINE
  8
_1-5_寸法3
  6
CONTINUOUS
 62
    7
 10
1113.8844407905533
 20
326.17581071550092
 11
1098.4296275699282
 21
330.31691543714129
  0
LINE
  8
_1-5_寸法3
  6
CONTINUOUS
 62
    7
 10
1129.8844407905528
 20
260.04247738216668
 11
1129.8844407905533
 21
334.17581071550092
  0
LINE
  8
_1-5_寸法3
  6
CONTINUOUS
 62
    7
 10
1073.8844407905533
 20
326.17581071550092
 11
1129.8844407905533
 21
326.17581071550092
  0
TEXT
  8
_1-5_寸法3
 62
    7
 10
1084.4516783534557
 20
326.17581071550092
 40
24
 41
1
 50
0
  1
6
  0
LINE
  8
_1-5_寸法3
  6
CONTINUOUS
 62
    7
 10
1129.8844407905533
 20
326.17581071550092
 11
1145.3392540111784
 21
330.31691543714112
  0
LINE
  8
_1-5_寸法3
  6
CONTINUOUS
 62
    7
 10
1129.8844407905533
 20
326.17581071550092
 11
1145.3392540111784
 21
322.03470599386048
  0
LINE
  8
_1-5_寸法3
  6
CONTINUOUS
 62
    7
 10
1151.2177741238879
 20
260.04247738216668
 11
1151.2177741238879
 21
334.17581071550092
  0
LINE
  8
_1-5_寸法3
  6
CONTINUOUS
 62
    7
 10
1151.2177741238879
 20
326.17581071550092
 11
1135.7629609032629
 21
322.0347059938606
  0
LINE
  8
_1-5_寸法3
  6
CONTINUOUS
 62
    7
 10
1151.2177741238879
 20
326.17581071550092
 11
1135.7629609032629
 21
330.31691543714129
  0
LINE
  8
_1-5_寸法3
  6
CONTINUOUS
 62
    7
 10
1129.8844407905533
 20
326.17581071550092
 11
1151.2177741238879
 21
326.17581071550092
  0
TEXT
  8
_1-5_寸法3
 62
    7
 10
1134.5511074572207
 20
326.17581071550092
 40
24
 41
1
 50
0
  1
8
  0
LINE
  8
_1-5_寸法3
  6
CONTINUOUS
 62
    7
 10
1367.2177741238856
 20
246.17581071550069
 11
1439.2177741238854
 21
246.17581071550001
  0
LINE
  8
_1-5_寸法3
  6
CONTINUOUS
 62
    7
 10
1431.2177741238854
 20
246.17581071550012
 11
1435.3588788455259
 21
230.72099749487495
  0
LINE
  8
_1-5_寸法3
  6
CONTINUOUS
 62
    7
 10
1431.2177741238854
 20
246.17581071550012
 11
1427.0766694022452
 21
230.72099749487495
  0
LINE
  8
_1-5_寸法3
  6
CONTINUOUS
 62
    7
 10
1367.2177741238856
 20
224.84247738216709
 11
1439.2177741238854
 21
224.84247738216641
  0
LINE
  8
_1-5_寸法3
  6
CONTINUOUS
 62
    7
 10
1431.2177741238854
 20
224.84247738216641
 11
1427.0766694022452
 21
240.29729060279158
  0
LINE
  8
_1-5_寸法3
  6
CONTINUOUS
 62
    7
 10
1431.2177741238854
 20
224.84247738216641
 11
1435.3588788455259
 21
240.29729060279146
  0
LINE
  8
_1-5_寸法3
  6
CONTINUOUS
 62
    7
 10
1431.2177741238854
 20
246.17581071550012
 11
1431.2177741238854
 21
224.84247738216641
  0
TEXT
  8
_1-5_寸法3
 62
    7
 10
1431.2177741238854
 20
229.50914404883326
 40
24
 41
1
 50
90
  1
8
  0
LINE
  8
_1-5_寸法3
  6
CONTINUOUS
 62
    7
 10
951.21777412388565
 20
246.17581071550092
 11
879.21777412388565
 21
246.17581071550126
  0
LINE
  8
_1-5_寸法3
  6
CONTINUOUS
 62
    7
 10
887.21777412388565
 20
246.17581071550114
 11
891.35887884552596
 21
230.72099749487609
  0
LINE
  8
_1-5_寸法3
  6
CONTINUOUS
 62
    7
 10
887.21777412388565
 20
246.17581071550114
 11
883.07666940224533
 21
230.72099749487609
  0
LINE
  8
_1-5_寸法3
  6
CONTINUOUS
 62
    7
 10
974.68444079055325
 20
188.84247738216754
 11
879.21777412388565
 21
188.84247738216777
  0
LINE
  8
_1-5_寸法3
  6
CONTINUOUS
 62
    7
 10
887.21777412388565
 20
188.84247738216777
 11
883.07666940224533
 21
204.29729060279283
  0
LINE
  8
_1-5_寸法3
  6
CONTINUOUS
 62
    7
 10
887.21777412388565
 20
188.84247738216777
 11
891.35887884552596
 21
204.29729060279294
  0
LINE
  8
_1-5_寸法3
  6
CONTINUOUS
 62
    7
 10
887.21777412388565
 20
246.17581071550114
 11
887.21777412388565
 21
188.84247738216777
  0
TEXT
  8
_1-5_寸法3
 62
    7
 10
887.21777412388565
 20
193.50914404883451
 40
24
 41
1
 50
90
  1
21.5
  0
LINE
  8
_0-1_計細線
  6
CONTINUOUS
 62
    3
 10
1405.9792205215026
 20
1086.3642826045293
 11
1405.9792205215026
 21
1211.3642826045293
  0
LINE
  8
_0-1_計細線
  6
CONTINUOUS
 62
    3
 10
819.47922052150307
 20
1076.8642826045293
 11
819.47922052150307
 21
1220.8642826045293
  0
LINE
  8
_0-1_計細線
  6
CONTINUOUS
 62
    3
 10
819.47922052150307
 20
1220.8642826045293
 11
1415.4792205215026
 21
1220.8642826045293
  0
LINE
  8
_0-1_計細線
  6
CONTINUOUS
 62
    3
 10
1415.4792205215026
 20
1220.8642826045293
 11
1415.4792205215026
 21
1076.8642826045293
  0
LINE
  8
_0-1_計細線
  6
CONTINUOUS
 62
    3
 10
1415.4792205215026
 20
1076.8642826045293
 11
819.47922052150307
 21
1076.8642826045293
  0
LINE
  8
_0-1_計細線
  6
CONTINUOUS
 62
    3
 10
1405.9792205215026
 20
1211.3642826045293
 11
828.97922052150307
 21
1211.3642826045293
  0
LINE
  8
_0-1_計細線
  6
CONTINUOUS
 62
    3
 10
828.97922052150307
 20
1086.3642826045293
 11
1405.9792205215026
 21
1086.3642826045293
  0
LINE
  8
_0-1_計細線
  6
CONTINUOUS
 62
    3
 10
828.97922052150307
 20
1211.3642826045293
 11
828.97922052150307
 21
1086.3642826045293
  0
LINE
  8
_0-1_計細線
  6
CONTINUOUS
 62
    3
 10
1116.9792205215031
 20
1209.8642826045293
 11
1113.9792205215031
 21
1209.8642826045293
  0
LINE
  8
_0-1_計細線
  6
CONTINUOUS
 62
    3
 10
1113.9792205215031
 20
1209.8642826045293
 11
1113.9792205215031
 21
1087.8642826045293
  0
LINE
  8
_0-1_計細線
  6
CONTINUOUS
 62
    3
 10
1113.9792205215031
 20
1087.8642826045293
 11
1116.9792205215031
 21
1087.8642826045293
  0
LINE
  8
_0-1_計細線
  6
CONTINUOUS
 62
    3
 10
1116.9792205215031
 20
1087.8642826045293
 11
1116.9792205215031
 21
1209.8642826045293
  0
LINE
  8
_0-1_計細線
  6
CONTINUOUS
 62
    3
 10
1120.9792205215031
 20
1209.8642826045293
 11
1117.9792205215031
 21
1209.8642826045293
  0
LINE
  8
_0-1_計細線
  6
CONTINUOUS
 62
    3
 10
1117.9792205215031
 20
1209.8642826045293
 11
1117.9792205215031
 21
1087.8642826045293
  0
LINE
  8
_0-1_計細線
  6
CONTINUOUS
 62
    3
 10
1117.9792205215031
 20
1087.8642826045293
 11
1120.9792205215031
 21
1087.8642826045293
  0
LINE
  8
_0-1_計細線
  6
CONTINUOUS
 62
    3
 10
1120.9792205215031
 20
1087.8642826045293
 11
1120.9792205215031
 21
1209.8642826045293
  0
LINE
  8
_0-5_寸法線
  6
CONTINUOUS
 62
    7
 10
1415.4792205215026
 20
1236.8642826045293
 11
1415.4792205215035
 21
1476.8642826045293
  0
LINE
  8
_0-5_寸法線
  6
CONTINUOUS
 62
    7
 10
1415.4792205215035
 20
1468.8642826045293
 11
1400.0244073008785
 21
1464.7231778828891
  0
LINE
  8
_0-5_寸法線
  6
CONTINUOUS
 62
    7
 10
1415.4792205215035
 20
1468.8642826045293
 11
1400.0244073008785
 21
1473.0053873261697
  0
LINE
  8
_0-5_寸法線
  6
CONTINUOUS
 62
    7
 10
819.47922052150307
 20
1236.8642826045293
 11
819.47922052150352
 21
1476.8642826045293
  0
LINE
  8
_0-5_寸法線
  6
CONTINUOUS
 62
    7
 10
819.47922052150352
 20
1468.8642826045293
 11
834.93403374212858
 21
1473.0053873261697
  0
LINE
  8
_0-5_寸法線
  6
CONTINUOUS
 62
    7
 10
819.47922052150352
 20
1468.8642826045293
 11
834.93403374212858
 21
1464.7231778828889
  0
LINE
  8
_0-5_寸法線
  6
CONTINUOUS
 62
    7
 10
1415.4792205215035
 20
1468.8642826045293
 11
819.47922052150352
 21
1468.8642826045293
  0
TEXT
  8
_0-5_寸法線
 62
    7
 10
1099.4792205215035
 20
1468.8642826045293
 40
24
 41
1
 50
0
  1
596
  0
LINE
  8
_0-5_寸法線
  6
CONTINUOUS
 62
    7
 10
819.47922052150307
 20
1236.8642826045293
 11
819.47922052150307
 21
1420.8642826045293
  0
LINE
  8
_0-5_寸法線
  6
CONTINUOUS
 62
    7
 10
819.47922052150307
 20
1412.8642826045293
 11
804.02440730087801
 21
1408.7231778828891
  0
LINE
  8
_0-5_寸法線
  6
CONTINUOUS
 62
    7
 10
819.47922052150307
 20
1412.8642826045293
 11
804.02440730087801
 21
1417.0053873261697
  0
LINE
  8
_0-5_寸法線
  6
CONTINUOUS
 62
    7
 10
828.97922052150307
 20
1236.8642826045293
 11
828.97922052150307
 21
1420.8642826045293
  0
LINE
  8
_0-5_寸法線
  6
CONTINUOUS
 62
    7
 10
764.32674568721541
 20
1412.8642826045293
 11
828.97922052150307
 21
1412.8642826045293
  0
TEXT
  8
_0-5_寸法線
 62
    7
 10
764.32674568721541
 20
1412.8642826045293
 40
24
 41
1
 50
0
  1
9.5
  0
LINE
  8
_0-5_寸法線
  6
CONTINUOUS
 62
    7
 10
828.97922052150307
 20
1412.8642826045293
 11
844.43403374212824
 21
1417.0053873261695
  0
LINE
  8
_0-5_寸法線
  6
CONTINUOUS
 62
    7
 10
828.97922052150307
 20
1412.8642826045293
 11
844.43403374212812
 21
1408.7231778828889
  0
LINE
  8
_0-5_寸法線
  6
CONTINUOUS
 62
    7
 10
1405.9792205215026
 20
1236.8642826045293
 11
1405.9792205215035
 21
1420.8642826045293
  0
LINE
  8
_0-5_寸法線
  6
CONTINUOUS
 62
    7
 10
1405.9792205215035
 20
1412.8642826045293
 11
1390.5244073008785
 21
1408.7231778828891
  0
LINE
  8
_0-5_寸法線
  6
CONTINUOUS
 62
    7
 10
1405.9792205215035
 20
1412.8642826045293
 11
1390.5244073008785
 21
1417.0053873261697
  0
LINE
  8
_0-5_寸法線
  6
CONTINUOUS
 62
    7
 10
828.97922052150307
 20
1412.8642826045293
 11
1405.9792205215035
 21
1412.8642826045293
  0
TEXT
  8
_0-5_寸法線
 62
    7
 10
1099.4792205215031
 20
1412.8642826045293
 40
24
 41
1
 50
0
  1
577
  0
LINE
  8
_0-5_寸法線
  6
CONTINUOUS
 62
    7
 10
1415.4792205215026
 20
1236.8642826045293
 11
1415.4792205215035
 21
1420.8642826045293
  0
LINE
  8
_0-5_寸法線
  6
CONTINUOUS
 62
    7
 10
1415.4792205215035
 20
1412.8642826045293
 11
1430.9340337421286
 21
1417.0053873261695
  0
LINE
  8
_0-5_寸法線
  6
CONTINUOUS
 62
    7
 10
1415.4792205215035
 20
1412.8642826045293
 11
1430.9340337421286
 21
1408.7231778828889
  0
LINE
  8
_0-5_寸法線
  6
CONTINUOUS
 62
    7
 10
1405.9792205215035
 20
1412.8642826045293
 11
1466.6401493732601
 21
1412.8642826045293
  0
TEXT
  8
_0-5_寸法線
 62
    7
 10
1430.6401493732601
 20
1412.8642826045293
 40
24
 41
1
 50
0
  1
9.5
  0
LINE
  8
_0-5_寸法線
  6
CONTINUOUS
 62
    7
 10
803.47922052150307
 20
1076.8642826045293
 11
675.47922052150307
 21
1076.8642826045298
  0
LINE
  8
_0-5_寸法線
  6
CONTINUOUS
 62
    7
 10
683.47922052150307
 20
1076.8642826045298
 11
679.33811579986275
 21
1092.3190958251548
  0
LINE
  8
_0-5_寸法線
  6
CONTINUOUS
 62
    7
 10
683.47922052150307
 20
1076.8642826045298
 11
687.62032524314338
 21
1092.3190958251548
  0
LINE
  8
_0-5_寸法線
  6
CONTINUOUS
 62
    7
 10
803.47922052150307
 20
1220.8642826045293
 11
675.47922052150307
 21
1220.8642826045298
  0
LINE
  8
_0-5_寸法線
  6
CONTINUOUS
 62
    7
 10
683.47922052150307
 20
1220.8642826045298
 11
687.62032524314338
 21
1205.4094693839047
  0
LINE
  8
_0-5_寸法線
  6
CONTINUOUS
 62
    7
 10
683.47922052150307
 20
1220.8642826045298
 11
679.33811579986275
 21
1205.4094693839047
  0
LINE
  8
_0-5_寸法線
  6
CONTINUOUS
 62
    7
 10
683.47922052150307
 20
1076.8642826045298
 11
683.47922052150307
 21
1220.8642826045298
  0
TEXT
  8
_0-5_寸法線
 62
    7
 10
683.47922052150307
 20
1130.8642826045295
 40
24
 41
1
 50
90
  1
144
  0
LINE
  8
_0-5_寸法線
  6
CONTINUOUS
 62
    7
 10
803.47922052150307
 20
1220.8642826045293
 11
731.47922052150261
 21
1220.8642826045293
  0
LINE
  8
_0-5_寸法線
  6
CONTINUOUS
 62
    7
 10
739.47922052150261
 20
1220.8642826045293
 11
735.33811579986229
 21
1236.3190958251544
  0
LINE
  8
_0-5_寸法線
  6
CONTINUOUS
 62
    7
 10
739.47922052150261
 20
1220.8642826045293
 11
743.62032524314293
 21
1236.3190958251544
  0
LINE
  8
_0-5_寸法線
  6
CONTINUOUS
 62
    7
 10
803.47922052150307
 20
1211.3642826045291
 11
731.47922052150261
 21
1211.3642826045291
  0
LINE
  8
_0-5_寸法線
  6
CONTINUOUS
 62
    7
 10
739.47922052150261
 20
1277.7514608999352
 11
739.47922052150261
 21
1211.3642826045291
  0
TEXT
  8
_0-5_寸法線
 62
    7
 10
739.47922052150261
 20
1241.7514608999352
 40
24
 41
1
 50
89.999999999999815
  1
9.5
  0
LINE
  8
_0-5_寸法線
  6
CONTINUOUS
 62
    7
 10
739.47922052150261
 20
1211.3642826045291
 11
743.62032524314282
 21
1195.909469383904
  0
LINE
  8
_0-5_寸法線
  6
CONTINUOUS
 62
    7
 10
739.47922052150261
 20
1211.3642826045291
 11
735.33811579986218
 21
1195.909469383904
  0
LINE
  8
_0-5_寸法線
  6
CONTINUOUS
 62
    7
 10
803.47922052150307
 20
1086.3642826045293
 11
731.47922052150261
 21
1086.3642826045293
  0
LINE
  8
_0-5_寸法線
  6
CONTINUOUS
 62
    7
 10
739.47922052150261
 20
1086.3642826045293
 11
735.33811579986229
 21
1101.8190958251544
  0
LINE
  8
_0-5_寸法線
  6
CONTINUOUS
 62
    7
 10
739.47922052150261
 20
1086.3642826045293
 11
743.62032524314293
 21
1101.8190958251544
  0
LINE
  8
_0-5_寸法線
  6
CONTINUOUS
 62
    7
 10
739.47922052150261
 20
1211.3642826045291
 11
739.47922052150261
 21
1086.3642826045293
  0
TEXT
  8
_0-5_寸法線
 62
    7
 10
739.47922052150261
 20
1130.8642826045291
 40
24
 41
1
 50
90
  1
125
  0
LINE
  8
_0-5_寸法線
  6
CONTINUOUS
 62
    7
 10
803.47922052150307
 20
1076.8642826045293
 11
731.47922052150307
 21
1076.8642826045293
  0
LINE
  8
_0-5_寸法線
  6
CONTINUOUS
 62
    7
 10
739.47922052150307
 20
1076.8642826045293
 11
743.62032524314327
 21
1061.4094693839043
  0
LINE
  8
_0-5_寸法線
  6
CONTINUOUS
 62
    7
 10
739.47922052150307
 20
1076.8642826045293
 11
735.33811579986263
 21
1061.4094693839043
  0
LINE
  8
_0-5_寸法線
  6
CONTINUOUS
 62
    7
 10
739.47922052150261
 20
1086.3642826045293
 11
739.47922052150568
 21
1022.4811136182941
  0
TEXT
  8
_0-5_寸法線
 62
    7
 10
739.47922052150295
 20
1022.4811136182941
 40
24
 41
1
 50
89.999999999999815
  1
9.5
  0
ARC
  8
_0-1_計細線
  6
CONTINUOUS
 62
    3
 10
1374.0939821431193
 20
1163.0640874925348
 40
0.501740082747087
 50
330.00000000003996
 51
20.189990999990084
  0
ARC
  8
_0-1_計細線
  6
CONTINUOUS
 62
    3
 10
1374.0939821431193
 20
1134.6644777165257
 40
0.501740082747087
 50
339.81000900000919
 51
29.999999999959307
  0
LINE
  8
_0-1_計細線
  6
CONTINUOUS
 62
    3
 10
1336.782788616918
 20
1151.1221220082493
 11
1335.4792205215026
 21
1153.3799614119685
  0
LINE
  8
_0-1_計細線
  6
CONTINUOUS
 62
    3
 10
1336.782788616918
 20
1151.1221220082493
 11
1316.6428972611711
 21
1186.005433729556
  0
LINE
  8
_0-1_計細線
  6
CONTINUOUS
 62
    3
 10
1336.782788616918
 20
1151.1221220082493
 11
1339.3899187868446
 21
1151.1221220082493
  0
LINE
  8
_0-1_計細線
  6
CONTINUOUS
 62
    3
 10
1332.8720963724818
 20
1148.8642826045293
 11
1312.7322050167313
 21
1183.7475943258382
  0
ARC
  8
_0-1_計細線
  6
CONTINUOUS
 62
    3
 10
1303.874448157927
 20
1122.5228228944693
 40
0.501740082747087
 50
219.81000899998574
 51
269.99999999999977
  0
LINE
  8
_0-1_計細線
  6
CONTINUOUS
 62
    3
 10
1336.782788616918
 20
1146.6064432008102
 11
1316.6428972611711
 21
1111.7231314795031
  0
LINE
  8
_0-1_計細線
  6
CONTINUOUS
 62
    3
 10
1332.8720963724818
 20
1148.8642826045293
 11
1312.7322050167313
 21
1113.9809708832222
  0
ARC
  8
_0-1_計細線
  6
CONTINUOUS
 62
    3
 10
1335.4792205215026
 20
1148.8642826045293
 40
46.4111412917104
 50
89.999999999999915
 51
269.99999999999977
  0
ARC
  8
_0-1_計細線
  6
CONTINUOUS
 62
    3
 10
1335.4792205215026
 20
1148.8642826045293
 40
57.198598227560829
 50
89.999999999999915
 51
269.99999999999977
  0
CIRCLE
  8
_0-1_計細線
  6
CONTINUOUS
 62
    3
 10
1335.4792205215026
 20
1148.8642826045293
 40
58.202084413960065
  0
LINE
  8
_0-1_計細線
  6
CONTINUOUS
 62
    3
 10
1336.782788616918
 20
1151.1221220082493
 11
1377.0625653075085
 21
1151.1221220082493
  0
LINE
  8
_0-1_計細線
  6
CONTINUOUS
 62
    3
 10
1336.782788616918
 20
1146.6064432008102
 11
1377.0625653075085
 21
1146.6064432008102
  0
ARC
  8
_0-1_計細線
  6
CONTINUOUS
 62
    3
 10
1335.4792205215026
 20
1148.8642826045293
 40
46.4111412917104
 50
269.99999999999977
 51
89.999999999999545
  0
ARC
  8
_0-1_計細線
  6
CONTINUOUS
 62
    3
 10
1335.4792205215026
 20
1148.8642826045293
 40
57.198598227560829
 50
269.99999999999977
 51
89.999999999999545
  0
ARC
  8
_0-1_計細線
  6
CONTINUOUS
 62
    3
 10
1335.4792205215026
 20
1148.8642826045293
 40
41.644595453350369
 50
89.999999999999915
 51
116.89207624474167
  0
ARC
  8
_0-1_計細線
  6
CONTINUOUS
 62
    3
 10
1335.4792205215026
 20
1148.8642826045293
 40
41.644595453350369
 50
123.10791868694014
 51
236.89208131305782
  0
ARC
  8
_0-1_計細線
  6
CONTINUOUS
 62
    3
 10
1335.4792205215026
 20
1148.8642826045293
 40
41.644595453350369
 50
243.10792375525659
 51
269.99999999999977
  0
ARC
  8
_0-1_計細線
  6
CONTINUOUS
 62
    3
 10
1335.4792205215026
 20
1148.8642826045293
 40
41.644595453350369
 50
269.99999999999977
 51
356.8920785890931
  0
ARC
  8
_0-1_計細線
  6
CONTINUOUS
 62
    3
 10
1335.4792205215026
 20
1148.8642826045293
 40
41.644595453350369
 50
3.1079214109077964
 51
89.999999999999915
  0
ARC
  8
_0-0_計極細
  6
CONTINUOUS
 62
    2
 10
1335.4792205215026
 20
1148.8642826045293
 40
50.153133796808191
 50
269.99999999999977
 51
89.999999999999545
  0
ARC
  8
_0-0_計極細
  6
CONTINUOUS
 62
    2
 10
1335.4792205215026
 20
1148.8642826045293
 40
50.153133796808191
 50
89.999999999999915
 51
269.99999999999977
  0
ARC
  8
_0-0_計極細
  6
CONTINUOUS
 62
    2
 10
1321.8642194769955
 20
1119.7632403749381
 40
0.501740082747087
 50
149.99997568607938
 51
210.00002243784951
  0
ARC
  8
_0-0_計極細
  6
CONTINUOUS
 62
    2
 10
1335.7689043274513
 20
1142.8433775279432
 40
1.0034861863992508
 50
29.999999999951111
 51
149.99999999997101
  0
ARC
  8
_0-0_計極細
  6
CONTINUOUS
 62
    2
 10
1335.7689043274513
 20
1142.8433775279432
 40
1.0034861863992508
 50
29.999999999951111
 51
106.77865499997519
  0
ARC
  8
_0-0_計極細
  6
CONTINUOUS
 62
    2
 10
1330.1201273100305
 20
1146.1047031180628
 40
1.0034861863992508
 50
329.99999999995163
 51
89.999999999999545
  0
ARC
  8
_0-0_計極細
  6
CONTINUOUS
 62
    2
 10
1294.9840042214646
 20
1156.1430434036224
 40
0.501740082747087
 50
89.993779916795503
 51
169.8086801233749
  0
ARC
  8
_0-0_計極細
  6
CONTINUOUS
 62
    2
 10
1294.9824385160318
 20
1141.592520070868
 40
0.501740082747087
 50
190.17882981053808
 51
269.99383436904543
  0
ARC
  8
_0-0_計極細
  6
CONTINUOUS
 62
    2
 10
1294.9307062254256
 20
1151.6273690011635
 40
1.0034861863992508
 50
176.10042624738318
 51
269.99385985774035
  0
ARC
  8
_0-0_計極細
  6
CONTINUOUS
 62
    2
 10
1335.4792205215026
 20
1148.8642826045293
 40
37.630656728658437
 50
317.45760300000074
 51
327.38710799999916
  0
ARC
  8
_0-0_計極細
  6
CONTINUOUS
 62
    2
 10
1335.4792205215026
 20
1148.8642826045293
 40
37.630656728658437
 50
32.612892000001082
 51
42.54239699999939
  0
LINE
  8
_0-0_計極細
  6
CONTINUOUS
 62
    2
 10
1370.6534382924901
 20
1129.585344549304
 11
1361.6953490714895
 21
1145.1012169316655
  0
LINE
  8
_0-0_計極細
  6
CONTINUOUS
 62
    2
 10
1369.2466116750111
 20
1124.9976496962431
 11
1356.9156114301059
 21
1146.3555701489836
  0
LINE
  8
_0-0_計極細
  6
CONTINUOUS
 62
    2
 10
1364.6246759347796
 20
1120.9612650374256
 11
1350.6874728216908
 21
1145.1012169316655
  0
LINE
  8
_0-0_計極細
  6
CONTINUOUS
 62
    2
 10
1370.6534382924901
 20
1168.143220659756
 11
1361.6953490714895
 21
1152.6273482773954
  0
LINE
  8
_0-0_計極細
  6
CONTINUOUS
 62
    2
 10
1369.2466116750111
 20
1172.7309155128164
 11
1356.9156114301059
 21
1151.3729950600755
  0
LINE
  8
_0-0_計極細
  6
CONTINUOUS
 62
    2
 10
1364.6246759347796
 20
1176.7672941507299
 11
1350.6874728216908
 21
1152.6273482773954
  0
LINE
  8
_0-0_計極細
  6
CONTINUOUS
 62
    2
 10
1333.4722541696092
 20
1121.844646209358
 11
1333.4722541696092
 21
1129.7620581133019
  0
LINE
  8
_0-0_計極細
  6
CONTINUOUS
 62
    2
 10
1333.9739942523565
 20
1121.8120550501781
 11
1333.9739942523565
 21
1128.893018737263
  0
ARC
  8
_0-0_計極細
  6
CONTINUOUS
 62
    2
 10
1335.4792205215026
 20
1148.8642826045293
 40
37.630656728658437
 50
213.59599499999973
 51
225.50677599999941
  0
LINE
  8
_0-0_計極細
  6
CONTINUOUS
 62
    2
 10
1362.4615574097252
 20
1117.6835144182596
 11
1345.9077351803071
 21
1146.3555701489836
  0
LINE
  8
_0-0_計極細
  6
CONTINUOUS
 62
    2
 10
1357.2737047595365
 20
1114.6273270850038
 11
1339.6795965718911
 21
1145.1012169316655
  0
LINE
  8
_0-0_計極細
  6
CONTINUOUS
 62
    2
 10
1339.264635794013
 20
1107.68754760106
 11
1326.9336355491077
 21
1129.045468053801
  0
LINE
  8
_0-0_計極細
  6
CONTINUOUS
 62
    2
 10
1345.071214712586
 20
1109.6720680188278
 11
1331.1340115994963
 21
1133.8120199130667
  0
LINE
  8
_0-0_計極細
  6
CONTINUOUS
 62
    2
 10
1348.9913959034266
 20
1109.9065100207017
 11
1332.4375736740085
 21
1138.578571772332
  0
LINE
  8
_0-0_計極細
  6
CONTINUOUS
 62
    2
 10
1354.2320518911374
 20
1112.871233784937
 11
1336.637949724397
 21
1143.3451176106919
  0
LINE
  8
_0-0_計極細
  6
CONTINUOUS
 62
    2
 10
1303.874448157927
 20
1122.0210828117224
 11
1317.0844824812984
 21
1122.0210828117224
  0
ARC
  8
_0-0_計極細
  6
CONTINUOUS
 62
    2
 10
1313.608312935331
 20
1117.5054040042828
 40
1.0034861863992508
 50
329.99999999997061
 51
89.999999999999545
  0
ARC
  8
_0-0_計極細
  6
CONTINUOUS
 62
    2
 10
1335.4792205215026
 20
1148.8642826045293
 40
37.630656728658437
 50
233.77152299999938
 51
236.31964599999873
  0
ARC
  8
_0-0_計極細
  6
CONTINUOUS
 62
    2
 10
1309.6273326450291
 20
1117.5054040042828
 40
1.0034861863992508
 50
89.999999999999915
 51
230.49822999997428
  0
LINE
  8
_0-0_計極細
  6
CONTINUOUS
 62
    2
 10
1309.6273326450291
 20
1118.508884169777
 11
1313.608312935331
 21
1118.508884169777
  0
ARC
  8
_0-0_計極細
  6
CONTINUOUS
 62
    2
 10
1335.4792205215026
 20
1148.8642826045293
 40
37.630656728658437
 50
272.61289199999942
 51
282.54239699999982
  0
ARC
  8
_0-0_計極細
  6
CONTINUOUS
 62
    2
 10
1339.6991584924845
 20
1107.9384206528857
 40
0.501740082747087
 50
210.00000000000426
 51
275.88706199997517
  0
LINE
  8
_0-0_計極細
  6
CONTINUOUS
 62
    2
 10
1334.5881626955979
 20
1108.7630438121764
 11
1325.6300734745973
 21
1124.278922215442
  0
LINE
  8
_0-0_計極細
  6
CONTINUOUS
 62
    2
 10
1328.0347145858932
 20
1108.0721449546395
 11
1321.4296974242088
 21
1119.5123703561771
  0
ARC
  8
_0-0_計極細
  6
CONTINUOUS
 62
    2
 10
1335.4792205215026
 20
1148.8642826045293
 40
37.630656728658437
 50
254.49322399999932
 51
266.40400499999907
  0
ARC
  8
_0-0_計極細
  6
CONTINUOUS
 62
    2
 10
1317.0844824812984
 20
1122.5228228944693
 40
0.501740082747087
 50
269.99999999999977
 51
329.99999999989114
  0
ARC
  8
_0-0_計極細
  6
CONTINUOUS
 62
    2
 10
1321.2475831083566
 20
1110.7964479582611
 40
1.0034861863992508
 50
249.50177000005806
 51
29.999999999976708
  0
LINE
  8
_0-0_計極細
  6
CONTINUOUS
 62
    2
 10
1322.1166224843973
 20
1111.2981880410084
 11
1320.1261353496984
 21
1114.74581849691
  0
ARC
  8
_0-0_計極細
  6
CONTINUOUS
 62
    2
 10
1324.7610280776526
 20
1123.7771761117906
 40
1.0034861863992508
 50
29.999999999977071
 51
149.99999999999699
  0
ARC
  8
_0-0_計極細
  6
CONTINUOUS
 62
    2
 10
1335.4792205215026
 20
1148.8642826045293
 40
27.094072844634088
 50
244.78019200000111
 51
249.77896100000117
  0
ARC
  8
_0-0_計極細
  6
CONTINUOUS
 62
    2
 10
1335.4792205215026
 20
1148.8642826045293
 40
37.630656728658437
 50
243.68035399999945
 51
246.22847699999838
  0
ARC
  8
_0-0_計極細
  6
CONTINUOUS
 62
    2
 10
1319.2570899527536
 20
1114.244078414165
 40
1.0034861863992508
 50
29.999999999977071
 51
150.00000000002294
  0
ARC
  8
_0-0_計極細
  6
CONTINUOUS
 62
    2
 10
1333.7191233195599
 20
1108.2613037294309
 40
1.0034861863992508
 50
267.5178359999677
 51
30.000000000002665
  0
ARC
  8
_0-0_計極細
  6
CONTINUOUS
 62
    2
 10
1328.4692372843647
 20
1108.3230180064652
 40
0.501740082747087
 50
210.00000000010814
 51
260.18999100005101
  0
ARC
  8
_0-0_計極細
  6
CONTINUOUS
 62
    2
 10
1335.4792205215026
 20
1148.8642826045293
 40
27.094072844634088
 50
260.29098299999907
 51
275.37568199999987
  0
ARC
  8
_0-0_計極細
  6
CONTINUOUS
 62
    2
 10
1335.4792205215026
 20
1148.8642826045293
 40
37.630656728658437
 50
288.07291800000053
 51
297.3252259999997
  0
ARC
  8
_0-0_計極細
  6
CONTINUOUS
 62
    2
 10
1335.4792205215026
 20
1148.8642826045293
 40
27.094072844634088
 50
283.31934900000118
 51
296.2837799999993
  0
ARC
  8
_0-0_計極細
  6
CONTINUOUS
 62
    2
 10
1349.4259125809922
 20
1110.1573830725279
 40
0.501740082747087
 50
210.00000000010814
 51
289.81487200010849
  0
ARC
  8
_0-0_計極細
  6
CONTINUOUS
 62
    2
 10
1344.2021693156421
 20
1109.1703279360813
 40
1.0034861863992508
 50
282.39403400005705
 51
30.000000000002665
  0
ARC
  8
_0-0_計極細
  6
CONTINUOUS
 62
    2
 10
1335.4792205215026
 20
1148.8642826045293
 40
37.630656728658437
 50
302.67477399999865
 51
311.92708199999919
  0
ARC
  8
_0-0_計極細
  6
CONTINUOUS
 62
    2
 10
1358.1427441355745
 20
1115.1290731886565
 40
1.0034861863992508
 50
210.00000000002515
 51
303.89345000001418
  0
ARC
  8
_0-0_計極細
  6
CONTINUOUS
 62
    2
 10
1362.0270347112528
 20
1117.4326413664339
 40
0.501740082747087
 50
310.18512800003361
 51
29.999999999907399
  0
ARC
  8
_0-0_計極細
  6
CONTINUOUS
 62
    2
 10
1353.3630125150985
 20
1112.3694876812842
 40
1.0034861863992508
 50
296.10655000002453
 51
29.999999999999204
  0
LINE
  8
_0-0_計極細
  6
CONTINUOUS
 62
    2
 10
1301.1960605764198
 20
1128.0419878883081
 11
1319.1122510602299
 21
1128.0419878883081
  0
ARC
  8
_0-0_計極細
  6
CONTINUOUS
 62
    2
 10
1313.608312935331
 20
1180.2231612047776
 40
1.0034861863992508
 50
269.99999999999977
 51
30.000000000051159
  0
LINE
  8
_0-0_計極細
  6
CONTINUOUS
 62
    2
 10
1303.874448157927
 20
1175.707482397338
 11
1317.0844824812984
 21
1175.707482397338
  0
LINE
  8
_0-0_計極細
  6
CONTINUOUS
 62
    2
 10
1301.1960605764198
 20
1169.6865773207514
 11
1319.1122510602299
 21
1169.6865773207514
  0
LINE
  8
_0-0_計極細
  6
CONTINUOUS
 62
    2
 10
1297.9264201163905
 20
1166.1743846997128
 11
1322.5884206061974
 21
1166.1743846997128
  0
LINE
  8
_0-0_計極細
  6
CONTINUOUS
 62
    2
 10
1296.7417769380463
 20
1160.1534796231276
 11
1324.6161891851307
 21
1160.1534796231276
  0
LINE
  8
_0-0_計極細
  6
CONTINUOUS
 62
    2
 10
1294.984720293166
 20
1156.6412870020872
 11
1328.0923587310963
 21
1156.6412870020872
  0
LINE
  8
_0-0_計極細
  6
CONTINUOUS
 62
    2
 10
1294.9319109347389
 20
1150.620381925502
 11
1330.1201273100305
 21
1150.620381925502
  0
LINE
  8
_0-0_計極細
  6
CONTINUOUS
 62
    2
 10
1297.9264201163905
 20
1131.5541805093476
 11
1322.5884206061974
 21
1131.5541805093476
  0
LINE
  8
_0-0_計極細
  6
CONTINUOUS
 62
    2
 10
1296.7417769380463
 20
1137.5750855859333
 11
1324.6161891851307
 21
1137.5750855859333
  0
LINE
  8
_0-0_計極細
  6
CONTINUOUS
 62
    2
 10
1294.984720293166
 20
1141.0872782069732
 11
1328.0923587310963
 21
1141.0872782069732
  0
LINE
  8
_0-0_計極細
  6
CONTINUOUS
 62
    2
 10
1294.9319109347389
 20
1147.1081832835571
 11
1330.1201273100305
 21
1147.1081832835571
  0
ARC
  8
_0-0_計極細
  6
CONTINUOUS
 62
    2
 10
1335.4792205215026
 20
1148.8642826045293
 40
27.094072844634088
 50
140.2909829999995
 51
155.37568200000004
  0
ARC
  8
_0-0_計極細
  6
CONTINUOUS
 62
    2
 10
1335.4792205215026
 20
1148.8642826045293
 40
37.630656728658437
 50
152.61289200000007
 51
162.54239699999968
  0
ARC
  8
_0-0_計極細
  6
CONTINUOUS
 62
    2
 10
1296.7417769380463
 20
1161.1569658095282
 40
1.0034861863992508
 50
162.39403400002107
 51
269.99999999999977
  0
ARC
  8
_0-0_計極細
  6
CONTINUOUS
 62
    2
 10
1301.1960605764198
 20
1127.0385017019075
 40
1.0034861863992508
 50
89.999999999999915
 51
212.4821639999854
  0
ARC
  8
_0-0_計極細
  6
CONTINUOUS
 62
    2
 10
1335.4792205215026
 20
1148.8642826045293
 40
37.630656728658437
 50
168.07291799999925
 51
177.32522600000016
  0
ARC
  8
_0-0_計極細
  6
CONTINUOUS
 62
    2
 10
1335.4792205215026
 20
1148.8642826045293
 40
37.630656728658437
 50
182.67477399999882
 51
191.9270819999997
  0
ARC
  8
_0-0_計極細
  6
CONTINUOUS
 62
    2
 10
1335.4792205215026
 20
1148.8642826045293
 40
37.630656728658437
 50
197.4576029999993
 51
207.38710799999896
  0
ARC
  8
_0-0_計極細
  6
CONTINUOUS
 62
    2
 10
1294.9319109347389
 20
1146.1047031180638
 40
1.0034861863992508
 50
89.999999999999915
 51
183.89344999999844
  0
ARC
  8
_0-0_計極細
  6
CONTINUOUS
 62
    2
 10
1296.7417769380463
 20
1136.5715993995341
 40
1.0034861863992508
 50
89.999999999999915
 51
197.60596600000332
  0
ARC
  8
_0-0_計極細
  6
CONTINUOUS
 62
    2
 10
1297.9264201163905
 20
1132.0559205920936
 40
0.501740082747087
 50
204.11293800002809
 51
269.99999999999977
  0
ARC
  8
_0-0_計極細
  6
CONTINUOUS
 62
    2
 10
1335.4792205215026
 20
1148.8642826045293
 40
27.094072844634088
 50
163.31934899999951
 51
176.28377999999955
  0
ARC
  8
_0-0_計極細
  6
CONTINUOUS
 62
    2
 10
1335.4792205215026
 20
1148.8642826045293
 40
27.094072844634088
 50
183.71621999999911
 51
196.68065099999922
  0
ARC
  8
_0-0_計極細
  6
CONTINUOUS
 62
    2
 10
1335.4792205215026
 20
1148.8642826045293
 40
27.094072844634088
 50
204.62431799999874
 51
219.70901699999865
  0
ARC
  8
_0-0_計極細
  6
CONTINUOUS
 62
    2
 10
1297.9264201163905
 20
1165.6726446169669
 40
0.501740082747087
 50
89.999999999999915
 51
155.88706199997156
  0
ARC
  8
_0-0_計極細
  6
CONTINUOUS
 62
    2
 10
1301.1960605764198
 20
1170.6900635071524
 40
1.0034861863992508
 50
147.5178360000142
 51
269.99999999999977
  0
ARC
  8
_0-0_計極細
  6
CONTINUOUS
 62
    2
 10
1335.4792205215026
 20
1148.8642826045293
 40
37.630656728658437
 50
123.68035400000058
 51
126.22847700000025
  0
ARC
  8
_0-0_計極細
  6
CONTINUOUS
 62
    2
 10
1335.4792205215026
 20
1148.8642826045293
 40
37.630656728658437
 50
134.49322399999971
 51
146.40400499999933
  0
ARC
  8
_0-0_計極細
  6
CONTINUOUS
 62
    2
 10
1303.874448157927
 20
1175.2057423145916
 40
0.501740082747087
 50
89.999999999999915
 51
140.18999100005377
  0
ARC
  8
_0-0_計極細
  6
CONTINUOUS
 62
    2
 10
1309.6273326450291
 20
1180.2231612047776
 40
1.0034861863992508
 50
129.50177000002535
 51
269.99999999999977
  0
LINE
  8
_0-0_計極細
  6
CONTINUOUS
 62
    2
 10
1309.6273326450291
 20
1179.2196810392834
 11
1313.608312935331
 21
1179.2196810392834
  0
ARC
  8
_0-0_計極細
  6
CONTINUOUS
 62
    2
 10
1335.4792205215026
 20
1148.8642826045293
 40
37.630656728658437
 50
77.457603000000148
 51
87.387108000000282
  0
ARC
  8
_0-0_計極細
  6
CONTINUOUS
 62
    2
 10
1335.4792205215026
 20
1148.8642826045293
 40
37.630656728658437
 50
77.457603000000148
 51
87.387108000000282
  0
ARC
  8
_0-0_計極細
  6
CONTINUOUS
 62
    2
 10
1340.5486419688359
 20
1145.6029570144119
 40
1.0034861863992508
 50
89.999999999999915
 51
209.9999999999992
  0
ARC
  8
_0-0_計極細
  6
CONTINUOUS
 62
    2
 10
1340.5486419688359
 20
1152.1256081946499
 40
1.0034861863992508
 50
150.00000000000043
 51
269.99999999999977
  0
ARC
  8
_0-0_計極細
  6
CONTINUOUS
 62
    2
 10
1339.6991584924845
 20
1189.790144556172
 40
0.501740082747087
 50
84.112938000024442
 51
150.00000000004033
  0
LINE
  8
_0-0_計極細
  6
CONTINUOUS
 62
    2
 10
1345.071214712586
 20
1188.0564911693255
 11
1331.1340115994963
 21
1163.9165452959937
  0
LINE
  8
_0-0_計極細
  6
CONTINUOUS
 62
    2
 10
1348.9913959034266
 20
1187.8220491674542
 11
1332.4375736740085
 21
1159.1499934367284
  0
LINE
  8
_0-0_計極細
  6
CONTINUOUS
 62
    2
 10
1354.2320518911374
 20
1184.8573314241235
 11
1336.637949724397
 21
1154.3834475983685
  0
LINE
  8
_0-0_計極細
  6
CONTINUOUS
 62
    2
 10
1333.4722541696092
 20
1156.856130957935
 11
1333.4722541696092
 21
1160.9421158327737
  0
LINE
  8
_0-0_計極細
  6
CONTINUOUS
 62
    2
 10
1333.9739942523565
 20
1155.987091581896
 11
1333.9739942523565
 21
1161.8111612297166
  0
ARC
  8
_0-0_計極細
  6
CONTINUOUS
 62
    2
 10
1324.6161891851307
 20
1161.1569658095282
 40
1.0034861863992508
 50
269.99999999999977
 51
29.999999999999204
  0
LINE
  8
_0-0_計極細
  6
CONTINUOUS
 62
    2
 10
1336.9844467906496
 20
1154.9836053954982
 11
1336.9844467906496
 21
1167.0254155486678
  0
LINE
  8
_0-0_計極細
  6
CONTINUOUS
 62
    2
 10
1337.486192894301
 20
1155.8526507924407
 11
1337.486192894301
 21
1167.894460945613
  0
ARC
  8
_0-0_計極細
  6
CONTINUOUS
 62
    2
 10
1324.6161891851307
 20
1136.5715993995341
 40
1.0034861863992508
 50
329.9999999999776
 51
89.999999999999545
  0
ARC
  8
_0-0_計極細
  6
CONTINUOUS
 62
    2
 10
1322.5884206061974
 20
1132.0559205920936
 40
0.501740082747087
 50
269.99999999999977
 51
329.999999999995
  0
ARC
  8
_0-0_計極細
  6
CONTINUOUS
 62
    2
 10
1335.4792205215026
 20
1148.8642826045293
 40
27.094072844634088
 50
230.22103899999877
 51
235.21980799999864
  0
ARC
  8
_0-0_計極細
  6
CONTINUOUS
 62
    2
 10
1319.1122510602299
 20
1127.0385017019075
 40
1.0034861863992508
 50
330.00000000000011
 51
89.999999999999545
  0
ARC
  8
_0-0_計極細
  6
CONTINUOUS
 62
    2
 10
1327.3681582475801
 20
1129.296341105628
 40
0.501740082747087
 50
149.9999999999884
 51
210.00000000005619
  0
LINE
  8
_0-0_計極細
  6
CONTINUOUS
 62
    2
 10
1333.4722541696092
 20
1136.7864493762868
 11
1333.4722541696092
 21
1140.8724342511255
  0
LINE
  8
_0-0_計極細
  6
CONTINUOUS
 62
    2
 10
1333.9739942523565
 20
1135.917403979342
 11
1333.9739942523565
 21
1141.7414736271639
  0
ARC
  8
_0-0_計極細
  6
CONTINUOUS
 62
    2
 10
1328.0923587310963
 20
1141.5890243106246
 40
0.501740082747087
 50
269.99999999999977
 51
330.00000000003996
  0
ARC
  8
_0-0_計極細
  6
CONTINUOUS
 62
    2
 10
1332.8720963724818
 20
1138.8294388032523
 40
0.501740082747087
 50
150.00000000009922
 51
209.99999999985545
  0
ARC
  8
_0-0_計極細
  6
CONTINUOUS
 62
    2
 10
1330.2649662025515
 20
1133.3102798303194
 40
1.0034861863992508
 50
29.999999999999559
 51
150.00000000000043
  0
ARC
  8
_0-0_計極細
  6
CONTINUOUS
 62
    2
 10
1332.8720963724818
 20
1158.8991264058072
 40
0.501740082747087
 50
150.00000000009922
 51
209.99999999985545
  0
ARC
  8
_0-0_計極細
  6
CONTINUOUS
 62
    2
 10
1335.7689043274513
 20
1154.8851876811159
 40
1.0034861863992508
 50
210.00000000005113
 51
330.00000000002603
  0
ARC
  8
_0-0_計極細
  6
CONTINUOUS
 62
    2
 10
1328.0923587310963
 20
1156.1395408984345
 40
0.501740082747087
 50
29.99999999995967
 51
89.999999999999901
  0
ARC
  8
_0-0_計極細
  6
CONTINUOUS
 62
    2
 10
1330.1201273100305
 20
1151.6238620909967
 40
1.0034861863992508
 50
269.99999999999977
 51
30.000000000002665
  0
LINE
  8
_0-0_計極細
  6
CONTINUOUS
 62
    2
 10
1336.9844467906496
 20
1130.7031496603918
 11
1336.9844467906496
 21
1142.7449598135636
  0
LINE
  8
_0-0_計極細
  6
CONTINUOUS
 62
    2
 10
1337.486192894301
 20
1129.8341042634488
 11
1337.486192894301
 21
1141.8759144166188
  0
ARC
  8
_0-0_計極細
  6
CONTINUOUS
 62
    2
 10
1335.7689043274513
 20
1154.8851876811159
 40
1.0034861863992508
 50
253.22134500003193
 51
330.00000000002603
  0
LINE
  8
_0-0_計極細
  6
CONTINUOUS
 62
    2
 10
1334.5881626955979
 20
1188.9655153759791
 11
1325.6300734745973
 21
1173.449642993618
  0
ARC
  8
_0-0_計極細
  6
CONTINUOUS
 62
    2
 10
1335.4792205215026
 20
1148.8642826045293
 40
37.630656728658437
 50
93.595995000000485
 51
105.50677600000017
  0
LINE
  8
_0-0_計極細
  6
CONTINUOUS
 62
    2
 10
1328.0347145858932
 20
1189.6564202544232
 11
1321.4296974242088
 21
1178.2161948528828
  0
LINE
  8
_0-0_計極細
  6
CONTINUOUS
 62
    2
 10
1339.264635794013
 20
1190.041017607999
 11
1326.9336355491077
 21
1168.6830971552577
  0
ARC
  8
_0-0_計極細
  6
CONTINUOUS
 62
    2
 10
1327.3681582475801
 20
1168.4322241034324
 40
0.501740082747087
 50
149.9999999999884
 51
210.00000000001123
  0
ARC
  8
_0-0_計極細
  6
CONTINUOUS
 62
    2
 10
1335.4792205215026
 20
1148.8642826045293
 40
27.094072844634088
 50
110.2210389999981
 51
115.21980799999808
  0
ARC
  8
_0-0_計極細
  6
CONTINUOUS
 62
    2
 10
1324.7610280776526
 20
1173.9513890972712
 40
1.0034861863992508
 50
210.00000000000267
 51
330.00000000002257
  0
ARC
  8
_0-0_計極細
  6
CONTINUOUS
 62
    2
 10
1321.8642201226803
 20
1177.9653218010567
 40
0.501740082747087
 50
149.99999999999537
 51
209.9999999999593
  0
ARC
  8
_0-0_計極細
  6
CONTINUOUS
 62
    2
 10
1335.4792205215026
 20
1148.8642826045293
 40
37.630656728658437
 50
113.77152300000098
 51
116.31964599999986
  0
ARC
  8
_0-0_計極細
  6
CONTINUOUS
 62
    2
 10
1321.2475831083566
 20
1186.9321172507994
 40
1.0034861863992508
 50
330.00000000002257
 51
110.49822999994124
  0
ARC
  8
_0-0_計極細
  6
CONTINUOUS
 62
    2
 10
1319.2570899527536
 20
1183.4844867948946
 40
1.0034861863992508
 50
209.9999999999992
 51
330.00000000000011
  0
LINE
  8
_0-0_計極細
  6
CONTINUOUS
 62
    2
 10
1322.1166224843973
 20
1186.430377168052
 11
1320.1261353496984
 21
1182.9827467121499
  0
ARC
  8
_0-0_計極細
  6
CONTINUOUS
 62
    2
 10
1335.4792205215026
 20
1148.8642826045293
 40
27.094072844634088
 50
124.78019199999984
 51
129.77896100000024
  0
ARC
  8
_0-0_計極細
  6
CONTINUOUS
 62
    2
 10
1317.0844824812984
 20
1175.2057423145916
 40
0.501740082747087
 50
30.000000000063526
 51
89.999999999999915
  0
ARC
  8
_0-0_計極細
  6
CONTINUOUS
 62
    2
 10
1319.1122510602299
 20
1170.6900635071524
 40
1.0034861863992508
 50
269.99999999999977
 51
29.999999999999204
  0
ARC
  8
_0-0_計極細
  6
CONTINUOUS
 62
    2
 10
1322.5884206061974
 20
1165.6726446169669
 40
0.501740082747087
 50
29.99999999995967
 51
89.999999999999901
  0
LINE
  8
_0-0_計極細
  6
CONTINUOUS
 62
    2
 10
1333.9739942523565
 20
1168.8355464717974
 11
1333.9739942523565
 21
1175.9165101588824
  0
LINE
  8
_0-0_計極細
  6
CONTINUOUS
 62
    2
 10
1333.4722541696092
 20
1167.966507095759
 11
1333.4722541696092
 21
1175.8839189997025
  0
ARC
  8
_0-0_計極細
  6
CONTINUOUS
 62
    2
 10
1333.7191233195599
 20
1189.4672614796327
 40
1.0034861863992508
 50
329.99999999997414
 51
92.482164000031602
  0
ARC
  8
_0-0_計極細
  6
CONTINUOUS
 62
    2
 10
1335.4792205215026
 20
1148.8642826045293
 40
27.094072844634088
 50
84.624317999999832
 51
99.709017000000401
  0
ARC
  8
_0-0_計極細
  6
CONTINUOUS
 62
    2
 10
1328.4692372843647
 20
1189.405547202598
 40
0.501740082747087
 50
99.810008999948636
 51
149.99999999993648
  0
ARC
  8
_0-0_計極細
  6
CONTINUOUS
 62
    2
 10
1330.2649662025515
 20
1164.4182853787397
 40
1.0034861863992508
 50
209.9999999999992
 51
330.00000000000011
  0
ARC
  8
_0-0_計極細
  6
CONTINUOUS
 62
    2
 10
1335.4792205215026
 20
1148.8642826045293
 40
27.094072844634088
 50
84.624317999999832
 51
89.999999999999915
  0
ARC
  8
_0-0_計極細
  6
CONTINUOUS
 62
    2
 10
1335.4792205215026
 20
1148.8642826045293
 40
27.094072844634088
 50
20.290983000001571
 51
35.37568200000068
  0
LINE
  8
_0-0_計極細
  6
CONTINUOUS
 62
    2
 10
1362.4615574097252
 20
1180.0450507908022
 11
1345.9077351803071
 21
1151.3729950600755
  0
LINE
  8
_0-0_計極細
  6
CONTINUOUS
 62
    2
 10
1357.2737047595365
 20
1183.1012381240562
 11
1339.6795965718911
 21
1152.6273482773954
  0
ARC
  8
_0-0_計極細
  6
CONTINUOUS
 62
    2
 10
1335.4792205215026
 20
1148.8642826045293
 40
27.094072844634088
 50
303.71622000000156
 51
316.68065099999922
  0
ARC
  8
_0-0_計極細
  6
CONTINUOUS
 62
    2
 10
1351.5565121977279
 20
1145.6029570144119
 40
1.0034861863992508
 50
89.999999999999915
 51
210.00000000002515
  0
ARC
  8
_0-0_計極細
  6
CONTINUOUS
 62
    2
 10
1345.4732124818356
 20
1146.1047031180638
 40
0.501740082747087
 50
30.0000000001085
 51
89.999999999999915
  0
ARC
  8
_0-0_計極細
  6
CONTINUOUS
 62
    2
 10
1351.5565121977279
 20
1152.1256081946499
 40
1.0034861863992508
 50
149.99999999997448
 51
269.99999999999977
  0
ARC
  8
_0-0_計極細
  6
CONTINUOUS
 62
    2
 10
1345.4732124818356
 20
1151.6238620909967
 40
0.501740082747087
 50
269.99999999999977
 51
329.99999999989114
  0
ARC
  8
_0-0_計極細
  6
CONTINUOUS
 62
    2
 10
1335.4792205215026
 20
1148.8642826045293
 40
27.094072844634088
 50
324.62431799999973
 51
339.7090169999999
  0
ARC
  8
_0-0_計極細
  6
CONTINUOUS
 62
    2
 10
1335.4792205215026
 20
1148.8642826045293
 40
27.094072844634088
 50
350.22103899999934
 51
355.21980800000068
  0
ARC
  8
_0-0_計極細
  6
CONTINUOUS
 62
    2
 10
1335.4792205215026
 20
1148.8642826045293
 40
27.094072844634088
 50
4.7801919999998796
 51
9.778961000001221
  0
ARC
  8
_0-0_計極細
  6
CONTINUOUS
 62
    2
 10
1362.5643884475276
 20
1145.6029570144119
 40
1.0034861863992508
 50
89.999999999999915
 51
210.00000000002515
  0
ARC
  8
_0-0_計極細
  6
CONTINUOUS
 62
    2
 10
1356.4810887316344
 20
1146.1047031180638
 40
0.501740082747087
 50
30.000000000056566
 51
89.999999999999915
  0
ARC
  8
_0-0_計極細
  6
CONTINUOUS
 62
    2
 10
1362.5643884475276
 20
1152.1256081946499
 40
1.0034861863992508
 50
149.99999999997448
 51
269.99999999999977
  0
ARC
  8
_0-0_計極細
  6
CONTINUOUS
 62
    2
 10
1356.4810887316344
 20
1151.6238620909967
 40
0.501740082747087
 50
269.99999999999977
 51
329.9999999999431
  0
ARC
  8
_0-0_計極細
  6
CONTINUOUS
 62
    2
 10
1335.4792205215026
 20
1148.8642826045293
 40
27.094072844634088
 50
43.319349000001104
 51
56.28377999999919
  0
ARC
  8
_0-0_計極細
  6
CONTINUOUS
 62
    2
 10
1335.4792205215026
 20
1148.8642826045293
 40
37.630656728658437
 50
62.674774000000312
 51
71.927081999999317
  0
ARC
  8
_0-0_計極細
  6
CONTINUOUS
 62
    2
 10
1335.4792205215026
 20
1148.8642826045293
 40
27.094072844634088
 50
63.716220000000746
 51
76.680650999998889
  0
ARC
  8
_0-0_計極細
  6
CONTINUOUS
 62
    2
 10
1349.4259125809922
 20
1187.5711821365321
 40
0.501740082747087
 50
70.185127999891137
 51
149.99999999993648
  0
ARC
  8
_0-0_計極細
  6
CONTINUOUS
 62
    2
 10
1344.2021693156421
 20
1188.5582372729791
 40
1.0034861863992508
 50
329.99999999999665
 51
77.605965999942228
  0
ARC
  8
_0-0_計極細
  6
CONTINUOUS
 62
    2
 10
1335.4792205215026
 20
1148.8642826045293
 40
37.630656728658437
 50
48.072918000001373
 51
57.325226000001372
  0
ARC
  8
_0-0_計極細
  6
CONTINUOUS
 62
    2
 10
1358.1427441355745
 20
1182.5994920204043
 40
1.0034861863992508
 50
56.106549999971008
 51
149.99999999999699
  0
ARC
  8
_0-0_計極細
  6
CONTINUOUS
 62
    2
 10
1362.0270347112528
 20
1180.2959178217225
 40
0.501740082747087
 50
330.00000000009186
 51
49.814871999965682
  0
ARC
  8
_0-0_計極細
  6
CONTINUOUS
 62
    2
 10
1353.3630125150985
 20
1185.3590775277748
 40
1.0034861863992508
 50
330.00000000000011
 51
63.893449999974756
  0
ARC
  8
_0-0_計極細
  6
CONTINUOUS
 62
    2
 10
1365.4937213317226
 20
1121.4630111410784
 40
1.0034861863992508
 50
210.00000000002515
 51
317.6059660000256
  0
ARC
  8
_0-0_計極細
  6
CONTINUOUS
 62
    2
 10
1368.8120949974427
 20
1124.7467766444174
 40
0.501740082747087
 50
324.11293799996702
 51
29.999999999959307
  0
ARC
  8
_0-0_計極細
  6
CONTINUOUS
 62
    2
 10
1335.4792205215026
 20
1148.8642826045293
 40
37.630656728658437
 50
14.493223999999607
 51
26.404005000000534
  0
LINE
  8
_0-0_計極細
  6
CONTINUOUS
 62
    2
 10
1374.5285048415908
 20
1162.8132204616145
 11
1367.9234876799055
 21
1151.3729950600755
  0
ARC
  8
_0-0_計極細
  6
CONTINUOUS
 62
    2
 10
1375.562757852932
 20
1142.1553265585076
 40
1.0034861863992508
 50
209.99999999997672
 51
350.4982300000064
  0
ARC
  8
_0-0_計極細
  6
CONTINUOUS
 62
    2
 10
1375.562757852932
 20
1155.5732386505529
 40
1.0034861863992508
 50
9.5017699999932326
 51
150.00000000000043
  0
ARC
  8
_0-0_計極細
  6
CONTINUOUS
 62
    2
 10
1335.4792205215026
 20
1148.8642826045293
 40
37.630656728658437
 50
3.6803540000001762
 51
6.228477000000372
  0
ARC
  8
_0-0_計極細
  6
CONTINUOUS
 62
    2
 10
1335.4792205215026
 20
1148.8642826045293
 40
37.630656728658437
 50
353.77152300000063
 51
356.31964600000015
  0
ARC
  8
_0-0_計極細
  6
CONTINUOUS
 62
    2
 10
1335.4792205215026
 20
1148.8642826045293
 40
37.630656728658437
 50
333.59599499999973
 51
345.50677600000074
  0
ARC
  8
_0-0_計極細
  6
CONTINUOUS
 62
    2
 10
1371.5224836894349
 20
1130.0870846320508
 40
1.0034861863992508
 50
209.99999999997672
 51
332.48216400001218
  0
ARC
  8
_0-0_計極細
  6
CONTINUOUS
 62
    2
 10
1373.5722646973263
 20
1145.6029570144119
 40
1.0034861863992508
 50
89.999999999999915
 51
210.00000000002515
  0
ARC
  8
_0-0_計極細
  6
CONTINUOUS
 62
    2
 10
1367.4889649814331
 20
1146.1047031180638
 40
0.501740082747087
 50
30.000000000004636
 51
89.999999999999915
  0
LINE
  8
_0-0_計極細
  6
CONTINUOUS
 62
    2
 10
1374.6937124559872
 20
1141.6535864757611
 11
1372.7032253212883
 21
1145.1012169316655
  0
LINE
  8
_0-0_計極細
  6
CONTINUOUS
 62
    2
 10
1374.5285048415908
 20
1134.9153447474469
 11
1367.9234876799055
 21
1146.3555701489836
  0
ARC
  8
_0-0_計極細
  6
CONTINUOUS
 62
    2
 10
1373.5722646973263
 20
1152.1256081946499
 40
1.0034861863992508
 50
149.99999999997448
 51
269.99999999999977
  0
ARC
  8
_0-0_計極細
  6
CONTINUOUS
 62
    2
 10
1367.4889649814331
 20
1151.6238620909967
 40
0.501740082747087
 50
269.99999999999977
 51
329.999999999995
  0
LINE
  8
_0-0_計極細
  6
CONTINUOUS
 62
    2
 10
1374.6937124559872
 20
1156.0749787332993
 11
1372.7032253212883
 21
1152.6273482773954
  0
ARC
  8
_0-0_計極細
  6
CONTINUOUS
 62
    2
 10
1365.4937213317226
 20
1176.2655540679821
 40
1.0034861863992508
 50
42.394033999974049
 51
149.99999999997448
  0
ARC
  8
_0-0_計極細
  6
CONTINUOUS
 62
    2
 10
1368.8120949974427
 20
1172.9817885646426
 40
0.501740082747087
 50
330.00000000003996
 51
35.887062000032259
  0
ARC
  8
_0-0_計極細
  6
CONTINUOUS
 62
    2
 10
1371.5224836894349
 20
1167.6414805770096
 40
1.0034861863992508
 50
27.517836000010465
 51
150.00000000000043
  0
LINE
  8
_0-0_計極細
  6
CONTINUOUS
 62
    2
 10
1336.9844467906496
 20
1121.8120539128117
 11
1336.9844467906496
 21
1123.678765562905
  0
LINE
  8
_0-0_計極細
  6
CONTINUOUS
 62
    2
 10
1337.486192894301
 20
1121.8446444647402
 11
1337.486192894301
 21
1122.8097155313467
  0
LINE
  8
_0-0_計極細
  6
CONTINUOUS
 62
    2
 10
1336.9844467906496
 20
1174.0497971187528
 11
1336.9844467906496
 21
1175.9165112962473
  0
LINE
  8
_0-0_計極細
  6
CONTINUOUS
 62
    2
 10
1337.486192894301
 20
1174.9188469335554
 11
1337.486192894301
 21
1175.8839207443189
  0
ARC
  8
_0-0_計極細
  6
CONTINUOUS
 62
    2
 10
1209.0561915253984
 20
1177.8642826044445
 40
54.312365187078854
 50
327.72737804884275
 51
36.099154316385302
  0
ARC
  8
_0-0_計極細
  6
CONTINUOUS
 62
    2
 10
1300.9002552904503
 20
1119.8642826046207
 40
54.312365187078854
 50
147.72737804884292
 51
216.09915431639362
  0
LINE
  8
_0-1_計細線
  6
CONTINUOUS
 62
    3
 10
1120.9792205215031
 20
1201.8642826045293
 11
1120.9792205215031
 21
1193.8642826045293
  0
LINE
  8
_0-1_計細線
  6
CONTINUOUS
 62
    3
 10
1120.9792205215031
 20
1187.8642826045293
 11
1120.9792205215031
 21
1179.8642826045302
  0
LINE
  8
_0-1_計細線
  6
CONTINUOUS
 62
    3
 10
1120.9792205215031
 20
1173.8642826045293
 11
1120.9792205215031
 21
1165.8642826045298
  0
LINE
  8
_0-1_計細線
  6
CONTINUOUS
 62
    3
 10
1120.9792205215031
 20
1159.8642826045293
 11
1120.9792205215031
 21
1151.8642826045298
  0
LINE
  8
_0-1_計細線
  6
CONTINUOUS
 62
    3
 10
1120.9792205215031
 20
1145.8642826045293
 11
1120.9792205215031
 21
1137.8642826045293
  0
LINE
  8
_0-1_計細線
  6
CONTINUOUS
 62
    3
 10
1120.9792205215031
 20
1131.8642826045293
 11
1120.9792205215031
 21
1123.8642826045293
  0
LINE
  8
_0-1_計細線
  6
CONTINUOUS
 62
    3
 10
1120.9792205215031
 20
1117.8642826045293
 11
1120.9792205215031
 21
1109.8642826045293
  0
LINE
  8
_0-1_計細線
  6
CONTINUOUS
 62
    3
 10
1120.9792205215031
 20
1103.8642826045293
 11
1120.9792205215031
 21
1095.8642826045293
  0
LINE
  8
_0-1_計細線
  6
CONTINUOUS
 62
    3
 10
1120.9792205215031
 20
1209.8642826045293
 11
1120.9792205215031
 21
1205.8642826045293
  0
LINE
  8
_0-1_計細線
  6
CONTINUOUS
 62
    3
 10
1120.9792205215031
 20
1091.8642826045293
 11
1120.9792205215031
 21
1087.8642826045293
  0
LINE
  8
_0-1_計細線
  6
CONTINUOUS
 62
    3
 10
1252.9405054907456
 20
1209.8642826045293
 11
1120.9792205215031
 21
1209.8642826045293
  0
LINE
  8
_0-1_計細線
  6
CONTINUOUS
 62
    3
 10
1120.9792205215031
 20
1205.8642826045293
 11
1255.5947025910727
 21
1205.8642826045293
  0
LINE
  8
_0-1_計細線
  6
CONTINUOUS
 62
    3
 10
1257.7781887362125
 20
1201.8642826045293
 11
1120.9792205215031
 21
1201.8642826045293
  0
LINE
  8
_0-1_計細線
  6
CONTINUOUS
 62
    3
 10
1120.9792205215031
 20
1193.8642826045293
 11
1260.9583399608136
 21
1193.8642826045293
  0
LINE
  8
_0-1_計細線
  6
CONTINUOUS
 62
    3
 10
1262.4400187787242
 20
1187.8642826045293
 11
1120.9792205215031
 21
1187.8642826045293
  0
LINE
  8
_0-1_計細線
  6
CONTINUOUS
 62
    3
 10
1120.9792205215031
 20
1179.8642826045302
 11
1263.3317201936143
 21
1179.8642826045302
  0
LINE
  8
_0-1_計細線
  6
CONTINUOUS
 62
    3
 10
1263.2210603262674
 20
1173.8642826045293
 11
1120.9792205215031
 21
1173.8642826045293
  0
LINE
  8
_0-1_計細線
  6
CONTINUOUS
 62
    3
 10
1120.9792205215031
 20
1165.8642826045298
 11
1262.0263058561859
 21
1165.8642826045298
  0
LINE
  8
_0-1_計細線
  6
CONTINUOUS
 62
    3
 10
1260.2990740771993
 20
1159.8642826045293
 11
1120.9792205215031
 21
1159.8642826045293
  0
LINE
  8
_0-1_計細線
  6
CONTINUOUS
 62
    3
 10
1120.9792205215031
 20
1151.8642826045298
 11
1256.7409166710786
 21
1151.8642826045298
  0
LINE
  8
_0-1_計細線
  6
CONTINUOUS
 62
    3
 10
1253.2155301447674
 20
1145.8642826045293
 11
1120.9792205215031
 21
1145.8642826045293
  0
LINE
  8
_0-1_計細線
  6
CONTINUOUS
 62
    3
 10
1120.9792205215031
 20
1137.8642826045293
 11
1249.6573727386476
 21
1137.8642826045293
  0
LINE
  8
_0-1_計細線
  6
CONTINUOUS
 62
    3
 10
1247.9301409596619
 20
1131.8642826045293
 11
1120.9792205215031
 21
1131.8642826045293
  0
LINE
  8
_0-1_計細線
  6
CONTINUOUS
 62
    3
 10
1120.9792205215031
 20
1123.8642826045293
 11
1246.7353864895813
 21
1123.8642826045293
  0
LINE
  8
_0-1_計細線
  6
CONTINUOUS
 62
    3
 10
1246.6247266222354
 20
1117.8642826045293
 11
1120.9792205215031
 21
1117.8642826045293
  0
LINE
  8
_0-1_計細線
  6
CONTINUOUS
 62
    3
 10
1120.9792205215031
 20
1109.8642826045293
 11
1247.5164280371264
 21
1109.8642826045293
  0
LINE
  8
_0-1_計細線
  6
CONTINUOUS
 62
    3
 10
1248.9981068550369
 20
1103.8642826045293
 11
1120.9792205215031
 21
1103.8642826045293
  0
LINE
  8
_0-1_計細線
  6
CONTINUOUS
 62
    3
 10
1120.9792205215031
 20
1095.8642826045293
 11
1252.1782580796398
 21
1095.8642826045293
  0
LINE
  8
_0-1_計細線
  6
CONTINUOUS
 62
    3
 10
1254.3617442247805
 20
1091.8642826045293
 11
1120.9792205215031
 21
1091.8642826045293
  0
LINE
  8
_0-1_計細線
  6
CONTINUOUS
 62
    3
 10
1120.9792205215031
 20
1087.8642826045293
 11
1257.0159413251076
 21
1087.8642826045293
  0
LINE
  8
_0-5_寸法線
  6
CONTINUOUS
 62
    7
 10
819.47922052150295
 20
1060.8642826045293
 11
819.47922052150261
 21
988.86428260452931
  0
LINE
  8
_0-5_寸法線
  6
CONTINUOUS
 62
    7
 10
819.47922052150261
 20
996.86428260452931
 11
834.93403374212767
 21
1001.0053873261696
  0
LINE
  8
_0-5_寸法線
  6
CONTINUOUS
 62
    7
 10
819.47922052150261
 20
996.86428260452931
 11
834.93403374212767
 21
992.72317788288899
  0
LINE
  8
_0-5_寸法線
  6
CONTINUOUS
 62
    7
 10
1335.4792205215026
 20
1060.8642826045293
 11
1335.4792205215026
 21
988.86428260452931
  0
LINE
  8
_0-5_寸法線
  6
CONTINUOUS
 62
    7
 10
1335.4792205215026
 20
996.86428260452931
 11
1320.0244073008776
 21
992.72317788288899
  0
LINE
  8
_0-5_寸法線
  6
CONTINUOUS
 62
    7
 10
1335.4792205215026
 20
996.86428260452931
 11
1320.0244073008776
 21
1001.0053873261697
  0
LINE
  8
_0-5_寸法線
  6
CONTINUOUS
 62
    7
 10
819.47922052150261
 20
996.86428260452931
 11
1335.4792205215026
 21
996.86428260452931
  0
TEXT
  8
_0-5_寸法線
 62
    7
 10
1059.4792205215026
 20
996.86428260452931
 40
24
 41
1
 50
0
  1
516
  0
LINE
  8
_0-5_寸法線
  6
CONTINUOUS
 62
    7
 10
1335.4792205215026
 20
996.86428260452931
 11
1350.9340337421277
 21
1001.0053873261695
  0
LINE
  8
_0-5_寸法線
  6
CONTINUOUS
 62
    7
 10
1335.4792205215026
 20
996.86428260452931
 11
1350.9340337421277
 21
992.72317788288888
  0
LINE
  8
_0-5_寸法線
  6
CONTINUOUS
 62
    7
 10
1415.4792205215026
 20
1060.8642826045293
 11
1415.4792205215026
 21
988.86428260452931
  0
LINE
  8
_0-5_寸法線
  6
CONTINUOUS
 62
    7
 10
1415.4792205215026
 20
996.86428260452931
 11
1400.0244073008776
 21
992.72317788288899
  0
LINE
  8
_0-5_寸法線
  6
CONTINUOUS
 62
    7
 10
1415.4792205215026
 20
996.86428260452931
 11
1400.0244073008776
 21
1001.0053873261697
  0
LINE
  8
_0-5_寸法線
  6
CONTINUOUS
 62
    7
 10
1335.4792205215026
 20
996.86428260452931
 11
1415.4792205215026
 21
996.86428260452931
  0
TEXT
  8
_0-5_寸法線
 62
    7
 10
1363.4792205215026
 20
996.86428260452931
 40
24
 41
1
 50
0
  1
80
  0
LINE
  8
_0-0_計極細
  6
CENTER2
 62
    2
 10
810.30776126367709
 20
1148.8642826045293
 11
1423.3364818903092
 21
1148.8642826045293
  0
LINE
  8
_0-1_計細線
  6
CONTINUOUS
 62
    3
 10
1524.7036124051358
 20
1220.8642826045291
 11
1517.7036124051356
 21
1220.8642826045291
  0
ARC
  8
_0-1_計細線
  6
CONTINUOUS
 62
    3
 10
1517.7036124051358
 20
1219.8642826045291
 40
1
 50
90.000000000013031
 51
179.99999999999983
  0
LINE
  8
_0-1_計細線
  6
CONTINUOUS
 62
    3
 10
1516.7036124051356
 20
1219.8642826045291
 11
1516.7036124051356
 21
1077.8642826045295
  0
ARC
  8
_0-1_計細線
  6
CONTINUOUS
 62
    3
 10
1517.7036124051356
 20
1077.8642826045295
 40
1
 50
179.99999999999983
 51
269.99999999998664
  0
LINE
  8
_0-1_計細線
  6
CONTINUOUS
 62
    3
 10
1524.7036124051358
 20
1076.8642826045295
 11
1524.7036124051358
 21
1220.8642826045291
  0
LINE
  8
_0-1_計細線
  6
CONTINUOUS
 62
    3
 10
1524.7036124051358
 20
1076.8642826045295
 11
1517.7036124051353
 21
1076.8642826045295
  0
LINE
  8
_0-0_計極細
  6
CENTER2
 62
    2
 10
1477.4613060193985
 20
1148.8642826045293
 11
1592.6843276021305
 21
1148.8642826045293
  0
LINE
  8
_0-1_計細線
  6
CONTINUOUS
 62
    3
 10
1542.2036124051351
 20
1199.8642826045293
 11
1542.2036124051351
 21
1148.8642826045291
  0
ARC
  8
_0-1_計細線
  6
CONTINUOUS
 62
    3
 10
1538.7036124051351
 20
1207.8642826045293
 40
0.5
 50
179.99999999999983
 51
269.99999999999977
  0
LINE
  8
_0-1_計細線
  6
CONTINUOUS
 62
    3
 10
1542.2036124051351
 20
1205.8642826045293
 11
1542.2036124051351
 21
1199.8642826045293
  0
LINE
  8
_0-1_計細線
  6
CONTINUOUS
 62
    3
 10
1538.7036124051351
 20
1207.3642826045293
 11
1540.7036124051351
 21
1207.3642826045293
  0
ARC
  8
_0-1_計細線
  6
CONTINUOUS
 62
    3
 10
1540.7036124051351
 20
1205.8642826045293
 40
1.5
 50
0
 51
89.999999999999915
  0
LINE
  8
_0-1_計細線
  6
CONTINUOUS
 62
    3
 10
1542.2036124051351
 20
1097.8642826045291
 11
1542.2036124051351
 21
1148.8642826045291
  0
ARC
  8
_0-1_計細線
  6
CONTINUOUS
 62
    3
 10
1538.7036124051351
 20
1089.8642826045291
 40
0.5
 50
89.999999999999915
 51
179.99999999999983
  0
LINE
  8
_0-1_計細線
  6
CONTINUOUS
 62
    3
 10
1542.2036124051351
 20
1091.8642826045291
 11
1542.2036124051351
 21
1097.8642826045291
  0
LINE
  8
_0-1_計細線
  6
CONTINUOUS
 62
    3
 10
1538.7036124051351
 20
1090.3642826045291
 11
1540.7036124051351
 21
1090.3642826045291
  0
ARC
  8
_0-1_計細線
  6
CONTINUOUS
 62
    3
 10
1540.7036124051351
 20
1091.8642826045291
 40
1.5
 50
269.99999999999977
 51
359.99999999999966
  0
ARC
  8
_0-1_計細線
  6
CONTINUOUS
 62
    3
 10
1537.2036124051351
 20
1087.8642826045295
 40
1
 50
269.99999999999977
 51
359.99999999999966
  0
LINE
  8
_0-1_計細線
  6
CONTINUOUS
 62
    3
 10
1538.2036124051351
 20
1087.8642826045295
 11
1538.2036124051351
 21
1148.8642826045291
  0
ARC
  8
_0-1_計細線
  6
CONTINUOUS
 62
    3
 10
1537.2036124051351
 20
1209.8642826045295
 40
1
 50
0
 51
89.999999999999915
  0
LINE
  8
_0-1_計細線
  6
CONTINUOUS
 62
    3
 10
1538.2036124051353
 20
1209.8642826045295
 11
1538.2036124051351
 21
1148.8642826045291
  0
LINE
  8
_0-1_計細線
  6
CONTINUOUS
 62
    3
 10
1526.2036124051353
 20
1086.8642826045295
 11
1561.2036124051358
 21
1086.8642826045295
  0
LINE
  8
_0-1_計細線
  6
CONTINUOUS
 62
    3
 10
1561.2036124051358
 20
1086.8642826045295
 11
1561.2036124051358
 21
1085.6642826045302
  0
LINE
  8
_0-1_計細線
  6
CONTINUOUS
 62
    3
 10
1561.2036124051358
 20
1085.6642826045302
 11
1526.2036124051353
 21
1085.6642826045302
  0
LINE
  8
_0-1_計細線
  6
CONTINUOUS
 62
    3
 10
1526.2036124051353
 20
1085.6642826045302
 11
1526.2036124051353
 21
1086.8642826045295
  0
LINE
  8
_0-1_計細線
  6
CONTINUOUS
 62
    3
 10
1528.2036124051353
 20
1085.6642826045302
 11
1528.2036124051353
 21
1086.8642826045295
  0
LINE
  8
_0-1_計細線
  6
CONTINUOUS
 62
    3
 10
1538.2036124051353
 20
1085.6642826045302
 11
1538.2036124051353
 21
1086.8642826045295
  0
LINE
  8
_0-1_計細線
  6
CONTINUOUS
 62
    3
 10
1540.2036124051353
 20
1085.6642826045302
 11
1540.2036124051353
 21
1086.8642826045295
  0
LINE
  8
_0-1_計細線
  6
CONTINUOUS
 62
    3
 10
1542.2036124051356
 20
1085.6642826045302
 11
1542.2036124051356
 21
1086.8642826045295
  0
LINE
  8
_0-1_計細線
  6
CONTINUOUS
 62
    3
 10
1544.2036124051353
 20
1085.6642826045302
 11
1544.2036124051353
 21
1086.8642826045295
  0
LINE
  8
_0-1_計細線
  6
CONTINUOUS
 62
    3
 10
1558.2036124051353
 20
1085.6642826045302
 11
1558.2036124051353
 21
1086.8642826045295
  0
LINE
  8
_0-1_計細線
  6
CONTINUOUS
 62
    3
 10
1526.2036124051356
 20
1212.0642826045291
 11
1561.2036124051358
 21
1212.0642826045289
  0
LINE
  8
_0-1_計細線
  6
CONTINUOUS
 62
    3
 10
1561.2036124051358
 20
1212.0642826045289
 11
1561.2036124051358
 21
1210.8642826045293
  0
LINE
  8
_0-1_計細線
  6
CONTINUOUS
 62
    3
 10
1561.2036124051358
 20
1210.8642826045293
 11
1526.2036124051356
 21
1210.8642826045295
  0
LINE
  8
_0-1_計細線
  6
CONTINUOUS
 62
    3
 10
1526.2036124051356
 20
1210.8642826045295
 11
1526.2036124051356
 21
1212.0642826045291
  0
LINE
  8
_0-1_計細線
  6
CONTINUOUS
 62
    3
 10
1528.2036124051356
 20
1210.8642826045295
 11
1528.2036124051356
 21
1212.0642826045291
  0
LINE
  8
_0-1_計細線
  6
CONTINUOUS
 62
    3
 10
1538.2036124051356
 20
1210.8642826045295
 11
1538.2036124051356
 21
1212.0642826045291
  0
LINE
  8
_0-1_計細線
  6
CONTINUOUS
 62
    3
 10
1540.2036124051356
 20
1210.8642826045293
 11
1540.2036124051356
 21
1212.0642826045291
  0
LINE
  8
_0-1_計細線
  6
CONTINUOUS
 62
    3
 10
1542.2036124051356
 20
1210.8642826045293
 11
1542.2036124051356
 21
1212.0642826045291
  0
LINE
  8
_0-1_計細線
  6
CONTINUOUS
 62
    3
 10
1544.2036124051356
 20
1210.8642826045293
 11
1544.2036124051356
 21
1212.0642826045291
  0
LINE
  8
_0-1_計細線
  6
CONTINUOUS
 62
    3
 10
1558.2036124051358
 20
1210.8642826045293
 11
1558.2036124051358
 21
1212.0642826045289
  0
LINE
  8
_0-1_計細線
  6
CONTINUOUS
 62
    3
 10
1537.2036124051351
 20
1210.8642826045295
 11
1524.7036124051358
 21
1210.8642826045295
  0
LINE
  8
_0-1_計細線
  6
CONTINUOUS
 62
    3
 10
1537.2036124051349
 20
1086.8642826045295
 11
1524.7036124051356
 21
1086.8642826045295
  0
LINE
  8
_0-a_極細1
  6
CONTINUOUS
 62
    7
 10
1861.2703120523061
 20
506.47284620872313
 11
1866.6504800691332
 21
511.85301422554892
  0
LINE
  8
_0-a_極細1
  6
CONTINUOUS
 62
    7
 10
1860.9696048378178
 20
494.8584304952509
 11
1877.9641885681162
 21
511.85301422554892
  0
LINE
  8
_0-a_極細1
  6
CONTINUOUS
 62
    7
 10
1853.552330132487
 20
476.12744729093481
 11
1889.2778970671029
 21
511.85301422554892
  0
LINE
  8
_0-a_極細1
  6
CONTINUOUS
 62
    7
 10
1850.6916037671749
 20
461.95301242663697
 11
1900.5916055660859
 21
511.85301422554892
  0
LINE
  8
_0-a_極細1
  6
CONTINUOUS
 62
    7
 10
1851.7895747486295
 20
451.73727490910721
 11
1911.9053140650726
 21
511.85301422554892
  0
LINE
  8
_0-a_極細1
  6
CONTINUOUS
 62
    7
 10
1859.2190225640556
 20
447.85301422554846
 11
1923.2190225640556
 21
511.85301422554892
  0
LINE
  8
_0-a_極細1
  6
CONTINUOUS
 62
    7
 10
1870.5327310630405
 20
447.85301422554846
 11
1934.5327310630405
 21
511.85301422554846
  0
LINE
  8
_0-a_極細1
  6
CONTINUOUS
 62
    7
 10
1881.8464395620254
 20
447.85301422554846
 11
1945.8464395620254
 21
511.85301422554846
  0
LINE
  8
_0-a_極細1
  6
CONTINUOUS
 62
    7
 10
1893.1601480610102
 20
447.85301422554846
 11
1957.1601480610102
 21
511.85301422554846
  0
LINE
  8
_0-a_極細1
  6
CONTINUOUS
 62
    7
 10
1904.4738565599951
 20
447.85301422554846
 11
1968.4738565599951
 21
511.85301422554846
  0
LINE
  8
_0-a_極細1
  6
CONTINUOUS
 62
    7
 10
1915.7875650589799
 20
447.85301422554846
 11
1979.7875650589799
 21
511.85301422554846
  0
LINE
  8
_0-a_極細1
  6
CONTINUOUS
 62
    7
 10
1927.1012735579648
 20
447.85301422554846
 11
1991.1012735579648
 21
511.85301422554846
  0
LINE
  8
_0-a_極細1
  6
CONTINUOUS
 62
    7
 10
1938.4149820569496
 20
447.85301422554846
 11
2002.4149820569496
 21
511.85301422554846
  0
LINE
  8
_0-a_極細1
  6
CONTINUOUS
 62
    7
 10
1949.7286905559345
 20
447.85301422554846
 11
2013.7286905559345
 21
511.85301422554846
  0
LINE
  8
_0-a_極細1
  6
CONTINUOUS
 62
    7
 10
1961.0423990549193
 20
447.85301422554846
 11
2025.0423990549193
 21
511.85301422554846
  0
LINE
  8
_0-a_極細1
  6
CONTINUOUS
 62
    7
 10
1972.3561075539042
 20
447.85301422554846
 11
2036.3561075539042
 21
511.85301422554846
  0
LINE
  8
_0-a_極細1
  6
CONTINUOUS
 62
    7
 10
1983.669816052889
 20
447.85301422554846
 11
2047.669816052889
 21
511.85301422554846
  0
LINE
  8
_0-a_極細1
  6
CONTINUOUS
 62
    7
 10
1994.9835245518739
 20
447.85301422554846
 11
2058.9835245518739
 21
511.85301422554846
  0
LINE
  8
_0-a_極細1
  6
CONTINUOUS
 62
    7
 10
2006.2972330508587
 20
447.85301422554846
 11
2066.9454844572942
 21
508.50126563198398
  0
LINE
  8
_0-a_極細1
  6
CONTINUOUS
 62
    7
 10
2017.6109415498436
 20
447.85301422554846
 11
2067.3053995776886
 21
497.54747225339349
  0
LINE
  8
_0-a_極細1
  6
CONTINUOUS
 62
    7
 10
2028.9246500488284
 20
447.85301422554846
 11
2061.5618459705734
 21
480.49021014729249
  0
LINE
  8
_0-a_極細1
  6
CONTINUOUS
 62
    7
 10
2040.2383585478133
 20
447.85301422554846
 11
2056.7815268036907
 21
464.39618248142585
  0
LINE
  8
_0-a_極細1
  6
CONTINUOUS
 62
    7
 10
2051.5520670467981
 20
447.85301422554846
 11
2057.3493561217988
 21
453.65030330054913
  0
LINE
  8
_0-a_極細1
  6
CONTINUOUS
 62
    7
 10
2062.865775545783
 20
511.85301422554846
 11
2067.082988598168
 21
507.63580117316531
  0
LINE
  8
_0-a_極細1
  6
CONTINUOUS
 62
    7
 10
2051.5520670467999
 20
511.85301422554846
 11
2067.1510948595919
 21
496.25398641275558
  0
LINE
  8
_0-a_極細1
  6
CONTINUOUS
 62
    7
 10
2040.2383585478133
 20
511.85301422554846
 11
2064.8519186586823
 21
487.23945411468037
  0
LINE
  8
_0-a_極細1
  6
CONTINUOUS
 62
    7
 10
2028.9246500488302
 20
511.85301422554846
 11
2061.1216390601007
 21
479.65602521427707
  0
LINE
  8
_0-a_極細1
  6
CONTINUOUS
 62
    7
 10
2017.6109415498436
 20
511.85301422554846
 11
2057.9886622894051
 21
471.47529348598835
  0
LINE
  8
_0-a_極細1
  6
CONTINUOUS
 62
    7
 10
2006.2972330508605
 20
511.85301422554846
 11
2056.6525185917058
 21
461.49772868470325
  0
LINE
  8
_0-a_極細1
  6
CONTINUOUS
 62
    7
 10
1994.9835245518757
 20
511.85301422554846
 11
2058.8417850217361
 21
447.9947537556867
  0
LINE
  8
_0-a_極細1
  6
CONTINUOUS
 62
    7
 10
1983.6698160528908
 20
511.85301422554846
 11
2047.6698160528908
 21
447.85301422554846
  0
LINE
  8
_0-a_極細1
  6
CONTINUOUS
 62
    7
 10
1972.356107553906
 20
511.85301422554846
 11
2036.3561075539042
 21
447.85301422554846
  0
LINE
  8
_0-a_極細1
  6
CONTINUOUS
 62
    7
 10
1961.0423990549211
 20
511.85301422554846
 11
2025.0423990549211
 21
447.85301422554846
  0
LINE
  8
_0-a_極細1
  6
CONTINUOUS
 62
    7
 10
1949.7286905559363
 20
511.85301422554846
 11
2013.7286905559363
 21
447.85301422554846
  0
LINE
  8
_0-a_極細1
  6
CONTINUOUS
 62
    7
 10
1938.4149820569514
 20
511.85301422554846
 11
2002.4149820569514
 21
447.85301422554846
  0
LINE
  8
_0-a_極細1
  6
CONTINUOUS
 62
    7
 10
1927.1012735579666
 20
511.85301422554846
 11
1991.1012735579666
 21
447.85301422554846
  0
LINE
  8
_0-a_極細1
  6
CONTINUOUS
 62
    7
 10
1915.7875650589817
 20
511.85301422554892
 11
1979.7875650589817
 21
447.85301422554846
  0
LINE
  8
_0-a_極細1
  6
CONTINUOUS
 62
    7
 10
1904.4738565599969
 20
511.85301422554892
 11
1968.4738565599969
 21
447.85301422554846
  0
LINE
  8
_0-a_極細1
  6
CONTINUOUS
 62
    7
 10
1893.160148061012
 20
511.85301422554892
 11
1957.160148061012
 21
447.85301422554846
  0
LINE
  8
_0-a_極細1
  6
CONTINUOUS
 62
    7
 10
1881.8464395620272
 20
511.85301422554892
 11
1945.8464395620272
 21
447.85301422554846
  0
LINE
  8
_0-a_極細1
  6
CONTINUOUS
 62
    7
 10
1870.5327310630423
 20
511.85301422554892
 11
1934.5327310630423
 21
447.85301422554846
  0
LINE
  8
_0-a_極細1
  6
CONTINUOUS
 62
    7
 10
1860.5905541493926
 20
510.48148264021563
 11
1923.2190225640575
 21
447.85301422554846
  0
LINE
  8
_0-a_極細1
  6
CONTINUOUS
 62
    7
 10
1861.412275602594
 20
498.34605268802795
 11
1911.9053140650726
 21
447.85301422554846
  0
LINE
  8
_0-a_極細1
  6
CONTINUOUS
 62
    7
 10
1859.4941192787123
 20
488.95050051292571
 11
1900.5916055660896
 21
447.85301422554846
  0
LINE
  8
_0-a_極細1
  6
CONTINUOUS
 62
    7
 10
1855.9678507433514
 20
481.16306054930089
 11
1889.2778970671029
 21
447.85301422554846
  0
LINE
  8
_0-a_極細1
  6
CONTINUOUS
 62
    7
 10
1852.5405020178828
 20
473.27670077578466
 11
1877.9641885681199
 21
447.85301422554846
  0
LINE
  8
_0-a_極細1
  6
CONTINUOUS
 62
    7
 10
1850.7664793626977
 20
463.73701493198485
 11
1866.6504800691332
 21
447.85301422554846
  0
LINE
  8
_0-a_極細1
  6
CONTINUOUS
 62
    7
 10
1851.8986157930017
 20
451.29117000269696
 11
1855.3367715701502
 21
447.85301422554846
  0
ARC
  8
_0-a_極細1
  6
CONTINUOUS
 62
    7
 10
2026.9590005539962
 20
501.70459695909528
 40
40.559999999972042
 50
329.9999999999639
 51
30.000000000012992
  0
ARC
  8
_0-a_極細1
  6
CONTINUOUS
 62
    7
 10
2097.210981308845
 20
461.14459695910853
 40
40.559999999917657
 50
149.99999999994796
 51
210.00000000010346
  0
ARC
  8
_0-a_極細1
  6
CONTINUOUS
 62
    7
 10
1820.9915658070327
 20
501.70459695909528
 40
40.559999999972042
 50
329.99999999996328
 51
30.000000000012331
  0
ARC
  8
_0-a_極細1
  6
CONTINUOUS
 62
    7
 10
1891.2435465618805
 20
461.14459695910853
 40
40.559999999917657
 50
149.99999999994796
 51
210.00000000010346
  0
LINE
  8
_0-b_細線1
  6
CONTINUOUS
 62
    7
 10
2058.8906547388619
 20
447.85301422554846
 11
1852.9232199918974
 21
447.85301422554846
  0
LINE
  8
_0-b_細線1
  6
CONTINUOUS
 62
    7
 10
1860.2614426464593
 20
511.85301422554846
 11
2066.2288773934238
 21
511.85301422554846
  0
LINE
  8
_0-d_寸法1
  6
CONTINUOUS
 62
    7
 10
1838.2423657196746
 20
447.85301422554852
 11
1761.0680941353717
 21
447.85301422554846
  0
LINE
  8
_0-d_寸法1
  6
CONTINUOUS
 62
    7
 10
1769.0680941353717
 20
447.85301422554846
 11
1764.9269894137315
 21
463.30782744617358
  0
LINE
  8
_0-d_寸法1
  6
CONTINUOUS
 62
    7
 10
1769.0680941353717
 20
447.85301422554846
 11
1773.2091988570121
 21
463.30782744617358
  0
LINE
  8
_0-d_寸法1
  6
CONTINUOUS
 62
    7
 10
1844.2614426464575
 20
511.85301422554852
 11
1761.0680941353717
 21
511.85301422554846
  0
LINE
  8
_0-d_寸法1
  6
CONTINUOUS
 62
    7
 10
1769.0680941353717
 20
511.85301422554846
 11
1773.2091988570121
 21
496.39820100492335
  0
LINE
  8
_0-d_寸法1
  6
CONTINUOUS
 62
    7
 10
1769.0680941353717
 20
511.85301422554846
 11
1764.9269894137315
 21
496.39820100492335
  0
LINE
  8
_0-d_寸法1
  6
CONTINUOUS
 62
    7
 10
1769.0680941353717
 20
447.85301422554846
 11
1769.0680941353717
 21
511.85301422554846
  0
TEXT
  8
_0-d_寸法1
 62
    7
 10
1769.0680941353717
 20
473.85301422554846
 40
24
 41
1
 50
90
  1
8
  0
TEXT
  8
_0-7_枠細線
 62
    5
 10
1914.6349561496336
 20
401.33201984568689
 40
28.000000000000004
 41
0.8000000000000001
 50
0
  1
表面形状
  0
TEXT
  8
_0-7_枠細線
 62
    5
 10
1536.8000000000002
 20
239.24855752183862
 40
32
 41
0.5
 50
0
  1
排水ユニット ＳＵＳグレーチング Ｔバー 浅型
  0
TEXT
  8
_0-7_枠細線
 62
    5
 10
2096
 20
108
 40
24
 41
0.6666666666666666
 50
0
  1
２０１９年０４月０１日
  0
LINE
  8
_0-5_寸法線
  6
CONTINUOUS
 62
    7
 10
1516.7036124051356
 20
1236.8642826045291
 11
1516.7036124051358
 21
1364.8642826045291
  0
LINE
  8
_0-5_寸法線
  6
CONTINUOUS
 62
    7
 10
1516.7036124051358
 20
1356.8642826045291
 11
1532.1584256257609
 21
1361.0053873261695
  0
LINE
  8
_0-5_寸法線
  6
CONTINUOUS
 62
    7
 10
1516.7036124051358
 20
1356.8642826045291
 11
1532.1584256257609
 21
1352.7231778828886
  0
LINE
  8
_0-5_寸法線
  6
CONTINUOUS
 62
    7
 10
1561.2036124051358
 20
1228.0642826045291
 11
1561.203612405136
 21
1364.8642826045291
  0
LINE
  8
_0-5_寸法線
  6
CONTINUOUS
 62
    7
 10
1561.203612405136
 20
1356.8642826045291
 11
1545.748799184511
 21
1352.7231778828889
  0
LINE
  8
_0-5_寸法線
  6
CONTINUOUS
 62
    7
 10
1561.203612405136
 20
1356.8642826045291
 11
1545.748799184511
 21
1361.0053873261695
  0
LINE
  8
_0-5_寸法線
  6
CONTINUOUS
 62
    7
 10
1516.7036124051358
 20
1356.8642826045291
 11
1561.203612405136
 21
1356.8642826045291
  0
TEXT
  8
_0-5_寸法線
 62
    7
 10
1514.953612405136
 20
1356.8642826045291
 40
24
 41
1
 50
0
  1
44.5
  0
LINE
  8
_0-5_寸法線
  6
CONTINUOUS
 62
    7
 10
1516.7036124051358
 20
1236.8642826045291
 11
1516.703612405136
 21
1308.8642826045291
  0
LINE
  8
_0-5_寸法線
  6
CONTINUOUS
 62
    7
 10
1516.703612405136
 20
1300.8642826045291
 11
1501.248799184511
 21
1296.7231778828889
  0
LINE
  8
_0-5_寸法線
  6
CONTINUOUS
 62
    7
 10
1516.703612405136
 20
1300.8642826045291
 11
1501.248799184511
 21
1305.0053873261695
  0
LINE
  8
_0-5_寸法線
  6
CONTINUOUS
 62
    7
 10
1538.2036124051356
 20
1228.0642826045291
 11
1538.2036124051358
 21
1308.8642826045291
  0
CIRCLE
  8
_0-5_寸法線
  6
CONTINUOUS
 62
    1
 10
1538.2036124051358
 20
1300.8642826045291
 40
2.3999999999999999
  0
LINE
  8
_0-5_寸法線
  6
CONTINUOUS
 62
    7
 10
1454.2245186871976
 20
1300.8642826045291
 11
1538.2036124051358
 21
1300.8642826045291
  0
TEXT
  8
_0-5_寸法線
 62
    7
 10
1454.2245186871978
 20
1300.851875158558
 40
24
 41
1
 50
0
  1
21.5
  0
LINE
  8
_0-5_寸法線
  6
CONTINUOUS
 62
    7
 10
1561.2036124051358
 20
1228.0642826045291
 11
1561.203612405136
 21
1308.8642826045291
  0
LINE
  8
_0-5_寸法線
  6
CONTINUOUS
 62
    7
 10
1561.203612405136
 20
1300.8642826045291
 11
1576.6584256257611
 21
1305.0053873261693
  0
LINE
  8
_0-5_寸法線
  6
CONTINUOUS
 62
    7
 10
1561.203612405136
 20
1300.8642826045291
 11
1576.6584256257611
 21
1296.7231778828886
  0
LINE
  8
_0-5_寸法線
  6
CONTINUOUS
 62
    7
 10
1538.2036124051358
 20
1300.8642826045291
 11
1609.0559573866228
 21
1300.8642826045291
  0
TEXT
  8
_0-5_寸法線
 62
    7
 10
1585.055957386623
 20
1300.8518751585584
 40
24
 41
1
 50
0
  1
23
  0
LINE
  8
_0-1_計細線
  6
CONTINUOUS
 62
    3
 10
833.97922052150318
 20
1209.8642826045293
 11
830.97922052150318
 21
1209.8642826045293
  0
LINE
  8
_0-1_計細線
  6
CONTINUOUS
 62
    3
 10
830.97922052150318
 20
1209.8642826045293
 11
830.97922052150318
 21
1087.8642826045293
  0
LINE
  8
_0-1_計細線
  6
CONTINUOUS
 62
    3
 10
830.97922052150318
 20
1087.8642826045293
 11
833.97922052150318
 21
1087.8642826045293
  0
LINE
  8
_0-1_計細線
  6
CONTINUOUS
 62
    3
 10
833.97922052150318
 20
1087.8642826045293
 11
833.97922052150318
 21
1209.8642826045293
  0
LINE
  8
_0-1_計細線
  6
CONTINUOUS
 62
    3
 10
833.97922052150318
 20
1201.8642826045293
 11
833.97922052150318
 21
1193.8642826045293
  0
LINE
  8
_0-1_計細線
  6
CONTINUOUS
 62
    3
 10
833.97922052150318
 20
1193.8642826045293
 11
1113.9792205215031
 21
1193.8642826045293
  0
LINE
  8
_0-1_計細線
  6
CONTINUOUS
 62
    3
 10
1113.9792205215031
 20
1193.8642826045293
 11
1113.9792205215031
 21
1201.8642826045293
  0
LINE
  8
_0-1_計細線
  6
CONTINUOUS
 62
    3
 10
1113.9792205215031
 20
1201.8642826045293
 11
833.97922052150318
 21
1201.8642826045293
  0
LINE
  8
_0-1_計細線
  6
CONTINUOUS
 62
    3
 10
833.97922052150318
 20
1187.8642826045293
 11
833.97922052150318
 21
1179.8642826045302
  0
LINE
  8
_0-1_計細線
  6
CONTINUOUS
 62
    3
 10
833.97922052150318
 20
1179.8642826045302
 11
1113.9792205215031
 21
1179.8642826045302
  0
LINE
  8
_0-1_計細線
  6
CONTINUOUS
 62
    3
 10
1113.9792205215031
 20
1179.8642826045302
 11
1113.9792205215031
 21
1187.8642826045293
  0
LINE
  8
_0-1_計細線
  6
CONTINUOUS
 62
    3
 10
1113.9792205215031
 20
1187.8642826045293
 11
833.97922052150318
 21
1187.8642826045293
  0
LINE
  8
_0-1_計細線
  6
CONTINUOUS
 62
    3
 10
833.97922052150318
 20
1173.8642826045293
 11
833.97922052150318
 21
1165.8642826045298
  0
LINE
  8
_0-1_計細線
  6
CONTINUOUS
 62
    3
 10
833.97922052150318
 20
1165.8642826045298
 11
1113.9792205215031
 21
1165.8642826045298
  0
LINE
  8
_0-1_計細線
  6
CONTINUOUS
 62
    3
 10
1113.9792205215031
 20
1165.8642826045298
 11
1113.9792205215031
 21
1173.8642826045293
  0
LINE
  8
_0-1_計細線
  6
CONTINUOUS
 62
    3
 10
1113.9792205215031
 20
1173.8642826045293
 11
833.97922052150318
 21
1173.8642826045293
  0
LINE
  8
_0-1_計細線
  6
CONTINUOUS
 62
    3
 10
833.97922052150318
 20
1159.8642826045293
 11
833.97922052150318
 21
1151.8642826045298
  0
LINE
  8
_0-1_計細線
  6
CONTINUOUS
 62
    3
 10
833.97922052150318
 20
1151.8642826045298
 11
1113.9792205215031
 21
1151.8642826045298
  0
LINE
  8
_0-1_計細線
  6
CONTINUOUS
 62
    3
 10
1113.9792205215031
 20
1151.8642826045298
 11
1113.9792205215031
 21
1159.8642826045293
  0
LINE
  8
_0-1_計細線
  6
CONTINUOUS
 62
    3
 10
1113.9792205215031
 20
1159.8642826045293
 11
833.97922052150318
 21
1159.8642826045293
  0
LINE
  8
_0-1_計細線
  6
CONTINUOUS
 62
    3
 10
833.97922052150318
 20
1145.8642826045293
 11
833.97922052150318
 21
1137.8642826045293
  0
LINE
  8
_0-1_計細線
  6
CONTINUOUS
 62
    3
 10
833.97922052150318
 20
1137.8642826045293
 11
1113.9792205215031
 21
1137.8642826045293
  0
LINE
  8
_0-1_計細線
  6
CONTINUOUS
 62
    3
 10
1113.9792205215031
 20
1137.8642826045293
 11
1113.9792205215031
 21
1145.8642826045293
  0
LINE
  8
_0-1_計細線
  6
CONTINUOUS
 62
    3
 10
1113.9792205215031
 20
1145.8642826045293
 11
833.97922052150318
 21
1145.8642826045293
  0
LINE
  8
_0-1_計細線
  6
CONTINUOUS
 62
    3
 10
833.97922052150318
 20
1131.8642826045293
 11
833.97922052150318
 21
1123.8642826045293
  0
LINE
  8
_0-1_計細線
  6
CONTINUOUS
 62
    3
 10
833.97922052150318
 20
1123.8642826045293
 11
1113.9792205215031
 21
1123.8642826045293
  0
LINE
  8
_0-1_計細線
  6
CONTINUOUS
 62
    3
 10
1113.9792205215031
 20
1123.8642826045293
 11
1113.9792205215031
 21
1131.8642826045293
  0
LINE
  8
_0-1_計細線
  6
CONTINUOUS
 62
    3
 10
1113.9792205215031
 20
1131.8642826045293
 11
833.97922052150318
 21
1131.8642826045293
  0
LINE
  8
_0-1_計細線
  6
CONTINUOUS
 62
    3
 10
833.97922052150318
 20
1117.8642826045293
 11
833.97922052150318
 21
1109.8642826045293
  0
LINE
  8
_0-1_計細線
  6
CONTINUOUS
 62
    3
 10
833.97922052150318
 20
1109.8642826045293
 11
1113.9792205215031
 21
1109.8642826045293
  0
LINE
  8
_0-1_計細線
  6
CONTINUOUS
 62
    3
 10
1113.9792205215031
 20
1109.8642826045293
 11
1113.9792205215031
 21
1117.8642826045293
  0
LINE
  8
_0-1_計細線
  6
CONTINUOUS
 62
    3
 10
1113.9792205215031
 20
1117.8642826045293
 11
833.97922052150318
 21
1117.8642826045293
  0
LINE
  8
_0-1_計細線
  6
CONTINUOUS
 62
    3
 10
833.97922052150318
 20
1103.8642826045293
 11
833.97922052150318
 21
1095.8642826045293
  0
LINE
  8
_0-1_計細線
  6
CONTINUOUS
 62
    3
 10
833.97922052150318
 20
1095.8642826045293
 11
1113.9792205215031
 21
1095.8642826045293
  0
LINE
  8
_0-1_計細線
  6
CONTINUOUS
 62
    3
 10
1113.9792205215031
 20
1095.8642826045293
 11
1113.9792205215031
 21
1103.8642826045293
  0
LINE
  8
_0-1_計細線
  6
CONTINUOUS
 62
    3
 10
1113.9792205215031
 20
1103.8642826045293
 11
833.97922052150318
 21
1103.8642826045293
  0
LINE
  8
_0-1_計細線
  6
CONTINUOUS
 62
    3
 10
833.97922052150318
 20
1209.8642826045293
 11
833.97922052150318
 21
1205.8642826045293
  0
LINE
  8
_0-1_計細線
  6
CONTINUOUS
 62
    3
 10
833.97922052150318
 20
1205.8642826045293
 11
1113.9792205215031
 21
1205.8642826045293
  0
LINE
  8
_0-1_計細線
  6
CONTINUOUS
 62
    3
 10
1113.9792205215031
 20
1205.8642826045293
 11
1113.9792205215031
 21
1209.8642826045293
  0
LINE
  8
_0-1_計細線
  6
CONTINUOUS
 62
    3
 10
1113.9792205215031
 20
1209.8642826045293
 11
833.97922052150318
 21
1209.8642826045293
  0
LINE
  8
_0-1_計細線
  6
CONTINUOUS
 62
    3
 10
833.97922052150318
 20
1091.8642826045293
 11
833.97922052150318
 21
1087.8642826045293
  0
LINE
  8
_0-1_計細線
  6
CONTINUOUS
 62
    3
 10
833.97922052150318
 20
1087.8642826045293
 11
1113.9792205215031
 21
1087.8642826045293
  0
LINE
  8
_0-1_計細線
  6
CONTINUOUS
 62
    3
 10
1113.9792205215031
 20
1087.8642826045293
 11
1113.9792205215031
 21
1091.8642826045293
  0
LINE
  8
_0-1_計細線
  6
CONTINUOUS
 62
    3
 10
1113.9792205215031
 20
1091.8642826045293
 11
833.97922052150318
 21
1091.8642826045293
  0
LINE
  8
_0-5_寸法線
  6
CONTINUOUS
 62
    7
 10
830.97922052150318
 20
1236.8642826045293
 11
830.97922052150318
 21
1364.8642826045293
  0
LINE
  8
_0-5_寸法線
  6
CONTINUOUS
 62
    7
 10
830.97922052150318
 20
1356.8642826045293
 11
846.43403374212824
 21
1361.0053873261697
  0
LINE
  8
_0-5_寸法線
  6
CONTINUOUS
 62
    7
 10
830.97922052150318
 20
1356.8642826045293
 11
846.43403374212824
 21
1352.7231778828889
  0
LINE
  8
_0-5_寸法線
  6
CONTINUOUS
 62
    7
 10
1116.9792205215031
 20
1236.8642826045293
 11
1116.9792205215031
 21
1364.8642826045293
  0
LINE
  8
_0-5_寸法線
  6
CONTINUOUS
 62
    7
 10
1116.9792205215031
 20
1356.8642826045293
 11
1101.524407300878
 21
1352.7231778828891
  0
LINE
  8
_0-5_寸法線
  6
CONTINUOUS
 62
    7
 10
1116.9792205215031
 20
1356.8642826045293
 11
1101.524407300878
 21
1361.0053873261697
  0
LINE
  8
_0-5_寸法線
  6
CONTINUOUS
 62
    7
 10
830.97922052150318
 20
1356.8642826045293
 11
1116.9792205215031
 21
1356.8642826045293
  0
TEXT
  8
_0-5_寸法線
 62
    7
 10
955.97922052150307
 20
1356.8642826045293
 40
24
 41
1
 50
0
  1
286
  0
LINE
  8
_0-5_寸法線
  6
CONTINUOUS
 62
    7
 10
1117.9792205215031
 20
1236.8642826045293
 11
1117.9792205215031
 21
1364.8642826045293
  0
LINE
  8
_0-5_寸法線
  6
CONTINUOUS
 62
    7
 10
1117.9792205215031
 20
1356.8642826045293
 11
1133.4340337421281
 21
1361.0053873261697
  0
LINE
  8
_0-5_寸法線
  6
CONTINUOUS
 62
    7
 10
1117.9792205215031
 20
1356.8642826045293
 11
1133.4340337421281
 21
1352.7231778828889
  0
LINE
  8
_0-5_寸法線
  6
CONTINUOUS
 62
    7
 10
1403.9792205215031
 20
1236.8642826045293
 11
1403.9792205215033
 21
1364.8642826045293
  0
LINE
  8
_0-5_寸法線
  6
CONTINUOUS
 62
    7
 10
1403.9792205215033
 20
1356.8642826045293
 11
1388.5244073008782
 21
1352.7231778828891
  0
LINE
  8
_0-5_寸法線
  6
CONTINUOUS
 62
    7
 10
1403.9792205215033
 20
1356.8642826045293
 11
1388.5244073008782
 21
1361.0053873261697
  0
LINE
  8
_0-5_寸法線
  6
CONTINUOUS
 62
    7
 10
1117.9792205215031
 20
1356.8642826045293
 11
1403.9792205215033
 21
1356.8642826045293
  0
TEXT
  8
_0-5_寸法線
 62
    7
 10
1242.9792205215031
 20
1356.8642826045293
 40
24
 41
1
 50
0
  1
286
  0
LINE
  8
_0-0_計極細
  6
CONTINUOUS
 62
    2
 10
926.47922060951771
 20
1193.8642826045293
 11
926.47922060951771
 21
1187.8642826045293
  0
LINE
  8
_0-0_計極細
  6
CONTINUOUS
 62
    2
 10
921.47922060951771
 20
1187.8642826045293
 11
921.47922060951771
 21
1193.8642826045293
  0
LINE
  8
_0-0_計極細
  6
CONTINUOUS
 62
    2
 10
926.47922060951771
 20
1179.8642826045293
 11
926.47922060951771
 21
1173.8642826045293
  0
LINE
  8
_0-0_計極細
  6
CONTINUOUS
 62
    2
 10
921.47922060951771
 20
1173.8642826045293
 11
921.47922060951771
 21
1179.8642826045293
  0
LINE
  8
_0-0_計極細
  6
CONTINUOUS
 62
    2
 10
926.47922060951771
 20
1165.8642826045293
 11
926.47922060951771
 21
1159.8642826045289
  0
LINE
  8
_0-0_計極細
  6
CONTINUOUS
 62
    2
 10
921.47922060951771
 20
1159.8642826045284
 11
921.47922060951771
 21
1165.8642826045293
  0
LINE
  8
_0-0_計極細
  6
CONTINUOUS
 62
    2
 10
926.47922060951771
 20
1151.8642826045293
 11
926.47922060951771
 21
1145.8642826045289
  0
LINE
  8
_0-0_計極細
  6
CONTINUOUS
 62
    2
 10
921.47922060951771
 20
1145.8642826045284
 11
921.47922060951771
 21
1151.8642826045293
  0
LINE
  8
_0-0_計極細
  6
CONTINUOUS
 62
    2
 10
926.47922060951771
 20
1137.8642826045293
 11
926.47922060951771
 21
1131.8642826045289
  0
LINE
  8
_0-0_計極細
  6
CONTINUOUS
 62
    2
 10
921.47922060951771
 20
1131.8642826045284
 11
921.47922060951771
 21
1137.8642826045293
  0
LINE
  8
_0-0_計極細
  6
CONTINUOUS
 62
    2
 10
926.47922060951771
 20
1123.8642826045293
 11
926.47922060951771
 21
1117.8642826045289
  0
LINE
  8
_0-0_計極細
  6
CONTINUOUS
 62
    2
 10
921.47922060951771
 20
1117.8642826045284
 11
921.47922060951771
 21
1123.8642826045293
  0
LINE
  8
_0-0_計極細
  6
CONTINUOUS
 62
    2
 10
926.47922060951771
 20
1109.8642826045293
 11
926.47922060951771
 21
1103.8642826045289
  0
LINE
  8
_0-0_計極細
  6
CONTINUOUS
 62
    2
 10
921.47922060951771
 20
1103.8642826045284
 11
921.47922060951771
 21
1109.8642826045293
  0
LINE
  8
_0-0_計極細
  6
CONTINUOUS
 62
    2
 10
926.47922060951771
 20
1205.8642826045293
 11
926.47922060951771
 21
1201.8642826045293
  0
LINE
  8
_0-0_計極細
  6
CONTINUOUS
 62
    2
 10
921.47922060951771
 20
1201.8642826045293
 11
921.47922060951771
 21
1205.8642826045293
  0
LINE
  8
_0-0_計極細
  6
CONTINUOUS
 62
    2
 10
926.47922060951771
 20
1095.8642826045293
 11
926.47922060951771
 21
1091.8642826045289
  0
LINE
  8
_0-0_計極細
  6
CONTINUOUS
 62
    2
 10
921.47922060951771
 20
1091.8642826045284
 11
921.47922060951771
 21
1095.8642826045293
  0
LINE
  8
_0-0_計極細
  6
CENTER2
 62
    2
 10
923.97922060951771
 20
1207.8642826045293
 11
923.97922051509397
 21
1089.8642826045293
  0
LINE
  8
_0-0_計極細
  6
CONTINUOUS
 62
    2
 10
1026.4792201808632
 20
1193.8642826045293
 11
1026.4792201808632
 21
1187.8642826045293
  0
LINE
  8
_0-0_計極細
  6
CONTINUOUS
 62
    2
 10
1021.4792201808633
 20
1187.8642826045293
 11
1021.4792201808633
 21
1193.8642826045293
  0
LINE
  8
_0-0_計極細
  6
CONTINUOUS
 62
    2
 10
1026.4792201808632
 20
1179.8642826045293
 11
1026.4792201808632
 21
1173.8642826045293
  0
LINE
  8
_0-0_計極細
  6
CONTINUOUS
 62
    2
 10
1021.4792201808633
 20
1173.8642826045293
 11
1021.4792201808633
 21
1179.8642826045293
  0
LINE
  8
_0-0_計極細
  6
CONTINUOUS
 62
    2
 10
1026.4792201808632
 20
1165.8642826045293
 11
1026.4792201808632
 21
1159.8642826045289
  0
LINE
  8
_0-0_計極細
  6
CONTINUOUS
 62
    2
 10
1021.4792201808633
 20
1159.8642826045284
 11
1021.4792201808633
 21
1165.8642826045293
  0
LINE
  8
_0-0_計極細
  6
CONTINUOUS
 62
    2
 10
1026.4792201808632
 20
1151.8642826045293
 11
1026.4792201808632
 21
1145.8642826045289
  0
LINE
  8
_0-0_計極細
  6
CONTINUOUS
 62
    2
 10
1021.4792201808633
 20
1145.8642826045284
 11
1021.4792201808633
 21
1151.8642826045293
  0
LINE
  8
_0-0_計極細
  6
CONTINUOUS
 62
    2
 10
1026.4792201808632
 20
1137.8642826045293
 11
1026.4792201808632
 21
1131.8642826045289
  0
LINE
  8
_0-0_計極細
  6
CONTINUOUS
 62
    2
 10
1021.4792201808633
 20
1131.8642826045284
 11
1021.4792201808633
 21
1137.8642826045293
  0
LINE
  8
_0-0_計極細
  6
CONTINUOUS
 62
    2
 10
1026.4792201808632
 20
1123.8642826045293
 11
1026.4792201808632
 21
1117.8642826045289
  0
LINE
  8
_0-0_計極細
  6
CONTINUOUS
 62
    2
 10
1021.4792201808633
 20
1117.8642826045284
 11
1021.4792201808633
 21
1123.8642826045293
  0
LINE
  8
_0-0_計極細
  6
CONTINUOUS
 62
    2
 10
1026.4792201808632
 20
1109.8642826045293
 11
1026.4792201808632
 21
1103.8642826045289
  0
LINE
  8
_0-0_計極細
  6
CONTINUOUS
 62
    2
 10
1021.4792201808633
 20
1103.8642826045284
 11
1021.4792201808633
 21
1109.8642826045293
  0
LINE
  8
_0-0_計極細
  6
CONTINUOUS
 62
    2
 10
1026.4792201808632
 20
1205.8642826045293
 11
1026.4792201808632
 21
1201.8642826045293
  0
LINE
  8
_0-0_計極細
  6
CONTINUOUS
 62
    2
 10
1021.4792201808633
 20
1201.8642826045293
 11
1021.4792201808633
 21
1205.8642826045293
  0
LINE
  8
_0-0_計極細
  6
CONTINUOUS
 62
    2
 10
1026.4792201808632
 20
1095.8642826045293
 11
1026.4792201808632
 21
1091.8642826045289
  0
LINE
  8
_0-0_計極細
  6
CONTINUOUS
 62
    2
 10
1021.4792201808633
 20
1091.8642826045284
 11
1021.4792201808633
 21
1095.8642826045293
  0
LINE
  8
_0-0_計極細
  6
CENTER2
 62
    2
 10
1023.9792201808633
 20
1207.8642826045293
 11
1023.9792205632767
 21
1089.8642826045293
  0
LINE
  8
_0-5_寸法線
  6
CONTINUOUS
 62
    7
 10
830.97922052150318
 20
1236.8642826045293
 11
830.97922052150318
 21
1308.8642826045293
  0
LINE
  8
_0-5_寸法線
  6
CONTINUOUS
 62
    7
 10
830.97922052150318
 20
1300.8642826045293
 11
846.43403374212824
 21
1305.0053873261697
  0
LINE
  8
_0-5_寸法線
  6
CONTINUOUS
 62
    7
 10
830.97922052150318
 20
1300.8642826045293
 11
846.43403374212824
 21
1296.7231778828889
  0
LINE
  8
_0-5_寸法線
  6
CONTINUOUS
 62
    7
 10
923.97922051719172
 20
1236.8642826045293
 11
923.97922051719172
 21
1308.8642826045293
  0
LINE
  8
_0-5_寸法線
  6
CONTINUOUS
 62
    7
 10
923.97922051719172
 20
1300.8642826045293
 11
908.52440729656666
 21
1296.7231778828891
  0
LINE
  8
_0-5_寸法線
  6
CONTINUOUS
 62
    7
 10
923.97922051719172
 20
1300.8642826045293
 11
908.52440729656666
 21
1305.0053873261697
  0
LINE
  8
_0-5_寸法線
  6
CONTINUOUS
 62
    7
 10
830.97922052150318
 20
1300.8642826045293
 11
923.97922051719172
 21
1300.8642826045293
  0
TEXT
  8
_0-5_寸法線
 62
    7
 10
865.4792205193479
 20
1300.8642826045293
 40
24
 41
1
 50
0
  1
93
  0
LINE
  8
_0-5_寸法線
  6
CONTINUOUS
 62
    7
 10
923.97922051719172
 20
1300.8642826045293
 11
939.43403373781689
 21
1305.0053873261695
  0
LINE
  8
_0-5_寸法線
  6
CONTINUOUS
 62
    7
 10
923.97922051719172
 20
1300.8642826045293
 11
939.43403373781678
 21
1296.7231778828889
  0
LINE
  8
_0-5_寸法線
  6
CONTINUOUS
 62
    7
 10
1023.9792200885373
 20
1236.8642826045293
 11
1023.9792200885373
 21
1308.8642826045293
  0
LINE
  8
_0-5_寸法線
  6
CONTINUOUS
 62
    7
 10
1023.9792200885373
 20
1300.8642826045293
 11
1008.5244068679123
 21
1296.7231778828891
  0
LINE
  8
_0-5_寸法線
  6
CONTINUOUS
 62
    7
 10
1023.9792200885373
 20
1300.8642826045293
 11
1008.5244068679123
 21
1305.0053873261697
  0
LINE
  8
_0-5_寸法線
  6
CONTINUOUS
 62
    7
 10
923.97922051719172
 20
1300.8642826045293
 11
1023.9792200885373
 21
1300.8642826045293
  0
TEXT
  8
_0-5_寸法線
 62
    7
 10
955.97922030286497
 20
1300.8642826045293
 40
24
 41
1
 50
0
  1
100
  0
LINE
  8
_0-5_寸法線
  6
CONTINUOUS
 62
    7
 10
1023.9792200885373
 20
1300.8642826045293
 11
1039.4340333091625
 21
1305.0053873261695
  0
LINE
  8
_0-5_寸法線
  6
CONTINUOUS
 62
    7
 10
1023.9792200885373
 20
1300.8642826045293
 11
1039.4340333091625
 21
1296.7231778828889
  0
LINE
  8
_0-5_寸法線
  6
CONTINUOUS
 62
    7
 10
1116.9792205215031
 20
1236.8642826045293
 11
1116.9792205215031
 21
1308.8642826045293
  0
LINE
  8
_0-5_寸法線
  6
CONTINUOUS
 62
    7
 10
1116.9792205215031
 20
1300.8642826045293
 11
1101.524407300878
 21
1296.7231778828891
  0
LINE
  8
_0-5_寸法線
  6
CONTINUOUS
 62
    7
 10
1116.9792205215031
 20
1300.8642826045293
 11
1101.524407300878
 21
1305.0053873261697
  0
LINE
  8
_0-5_寸法線
  6
CONTINUOUS
 62
    7
 10
1023.9792200885373
 20
1300.8642826045293
 11
1116.9792205215031
 21
1300.8642826045293
  0
TEXT
  8
_0-5_寸法線
 62
    7
 10
1058.4792203050206
 20
1300.8642826045293
 40
24
 41
1
 50
0
  1
93
  0
LINE
  8
_0-0_計極細
  6
CONTINUOUS
 62
    2
 10
1213.4792206130803
 20
1193.8642826045293
 11
1213.4792206130803
 21
1187.8642826045293
  0
LINE
  8
_0-0_計極細
  6
CONTINUOUS
 62
    2
 10
1208.4792206130803
 20
1187.8642826045293
 11
1208.4792206130803
 21
1193.8642826045293
  0
LINE
  8
_0-0_計極細
  6
CONTINUOUS
 62
    2
 10
1213.4792206130803
 20
1179.8642826045293
 11
1213.4792206130803
 21
1173.8642826045293
  0
LINE
  8
_0-0_計極細
  6
CONTINUOUS
 62
    2
 10
1208.4792206130803
 20
1173.8642826045293
 11
1208.4792206130803
 21
1179.8642826045293
  0
LINE
  8
_0-0_計極細
  6
CONTINUOUS
 62
    2
 10
1213.4792206130803
 20
1165.8642826045293
 11
1213.4792206130803
 21
1159.8642826045289
  0
LINE
  8
_0-0_計極細
  6
CONTINUOUS
 62
    2
 10
1208.4792206130803
 20
1159.8642826045284
 11
1208.4792206130803
 21
1165.8642826045293
  0
LINE
  8
_0-0_計極細
  6
CONTINUOUS
 62
    2
 10
1213.4792206130803
 20
1151.8642826045293
 11
1213.4792206130803
 21
1145.8642826045289
  0
LINE
  8
_0-0_計極細
  6
CONTINUOUS
 62
    2
 10
1208.4792206130803
 20
1145.8642826045284
 11
1208.4792206130803
 21
1151.8642826045293
  0
LINE
  8
_0-0_計極細
  6
CONTINUOUS
 62
    2
 10
1213.4792206130803
 20
1137.8642826045293
 11
1213.4792206130803
 21
1131.8642826045289
  0
LINE
  8
_0-0_計極細
  6
CONTINUOUS
 62
    2
 10
1208.4792206130803
 20
1131.8642826045284
 11
1208.4792206130803
 21
1137.8642826045293
  0
LINE
  8
_0-0_計極細
  6
CONTINUOUS
 62
    2
 10
1213.4792206130803
 20
1123.8642826045293
 11
1213.4792206130803
 21
1117.8642826045289
  0
LINE
  8
_0-0_計極細
  6
CONTINUOUS
 62
    2
 10
1208.4792206130803
 20
1117.8642826045284
 11
1208.4792206130803
 21
1123.8642826045293
  0
LINE
  8
_0-0_計極細
  6
CONTINUOUS
 62
    2
 10
1213.4792206130803
 20
1109.8642826045293
 11
1213.4792206130803
 21
1103.8642826045289
  0
LINE
  8
_0-0_計極細
  6
CONTINUOUS
 62
    2
 10
1208.4792206130803
 20
1103.8642826045284
 11
1208.4792206130803
 21
1109.8642826045293
  0
LINE
  8
_0-0_計極細
  6
CONTINUOUS
 62
    2
 10
1213.4792206130803
 20
1205.8642826045293
 11
1213.4792206130803
 21
1201.8642826045293
  0
LINE
  8
_0-0_計極細
  6
CONTINUOUS
 62
    2
 10
1208.4792206130803
 20
1201.8642826045293
 11
1208.4792206130803
 21
1205.8642826045293
  0
LINE
  8
_0-0_計極細
  6
CONTINUOUS
 62
    2
 10
1213.4792206130803
 20
1095.8642826045293
 11
1213.4792206130803
 21
1091.8642826045289
  0
LINE
  8
_0-0_計極細
  6
CONTINUOUS
 62
    2
 10
1208.4792206130803
 20
1091.8642826045284
 11
1208.4792206130803
 21
1095.8642826045293
  0
LINE
  8
_0-0_計極細
  6
CENTER2
 62
    2
 10
1210.9792206130803
 20
1207.8642826045293
 11
1210.9792205186566
 21
1089.8642826045293
  0
LINE
  8
_0-0_計極細
  6
CENTER2
 62
    2
 10
1310.9792205127469
 20
1207.8642826045293
 11
1310.9792208951603
 21
1089.8642826045293
  0
LINE
  8
_0-1_計細線
  6
CONTINUOUS
 62
    3
 10
1331.478227627279
 20
1075.1080079074923
 11
1331.4782276272872
 21
1073.1015780734083
  0
LINE
  8
_0-1_計細線
  6
CONTINUOUS
 62
    3
 10
1330.4782287272792
 20
1075.1080079074904
 11
1330.4782287272874
 21
1073.1015780734056
  0
LINE
  8
_0-1_計細線
  6
CONTINUOUS
 62
    3
 10
1339.4782188250019
 20
1075.1080079074923
 11
1339.4782188249937
 21
1073.1015780734083
  0
LINE
  8
_0-1_計細線
  6
CONTINUOUS
 62
    3
 10
1340.478217724999
 20
1075.1080079074904
 11
1340.4782177249936
 21
1073.1015780734056
  0
ARC
  8
_0-1_計細線
  6
CONTINUOUS
 62
    3
 10
1329.4782298272876
 20
1073.101578073401
 40
0.9999989000003957
 50
265.47193698641581
 51
0.0000000002601948
  0
ARC
  8
_0-1_計細線
  6
CONTINUOUS
 62
    3
 10
1329.4782298272876
 20
1073.101578073401
 40
1.9999978000008021
 50
265.47193698641991
 51
0.0000000002080846
  0
ARC
  8
_0-1_計細線
  6
CONTINUOUS
 62
    3
 10
1341.4782166249961
 20
1073.101578073401
 40
0.9999989000003957
 50
179.99999999973946
 51
274.52806301358351
  0
ARC
  8
_0-1_計細線
  6
CONTINUOUS
 62
    3
 10
1341.4782166249961
 20
1073.101578073401
 40
1.9999978000008021
 50
179.99999999973946
 51
274.52806301357936
  0
ARC
  8
_0-1_計細線
  6
CONTINUOUS
 62
    3
 10
1329.4782298272821
 20
1075.1080079074895
 40
0.9999989000003957
 50
0.0000000002605513
 51
85.349290995315869
  0
ARC
  8
_0-1_計細線
  6
CONTINUOUS
 62
    3
 10
1341.4782166250016
 20
1075.1080079074895
 40
0.9999989000003957
 50
94.650709004684131
 51
179.99999999973946
  0
ARC
  8
_0-1_計細線
  6
CONTINUOUS
 62
    3
 10
1329.4782298272876
 20
1224.6269867961005
 40
1.9999978000008021
 50
359.99999999976512
 51
94.528063013577324
  0
LINE
  8
_0-1_計細線
  6
CONTINUOUS
 62
    3
 10
1331.478227627279
 20
1222.6205569620047
 11
1331.4782276272872
 21
1224.6269867960923
  0
LINE
  8
_0-1_計細線
  6
CONTINUOUS
 62
    3
 10
1330.4782287272792
 20
1222.6205569620083
 11
1330.4782287272874
 21
1224.626986796095
  0
ARC
  8
_0-1_計細線
  6
CONTINUOUS
 62
    3
 10
1329.4782298272876
 20
1224.6269867961005
 40
0.9999989000003957
 50
359.99999999968696
 51
94.52806301357937
  0
ARC
  8
_0-1_計細線
  6
CONTINUOUS
 62
    3
 10
1329.4782298272821
 20
1222.6205569620138
 40
0.9999989000003957
 50
274.65070900467953
 51
359.99999999979121
  0
ARC
  8
_0-1_計細線
  6
CONTINUOUS
 62
    3
 10
1341.4782166249961
 20
1224.6269867961005
 40
1.9999978000008021
 50
85.471936986422335
 51
180.00000000023414
  0
LINE
  8
_0-1_計細線
  6
CONTINUOUS
 62
    3
 10
1339.4782188250019
 20
1222.6205569620047
 11
1339.4782188249937
 21
1224.6269867960923
  0
LINE
  8
_0-1_計細線
  6
CONTINUOUS
 62
    3
 10
1340.478217724999
 20
1222.6205569620083
 11
1340.4782177249936
 21
1224.626986796095
  0
ARC
  8
_0-1_計細線
  6
CONTINUOUS
 62
    3
 10
1341.4782166249961
 20
1224.6269867961005
 40
0.9999989000003957
 50
85.471936986420275
 51
180.0000000002602
  0
ARC
  8
_0-1_計細線
  6
CONTINUOUS
 62
    3
 10
1341.4782166250016
 20
1222.6205569620138
 40
0.9999989000003957
 50
180.00000000020808
 51
265.34929099531973
  0
LINE
  8
_0-1_計細線
  6
CONTINUOUS
 62
    3
 10
1465.4776482063135
 20
1111.3644513346721
 11
1465.4776482063135
 21
1148.8642824347494
  0
LINE
  8
_0-1_計細線
  6
CONTINUOUS
 62
    3
 10
1464.4776527103131
 20
1110.3644558386709
 11
1446.7672511310229
 21
1110.3644558386709
  0
ARC
  8
_0-1_計細線
  6
CONTINUOUS
 62
    3
 10
1464.4776527103131
 20
1111.3644513346721
 40
0.9999954960020431
 50
269.99999999999977
 51
359.99999999999966
  0
LINE
  8
_0-1_計細線
  6
CONTINUOUS
 62
    3
 10
1445.5635378998268
 20
1111.3644513346721
 11
1445.5635378998268
 21
1148.8642824347494
  0
ARC
  8
_0-1_計細線
  6
CONTINUOUS
 62
    3
 10
1435.0086026582985
 20
1103.8644851146578
 40
4.9999774800103012
 50
269.99999999999977
 51
334.79169788884235
  0
LINE
  8
_0-1_計細線
  6
CONTINUOUS
 62
    3
 10
1435.0086026582985
 20
1098.8645076346452
 11
1427.8087444308876
 21
1098.8645076346452
  0
LINE
  8
_0-1_計細線
  6
CONTINUOUS
 62
    3
 10
1442.2434447668311
 20
1107.4940207461
 11
1439.5324090224876
 21
1101.7349427272143
  0
ARC
  8
_0-1_計細線
  6
CONTINUOUS
 62
    3
 10
1446.7672511310229
 20
1105.3644783586601
 40
4.9999774800103012
 50
89.999999999999915
 51
154.79169788884269
  0
LINE
  8
_0-1_計細線
  6
CONTINUOUS
 62
    3
 10
1464.4776527103131
 20
1187.3641090308288
 11
1446.7672511310175
 21
1187.3641090308288
  0
ARC
  8
_0-1_計細線
  6
CONTINUOUS
 62
    3
 10
1464.4776527103131
 20
1186.3641135348257
 40
0.9999954960020431
 50
0
 51
89.999999999999915
  0
LINE
  8
_0-1_計細線
  6
CONTINUOUS
 62
    3
 10
1465.4776482063135
 20
1186.3641135348257
 11
1465.4776482063135
 21
1148.8642824347494
  0
LINE
  8
_0-1_計細線
  6
CONTINUOUS
 62
    3
 10
1435.0086026582985
 20
1198.8640572348518
 11
1427.8087444308876
 21
1198.8640572348518
  0
LINE
  8
_0-1_計細線
  6
CONTINUOUS
 62
    3
 10
1442.2434447668311
 20
1190.234544123397
 11
1439.5324090224876
 21
1195.9936221422818
  0
ARC
  8
_0-1_計細線
  6
CONTINUOUS
 62
    3
 10
1435.0086026582985
 20
1193.864079754841
 40
4.9999774800103012
 50
25.208302111161736
 51
89.999999999999915
  0
LINE
  8
_0-1_計細線
  6
CONTINUOUS
 62
    3
 10
1445.5635378998268
 20
1186.3641135348257
 11
1445.5635378998268
 21
1148.8642824347494
  0
ARC
  8
_0-1_計細線
  6
CONTINUOUS
 62
    3
 10
1446.7672511310175
 20
1192.3640865108387
 40
4.9999774800103012
 50
205.20830211118022
 51
269.99999999999977
  0
ARC
  8
_0-1_計細線
  6
CONTINUOUS
 62
    3
 10
1160.8101204344121
 20
1148.8642824347494
 40
279.9987388805763
 50
349.95892672538412
 51
10.041073274614618
  0
ARC
  8
_0-1_計細線
  6
CONTINUOUS
 62
    3
 10
1335.478223225281
 20
1148.864282435607
 40
77.999914200031185
 50
67.312929651982785
 51
85.471936986413084
  0
ARC
  8
_0-1_計細線
  6
CONTINUOUS
 62
    3
 10
1335.478223225281
 20
1148.864282435607
 40
76.999915300030807
 50
69.238804446806753
 51
85.471936986412928
  0
ARC
  8
_0-1_計細線
  6
CONTINUOUS
 62
    3
 10
1335.478223225281
 20
1148.864282435607
 40
72.999919700029196
 50
80.691660420521202
 51
85.349290995343679
  0
ARC
  8
_0-1_計細線
  6
CONTINUOUS
 62
    3
 10
1341.4782166250016
 20
1222.6205569620138
 40
1.9999978000008021
 50
180.00000000023414
 51
241.41858827405071
  0
ARC
  8
_0-1_計細線
  6
CONTINUOUS
 62
    3
 10
1329.4782298272821
 20
1222.6205569620138
 40
1.9999978000008021
 50
298.58141172595998
 51
359.99999999976512
  0
ARC
  8
_0-1_計細線
  6
CONTINUOUS
 62
    3
 10
1335.4782232269972
 20
1148.864282435607
 40
72.99991970002921
 50
94.650709004654175
 51
99.607120206697715
  0
ARC
  8
_0-1_計細線
  6
CONTINUOUS
 62
    3
 10
1335.4782232269972
 20
1148.864282435607
 40
76.999915300030793
 50
94.528063013584998
 51
110.73222615762086
  0
ARC
  8
_0-1_計細線
  6
CONTINUOUS
 62
    3
 10
1335.4782232269972
 20
1148.864282435607
 40
77.999914200031199
 50
94.528063013584941
 51
112.61971368823266
  0
ARC
  8
_0-1_計細線
  6
CONTINUOUS
 62
    3
 10
1335.478223225281
 20
1148.8642824338908
 40
77.999914200031185
 50
274.52806301358657
 51
292.61971368822515
  0
ARC
  8
_0-1_計細線
  6
CONTINUOUS
 62
    3
 10
1335.478223225281
 20
1148.8642824338908
 40
76.999915300030807
 50
274.52806301358669
 51
290.76119555318473
  0
ARC
  8
_0-1_計細線
  6
CONTINUOUS
 62
    3
 10
1335.478223225281
 20
1148.8642824338908
 40
72.999919700029196
 50
274.65070900465594
 51
279.36215285983997
  0
ARC
  8
_0-1_計細線
  6
CONTINUOUS
 62
    3
 10
1341.4782166250016
 20
1075.1080079074895
 40
1.9999978000008021
 50
118.58141172648541
 51
179.99999999976549
  0
ARC
  8
_0-1_計細線
  6
CONTINUOUS
 62
    3
 10
1329.4782298272821
 20
1075.1080079074895
 40
1.9999978000008021
 50
0.0000000001823859
 51
63.353613376698831
  0
ARC
  8
_0-1_計細線
  6
CONTINUOUS
 62
    3
 10
1335.4782232269972
 20
1148.8642824338908
 40
72.99991970002921
 50
260.50585233982599
 51
265.34929099534548
  0
ARC
  8
_0-1_計細線
  6
CONTINUOUS
 62
    3
 10
1335.4782232269972
 20
1148.8642824338908
 40
76.999915300030793
 50
249.23880444681311
 51
265.47193698641462
  0
ARC
  8
_0-1_計細線
  6
CONTINUOUS
 62
    3
 10
1335.4782232269972
 20
1148.8642824338908
 40
77.999914200031199
 50
247.38028631177266
 51
265.47193698641269
  0
ARC
  8
_0-1_計細線
  6
CONTINUOUS
 62
    3
 10
1335.4782232261432
 20
1148.8642824347476
 40
97.999892200039184
 50
227.28142374106406
 51
312.71857625893392
  0
ARC
  8
_0-1_計細線
  6
CONTINUOUS
 62
    3
 10
1335.4782232261432
 20
1148.8642824347494
 40
97.999568408158495
 50
324.71909498629577
 51
35.280905013702423
  0
ARC
  8
_0-1_計細線
  6
CONTINUOUS
 62
    3
 10
1335.4782234079203
 20
1148.8642826045293
 40
104.99988433026022
 50
43.291867055704408
 51
136.70813294429541
  0
ARC
  8
_0-1_計細線
  6
CONTINUOUS
 62
    3
 10
1335.4782234079203
 20
1148.8642826045293
 40
103.99988543025984
 50
43.813122016948668
 51
136.18687798305115
  0
ARC
  8
_0-1_計細線
  6
CONTINUOUS
 62
    3
 10
1335.4782234079203
 20
1148.8642826045293
 40
103.99988543025984
 50
223.81312201694786
 51
316.18687798305035
  0
ARC
  8
_0-1_計細線
  6
CONTINUOUS
 62
    3
 10
1335.4782234079203
 20
1148.8642826045293
 40
103.99988543025984
 50
320.28493875450846
 51
39.715061245490183
  0
ARC
  8
_0-1_計細線
  6
CONTINUOUS
 62
    3
 10
1335.4782234079203
 20
1148.8642826045293
 40
104.99988433026022
 50
223.29186705570362
 51
316.70813294429462
  0
ARC
  8
_0-1_計細線
  6
CONTINUOUS
 62
    3
 10
1335.4782234079203
 20
1148.8642826045293
 40
104.99988433026022
 50
319.63248070437118
 51
40.367519295627943
  0
ARC
  8
_0-1_計細線
  6
CONTINUOUS
 62
    3
 10
1334.4782232261432
 20
1148.8642827743111
 40
97.999892200039184
 50
47.28142374106573
 51
132.71857625893557
  0
ARC
  8
_0-1_計細線
  6
CONTINUOUS
 62
    3
 10
820.47922052150307
 20
804.86428260452919
 40
1
 50
89.999999999999915
 51
179.99999999998698
  0
LINE
  8
_0-1_計細線
  6
CONTINUOUS
 62
    3
 10
819.47922052150307
 20
797.86428260452919
 11
819.47922052150307
 21
804.86428260452942
  0
ARC
  8
_0-1_計細線
  6
CONTINUOUS
 62
    3
 10
1414.4792205215026
 20
804.86428260452931
 40
1
 50
0
 51
89.999999999999915
  0
LINE
  8
_0-1_計細線
  6
CONTINUOUS
 62
    3
 10
1415.4792205215026
 20
797.86428260452931
 11
1415.4792205215026
 21
804.86428260452931
  0
ARC
  8
_0-1_計細線
  6
CONTINUOUS
 62
    3
 10
1405.4792205215026
 20
804.86428260452931
 40
1
 50
89.999999999999915
 51
179.99999999999983
  0
LINE
  8
_0-1_計細線
  6
CONTINUOUS
 62
    3
 10
1414.7792205215028
 20
797.86428260452931
 11
1415.4792205215026
 21
797.86428260452931
  0
LINE
  8
_0-1_計細線
  6
CONTINUOUS
 62
    3
 10
1405.1792205215029
 20
805.16428260452938
 11
1405.1792205215029
 21
797.86428260452931
  0
LINE
  8
_0-1_計細線
  6
CONTINUOUS
 62
    3
 10
1405.1792205215029
 20
797.86428260452931
 11
1414.7792205215028
 21
797.86428260452931
  0
LINE
  8
_0-1_計細線
  6
CONTINUOUS
 62
    3
 10
1414.7792205215028
 20
797.86428260452931
 11
1414.7792205215028
 21
805.16428260452938
  0
LINE
  8
_0-1_計細線
  6
CONTINUOUS
 62
    3
 10
1414.7792205215028
 20
805.16428260452938
 11
1405.1792205215029
 21
805.16428260452938
  0
LINE
  8
_0-1_計細線
  6
CONTINUOUS
 62
    3
 10
1414.4792205215026
 20
805.86428260452931
 11
1404.9792205215031
 21
805.86428260452931
  0
LINE
  8
_0-1_計細線
  6
CONTINUOUS
 62
    3
 10
819.47922052150307
 20
797.86428260453067
 11
1335.4792205215031
 21
797.86428260453067
  0
LINE
  8
_0-1_計細線
  6
CONTINUOUS
 62
    3
 10
1404.9792205215031
 20
805.86428260452931
 11
820.47922052150352
 21
805.86428260452931
  0
ARC
  8
_0-1_計細線
  6
CONTINUOUS
 62
    3
 10
831.47922052150307
 20
785.36428260452942
 40
1
 50
179.99999999999983
 51
269.99999999999977
  0
LINE
  8
_0-1_計細線
  6
CONTINUOUS
 62
    3
 10
830.47922052150307
 20
785.36428260452942
 11
830.47922052150307
 21
797.86428260453079
  0
ARC
  8
_0-1_計細線
  6
CONTINUOUS
 62
    3
 10
1404.1792205215029
 20
785.36428260452931
 40
1
 50
269.99999999999977
 51
359.99999999999966
  0
LINE
  8
_0-1_計細線
  6
CONTINUOUS
 62
    3
 10
1405.1792205215029
 20
797.86428260452931
 11
1405.1792205215029
 21
785.36428260452931
  0
LINE
  8
_0-1_計細線
  6
CONTINUOUS
 62
    3
 10
1404.4792205215026
 20
804.86428260452931
 11
1404.4792205215026
 21
785.06428260452935
  0
LINE
  8
_0-1_計細線
  6
CONTINUOUS
 62
    3
 10
1403.4792205215026
 20
805.86428260452931
 11
1403.4792205215026
 21
785.86428260452931
  0
LINE
  8
_0-1_計細線
  6
CONTINUOUS
 62
    3
 10
1335.4792205215026
 20
801.96428260452944
 11
1403.4792205215026
 21
801.96428260452944
  0
LINE
  8
_0-0_計極細
  6
CONTINUOUS
 62
    2
 10
1335.4792205215026
 20
804.7642826045294
 11
1403.4792205215026
 21
804.7642826045294
  0
LINE
  8
_0-1_計細線
  6
CONTINUOUS
 62
    3
 10
1335.4792205215026
 20
785.86428260452931
 11
1403.4792205215026
 21
785.86428260452931
  0
LINE
  8
_0-5_寸法線
  6
CONTINUOUS
 62
    7
 10
854.47922052150307
 20
761.36428260452931
 11
863.20450794183932
 21
747.95274430974291
  0
LINE
  8
_0-5_寸法線
  6
CONTINUOUS
 62
    7
 10
854.47922052150307
 20
761.36428260452931
 11
855.32977193544195
 21
745.3869060272483
  0
LINE
  8
_0-5_寸法線
  6
CONTINUOUS
 62
    7
 10
854.47922052150307
 20
761.36428260452931
 11
867.61977382617624
 21
721.03501128674043
  0
LINE
  8
_0-5_寸法線
  6
CONTINUOUS
 62
    7
 10
867.61977382617624
 20
721.03501128674043
 11
944.4197738261762
 21
721.03501128674043
  0
TEXT
  8
_0-5_寸法線
 62
    7
 10
867.61977382617624
 20
721.03501128674043
 40
24
 41
0.8000000000000001
 50
0
  1
アンカー
  0
LINE
  8
_0-0_計極細
  6
CENTER1
 62
    2
 10
854.47922052150307
 20
756.58140087879065
 11
854.47922052150307
 21
801.63510095632819
  0
LINE
  8
_0-1_計細線
  6
CONTINUOUS
 62
    3
 10
848.47922067458376
 20
796.36428260452931
 11
846.47922067458376
 21
794.36428260452931
  0
LINE
  8
_0-1_計細線
  6
CONTINUOUS
 62
    3
 10
846.47922067458376
 20
784.36428260452931
 11
846.47922067458376
 21
794.36428260452931
  0
LINE
  8
_0-1_計細線
  6
CONTINUOUS
 62
    3
 10
862.47922036842238
 20
784.36428260452931
 11
862.47922036842238
 21
794.36428260452931
  0
LINE
  8
_0-1_計細線
  6
CONTINUOUS
 62
    3
 10
848.47922067458376
 20
780.36428260452931
 11
846.47922067458376
 21
778.36428260452931
  0
LINE
  8
_0-1_計細線
  6
CONTINUOUS
 62
    3
 10
848.47922067458376
 20
782.36428260452931
 11
848.47922067458376
 21
780.36428260452931
  0
LINE
  8
_0-1_計細線
  6
CONTINUOUS
 62
    3
 10
846.47922067458376
 20
784.36428260452931
 11
848.47922067458376
 21
782.36428260452931
  0
LINE
  8
_0-1_計細線
  6
CONTINUOUS
 62
    3
 10
860.47922036842238
 20
780.36428260452931
 11
862.47922036842238
 21
778.36428260452931
  0
LINE
  8
_0-1_計細線
  6
CONTINUOUS
 62
    3
 10
860.47922036842238
 20
782.36428260452931
 11
860.47922036842238
 21
780.36428260452931
  0
LINE
  8
_0-1_計細線
  6
CONTINUOUS
 62
    3
 10
862.47922036842238
 20
784.36428260452931
 11
860.47922036842238
 21
782.36428260452931
  0
LINE
  8
_0-1_計細線
  6
CONTINUOUS
 62
    3
 10
846.47922067458376
 20
778.36428260452931
 11
846.47922067458376
 21
764.36428260452931
  0
ARC
  8
_0-1_計細線
  6
CONTINUOUS
 62
    3
 10
849.47922067458376
 20
764.36428260452931
 40
3
 50
179.99999999999983
 51
269.99999999999977
  0
LINE
  8
_0-1_計細線
  6
CONTINUOUS
 62
    3
 10
849.47922067458376
 20
761.36428260452931
 11
859.47922036842238
 21
761.36428260452931
  0
LINE
  8
_0-1_計細線
  6
CONTINUOUS
 62
    3
 10
862.47922036842238
 20
778.36428260452931
 11
862.47922036842238
 21
764.36428260452931
  0
ARC
  8
_0-1_計細線
  6
CONTINUOUS
 62
    3
 10
859.47922036842238
 20
764.36428260452931
 40
3
 50
269.99999999999977
 51
359.99999999999966
  0
LINE
  8
_0-1_計細線
  6
CONTINUOUS
 62
    3
 10
848.47922067458376
 20
796.36428260452931
 11
860.47922036842238
 21
796.36428260452931
  0
LINE
  8
_0-1_計細線
  6
CONTINUOUS
 62
    3
 10
862.47922036842238
 20
794.36428260452931
 11
860.47922036842238
 21
796.36428260452931
  0
LINE
  8
_0-0_計極細
  6
DASHED2
 62
    2
 10
1380.4792205215026
 20
756.58140087879065
 11
1380.4792205215026
 21
801.63510095632819
  0
LINE
  8
_0-1_計細線
  6
DASHED2
 62
    3
 10
1388.4792203684219
 20
794.36428260452931
 11
1386.4792203684219
 21
796.36428260452931
  0
LINE
  8
_0-1_計細線
  6
DASHED2
 62
    3
 10
1374.4792206745833
 20
796.36428260452931
 11
1386.4792203684219
 21
796.36428260452931
  0
ARC
  8
_0-1_計細線
  6
DASHED2
 62
    3
 10
1385.4792203684219
 20
764.36428260452931
 40
3
 50
269.99999999999977
 51
359.99999999999966
  0
LINE
  8
_0-1_計細線
  6
DASHED2
 62
    3
 10
1388.4792203684219
 20
778.36428260452931
 11
1388.4792203684219
 21
764.36428260452931
  0
LINE
  8
_0-1_計細線
  6
DASHED2
 62
    3
 10
1375.4792206745833
 20
761.36428260452931
 11
1385.4792203684219
 21
761.36428260452931
  0
ARC
  8
_0-1_計細線
  6
DASHED2
 62
    3
 10
1375.4792206745833
 20
764.36428260452931
 40
3
 50
179.99999999999983
 51
269.99999999999977
  0
LINE
  8
_0-1_計細線
  6
DASHED2
 62
    3
 10
1372.4792206745833
 20
778.36428260452931
 11
1372.4792206745833
 21
764.36428260452931
  0
LINE
  8
_0-1_計細線
  6
DASHED2
 62
    3
 10
1388.4792203684219
 20
784.36428260452931
 11
1386.4792203684219
 21
782.36428260452931
  0
LINE
  8
_0-1_計細線
  6
DASHED2
 62
    3
 10
1386.4792203684219
 20
782.36428260452931
 11
1386.4792203684219
 21
780.36428260452931
  0
LINE
  8
_0-1_計細線
  6
DASHED2
 62
    3
 10
1386.4792203684219
 20
780.36428260452931
 11
1388.4792203684219
 21
778.36428260452931
  0
LINE
  8
_0-1_計細線
  6
DASHED2
 62
    3
 10
1372.4792206745833
 20
784.36428260452931
 11
1374.4792206745833
 21
782.36428260452931
  0
LINE
  8
_0-1_計細線
  6
DASHED2
 62
    3
 10
1374.4792206745833
 20
782.36428260452931
 11
1374.4792206745833
 21
780.36428260452931
  0
LINE
  8
_0-1_計細線
  6
DASHED2
 62
    3
 10
1374.4792206745833
 20
780.36428260452931
 11
1372.4792206745833
 21
778.36428260452931
  0
LINE
  8
_0-1_計細線
  6
DASHED2
 62
    3
 10
1388.4792203684219
 20
784.36428260452931
 11
1388.4792203684219
 21
794.36428260452931
  0
LINE
  8
_0-1_計細線
  6
DASHED2
 62
    3
 10
1372.4792206745833
 20
784.36428260452931
 11
1372.4792206745833
 21
794.36428260452931
  0
LINE
  8
_0-1_計細線
  6
DASHED2
 62
    3
 10
1374.4792206745833
 20
796.36428260452931
 11
1372.4792206745833
 21
794.36428260452931
  0
LINE
  8
_0-1_計細線
  6
CONTINUOUS
 62
    3
 10
862.47922036842238
 20
784.36428260452931
 11
1335.4792205215031
 21
784.36428260452931
  0
LINE
  8
_0-1_計細線
  6
CONTINUOUS
 62
    3
 10
831.47922052150307
 20
784.36428260452931
 11
846.47922067458376
 21
784.36428260452931
  0
LINE
  8
_0-5_寸法線
  6
CONTINUOUS
 62
    7
 10
819.47922052150318
 20
821.86428260452931
 11
819.47922052150352
 21
893.86428260452931
  0
LINE
  8
_0-5_寸法線
  6
CONTINUOUS
 62
    7
 10
819.47922052150352
 20
885.86428260452931
 11
834.93403374212858
 21
890.00538732616963
  0
LINE
  8
_0-5_寸法線
  6
CONTINUOUS
 62
    7
 10
819.47922052150352
 20
885.86428260452931
 11
834.93403374212858
 21
881.72317788288899
  0
LINE
  8
_0-5_寸法線
  6
CONTINUOUS
 62
    7
 10
854.47922052150318
 20
821.86428260452931
 11
854.47922052150352
 21
893.86428260452931
  0
LINE
  8
_0-5_寸法線
  6
CONTINUOUS
 62
    7
 10
854.47922052150352
 20
885.86428260452931
 11
839.02440730087847
 21
881.72317788288899
  0
LINE
  8
_0-5_寸法線
  6
CONTINUOUS
 62
    7
 10
854.47922052150352
 20
885.86428260452931
 11
839.02440730087847
 21
890.00538732616974
  0
LINE
  8
_0-5_寸法線
  6
CONTINUOUS
 62
    7
 10
819.47922052150352
 20
885.86428260452931
 11
854.47922052150352
 21
885.86428260452931
  0
TEXT
  8
_0-5_寸法線
 62
    7
 10
824.97922052150352
 20
885.86428260452931
 40
24
 41
1
 50
0
  1
35
  0
LINE
  8
_0-5_寸法線
  6
CONTINUOUS
 62
    7
 10
854.47922052150352
 20
885.86428260452931
 11
869.93403374212869
 21
890.00538732616951
  0
LINE
  8
_0-5_寸法線
  6
CONTINUOUS
 62
    7
 10
854.47922052150352
 20
885.86428260452931
 11
869.93403374212858
 21
881.72317788288888
  0
LINE
  8
_0-5_寸法線
  6
CONTINUOUS
 62
    7
 10
1380.4792205215031
 20
821.86428260452931
 11
1380.4792205215035
 21
893.86428260452931
  0
LINE
  8
_0-5_寸法線
  6
CONTINUOUS
 62
    7
 10
1380.4792205215035
 20
885.86428260452931
 11
1365.0244073008785
 21
881.72317788288899
  0
LINE
  8
_0-5_寸法線
  6
CONTINUOUS
 62
    7
 10
1380.4792205215035
 20
885.86428260452931
 11
1365.0244073008785
 21
890.00538732616974
  0
LINE
  8
_0-5_寸法線
  6
CONTINUOUS
 62
    7
 10
854.47922052150352
 20
885.86428260452931
 11
1380.4792205215035
 21
885.86428260452931
  0
TEXT
  8
_0-5_寸法線
 62
    7
 10
1099.4792205215035
 20
885.86428260452931
 40
24
 41
1
 50
0
  1
526
  0
LINE
  8
_0-5_寸法線
  6
CONTINUOUS
 62
    7
 10
1380.4792205215035
 20
885.86428260452931
 11
1395.9340337421286
 21
890.00538732616951
  0
LINE
  8
_0-5_寸法線
  6
CONTINUOUS
 62
    7
 10
1380.4792205215035
 20
885.86428260452931
 11
1395.9340337421286
 21
881.72317788288888
  0
LINE
  8
_0-5_寸法線
  6
CONTINUOUS
 62
    7
 10
1415.4792205215031
 20
821.86428260452931
 11
1415.4792205215035
 21
893.86428260452931
  0
LINE
  8
_0-5_寸法線
  6
CONTINUOUS
 62
    7
 10
1415.4792205215035
 20
885.86428260452931
 11
1400.0244073008785
 21
881.72317788288899
  0
LINE
  8
_0-5_寸法線
  6
CONTINUOUS
 62
    7
 10
1415.4792205215035
 20
885.86428260452931
 11
1400.0244073008785
 21
890.00538732616974
  0
LINE
  8
_0-5_寸法線
  6
CONTINUOUS
 62
    7
 10
1380.4792205215035
 20
885.86428260452931
 11
1415.4792205215035
 21
885.86428260452931
  0
TEXT
  8
_0-5_寸法線
 62
    7
 10
1385.9792205215035
 20
885.86428260452931
 40
24
 41
1
 50
0
  1
35
  0
LINE
  8
_0-5_寸法線
  6
CONTINUOUS
 62
    7
 10
1407.2953922888557
 20
633.36439678449688
 11
1437.9693182680096
 21
633.36439678449688
  0
LINE
  8
_0-5_寸法線
  6
CONTINUOUS
 62
    7
 10
1429.9693182680096
 20
633.36439678449688
 11
1434.1104229896498
 21
617.90958356387182
  0
LINE
  8
_0-5_寸法線
  6
CONTINUOUS
 62
    7
 10
1429.9693182680096
 20
633.36439678449688
 11
1425.8282135463692
 21
617.90958356387182
  0
LINE
  8
_0-5_寸法線
  6
CONTINUOUS
 62
    7
 10
1407.2953922888557
 20
643.36438348450019
 11
1437.9693182680096
 21
643.36438348450019
  0
LINE
  8
_0-5_寸法線
  6
CONTINUOUS
 62
    7
 10
1429.9693182680096
 20
643.36438348450019
 11
1425.8282135463694
 21
658.81919670512525
  0
LINE
  8
_0-5_寸法線
  6
CONTINUOUS
 62
    7
 10
1429.9693182680096
 20
643.36438348450019
 11
1434.11042298965
 21
658.81919670512525
  0
LINE
  8
_0-5_寸法線
  6
CONTINUOUS
 62
    7
 10
1429.9693182680096
 20
593.36439678449688
 11
1429.9693182680096
 21
683.36438348450019
  0
TEXT
  8
_0-5_寸法線
 62
    7
 10
1429.9693182680096
 20
650.17170313482484
 40
24
 41
1
 50
90
  1
10
  0
LINE
  8
_0-5_寸法線
  6
CONTINUOUS
 62
    7
 10
1299.526307871746
 20
738.777871095313
 11
1299.526307871746
 21
722.777871095313
  0
LINE
  8
_0-5_寸法線
  6
CONTINUOUS
 62
    7
 10
1299.526307871746
 20
738.777871095313
 11
1291.526307871746
 21
724.92146463476206
  0
LINE
  8
_0-5_寸法線
  6
CONTINUOUS
 62
    7
 10
1299.526307871746
 20
738.777871095313
 11
1258.8723418649154
 21
587.05520442864645
  0
LINE
  8
_0-5_寸法線
  6
CONTINUOUS
 62
    7
 10
1258.8723418649154
 20
587.05520442864645
 11
1046.5958520962454
 21
587.05520442864645
  0
TEXT
  8
_0-5_寸法線
 62
    7
 10
1046.5958520962454
 20
590.24098220642418
 40
24
 41
0.7999999999999998
 50
0
  1
縦引き排水トラップ一式
  0
LINE
  8
_0-5_寸法線
  6
CONTINUOUS
 62
    7
 10
1481.5178324864485
 20
628.36420928466794
 11
1665.5178324864485
 21
628.36420928466714
  0
LINE
  8
_0-5_寸法線
  6
CONTINUOUS
 62
    7
 10
1657.5178324864485
 20
628.36420928466714
 11
1653.3767277648083
 21
643.8190225052922
  0
LINE
  8
_0-5_寸法線
  6
CONTINUOUS
 62
    7
 10
1657.5178324864485
 20
628.36420928466714
 11
1661.6589372080889
 21
643.8190225052922
  0
LINE
  8
_0-5_寸法線
  6
CONTINUOUS
 62
    7
 10
1481.5178324864485
 20
708.36374128504247
 11
1665.5178324864485
 21
708.36374128504167
  0
LINE
  8
_0-5_寸法線
  6
CONTINUOUS
 62
    7
 10
1657.5178324864485
 20
708.36374128504167
 11
1661.6589372080889
 21
692.90892806441661
  0
LINE
  8
_0-5_寸法線
  6
CONTINUOUS
 62
    7
 10
1657.5178324864485
 20
708.36374128504167
 11
1653.3767277648083
 21
692.90892806441661
  0
LINE
  8
_0-5_寸法線
  6
CONTINUOUS
 62
    7
 10
1657.5178324864485
 20
628.36420928466714
 11
1657.5178324864485
 21
708.36374128504167
  0
TEXT
  8
_0-5_寸法線
 62
    7
 10
1657.5178324864485
 20
656.3639752848544
 40
24
 41
1
 50
90
  1
80
  0
LINE
  8
_0-5_寸法線
  6
CONTINUOUS
 62
    7
 10
1481.5170795800261
 20
628.36456964430226
 11
1609.5178324864485
 21
628.36456964430226
  0
LINE
  8
_0-5_寸法線
  6
CONTINUOUS
 62
    7
 10
1601.5178324864485
 20
628.36456964430226
 11
1597.3767277648083
 21
643.81938286492732
  0
LINE
  8
_0-5_寸法線
  6
CONTINUOUS
 62
    7
 10
1601.5178324864485
 20
628.36456964430226
 11
1605.6589372080889
 21
643.81938286492732
  0
LINE
  8
_0-5_寸法線
  6
CONTINUOUS
 62
    7
 10
1522.2788346207192
 20
667.86456964430226
 11
1609.5178324864485
 21
667.86456964430226
  0
LINE
  8
_0-5_寸法線
  6
CONTINUOUS
 62
    7
 10
1601.5178324864485
 20
667.86456964430226
 11
1605.6589372080889
 21
652.40975642367721
  0
LINE
  8
_0-5_寸法線
  6
CONTINUOUS
 62
    7
 10
1601.5178324864485
 20
667.86456964430226
 11
1597.3767277648083
 21
652.40975642367721
  0
LINE
  8
_0-5_寸法線
  6
CONTINUOUS
 62
    7
 10
1601.5178324864485
 20
628.36456964430226
 11
1601.5178324864485
 21
667.86456964430226
  0
TEXT
  8
_0-5_寸法線
 62
    7
 10
1601.5178324864485
 20
624.11456964430226
 40
24
 41
1
 50
90
  1
39.5
  0
LINE
  8
_0-5_寸法線
  6
CONTINUOUS
 62
    7
 10
1481.5170795800261
 20
638.55593566563721
 11
1553.5178324864485
 21
638.55593566563721
  0
LINE
  8
_0-5_寸法線
  6
CONTINUOUS
 62
    7
 10
1545.5178324864485
 20
638.55593566563721
 11
1541.3767277648083
 21
654.01074888626226
  0
LINE
  8
_0-5_寸法線
  6
CONTINUOUS
 62
    7
 10
1545.5178324864485
 20
638.55593566563721
 11
1549.6589372080889
 21
654.01074888626226
  0
LINE
  8
_0-5_寸法線
  6
CONTINUOUS
 62
    7
 10
1481.5170795800261
 20
698.16892932231303
 11
1553.5178324864485
 21
698.16892932231303
  0
LINE
  8
_0-5_寸法線
  6
CONTINUOUS
 62
    7
 10
1545.5178324864485
 20
698.16892932231303
 11
1549.6589372080889
 21
682.71411610168798
  0
LINE
  8
_0-5_寸法線
  6
CONTINUOUS
 62
    7
 10
1545.5178324864485
 20
698.16892932231303
 11
1541.3767277648083
 21
682.71411610168798
  0
LINE
  8
_0-5_寸法線
  6
CONTINUOUS
 62
    7
 10
1545.5178324864485
 20
638.55593566563721
 11
1545.5178324864485
 21
698.16892932231303
  0
TEXT
  8
_0-5_寸法線
 62
    7
 10
1545.5178324864487
 20
642.92998309462973
 40
24
 41
1
 50
90
  1
Rc2・59.6
  0
LINE
  8
_0-5_寸法線
  6
CONTINUOUS
 62
    7
 10
1308.3724642503482
 20
636.60447954944129
 11
1308.3724642503482
 21
620.60447954944129
  0
LINE
  8
_0-5_寸法線
  6
CONTINUOUS
 62
    7
 10
1308.3724642503482
 20
636.60447954944129
 11
1300.3724642503482
 21
622.74807308889035
  0
LINE
  8
_0-5_寸法線
  6
CONTINUOUS
 62
    7
 10
1308.3724642503482
 20
636.60447954944129
 11
1285.64465648275
 21
551.78314621610707
  0
LINE
  8
_0-5_寸法線
  6
CONTINUOUS
 62
    7
 10
1285.64465648275
 20
551.78314621610707
 11
1151.2446564827501
 21
551.78314621610798
  0
TEXT
  8
_0-5_寸法線
 62
    7
 10
1151.2446564827501
 20
551.78314621610707
 40
24
 41
0.7999999999999998
 50
0
  1
防水マス横引き
  0
LINE
  8
_0-5_寸法線
  6
CONTINUOUS
 62
    7
 10
1461.4639969424261
 20
667.55741100635078
 11
1498.6589447205242
 21
666.84323254865808
  0
LINE
  8
_0-5_寸法線
  6
CONTINUOUS
 62
    7
 10
1490.6604190193227
 20
666.99681186763382
 11
1494.5040681265837
 21
651.46534826820925
  0
LINE
  8
_0-5_寸法線
  6
CONTINUOUS
 62
    7
 10
1490.6604190193227
 20
666.99681186763382
 11
1486.2233849897318
 21
651.62434527894834
  0
LINE
  8
_0-5_寸法線
  6
CONTINUOUS
 62
    7
 10
1461.4669455400228
 20
667.86456964430226
 11
1498.6687491399141
 21
667.86456964430226
  0
LINE
  8
_0-5_寸法線
  6
CONTINUOUS
 62
    7
 10
1490.6687491399141
 20
667.86456964430226
 11
1486.5276444182739
 21
683.31938286492732
  0
LINE
  8
_0-5_寸法線
  6
CONTINUOUS
 62
    7
 10
1490.6687491399141
 20
667.86456964430226
 11
1494.8098538615545
 21
683.31938286492732
  0
ARC
  8
_0-5_寸法線
  6
CONTINUOUS
 62
    7
 10
1445.4669455400228
 20
667.86456964430226
 40
45.201803599891264
 50
358.90000157751251
 51
359.99999999999966
  0
ARC
  8
_0-5_寸法線
  6
CONTINUOUS
 62
    7
 10
1445.4669455400228
 20
667.86456964430226
 40
45.201803599891264
 50
308.1977950724426
 51
358.90000157751251
  0
ARC
  8
_0-5_寸法線
  6
CONTINUOUS
 62
    7
 10
1445.4669455400228
 20
667.86456964430226
 40
45.201803599891264
 50
0
 51
58.890986591079965
  0
TEXT
  8
_0-5_寸法線
 62
    7
 10
1480.8638134858045
 20
726.52176306339857
 40
24
 41
1
 50
-78.872834030477208
  1
1゜10’
  0
LINE
  8
_0-5_寸法線
  6
CONTINUOUS
 62
    7
 10
1230.2788346207187
 20
734.36411828469818
 11
1230.2788346207192
 21
954.86428260452931
  0
LINE
  8
_0-5_寸法線
  6
CONTINUOUS
 62
    7
 10
1230.2788346207192
 20
946.86428260452931
 11
1245.7336478413442
 21
951.00538732616963
  0
LINE
  8
_0-5_寸法線
  6
CONTINUOUS
 62
    7
 10
1230.2788346207192
 20
946.86428260452931
 11
1245.7336478413442
 21
942.72317788288899
  0
LINE
  8
_0-5_寸法線
  6
CONTINUOUS
 62
    7
 10
1440.2788346207192
 20
734.36411828469818
 11
1440.2788346207196
 21
954.86428260452931
  0
LINE
  8
_0-5_寸法線
  6
CONTINUOUS
 62
    7
 10
1440.2788346207196
 20
946.86428260452931
 11
1424.8240214000946
 21
942.72317788288899
  0
LINE
  8
_0-5_寸法線
  6
CONTINUOUS
 62
    7
 10
1440.2788346207196
 20
946.86428260452931
 11
1424.8240214000946
 21
951.00538732616974
  0
LINE
  8
_0-5_寸法線
  6
CONTINUOUS
 62
    7
 10
1230.2788346207192
 20
946.86428260452931
 11
1440.2788346207196
 21
946.86428260452931
  0
TEXT
  8
_0-5_寸法線
 62
    7
 10
1305.2788346207192
 20
946.86428260452908
 40
24
 41
1
 50
0
  1
φ210
  0
ARC
  8
_0-1_計細線
  6
CONTINUOUS
 62
    3
 10
1394.4791730015133
 20
783.56428260452935
 40
0.8
 50
89.999999999999915
 51
179.99999999999983
  0
LINE
  8
_0-1_計細線
  6
CONTINUOUS
 62
    3
 10
1394.4791730015133
 20
784.36428260452931
 11
1404.1792205215029
 21
784.36428260452931
  0
LINE
  8
_0-1_計細線
  6
CONTINUOUS
 62
    3
 10
1393.6791730015136
 20
783.56428260452935
 11
1393.6791730015136
 21
781.86428260452931
  0
LINE
  8
_0-1_計細線
  6
CONTINUOUS
 62
    3
 10
1394.4791730015138
 20
785.06428260452935
 11
1404.4792205215026
 21
785.06428260452935
  0
ARC
  8
_0-1_計細線
  6
CONTINUOUS
 62
    3
 10
1394.4791730015138
 20
783.56428260452935
 40
1.5
 50
89.999999999999915
 51
179.99999999999983
  0
LINE
  8
_0-1_計細線
  6
CONTINUOUS
 62
    3
 10
1392.9791730015138
 20
783.56428260452935
 11
1392.9791730015138
 21
781.86428260452954
  0
ARC
  8
_0-1_計細線
  6
CONTINUOUS
 62
    3
 10
1392.1791730015136
 20
781.86428260452965
 40
0.8
 50
284.47751218588252
 51
359.99999999999147
  0
ARC
  8
_0-1_計細線
  6
CONTINUOUS
 62
    3
 10
1392.1791730015136
 20
781.86428260452931
 40
1.5
 50
277.66225566074115
 51
359.99999999999966
  0
LINE
  8
_0-1_計細線
  6
CONTINUOUS
 62
    3
 10
1392.3787129422828
 20
780.9441494381731
 11
1385.4577461907422
 21
780.14415528135987
  0
ARC
  8
_0-1_計細線
  6
CONTINUOUS
 62
    3
 10
1396.295392088856
 20
638.3643836844999
 40
4.9999998000002961
 50
179.99999999999983
 51
269.99999999999977
  0
ARC
  8
_0-1_計細線
  6
CONTINUOUS
 62
    3
 10
1386.2953924888554
 20
638.3643836844999
 40
4.9999998000002961
 50
0
 51
89.999999999999915
  0
LINE
  8
_0-1_計細線
  6
CONTINUOUS
 62
    3
 10
1335.4792205215028
 20
643.36438348450019
 11
1386.2953924888554
 21
643.36438348450019
  0
ARC
  8
_0-1_計細線
  6
CONTINUOUS
 62
    3
 10
1463.5177562865167
 20
704.90874039454638
 40
2.0000761999303904
 50
0
 51
88.899999999968088
  0
LINE
  8
_0-1_計細線
  6
CONTINUOUS
 62
    3
 10
1465.5178324864485
 20
698.16884846045241
 11
1464.0177758365019
 21
697.19742933473071
  0
ARC
  8
_0-1_計細線
  6
CONTINUOUS
 62
    3
 10
1445.6988303235632
 20
712.25243578521668
 40
5.0001874998283711
 50
194.03624300000018
 51
268.89999999998997
  0
LINE
  8
_0-1_計細線
  6
CONTINUOUS
 62
    3
 10
1439.0168323373621
 20
718.36411828469909
 11
1440.8479346893703
 21
711.03971087666969
  0
LINE
  8
_0-1_計細線
  6
CONTINUOUS
 62
    3
 10
1410.5157579883473
 20
713.3639287848705
 11
1417.8577713805282
 21
713.3639287848705
  0
LINE
  8
_0-1_計細線
  6
CONTINUOUS
 62
    3
 10
1413.7761630539801
 20
708.36374128504258
 11
1418.516058788073
 21
708.36374128504258
  0
LINE
  8
_0-1_計細線
  6
CONTINUOUS
 62
    3
 10
1412.6659520531723
 20
717.54044702600231
 11
1432.7438059830913
 21
717.54044702600231
  0
ARC
  8
_0-1_計細線
  6
CONTINUOUS
 62
    3
 10
1415.0956398664478
 20
715.36400498480225
 40
2.0000761999303904
 50
190.32905100000713
 51
269.99999999999977
  0
LINE
  8
_0-1_計細線
  6
CONTINUOUS
 62
    3
 10
1412.5158341882764
 20
718.36411828469818
 11
1413.1279776373478
 21
715.00538930755692
  0
LINE
  8
_0-1_計細線
  6
CONTINUOUS
 62
    3
 10
1433.4445593524126
 20
717.54039502604837
 11
1433.5166252875554
 21
718.36411828469818
  0
LINE
  8
_0-1_計細線
  6
CONTINUOUS
 62
    3
 10
1417.8577713805337
 20
713.3639287848705
 11
1433.4447493522423
 21
717.54044702600413
  0
LINE
  8
_0-1_計細線
  6
CONTINUOUS
 62
    3
 10
1419.1582842100709
 20
708.53582513016727
 11
1433.4448253521753
 21
712.36389168490632
  0
LINE
  8
_0-1_計細線
  6
CONTINUOUS
 62
    3
 10
1433.4448253521753
 20
712.36389168490632
 11
1440.5168893969169
 21
712.36389168490632
  0
ARC
  8
_0-1_計細線
  6
CONTINUOUS
 62
    3
 10
1442.5169651872432
 20
698.00961060376676
 40
3.0001132998966114
 50
0
 51
60.23100699998394
  0
LINE
  8
_0-1_計細線
  6
CONTINUOUS
 62
    3
 10
1444.0170078372014
 20
700.6077642654277
 11
1430.5832639275789
 21
708.36374128504349
  0
LINE
  8
_0-1_計細線
  6
CONTINUOUS
 62
    3
 10
1464.0177758365019
 20
697.1974293347298
 11
1445.4978785044179
 21
697.5530290146894
  0
LINE
  8
_0-1_計細線
  6
CONTINUOUS
 62
    3
 10
1465.5178324864485
 20
698.16884846045423
 11
1445.5170784871391
 21
698.55288211482321
  0
LINE
  8
_0-1_計細線
  6
CONTINUOUS
 62
    3
 10
1463.5561522519604
 20
706.90844659480763
 11
1445.6028384099548
 21
707.25316828455971
  0
LINE
  8
_0-1_計細線
  6
CONTINUOUS
 62
    3
 10
1385.9791761215131
 20
713.3639287848705
 11
1394.5151543889008
 21
713.3639287848705
  0
LINE
  8
_0-1_計細線
  6
CONTINUOUS
 62
    3
 10
1385.9791761215131
 20
719.36415538466235
 11
1394.5151543889008
 21
719.36415538466417
  0
LINE
  8
_0-1_計細線
  6
CONTINUOUS
 62
    3
 10
1385.9791761215131
 20
724.364342884493
 11
1400.6231608916889
 21
724.364342884493
  0
LINE
  8
_0-1_計細線
  6
CONTINUOUS
 62
    3
 10
1392.3713763182998
 20
708.36374128504258
 11
1385.9791761215131
 21
708.36374128504258
  0
LINE
  8
_0-1_計細線
  6
CONTINUOUS
 62
    3
 10
1390.515003989038
 20
719.36415538466417
 11
1396.5152305888271
 21
719.36415538466417
  0
LINE
  8
_0-1_計細線
  6
CONTINUOUS
 62
    3
 10
1396.5152305888271
 20
713.3639287848705
 11
1390.515003989038
 21
713.3639287848705
  0
LINE
  8
_0-1_計細線
  6
CONTINUOUS
 62
    3
 10
1390.515003989038
 20
713.3639287848705
 11
1385.9791761215131
 21
713.3639287848705
  0
LINE
  8
_0-1_計細線
  6
CONTINUOUS
 62
    3
 10
1390.515003989038
 20
719.36415538466417
 11
1385.9791761215131
 21
719.36415538466417
  0
LINE
  8
_0-1_計細線
  6
CONTINUOUS
 62
    3
 10
1390.515003989038
 20
724.364342884493
 11
1390.515003989038
 21
719.36415538466417
  0
LINE
  8
_0-1_計細線
  6
CONTINUOUS
 62
    3
 10
1390.515003989038
 20
713.3639287848705
 11
1390.515003989038
 21
708.36374128504258
  0
ARC
  8
_0-1_計細線
  6
CONTINUOUS
 62
    3
 10
1400.6231608916889
 20
723.3643057845261
 40
1.0000370999662209
 50
6.5198019999742014
 51
89.999999999999915
  0
ARC
  8
_0-1_計細線
  6
CONTINUOUS
 62
    3
 10
1405.4493805480899
 20
716.36404208476824
 40
3.0001132998966114
 50
186.51980200000276
 51
269.99999999999977
  0
LINE
  8
_0-1_計細線
  6
CONTINUOUS
 62
    3
 10
1407.8449103921123
 20
713.3639287848705
 11
1402.8447208922846
 21
708.36374128504349
  0
LINE
  8
_0-1_計細線
  6
CONTINUOUS
 62
    3
 10
1402.6625990561936
 20
715.25295108474938
 11
1395.773387256487
 21
708.36374128504258
  0
LINE
  8
_0-1_計細線
  6
CONTINUOUS
 62
    3
 10
1396.5152305888271
 20
719.36415538466417
 11
1396.5152305888271
 21
713.3639287848705
  0
LINE
  8
_0-1_計細線
  6
CONTINUOUS
 62
    3
 10
1401.616731997475
 20
723.47785768232961
 11
1402.4686712307305
 21
716.0233903913545
  0
ARC
  8
_0-1_計細線
  6
CONTINUOUS
 62
    3
 10
1405.957028091206
 20
715.36400498480225
 40
2.0000761999303904
 50
269.99999999999977
 51
350.02120199999706
  0
LINE
  8
_0-1_計細線
  6
CONTINUOUS
 62
    3
 10
1408.5156817884183
 20
718.36411828469818
 11
1407.9268463183728
 21
715.01742329672607
  0
LINE
  8
_0-1_計細線
  6
CONTINUOUS
 62
    3
 10
1390.515003989038
 20
708.36374128504258
 11
1430.5832639275789
 21
708.36374128504258
  0
LINE
  8
_0-1_計細線
  6
CONTINUOUS
 62
    3
 10
1402.2011594714907
 20
718.36411828469818
 11
1439.0168323373621
 21
718.36411828469818
  0
LINE
  8
_0-1_計細線
  6
CONTINUOUS
 62
    3
 10
1405.4493805480899
 20
713.3639287848705
 11
1410.5157579883473
 21
713.3639287848705
  0
LINE
  8
_0-1_計細線
  6
CONTINUOUS
 62
    3
 10
1465.5178324864485
 20
638.55561611239636
 11
1464.0177758364991
 21
639.58464118627171
  0
ARC
  8
_0-1_計細線
  6
CONTINUOUS
 62
    3
 10
1463.5177562865167
 20
631.89253210917514
 40
2.0000761999303904
 50
268.90000000004585
 51
359.99999999999966
  0
ARC
  8
_0-1_計細線
  6
CONTINUOUS
 62
    3
 10
1421.662997955824
 20
675.17366915612774
 40
45.001695498448498
 50
292.48304699999915
 51
299.76899299999837
  0
ARC
  8
_0-1_計細線
  6
CONTINUOUS
 62
    3
 10
1437.7248275001677
 20
636.3645100843919
 40
3.0001132998966114
 50
269.99999999999977
 51
292.48304700001546
  0
ARC
  8
_0-1_計細線
  6
CONTINUOUS
 62
    3
 10
1442.5169651872432
 20
638.7148539690811
 40
3.0001132998966114
 50
299.76899300001571
 51
359.99999999999966
  0
ARC
  8
_0-1_計細線
  6
CONTINUOUS
 62
    3
 10
1421.662997955824
 20
675.17366915612774
 40
50.001884998274818
 50
291.71126199999878
 51
294.81817500000182
  0
ARC
  8
_0-1_計細線
  6
CONTINUOUS
 62
    3
 10
1438.3104489731088
 20
633.36439678449688
 40
5.0001874998283711
 50
269.99999999999977
 51
291.71126199999674
  0
ARC
  8
_0-1_計細線
  6
CONTINUOUS
 62
    3
 10
1444.749569177897
 20
625.25134608624603
 40
5.0001874998283711
 50
88.899999999990115
 51
114.81817500001847
  0
LINE
  8
_0-1_計細線
  6
CONTINUOUS
 62
    3
 10
1464.0177758365019
 20
639.58464118627353
 11
1445.5362764698623
 21
639.93950286689733
  0
LINE
  8
_0-1_計細線
  6
CONTINUOUS
 62
    3
 10
1465.5178324864485
 20
638.55561611239636
 11
1445.5170784871391
 21
638.93964976676534
  0
LINE
  8
_0-1_計細線
  6
CONTINUOUS
 62
    3
 10
1463.479360321073
 20
629.89282590891116
 11
1444.8455610915028
 21
630.25061158690596
  0
LINE
  8
_0-1_計細線
  6
CONTINUOUS
 62
    3
 10
1335.4792205215028
 20
643.36438348450019
 11
1365.8014277721488
 21
643.36438348451293
  0
LINE
  8
_0-1_計細線
  6
CONTINUOUS
 62
    3
 10
1445.5170784871391
 20
698.00961060376676
 11
1445.5170784871391
 21
638.7148539690811
  0
LINE
  8
_0-1_計細線
  6
CONTINUOUS
 62
    3
 10
1464.0177758364991
 20
697.1974293347298
 11
1464.0177758364991
 21
639.58464118627353
  0
LINE
  8
_0-1_計細線
  6
CONTINUOUS
 62
    3
 10
1465.5178324864485
 20
704.90874039454638
 11
1465.5178324864485
 21
631.89253210917514
  0
ARC
  8
_0-1_計細線
  6
CONTINUOUS
 62
    3
 10
1263.0858786753217
 20
703.36355178521671
 40
5.0001874998283711
 50
3.0819879999996775
 51
89.999999999999915
  0
LINE
  8
_0-1_計細線
  6
CONTINUOUS
 62
    3
 10
1265.5196104849622
 20
698.36336428538789
 11
1263.6228121920824
 21
698.36336428538789
  0
ARC
  8
_0-1_計細線
  6
CONTINUOUS
 62
    3
 10
1265.5196104849622
 20
695.36325098549287
 40
3.0001132998966114
 50
3.0819879999842663
 51
89.999999999999901
  0
LINE
  8
_0-1_計細線
  6
CONTINUOUS
 62
    3
 10
1268.4377038586756
 20
696.96726154188173
 11
1268.0788341816608
 21
703.63238754326494
  0
LINE
  8
_0-1_計細線
  6
CONTINUOUS
 62
    3
 10
1252.5098021937986
 20
708.36374128504258
 11
1237.5810356296936
 21
712.36389168490632
  0
ARC
  8
_0-1_計細線
  6
CONTINUOUS
 62
    3
 10
1257.249697927886
 20
705.36362798514665
 40
3.0001132998966114
 50
5.0000000000125944
 51
89.999999999999915
  0
LINE
  8
_0-1_計細線
  6
CONTINUOUS
 62
    3
 10
1335.4753434299157
 20
708.36374128504258
 11
1252.5098021937986
 21
708.36374128504258
  0
LINE
  8
_0-1_計細線
  6
CONTINUOUS
 62
    3
 10
1232.0090286445068
 20
718.36411828469818
 11
1230.5089719945574
 21
712.3638916849045
  0
LINE
  8
_0-1_計細線
  6
CONTINUOUS
 62
    3
 10
1335.4755917813629
 20
712.36389168490632
 11
1230.5089719945574
 21
712.36389168490632
  0
LINE
  8
_0-1_計細線
  6
CONTINUOUS
 62
    3
 10
1260.6341148819095
 20
701.10199982061431
 11
1260.238395238059
 21
705.62510374981912
  0
LINE
  8
_0-1_計細線
  6
CONTINUOUS
 62
    3
 10
1335.4759643085993
 20
718.36411828469818
 11
1232.0090286445068
 21
718.36411828469818
  0
ARC
  8
_0-1_計細線
  6
CONTINUOUS
 62
    3
 10
1263.6228121920824
 20
701.36347758528382
 40
3.0001132998966114
 50
185.00000000001222
 51
269.99999999999977
  0
LINE
  8
_0-1_計細線
  6
CONTINUOUS
 62
    3
 10
1263.0858786753217
 20
708.36374128504258
 11
1258.5642067448273
 21
708.36374128504258
  0
ARC
  8
_0-1_計細線
  6
CONTINUOUS
 62
    3
 10
1281.6078960054931
 20
638.36458628432365
 40
10.000376999654691
 50
183.08198800000372
 51
269.99999999999977
  0
LINE
  8
_0-1_計細線
  6
CONTINUOUS
 62
    3
 10
1271.6219849928204
 20
637.82691676822515
 11
1268.515383788764
 21
695.5245508403209
  0
LINE
  8
_0-1_計細線
  6
CONTINUOUS
 62
    3
 10
1437.7248275001677
 20
633.36439678449688
 11
1335.4706870560187
 21
633.36439678449688
  0
LINE
  8
_0-1_計細線
  6
CONTINUOUS
 62
    3
 10
1438.3104589731013
 20
628.36420928466805
 11
1281.6078960054931
 21
628.36420928466805
  0
LINE
  8
_0-1_計細線
  6
CONTINUOUS
 62
    3
 10
1335.4763368357128
 20
724.364342884493
 11
1270.4027000901772
 21
724.364342884493
  0
LINE
  8
_0-1_計細線
  6
CONTINUOUS
 62
    3
 10
1269.4091289843911
 20
723.47785768232961
 11
1268.6303911095204
 21
718.36411828469818
  0
ARC
  8
_0-1_計細線
  6
CONTINUOUS
 62
    3
 10
1270.4027000901772
 20
723.3643057845261
 40
1.0000370999662209
 50
89.999999999999915
 51
173.48019800002581
  0
LINE
  8
_0-1_計細線
  6
CONTINUOUS
 62
    3
 10
1335.4792205215028
 20
766.86428868451594
 11
1333.4792181215055
 21
766.86428868451594
  0
LINE
  8
_0-1_計細線
  6
CONTINUOUS
 62
    3
 10
1333.4792181215055
 20
766.86428868451594
 11
1333.4792181215055
 21
776.86427668452188
  0
LINE
  8
_0-1_計細線
  6
CONTINUOUS
 62
    3
 10
1277.4792649214926
 20
780.86427548451911
 11
1277.4792649214926
 21
784.36427068452258
  0
LINE
  8
_0-1_計細線
  6
CONTINUOUS
 62
    3
 10
1309.9792409214972
 20
766.86428868451594
 11
1305.9792421214991
 21
766.86428868451594
  0
ARC
  8
_0-1_計細線
  6
CONTINUOUS
 62
    3
 10
1279.9792649214944
 20
754.53416654862076
 40
4.9999940000022889
 50
0
 51
60.000000000002601
  0
LINE
  8
_0-1_計細線
  6
CONTINUOUS
 62
    3
 10
1282.4792589214942
 20
766.86428868451594
 11
1278.5792620414961
 21
766.86428868451594
  0
LINE
  8
_0-1_計細線
  6
CONTINUOUS
 62
    3
 10
1278.5792620414961
 20
766.86428868451594
 11
1278.5792620414961
 21
780.86427548451911
  0
LINE
  8
_0-1_計細線
  6
CONTINUOUS
 62
    3
 10
1282.4792589214942
 20
758.86429108451875
 11
1282.4792589214942
 21
776.86427668452188
  0
LINE
  8
_0-1_計細線
  6
CONTINUOUS
 62
    3
 10
1309.9792409214972
 20
766.86428868451594
 11
1309.9792409214972
 21
776.86427668452188
  0
LINE
  8
_0-1_計細線
  6
CONTINUOUS
 62
    3
 10
1305.9792421214991
 20
766.86428868451594
 11
1305.9792421214991
 21
776.86427668452188
  0
LINE
  8
_0-1_計細線
  6
CONTINUOUS
 62
    3
 10
1284.9792589214933
 20
724.364342884493
 11
1284.9792589214933
 21
754.53416654862076
  0
LINE
  8
_0-1_計細線
  6
CONTINUOUS
 62
    3
 10
1335.4792205215028
 20
754.53416654862076
 11
1284.9792589214933
 21
754.53416654862076
  0
LINE
  8
_0-1_計細線
  6
CONTINUOUS
 62
    3
 10
1335.4792205215028
 20
758.86429108451875
 11
1282.4792589214942
 21
758.86429108451875
  0
LINE
  8
_0-1_計細線
  6
CONTINUOUS
 62
    3
 10
1335.4792205215028
 20
776.86427668452188
 11
1278.5792620414961
 21
776.86427668452188
  0
LINE
  8
_0-1_計細線
  6
CONTINUOUS
 62
    3
 10
1277.4792649214926
 20
780.86427548451911
 11
1335.4792205215028
 21
780.86427548451911
  0
ARC
  8
_0-1_計細線
  6
CONTINUOUS
 62
    3
 10
1389.514966889071
 20
719.18395154684777
 40
1.0000370999662209
 50
281.30993200007038
 51
359.99999999999966
  0
LINE
  8
_0-1_計細線
  6
CONTINUOUS
 62
    3
 10
1390.515003989038
 20
719.18395154684777
 11
1390.515003989038
 21
719.36415538466417
  0
ARC
  8
_0-1_計細線
  6
CONTINUOUS
 62
    3
 10
1389.514966889071
 20
713.54413262268781
 40
1.0000370999662209
 50
0
 51
78.690067999919023
  0
LINE
  8
_0-1_計細線
  6
CONTINUOUS
 62
    3
 10
1390.515003989038
 20
713.54413262268781
 11
1390.515003989038
 21
713.3639287848705
  0
LINE
  8
_0-1_計細線
  6
CONTINUOUS
 62
    3
 10
1389.71109071256
 20
714.52474974013194
 11
1385.9791761215131
 21
715.27113249602235
  0
LINE
  8
_0-1_計細線
  6
CONTINUOUS
 62
    3
 10
1389.71109071256
 20
718.20333442940455
 11
1385.9791761215131
 21
717.45695167351414
  0
ARC
  8
_0-1_計細線
  6
CONTINUOUS
 62
    3
 10
1394.5151543889008
 20
718.36411828469818
 40
1.0000370999662209
 50
0
 51
89.999999999999915
  0
ARC
  8
_0-1_計細線
  6
CONTINUOUS
 62
    3
 10
1394.5151543889008
 20
714.3639658848374
 40
1.0000370999662209
 50
269.99999999999977
 51
359.99999999999966
  0
LINE
  8
_0-1_計細線
  6
CONTINUOUS
 62
    3
 10
1395.5151934888602
 20
718.36411828469818
 11
1395.5151934888602
 21
714.3639658848374
  0
LINE
  8
_0-0_計極細
  6
CENTER1
 62
    2
 10
1410.5157579883473
 20
724.96088434760395
 11
1410.5157579883473
 21
710.35733949080486
  0
LINE
  8
_0-0_計極細
  6
CENTER1
 62
    2
 10
1385.9791761215131
 20
716.36404208476824
 11
1400.4933310085346
 21
716.36404208476824
  0
LINE
  8
_0-0_計極細
  6
CENTER1
 62
    2
 10
1406.7498913776292
 20
715.8045785882864
 11
1393.9098629336606
 21
702.96455014431967
  0
LINE
  8
_0-0_計極細
  6
CONTINUOUS
 62
    2
 10
1385.5568844593438
 20
781.57833491327301
 11
1392.379173001513
 21
782.55002813591773
  0
LINE
  8
_0-0_計極細
  6
CONTINUOUS
 62
    2
 10
1385.4581785383118
 20
782.2713403588682
 11
1392.379173001513
 21
783.25709236110606
  0
ARC
  8
_0-0_計極細
  6
CONTINUOUS
 62
    2
 10
1382.7204047285325
 20
780.77134155886733
 40
1.6999966400019275
 50
269.99999999999977
 51
356.64911200000722
  0
LINE
  8
_0-0_計極細
  6
CONTINUOUS
 62
    2
 10
1379.7791830815106
 20
776.77134275886738
 11
1379.7791830815106
 21
779.77134035886911
  0
ARC
  8
_0-0_計極細
  6
CONTINUOUS
 62
    2
 10
1381.5291836815088
 20
778.02133975887
 40
1.7500005999988844
 50
89.999999999999915
 51
179.99999999999983
  0
ARC
  8
_0-0_計極細
  6
CONTINUOUS
 62
    2
 10
1381.5291836815088
 20
778.02133975887
 40
1.049999160000425
 50
89.999999999999915
 51
179.99999999999983
  0
LINE
  8
_0-0_計極細
  6
CONTINUOUS
 62
    2
 10
1382.7204047285325
 20
779.07133891886997
 11
1381.5291836815088
 21
779.07133891886997
  0
LINE
  8
_0-0_計極細
  6
CONTINUOUS
 62
    2
 10
1379.7791830815106
 20
779.77134035886911
 11
1381.7291815215096
 21
779.77134035886911
  0
ARC
  8
_0-0_計極細
  6
CONTINUOUS
 62
    2
 10
1382.7204047285325
 20
780.77134155886733
 40
1.0000011999986782
 50
269.99999999999977
 51
356.64911200000779
  0
LINE
  8
_0-0_計極細
  6
CONTINUOUS
 62
    2
 10
1382.7204047285325
 20
779.77134035886911
 11
1381.5291836815088
 21
779.77134035886911
  0
LINE
  8
_0-0_計極細
  6
CONTINUOUS
 62
    2
 10
1378.979185721508
 20
775.3721198782473
 11
1378.979185721508
 21
776.27134515886655
  0
LINE
  8
_0-0_計極細
  6
CONTINUOUS
 62
    2
 10
1378.979185721508
 20
769.27212875824398
 11
1378.979185721508
 21
770.77212755824394
  0
LINE
  8
_0-0_計極細
  6
CONTINUOUS
 62
    2
 10
1375.2291887215063
 20
773.67745723397866
 11
1375.2291887215063
 21
772.37745627398044
  0
LINE
  8
_0-0_計極細
  6
CONTINUOUS
 62
    2
 10
1375.2291887215063
 20
771.37745507398131
 11
1375.2291887215063
 21
770.87745747397867
  0
LINE
  8
_0-0_計極細
  6
CONTINUOUS
 62
    2
 10
1378.8291858415089
 20
773.67745723397866
 11
1378.8291858415089
 21
770.87745747397867
  0
LINE
  8
_0-0_計極細
  6
CONTINUOUS
 62
    2
 10
1374.7291851215107
 20
774.17745483398039
 11
1375.2291887215063
 21
774.67745243398213
  0
LINE
  8
_0-0_計極細
  6
CONTINUOUS
 62
    2
 10
1375.2291887215063
 20
773.67745723397866
 11
1374.7291851215107
 21
774.17745483398039
  0
LINE
  8
_0-0_計極細
  6
CONTINUOUS
 62
    2
 10
1375.2291887215063
 20
771.37745507398131
 11
1374.7291851215107
 21
771.87745867397871
  0
LINE
  8
_0-0_計極細
  6
CONTINUOUS
 62
    2
 10
1374.7291851215107
 20
771.87745867397871
 11
1375.2291887215063
 21
772.37745627398044
  0
LINE
  8
_0-0_計極細
  6
CONTINUOUS
 62
    2
 10
1375.2291887215063
 20
775.17745603397771
 11
1375.2291887215063
 21
774.67745243398213
  0
LINE
  8
_0-0_計極細
  6
CONTINUOUS
 62
    2
 10
1378.6791859615098
 20
776.27134515886655
 11
1378.6791859615098
 21
777.27134035887002
  0
LINE
  8
_0-0_計極細
  6
CONTINUOUS
 62
    2
 10
1378.8291858415089
 20
773.67745723397866
 11
1379.6291832015088
 21
775.17745603397771
  0
ARC
  8
_0-0_計極細
  6
CONTINUOUS
 62
    2
 10
1379.2791854815116
 20
776.77134275886738
 40
0.4999976000017341
 50
269.99999999999977
 51
359.99999999999966
  0
LINE
  8
_0-0_計極細
  6
CONTINUOUS
 62
    2
 10
1375.729186321508
 20
768.77135115886585
 11
1379.7791830815106
 21
768.77135115886585
  0
ARC
  8
_0-0_計極細
  6
CONTINUOUS
 62
    2
 10
1385.4581785383118
 20
780.52133975886909
 40
1.049999160000425
 50
89.999999999999915
 51
175.84901000001875
  0
ARC
  8
_0-0_計極細
  6
CONTINUOUS
 62
    2
 10
1385.4581785383118
 20
780.52133975886909
 40
1.7500005999988844
 50
89.999999999999915
 51
175.84901000002824
  0
ARC
  8
_0-0_計極細
  6
CONTINUOUS
 62
    2
 10
1390.9791761215113
 20
754.53416654862076
 40
4.9999940000022889
 50
119.9999999999974
 51
179.99999999999983
  0
LINE
  8
_0-0_計極細
  6
CONTINUOUS
 62
    2
 10
1388.4791761215122
 20
766.86428868451594
 11
1392.379173001513
 21
766.86428868451594
  0
LINE
  8
_0-0_計極細
  6
CONTINUOUS
 62
    2
 10
1388.4791761215122
 20
758.86429108451875
 11
1388.4791761215122
 21
766.86428868451594
  0
LINE
  8
_0-0_計極細
  6
CONTINUOUS
 62
    2
 10
1392.2017411434574
 20
766.86428868451594
 11
1392.379173001513
 21
767.0417205425706
  0
LINE
  8
_0-0_計極細
  6
CONTINUOUS
 62
    2
 10
1392.379173001513
 20
766.86428868451594
 11
1392.379173001513
 21
767.41952824032478
  0
LINE
  8
_0-0_計極細
  6
CONTINUOUS
 62
    2
 10
1383.4791821215078
 20
734.78587834726068
 11
1383.4791821215078
 21
761.06429132451785
  0
LINE
  8
_0-0_計極細
  6
CONTINUOUS
 62
    2
 10
1373.7291899215045
 20
755.86429348451702
 11
1362.3452550286631
 21
755.86429348451702
  0
ARC
  8
_0-0_計極細
  6
CONTINUOUS
 62
    2
 10
1373.7291899215045
 20
754.86429828451446
 40
1.0000011999986782
 50
89.999999999999915
 51
179.99999999999983
  0
ARC
  8
_0-0_計極細
  6
CONTINUOUS
 62
    2
 10
1373.7291899215045
 20
754.86429828451446
 40
1.0000011999986782
 50
0
 51
89.999999999999915
  0
ARC
  8
_0-0_計極細
  6
CONTINUOUS
 62
    2
 10
1382.4791809215105
 20
734.78587834726068
 40
1.0000011999986782
 50
277.18075599996956
 51
359.99999999999966
  0
LINE
  8
_0-0_計極細
  6
CONTINUOUS
 62
    2
 10
1374.7291851215107
 20
733.79372514098168
 11
1382.6041788215118
 21
733.79372514098168
  0
LINE
  8
_0-0_計極細
  6
CONTINUOUS
 62
    2
 10
1363.0363584757781
 20
764.77135235886681
 11
1372.9774985228598
 21
764.77135235886681
  0
LINE
  8
_0-0_計極細
  6
CONTINUOUS
 62
    2
 10
1365.2655066924574
 20
763.07135571886511
 11
1370.2655066924556
 21
763.07135571886511
  0
LINE
  8
_0-0_計極細
  6
CONTINUOUS
 62
    2
 10
1362.4791989215048
 20
761.86428868451958
 11
1383.9791797215096
 21
761.86428868451958
  0
LINE
  8
_0-0_計極細
  6
CONTINUOUS
 62
    2
 10
1362.4791989215048
 20
760.76862956104696
 11
1362.4791989215048
 21
762.24638037884552
  0
LINE
  8
_0-0_計極細
  6
CONTINUOUS
 62
    2
 10
1365.2655066924574
 20
763.07135571886511
 11
1365.2655066924574
 21
764.77135235886681
  0
LINE
  8
_0-0_計極細
  6
CONTINUOUS
 62
    2
 10
1383.9791797215096
 20
761.86428868451958
 11
1383.9791797215096
 21
764.77135235886681
  0
ARC
  8
_0-0_計極細
  6
CONTINUOUS
 62
    2
 10
1369.9791929215055
 20
764.87212827824578
 40
2.9999976000001425
 50
0
 51
50.029503000017101
  0
LINE
  8
_0-0_計極細
  6
CONTINUOUS
 62
    2
 10
1366.7655054924592
 20
763.07135571886511
 11
1366.7655054924592
 21
764.77135235886681
  0
LINE
  8
_0-0_計極細
  6
CONTINUOUS
 62
    2
 10
1370.2655066924556
 20
763.07135571886511
 11
1370.2655066924556
 21
764.77135235886681
  0
LINE
  8
_0-0_計極細
  6
CONTINUOUS
 62
    2
 10
1377.9791845215079
 20
764.87212827824578
 11
1375.729186321508
 21
764.87212827824578
  0
LINE
  8
_0-0_計極細
  6
CONTINUOUS
 62
    2
 10
1377.9791845215079
 20
763.87213307824231
 11
1377.9791845215079
 21
764.87212827824578
  0
ARC
  8
_0-0_計極細
  6
CONTINUOUS
 62
    2
 10
1375.9791881215071
 20
763.87213307824231
 40
1.9999964000021464
 50
269.99999999999977
 51
359.99999999999966
  0
LINE
  8
_0-0_計極細
  6
CONTINUOUS
 62
    2
 10
1372.9791905215063
 20
761.87213067824496
 11
1372.9791905215063
 21
764.87212827824578
  0
LINE
  8
_0-0_計極細
  6
CONTINUOUS
 62
    2
 10
1377.6489987856587
 20
762.7713559588633
 11
1378.4791821215097
 21
762.7713559588633
  0
LINE
  8
_0-0_計極細
  6
CONTINUOUS
 62
    2
 10
1378.4791821215097
 20
764.77135235886681
 11
1383.9791797215096
 21
764.77135235886681
  0
LINE
  8
_0-0_計極細
  6
CONTINUOUS
 62
    2
 10
1378.4791821215097
 20
767.47135019886673
 11
1379.7791830815106
 21
767.47135019886673
  0
LINE
  8
_0-0_計極細
  6
CONTINUOUS
 62
    2
 10
1378.4791821215097
 20
766.7713487588685
 11
1380.4791845215098
 21
766.7713487588685
  0
LINE
  8
_0-0_計極細
  6
CONTINUOUS
 62
    2
 10
1362.3820769992055
 20
761.06429132451785
 11
1385.4581785383118
 21
761.06429132451785
  0
LINE
  8
_0-0_計極細
  6
CONTINUOUS
 62
    2
 10
1385.4581785383118
 20
766.25035117566631
 11
1383.9791797215096
 21
764.77135235886681
  0
LINE
  8
_0-0_計極細
  6
CONTINUOUS
 62
    2
 10
1385.4581785383118
 20
761.06429132451785
 11
1383.9791797215096
 21
761.86428868451958
  0
ARC
  8
_0-0_計極細
  6
CONTINUOUS
 62
    2
 10
1368.4791941215037
 20
762.24638037884552
 40
5.9999952000009671
 50
55.166293999995098
 51
179.99999999999983
  0
LINE
  8
_0-0_計極細
  6
CONTINUOUS
 62
    2
 10
1380.4791845215098
 20
766.7713487588685
 11
1380.4791845215098
 21
778.02133975887
  0
LINE
  8
_0-0_計極細
  6
CONTINUOUS
 62
    2
 10
1379.7791830815106
 20
767.47135019886673
 11
1379.7791830815106
 21
778.02133975887
  0
LINE
  8
_0-0_計極細
  6
CONTINUOUS
 62
    2
 10
1385.4581785383118
 20
766.25035117566631
 11
1385.4581785383118
 21
781.56427692451916
  0
LINE
  8
_0-0_計極細
  6
CONTINUOUS
 62
    2
 10
1375.729186321508
 20
764.87212827824578
 11
1375.729186321508
 21
769.27212875824398
  0
LINE
  8
_0-0_計極細
  6
CONTINUOUS
 62
    2
 10
1376.2291839215125
 20
764.87212827824578
 11
1376.2291839215125
 21
768.77135115886585
  0
LINE
  8
_0-0_計極細
  6
CONTINUOUS
 62
    2
 10
1378.4791821215097
 20
762.7713559588633
 11
1378.4791821215097
 21
768.77135115886585
  0
LINE
  8
_0-0_計極細
  6
CONTINUOUS
 62
    2
 10
1335.4792205215028
 20
761.06429132451785
 11
1360.4791905215136
 21
761.06429132451785
  0
LINE
  8
_0-0_計極細
  6
CONTINUOUS
 62
    2
 10
1378.979185721508
 20
775.3721198782473
 11
1335.4792205215028
 21
775.3721198782473
  0
LINE
  8
_0-0_計極細
  6
CONTINUOUS
 62
    2
 10
1378.979185721508
 20
770.77212755824394
 11
1335.4792205215028
 21
770.77212755824394
  0
LINE
  8
_0-0_計極細
  6
CONTINUOUS
 62
    2
 10
1378.979185721508
 20
769.27212875824398
 11
1335.4792205215028
 21
769.27212875824398
  0
LINE
  8
_0-0_計極細
  6
CONTINUOUS
 62
    2
 10
1335.4792205215028
 20
770.87745747397867
 11
1378.8291858415089
 21
770.87745747397867
  0
LINE
  8
_0-0_計極細
  6
CONTINUOUS
 62
    2
 10
1335.4792205215028
 20
771.87745867397871
 11
1374.7291851215107
 21
771.87745867397871
  0
LINE
  8
_0-0_計極細
  6
CONTINUOUS
 62
    2
 10
1335.4792205215028
 20
774.17745483398039
 11
1374.7291851215107
 21
774.17745483398039
  0
LINE
  8
_0-0_計極細
  6
CONTINUOUS
 62
    2
 10
1335.6792183615064
 20
776.27134515886655
 11
1379.2791854815116
 21
776.27134515886655
  0
LINE
  8
_0-0_計極細
  6
CONTINUOUS
 62
    2
 10
1335.6792183615064
 20
777.27134035887002
 11
1378.6791859615098
 21
777.27134035887002
  0
LINE
  8
_0-0_計極細
  6
CONTINUOUS
 62
    2
 10
1335.4792205215028
 20
775.17745603397771
 11
1379.6291832015088
 21
775.17745603397771
  0
LINE
  8
_0-0_計極細
  6
CONTINUOUS
 62
    2
 10
1335.4792205215028
 20
782.2713403588682
 11
1385.4581785383118
 21
782.2713403588682
  0
LINE
  8
_0-0_計極細
  6
CONTINUOUS
 62
    2
 10
1374.7291851215107
 20
697.86434388450516
 11
1374.7291851215107
 21
724.86432228450985
  0
LINE
  8
_0-0_計極細
  6
CONTINUOUS
 62
    2
 10
1362.4707329282812
 20
705.94240142205535
 11
1362.4707449282689
 21
705.94241342204577
  0
ARC
  8
_0-0_計極細
  6
CONTINUOUS
 62
    2
 10
1361.4791977215102
 20
706.07217531823744
 40
1.0000011999986782
 50
269.99999999999977
 51
359.99999999999966
  0
ARC
  8
_0-0_計極細
  6
CONTINUOUS
 62
    2
 10
1375.4791845215088
 20
683.86435108450632
 40
7.9999916000031135
 50
269.99999999999977
 51
359.99999999999966
  0
LINE
  8
_0-0_計極細
  6
CONTINUOUS
 62
    2
 10
1363.4791941215083
 20
673.36435948450571
 11
1373.4791881215081
 21
673.36435948450571
  0
LINE
  8
_0-0_計極細
  6
CONTINUOUS
 62
    2
 10
1376.9791833215106
 20
673.36435948450571
 11
1377.9791845215079
 21
673.36435948450571
  0
ARC
  8
_0-0_計極細
  6
CONTINUOUS
 62
    2
 10
1377.9791845215079
 20
681.36435708450381
 40
7.9999916000031135
 50
269.99999999999977
 51
359.99999999999966
  0
ARC
  8
_0-0_計極細
  6
CONTINUOUS
 62
    2
 10
1362.7291947215074
 20
697.86434388450516
 40
9.9999939999997878
 50
269.99999999999977
 51
359.99999999999966
  0
ARC
  8
_0-0_計極細
  6
CONTINUOUS
 62
    2
 10
1362.7291947215074
 20
697.86434388450516
 40
11.999990400001934
 50
269.99999999999977
 51
359.99999999999966
  0
LINE
  8
_0-0_計極細
  6
CONTINUOUS
 62
    2
 10
1336.4757957242421
 20
676.36091308725963
 11
1336.4103237766196
 21
685.85406949273101
  0
LINE
  8
_0-0_計極細
  6
CONTINUOUS
 62
    2
 10
1360.4791965215074
 20
675.86435948450389
 11
1360.4791965215074
 21
685.86435348450368
  0
ARC
  8
_0-0_計極細
  6
CONTINUOUS
 62
    2
 10
1336.9757813242506
 20
676.36435708450563
 40
0.4999976000017341
 50
180.39513700004423
 51
269.99999999999977
  0
LINE
  8
_0-0_計極細
  6
CONTINUOUS
 62
    2
 10
1360.4791965215074
 20
675.86435948450389
 11
1335.4792205215028
 21
675.86435948450389
  0
LINE
  8
_0-0_計極細
  6
CONTINUOUS
 62
    2
 10
1375.4791845215088
 20
675.86435948450389
 11
1360.4791965215074
 21
675.86435948450389
  0
LINE
  8
_0-0_計極細
  6
CONTINUOUS
 62
    2
 10
1361.4791977215102
 20
705.07218011823306
 11
1335.4792205215028
 21
705.07218011823306
  0
LINE
  8
_0-0_計極細
  6
CONTINUOUS
 62
    2
 10
1335.4792205215028
 20
687.86434988450537
 11
1362.7291947215074
 21
687.86434988450537
  0
LINE
  8
_0-0_計極細
  6
CONTINUOUS
 62
    2
 10
1335.4792205215028
 20
685.86435348450368
 11
1362.7291947215074
 21
685.86435348450368
  0
ARC
  8
_0-0_計極細
  6
CONTINUOUS
 62
    2
 10
1361.4791857215171
 20
706.07217531823744
 40
1.0000011999986782
 50
179.99999999999983
 51
269.99999999999977
  0
LINE
  8
_0-0_計極細
  6
CONTINUOUS
 62
    2
 10
1362.7291947215074
 20
685.86435348450368
 11
1360.4791965215074
 21
685.86435348450368
  0
LINE
  8
_0-0_計極細
  6
CONTINUOUS
 62
    2
 10
1360.4791905215136
 20
706.07217531823744
 11
1360.4791905215136
 21
760.76862956104696
  0
LINE
  8
_0-0_計極細
  6
CONTINUOUS
 62
    2
 10
1362.4791989215048
 20
706.07217531823744
 11
1362.4791989215048
 21
760.76862956104696
  0
LINE
  8
_0-0_計極細
  6
CONTINUOUS
 62
    2
 10
1383.4791821215078
 20
683.86435108450632
 11
1383.4791821215078
 21
734.78587834726068
  0
LINE
  8
_0-0_計極細
  6
CONTINUOUS
 62
    2
 10
1372.7291887215072
 20
697.86434388450516
 11
1372.7291887215072
 21
754.86429828451446
  0
LINE
  8
_0-0_計極細
  6
CONTINUOUS
 62
    2
 10
1374.7291851215107
 20
697.86434388450516
 11
1374.7291851215107
 21
754.86429828451446
  0
LINE
  8
_0-0_計極細
  6
CONTINUOUS
 62
    2
 10
1385.9791761215131
 20
681.36435708450381
 11
1385.9791761215131
 21
754.53416654862076
  0
LINE
  8
_0-0_計極細
  6
CONTINUOUS
 62
    2
 10
1363.0625304548405
 20
648.36438348449747
 11
1376.5791876415117
 21
648.36438348449747
  0
LINE
  8
_0-0_計極細
  6
CONTINUOUS
 62
    2
 10
1335.4792205215028
 20
643.36438348450019
 11
1360.0355988763897
 21
643.36438348450019
  0
LINE
  8
_0-0_計極細
  6
CONTINUOUS
 62
    2
 10
1360.0355988763897
 20
643.36438348450019
 11
1362.9791965215065
 21
643.36438348450019
  0
LINE
  8
_0-0_計極細
  6
CONTINUOUS
 62
    2
 10
1362.9791965215065
 20
643.36438348450019
 11
1363.4791941215083
 21
673.36435948450571
  0
LINE
  8
_0-0_計極細
  6
CONTINUOUS
 62
    2
 10
1360.9792001215058
 20
643.36438348450019
 11
1360.4791965215074
 21
675.86435948450389
  0
LINE
  8
_0-0_計極細
  6
CONTINUOUS
 62
    2
 10
1373.7291899215045
 20
648.36438348449747
 11
1373.4791881215081
 21
673.36435948450571
  0
LINE
  8
_0-0_計極細
  6
CONTINUOUS
 62
    2
 10
1376.5791876415117
 20
648.36438348449747
 11
1376.9791833215106
 21
673.36435948450571
  0
LINE
  8
_0-0_計極細
  6
CONTINUOUS
 62
    2
 10
1335.4792205215028
 20
783.27133555887076
 11
1392.379173001513
 21
783.27133555887076
  0
LINE
  8
_0-0_計極細
  6
CONTINUOUS
 62
    2
 10
1392.379173001513
 20
767.41952824032478
 11
1392.379173001513
 21
783.27133555887076
  0
LINE
  8
_0-0_計極細
  6
CENTER1
 62
    2
 10
1312.0759240887903
 20
667.86420928466805
 11
1485.7008129776784
 21
667.86420928466805
  0
LINE
  8
_0-5_寸法線
  6
CONTINUOUS
 62
    7
 10
1418.1792205215027
 20
784.36428260452919
 11
1553.1699646002321
 21
784.36428260452874
  0
LINE
  8
_0-5_寸法線
  6
CONTINUOUS
 62
    7
 10
1545.1699646002321
 20
784.36428260452874
 11
1549.3110693218723
 21
768.90946938390357
  0
LINE
  8
_0-5_寸法線
  6
CONTINUOUS
 62
    7
 10
1545.1699646002321
 20
784.36428260452874
 11
1541.0288598785917
 21
768.90946938390368
  0
LINE
  8
_0-5_寸法線
  6
CONTINUOUS
 62
    7
 10
1431.4792205215026
 20
805.86428260452931
 11
1553.1699646002321
 21
805.86428260452885
  0
LINE
  8
_0-5_寸法線
  6
CONTINUOUS
 62
    7
 10
1545.1699646002321
 20
805.86428260452885
 11
1541.0288598785919
 21
821.31909582515391
  0
LINE
  8
_0-5_寸法線
  6
CONTINUOUS
 62
    7
 10
1545.1699646002321
 20
805.86428260452885
 11
1549.3110693218725
 21
821.31909582515391
  0
LINE
  8
_0-5_寸法線
  6
CONTINUOUS
 62
    7
 10
1545.1699646002321
 20
744.36428260452874
 11
1545.1699646002321
 21
869.86428260452885
  0
TEXT
  8
_0-5_寸法線
 62
    7
 10
1545.1699646002323
 20
816.14930182300816
 40
24
 41
1
 50
90
  1
21.5
  0
LINE
  8
_0-5_寸法線
  6
CONTINUOUS
 62
    7
 10
1214.5089719945579
 20
628.36420928466805
 11
1086.2788346207187
 21
628.3642092846685
  0
LINE
  8
_0-5_寸法線
  6
CONTINUOUS
 62
    7
 10
1094.2788346207187
 20
628.3642092846685
 11
1090.1377298990785
 21
643.81902250529356
  0
LINE
  8
_0-5_寸法線
  6
CONTINUOUS
 62
    7
 10
1094.2788346207187
 20
628.3642092846685
 11
1098.4199393423592
 21
643.81902250529356
  0
LINE
  8
_0-5_寸法線
  6
CONTINUOUS
 62
    7
 10
1214.278834620719
 20
805.86428260452931
 11
1086.2788346207187
 21
805.86428260452976
  0
LINE
  8
_0-5_寸法線
  6
CONTINUOUS
 62
    7
 10
1094.2788346207187
 20
805.86428260452976
 11
1098.4199393423592
 21
790.40946938390471
  0
LINE
  8
_0-5_寸法線
  6
CONTINUOUS
 62
    7
 10
1094.2788346207187
 20
805.86428260452976
 11
1090.1377298990785
 21
790.40946938390471
  0
LINE
  8
_0-5_寸法線
  6
CONTINUOUS
 62
    7
 10
1094.2788346207187
 20
628.3642092846685
 11
1094.2788346207187
 21
805.86428260452976
  0
TEXT
  8
_0-5_寸法線
 62
    7
 10
1094.2788346207185
 20
639.11424594459913
 40
24
 41
1
 50
89.999999999999844
  1
177(137)～203
  0
LINE
  8
_0-5_寸法線
  6
CONTINUOUS
 62
    7
 10
1214.5089719945579
 20
628.36420928466805
 11
1142.2788346207187
 21
628.36420928466828
  0
LINE
  8
_0-5_寸法線
  6
CONTINUOUS
 62
    7
 10
1150.2788346207187
 20
628.36420928466828
 11
1146.1377298990785
 21
643.81902250529333
  0
LINE
  8
_0-5_寸法線
  6
CONTINUOUS
 62
    7
 10
1150.2788346207187
 20
628.36420928466828
 11
1154.4199393423592
 21
643.81902250529333
  0
LINE
  8
_0-5_寸法線
  6
CONTINUOUS
 62
    7
 10
1214.5089719945579
 20
718.36411828469818
 11
1142.2788346207187
 21
718.36411828469841
  0
LINE
  8
_0-5_寸法線
  6
CONTINUOUS
 62
    7
 10
1150.2788346207187
 20
718.36411828469841
 11
1154.4199393423589
 21
702.90930506407335
  0
LINE
  8
_0-5_寸法線
  6
CONTINUOUS
 62
    7
 10
1150.2788346207187
 20
718.36411828469841
 11
1146.1377298990783
 21
702.90930506407335
  0
LINE
  8
_0-5_寸法線
  6
CONTINUOUS
 62
    7
 10
1150.2788346207187
 20
628.36420928466828
 11
1150.2788346207187
 21
718.36411828469841
  0
TEXT
  8
_0-5_寸法線
 62
    7
 10
1150.2788346207187
 20
661.3641637846838
 40
24
 41
1
 50
90
  1
90
  0
LINE
  8
_0-5_寸法線
  6
CONTINUOUS
 62
    7
 10
1150.2788346207187
 20
718.36411828469841
 11
1146.1377298990785
 21
733.81893150532346
  0
LINE
  8
_0-5_寸法線
  6
CONTINUOUS
 62
    7
 10
1150.2788346207187
 20
718.36411828469841
 11
1154.4199393423592
 21
733.81893150532346
  0
LINE
  8
_0-5_寸法線
  6
CONTINUOUS
 62
    7
 10
1214.278834620719
 20
805.86428260452931
 11
1142.2788346207187
 21
805.86428260452954
  0
LINE
  8
_0-5_寸法線
  6
CONTINUOUS
 62
    7
 10
1150.2788346207187
 20
805.86428260452954
 11
1154.4199393423589
 21
790.40946938390448
  0
LINE
  8
_0-5_寸法線
  6
CONTINUOUS
 62
    7
 10
1150.2788346207187
 20
805.86428260452954
 11
1146.1377298990783
 21
790.40946938390448
  0
LINE
  8
_0-5_寸法線
  6
CONTINUOUS
 62
    7
 10
1150.2788346207187
 20
718.36411828469841
 11
1150.2788346207187
 21
805.86428260452954
  0
TEXT
  8
_0-5_寸法線
 62
    7
 10
1150.2788346207187
 20
725.21241381090181
 40
24
 41
1
 50
90
  1
87(47)～113
  0
LINE
  8
_0-e_極細4
  6
CONTINUOUS
 62
    6
 10
309.95210345902581
 20
524.06261608545799
 11
309.95210345902581
 21
556.35210064545095
  0
LINE
  8
_0-e_極細4
  6
CONTINUOUS
 62
    6
 10
374.63930145902691
 20
274.35210064545061
 11
368.75210345902724
 21
274.35210064545061
  0
LINE
  8
_0-e_極細4
  6
CONTINUOUS
 62
    6
 10
368.58543745902853
 20
284.35210064545083
 11
341.55210345902879
 21
284.35210064545083
  0
LINE
  8
_0-e_極細4
  6
CONTINUOUS
 62
    6
 10
341.55210345902879
 20
284.35210064545083
 11
340.75210345902872
 21
334.35210064545061
  0
LINE
  8
_0-e_極細4
  6
CONTINUOUS
 62
    6
 10
322.75210345902724
 20
350.35210064545061
 11
322.75210345902724
 21
498.29188008545805
  0
ARC
  8
_0-e_極細4
  6
CONTINUOUS
 62
    6
 10
338.75210345902724
 20
350.35210064545061
 40
16
 50
179.99999999999983
 51
269.99999999999977
  0
LINE
  8
_0-e_極細4
  6
CONTINUOUS
 62
    6
 10
423.75210345902872
 20
274.35210064545061
 11
374.63930145902691
 21
274.35210064545061
  0
LINE
  8
_0-e_極細4
  6
CONTINUOUS
 62
    6
 10
368.75210345902724
 20
274.35210064545061
 11
368.58543679236163
 21
284.35210064545083
  0
LINE
  8
_0-e_極細4
  6
CONTINUOUS
 62
    6
 10
317.75210345902724
 20
506.95213408545794
 11
317.75210345902724
 21
522.95213408545794
  0
ARC
  8
_0-e_極細4
  6
CONTINUOUS
 62
    6
 10
312.75210345902724
 20
498.29188008545805
 40
10
 50
0
 51
59.999999999998813
  0
LINE
  8
_0-e_極細4
  6
CONTINUOUS
 62
    6
 10
309.95210345902581
 20
522.95213408545794
 11
309.95210345902581
 21
524.06261608545799
  0
LINE
  8
_0-e_極細4
  6
CONTINUOUS
 62
    6
 10
317.75210345902724
 20
522.95213408545794
 11
309.95210345902581
 21
522.95213408545794
  0
LINE
  8
_0-e_極細4
  6
CONTINUOUS
 62
    6
 10
309.95210345902581
 20
556.35210064545095
 11
537.55210345902879
 21
556.35210064545095
  0
LINE
  8
_0-e_極細4
  6
CONTINUOUS
 62
    6
 10
537.55210345902879
 20
524.06261608545799
 11
537.55210345902879
 21
556.35210064545095
  0
LINE
  8
_0-e_極細4
  6
CONTINUOUS
 62
    6
 10
506.75210345902724
 20
334.35210064545061
 11
508.75210345902724
 21
334.35210064545038
  0
LINE
  8
_0-e_極細4
  6
CONTINUOUS
 62
    6
 10
472.86490545902768
 20
274.35210064545061
 11
478.75210345902724
 21
274.35210064545061
  0
LINE
  8
_0-e_極細4
  6
CONTINUOUS
 62
    6
 10
478.91876945902607
 20
284.35210064545083
 11
505.95210345902728
 21
284.35210064545083
  0
LINE
  8
_0-e_極細4
  6
CONTINUOUS
 62
    6
 10
505.95210345902728
 20
284.35210064545083
 11
506.75210345902724
 21
334.35210064545061
  0
LINE
  8
_0-e_極細4
  6
CONTINUOUS
 62
    6
 10
524.75210345902724
 20
350.35210064545061
 11
524.75210345902724
 21
498.29188008545805
  0
ARC
  8
_0-e_極細4
  6
CONTINUOUS
 62
    6
 10
508.75210345902724
 20
350.35210064545061
 40
16
 50
269.99999999999977
 51
359.99999999999966
  0
LINE
  8
_0-e_極細4
  6
CONTINUOUS
 62
    6
 10
423.75210345902724
 20
274.35210064545061
 11
472.86490545902768
 21
274.35210064545061
  0
LINE
  8
_0-e_極細4
  6
CONTINUOUS
 62
    6
 10
478.75210345902724
 20
274.35210064545061
 11
478.91877012569296
 21
284.35210064545083
  0
LINE
  8
_0-e_極細4
  6
CONTINUOUS
 62
    6
 10
529.75210345902872
 20
506.95213408545794
 11
529.75210345902872
 21
522.95213408545794
  0
ARC
  8
_0-e_極細4
  6
CONTINUOUS
 62
    6
 10
534.75210345902724
 20
498.29188008545805
 40
10
 50
119.99999999999386
 51
179.99999999999983
  0
LINE
  8
_0-e_極細4
  6
CONTINUOUS
 62
    6
 10
537.55210345902879
 20
522.95213408545794
 11
537.55210345902879
 21
524.06261608545799
  0
LINE
  8
_0-e_極細4
  6
CONTINUOUS
 62
    6
 10
529.75210345902872
 20
522.95213408545794
 11
537.55210345902879
 21
522.95213408545794
  0
LINE
  8
_0-e_極細4
  6
CONTINUOUS
 62
    6
 10
423.75210345902724
 20
554.35210064545095
 11
319.68093021922823
 21
554.35210064545095
  0
LINE
  8
_0-e_極細4
  6
CONTINUOUS
 62
    6
 10
340.75210345902872
 20
334.35210064545061
 11
338.75210345902724
 21
334.35210064545038
  0
LINE
  8
_0-e_極細4
  6
CONTINUOUS
 62
    6
 10
329.50210345145888
 20
455.21092116310535
 11
345.25210345902724
 21
455.21092116310535
  0
LINE
  8
_0-e_極細4
  6
CONTINUOUS
 62
    6
 10
369.75210345902724
 20
395.76778664545088
 11
369.75210345902724
 21
513.71631208545784
  0
ARC
  8
_0-e_極細4
  6
CONTINUOUS
 62
    6
 10
371.75210345902724
 20
395.76778664545088
 40
2
 50
179.99999999999983
 51
270.00045836622479
  0
LINE
  8
_0-e_極細4
  6
CONTINUOUS
 62
    6
 10
371.75210345902724
 20
393.76778664545043
 11
423.75210345902724
 21
393.76778664545088
  0
LINE
  8
_0-e_極細4
  6
CONTINUOUS
 62
    6
 10
368.58543679236163
 20
284.35210064545083
 11
367.75210345902724
 21
334.35210064545061
  0
LINE
  8
_0-e_極細4
  6
CONTINUOUS
 62
    6
 10
343.75210345902724
 20
339.35210064545061
 11
373.75210345902724
 21
339.35210064545061
  0
LINE
  8
_0-e_極細4
  6
CONTINUOUS
 62
    6
 10
327.75210345902724
 20
355.35210064545038
 11
327.75210345902724
 21
457.19523464545034
  0
LINE
  8
_0-e_極細4
  6
CONTINUOUS
 62
    6
 10
372.75210345902872
 20
274.35210064545061
 11
373.75210345902724
 21
339.35210064545061
  0
LINE
  8
_0-e_極細4
  6
CONTINUOUS
 62
    6
 10
367.75210345902724
 20
334.35210064545061
 11
347.75210345902724
 21
334.35210064545061
  0
ARC
  8
_0-e_極細4
  6
CONTINUOUS
 62
    6
 10
343.75210345902724
 20
355.35210064545061
 40
16
 50
180.00000000000045
 51
269.99999999999977
  0
LINE
  8
_0-e_極細4
  6
CONTINUOUS
 62
    6
 10
373.75210345902724
 20
339.35210064545061
 11
423.75210345902724
 21
339.35210064545061
  0
LINE
  8
_0-e_極細4
  6
CONTINUOUS
 62
    6
 10
373.74894545902771
 20
339.14675464545064
 11
373.75210345902724
 21
339.35210064545061
  0
LINE
  8
_0-e_極細4
  6
CONTINUOUS
 62
    6
 10
345.25210345902724
 20
383.35210064545061
 11
345.25210345902724
 21
437.35210064545061
  0
LINE
  8
_0-e_極細4
  6
CONTINUOUS
 62
    6
 10
369.25210345902724
 20
359.35210064545061
 11
373.75210345902724
 21
359.35210064545061
  0
LINE
  8
_0-e_極細4
  6
CONTINUOUS
 62
    6
 10
373.75210345902724
 20
339.35210064545061
 11
373.75210345902724
 21
359.35210064545061
  0
ARC
  8
_0-e_極細4
  6
CONTINUOUS
 62
    6
 10
369.25210345902724
 20
383.35210064545061
 40
24
 50
179.99999999999983
 51
269.99999999999977
  0
ARC
  8
_0-e_極細4
  6
CONTINUOUS
 62
    6
 10
329.75210345902724
 20
457.19523464545034
 40
2
 50
179.99999999999983
 51
262.81924400000844
  0
LINE
  8
_0-e_極細4
  6
CONTINUOUS
 62
    6
 10
327.75210345902724
 20
457.19523464545034
 11
327.75210345902724
 21
511.35213408545803
  0
LINE
  8
_0-e_極細4
  6
CONTINUOUS
 62
    6
 10
347.25210345902872
 20
284.35210064545083
 11
347.75210345902724
 21
334.35210064545061
  0
LINE
  8
_0-e_極細4
  6
CONTINUOUS
 62
    6
 10
423.75210345902724
 20
359.35210064545061
 11
421.89003545902801
 21
359.35210064545061
  0
LINE
  8
_0-e_極細4
  6
CONTINUOUS
 62
    6
 10
421.89003545902801
 20
359.35210064545061
 11
369.25210345902724
 21
359.35210064545061
  0
LINE
  8
_0-e_極細4
  6
CONTINUOUS
 62
    6
 10
345.25210345902724
 20
383.35210064545061
 11
345.25210345902724
 21
498.95213408545794
  0
LINE
  8
_0-e_極細4
  6
CONTINUOUS
 62
    6
 10
349.25210345902724
 20
383.35210064545061
 11
349.25210345902724
 21
498.95213408545794
  0
LINE
  8
_0-e_極細4
  6
CONTINUOUS
 62
    6
 10
423.75210345902724
 20
363.35210064545061
 11
369.25210345902724
 21
363.35210064545061
  0
ARC
  8
_0-e_極細4
  6
CONTINUOUS
 62
    6
 10
369.25210345902724
 20
383.35210064545061
 40
20
 50
179.99999999999983
 51
269.99999999999977
  0
LINE
  8
_0-e_極細4
  6
CONTINUOUS
 62
    6
 10
343.25210345902724
 20
527.76782008545786
 11
423.75210345902724
 21
527.76782008545786
  0
LINE
  8
_0-e_極細4
  6
CONTINUOUS
 62
    6
 10
343.25210345902724
 20
518.96782008545813
 11
343.25210345902724
 21
527.76782008545786
  0
LINE
  8
_0-e_極細4
  6
CONTINUOUS
 62
    6
 10
336.75210345902724
 20
527.76782008545786
 11
343.25210345902724
 21
527.76782008545786
  0
LINE
  8
_0-e_極細4
  6
CONTINUOUS
 62
    6
 10
338.75210345902724
 20
518.96782008545813
 11
343.25210345902724
 21
518.96782008545813
  0
LINE
  8
_0-e_極細4
  6
CONTINUOUS
 62
    6
 10
338.75210345902724
 20
516.96782008545813
 11
338.75210345902724
 21
518.96782008545813
  0
ARC
  8
_0-e_極細4
  6
CONTINUOUS
 62
    6
 10
342.75210345902724
 20
516.96782008545813
 40
4
 50
179.99999999999983
 51
269.99999999999977
  0
LINE
  8
_0-e_極細4
  6
CONTINUOUS
 62
    6
 10
342.75210345902724
 20
512.96782008545813
 11
348.75210345902724
 21
512.96782008545813
  0
LINE
  8
_0-e_極細4
  6
CONTINUOUS
 62
    6
 10
348.75210345902724
 20
512.96782008545813
 11
348.75210345902724
 21
518.96782008545813
  0
ARC
  8
_0-e_極細4
  6
CONTINUOUS
 62
    6
 10
323.79410345902852
 20
550.26626208545815
 40
2.1000000000000227
 50
4.1509900000001254
 51
89.999999999999915
  0
LINE
  8
_0-e_極細4
  6
CONTINUOUS
 62
    6
 10
323.79410345902852
 20
521.72426208545801
 11
323.79410345902852
 21
552.36626208545817
  0
LINE
  8
_0-e_極細4
  6
CONTINUOUS
 62
    6
 10
323.79410345902852
 20
552.3521329929564
 11
309.95210345902581
 21
554.32364808545822
  0
LINE
  8
_0-e_極細4
  6
CONTINUOUS
 62
    6
 10
326.75210345902724
 20
512.95213408545794
 11
326.75210345902724
 21
518.76626208545792
  0
LINE
  8
_0-e_極細4
  6
CONTINUOUS
 62
    6
 10
323.79410345902852
 20
511.35213408545803
 11
326.75210345902724
 21
512.95213408545794
  0
LINE
  8
_0-e_極細4
  6
CONTINUOUS
 62
    6
 10
309.95210345902581
 20
550.95213408545817
 11
323.79410345902852
 21
549.35213408545837
  0
ARC
  8
_0-e_極細4
  6
CONTINUOUS
 62
    6
 10
347.25210345902724
 20
498.95213408545794
 40
2
 50
89.999999999999915
 51
179.99999999999983
  0
ARC
  8
_0-e_極細4
  6
CONTINUOUS
 62
    6
 10
347.25210345902724
 20
498.95213408545794
 40
2
 50
0
 51
89.999999999999915
  0
LINE
  8
_0-e_極細4
  6
CONTINUOUS
 62
    6
 10
423.75210345902724
 20
553.76626208545815
 11
323.79410345902852
 21
553.76626208545815
  0
LINE
  8
_0-e_極細4
  6
CONTINUOUS
 62
    6
 10
343.25210345902724
 20
526.76626208545792
 11
335.15210345902869
 21
526.76626208545792
  0
LINE
  8
_0-e_極細4
  6
CONTINUOUS
 62
    6
 10
329.2696554590292
 20
548.76626208545815
 11
331.65210345902733
 21
548.76626208545815
  0
LINE
  8
_0-e_極細4
  6
CONTINUOUS
 62
    6
 10
335.15210345902869
 20
524.16626208545802
 11
335.15210345902869
 21
545.26626208545792
  0
LINE
  8
_0-e_極細4
  6
CONTINUOUS
 62
    6
 10
330.75210345902724
 20
548.76626208545815
 11
330.75210345902724
 21
553.76626208545815
  0
ARC
  8
_0-e_極細4
  6
CONTINUOUS
 62
    6
 10
331.65210345902733
 20
545.26626208545792
 40
3.5000000000000009
 50
0
 51
89.999999999999915
  0
ARC
  8
_0-e_極細4
  6
CONTINUOUS
 62
    6
 10
323.79410345902852
 20
550.26626208545815
 40
3.5000000000000009
 50
4.1509899999993065
 51
89.999999999999915
  0
ARC
  8
_0-e_極細4
  6
CONTINUOUS
 62
    6
 10
329.2696554590292
 20
550.76626208545815
 40
2
 50
183.35088799999573
 51
269.99999999999977
  0
ARC
  8
_0-e_極細4
  6
CONTINUOUS
 62
    6
 10
329.2696554590292
 20
550.76626208545815
 40
3.3999999999999773
 50
183.35088799999863
 51
269.99999999999977
  0
LINE
  8
_0-e_極細4
  6
CONTINUOUS
 62
    6
 10
329.2696554590292
 20
547.36626208545817
 11
331.65210345902733
 21
547.36626208545817
  0
ARC
  8
_0-e_極細4
  6
CONTINUOUS
 62
    6
 10
331.65210345902733
 20
545.26626208545792
 40
2.1000000000000227
 50
0
 51
89.999999999999915
  0
LINE
  8
_0-e_極細4
  6
CONTINUOUS
 62
    6
 10
333.75210345902724
 20
522.76626208545792
 11
333.75210345902724
 21
545.26626208545792
  0
LINE
  8
_0-e_極細4
  6
CONTINUOUS
 62
    6
 10
323.79410345902852
 20
521.72426208545801
 11
326.75210345902724
 21
518.76626208545792
  0
LINE
  8
_0-e_極細4
  6
CONTINUOUS
 62
    6
 10
337.75210345902724
 20
514.76626208545792
 11
337.75210345902724
 21
526.76626208545792
  0
LINE
  8
_0-e_極細4
  6
CONTINUOUS
 62
    6
 10
342.25210345902724
 20
518.96782008545813
 11
342.25210345902724
 21
526.76626208545792
  0
LINE
  8
_0-e_極細4
  6
CONTINUOUS
 62
    6
 10
337.75210345902724
 20
522.76626208545792
 11
333.75210345902724
 21
522.76626208545792
  0
LINE
  8
_0-e_極細4
  6
CONTINUOUS
 62
    6
 10
337.75210345902724
 20
524.16626208545802
 11
335.15210345902869
 21
524.16626208545802
  0
LINE
  8
_0-e_極細4
  6
CONTINUOUS
 62
    6
 10
339.4124714590273
 20
514.76626208545792
 11
337.75210345902724
 21
514.76626208545792
  0
LINE
  8
_0-e_極細4
  6
CONTINUOUS
 62
    6
 10
337.75210345902724
 20
518.76626208545792
 11
326.75210345902724
 21
518.76626208545792
  0
LINE
  8
_0-e_極細4
  6
CONTINUOUS
 62
    6
 10
364.17947745902768
 20
515.36626208545783
 11
354.17947745902768
 21
515.36626208545783
  0
LINE
  8
_0-e_極細4
  6
CONTINUOUS
 62
    6
 10
364.17947745902768
 20
515.36626208545783
 11
364.17947745902768
 21
518.76626208545792
  0
LINE
  8
_0-e_極細4
  6
CONTINUOUS
 62
    6
 10
354.17947745902768
 20
515.36626208545783
 11
354.17947745902768
 21
518.76626208545792
  0
LINE
  8
_0-e_極細4
  6
CONTINUOUS
 62
    6
 10
361.17947745902768
 20
515.36626208545783
 11
361.17947745902768
 21
518.76626208545792
  0
LINE
  8
_0-e_極細4
  6
CONTINUOUS
 62
    6
 10
330.85210345902726
 20
549.16626208545836
 11
330.85210345902726
 21
551.76626208545815
  0
LINE
  8
_0-e_極細4
  6
CONTINUOUS
 62
    6
 10
423.75210345902724
 20
552.76626208545815
 11
331.85210345902726
 21
552.76626208545815
  0
LINE
  8
_0-e_極細4
  6
CONTINUOUS
 62
    6
 10
335.15210345902733
 20
548.76626208545815
 11
331.25210345902724
 21
548.76626208545815
  0
LINE
  8
_0-e_極細4
  6
CONTINUOUS
 62
    6
 10
335.15210345902869
 20
542.76626208545792
 11
335.15210345902733
 21
548.76626208545815
  0
LINE
  8
_0-e_極細4
  6
CONTINUOUS
 62
    6
 10
337.35210345902726
 20
541.76626208545792
 11
337.35210345902726
 21
543.76626208545792
  0
ARC
  8
_0-e_極細4
  6
CONTINUOUS
 62
    6
 10
336.15210345902733
 20
542.76626208545792
 40
1
 50
179.99999999999983
 51
269.99999999999977
  0
ARC
  8
_0-e_極細4
  6
CONTINUOUS
 62
    6
 10
331.85210345902726
 20
551.76626208545815
 40
1
 50
155.94545100000988
 51
179.99999999999983
  0
ARC
  8
_0-e_極細4
  6
CONTINUOUS
 62
    6
 10
331.25210345902724
 20
549.16626208545836
 40
0.3999999999999772
 50
179.99999999999983
 51
269.99999999999977
  0
ARC
  8
_0-e_極細4
  6
CONTINUOUS
 62
    6
 10
331.85210345902726
 20
551.76626208545815
 40
1
 50
89.999999999999915
 51
155.94545100000988
  0
LINE
  8
_0-e_極細4
  6
CONTINUOUS
 62
    6
 10
423.35210345902726
 20
543.76626208545792
 11
337.35210345902726
 21
543.76626208545792
  0
LINE
  8
_0-e_極細4
  6
CONTINUOUS
 62
    6
 10
423.35210345902726
 20
541.76626208545792
 11
336.15210345902733
 21
541.76626208545792
  0
LINE
  8
_0-e_極細4
  6
CONTINUOUS
 62
    6
 10
423.75210345902724
 20
539.57848208545818
 11
335.45210345902581
 21
539.57848208545772
  0
LINE
  8
_0-e_極細4
  6
CONTINUOUS
 62
    6
 10
344.25210345902724
 20
539.57848208545772
 11
344.25210345902724
 21
538.57848208545772
  0
LINE
  8
_0-e_極細4
  6
CONTINUOUS
 62
    6
 10
337.05210345902879
 20
536.57848208545772
 11
335.45210345902581
 21
539.57848208545772
  0
LINE
  8
_0-e_極細4
  6
CONTINUOUS
 62
    6
 10
345.25210345902724
 20
532.97848208545781
 11
344.25210345902724
 21
533.97848208545781
  0
LINE
  8
_0-e_極細4
  6
CONTINUOUS
 62
    6
 10
344.25210345902724
 20
531.97848208545781
 11
345.25210345902724
 21
532.97848208545781
  0
LINE
  8
_0-e_極細4
  6
CONTINUOUS
 62
    6
 10
344.25210345902724
 20
536.57848208545772
 11
345.25210345902724
 21
537.57848208545772
  0
LINE
  8
_0-e_極細4
  6
CONTINUOUS
 62
    6
 10
345.25210345902724
 20
537.57848208545772
 11
344.25210345902724
 21
538.57848208545772
  0
LINE
  8
_0-e_極細4
  6
CONTINUOUS
 62
    6
 10
423.75210345902724
 20
537.57848208545818
 11
345.25210345902724
 21
537.57848208545772
  0
LINE
  8
_0-e_極細4
  6
CONTINUOUS
 62
    6
 10
423.75210345902724
 20
532.97848208545781
 11
345.25210345902724
 21
532.97848208545781
  0
LINE
  8
_0-e_極細4
  6
CONTINUOUS
 62
    6
 10
423.75210345902724
 20
530.97848208545781
 11
337.05210345902879
 21
530.97848208545781
  0
LINE
  8
_0-e_極細4
  6
CONTINUOUS
 62
    6
 10
337.05210345902879
 20
536.57848208545772
 11
337.05210345902879
 21
530.97848208545781
  0
LINE
  8
_0-e_極細4
  6
CONTINUOUS
 62
    6
 10
344.25210345902724
 20
531.97848208545781
 11
344.25210345902724
 21
530.97848208545781
  0
LINE
  8
_0-e_極細4
  6
CONTINUOUS
 62
    6
 10
344.25210345902724
 20
536.57848208545772
 11
344.25210345902724
 21
533.97848208545781
  0
LINE
  8
_0-e_極細4
  6
CONTINUOUS
 62
    6
 10
336.75210345902724
 20
527.76782008545786
 11
336.75210345902724
 21
530.76782008545786
  0
LINE
  8
_0-e_極細4
  6
CONTINUOUS
 62
    6
 10
336.75210345902724
 20
530.76782008545786
 11
423.75210345902724
 21
530.76782008545786
  0
LINE
  8
_0-e_極細4
  6
CONTINUOUS
 62
    6
 10
336.75210345902724
 20
539.96782008545813
 11
423.75210345902724
 21
539.96782008545813
  0
LINE
  8
_0-e_極細4
  6
CONTINUOUS
 62
    6
 10
336.75210345902724
 20
539.96782008545813
 11
336.75210345902724
 21
541.76626208545792
  0
LINE
  8
_0-e_極細4
  6
CONTINUOUS
 62
    6
 10
369.75210345902724
 20
512.95213408545794
 11
326.75210345902724
 21
512.95213408545794
  0
LINE
  8
_0-e_極細4
  6
CONTINUOUS
 62
    6
 10
369.75210345902724
 20
510.76080608545806
 11
369.75210345902724
 21
513.71631208545784
  0
LINE
  8
_0-e_極細4
  6
CONTINUOUS
 62
    6
 10
323.79410345902852
 20
553.76626208545815
 11
309.95210345902581
 21
555.73777611479829
  0
LINE
  8
_0-e_極細4
  6
CONTINUOUS
 62
    6
 10
347.25210345902724
 20
500.95213408545794
 11
369.75210345902724
 21
500.95213408545794
  0
LINE
  8
_0-e_極細4
  6
CONTINUOUS
 62
    6
 10
369.75210345902724
 20
511.35213408545803
 11
323.79410345902852
 21
511.35213408545803
  0
LINE
  8
_0-e_極細4
  6
CONTINUOUS
 62
    6
 10
423.75210345902724
 20
554.35210064545095
 11
527.82327669882932
 21
554.35210064545095
  0
LINE
  8
_0-e_極細4
  6
CONTINUOUS
 62
    6
 10
518.00210346659571
 20
455.21092116310535
 11
502.25210345902724
 21
455.21092116310535
  0
LINE
  8
_0-e_極細4
  6
CONTINUOUS
 62
    6
 10
477.75210345902724
 20
395.76778664545088
 11
477.75210345902724
 21
513.71631208545784
  0
ARC
  8
_0-e_極細4
  6
CONTINUOUS
 62
    6
 10
475.75210345902724
 20
395.76778664545088
 40
2
 50
269.99954163377447
 51
359.99999999999966
  0
LINE
  8
_0-e_極細4
  6
CONTINUOUS
 62
    6
 10
475.75210345902724
 20
393.76778664545043
 11
423.75210345902724
 21
393.76778664545088
  0
LINE
  8
_0-e_極細4
  6
CONTINUOUS
 62
    6
 10
478.91877012569296
 20
284.35210064545083
 11
479.75210345902724
 21
334.35210064545061
  0
LINE
  8
_0-e_極細4
  6
CONTINUOUS
 62
    6
 10
503.75210345902724
 20
339.35210064545061
 11
473.75210345902724
 21
339.35210064545061
  0
LINE
  8
_0-e_極細4
  6
CONTINUOUS
 62
    6
 10
519.75210345902724
 20
355.35210064545038
 11
519.75210345902724
 21
457.19523464545034
  0
LINE
  8
_0-e_極細4
  6
CONTINUOUS
 62
    6
 10
474.75210345902724
 20
274.35210064545061
 11
473.75210345902724
 21
339.35210064545061
  0
LINE
  8
_0-e_極細4
  6
CONTINUOUS
 62
    6
 10
479.75210345902724
 20
334.35210064545061
 11
499.75210345902724
 21
334.35210064545061
  0
ARC
  8
_0-e_極細4
  6
CONTINUOUS
 62
    6
 10
503.75210345902724
 20
355.35210064545061
 40
16
 50
269.99999999999977
 51
359.99999999999881
  0
LINE
  8
_0-e_極細4
  6
CONTINUOUS
 62
    6
 10
473.75210345902724
 20
339.35210064545061
 11
423.75210345902724
 21
339.35210064545061
  0
LINE
  8
_0-e_極細4
  6
CONTINUOUS
 62
    6
 10
473.75526145902677
 20
339.14675464545064
 11
473.75210345902724
 21
339.35210064545061
  0
LINE
  8
_0-e_極細4
  6
CONTINUOUS
 62
    6
 10
502.25210345902724
 20
383.35210064545061
 11
502.25210345902724
 21
437.35210064545061
  0
LINE
  8
_0-e_極細4
  6
CONTINUOUS
 62
    6
 10
478.25210345902724
 20
359.35210064545061
 11
473.75210345902724
 21
359.35210064545061
  0
LINE
  8
_0-e_極細4
  6
CONTINUOUS
 62
    6
 10
473.75210345902724
 20
339.35210064545061
 11
473.75210345902724
 21
359.35210064545061
  0
ARC
  8
_0-e_極細4
  6
CONTINUOUS
 62
    6
 10
478.25210345902724
 20
383.35210064545061
 40
24
 50
269.99999999999977
 51
359.99999999999966
  0
ARC
  8
_0-e_極細4
  6
CONTINUOUS
 62
    6
 10
517.75210345902724
 20
457.19523464545034
 40
2
 50
277.18075599999247
 51
359.99999999999966
  0
LINE
  8
_0-e_極細4
  6
CONTINUOUS
 62
    6
 10
519.75210345902724
 20
457.19523464545034
 11
519.75210345902724
 21
511.35213408545803
  0
LINE
  8
_0-e_極細4
  6
CONTINUOUS
 62
    6
 10
500.25210345902724
 20
284.35210064545083
 11
499.75210345902724
 21
334.35210064545061
  0
LINE
  8
_0-e_極細4
  6
CONTINUOUS
 62
    6
 10
423.75210345902724
 20
359.35210064545061
 11
425.61417145902806
 21
359.35210064545061
  0
LINE
  8
_0-e_極細4
  6
CONTINUOUS
 62
    6
 10
425.61417145902806
 20
359.35210064545061
 11
478.25210345902724
 21
359.35210064545061
  0
LINE
  8
_0-e_極細4
  6
CONTINUOUS
 62
    6
 10
502.25210345902724
 20
383.35210064545061
 11
502.25210345902724
 21
498.95213408545794
  0
LINE
  8
_0-e_極細4
  6
CONTINUOUS
 62
    6
 10
498.25210345902724
 20
383.35210064545061
 11
498.25210345902724
 21
498.95213408545794
  0
LINE
  8
_0-e_極細4
  6
CONTINUOUS
 62
    6
 10
423.75210345902724
 20
363.35210064545061
 11
478.25210345902724
 21
363.35210064545061
  0
ARC
  8
_0-e_極細4
  6
CONTINUOUS
 62
    6
 10
478.25210345902724
 20
383.35210064545061
 40
20
 50
269.99999999999977
 51
359.99999999999966
  0
LINE
  8
_0-e_極細4
  6
CONTINUOUS
 62
    6
 10
504.25210345902724
 20
527.76782008545786
 11
423.75210345902724
 21
527.76782008545786
  0
LINE
  8
_0-e_極細4
  6
CONTINUOUS
 62
    6
 10
504.25210345902724
 20
518.96782008545813
 11
504.25210345902724
 21
527.76782008545786
  0
LINE
  8
_0-e_極細4
  6
CONTINUOUS
 62
    6
 10
510.75210345902724
 20
527.76782008545786
 11
504.25210345902724
 21
527.76782008545786
  0
LINE
  8
_0-e_極細4
  6
CONTINUOUS
 62
    6
 10
508.75210345902724
 20
518.96782008545813
 11
504.25210345902724
 21
518.96782008545813
  0
LINE
  8
_0-e_極細4
  6
CONTINUOUS
 62
    6
 10
508.75210345902724
 20
516.96782008545813
 11
508.75210345902724
 21
518.96782008545813
  0
ARC
  8
_0-e_極細4
  6
CONTINUOUS
 62
    6
 10
504.75210345902724
 20
516.96782008545813
 40
4
 50
269.99999999999977
 51
359.99999999999966
  0
LINE
  8
_0-e_極細4
  6
CONTINUOUS
 62
    6
 10
504.75210345902724
 20
512.96782008545813
 11
498.75210345902724
 21
512.96782008545813
  0
LINE
  8
_0-e_極細4
  6
CONTINUOUS
 62
    6
 10
498.75210345902724
 20
512.96782008545813
 11
498.75210345902724
 21
518.96782008545813
  0
ARC
  8
_0-e_極細4
  6
CONTINUOUS
 62
    6
 10
523.71010345902744
 20
550.26626208545815
 40
2.1000000000000227
 50
89.999999999999915
 51
175.84900999999675
  0
LINE
  8
_0-e_極細4
  6
CONTINUOUS
 62
    6
 10
523.71010345902744
 20
521.72426208545801
 11
523.71010345902744
 21
552.36626208545817
  0
LINE
  8
_0-e_極細4
  6
CONTINUOUS
 62
    6
 10
523.71010345902744
 20
552.3521329929564
 11
537.55210345902879
 21
554.32364808545822
  0
LINE
  8
_0-e_極細4
  6
CONTINUOUS
 62
    6
 10
520.75210345902872
 20
512.95213408545794
 11
520.75210345902872
 21
518.76626208545792
  0
LINE
  8
_0-e_極細4
  6
CONTINUOUS
 62
    6
 10
523.71010345902744
 20
511.35213408545803
 11
520.75210345902872
 21
512.95213408545794
  0
LINE
  8
_0-e_極細4
  6
CONTINUOUS
 62
    6
 10
537.55210345902879
 20
550.95213408545817
 11
523.71010345902744
 21
549.35213408545837
  0
ARC
  8
_0-e_極細4
  6
CONTINUOUS
 62
    6
 10
500.25210345902724
 20
498.95213408545794
 40
2
 50
0
 51
89.999999999999915
  0
ARC
  8
_0-e_極細4
  6
CONTINUOUS
 62
    6
 10
500.25210345902724
 20
498.95213408545794
 40
2
 50
89.999999999999915
 51
179.99999999999983
  0
LINE
  8
_0-e_極細4
  6
CONTINUOUS
 62
    6
 10
423.75210345902724
 20
553.76626208545815
 11
523.71010345902744
 21
553.76626208545815
  0
LINE
  8
_0-e_極細4
  6
CONTINUOUS
 62
    6
 10
504.25210345902724
 20
526.76626208545792
 11
512.35210345902726
 21
526.76626208545792
  0
LINE
  8
_0-e_極細4
  6
CONTINUOUS
 62
    6
 10
518.23455145902835
 20
548.76626208545815
 11
515.85210345902726
 21
548.76626208545815
  0
LINE
  8
_0-e_極細4
  6
CONTINUOUS
 62
    6
 10
512.35210345902726
 20
524.16626208545802
 11
512.35210345902726
 21
545.26626208545792
  0
LINE
  8
_0-e_極細4
  6
CONTINUOUS
 62
    6
 10
516.75210345902724
 20
548.76626208545815
 11
516.75210345902724
 21
553.76626208545815
  0
ARC
  8
_0-e_極細4
  6
CONTINUOUS
 62
    6
 10
515.85210345902726
 20
545.26626208545792
 40
3.5000000000000009
 50
89.999999999999915
 51
179.99999999999983
  0
ARC
  8
_0-e_極細4
  6
CONTINUOUS
 62
    6
 10
523.71010345902744
 20
550.26626208545815
 40
3.5000000000000009
 50
89.999999999999915
 51
175.84901000000232
  0
ARC
  8
_0-e_極細4
  6
CONTINUOUS
 62
    6
 10
518.23455145902835
 20
550.76626208545815
 40
2
 50
269.99999999999977
 51
356.64911200000341
  0
ARC
  8
_0-e_極細4
  6
CONTINUOUS
 62
    6
 10
518.23455145902835
 20
550.76626208545815
 40
3.3999999999999773
 50
269.99999999999977
 51
356.64911199999909
  0
LINE
  8
_0-e_極細4
  6
CONTINUOUS
 62
    6
 10
518.23455145902835
 20
547.36626208545817
 11
515.85210345902726
 21
547.36626208545817
  0
ARC
  8
_0-e_極細4
  6
CONTINUOUS
 62
    6
 10
515.85210345902726
 20
545.26626208545792
 40
2.1000000000000227
 50
89.999999999999915
 51
179.99999999999983
  0
LINE
  8
_0-e_極細4
  6
CONTINUOUS
 62
    6
 10
513.75210345902724
 20
522.76626208545792
 11
513.75210345902724
 21
545.26626208545792
  0
LINE
  8
_0-e_極細4
  6
CONTINUOUS
 62
    6
 10
523.71010345902744
 20
521.72426208545801
 11
520.75210345902872
 21
518.76626208545792
  0
LINE
  8
_0-e_極細4
  6
CONTINUOUS
 62
    6
 10
509.75210345902724
 20
514.76626208545792
 11
509.75210345902724
 21
526.76626208545792
  0
LINE
  8
_0-e_極細4
  6
CONTINUOUS
 62
    6
 10
505.25210345902724
 20
518.96782008545813
 11
505.25210345902724
 21
526.76626208545792
  0
LINE
  8
_0-e_極細4
  6
CONTINUOUS
 62
    6
 10
509.75210345902724
 20
522.76626208545792
 11
513.75210345902724
 21
522.76626208545792
  0
LINE
  8
_0-e_極細4
  6
CONTINUOUS
 62
    6
 10
509.75210345902724
 20
524.16626208545802
 11
512.35210345902726
 21
524.16626208545802
  0
LINE
  8
_0-e_極細4
  6
CONTINUOUS
 62
    6
 10
508.09173545902877
 20
514.76626208545792
 11
509.75210345902724
 21
514.76626208545792
  0
LINE
  8
_0-e_極細4
  6
CONTINUOUS
 62
    6
 10
509.75210345902724
 20
518.76626208545792
 11
520.75210345902872
 21
518.76626208545792
  0
LINE
  8
_0-e_極細4
  6
CONTINUOUS
 62
    6
 10
483.32472945902828
 20
515.36626208545783
 11
493.32472945902828
 21
515.36626208545783
  0
LINE
  8
_0-e_極細4
  6
CONTINUOUS
 62
    6
 10
483.32472945902828
 20
515.36626208545783
 11
483.32472945902828
 21
518.76626208545792
  0
LINE
  8
_0-e_極細4
  6
CONTINUOUS
 62
    6
 10
493.32472945902828
 20
515.36626208545783
 11
493.32472945902828
 21
518.76626208545792
  0
LINE
  8
_0-e_極細4
  6
CONTINUOUS
 62
    6
 10
486.32472945902828
 20
515.36626208545783
 11
486.32472945902828
 21
518.76626208545792
  0
LINE
  8
_0-e_極細4
  6
CONTINUOUS
 62
    6
 10
516.65210345902733
 20
549.16626208545836
 11
516.65210345902733
 21
551.76626208545815
  0
LINE
  8
_0-e_極細4
  6
CONTINUOUS
 62
    6
 10
423.75210345902724
 20
552.76626208545815
 11
515.65210345902733
 21
552.76626208545815
  0
LINE
  8
_0-e_極細4
  6
CONTINUOUS
 62
    6
 10
512.35210345902726
 20
548.76626208545815
 11
516.25210345902724
 21
548.76626208545815
  0
LINE
  8
_0-e_極細4
  6
CONTINUOUS
 62
    6
 10
512.35210345902726
 20
542.76626208545792
 11
512.35210345902726
 21
548.76626208545815
  0
LINE
  8
_0-e_極細4
  6
CONTINUOUS
 62
    6
 10
510.15210345902733
 20
541.76626208545792
 11
510.15210345902733
 21
543.76626208545792
  0
ARC
  8
_0-e_極細4
  6
CONTINUOUS
 62
    6
 10
511.35210345902726
 20
542.76626208545792
 40
1
 50
269.99999999999977
 51
359.99999999999966
  0
ARC
  8
_0-e_極細4
  6
CONTINUOUS
 62
    6
 10
515.65210345902733
 20
551.76626208545815
 40
1
 50
0
 51
24.054548999990136
  0
ARC
  8
_0-e_極細4
  6
CONTINUOUS
 62
    6
 10
516.25210345902724
 20
549.16626208545836
 40
0.3999999999999772
 50
269.99999999999977
 51
359.99999999999966
  0
ARC
  8
_0-e_極細4
  6
CONTINUOUS
 62
    6
 10
515.65210345902733
 20
551.76626208545815
 40
1
 50
24.054548999990136
 51
89.999999999999901
  0
LINE
  8
_0-e_極細4
  6
CONTINUOUS
 62
    6
 10
424.15210345902733
 20
543.76626208545792
 11
510.15210345902733
 21
543.76626208545792
  0
LINE
  8
_0-e_極細4
  6
CONTINUOUS
 62
    6
 10
424.15210345902733
 20
541.76626208545792
 11
511.35210345902726
 21
541.76626208545792
  0
LINE
  8
_0-e_極細4
  6
CONTINUOUS
 62
    6
 10
423.75210345902724
 20
539.57848208545818
 11
512.05210345902879
 21
539.57848208545772
  0
LINE
  8
_0-e_極細4
  6
CONTINUOUS
 62
    6
 10
503.25210345902724
 20
539.57848208545772
 11
503.25210345902724
 21
538.57848208545772
  0
LINE
  8
_0-e_極細4
  6
CONTINUOUS
 62
    6
 10
510.45210345902728
 20
536.57848208545772
 11
512.05210345902879
 21
539.57848208545772
  0
LINE
  8
_0-e_極細4
  6
CONTINUOUS
 62
    6
 10
502.25210345902724
 20
532.97848208545781
 11
503.25210345902724
 21
533.97848208545781
  0
LINE
  8
_0-e_極細4
  6
CONTINUOUS
 62
    6
 10
503.25210345902724
 20
531.97848208545781
 11
502.25210345902724
 21
532.97848208545781
  0
LINE
  8
_0-e_極細4
  6
CONTINUOUS
 62
    6
 10
503.25210345902724
 20
536.57848208545772
 11
502.25210345902724
 21
537.57848208545772
  0
LINE
  8
_0-e_極細4
  6
CONTINUOUS
 62
    6
 10
502.25210345902724
 20
537.57848208545772
 11
503.25210345902724
 21
538.57848208545772
  0
LINE
  8
_0-e_極細4
  6
CONTINUOUS
 62
    6
 10
423.75210345902724
 20
537.57848208545818
 11
502.25210345902724
 21
537.57848208545772
  0
LINE
  8
_0-e_極細4
  6
CONTINUOUS
 62
    6
 10
423.75210345902724
 20
532.97848208545781
 11
502.25210345902724
 21
532.97848208545781
  0
LINE
  8
_0-e_極細4
  6
CONTINUOUS
 62
    6
 10
423.75210345902724
 20
530.97848208545781
 11
510.45210345902728
 21
530.97848208545781
  0
LINE
  8
_0-e_極細4
  6
CONTINUOUS
 62
    6
 10
510.45210345902728
 20
536.57848208545772
 11
510.45210345902728
 21
530.97848208545781
  0
LINE
  8
_0-e_極細4
  6
CONTINUOUS
 62
    6
 10
503.25210345902724
 20
531.97848208545781
 11
503.25210345902724
 21
530.97848208545781
  0
LINE
  8
_0-e_極細4
  6
CONTINUOUS
 62
    6
 10
503.25210345902724
 20
536.57848208545772
 11
503.25210345902724
 21
533.97848208545781
  0
LINE
  8
_0-e_極細4
  6
CONTINUOUS
 62
    6
 10
510.75210345902724
 20
527.76782008545786
 11
510.75210345902724
 21
530.76782008545786
  0
LINE
  8
_0-e_極細4
  6
CONTINUOUS
 62
    6
 10
510.75210345902724
 20
530.76782008545786
 11
423.75210345902724
 21
530.76782008545786
  0
LINE
  8
_0-e_極細4
  6
CONTINUOUS
 62
    6
 10
510.75210345902724
 20
539.96782008545813
 11
423.75210345902724
 21
539.96782008545813
  0
LINE
  8
_0-e_極細4
  6
CONTINUOUS
 62
    6
 10
510.75210345902724
 20
539.96782008545813
 11
510.75210345902724
 21
541.76626208545792
  0
LINE
  8
_0-e_極細4
  6
CONTINUOUS
 62
    6
 10
477.75210345902724
 20
512.95213408545794
 11
520.75210345902872
 21
512.95213408545794
  0
LINE
  8
_0-e_極細4
  6
CONTINUOUS
 62
    6
 10
477.75210345902724
 20
510.76080608545806
 11
477.75210345902724
 21
513.71631208545784
  0
LINE
  8
_0-e_極細4
  6
CONTINUOUS
 62
    6
 10
523.71010345902744
 20
553.76626208545815
 11
537.55210345902879
 21
555.73777611479829
  0
LINE
  8
_0-e_極細4
  6
CONTINUOUS
 62
    6
 10
500.25210345902724
 20
500.95213408545794
 11
477.75210345902724
 21
500.95213408545794
  0
LINE
  8
_0-e_極細4
  6
CONTINUOUS
 62
    6
 10
477.75210345902724
 20
511.35213408545803
 11
523.71010345902744
 21
511.35213408545803
  0
LINE
  8
_0-e_極細4
  6
CONTINUOUS
 62
    6
 10
371.31573684361774
 20
274.35210064545083
 11
372.77454668739358
 21
275.81091048922701
  0
LINE
  8
_0-e_極細4
  6
CONTINUOUS
 62
    6
 10
368.72457874915108
 20
276.00358323810303
 11
372.84083794813034
 21
280.11984243708241
  0
LINE
  8
_0-e_極細4
  6
CONTINUOUS
 62
    6
 10
368.65502726247632
 20
280.17667243854805
 11
372.9071292088671
 21
284.42877438493781
  0
LINE
  8
_0-e_極細4
  6
CONTINUOUS
 62
    6
 10
368.58547577580305
 20
284.34976163899353
 11
372.97342046960239
 21
288.73770633279321
  0
LINE
  8
_0-e_極細4
  6
CONTINUOUS
 62
    6
 10
368.51592428912829
 20
288.52285083943832
 11
373.03971173033915
 21
293.04663828064884
  0
LINE
  8
_0-e_極細4
  6
CONTINUOUS
 62
    6
 10
368.44637280245502
 20
292.69594003988357
 11
373.10600299107591
 21
297.35557022850423
  0
LINE
  8
_0-e_極細4
  6
CONTINUOUS
 62
    6
 10
368.37682131577878
 20
296.86902924032881
 11
373.17229425181131
 21
301.66450217635963
  0
LINE
  8
_0-e_極細4
  6
CONTINUOUS
 62
    6
 10
368.30726982910551
 20
301.04211844077383
 11
373.23858551254807
 21
305.97343412421549
  0
LINE
  8
_0-e_極細4
  6
CONTINUOUS
 62
    6
 10
368.23771834243371
 20
305.21520764121908
 11
373.30487677328188
 21
310.28236607207089
  0
LINE
  8
_0-e_極細4
  6
CONTINUOUS
 62
    6
 10
343.1319706595458
 20
284.35210064545083
 11
347.29372096205316
 21
288.5138509479599
  0
LINE
  8
_0-e_極細4
  6
CONTINUOUS
 62
    6
 10
368.16816685575895
 20
309.3882968416641
 11
373.37116803401864
 21
314.59129801992628
  0
LINE
  8
_0-e_極細4
  6
CONTINUOUS
 62
    6
 10
341.5101700182945
 20
286.97294069131942
 11
347.33657591849033
 21
292.79934659151479
  0
LINE
  8
_0-e_極細4
  6
CONTINUOUS
 62
    6
 10
368.0986153690842
 20
313.56138604210958
 11
373.4374592947554
 21
318.90022996778191
  0
LINE
  8
_0-e_極細4
  6
CONTINUOUS
 62
    6
 10
341.44335677912591
 20
291.14876813927151
 11
347.37943087492442
 21
297.08484223506946
  0
LINE
  8
_0-e_極細4
  6
CONTINUOUS
 62
    6
 10
368.02906388240945
 20
317.73447524255459
 11
373.50375055549216
 21
323.20916191563731
  0
LINE
  8
_0-e_極細4
  6
CONTINUOUS
 62
    6
 10
341.37654353995879
 20
295.32459558722383
 11
347.42228583136011
 21
301.37033787862435
  0
LINE
  8
_0-e_極細4
  6
CONTINUOUS
 62
    6
 10
367.95951239573606
 20
321.90756444299961
 11
373.57004181622892
 21
327.51809386349271
  0
LINE
  8
_0-e_極細4
  6
CONTINUOUS
 62
    6
 10
341.30973030079167
 20
299.50042303517569
 11
347.46514078779569
 21
305.65583352217925
  0
LINE
  8
_0-e_極細4
  6
CONTINUOUS
 62
    6
 10
367.8899609090613
 20
326.08065364344486
 11
373.63633307696421
 21
331.82702581134811
  0
LINE
  8
_0-e_極細4
  6
CONTINUOUS
 62
    6
 10
341.24291706162603
 20
303.67625048312777
 11
347.50799574423127
 21
309.94132916573415
  0
LINE
  8
_0-e_極細4
  6
CONTINUOUS
 62
    6
 10
367.82040942238802
 20
330.25374284388988
 11
373.70262433770097
 21
336.13595775920373
  0
LINE
  8
_0-e_極細4
  6
CONTINUOUS
 62
    6
 10
341.17610382245903
 20
307.85207793108009
 11
347.55085070066696
 21
314.22682480928859
  0
LINE
  8
_0-e_極細4
  6
CONTINUOUS
 62
    6
 10
367.67612653682863
 20
334.35210064545083
 11
372.67612653682863
 21
339.35210064545061
  0
LINE
  8
_0-e_極細4
  6
CONTINUOUS
 62
    6
 10
341.10929058329043
 20
312.02790537903195
 11
347.59370565710105
 21
318.51232045284348
  0
LINE
  8
_0-e_極細4
  6
CONTINUOUS
 62
    6
 10
363.43348584970943
 20
334.35210064545061
 11
368.43348584971091
 21
339.35210064545061
  0
LINE
  8
_0-e_極細4
  6
CONTINUOUS
 62
    6
 10
341.04247734412331
 20
316.20373282698404
 11
347.63656061353822
 21
322.79781609639815
  0
LINE
  8
_0-e_極細4
  6
CONTINUOUS
 62
    6
 10
359.19084516259011
 20
334.35210064545083
 11
364.19084516259011
 21
339.35210064545061
  0
LINE
  8
_0-e_極細4
  6
CONTINUOUS
 62
    6
 10
340.97566410495619
 20
320.37956027493635
 11
347.6794155699738
 21
327.08331173995305
  0
LINE
  8
_0-e_極細4
  6
CONTINUOUS
 62
    6
 10
354.9482044754709
 20
334.35210064545083
 11
359.9482044754709
 21
339.35210064545061
  0
LINE
  8
_0-e_極細4
  6
CONTINUOUS
 62
    6
 10
340.90885086578919
 20
324.55538772288821
 11
347.72227052640937
 21
331.36880738350794
  0
LINE
  8
_0-e_極細4
  6
CONTINUOUS
 62
    6
 10
350.70556378835306
 20
334.35210064545083
 11
355.70556378835306
 21
339.35210064545061
  0
LINE
  8
_0-e_極細4
  6
CONTINUOUS
 62
    6
 10
340.84203762662207
 20
328.73121517084053
 11
351.46292310123226
 21
339.35210064545061
  0
LINE
  8
_0-e_極細4
  6
CONTINUOUS
 62
    6
 10
340.77522438745348
 20
332.90704261879262
 11
347.22028241411158
 21
339.35210064545061
  0
LINE
  8
_0-e_極細4
  6
CONTINUOUS
 62
    6
 10
337.99553892104586
 20
334.3699978395033
 11
342.99553892104723
 21
339.3699978395033
  0
LINE
  8
_0-e_極細4
  6
CONTINUOUS
 62
    6
 10
334.35194013705177
 20
334.9690397426283
 11
339.35194013705177
 21
339.9690397426283
  0
LINE
  8
_0-e_極細4
  6
CONTINUOUS
 62
    6
 10
331.32212846881146
 20
336.18186876150628
 11
336.32212846881146
 21
341.18186876150628
  0
LINE
  8
_0-e_極細4
  6
CONTINUOUS
 62
    6
 10
328.75633605584426
 20
337.85871703565829
 11
333.75633605584426
 21
342.85871703565829
  0
LINE
  8
_0-e_極細4
  6
CONTINUOUS
 62
    6
 10
326.59957692841692
 20
339.94459859535152
 11
331.59957692841692
 21
344.94459859535175
  0
LINE
  8
_0-e_極細4
  6
CONTINUOUS
 62
    6
 10
324.84786453722029
 20
342.43552689127444
 11
329.84786453722029
 21
347.43552689127444
  0
LINE
  8
_0-e_極細4
  6
CONTINUOUS
 62
    6
 10
323.54560718551932
 20
345.37591022669142
 11
328.54560718551932
 21
350.37591022669119
  0
LINE
  8
_0-e_極細4
  6
CONTINUOUS
 62
    6
 10
322.81888053094872
 20
348.89182425924048
 11
327.81888053094872
 21
353.89182425924025
  0
LINE
  8
_0-e_極細4
  6
CONTINUOUS
 62
    6
 10
322.75210345902872
 20
353.06768787443923
 11
327.75210345902724
 21
358.06768787443923
  0
LINE
  8
_0-e_極細4
  6
CONTINUOUS
 62
    6
 10
322.75210345902872
 20
357.31032856155832
 11
327.75210345902724
 21
362.31032856155832
  0
LINE
  8
_0-e_極細4
  6
CONTINUOUS
 62
    6
 10
322.75210345902872
 20
361.55296924867787
 11
327.75210345902724
 21
366.55296924867787
  0
LINE
  8
_0-e_極細4
  6
CONTINUOUS
 62
    6
 10
322.75210345902872
 20
365.79560993579696
 11
327.75210345902724
 21
370.79560993579696
  0
LINE
  8
_0-e_極細4
  6
CONTINUOUS
 62
    6
 10
322.75210345902872
 20
370.03825062291605
 11
327.75210345902724
 21
375.03825062291605
  0
LINE
  8
_0-e_極細4
  6
CONTINUOUS
 62
    6
 10
322.75210345902872
 20
374.2808913100356
 11
327.75210345902724
 21
379.28089131003514
  0
LINE
  8
_0-e_極細4
  6
CONTINUOUS
 62
    6
 10
322.75210345902872
 20
378.52353199715469
 11
327.75210345902724
 21
383.52353199715469
  0
LINE
  8
_0-e_極細4
  6
CONTINUOUS
 62
    6
 10
322.75210345902872
 20
382.76617268427424
 11
327.75210345902724
 21
387.76617268427378
  0
LINE
  8
_0-e_極細4
  6
CONTINUOUS
 62
    6
 10
322.75210345902872
 20
387.00881337139333
 11
327.75210345902724
 21
392.00881337139333
  0
LINE
  8
_0-e_極細4
  6
CONTINUOUS
 62
    6
 10
322.75210345902872
 20
391.25145405851288
 11
327.75210345902724
 21
396.25145405851242
  0
LINE
  8
_0-e_極細4
  6
CONTINUOUS
 62
    6
 10
322.75210345902872
 20
395.49409474563197
 11
327.75210345902724
 21
400.49409474563197
  0
LINE
  8
_0-e_極細4
  6
CONTINUOUS
 62
    6
 10
322.75210345902724
 20
399.73673543275106
 11
327.75210345902724
 21
404.73673543275106
  0
LINE
  8
_0-e_極細4
  6
CONTINUOUS
 62
    6
 10
322.75210345902872
 20
403.97937611987061
 11
327.75210345902724
 21
408.97937611987015
  0
LINE
  8
_0-e_極細4
  6
CONTINUOUS
 62
    6
 10
322.75210345902872
 20
408.2220168069897
 11
327.75210345902724
 21
413.2220168069897
  0
LINE
  8
_0-e_極細4
  6
CONTINUOUS
 62
    6
 10
322.75210345902872
 20
412.46465749410925
 11
327.75210345902724
 21
417.46465749410879
  0
LINE
  8
_0-e_極細4
  6
CONTINUOUS
 62
    6
 10
322.75210345902872
 20
416.70729818122834
 11
327.75210345902724
 21
421.70729818122834
  0
LINE
  8
_0-e_極細4
  6
CONTINUOUS
 62
    6
 10
322.75210345902872
 20
420.94993886834789
 11
327.75210345902724
 21
425.94993886834743
  0
LINE
  8
_0-e_極細4
  6
CONTINUOUS
 62
    6
 10
322.75210345902872
 20
425.19257955546698
 11
327.75210345902724
 21
430.19257955546698
  0
LINE
  8
_0-e_極細4
  6
CONTINUOUS
 62
    6
 10
322.75210345902872
 20
429.43522024258607
 11
327.75210345902872
 21
434.43522024258607
  0
LINE
  8
_0-e_極細4
  6
CONTINUOUS
 62
    6
 10
322.75210345902872
 20
433.67786092970562
 11
327.75210345902724
 21
438.67786092970562
  0
LINE
  8
_0-e_極細4
  6
CONTINUOUS
 62
    6
 10
322.75210345902872
 20
437.92050161682471
 11
327.75210345902724
 21
442.92050161682471
  0
LINE
  8
_0-e_極細4
  6
CONTINUOUS
 62
    6
 10
322.75210345902872
 20
442.16314230394426
 11
327.75210345902724
 21
447.16314230394426
  0
LINE
  8
_0-e_極細4
  6
CONTINUOUS
 62
    6
 10
322.75210345902872
 20
446.40578299106335
 11
327.75210345902724
 21
451.40578299106335
  0
LINE
  8
_0-e_極細4
  6
CONTINUOUS
 62
    6
 10
322.75210345902872
 20
450.64842367818244
 11
327.75210345902724
 21
455.64842367818244
  0
LINE
  8
_0-e_極細4
  6
CONTINUOUS
 62
    6
 10
322.75210345902724
 20
454.89106436530199
 11
327.75210345902724
 21
459.89106436530199
  0
LINE
  8
_0-e_極細4
  6
CONTINUOUS
 62
    6
 10
322.75210345902872
 20
459.13370505242108
 11
327.75210345902872
 21
464.13370505242108
  0
LINE
  8
_0-e_極細4
  6
CONTINUOUS
 62
    6
 10
322.75210345902872
 20
463.37634573954062
 11
327.75210345902872
 21
468.37634573954062
  0
LINE
  8
_0-e_極細4
  6
CONTINUOUS
 62
    6
 10
322.75210345902872
 20
467.61898642665972
 11
327.75210345902872
 21
472.61898642665972
  0
LINE
  8
_0-e_極細4
  6
CONTINUOUS
 62
    6
 10
322.75210345902724
 20
471.86162711377926
 11
327.75210345902724
 21
476.86162711377881
  0
LINE
  8
_0-e_極細4
  6
CONTINUOUS
 62
    6
 10
322.75210345902724
 20
476.10426780089836
 11
327.75210345902872
 21
481.10426780089836
  0
LINE
  8
_0-e_極細4
  6
CONTINUOUS
 62
    6
 10
322.75210345902724
 20
480.34690848801745
 11
327.75210345902724
 21
485.34690848801745
  0
LINE
  8
_0-e_極細4
  6
CONTINUOUS
 62
    6
 10
322.75210345902872
 20
484.58954917513699
 11
327.75210345902872
 21
489.58954917513699
  0
LINE
  8
_0-e_極細4
  6
CONTINUOUS
 62
    6
 10
322.75210345902872
 20
488.83218986225609
 11
327.75210345902872
 21
493.83218986225609
  0
LINE
  8
_0-e_極細4
  6
CONTINUOUS
 62
    6
 10
322.75210345902872
 20
493.07483054937563
 11
327.75210345902872
 21
498.07483054937518
  0
LINE
  8
_0-e_極細4
  6
CONTINUOUS
 62
    6
 10
322.75210345902872
 20
497.31747123649473
 11
327.75210345902872
 21
502.31747123649473
  0
LINE
  8
_0-e_極細4
  6
CONTINUOUS
 62
    6
 10
322.33657454615877
 20
501.14458301074535
 11
327.75210345902872
 21
506.56011192361382
  0
LINE
  8
_0-e_極細4
  6
CONTINUOUS
 62
    6
 10
320.95734684019249
 20
504.00799599189793
 11
327.75210345902872
 21
510.80275261073336
  0
LINE
  8
_0-e_極細4
  6
CONTINUOUS
 62
    6
 10
318.89184867735003
 20
506.18513851617524
 11
324.05884424663373
 21
511.35213408545803
  0
LINE
  8
_0-e_極細4
  6
CONTINUOUS
 62
    6
 10
324.37076270036766
 20
511.66405253919118
 11
326.75210345902724
 21
514.04539329785291
  0
LINE
  8
_0-e_極細4
  6
CONTINUOUS
 62
    6
 10
317.75210345902724
 20
509.288033984972
 11
326.75210345902724
 21
518.288033984972
  0
LINE
  8
_0-e_極細4
  6
CONTINUOUS
 62
    6
 10
317.75210345902724
 20
513.5306746720911
 11
324.869897165711
 21
520.64846837877474
  0
LINE
  8
_0-e_極細4
  6
CONTINUOUS
 62
    6
 10
317.75210345902724
 20
517.77331535921064
 11
323.79410345902852
 21
523.81531535921056
  0
LINE
  8
_0-e_極細4
  6
CONTINUOUS
 62
    6
 10
317.75210345902724
 20
522.01595604632973
 11
323.79410345902852
 21
528.05795604632965
  0
LINE
  8
_0-e_極細4
  6
CONTINUOUS
 62
    6
 10
314.44564081103726
 20
522.9521340854584
 11
323.79410345902852
 21
532.3005967334492
  0
LINE
  8
_0-e_極細4
  6
CONTINUOUS
 62
    6
 10
310.20300012391658
 20
522.9521340854584
 11
323.79410345902852
 21
536.54323742056829
  0
LINE
  8
_0-e_極細4
  6
CONTINUOUS
 62
    6
 10
309.95210345902581
 20
526.94387810768683
 11
323.79410345902852
 21
540.78587810768738
  0
LINE
  8
_0-e_極細4
  6
CONTINUOUS
 62
    6
 10
309.95210345902581
 20
531.18651879480637
 11
323.79410345902852
 21
545.02851879480693
  0
LINE
  8
_0-e_極細4
  6
CONTINUOUS
 62
    6
 10
309.95210345902581
 20
535.42915948192547
 11
323.79410345902852
 21
549.27115948192636
  0
LINE
  8
_0-e_極細4
  6
CONTINUOUS
 62
    6
 10
309.95210345902581
 20
539.67180016904501
 11
320.06364225393611
 21
549.78333896395463
  0
LINE
  8
_0-e_極細4
  6
CONTINUOUS
 62
    6
 10
309.95210345902581
 20
543.91444085616411
 11
316.26059650914385
 21
550.22293390628033
  0
LINE
  8
_0-e_極細4
  6
CONTINUOUS
 62
    6
 10
309.95210345902581
 20
548.15708154328343
 11
312.45755076435
 21
550.6625288486058
  0
LINE
  8
_0-e_極細4
  6
CONTINUOUS
 62
    6
 10
504.35231677007823
 20
284.35210064545083
 11
505.97811625071756
 21
285.97790012609096
  0
LINE
  8
_0-e_極細4
  6
CONTINUOUS
 62
    6
 10
500.25069328698578
 20
284.49311784947906
 11
506.04710227815076
 21
290.28952684064291
  0
LINE
  8
_0-e_極細4
  6
CONTINUOUS
 62
    6
 10
500.20868694354851
 20
288.69375219316146
 11
506.11608830558237
 21
294.60115355519486
  0
LINE
  8
_0-e_極細4
  6
CONTINUOUS
 62
    6
 10
500.16668060011273
 20
292.89438653684363
 11
506.18507433301556
 21
298.91278026974703
  0
LINE
  8
_0-e_極細4
  6
CONTINUOUS
 62
    6
 10
477.38175402159959
 20
274.35210064545061
 11
478.77532972067843
 21
275.74567634452853
  0
LINE
  8
_0-e_極細4
  6
CONTINUOUS
 62
    6
 10
500.12467425667546
 20
297.09502088052625
 11
506.25406036045013
 21
303.22440698429898
  0
LINE
  8
_0-e_極細4
  6
CONTINUOUS
 62
    6
 10
474.7276642147159
 20
275.94065152568498
 11
478.84723888486758
 21
280.06022619583666
  0
LINE
  8
_0-e_極細4
  6
CONTINUOUS
 62
    6
 10
500.08266791323967
 20
301.29565522420864
 11
506.32304638788173
 21
307.53603369885093
  0
LINE
  8
_0-e_極細4
  6
CONTINUOUS
 62
    6
 10
474.66338178006254
 20
280.11900977815105
 11
478.91914804905673
 21
284.37477604714456
  0
LINE
  8
_0-e_極細4
  6
CONTINUOUS
 62
    6
 10
500.04066156980252
 20
305.49628956789127
 11
506.39203241531345
 21
311.8476604134031
  0
LINE
  8
_0-e_極細4
  6
CONTINUOUS
 62
    6
 10
474.59909934541054
 20
284.29736803061735
 11
478.9910572132444
 21
288.68932589845224
  0
LINE
  8
_0-e_極細4
  6
CONTINUOUS
 62
    6
 10
499.99865522636674
 20
309.69692391157366
 11
506.46101844274654
 21
316.15928712795505
  0
LINE
  8
_0-e_極細4
  6
CONTINUOUS
 62
    6
 10
474.53481691075558
 20
288.47572628308342
 11
479.06296637743344
 21
293.00387574976014
  0
LINE
  8
_0-e_極細4
  6
CONTINUOUS
 62
    6
 10
499.95664888292799
 20
313.89755825525606
 11
506.53000447018121
 21
320.47091384250723
  0
LINE
  8
_0-e_極細4
  6
CONTINUOUS
 62
    6
 10
474.47053447610369
 20
292.65408453554903
 11
479.13487554162111
 21
297.31842560106782
  0
LINE
  8
_0-e_極細4
  6
CONTINUOUS
 62
    6
 10
499.91464253949073
 20
318.09819259893868
 11
506.59899049761282
 21
324.78254055705918
  0
LINE
  8
_0-e_極細4
  6
CONTINUOUS
 62
    6
 10
474.40625204144874
 20
296.83244278801533
 11
479.20678470581026
 21
301.63297545237572
  0
LINE
  8
_0-e_極細4
  6
CONTINUOUS
 62
    6
 10
499.87263619605494
 20
322.29882694262108
 11
506.66797652504602
 21
329.09416727161113
  0
LINE
  8
_0-e_極細4
  6
CONTINUOUS
 62
    6
 10
512.33140427435706
 20
334.75759502092444
 11
524.3466090835542
 21
346.77279983012011
  0
LINE
  8
_0-e_極細4
  6
CONTINUOUS
 62
    6
 10
474.34196960679674
 20
301.01080104048117
 11
479.27869386999794
 21
305.94752530368339
  0
LINE
  8
_0-e_極細4
  6
CONTINUOUS
 62
    6
 10
499.83062985261768
 20
326.4994612863037
 11
506.73696255247762
 21
333.40579398616353
  0
LINE
  8
_0-e_極細4
  6
CONTINUOUS
 62
    6
 10
507.6832692117647
 20
334.35210064545061
 11
524.75210345902872
 21
351.42093489271349
  0
LINE
  8
_0-e_極細4
  6
CONTINUOUS
 62
    6
 10
474.2776871721419
 20
305.18915929294747
 11
479.35060303418561
 21
310.26207515499129
  0
LINE
  8
_0-e_極細4
  6
CONTINUOUS
 62
    6
 10
499.78862350918189
 20
330.70009562998587
 11
509.51420136664956
 21
340.42567348745376
  0
LINE
  8
_0-e_極細4
  6
CONTINUOUS
 62
    6
 10
518.67853061702465
 20
349.59000273782942
 11
524.75210345902872
 21
355.66357557983281
  0
LINE
  8
_0-e_極細4
  6
CONTINUOUS
 62
    6
 10
474.2134047374899
 20
309.36751754541353
 11
479.42251219837476
 21
314.57662500629897
  0
LINE
  8
_0-e_極細4
  6
CONTINUOUS
 62
    6
 10
499.19798783752617
 20
334.35210064545083
 11
504.20438147124207
 21
339.35849427916594
  0
LINE
  8
_0-e_極細4
  6
CONTINUOUS
 62
    6
 10
519.74570982531429
 20
354.89982263323702
 11
524.75210345902872
 21
359.9062162669519
  0
LINE
  8
_0-e_極細4
  6
CONTINUOUS
 62
    6
 10
474.14912230283653
 20
313.54587579787938
 11
479.49442136256391
 21
318.89117485760687
  0
LINE
  8
_0-e_極細4
  6
CONTINUOUS
 62
    6
 10
494.95534715040685
 20
334.35210064545083
 11
499.95534715040685
 21
339.35210064545061
  0
LINE
  8
_0-e_極細4
  6
CONTINUOUS
 62
    6
 10
519.75210345902872
 20
359.14885695407099
 11
524.75210345902872
 21
364.14885695407145
  0
LINE
  8
_0-e_極細4
  6
CONTINUOUS
 62
    6
 10
474.08483986818305
 20
317.72423405034544
 11
479.56633052675306
 21
323.20572470891454
  0
LINE
  8
_0-e_極細4
  6
CONTINUOUS
 62
    6
 10
490.71270646328912
 20
334.35210064545083
 11
495.71270646328912
 21
339.35210064545061
  0
LINE
  8
_0-e_極細4
  6
CONTINUOUS
 62
    6
 10
519.75210345902872
 20
363.39149764119054
 11
524.75210345902872
 21
368.39149764119054
  0
LINE
  8
_0-e_極細4
  6
CONTINUOUS
 62
    6
 10
474.02055743352958
 20
321.90259230281151
 11
479.63823969094074
 21
327.52027456022245
  0
LINE
  8
_0-e_極細4
  6
CONTINUOUS
 62
    6
 10
486.47006577616833
 20
334.35210064545083
 11
491.47006577616833
 21
339.35210064545038
  0
LINE
  8
_0-e_極細4
  6
CONTINUOUS
 62
    6
 10
519.75210345902872
 20
367.63413832830963
 11
524.75210345902872
 21
372.63413832831009
  0
LINE
  8
_0-e_極細4
  6
CONTINUOUS
 62
    6
 10
473.95627499887769
 20
326.08095055527758
 11
479.71014885512977
 21
331.83482441153035
  0
LINE
  8
_0-e_極細4
  6
CONTINUOUS
 62
    6
 10
482.22742508905048
 20
334.35210064545083
 11
487.22742508905048
 21
339.35210064545038
  0
LINE
  8
_0-e_極細4
  6
CONTINUOUS
 62
    6
 10
519.75210345902872
 20
371.87677901542918
 11
524.75210345902872
 21
376.87677901542918
  0
LINE
  8
_0-e_極細4
  6
CONTINUOUS
 62
    6
 10
473.89199256422273
 20
330.25930880774365
 11
482.98478440193128
 21
339.35210064545061
  0
LINE
  8
_0-e_極細4
  6
CONTINUOUS
 62
    6
 10
519.75210345902872
 20
376.11941970254827
 11
524.75210345902872
 21
381.11941970254827
  0
LINE
  8
_0-e_極細4
  6
CONTINUOUS
 62
    6
 10
473.82771012957073
 20
334.43766706020949
 11
478.74214371481048
 21
339.35210064545061
  0
LINE
  8
_0-e_極細4
  6
CONTINUOUS
 62
    6
 10
519.75210345902872
 20
380.36206038966782
 11
524.75210345902872
 21
385.36206038966782
  0
LINE
  8
_0-e_極細4
  6
CONTINUOUS
 62
    6
 10
473.76342769491737
 20
338.61602531267556
 11
474.49950302769275
 21
339.35210064545061
  0
LINE
  8
_0-e_極細4
  6
CONTINUOUS
 62
    6
 10
519.75210345902872
 20
384.60470107678691
 11
524.75210345902872
 21
389.60470107678691
  0
LINE
  8
_0-e_極細4
  6
CONTINUOUS
 62
    6
 10
519.75210345902872
 20
388.84734176390646
 11
524.75210345902872
 21
393.847341763906
  0
LINE
  8
_0-e_極細4
  6
CONTINUOUS
 62
    6
 10
519.75210345902872
 20
393.08998245102555
 11
524.75210345902872
 21
398.08998245102555
  0
LINE
  8
_0-e_極細4
  6
CONTINUOUS
 62
    6
 10
519.75210345902872
 20
397.3326231381451
 11
524.75210345902872
 21
402.33262313814464
  0
LINE
  8
_0-e_極細4
  6
CONTINUOUS
 62
    6
 10
519.75210345902872
 20
401.57526382526373
 11
524.75210345902872
 21
406.57526382526419
  0
LINE
  8
_0-e_極細4
  6
CONTINUOUS
 62
    6
 10
519.75210345902872
 20
405.81790451238328
 11
524.75210345902872
 21
410.81790451238328
  0
LINE
  8
_0-e_極細4
  6
CONTINUOUS
 62
    6
 10
519.75210345902872
 20
410.06054519950237
 11
524.75210345902724
 21
415.06054519950237
  0
LINE
  8
_0-e_極細4
  6
CONTINUOUS
 62
    6
 10
519.75210345902872
 20
414.30318588662192
 11
524.75210345902724
 21
419.30318588662192
  0
LINE
  8
_0-e_極細4
  6
CONTINUOUS
 62
    6
 10
519.75210345902872
 20
418.54582657374101
 11
524.75210345902872
 21
423.54582657374101
  0
LINE
  8
_0-e_極細4
  6
CONTINUOUS
 62
    6
 10
519.75210345902872
 20
422.78846726086056
 11
524.75210345902872
 21
427.78846726086056
  0
LINE
  8
_0-e_極細4
  6
CONTINUOUS
 62
    6
 10
519.75210345902872
 20
427.03110794797965
 11
524.75210345902872
 21
432.03110794797965
  0
LINE
  8
_0-e_極細4
  6
CONTINUOUS
 62
    6
 10
519.75210345902872
 20
431.27374863509874
 11
524.75210345902872
 21
436.2737486350992
  0
LINE
  8
_0-e_極細4
  6
CONTINUOUS
 62
    6
 10
519.75210345902872
 20
435.51638932221829
 11
524.75210345902872
 21
440.51638932221829
  0
LINE
  8
_0-e_極細4
  6
CONTINUOUS
 62
    6
 10
519.75210345902872
 20
439.75903000933738
 11
524.75210345902724
 21
444.75903000933738
  0
LINE
  8
_0-e_極細4
  6
CONTINUOUS
 62
    6
 10
519.75210345902872
 20
444.00167069645693
 11
524.75210345902872
 21
449.00167069645693
  0
LINE
  8
_0-e_極細4
  6
CONTINUOUS
 62
    6
 10
519.75210345902872
 20
448.24431138357602
 11
524.75210345902872
 21
453.24431138357602
  0
LINE
  8
_0-e_極細4
  6
CONTINUOUS
 62
    6
 10
519.75210345902872
 20
452.48695207069557
 11
524.75210345902872
 21
457.48695207069557
  0
LINE
  8
_0-e_極細4
  6
CONTINUOUS
 62
    6
 10
519.75210345902872
 20
456.72959275781466
 11
524.75210345902872
 21
461.72959275781466
  0
LINE
  8
_0-e_極細4
  6
CONTINUOUS
 62
    6
 10
519.75210345902872
 20
460.9722334449342
 11
524.75210345902872
 21
465.9722334449342
  0
LINE
  8
_0-e_極細4
  6
CONTINUOUS
 62
    6
 10
519.75210345902724
 20
465.2148741320533
 11
524.75210345902872
 21
470.2148741320533
  0
LINE
  8
_0-e_極細4
  6
CONTINUOUS
 62
    6
 10
519.75210345902872
 20
469.45751481917239
 11
524.75210345902872
 21
474.45751481917239
  0
LINE
  8
_0-e_極細4
  6
CONTINUOUS
 62
    6
 10
519.75210345902872
 20
473.70015550629194
 11
524.75210345902872
 21
478.70015550629148
  0
LINE
  8
_0-e_極細4
  6
CONTINUOUS
 62
    6
 10
519.75210345902872
 20
477.94279619341103
 11
524.75210345902872
 21
482.94279619341103
  0
LINE
  8
_0-e_極細4
  6
CONTINUOUS
 62
    6
 10
519.75210345902872
 20
482.18543688053057
 11
524.75210345902724
 21
487.18543688053012
  0
LINE
  8
_0-e_極細4
  6
CONTINUOUS
 62
    6
 10
519.75210345902872
 20
486.42807756764967
 11
524.75210345902724
 21
491.42807756764967
  0
LINE
  8
_0-e_極細4
  6
CONTINUOUS
 62
    6
 10
519.75210345902724
 20
490.67071825476876
 11
524.75210345902724
 21
495.67071825476876
  0
LINE
  8
_0-e_極細4
  6
CONTINUOUS
 62
    6
 10
519.75210345902724
 20
494.9133589418883
 11
524.91205797425778
 21
500.07331345711862
  0
LINE
  8
_0-e_極細4
  6
CONTINUOUS
 62
    6
 10
519.75210345902872
 20
499.1559996290074
 11
529.75210345902872
 21
509.1559996290074
  0
LINE
  8
_0-e_極細4
  6
CONTINUOUS
 62
    6
 10
519.75210345902872
 20
503.39864031612649
 11
529.75210345902872
 21
513.39864031612694
  0
LINE
  8
_0-e_極細4
  6
CONTINUOUS
 62
    6
 10
519.75210345902872
 20
507.64128100324604
 11
523.46295654124106
 21
511.35213408545803
  0
LINE
  8
_0-e_極細4
  6
CONTINUOUS
 62
    6
 10
523.5497128090019
 20
511.43889035322024
 11
529.75210345902872
 21
517.64128100324604
  0
LINE
  8
_0-e_極細4
  6
CONTINUOUS
 62
    6
 10
535.06295654124096
 20
522.95213408545794
 11
537.55210345902879
 21
525.44128100324576
  0
LINE
  8
_0-e_極細4
  6
CONTINUOUS
 62
    6
 10
520.79637117835364
 20
512.92818940969062
 11
529.75210345902872
 21
521.88392169036513
  0
LINE
  8
_0-e_極細4
  6
CONTINUOUS
 62
    6
 10
530.82031585412176
 20
522.9521340854584
 11
537.55210345902879
 21
529.68392169036531
  0
LINE
  8
_0-e_極細4
  6
CONTINUOUS
 62
    6
 10
520.75210345902872
 20
517.12656237748467
 11
537.55210345902879
 21
533.9265623774844
  0
LINE
  8
_0-e_極細4
  6
CONTINUOUS
 62
    6
 10
523.71010345902744
 20
524.32720306460294
 11
537.55210345902879
 21
538.16920306460349
  0
LINE
  8
_0-e_極細4
  6
CONTINUOUS
 62
    6
 10
523.71010345902744
 20
528.56984375172249
 11
537.55210345902879
 21
542.41184375172304
  0
LINE
  8
_0-e_極細4
  6
CONTINUOUS
 62
    6
 10
523.71010345902744
 20
532.81248443884158
 11
537.55210345902879
 21
546.65448443884247
  0
LINE
  8
_0-e_極細4
  6
CONTINUOUS
 62
    6
 10
523.71010345902744
 20
537.05512512596067
 11
537.55210345902879
 21
550.89712512596191
  0
LINE
  8
_0-e_極細4
  6
CONTINUOUS
 62
    6
 10
523.71010345902744
 20
541.29776581308022
 11
532.81715832148893
 21
550.40482067554217
  0
LINE
  8
_0-e_極細4
  6
CONTINUOUS
 62
    6
 10
523.71010345902744
 20
545.54040650019931
 11
528.02001468555375
 21
549.85031772672733
  0
LINE
  8
_0-e_極細4
  6
CONTINUOUS
 62
    6
 10
372.67612653682863
 20
339.35210064545061
 11
373.75210345902724
 21
340.42807756764989
  0
LINE
  8
_0-e_極細4
  6
CONTINUOUS
 62
    6
 10
368.43348584971091
 20
339.35210064545061
 11
373.75210345902724
 21
344.67071825476899
  0
LINE
  8
_0-e_極細4
  6
CONTINUOUS
 62
    6
 10
364.19084516259011
 20
339.35210064545061
 11
373.75210345902724
 21
348.91335894188853
  0
LINE
  8
_0-e_極細4
  6
CONTINUOUS
 62
    6
 10
359.9482044754709
 20
339.35210064545061
 11
373.75210345902872
 21
353.15599962900762
  0
LINE
  8
_0-e_極細4
  6
CONTINUOUS
 62
    6
 10
355.70556378835306
 20
339.35210064545061
 11
373.75210345902872
 21
357.39864031612694
  0
LINE
  8
_0-e_極細4
  6
CONTINUOUS
 62
    6
 10
351.46292310123226
 20
339.35210064545061
 11
371.46292310123226
 21
359.35210064545061
  0
LINE
  8
_0-e_極細4
  6
CONTINUOUS
 62
    6
 10
347.22028241411158
 20
339.35210064545061
 11
367.29981870151664
 21
359.43163693285521
  0
LINE
  8
_0-e_極細4
  6
CONTINUOUS
 62
    6
 10
342.99553892104723
 20
339.3699978395033
 11
363.64243937403501
 21
360.01689829249187
  0
LINE
  8
_0-e_極細4
  6
CONTINUOUS
 62
    6
 10
339.35194013705177
 20
339.9690397426283
 11
360.4194433437674
 21
361.03654294934347
  0
LINE
  8
_0-e_極細4
  6
CONTINUOUS
 62
    6
 10
336.32212846881146
 20
341.18186876150628
 11
357.54267547791369
 21
362.40241577061022
  0
LINE
  8
_0-e_極細4
  6
CONTINUOUS
 62
    6
 10
333.75633605584426
 20
342.85871703565829
 11
354.96532375424852
 21
364.06770473406357
  0
LINE
  8
_0-e_極細4
  6
CONTINUOUS
 62
    6
 10
331.59957692841692
 20
344.94459859535175
 11
352.66322734812411
 21
366.00824901505837
  0
LINE
  8
_0-e_極細4
  6
CONTINUOUS
 62
    6
 10
329.84786453722029
 20
347.43552689127444
 11
350.62754079859428
 21
368.21520315264831
  0
LINE
  8
_0-e_極細4
  6
CONTINUOUS
 62
    6
 10
328.54560718551932
 20
350.37591022669119
 11
348.86240536853279
 21
370.69270840970546
  0
LINE
  8
_0-e_極細4
  6
CONTINUOUS
 62
    6
 10
327.81888053094872
 20
353.89182425924025
 11
347.38601628294987
 21
373.45896001124299
  0
LINE
  8
_0-e_極細4
  6
CONTINUOUS
 62
    6
 10
327.75210345902872
 20
358.06768787443923
 11
346.23579943253117
 21
376.55138384794316
  0
LINE
  8
_0-e_極細4
  6
CONTINUOUS
 62
    6
 10
327.75210345902872
 20
362.31032856155832
 11
345.48174776939106
 21
380.03997287192203
  0
LINE
  8
_0-e_極細4
  6
CONTINUOUS
 62
    6
 10
327.75210345902872
 20
366.55296924867787
 11
345.25210345902724
 21
384.05296924867741
  0
LINE
  8
_0-e_極細4
  6
CONTINUOUS
 62
    6
 10
327.75210345902872
 20
370.79560993579696
 11
345.25210345902724
 21
388.29560993579696
  0
LINE
  8
_0-e_極細4
  6
CONTINUOUS
 62
    6
 10
327.75210345902872
 20
375.03825062291651
 11
345.25210345902724
 21
392.53825062291605
  0
LINE
  8
_0-e_極細4
  6
CONTINUOUS
 62
    6
 10
327.75210345902872
 20
379.2808913100356
 11
345.25210345902724
 21
396.7808913100356
  0
LINE
  8
_0-e_極細4
  6
CONTINUOUS
 62
    6
 10
327.75210345902872
 20
383.52353199715515
 11
345.25210345902724
 21
401.02353199715469
  0
LINE
  8
_0-e_極細4
  6
CONTINUOUS
 62
    6
 10
327.75210345902872
 20
387.76617268427424
 11
345.25210345902724
 21
405.26617268427378
  0
LINE
  8
_0-e_極細4
  6
CONTINUOUS
 62
    6
 10
327.75210345902872
 20
392.00881337139333
 11
345.25210345902724
 21
409.50881337139333
  0
LINE
  8
_0-e_極細4
  6
CONTINUOUS
 62
    6
 10
327.75210345902724
 20
396.25145405851242
 11
345.25210345902724
 21
413.75145405851242
  0
LINE
  8
_0-e_極細4
  6
CONTINUOUS
 62
    6
 10
327.75210345902724
 20
400.49409474563197
 11
345.25210345902724
 21
417.99409474563151
  0
LINE
  8
_0-e_極細4
  6
CONTINUOUS
 62
    6
 10
327.75210345902724
 20
404.73673543275106
 11
345.25210345902724
 21
422.23673543275106
  0
LINE
  8
_0-e_極細4
  6
CONTINUOUS
 62
    6
 10
327.75210345902872
 20
408.97937611987061
 11
345.25210345902724
 21
426.47937611987061
  0
LINE
  8
_0-e_極細4
  6
CONTINUOUS
 62
    6
 10
327.75210345902872
 20
413.2220168069897
 11
345.25210345902724
 21
430.7220168069897
  0
LINE
  8
_0-e_極細4
  6
CONTINUOUS
 62
    6
 10
327.75210345902872
 20
417.46465749410879
 11
345.25210345902724
 21
434.96465749410879
  0
LINE
  8
_0-e_極細4
  6
CONTINUOUS
 62
    6
 10
327.75210345902872
 20
421.70729818122834
 11
345.25210345902724
 21
439.20729818122834
  0
LINE
  8
_0-e_極細4
  6
CONTINUOUS
 62
    6
 10
327.75210345902724
 20
425.94993886834743
 11
345.25210345902724
 21
443.44993886834743
  0
LINE
  8
_0-e_極細4
  6
CONTINUOUS
 62
    6
 10
327.75210345902724
 20
430.19257955546698
 11
345.25210345902724
 21
447.69257955546698
  0
LINE
  8
_0-e_極細4
  6
CONTINUOUS
 62
    6
 10
327.75210345902872
 20
434.43522024258607
 11
345.25210345902724
 21
451.93522024258607
  0
LINE
  8
_0-e_極細4
  6
CONTINUOUS
 62
    6
 10
327.75210345902872
 20
438.67786092970562
 11
344.28516369242845
 21
455.21092116310581
  0
LINE
  8
_0-e_極細4
  6
CONTINUOUS
 62
    6
 10
327.75210345902872
 20
442.92050161682471
 11
340.04252300530925
 21
455.21092116310581
  0
LINE
  8
_0-e_極細4
  6
CONTINUOUS
 62
    6
 10
327.75210345902872
 20
447.16314230394426
 11
335.79988231818845
 21
455.21092116310581
  0
LINE
  8
_0-e_極細4
  6
CONTINUOUS
 62
    6
 10
327.75210345902872
 20
451.40578299106335
 11
331.55724163106925
 21
455.21092116310581
  0
LINE
  8
_0-e_極細4
  6
CONTINUOUS
 62
    6
 10
327.75210345902872
 20
455.64842367818289
 11
328.12956663541979
 21
456.02588685457283
  0
LINE
  8
_0-e_極細4
  6
CONTINUOUS
 62
    6
 10
509.51420136664956
 20
340.42567348745376
 11
518.67853061702465
 21
349.59000273782942
  0
LINE
  8
_0-e_極細4
  6
CONTINUOUS
 62
    6
 10
504.20438147124207
 20
339.35849427916594
 11
519.74570982531429
 21
354.89982263323702
  0
LINE
  8
_0-e_極細4
  6
CONTINUOUS
 62
    6
 10
499.95534715040685
 20
339.35210064545061
 11
519.75210345902872
 21
359.14885695407099
  0
LINE
  8
_0-e_極細4
  6
CONTINUOUS
 62
    6
 10
495.71270646328912
 20
339.35210064545061
 11
519.75210345902872
 21
363.39149764119054
  0
LINE
  8
_0-e_極細4
  6
CONTINUOUS
 62
    6
 10
491.47006577616833
 20
339.35210064545061
 11
519.75210345902872
 21
367.63413832830963
  0
LINE
  8
_0-e_極細4
  6
CONTINUOUS
 62
    6
 10
487.22742508905048
 20
339.35210064545061
 11
519.75210345902872
 21
371.87677901542918
  0
LINE
  8
_0-e_極細4
  6
CONTINUOUS
 62
    6
 10
482.98478440193128
 20
339.35210064545061
 11
519.75210345902872
 21
376.11941970254827
  0
LINE
  8
_0-e_極細4
  6
CONTINUOUS
 62
    6
 10
478.74214371481048
 20
339.35210064545061
 11
519.75210345902872
 21
380.36206038966782
  0
LINE
  8
_0-e_極細4
  6
CONTINUOUS
 62
    6
 10
474.49950302769275
 20
339.35210064545061
 11
519.75210345902872
 21
384.60470107678691
  0
LINE
  8
_0-e_極細4
  6
CONTINUOUS
 62
    6
 10
473.75210345902724
 20
342.847341763906
 11
519.75210345902872
 21
388.84734176390646
  0
LINE
  8
_0-e_極細4
  6
CONTINUOUS
 62
    6
 10
473.75210345902724
 20
347.08998245102532
 11
488.15052417916729
 21
361.4884031711639
  0
LINE
  8
_0-e_極細4
  6
CONTINUOUS
 62
    6
 10
500.11580093331418
 20
373.4536799253118
 11
519.75210345902872
 21
393.08998245102555
  0
LINE
  8
_0-e_極細4
  6
CONTINUOUS
 62
    6
 10
473.75210345902724
 20
351.33262313814441
 11
482.07858547426861
 21
359.65910515338498
  0
LINE
  8
_0-e_極細4
  6
CONTINUOUS
 62
    6
 10
501.94509895109354
 20
379.52561863021026
 11
519.75210345902872
 21
397.3326231381451
  0
LINE
  8
_0-e_極細4
  6
CONTINUOUS
 62
    6
 10
473.75210345902724
 20
355.57526382526373
 11
477.52894027921411
 21
359.35210064545061
  0
LINE
  8
_0-e_極細4
  6
CONTINUOUS
 62
    6
 10
502.25210345902872
 20
384.07526382526419
 11
519.75210345902872
 21
401.57526382526373
  0
LINE
  8
_0-e_極細4
  6
CONTINUOUS
 62
    6
 10
502.25210345902872
 20
388.31790451238328
 11
519.75210345902872
 21
405.81790451238328
  0
LINE
  8
_0-e_極細4
  6
CONTINUOUS
 62
    6
 10
502.25210345902872
 20
392.56054519950237
 11
519.75210345902872
 21
410.06054519950237
  0
LINE
  8
_0-e_極細4
  6
CONTINUOUS
 62
    6
 10
502.25210345902872
 20
396.80318588662192
 11
519.75210345902872
 21
414.30318588662192
  0
LINE
  8
_0-e_極細4
  6
CONTINUOUS
 62
    6
 10
502.25210345902872
 20
401.04582657374101
 11
519.75210345902872
 21
418.54582657374101
  0
LINE
  8
_0-e_極細4
  6
CONTINUOUS
 62
    6
 10
502.25210345902872
 20
405.28846726086056
 11
519.75210345902872
 21
422.78846726086056
  0
LINE
  8
_0-e_極細4
  6
CONTINUOUS
 62
    6
 10
502.25210345902872
 20
409.53110794797965
 11
519.75210345902872
 21
427.03110794797965
  0
LINE
  8
_0-e_極細4
  6
CONTINUOUS
 62
    6
 10
502.25210345902872
 20
413.7737486350992
 11
519.75210345902872
 21
431.27374863509874
  0
LINE
  8
_0-e_極細4
  6
CONTINUOUS
 62
    6
 10
502.25210345902872
 20
418.01638932221829
 11
519.75210345902872
 21
435.51638932221829
  0
LINE
  8
_0-e_極細4
  6
CONTINUOUS
 62
    6
 10
502.25210345902872
 20
422.25903000933738
 11
519.75210345902872
 21
439.75903000933738
  0
LINE
  8
_0-e_極細4
  6
CONTINUOUS
 62
    6
 10
502.25210345902872
 20
426.50167069645693
 11
519.75210345902872
 21
444.00167069645693
  0
LINE
  8
_0-e_極細4
  6
CONTINUOUS
 62
    6
 10
502.25210345902872
 20
430.74431138357602
 11
519.75210345902872
 21
448.24431138357602
  0
LINE
  8
_0-e_極細4
  6
CONTINUOUS
 62
    6
 10
502.25210345902872
 20
434.98695207069557
 11
519.75210345902872
 21
452.48695207069557
  0
LINE
  8
_0-e_極細4
  6
CONTINUOUS
 62
    6
 10
502.25210345902872
 20
439.22959275781466
 11
518.29199401638311
 21
455.26948331516985
  0
LINE
  8
_0-e_極細4
  6
CONTINUOUS
 62
    6
 10
519.67785478930875
 20
456.6553440880956
 11
519.75210345902872
 21
456.72959275781466
  0
LINE
  8
_0-e_極細4
  6
CONTINUOUS
 62
    6
 10
502.25210345902724
 20
443.4722334449342
 11
513.99079117719941
 21
455.21092116310535
  0
LINE
  8
_0-e_極細4
  6
CONTINUOUS
 62
    6
 10
502.25210345902724
 20
447.7148741320533
 11
509.74815049008021
 21
455.21092116310581
  0
LINE
  8
_0-e_極細4
  6
CONTINUOUS
 62
    6
 10
502.25210345902872
 20
451.95751481917239
 11
505.50550980296237
 21
455.21092116310535
  0
LINE
  8
_0-e_極細4
  6
CONTINUOUS
 62
    6
 10
423.48913946545349
 20
554.35210064545095
 11
423.48913946545349
 21
556.35210064545095
  0
LINE
  8
_0-e_極細4
  6
CONTINUOUS
 62
    6
 10
420.48913946545349
 20
554.35210064545095
 11
420.48913946545349
 21
556.35210064545095
  0
LINE
  8
_0-e_極細4
  6
CONTINUOUS
 62
    6
 10
417.48913946545349
 20
554.35210064545095
 11
417.48913946545349
 21
556.35210064545095
  0
LINE
  8
_0-e_極細4
  6
CONTINUOUS
 62
    6
 10
414.48913946545349
 20
554.35210064545095
 11
414.48913946545349
 21
556.35210064545095
  0
LINE
  8
_0-e_極細4
  6
CONTINUOUS
 62
    6
 10
411.48913946545349
 20
554.35210064545095
 11
411.48913946545349
 21
556.35210064545095
  0
LINE
  8
_0-e_極細4
  6
CONTINUOUS
 62
    6
 10
408.48913946545349
 20
554.35210064545095
 11
408.48913946545349
 21
556.35210064545095
  0
LINE
  8
_0-e_極細4
  6
CONTINUOUS
 62
    6
 10
405.48913946545349
 20
554.35210064545095
 11
405.48913946545349
 21
556.35210064545095
  0
LINE
  8
_0-e_極細4
  6
CONTINUOUS
 62
    6
 10
402.48913946545349
 20
554.35210064545095
 11
402.48913946545349
 21
556.35210064545095
  0
LINE
  8
_0-e_極細4
  6
CONTINUOUS
 62
    6
 10
399.48913946545349
 20
554.35210064545095
 11
399.48913946545349
 21
556.35210064545095
  0
LINE
  8
_0-e_極細4
  6
CONTINUOUS
 62
    6
 10
396.48913946545349
 20
554.35210064545095
 11
396.48913946545349
 21
556.35210064545095
  0
LINE
  8
_0-e_極細4
  6
CONTINUOUS
 62
    6
 10
393.48913946545349
 20
554.35210064545095
 11
393.48913946545349
 21
556.35210064545095
  0
LINE
  8
_0-e_極細4
  6
CONTINUOUS
 62
    6
 10
390.48913946545349
 20
554.35210064545095
 11
390.48913946545349
 21
556.35210064545095
  0
LINE
  8
_0-e_極細4
  6
CONTINUOUS
 62
    6
 10
387.48913946545349
 20
554.35210064545095
 11
387.48913946545349
 21
556.35210064545095
  0
LINE
  8
_0-e_極細4
  6
CONTINUOUS
 62
    6
 10
384.48913946545349
 20
554.35210064545095
 11
384.48913946545349
 21
556.35210064545095
  0
LINE
  8
_0-e_極細4
  6
CONTINUOUS
 62
    6
 10
381.48913946545349
 20
554.35210064545095
 11
381.48913946545349
 21
556.35210064545095
  0
LINE
  8
_0-e_極細4
  6
CONTINUOUS
 62
    6
 10
378.48913946545349
 20
554.35210064545095
 11
378.48913946545349
 21
556.35210064545129
  0
LINE
  8
_0-e_極細4
  6
CONTINUOUS
 62
    6
 10
375.48913946545349
 20
554.35210064545095
 11
375.48913946545349
 21
556.35210064545129
  0
LINE
  8
_0-e_極細4
  6
CONTINUOUS
 62
    6
 10
372.48913946545349
 20
554.35210064545095
 11
372.48913946545349
 21
556.35210064545129
  0
LINE
  8
_0-e_極細4
  6
CONTINUOUS
 62
    6
 10
369.48913946545349
 20
554.35210064545095
 11
369.48913946545349
 21
556.35210064545129
  0
LINE
  8
_0-e_極細4
  6
CONTINUOUS
 62
    6
 10
366.48913946545349
 20
554.35210064545095
 11
366.48913946545349
 21
556.35210064545095
  0
LINE
  8
_0-e_極細4
  6
CONTINUOUS
 62
    6
 10
363.48913946545349
 20
554.35210064545095
 11
363.48913946545349
 21
556.35210064545095
  0
LINE
  8
_0-e_極細4
  6
CONTINUOUS
 62
    6
 10
360.48913946545349
 20
554.35210064545095
 11
360.48913946545349
 21
556.35210064545095
  0
LINE
  8
_0-e_極細4
  6
CONTINUOUS
 62
    6
 10
357.48913946545349
 20
554.35210064545095
 11
357.48913946545349
 21
556.35210064545095
  0
LINE
  8
_0-e_極細4
  6
CONTINUOUS
 62
    6
 10
354.48913946545349
 20
554.35210064545095
 11
354.48913946545349
 21
556.35210064545095
  0
LINE
  8
_0-e_極細4
  6
CONTINUOUS
 62
    6
 10
351.48913946545349
 20
554.35210064545095
 11
351.48913946545349
 21
556.35210064545095
  0
LINE
  8
_0-e_極細4
  6
CONTINUOUS
 62
    6
 10
348.48913946545349
 20
554.35210064545095
 11
348.48913946545349
 21
556.35210064545095
  0
LINE
  8
_0-e_極細4
  6
CONTINUOUS
 62
    6
 10
345.48913946545349
 20
554.35210064545095
 11
345.48913946545349
 21
556.35210064545095
  0
LINE
  8
_0-e_極細4
  6
CONTINUOUS
 62
    6
 10
342.48913946545349
 20
554.35210064545095
 11
342.48913946545349
 21
556.35210064545095
  0
LINE
  8
_0-e_極細4
  6
CONTINUOUS
 62
    6
 10
339.48913946545349
 20
554.35210064545095
 11
339.48913946545349
 21
556.35210064545095
  0
LINE
  8
_0-e_極細4
  6
CONTINUOUS
 62
    6
 10
336.48913946545349
 20
554.35210064545095
 11
336.48913946545349
 21
556.35210064545095
  0
LINE
  8
_0-e_極細4
  6
CONTINUOUS
 62
    6
 10
333.48913946545349
 20
554.35210064545095
 11
333.48913946545349
 21
556.35210064545095
  0
LINE
  8
_0-e_極細4
  6
CONTINUOUS
 62
    6
 10
330.48913946545349
 20
554.35210064545095
 11
330.48913946545349
 21
556.35210064545095
  0
LINE
  8
_0-e_極細4
  6
CONTINUOUS
 62
    6
 10
327.48913946545349
 20
554.35210064545095
 11
327.48913946545349
 21
556.35210064545095
  0
LINE
  8
_0-e_極細4
  6
CONTINUOUS
 62
    6
 10
324.48913946545349
 20
554.35210064545095
 11
324.48913946545349
 21
556.35210064545095
  0
LINE
  8
_0-e_極細4
  6
CONTINUOUS
 62
    6
 10
321.48913946545349
 20
554.35210064545095
 11
321.48913946545349
 21
556.35210064545095
  0
LINE
  8
_0-e_極細4
  6
CONTINUOUS
 62
    6
 10
318.48913946545349
 20
554.52184732880971
 11
318.48913946545349
 21
556.35210064545095
  0
LINE
  8
_0-e_極細4
  6
CONTINUOUS
 62
    6
 10
315.48913946545349
 20
554.94913688870179
 11
315.48913946545349
 21
556.35210064545095
  0
LINE
  8
_0-e_極細4
  6
CONTINUOUS
 62
    6
 10
312.48913946545349
 20
555.37642644859329
 11
312.48913946545349
 21
556.35210064545095
  0
LINE
  8
_0-e_極細4
  6
CONTINUOUS
 62
    6
 10
537.48913946545349
 20
555.72880816243082
 11
537.48913946545349
 21
556.35210064545095
  0
LINE
  8
_0-e_極細4
  6
CONTINUOUS
 62
    6
 10
534.48913946545349
 20
555.30151860253932
 11
534.48913946545349
 21
556.35210064545095
  0
LINE
  8
_0-e_極細4
  6
CONTINUOUS
 62
    6
 10
531.48913946545349
 20
554.87422904264781
 11
531.48913946545349
 21
556.35210064545095
  0
LINE
  8
_0-e_極細4
  6
CONTINUOUS
 62
    6
 10
528.48913946545349
 20
554.44693948275574
 11
528.48913946545349
 21
556.35210064545095
  0
LINE
  8
_0-e_極細4
  6
CONTINUOUS
 62
    6
 10
525.48913946545349
 20
554.35210064545095
 11
525.48913946545349
 21
556.35210064545095
  0
LINE
  8
_0-e_極細4
  6
CONTINUOUS
 62
    6
 10
522.48913946545349
 20
554.35210064545095
 11
522.48913946545349
 21
556.35210064545095
  0
LINE
  8
_0-e_極細4
  6
CONTINUOUS
 62
    6
 10
519.48913946545349
 20
554.35210064545095
 11
519.48913946545349
 21
556.35210064545129
  0
LINE
  8
_0-e_極細4
  6
CONTINUOUS
 62
    6
 10
516.48913946545349
 20
554.35210064545095
 11
516.48913946545349
 21
556.35210064545129
  0
LINE
  8
_0-e_極細4
  6
CONTINUOUS
 62
    6
 10
513.48913946545349
 20
554.35210064545095
 11
513.48913946545349
 21
556.35210064545129
  0
LINE
  8
_0-e_極細4
  6
CONTINUOUS
 62
    6
 10
510.48913946545349
 20
554.35210064545095
 11
510.48913946545349
 21
556.35210064545129
  0
LINE
  8
_0-e_極細4
  6
CONTINUOUS
 62
    6
 10
507.48913946545349
 20
554.35210064545095
 11
507.48913946545349
 21
556.35210064545095
  0
LINE
  8
_0-e_極細4
  6
CONTINUOUS
 62
    6
 10
504.48913946545349
 20
554.35210064545095
 11
504.48913946545349
 21
556.35210064545095
  0
LINE
  8
_0-e_極細4
  6
CONTINUOUS
 62
    6
 10
501.48913946545349
 20
554.35210064545095
 11
501.48913946545349
 21
556.35210064545095
  0
LINE
  8
_0-e_極細4
  6
CONTINUOUS
 62
    6
 10
498.48913946545349
 20
554.35210064545095
 11
498.48913946545349
 21
556.35210064545095
  0
LINE
  8
_0-e_極細4
  6
CONTINUOUS
 62
    6
 10
495.48913946545349
 20
554.35210064545095
 11
495.48913946545349
 21
556.35210064545095
  0
LINE
  8
_0-e_極細4
  6
CONTINUOUS
 62
    6
 10
492.48913946545349
 20
554.35210064545095
 11
492.48913946545349
 21
556.35210064545095
  0
LINE
  8
_0-e_極細4
  6
CONTINUOUS
 62
    6
 10
489.48913946545349
 20
554.35210064545095
 11
489.48913946545349
 21
556.35210064545095
  0
LINE
  8
_0-e_極細4
  6
CONTINUOUS
 62
    6
 10
486.48913946545349
 20
554.35210064545095
 11
486.48913946545349
 21
556.35210064545095
  0
LINE
  8
_0-e_極細4
  6
CONTINUOUS
 62
    6
 10
483.48913946545349
 20
554.35210064545095
 11
483.48913946545349
 21
556.35210064545095
  0
LINE
  8
_0-e_極細4
  6
CONTINUOUS
 62
    6
 10
480.48913946545349
 20
554.35210064545095
 11
480.48913946545349
 21
556.35210064545095
  0
LINE
  8
_0-e_極細4
  6
CONTINUOUS
 62
    6
 10
477.48913946545349
 20
554.35210064545095
 11
477.48913946545349
 21
556.35210064545095
  0
LINE
  8
_0-e_極細4
  6
CONTINUOUS
 62
    6
 10
474.48913946545349
 20
554.35210064545095
 11
474.48913946545349
 21
556.35210064545095
  0
LINE
  8
_0-e_極細4
  6
CONTINUOUS
 62
    6
 10
471.48913946545349
 20
554.35210064545095
 11
471.48913946545349
 21
556.35210064545095
  0
LINE
  8
_0-e_極細4
  6
CONTINUOUS
 62
    6
 10
468.48913946545349
 20
554.35210064545095
 11
468.48913946545349
 21
556.35210064545095
  0
LINE
  8
_0-e_極細4
  6
CONTINUOUS
 62
    6
 10
465.48913946545349
 20
554.35210064545095
 11
465.48913946545349
 21
556.35210064545095
  0
LINE
  8
_0-e_極細4
  6
CONTINUOUS
 62
    6
 10
462.48913946545349
 20
554.35210064545095
 11
462.48913946545349
 21
556.35210064545095
  0
LINE
  8
_0-e_極細4
  6
CONTINUOUS
 62
    6
 10
459.48913946545349
 20
554.35210064545095
 11
459.48913946545349
 21
556.35210064545095
  0
LINE
  8
_0-e_極細4
  6
CONTINUOUS
 62
    6
 10
456.48913946545349
 20
554.35210064545095
 11
456.48913946545349
 21
556.35210064545095
  0
LINE
  8
_0-e_極細4
  6
CONTINUOUS
 62
    6
 10
453.48913946545349
 20
554.35210064545095
 11
453.48913946545349
 21
556.35210064545095
  0
LINE
  8
_0-e_極細4
  6
CONTINUOUS
 62
    6
 10
450.48913946545349
 20
554.35210064545095
 11
450.48913946545349
 21
556.35210064545095
  0
LINE
  8
_0-e_極細4
  6
CONTINUOUS
 62
    6
 10
447.48913946545349
 20
554.35210064545095
 11
447.48913946545349
 21
556.35210064545095
  0
LINE
  8
_0-e_極細4
  6
CONTINUOUS
 62
    6
 10
444.48913946545349
 20
554.35210064545095
 11
444.48913946545349
 21
556.35210064545095
  0
LINE
  8
_0-e_極細4
  6
CONTINUOUS
 62
    6
 10
441.48913946545349
 20
554.35210064545095
 11
441.48913946545349
 21
556.35210064545095
  0
LINE
  8
_0-e_極細4
  6
CONTINUOUS
 62
    6
 10
438.48913946545349
 20
554.35210064545095
 11
438.48913946545349
 21
556.35210064545095
  0
LINE
  8
_0-e_極細4
  6
CONTINUOUS
 62
    6
 10
435.48913946545349
 20
554.35210064545095
 11
435.48913946545349
 21
556.35210064545095
  0
LINE
  8
_0-e_極細4
  6
CONTINUOUS
 62
    6
 10
432.48913946545349
 20
554.35210064545095
 11
432.48913946545349
 21
556.35210064545095
  0
LINE
  8
_0-e_極細4
  6
CONTINUOUS
 62
    6
 10
429.48913946545349
 20
554.35210064545095
 11
429.48913946545349
 21
556.35210064545095
  0
LINE
  8
_0-e_極細4
  6
CONTINUOUS
 62
    6
 10
426.48913946545349
 20
554.35210064545095
 11
426.48913946545349
 21
556.35210064545095
  0
LINE
  8
_0-e_極細4
  6
CONTINUOUS
 62
    6
 10
522.48913946545349
 20
520.50329809188486
 11
522.48913946545349
 21
551.97484246881697
  0
LINE
  8
_0-e_極細4
  6
CONTINUOUS
 62
    6
 10
519.48913946545349
 20
518.76626208545792
 11
519.48913946545349
 21
547.6061973813537
  0
LINE
  8
_0-e_極細4
  6
CONTINUOUS
 62
    6
 10
516.48913946545349
 20
518.76626208545792
 11
516.48913946545349
 21
547.36626208545817
  0
LINE
  8
_0-e_極細4
  6
CONTINUOUS
 62
    6
 10
513.48913946545349
 20
518.76626208545792
 11
513.48913946545349
 21
522.76626208545792
  0
LINE
  8
_0-e_極細4
  6
CONTINUOUS
 62
    6
 10
510.48913946545349
 20
518.76626208545792
 11
510.48913946545349
 21
522.76626208545792
  0
LINE
  8
_0-e_極細4
  6
CONTINUOUS
 62
    6
 10
336.48913946545349
 20
518.76626208545792
 11
336.48913946545349
 21
522.76626208545792
  0
LINE
  8
_0-e_極細4
  6
CONTINUOUS
 62
    6
 10
333.48913946545349
 20
518.76626208545792
 11
333.48913946545349
 21
546.28375838082934
  0
LINE
  8
_0-e_極細4
  6
CONTINUOUS
 62
    6
 10
330.48913946545349
 20
518.76626208545792
 11
330.48913946545349
 21
547.36626208545817
  0
LINE
  8
_0-e_極細4
  6
CONTINUOUS
 62
    6
 10
327.48913946545349
 20
518.76626208545792
 11
327.48913946545349
 21
547.86975336000501
  0
LINE
  8
_0-e_極細4
  6
CONTINUOUS
 62
    6
 10
324.48913946545349
 20
521.0292260790319
 11
324.48913946545349
 21
552.24790911501998
  0
LINE
  8
_0-e_極細4
  6
CONTINUOUS
 62
    6
 10
339.48913946545349
 20
518.96782008545813
 11
339.48913946545349
 21
526.76626208545792
  0
LINE
  8
_0-e_極細4
  6
CONTINUOUS
 62
    6
 10
507.48913946545349
 20
518.96782008545813
 11
507.48913946545349
 21
526.76626208545792
  0
LINE
  8
_0-e_極細4
  6
CONTINUOUS
 62
    6
 10
337.05210345902879
 20
533.90017831036982
 11
344.33040723411523
 21
533.90017831036982
  0
LINE
  8
_0-e_極細4
  6
CONTINUOUS
 62
    6
 10
336.8805321390754
 20
536.90017831036982
 11
344.57379968393934
 21
536.90017831036982
  0
LINE
  8
_0-e_極細4
  6
CONTINUOUS
 62
    6
 10
503.17379968394073
 20
533.90017831036982
 11
510.45210345902728
 21
533.90017831036982
  0
LINE
  8
_0-e_極細4
  6
CONTINUOUS
 62
    6
 10
502.93040723411525
 20
536.90017831036982
 11
510.62367477897919
 21
536.90017831036982
  0
ARC
  8
_0-e_極細4
  6
CONTINUOUS
 62
    6
 10
357.75210345902724
 20
513.71631208545784
 40
12
 50
0
 51
24.886947317067211
  0
ARC
  8
_0-e_極細4
  6
CONTINUOUS
 62
    6
 10
354.75210345902724
 20
518.96782008545813
 40
6
 50
129.97050058003566
 51
181.92509931279642
  0
LINE
  8
_0-e_極細4
  6
CONTINUOUS
 62
    6
 10
368.63778235368216
 20
518.76626208545792
 11
348.75548988363141
 21
518.76626208545792
  0
ARC
  8
_0-e_極細4
  6
CONTINUOUS
 62
    6
 10
357.75210345902724
 20
513.71631208545784
 40
12
 50
24.886947317067211
 51
124.83370764384311
  0
LINE
  8
_0-e_極細4
  6
CONTINUOUS
 62
    6
 10
366.48913946545349
 20
518.76626208545792
 11
366.48913946545349
 21
521.94213738280121
  0
LINE
  8
_0-e_極細4
  6
CONTINUOUS
 62
    6
 10
363.48913946545349
 20
518.76626208545792
 11
363.48913946545349
 21
524.25606625056878
  0
LINE
  8
_0-e_極細4
  6
CONTINUOUS
 62
    6
 10
360.48913946545349
 20
518.76626208545792
 11
360.48913946545349
 21
525.40000302195256
  0
LINE
  8
_0-e_極細4
  6
CONTINUOUS
 62
    6
 10
357.48913946545349
 20
518.76626208545792
 11
357.48913946545349
 21
525.71343048689448
  0
LINE
  8
_0-e_極細4
  6
CONTINUOUS
 62
    6
 10
354.48913946545349
 20
518.76626208545792
 11
354.48913946545349
 21
525.26417188615858
  0
LINE
  8
_0-e_極細4
  6
CONTINUOUS
 62
    6
 10
351.48913946545349
 20
518.76626208545792
 11
351.48913946545349
 21
523.95229186343693
  0
ARC
  8
_0-e_極細4
  6
CONTINUOUS
 62
    6
 10
489.75210345902724
 20
513.71631208545784
 40
12
 50
155.11305268292685
 51
179.99999999999983
  0
LINE
  8
_0-e_極細4
  6
CONTINUOUS
 62
    6
 10
478.86642456437539
 20
518.76626208545792
 11
498.74871703442318
 21
518.76626208545792
  0
ARC
  8
_0-e_極細4
  6
CONTINUOUS
 62
    6
 10
492.75210345902724
 20
518.96782008545813
 40
6
 50
358.07490068720375
 51
50.029499419963976
  0
ARC
  8
_0-e_極細4
  6
CONTINUOUS
 62
    6
 10
489.75210345902724
 20
513.71631208545784
 40
12
 50
55.16629235615688
 51
155.11305268292685
  0
LINE
  8
_0-e_極細4
  6
CONTINUOUS
 62
    6
 10
498.48913946545349
 20
518.76626208545792
 11
498.48913946545349
 21
520.72464046926768
  0
LINE
  8
_0-e_極細4
  6
CONTINUOUS
 62
    6
 10
495.48913946545349
 20
518.76626208545792
 11
495.48913946545349
 21
524.25606625056878
  0
LINE
  8
_0-e_極細4
  6
CONTINUOUS
 62
    6
 10
492.48913946545349
 20
518.76626208545792
 11
492.48913946545349
 21
525.40000302195256
  0
LINE
  8
_0-e_極細4
  6
CONTINUOUS
 62
    6
 10
489.48913946545349
 20
518.76626208545792
 11
489.48913946545349
 21
525.71343048689448
  0
LINE
  8
_0-e_極細4
  6
CONTINUOUS
 62
    6
 10
486.48913946545349
 20
518.76626208545792
 11
486.48913946545349
 21
525.26417188615858
  0
LINE
  8
_0-e_極細4
  6
CONTINUOUS
 62
    6
 10
483.48913946545349
 20
518.76626208545792
 11
483.48913946545349
 21
523.95229186343693
  0
LINE
  8
_0-e_極細4
  6
CONTINUOUS
 62
    6
 10
480.48913946545349
 20
518.76626208545792
 11
480.48913946545349
 21
521.34504055445984
  0
LINE
  8
_0-e_極細4
  6
CONTINUOUS
 62
    6
 10
523.71010345902744
 20
550.70017831037035
 11
535.37237105979568
 21
550.70017831037035
  0
LINE
  8
_0-e_極細4
  6
CONTINUOUS
 62
    6
 10
524.74952907206739
 20
552.50017831036996
 11
537.55210345902879
 21
552.50017831036996
  0
LINE
  8
_0-e_極細4
  6
CONTINUOUS
 62
    6
 10
537.38732225699334
 20
554.30017831037014
 11
537.55210345902879
 21
554.30017831037014
  0
LINE
  8
_0-e_極細4
  6
CONTINUOUS
 62
    6
 10
312.13183585825891
 20
550.70017831037035
 11
323.79410345902852
 21
550.70017831037035
  0
LINE
  8
_0-e_極細4
  6
CONTINUOUS
 62
    6
 10
309.95210345902581
 20
552.50017831036996
 11
322.7546778459872
 21
552.50017831036996
  0
LINE
  8
_0-e_極細4
  6
CONTINUOUS
 62
    6
 10
309.95210345902581
 20
554.30017831037014
 11
310.11688466106125
 21
554.30017831037014
  0
LINE
  8
_0-e_極細4
  6
DASHED2
 62
    6
 10
289.76206050287124
 20
378.66772094489249
 11
288.88899662858296
 21
394.88278055356784
  0
LINE
  8
_0-e_極細4
  6
DASHED2
 62
    6
 10
278.9034604121216
 20
404.34513153183468
 11
267.23153974506261
 21
404.34513153178557
  0
LINE
  8
_0-e_極細4
  6
DASHED2
 62
    6
 10
589.75210346727681
 20
404.34513153178284
 11
619.60850992713085
 21
412.34513153164323
  0
LINE
  8
_0-e_極細4
  6
DASHED2
 62
    6
 10
619.60850992713665
 20
412.34513153164551
 11
633.75210346060612
 21
412.34513153161413
  0
LINE
  8
_0-e_極細4
  6
CONTINUOUS
 62
    6
 10
682.91929366578097
 20
383.97210787864003
 11
683.75210346060612
 21
384.80491767346564
  0
LINE
  8
_0-e_極細4
  6
CONTINUOUS
 62
    6
 10
678.75658114234966
 20
384.0520360423269
 11
683.75210346060612
 21
389.04755836058473
  0
LINE
  8
_0-e_極細4
  6
CONTINUOUS
 62
    6
 10
674.59386861891676
 20
384.13196420601423
 11
683.75210346060612
 21
393.29019904770428
  0
LINE
  8
_0-e_極細4
  6
CONTINUOUS
 62
    6
 10
670.43115609548386
 20
384.21189236970156
 11
683.75094433046024
 21
397.53168060467658
  0
LINE
  8
_0-e_極細4
  6
CONTINUOUS
 62
    6
 10
666.26844357205255
 20
384.29182053338843
 11
682.40536968659126
 21
400.42874664792714
  0
LINE
  8
_0-e_極細4
  6
CONTINUOUS
 62
    6
 10
662.10573104861965
 20
384.37174869707576
 11
679.18107489751549
 21
401.44709254597035
  0
LINE
  8
_0-e_極細4
  6
CONTINUOUS
 62
    6
 10
657.94301852518822
 20
384.45167686076309
 11
675.01836237408406
 21
401.52702070965768
  0
LINE
  8
_0-e_極細4
  6
CONTINUOUS
 62
    6
 10
653.7803060017568
 20
384.53160502445041
 11
670.8556498506498
 21
401.606948873345
  0
LINE
  8
_0-e_極細4
  6
CONTINUOUS
 62
    6
 10
649.61759347832549
 20
384.61153318813729
 11
666.69293732721837
 21
401.68687703703233
  0
LINE
  8
_0-e_極細4
  6
CONTINUOUS
 62
    6
 10
645.45488095489111
 20
384.69146135182461
 11
662.53022480378695
 21
401.76680520071966
  0
LINE
  8
_0-e_極細4
  6
CONTINUOUS
 62
    6
 10
643.02373127652811
 20
386.50295236058025
 11
658.36751228035564
 21
401.84673336440699
  0
LINE
  8
_0-e_極細4
  6
CONTINUOUS
 62
    6
 10
640.97604700217914
 20
388.69790877334879
 11
654.20479975692422
 21
401.92666152809386
  0
LINE
  8
_0-e_極細4
  6
CONTINUOUS
 62
    6
 10
638.29047091172242
 20
390.25497337001286
 11
650.04208723348984
 21
402.00658969178119
  0
LINE
  8
_0-e_極細4
  6
CONTINUOUS
 62
    6
 10
635.60074449522062
 20
391.80788764062925
 11
645.87937471005853
 21
402.08651785546851
  0
LINE
  8
_0-e_極細4
  6
CONTINUOUS
 62
    6
 10
632.91101807871883
 20
393.36080191124654
 11
641.91710426985071
 21
402.36688810237854
  0
LINE
  8
_0-e_極細4
  6
CONTINUOUS
 62
    6
 10
630.22129166221555
 20
394.91371618186383
 11
638.8985434254223
 21
403.59096794507047
  0
LINE
  8
_0-e_極細4
  6
CONTINUOUS
 62
    6
 10
627.53156524571375
 20
396.46663045248067
 11
636.59556440066353
 21
405.53062960743171
  0
LINE
  8
_0-e_極細4
  6
CONTINUOUS
 62
    6
 10
624.84183882921195
 20
398.01954472309751
 11
634.94864404717794
 21
408.12634994106554
  0
LINE
  8
_0-e_極細4
  6
CONTINUOUS
 62
    6
 10
622.15211241271015
 20
399.5724589937148
 11
633.98663975860825
 21
411.40698633961335
  0
LINE
  8
_0-e_極細4
  6
CONTINUOUS
 62
    6
 10
619.4623859962054
 20
401.12537326433164
 11
633.1381116211835
 21
414.80109888930872
  0
LINE
  8
_0-e_極細4
  6
CONTINUOUS
 62
    6
 10
616.7726595797036
 20
402.67828753494894
 11
632.28958348375875
 21
418.19521143900454
  0
LINE
  8
_0-e_極細4
  6
CONTINUOUS
 62
    6
 10
614.0829331632018
 20
404.23120180556577
 11
631.44105534633547
 21
421.5893239886999
  0
LINE
  8
_0-e_極細4
  6
CONTINUOUS
 62
    6
 10
609.95422220217142
 20
404.34513153165369
 11
629.95422220213788
 21
424.34513153162095
  0
LINE
  8
_0-e_極細4
  6
CONTINUOUS
 62
    6
 10
605.71158151507825
 20
404.34513153168098
 11
625.71158151503323
 21
424.34513153163596
  0
LINE
  8
_0-e_極細4
  6
CONTINUOUS
 62
    6
 10
601.46894082798519
 20
404.34513153170781
 11
621.46894082792994
 21
424.34513153165096
  0
LINE
  8
_0-e_極細4
  6
CONTINUOUS
 62
    6
 10
597.22630014089509
 20
404.34513153173509
 11
614.10418162017436
 21
421.22301301101595
  0
LINE
  8
_0-e_極細4
  6
CONTINUOUS
 62
    6
 10
592.98365945380192
 20
404.34513153176238
 11
608.3086266624274
 21
419.6700987403882
  0
LINE
  8
_0-e_極細4
  6
CONTINUOUS
 62
    6
 10
588.74101876670886
 20
404.34513153178966
 11
602.51307170468044
 21
418.11718446975999
  0
LINE
  8
_0-e_極細4
  6
CONTINUOUS
 62
    6
 10
584.49837807961876
 20
404.34513153181649
 11
596.7175167469336
 21
416.56427019913269
  0
LINE
  8
_0-e_極細4
  6
CONTINUOUS
 62
    6
 10
580.25573739252559
 20
404.34513153184378
 11
590.92196178918664
 21
415.01135592850449
  0
LINE
  8
_0-e_極細4
  6
CONTINUOUS
 62
    6
 10
576.01309670543253
 20
404.34513153187106
 11
586.01309670532055
 21
414.34513153175692
  0
LINE
  8
_0-e_極細4
  6
CONTINUOUS
 62
    6
 10
571.77045601834243
 20
404.34513153189835
 11
581.77045601821283
 21
414.34513153176965
  0
LINE
  8
_0-e_極細4
  6
CONTINUOUS
 62
    6
 10
567.52781533124926
 20
404.34513153192563
 11
577.52781533110669
 21
414.34513153178284
  0
LINE
  8
_0-e_極細4
  6
CONTINUOUS
 62
    6
 10
563.2851746441562
 20
404.34513153195246
 11
573.28517464400056
 21
414.34513153179648
  0
LINE
  8
_0-e_極細4
  6
CONTINUOUS
 62
    6
 10
559.0425339570661
 20
404.34513153197929
 11
569.04253395690012
 21
414.34513153181467
  0
LINE
  8
_0-e_極細4
  6
CONTINUOUS
 62
    6
 10
542.07197120843466
 20
404.3451315318265
 11
557.63106425554565
 21
419.90422457893771
  0
LINE
  8
_0-e_極細4
  6
CONTINUOUS
 62
    6
 10
537.82933052133728
 20
404.34513153184787
 11
557.1959216209724
 21
423.71172263148344
  0
LINE
  8
_0-e_極細4
  6
CONTINUOUS
 62
    6
 10
533.75210346107326
 20
404.51054515870317
 11
543.58668983420921
 21
414.34513153183968
  0
LINE
  8
_0-e_極細4
  6
CONTINUOUS
 62
    6
 10
545.75210346108054
 20
416.5105451587109
 11
556.76077898639915
 21
427.51922068402871
  0
LINE
  8
_0-e_極細4
  6
CONTINUOUS
 62
    6
 10
533.75210346107622
 20
408.75318584582544
 11
539.3440491471016
 21
414.34513153185242
  0
LINE
  8
_0-e_極細4
  6
CONTINUOUS
 62
    6
 10
545.75210346108202
 20
420.75318584583317
 11
556.32563635182441
 21
431.32671873657398
  0
LINE
  8
_0-e_極細4
  6
CONTINUOUS
 62
    6
 10
533.7521034610777
 20
412.99582653294726
 11
535.10140845999695
 21
414.34513153186515
  0
LINE
  8
_0-e_極細4
  6
CONTINUOUS
 62
    6
 10
545.75210346108634
 20
424.99582653295545
 11
555.83016003532816
 21
435.07388310719796
  0
LINE
  8
_0-e_極細4
  6
CONTINUOUS
 62
    6
 10
542.85876777285432
 20
426.34513153184196
 11
552.85876777282374
 21
436.34513153181285
  0
LINE
  8
_0-e_極細4
  6
CONTINUOUS
 62
    6
 10
538.61612708574819
 20
426.34513153185515
 11
548.61612708571909
 21
436.34513153182559
  0
LINE
  8
_0-e_極細4
  6
CONTINUOUS
 62
    6
 10
534.37348639864058
 20
426.34513153186742
 11
544.37348639861148
 21
436.34513153183786
  0
LINE
  8
_0-e_極細4
  6
CONTINUOUS
 62
    6
 10
533.75210346108781
 20
429.96638928143454
 11
540.13084571150375
 21
436.34513153185014
  0
LINE
  8
_0-e_極細4
  6
CONTINUOUS
 62
    6
 10
533.75210346109077
 20
434.209029968555
 11
535.88820502439614
 21
436.34513153186288
  0
LINE
  8
_0-e_極細4
  6
CONTINUOUS
 62
    6
 10
677.9121192623511
 20
247.44307217451205
 11
683.75210346060612
 21
253.28305637276799
  0
LINE
  8
_0-e_極細4
  6
CONTINUOUS
 62
    6
 10
673.7494067389182
 20
247.52300033819893
 11
683.75210346060612
 21
257.52569705988708
  0
LINE
  8
_0-e_極細4
  6
CONTINUOUS
 62
    6
 10
669.58669421548677
 20
247.60292850188625
 11
683.75210346060612
 21
261.76833774700651
  0
LINE
  8
_0-e_極細4
  6
CONTINUOUS
 62
    6
 10
665.42398169205399
 20
247.68285666557335
 11
682.49932554094835
 21
264.7582005144676
  0
LINE
  8
_0-e_極細4
  6
CONTINUOUS
 62
    6
 10
661.26126916862108
 20
247.76278482926091
 11
678.33661301751692
 21
264.83812867815493
  0
LINE
  8
_0-e_極細4
  6
CONTINUOUS
 62
    6
 10
657.09855664518966
 20
247.84271299294801
 11
674.17390049408414
 21
264.91805684184226
  0
LINE
  8
_0-e_極細4
  6
CONTINUOUS
 62
    6
 10
652.93584412175824
 20
247.92264115663534
 11
670.01118797065124
 21
264.99798500552936
  0
LINE
  8
_0-e_極細4
  6
CONTINUOUS
 62
    6
 10
648.77313159832693
 20
248.00256932032244
 11
665.84847544721981
 21
265.07791316921669
  0
LINE
  8
_0-e_極細4
  6
CONTINUOUS
 62
    6
 10
644.6104190748955
 20
248.08249748400976
 11
661.68576292378839
 21
265.15784133290401
  0
LINE
  8
_0-e_極細4
  6
CONTINUOUS
 62
    6
 10
640.20796977440318
 20
247.9226888706396
 11
657.52305040035708
 21
265.23776949659134
  0
LINE
  8
_0-e_極細4
  6
CONTINUOUS
 62
    6
 10
633.14757371699363
 20
245.10493350034767
 11
653.36033787692566
 21
265.31769766027867
  0
LINE
  8
_0-e_極細4
  6
CONTINUOUS
 62
    6
 10
628.15210017494815
 20
244.35210064542252
 11
649.19762535349275
 21
265.39762582396577
  0
LINE
  8
_0-e_極細4
  6
CONTINUOUS
 62
    6
 10
623.90945948783326
 20
244.35210064542457
 11
637.79301251902928
 21
258.23565367662241
  0
LINE
  8
_0-e_極細4
  6
CONTINUOUS
 62
    6
 10
643.67951980842759
 20
264.12216096602072
 11
645.03491283006133
 21
265.47755398765332
  0
LINE
  8
_0-e_極細4
  6
CONTINUOUS
 62
    6
 10
619.66681880071394
 20
244.35210064542639
 11
629.93189621390036
 21
254.61717805861122
  0
LINE
  8
_0-e_極細4
  6
CONTINUOUS
 62
    6
 10
615.4241781135961
 20
244.35210064542798
 11
625.42417811359178
 21
254.35210064542366
  0
LINE
  8
_0-e_極細4
  6
CONTINUOUS
 62
    6
 10
611.18153742647974
 20
244.35210064543003
 11
621.18153742647394
 21
254.35210064542571
  0
LINE
  8
_0-e_極細4
  6
CONTINUOUS
 62
    6
 10
606.93889673936201
 20
244.35210064543185
 11
616.93889673935757
 21
254.35210064542753
  0
LINE
  8
_0-e_極細4
  6
CONTINUOUS
 62
    6
 10
602.69625605224564
 20
244.35210064543344
 11
612.69625605223973
 21
254.35210064542935
  0
LINE
  8
_0-e_極細4
  6
CONTINUOUS
 62
    6
 10
598.45361536512632
 20
244.35210064543548
 11
608.45361536512337
 21
254.35210064543116
  0
LINE
  8
_0-e_極細4
  6
CONTINUOUS
 62
    6
 10
594.21097467800848
 20
244.3521006454373
 11
604.21097467800564
 21
254.35210064543298
  0
LINE
  8
_0-e_極細4
  6
CONTINUOUS
 62
    6
 10
589.96833399089212
 20
244.3521006454389
 11
599.9683339908878
 21
254.3521006454348
  0
LINE
  8
_0-e_極細4
  6
CONTINUOUS
 62
    6
 10
585.72569330377428
 20
244.35210064544094
 11
595.72569330376996
 21
254.35210064543639
  0
LINE
  8
_0-e_極細4
  6
CONTINUOUS
 62
    6
 10
581.48305261665791
 20
244.35210064544276
 11
591.48305261665212
 21
254.35210064543844
  0
LINE
  8
_0-e_極細4
  6
CONTINUOUS
 62
    6
 10
577.24041192954019
 20
244.35210064544481
 11
587.24041192953575
 21
254.35210064544026
  0
LINE
  8
_0-e_極細4
  6
CONTINUOUS
 62
    6
 10
572.99777124242235
 20
244.35210064544663
 11
582.99777124241791
 21
254.35210064544208
  0
LINE
  8
_0-e_極細4
  6
CONTINUOUS
 62
    6
 10
568.7551305553045
 20
244.35210064544822
 11
578.75513055530018
 21
254.3521006454439
  0
LINE
  8
_0-e_極細4
  6
CONTINUOUS
 62
    6
 10
564.51248986818666
 20
244.35210064544981
 11
574.51248986818382
 21
254.35210064544594
  0
LINE
  8
_0-e_極細4
  6
CONTINUOUS
 62
    6
 10
560.2698491810703
 20
244.35210064545186
 11
570.26984918106598
 21
254.35210064544799
  0
LINE
  8
_0-e_極細4
  6
CONTINUOUS
 62
    6
 10
556.02720849395246
 20
244.35210064545367
 11
566.02720849394814
 21
254.35210064544935
  0
LINE
  8
_0-e_極細4
  6
CONTINUOUS
 62
    6
 10
551.78456780683473
 20
244.35210064545527
 11
561.7845678068303
 21
254.35210064545117
  0
LINE
  8
_0-e_極細4
  6
CONTINUOUS
 62
    6
 10
547.54192711971837
 20
244.35210064545731
 11
557.54192711971245
 21
254.35210064545299
  0
LINE
  8
_0-e_極細4
  6
CONTINUOUS
 62
    6
 10
543.29928643260052
 20
244.35210064545936
 11
553.29928643259609
 21
254.35210064545504
  0
LINE
  8
_0-e_極細4
  6
CONTINUOUS
 62
    6
 10
539.05664574548268
 20
244.35210064546118
 11
549.05664574547836
 21
254.35210064545663
  0
LINE
  8
_0-e_極細4
  6
CONTINUOUS
 62
    6
 10
534.81400505836484
 20
244.352100645463
 11
544.814005058362
 21
254.35210064545845
  0
LINE
  8
_0-e_極細4
  6
CONTINUOUS
 62
    6
 10
530.571364371247
 20
244.35210064546459
 11
540.57136437124416
 21
254.35210064546072
  0
LINE
  8
_0-e_極細4
  6
CONTINUOUS
 62
    6
 10
526.32872368413064
 20
244.35210064546663
 11
536.32872368412484
 21
254.35210064546231
  0
LINE
  8
_0-e_極細4
  6
CONTINUOUS
 62
    6
 10
522.08608299701291
 20
244.35210064546845
 11
532.08608299700848
 21
254.35210064546391
  0
LINE
  8
_0-e_極細4
  6
CONTINUOUS
 62
    6
 10
517.84344230989655
 20
244.35210064547005
 11
527.84344230989063
 21
254.35210064546573
  0
LINE
  8
_0-e_極細4
  6
CONTINUOUS
 62
    6
 10
513.6008016227787
 20
244.35210064547209
 11
523.60080162277427
 21
254.35210064546777
  0
LINE
  8
_0-e_極細4
  6
CONTINUOUS
 62
    6
 10
509.35816093565938
 20
244.35210064547391
 11
519.35816093565654
 21
254.35210064546982
  0
LINE
  8
_0-e_極細4
  6
CONTINUOUS
 62
    6
 10
505.11552024854302
 20
244.35210064547573
 11
515.11552024853722
 21
254.35210064547164
  0
LINE
  8
_0-e_極細4
  6
CONTINUOUS
 62
    6
 10
500.87287956142518
 20
244.35210064547755
 11
510.87287956142234
 21
254.35210064547323
  0
LINE
  8
_0-e_極細4
  6
CONTINUOUS
 62
    6
 10
496.63023887430745
 20
244.35210064547937
 11
506.63023887430302
 21
254.35210064547528
  0
LINE
  8
_0-e_極細4
  6
CONTINUOUS
 62
    6
 10
492.38759818719109
 20
244.35210064548119
 11
502.38759818718665
 21
254.35210064547709
  0
LINE
  8
_0-e_極細4
  6
CONTINUOUS
 62
    6
 10
488.14495750007177
 20
244.35210064548301
 11
498.14495750006881
 21
254.35210064547869
  0
LINE
  8
_0-e_極細4
  6
CONTINUOUS
 62
    6
 10
483.90231681295688
 20
244.35210064548482
 11
493.90231681295109
 21
254.35210064548073
  0
LINE
  8
_0-e_極細4
  6
CONTINUOUS
 62
    6
 10
479.65967612583756
 20
244.35210064548642
 11
489.65967612583472
 21
254.35210064548255
  0
LINE
  8
_0-e_極細4
  6
CONTINUOUS
 62
    6
 10
475.41703543871972
 20
244.35210064548869
 11
485.4170354387154
 21
254.35210064548414
  0
LINE
  8
_0-e_極細4
  6
CONTINUOUS
 62
    6
 10
471.17439475160336
 20
244.35210064549028
 11
481.17439475160052
 21
254.35210064548642
  0
LINE
  8
_0-e_極細4
  6
CONTINUOUS
 62
    6
 10
466.93175406448563
 20
244.3521006454921
 11
476.9317540644812
 21
254.35210064548801
  0
LINE
  8
_0-e_極細4
  6
CONTINUOUS
 62
    6
 10
462.68911337736927
 20
244.35210064549392
 11
472.68911337736336
 21
254.3521006454896
  0
LINE
  8
_0-e_極細4
  6
CONTINUOUS
 62
    6
 10
458.44647269024995
 20
244.35210064549574
 11
468.44647269024699
 21
254.35210064549187
  0
LINE
  8
_0-e_極細4
  6
CONTINUOUS
 62
    6
 10
454.20383200313211
 20
244.35210064549756
 11
464.20383200312926
 21
254.35210064549346
  0
LINE
  8
_0-e_極細4
  6
CONTINUOUS
 62
    6
 10
449.96119131601574
 20
244.35210064549938
 11
459.9611913160129
 21
254.35210064549528
  0
LINE
  8
_0-e_極細4
  6
CONTINUOUS
 62
    6
 10
445.7185506288979
 20
244.3521006455012
 11
455.71855062889358
 21
254.3521006454971
  0
LINE
  8
_0-e_極細4
  6
CONTINUOUS
 62
    6
 10
441.47590994178154
 20
244.35210064550347
 11
451.47590994177574
 21
254.35210064549892
  0
LINE
  8
_0-e_極細4
  6
CONTINUOUS
 62
    6
 10
437.23326925466381
 20
244.35210064550506
 11
447.23326925465938
 21
254.35210064550074
  0
LINE
  8
_0-e_極細4
  6
CONTINUOUS
 62
    6
 10
432.99062856754597
 20
244.35210064550665
 11
442.99062856754153
 21
254.35210064550279
  0
LINE
  8
_0-e_極細4
  6
CONTINUOUS
 62
    6
 10
428.74798788042813
 20
244.35210064550847
 11
438.74798788042517
 21
254.35210064550438
  0
LINE
  8
_0-e_極細4
  6
CONTINUOUS
 62
    6
 10
424.50534719331029
 20
244.35210064551052
 11
434.50534719330744
 21
254.3521006455062
  0
LINE
  8
_0-e_極細4
  6
CONTINUOUS
 62
    6
 10
423.75210345902724
 20
247.84149759834554
 11
430.2627065061896
 21
254.35210064550824
  0
LINE
  8
_0-e_極細4
  6
CONTINUOUS
 62
    6
 10
423.75210345902724
 20
252.08413828546441
 11
426.02006581907176
 21
254.35210064551006
  0
LINE
  8
_0-e_極細4
  6
CONTINUOUS
 62
    6
 10
420.26270650619392
 20
244.35210064551211
 11
423.75210345902724
 21
247.84149759834554
  0
LINE
  8
_0-e_極細4
  6
CONTINUOUS
 62
    6
 10
416.02006581907608
 20
244.35210064551393
 11
423.75210345902724
 21
252.08413828546441
  0
LINE
  8
_0-e_極細4
  6
CONTINUOUS
 62
    6
 10
411.77742513195835
 20
244.35210064551575
 11
421.77742513195392
 21
254.35210064551165
  0
LINE
  8
_0-e_極細4
  6
CONTINUOUS
 62
    6
 10
407.53478444484199
 20
244.35210064551779
 11
417.53478444483756
 21
254.3521006455137
  0
LINE
  8
_0-e_極細4
  6
CONTINUOUS
 62
    6
 10
403.29214375772415
 20
244.35210064551984
 11
413.29214375771971
 21
254.35210064551552
  0
LINE
  8
_0-e_極細4
  6
CONTINUOUS
 62
    6
 10
399.04950307060631
 20
244.3521006455212
 11
409.04950307060199
 21
254.35210064551757
  0
LINE
  8
_0-e_極細4
  6
CONTINUOUS
 62
    6
 10
394.80686238348846
 20
244.35210064552325
 11
404.80686238348562
 21
254.35210064551916
  0
LINE
  8
_0-e_極細4
  6
CONTINUOUS
 62
    6
 10
390.56422169637062
 20
244.3521006455253
 11
400.56422169636778
 21
254.35210064552098
  0
LINE
  8
_0-e_極細4
  6
CONTINUOUS
 62
    6
 10
386.32158100925426
 20
244.35210064552689
 11
396.32158100924994
 21
254.35210064552302
  0
LINE
  8
_0-e_極細4
  6
CONTINUOUS
 62
    6
 10
382.07894032213653
 20
244.35210064552848
 11
392.0789403221321
 21
254.35210064552462
  0
LINE
  8
_0-e_極細4
  6
CONTINUOUS
 62
    6
 10
377.83629963502017
 20
244.3521006455303
 11
387.83629963501426
 21
254.35210064552666
  0
LINE
  8
_0-e_極細4
  6
CONTINUOUS
 62
    6
 10
373.59365894790233
 20
244.35210064553257
 11
383.59365894789789
 21
254.35210064552848
  0
LINE
  8
_0-e_極細4
  6
CONTINUOUS
 62
    6
 10
369.35101826078301
 20
244.35210064553394
 11
379.35101826078017
 21
254.35210064553007
  0
LINE
  8
_0-e_極細4
  6
CONTINUOUS
 62
    6
 10
365.10837757366664
 20
244.35210064553576
 11
375.1083775736638
 21
254.35210064553212
  0
LINE
  8
_0-e_極細4
  6
CONTINUOUS
 62
    6
 10
360.8657368865488
 20
244.35210064553803
 11
370.86573688654596
 21
254.35210064553394
  0
LINE
  8
_0-e_極細4
  6
CONTINUOUS
 62
    6
 10
356.62309619943244
 20
244.35210064553962
 11
366.62309619942664
 21
254.35210064553576
  0
LINE
  8
_0-e_極細4
  6
CONTINUOUS
 62
    6
 10
352.38045551231471
 20
244.35210064554167
 11
362.38045551231028
 21
254.35210064553758
  0
LINE
  8
_0-e_極細4
  6
CONTINUOUS
 62
    6
 10
348.13781482519539
 20
244.35210064554326
 11
358.13781482519244
 21
254.35210064553939
  0
LINE
  8
_0-e_極細4
  6
CONTINUOUS
 62
    6
 10
343.89517413808051
 20
244.35210064554508
 11
353.89517413807607
 21
254.35210064554121
  0
LINE
  8
_0-e_極細4
  6
CONTINUOUS
 62
    6
 10
339.65253345096119
 20
244.35210064554713
 11
349.65253345095834
 21
254.35210064554303
  0
LINE
  8
_0-e_極細4
  6
CONTINUOUS
 62
    6
 10
335.40989276384482
 20
244.35210064554872
 11
345.40989276384198
 21
254.35210064554508
  0
LINE
  8
_0-e_極細4
  6
CONTINUOUS
 62
    6
 10
331.16725207672698
 20
244.35210064555054
 11
341.16725207672414
 21
254.35210064554667
  0
LINE
  8
_0-e_極細4
  6
CONTINUOUS
 62
    6
 10
326.92461138960925
 20
244.35210064555258
 11
336.92461138960482
 21
254.35210064554849
  0
LINE
  8
_0-e_極細4
  6
CONTINUOUS
 62
    6
 10
322.68197070249289
 20
244.3521006455544
 11
332.68197070248846
 21
254.35210064555031
  0
LINE
  8
_0-e_極細4
  6
CONTINUOUS
 62
    6
 10
318.43933001537357
 20
244.35210064555599
 11
328.43933001537062
 21
254.35210064555235
  0
LINE
  8
_0-e_極細4
  6
CONTINUOUS
 62
    6
 10
314.26727525711306
 20
244.42268657441491
 11
324.19668932825289
 21
254.3521006455544
  0
LINE
  8
_0-e_極細4
  6
CONTINUOUS
 62
    6
 10
310.66413356880503
 20
245.06218557322427
 11
319.95404864113652
 21
254.35210064555599
  0
LINE
  8
_0-e_極細4
  6
CONTINUOUS
 62
    6
 10
307.55623784461773
 20
246.19693053615674
 11
315.71384452589245
 21
254.35453721743124
  0
LINE
  8
_0-e_極細4
  6
CONTINUOUS
 62
    6
 10
304.83750107861397
 20
247.72083445727299
 11
312.19450978291263
 21
255.07784316157085
  0
LINE
  8
_0-e_極細4
  6
CONTINUOUS
 62
    6
 10
302.45846755906223
 20
249.58444162483988
 11
309.53883660065605
 21
256.66481066643473
  0
LINE
  8
_0-e_極細4
  6
CONTINUOUS
 62
    6
 10
300.40045083827999
 20
251.76906559117606
 11
307.54363453314863
 21
258.91224928604561
  0
LINE
  8
_0-e_極細4
  6
CONTINUOUS
 62
    6
 10
298.66790811028022
 20
254.2791635502972
 11
306.24981351623842
 21
261.86106895625369
  0
LINE
  8
_0-e_極細4
  6
CONTINUOUS
 62
    6
 10
297.29016054550425
 20
257.14405667263941
 11
305.84792352744103
 21
265.70181965457812
  0
LINE
  8
_0-e_極細4
  6
CONTINUOUS
 62
    6
 10
296.33427951220938
 20
260.4308163264642
 11
305.63216774811281
 21
269.72870456236853
  0
LINE
  8
_0-e_極細4
  6
CONTINUOUS
 62
    6
 10
295.9220253937076
 20
264.26120289508242
 11
305.41641196878459
 21
273.7555894701585
  0
LINE
  8
_0-e_極細4
  6
CONTINUOUS
 62
    6
 10
295.70526102404529
 20
268.28707921253852
 11
305.200656189455
 21
277.78247437794869
  0
LINE
  8
_0-e_極細4
  6
CONTINUOUS
 62
    6
 10
295.48849665438297
 20
272.31295552999529
 11
304.98490041012542
 21
281.80935928573842
  0
LINE
  8
_0-e_極細4
  6
CONTINUOUS
 62
    6
 10
295.27173228471929
 20
276.33883184745162
 11
304.7691446307972
 21
285.83624419352884
  0
LINE
  8
_0-e_極細4
  6
CONTINUOUS
 62
    6
 10
295.05496791505561
 20
280.36470816490839
 11
304.55338885146898
 21
289.86312910131903
  0
LINE
  8
_0-e_極細4
  6
CONTINUOUS
 62
    6
 10
294.8382035453933
 20
284.39058448236472
 11
304.33763307213803
 21
293.890014009109
  0
LINE
  8
_0-e_極細4
  6
CONTINUOUS
 62
    6
 10
294.62143917573098
 20
288.41646079982104
 11
304.12187729280834
 21
297.91689891689919
  0
LINE
  8
_0-e_極細4
  6
CONTINUOUS
 62
    6
 10
294.40467480606878
 20
292.44233711727759
 11
303.90612151348023
 21
301.94378382468938
  0
LINE
  8
_0-e_極細4
  6
CONTINUOUS
 62
    6
 10
294.18791043640658
 20
296.46821343473437
 11
303.69036573415053
 21
305.97066873247911
  0
LINE
  8
_0-e_極細4
  6
CONTINUOUS
 62
    6
 10
293.97114606674279
 20
300.49408975219069
 11
303.47460995482243
 21
309.9975536402693
  0
LINE
  8
_0-e_極細4
  6
CONTINUOUS
 62
    6
 10
293.75438169708059
 20
304.51996606964747
 11
303.25885417549273
 21
314.02443854805949
  0
LINE
  8
_0-e_極細4
  6
CONTINUOUS
 62
    6
 10
293.5376173274168
 20
308.54584238710356
 11
303.04309839616303
 21
318.05132345584968
  0
LINE
  8
_0-e_極細4
  6
CONTINUOUS
 62
    6
 10
293.3208529577546
 20
312.57171870456011
 11
302.82734261683345
 21
322.07820836363987
  0
LINE
  8
_0-e_極細4
  6
CONTINUOUS
 62
    6
 10
293.1040885880908
 20
316.59759502201666
 11
302.61158683750386
 21
326.10509327142984
  0
LINE
  8
_0-e_極細4
  6
CONTINUOUS
 62
    6
 10
292.8873242184286
 20
320.62347133947299
 11
302.39583105817565
 21
330.13197817922025
  0
LINE
  8
_0-e_極細4
  6
CONTINUOUS
 62
    6
 10
292.67055984876481
 20
324.64934765692976
 11
302.18007527884743
 21
334.15886308700976
  0
LINE
  8
_0-e_極細4
  6
CONTINUOUS
 62
    6
 10
292.45379547910397
 20
328.67522397438631
 11
301.96431949951784
 21
338.18574799480018
  0
LINE
  8
_0-e_極細4
  6
CONTINUOUS
 62
    6
 10
292.2370311094403
 20
332.70110029184264
 11
301.74856372018826
 21
342.21263290259037
  0
LINE
  8
_0-e_極細4
  6
CONTINUOUS
 62
    6
 10
292.02026673977798
 20
336.72697660929919
 11
301.53280794085867
 21
346.23951781038033
  0
LINE
  8
_0-e_極細4
  6
CONTINUOUS
 62
    6
 10
291.80350237011567
 20
340.75285292675551
 11
301.31705216152898
 21
350.26640271817053
  0
LINE
  8
_0-e_極細4
  6
CONTINUOUS
 62
    6
 10
291.58673800045199
 20
344.77872924421206
 11
301.10129638220087
 21
354.29328762596049
  0
LINE
  8
_0-e_極細4
  6
CONTINUOUS
 62
    6
 10
291.36997363078831
 20
348.80460556166884
 11
300.88554060287117
 21
358.32017253375068
  0
LINE
  8
_0-e_極細4
  6
CONTINUOUS
 62
    6
 10
291.15320926112599
 20
352.83048187912516
 11
300.66978482354307
 21
362.34705744154087
  0
LINE
  8
_0-e_極細4
  6
CONTINUOUS
 62
    6
 10
290.93644489146368
 20
356.85635819658171
 11
300.45402904421337
 21
366.37394234933106
  0
LINE
  8
_0-e_極細4
  6
CONTINUOUS
 62
    6
 10
290.71968052180148
 20
360.88223451403826
 11
300.23827326488527
 21
370.4008272571208
  0
LINE
  8
_0-e_極細4
  6
CONTINUOUS
 62
    6
 10
290.50291615213928
 20
364.90811083149481
 11
300.02251748555409
 21
374.42771216491099
  0
LINE
  8
_0-e_極細4
  6
CONTINUOUS
 62
    6
 10
290.28615178247549
 20
368.93398714895091
 11
299.80676170622587
 21
378.45459707270072
  0
LINE
  8
_0-e_極細4
  6
CONTINUOUS
 62
    6
 10
290.06938741281328
 20
372.95986346640746
 11
299.59100592689629
 21
382.48148198049137
  0
LINE
  8
_0-e_極細4
  6
CONTINUOUS
 62
    6
 10
289.85262304314949
 20
376.98573978386401
 11
299.3752501475667
 21
386.50836688828156
  0
LINE
  8
_0-e_極細4
  6
CONTINUOUS
 62
    6
 10
289.29971074962941
 20
380.67546817746222
 11
299.15949436823848
 21
390.53525179607129
  0
LINE
  8
_0-e_極細4
  6
CONTINUOUS
 62
    6
 10
287.45914144410335
 20
383.07753955905662
 11
298.97273493572413
 21
394.59113305067729
  0
LINE
  8
_0-e_極細4
  6
CONTINUOUS
 62
    6
 10
284.44597619282422
 20
384.30701499489521
 11
297.78884523765282
 21
397.64988403972518
  0
LINE
  8
_0-e_極細4
  6
CONTINUOUS
 62
    6
 10
280.24145204264619
 20
384.34513153183741
 11
295.66752489409532
 21
399.77120438328518
  0
LINE
  8
_0-e_極細4
  6
CONTINUOUS
 62
    6
 10
276.86756868427165
 20
385.2138888605831
 11
293.54620455053509
 21
401.89252472684473
  0
LINE
  8
_0-e_極細4
  6
CONTINUOUS
 62
    6
 10
274.77201760871958
 20
387.36097847214876
 11
291.42488420697464
 21
404.01384507040473
  0
LINE
  8
_0-e_極細4
  6
CONTINUOUS
 62
    6
 10
273.91890257231262
 20
390.75050412286271
 11
289.3035638634143
 21
406.13516541396382
  0
LINE
  8
_0-e_極細4
  6
CONTINUOUS
 62
    6
 10
273.57758134664164
 20
394.65182358430991
 11
287.18224351985396
 21
408.25648575752382
  0
LINE
  8
_0-e_極細4
  6
CONTINUOUS
 62
    6
 10
273.23626012096929
 20
398.55314304575666
 11
285.06092317629646
 21
410.37780610108337
  0
LINE
  8
_0-e_極細4
  6
CONTINUOUS
 62
    6
 10
272.1794512014427
 20
401.73897481334996
 11
282.93960283273611
 21
412.49912644464291
  0
LINE
  8
_0-e_極細4
  6
CONTINUOUS
 62
    6
 10
269.91129305898494
 20
403.7134573580114
 11
280.54296723277639
 21
414.34513153180194
  0
LINE
  8
_0-e_極細4
  6
CONTINUOUS
 62
    6
 10
266.30032654546358
 20
404.34513153160958
 11
276.3003265456382
 21
414.3451315317833
  0
LINE
  8
_0-e_極細4
  6
CONTINUOUS
 62
    6
 10
262.0576858575439
 20
404.34513153080832
 11
272.05768585850433
 21
414.3451315317692
  0
LINE
  8
_0-e_極細4
  6
CONTINUOUS
 62
    6
 10
257.81504516962286
 20
404.34513153000796
 11
267.81504517137785
 21
414.34513153176283
  0
LINE
  8
_0-e_極細4
  6
CONTINUOUS
 62
    6
 10
254.4556788064815
 20
405.22840585398387
 11
263.57240448425273
 21
414.34513153175646
  0
LINE
  8
_0-e_極細4
  6
CONTINUOUS
 62
    6
 10
251.10961359153282
 20
406.12498132615644
 11
259.32976379712773
 21
414.34513153174964
  0
LINE
  8
_0-e_極細4
  6
CONTINUOUS
 62
    6
 10
247.7635483765871
 20
407.02155679832856
 11
255.92851418585769
 21
415.18652260759916
  0
LINE
  8
_0-e_極細4
  6
CONTINUOUS
 62
    6
 10
244.41748316163853
 20
407.91813227050113
 11
252.58244897091186
 21
416.08309807977173
  0
LINE
  8
_0-e_極細4
  6
CONTINUOUS
 62
    6
 10
241.0714179466928
 20
408.81470774267325
 11
249.23638375596329
 21
416.97967355194385
  0
LINE
  8
_0-e_極細4
  6
CONTINUOUS
 62
    6
 10
237.72535273174572
 20
409.71128321484582
 11
245.89031854101768
 21
417.87624902411642
  0
LINE
  8
_0-e_極細4
  6
CONTINUOUS
 62
    6
 10
234.37928751679851
 20
410.60785868701794
 11
242.544253326069
 21
418.77282449628854
  0
LINE
  8
_0-e_極細4
  6
CONTINUOUS
 62
    6
 10
231.03322230185131
 20
411.50443415919051
 11
239.19818811112191
 21
419.66939996846111
  0
LINE
  8
_0-e_極細4
  6
CONTINUOUS
 62
    6
 10
227.63127898718653
 20
412.3451315316446
 11
235.85212289617471
 21
420.56597544063322
  0
LINE
  8
_0-e_極細4
  6
CONTINUOUS
 62
    6
 10
223.38863830005857
 20
412.34513153163596
 11
232.5060576812275
 21
421.4625509128058
  0
LINE
  8
_0-e_極細4
  6
CONTINUOUS
 62
    6
 10
219.1459976129305
 20
412.34513153162641
 11
229.15999246628189
 21
422.35912638497746
  0
LINE
  8
_0-e_極細4
  6
CONTINUOUS
 62
    6
 10
214.90335692580106
 20
412.34513153161731
 11
226.90335692583881
 21
424.34513153165415
  0
LINE
  8
_0-e_極細4
  6
CONTINUOUS
 62
    6
 10
214.78256586791667
 20
416.46698116085179
 11
222.66071623870357
 21
424.34513153163914
  0
LINE
  8
_0-e_極細4
  6
CONTINUOUS
 62
    6
 10
216.19677943028785
 20
422.12383541034285
 11
218.41807555157129
 21
424.34513153162413
  0
ARC
  8
_0-e_極細4
  6
DASHED2
 62
    6
 10
278.90346041216389
 20
394.34513153183514
 40
10
 50
3.0819880307197129
 51
89.999999999999915
  0
LINE
  8
_0-e_極細4
  6
CENTER1
 62
    6
 10
281.28355127077498
 20
421.22624581846901
 11
306.9626411440388
 21
395.54715594520565
  0
LINE
  8
_0-e_極細4
  6
CENTER1
 62
    6
 10
273.75210346118968
 20
437.53816748111183
 11
273.75210346118968
 21
408.33217827604983
  0
LINE
  8
_0-e_極細4
  6
CENTER1
 62
    6
 10
736.1890117660032
 20
324.34513153161413
 11
604.796831092199
 21
324.34513153161413
  0
LINE
  8
_0-e_極細4
  6
CENTER1
 62
    6
 10
566.22065565044022
 20
419.2262458184681
 11
540.54156577717504
 21
393.54715594520565
  0
LINE
  8
_0-e_極細4
  6
CENTER1
 62
    6
 10
573.75210346002268
 20
437.53816748111183
 11
573.75210346002268
 21
408.33217827604983
  0
LINE
  8
_0-e_極細4
  6
CONTINUOUS
 62
    6
 10
305.75210346060612
 20
426.34513153194655
 11
301.7521034604548
 21
426.34513153192063
  0
LINE
  8
_0-e_極細4
  6
CONTINUOUS
 62
    6
 10
313.7521034604548
 20
426.34513153194655
 11
305.75210346060612
 21
426.34513153194655
  0
ARC
  8
_0-e_極細4
  6
CONTINUOUS
 62
    6
 10
531.75210346060612
 20
414.70552372723648
 40
2
 50
0.0000000749996167
 51
78.690067525964466
  0
LINE
  8
_0-e_極細4
  6
CONTINUOUS
 62
    6
 10
533.75210346060612
 20
414.70552372723648
 11
533.75210346107906
 21
414.34513153186924
  0
LINE
  8
_0-e_極細4
  6
CONTINUOUS
 62
    6
 10
541.75210346060612
 20
414.34513153183332
 11
533.75210346107906
 21
414.34513153186924
  0
ARC
  8
_0-e_極細4
  6
CONTINUOUS
 62
    6
 10
541.75210346060612
 20
416.34513153267369
 40
2
 50
269.99999999999977
 51
359.99999999999966
  0
LINE
  8
_0-e_極細4
  6
CONTINUOUS
 62
    6
 10
543.75210346060612
 20
424.34513153267415
 11
543.75210346060612
 21
416.34513153267369
  0
LINE
  8
_0-e_極細4
  6
CONTINUOUS
 62
    6
 10
545.75210346107906
 20
414.34513153183332
 11
541.75210346060612
 21
414.34513153183332
  0
LINE
  8
_0-e_極細4
  6
CONTINUOUS
 62
    6
 10
568.41060917564448
 20
414.34513153180922
 11
558.41060917568666
 21
404.34513153198338
  0
LINE
  8
_0-e_極細4
  6
CONTINUOUS
 62
    6
 10
558.41060917568666
 20
404.34513153198338
 11
613.88560108916852
 21
404.34513153162823
  0
LINE
  8
_0-e_極細4
  6
CONTINUOUS
 62
    6
 10
640.77302917973122
 20
388.82166768569584
 11
613.88560108916852
 21
404.34513153162823
  0
ARC
  8
_0-e_極細4
  6
CONTINUOUS
 62
    6
 10
637.75210346060612
 20
383.63765304455853
 40
6
 50
10.451459140747392
 51
59.76899143191023
  0
LINE
  8
_0-e_極細4
  6
CONTINUOUS
 62
    6
 10
683.75210346061056
 20
383.95611711366962
 11
643.65255712593773
 21
384.72606773725408
  0
ARC
  8
_0-e_極細4
  6
CONTINUOUS
 62
    6
 10
637.75210346060612
 20
383.63765304455853
 40
6
 50
0
 51
10.451459140747392
  0
LINE
  8
_0-e_極細4
  6
CONTINUOUS
 62
    6
 10
533.75210346107042
 20
404.34513153198338
 11
558.41060917568666
 21
404.34513153198338
  0
LINE
  8
_0-e_極細4
  6
CONTINUOUS
 62
    6
 10
628.16818906040407
 20
254.35210064542252
 11
315.93458306036325
 21
254.35210064555758
  0
LINE
  8
_0-e_極細4
  6
CONTINUOUS
 62
    6
 10
629.33938925341488
 20
244.35210064542207
 11
315.9460801680134
 21
244.35210064555713
  0
ARC
  8
_0-e_極細4
  6
CONTINUOUS
 62
    6
 10
283.77073877302018
 20
378.34513153185287
 40
6
 50
3.0819880307198702
 51
89.999999999999915
  0
ARC
  8
_0-e_極細4
  6
CONTINUOUS
 62
    6
 10
279.97728710379442
 20
390.34513153183605
 40
6
 50
185.0000000000378
 51
269.99999999999977
  0
LINE
  8
_0-e_極細4
  6
CONTINUOUS
 62
    6
 10
295.97502824133107
 20
263.27680260209206
 11
289.76206050287124
 21
378.66772094489249
  0
ARC
  8
_0-e_極細4
  6
CONTINUOUS
 62
    6
 10
315.94610067417216
 20
264.35210064555679
 40
20
 50
183.08198803071915
 51
269.99999999999977
  0
LINE
  8
_0-e_極細4
  6
CONTINUOUS
 62
    6
 10
289.68750075379057
 20
424.34513153187243
 11
216.75210346060612
 21
424.34513153161822
  0
LINE
  8
_0-e_極細4
  6
CONTINUOUS
 62
    6
 10
257.75210346060612
 20
404.34513152999568
 11
227.89569699408435
 21
412.34513153164323
  0
LINE
  8
_0-e_極細4
  6
CONTINUOUS
 62
    6
 10
259.06862842994587
 20
414.34513153174919
 11
227.89585142702686
 21
422.69785195556676
  0
LINE
  8
_0-e_極細4
  6
CONTINUOUS
 62
    6
 10
269.45187913128598
 20
422.69785195549582
 11
229.29768270730983
 21
422.69785195549582
  0
LINE
  8
_0-e_極細4
  6
CONTINUOUS
 62
    6
 10
227.89623063904276
 20
422.69775034601969
 11
227.75210346079098
 21
424.3451315316687
  0
LINE
  8
_0-e_極細4
  6
CONTINUOUS
 62
    6
 10
227.89569699407866
 20
412.34513153164551
 11
213.75210346060612
 21
412.34513153161413
  0
LINE
  8
_0-e_極細4
  6
CONTINUOUS
 62
    6
 10
216.7521034606076
 20
424.34513153161822
 11
213.7521034606076
 21
412.34513153161458
  0
ARC
  8
_0-e_極細4
  6
CONTINUOUS
 62
    6
 10
293.53655088389917
 20
434.34513153190107
 40
2
 50
89.999999999999915
 51
173.48019824834876
  0
LINE
  8
_0-e_極細4
  6
CONTINUOUS
 62
    6
 10
281.09359774554741
 20
414.34513153183195
 11
299.15868807364734
 21
396.28004120373032
  0
LINE
  8
_0-e_極細4
  6
CONTINUOUS
 62
    6
 10
289.69219935235583
 20
419.88866554875301
 11
305.76361747791066
 21
403.81724742320046
  0
ARC
  8
_0-e_極細4
  6
CONTINUOUS
 62
    6
 10
267.23153974506261
 20
398.34513153178557
 40
6
 50
5.0000000000424825
 51
89.999999999999915
  0
LINE
  8
_0-e_極細4
  6
CONTINUOUS
 62
    6
 10
273.75210346118968
 20
414.34513153179375
 11
259.06862842994587
 21
414.34513153174919
  0
LINE
  8
_0-e_極細4
  6
CONTINUOUS
 62
    6
 10
269.75210346060612
 20
424.34513153178239
 11
268.52786189070162
 21
417.62792730282888
  0
LINE
  8
_0-e_極細4
  6
CONTINUOUS
 62
    6
 10
267.23153974503794
 20
404.34513153178511
 11
257.75210346060612
 21
404.34513153174419
  0
ARC
  8
_0-e_極細4
  6
CONTINUOUS
 62
    6
 10
264.59268488146904
 20
418.34513153176601
 40
4
 50
269.99999999999977
 51
349.67094897780197
  0
LINE
  8
_0-e_極細4
  6
CONTINUOUS
 62
    6
 10
283.31376163486402
 20
414.34513153183741
 11
273.75210346118968
 21
414.34513153177193
  0
ARC
  8
_0-e_極細4
  6
CONTINUOUS
 62
    6
 10
282.8692178991738
 20
418.34513153183377
 40
4
 50
189.97879785855761
 51
269.99999999999977
  0
ARC
  8
_0-e_極細4
  6
CONTINUOUS
 62
    6
 10
283.31376163482332
 20
420.34513153183741
 40
6
 50
269.99999999999977
 51
351.34132044732405
  0
LINE
  8
_0-e_極細4
  6
CONTINUOUS
 62
    6
 10
291.54948553858685
 20
434.5722247142229
 11
289.24537792900219
 21
419.44184412539551
  0
LINE
  8
_0-e_極細4
  6
CONTINUOUS
 62
    6
 10
277.75210346061044
 20
424.34513153180012
 11
278.92973012476853
 21
417.65199657000392
  0
LINE
  8
_0-e_極細4
  6
CONTINUOUS
 62
    6
 10
283.77073877299244
 20
384.34513153185287
 11
279.97728710381909
 21
384.34513153183605
  0
LINE
  8
_0-e_極細4
  6
CONTINUOUS
 62
    6
 10
274.00011891524321
 20
389.82219707534603
 11
273.20870793361382
 21
398.86806598827559
  0
LINE
  8
_0-e_極細4
  6
CONTINUOUS
 62
    6
 10
313.75210346045628
 20
436.345131531947
 11
313.75210346045628
 21
426.34513153194655
  0
LINE
  8
_0-e_極細4
  6
CONTINUOUS
 62
    6
 10
305.75210346060612
 20
414.34513153267415
 11
313.7521034606076
 21
414.34513153194655
  0
LINE
  8
_0-e_極細4
  6
CONTINUOUS
 62
    6
 10
301.7521034604548
 20
414.34513153192063
 11
313.7521034604548
 21
414.34513153194655
  0
LINE
  8
_0-e_極細4
  6
CONTINUOUS
 62
    6
 10
313.75210346045628
 20
426.34513153267415
 11
305.75210346060612
 21
426.34513153267415
  0
ARC
  8
_0-e_極細4
  6
CONTINUOUS
 62
    6
 10
308.96970864044101
 20
394.34513153193473
 40
10
 50
89.999999999999915
 51
183.06690832148934
  0
LINE
  8
_0-e_極細4
  6
CONTINUOUS
 62
    6
 10
301.7521034604548
 20
426.34513153191926
 11
301.7521034604548
 21
414.34513153191926
  0
LINE
  8
_0-e_極細4
  6
CONTINUOUS
 62
    6
 10
303.75210346060612
 20
424.34513153267415
 11
303.75210346060612
 21
416.3451315326746
  0
ARC
  8
_0-e_極細4
  6
CONTINUOUS
 62
    6
 10
305.75210346060612
 20
424.34513153267415
 40
2
 50
89.999999999999915
 51
179.99999999999983
  0
ARC
  8
_0-e_極細4
  6
CONTINUOUS
 62
    6
 10
305.75210346060612
 20
416.3451315326746
 40
2
 50
179.99999999999983
 51
269.99999999999977
  0
LINE
  8
_0-e_極細4
  6
CONTINUOUS
 62
    6
 10
313.7521034604548
 20
414.34513153194655
 11
313.7521034604548
 21
404.34513153194609
  0
LINE
  8
_0-e_極細4
  6
CONTINUOUS
 62
    6
 10
313.7521034606076
 20
414.70552372723648
 11
313.7521034606076
 21
414.34513153267415
  0
ARC
  8
_0-e_極細4
  6
CONTINUOUS
 62
    6
 10
315.75210346060612
 20
414.70552372723648
 40
2
 50
101.30993247403235
 51
179.99999999999983
  0
LINE
  8
_0-e_極細4
  6
CONTINUOUS
 62
    6
 10
313.7521034606076
 20
425.98473933811135
 11
313.7521034606076
 21
426.34513153267415
  0
ARC
  8
_0-e_極細4
  6
CONTINUOUS
 62
    6
 10
315.75210346060612
 20
425.98473933811135
 40
2
 50
179.99999999999983
 51
258.69006752596221
  0
LINE
  8
_0-e_極細4
  6
CONTINUOUS
 62
    6
 10
683.75210346060612
 20
397.43539095004496
 11
683.75210346060612
 21
251.40847996043613
  0
LINE
  8
_0-e_極細4
  6
CONTINUOUS
 62
    6
 10
680.75210346060612
 20
382.01335141269863
 11
643.71370857580462
 21
382.72452492573973
  0
LINE
  8
_0-e_極細4
  6
CONTINUOUS
 62
    6
 10
683.75210346060476
 20
264.73414594955045
 11
643.75210346060612
 21
265.50218518586451
  0
LINE
  8
_0-e_極細4
  6
CONTINUOUS
 62
    6
 10
680.7521034606076
 20
266.79211753596644
 11
643.79049834540479
 21
267.50181661010663
  0
LINE
  8
_0-e_極細4
  6
CONTINUOUS
 62
    6
 10
679.67531369100743
 20
247.40921711195051
 11
642.4091203819944
 21
248.12476457818434
  0
LINE
  8
_0-e_極細4
  6
CONTINUOUS
 62
    6
 10
643.75210346060612
 20
383.63765304455853
 11
643.75210346060612
 21
265.05261001866882
  0
ARC
  8
_0-e_極細4
  6
CONTINUOUS
 62
    6
 10
596.04574440706483
 20
337.96748925807458
 40
100.00000000000001
 50
291.71126247491748
 51
294.81817458383011
  0
ARC
  8
_0-e_極細4
  6
CONTINUOUS
 62
    6
 10
629.33938925341772
 20
254.35210064542207
 40
10
 50
269.99999999999977
 51
291.71126247491912
  0
ARC
  8
_0-e_極細4
  6
CONTINUOUS
 62
    6
 10
628.16818906040555
 20
260.35210064542252
 40
6
 50
269.99999999999977
 51
292.48304715454344
  0
ARC
  8
_0-e_極細4
  6
CONTINUOUS
 62
    6
 10
596.04574440706483
 20
337.96748925807458
 40
90
 50
292.48304715453833
 51
299.76899289976581
  0
ARC
  8
_0-e_極細4
  6
CONTINUOUS
 62
    6
 10
637.75210346060612
 20
265.05261001866882
 40
6
 50
299.76899289975717
 51
359.99999999999966
  0
ARC
  8
_0-e_極細4
  6
CONTINUOUS
 62
    6
 10
642.21714595799699
 20
238.12660745696826
 40
10
 50
88.899999999988566
 51
114.81817458383149
  0
LINE
  8
_0-e_極細4
  6
CONTINUOUS
 62
    6
 10
680.75210346060612
 20
382.01335141269863
 11
680.75210346060612
 21
266.7921175359669
  0
ARC
  8
_0-e_極細4
  6
CONTINUOUS
 62
    6
 10
679.75210346060612
 20
251.40847996043613
 40
4
 50
268.90000000000055
 51
359.99999999999966
  0
LINE
  8
_0-e_極細4
  6
CONTINUOUS
 62
    6
 10
683.75210346060612
 20
264.73414594954954
 11
680.75210346060612
 21
266.7921175359669
  0
LINE
  8
_0-e_極細4
  6
CONTINUOUS
 62
    6
 10
683.75210346060612
 20
383.95611711366962
 11
680.75210346060612
 21
382.01335141269999
  0
LINE
  8
_0-e_極細4
  6
CONTINUOUS
 62
    6
 10
679.82889323020481
 20
401.43465379853285
 11
643.92361913300977
 21
402.12407028096402
  0
LINE
  8
_0-e_極細4
  6
CONTINUOUS
 62
    6
 10
563.61973144504873
 20
414.3451315318415
 11
573.75210346002268
 21
414.34513153177238
  0
ARC
  8
_0-e_極細4
  6
CONTINUOUS
 62
    6
 10
564.63498902203992
 20
418.34513153183377
 40
4
 50
269.99999999999977
 51
350.02120214144162
  0
LINE
  8
_0-e_極細4
  6
CONTINUOUS
 62
    6
 10
557.12353203235534
 20
424.34513153187515
 11
630.75210346060612
 21
424.34513153161822
  0
LINE
  8
_0-e_極細4
  6
CONTINUOUS
 62
    6
 10
533.75210346109361
 20
436.34513153186924
 11
533.75210346108634
 21
426.34513153186924
  0
ARC
  8
_0-e_極細4
  6
CONTINUOUS
 62
    6
 10
553.96765603764925
 20
434.34513153180967
 40
2
 50
6.5198017516122393
 51
89.999999999999915
  0
LINE
  8
_0-e_極細4
  6
CONTINUOUS
 62
    6
 10
558.04637654183443
 20
418.12303452172989
 11
544.26847355204359
 21
404.34513153193973
  0
LINE
  8
_0-e_極細4
  6
CONTINUOUS
 62
    6
 10
533.75210346108634
 20
426.34513153186924
 11
545.75210346108634
 21
426.34513153183332
  0
LINE
  8
_0-e_極細4
  6
CONTINUOUS
 62
    6
 10
545.75210346108634
 20
426.34513153183286
 11
545.75210346107906
 21
414.34513153183286
  0
ARC
  8
_0-e_極細4
  6
CONTINUOUS
 62
    6
 10
541.75210346060612
 20
424.34513153267369
 40
2
 50
0
 51
89.999999999999915
  0
LINE
  8
_0-e_極細4
  6
CONTINUOUS
 62
    6
 10
533.75210346107906
 20
414.34513153186924
 11
533.75210346107178
 21
404.34513153186742
  0
LINE
  8
_0-e_極細4
  6
CONTINUOUS
 62
    6
 10
533.75210346060612
 20
425.9847393381109
 11
533.75210346060612
 21
426.34513153267415
  0
ARC
  8
_0-e_極細4
  6
CONTINUOUS
 62
    6
 10
531.75210346060612
 20
425.9847393381109
 40
2
 50
281.30993247403774
 51
359.99999999999966
  0
ARC
  8
_0-e_極細4
  6
CONTINUOUS
 62
    6
 10
563.61973144509091
 20
420.3451315318415
 40
6
 50
186.51980175161199
 51
269.99999999999977
  0
LINE
  8
_0-e_極細4
  6
CONTINUOUS
 62
    6
 10
555.95472138296304
 20
434.57222471413104
 11
557.65853540915259
 21
419.66385198488149
  0
LINE
  8
_0-e_極細4
  6
CONTINUOUS
 62
    6
 10
578.05232778992786
 20
422.69785195549582
 11
618.20652421390389
 21
422.69785195549582
  0
LINE
  8
_0-e_極細4
  6
CONTINUOUS
 62
    6
 10
588.43557849126944
 20
414.34513153174919
 11
619.60835549418834
 21
422.69785195556676
  0
LINE
  8
_0-e_極細4
  6
CONTINUOUS
 62
    6
 10
573.75210346002405
 20
414.34513153179375
 11
588.43557849126944
 21
414.34513153174919
  0
LINE
  8
_0-e_極細4
  6
CONTINUOUS
 62
    6
 10
577.7521034606076
 20
424.34513153178239
 11
578.97634503051222
 21
417.62792730282888
  0
LINE
  8
_0-e_極細4
  6
CONTINUOUS
 62
    6
 10
569.75210346060476
 20
424.34513153180012
 11
568.5744767964452
 21
417.65199657000392
  0
ARC
  8
_0-e_極細4
  6
CONTINUOUS
 62
    6
 10
582.9115220397448
 20
418.34513153176601
 40
4
 50
190.32905102220099
 51
269.99999999999977
  0
LINE
  8
_0-e_極細4
  6
CONTINUOUS
 62
    6
 10
619.60797628217097
 20
422.69775034601969
 11
619.75210346042138
 21
424.3451315316687
  0
LINE
  8
_0-e_極細4
  6
CONTINUOUS
 62
    6
 10
630.75210346060612
 20
424.34513153161822
 11
634.41416855555417
 21
409.69687115181785
  0
ARC
  8
_0-e_極細4
  6
CONTINUOUS
 62
    6
 10
644.11559355700729
 20
412.1222274021801
 40
10
 50
194.03624346791537
 51
268.899999999996
  0
ARC
  8
_0-e_極細4
  6
CONTINUOUS
 62
    6
 10
679.75210346060612
 20
397.43539095004496
 40
4
 50
0
 51
88.900000000000972
  0
LINE
  8
_0-e_極細4
  6
CONTINUOUS
 62
    6
 10
322.75210345902724
 20
436.34513153196701
 11
293.53655088389473
 21
436.34513153190198
  0
LINE
  8
_0-e_極細4
  6
CONTINUOUS
 62
    6
 10
322.75210345902724
 20
426.34513153267415
 11
314.41119806909103
 21
426.34513153267415
  0
LINE
  8
_0-e_極細4
  6
CONTINUOUS
 62
    6
 10
322.75210345902724
 20
414.34513153200612
 11
313.7521034604548
 21
414.34513153194655
  0
LINE
  8
_0-e_極細4
  6
CONTINUOUS
 62
    6
 10
308.96970864041634
 20
404.34513153193564
 11
322.75210345902724
 21
404.34513153196565
  0
LINE
  8
_0-e_極細4
  6
CONTINUOUS
 62
    6
 10
315.35987119032927
 20
424.02357798672972
 11
322.75210345902724
 21
422.54513153299001
  0
LINE
  8
_0-e_極細4
  6
CONTINUOUS
 62
    6
 10
315.35987119032927
 20
416.66668507861903
 11
322.75210345902724
 21
418.14513153235873
  0
LINE
  8
_0-e_極細4
  6
CONTINUOUS
 62
    6
 10
524.75210345902872
 20
436.34513153189516
 11
553.96765603765516
 21
436.34513153180967
  0
LINE
  8
_0-e_極細4
  6
CONTINUOUS
 62
    6
 10
533.75210346108781
 20
426.3451315318697
 11
524.75210345902872
 21
426.34513153189607
  0
LINE
  8
_0-e_極細4
  6
CONTINUOUS
 62
    6
 10
533.75210346107906
 20
414.3451315318697
 11
524.75210345902872
 21
414.34513153189607
  0
LINE
  8
_0-e_極細4
  6
CONTINUOUS
 62
    6
 10
537.4647087563003
 20
404.34513153185651
 11
524.75210345902724
 21
404.3451315318938
  0
LINE
  8
_0-e_極細4
  6
CONTINUOUS
 62
    6
 10
532.14433573088309
 20
424.02357798672972
 11
524.75210345902724
 21
422.54513153235882
  0
LINE
  8
_0-e_極細4
  6
CONTINUOUS
 62
    6
 10
532.14433573088309
 20
416.66668507861903
 11
524.75210345902724
 21
418.14513153298992
  0
LINE
  8
_0-e_極細4
  6
CENTER1
 62
    6
 10
423.75210345902724
 20
576.50981968679116
 11
423.75210345902724
 21
228.35210064551052
  0
CIRCLE
  8
_1-1_寸法4
  6
CONTINUOUS
 62
    7
 10
512.35210345902726
 20
536.06389918955836
 40
40
  0
LINE
  8
_1-1_寸法4
  6
CONTINUOUS
 62
    7
 10
377.73978629048634
 20
548.04533231981873
 11
363.50261628531996
 21
555.34622200834235
  0
LINE
  8
_1-1_寸法4
  6
CONTINUOUS
 62
    7
 10
377.73978629048634
 20
548.04533231981873
 11
369.06048023227618
 21
561.48667326289126
  0
LINE
  8
_1-1_寸法4
  6
CONTINUOUS
 62
    7
 10
377.73978629048634
 20
548.04533231981873
 11
346.7400443872566
 21
576.10391315478228
  0
LINE
  8
_1-1_寸法4
  6
CONTINUOUS
 62
    7
 10
346.7400443872566
 20
576.10391315478228
 11
231.54004438725667
 21
576.10391315478228
  0
TEXT
  8
_1-1_寸法4
 62
    7
 10
231.54004438725667
 20
576.10391315478262
 40
24
 41
0.7999999999999998
 50
-0.0000000000001696
  1
ストレーナー
  0
TEXT
  8
_1-1_寸法4
 62
    7
 10
530.9210519197876
 20
567.04340448943799
 40
24
 41
0.8000000000000001
 50
0
  1
Ｃ部
  0
LINE
  8
_1-1_寸法4
  6
CONTINUOUS
 62
    7
 10
414.45203148162238
 20
286.99454771849094
 11
410.31092675998195
 21
271.53973449786588
  0
LINE
  8
_1-1_寸法4
  6
CONTINUOUS
 62
    7
 10
414.45203148162238
 20
286.99454771849094
 11
403.13832298263765
 21
275.6808392195062
  0
LINE
  8
_1-1_寸法4
  6
CONTINUOUS
 62
    7
 10
414.45203148162238
 20
286.99454771849094
 11
359.08388161245807
 21
191.09409902401399
  0
LINE
  8
_1-1_寸法4
  6
CONTINUOUS
 62
    7
 10
359.08388161245807
 20
191.09409902401399
 11
186.28388161245812
 21
191.09409902401399
  0
TEXT
  8
_1-1_寸法4
 62
    7
 10
186.28388161245812
 20
191.09409902401399
 40
24
 41
0.7999999999999998
 50
0
  1
縦引きトラップ本体
  0
LINE
  8
_1-1_寸法4
  6
CONTINUOUS
 62
    7
 10
383.24099043774027
 20
446.9222062105672
 11
367.78617721711521
 21
451.06331093220757
  0
LINE
  8
_1-1_寸法4
  6
CONTINUOUS
 62
    7
 10
383.24099043774027
 20
446.9222062105672
 11
371.92728193875553
 21
458.23591470955199
  0
LINE
  8
_1-1_寸法4
  6
CONTINUOUS
 62
    7
 10
383.24099043774027
 20
446.9222062105672
 11
309.95210345902581
 21
489.2355648363361
  0
LINE
  8
_1-1_寸法4
  6
CONTINUOUS
 62
    7
 10
309.95210345902581
 20
489.2355648363361
 11
156.35210345902578
 21
489.2355648363361
  0
TEXT
  8
_1-1_寸法4
 62
    7
 10
156.35210345902578
 20
489.2355648363361
 40
24
 41
0.7999999999999998
 50
0
  1
防臭インナー１号
  0
LINE
  8
_1-1_寸法4
  6
CONTINUOUS
 62
    7
 10
359.53045391835462
 20
417.66826079460623
 11
344.07564069772957
 21
421.8093655162466
  0
LINE
  8
_1-1_寸法4
  6
CONTINUOUS
 62
    7
 10
359.53045391835462
 20
417.66826079460623
 11
348.21674541936989
 21
428.98196929359102
  0
LINE
  8
_1-1_寸法4
  6
CONTINUOUS
 62
    7
 10
359.53045391835462
 20
417.66826079460623
 11
309.95210345902581
 21
446.29233477827773
  0
LINE
  8
_1-1_寸法4
  6
CONTINUOUS
 62
    7
 10
309.95210345902581
 20
446.29233477827773
 11
156.35210345902578
 21
446.29233477827773
  0
TEXT
  8
_1-1_寸法4
 62
    7
 10
156.35210345902578
 20
446.29233477827773
 40
24
 41
0.7999999999999998
 50
0
  1
防臭インナー２号
  0
LINE
  8
_0-e_極細4
  6
CONTINUOUS
 62
    6
 10
423.75210345902724
 20
274.35210064545061
 11
314.86300647315352
 21
274.35210064549426
  0
ARC
  8
_0-e_極細4
  6
CONTINUOUS
 62
    6
 10
314.86300647315784
 20
284.35210064549426
 40
10
 50
183.06690832149064
 51
269.99999999997488
  0
LINE
  8
_0-e_極細4
  6
CONTINUOUS
 62
    6
 10
305.94890568563699
 20
263.81707974144672
 11
298.98403126571202
 21
393.81011062782488
  0
ARC
  8
_0-e_極細4
  6
CONTINUOUS
 62
    6
 10
315.93458306036609
 20
264.35210064555679
 40
10
 50
183.06690832148806
 51
269.99999999999977
  0
ARC
  8
_0-e_極細4
  6
CONTINUOUS
 62
    6
 10
545.38444659373329
 20
264.35210104543728
 40
9.9999996000005922
 50
179.99999999999983
 51
269.99999999999977
  0
LINE
  8
_0-e_極細4
  6
CONTINUOUS
 62
    6
 10
423.75210345902724
 20
274.35210064545061
 11
525.3844473937321
 21
274.35210064545061
  0
ARC
  8
_0-e_極細4
  6
CONTINUOUS
 62
    6
 10
525.3844473937321
 20
264.35210104543728
 40
9.9999996000005922
 50
0
 51
89.999999999999915
  0
TEXT
  8
_0-7_枠細線
 62
    5
 10
328.39136865157184
 20
119.27823837660151
 40
40
 41
0.8
 50
0
  1
排水部詳細図
  0
TEXT
  8
_0-7_枠細線
 62
    5
 10
548.57041724529836
 20
119.27823837660151
 40
32
 41
0.6000000000000002
 50
0
  1
Ｓ＝１：４
  0
LINE
  8
_0-a_極細1
  6
CONTINUOUS
 62
    7
 10
736.43765367953586
 20
573.19114911275119
 11
755.63765175953722
 21
573.19114911275119
  0
LINE
  8
_0-a_極細1
  6
CONTINUOUS
 62
    7
 10
736.43765367953586
 20
574.25781567275112
 11
755.63765175953722
 21
574.25781567275112
  0
LINE
  8
_0-a_極細1
  6
CONTINUOUS
 62
    7
 10
736.26577778680939
 20
575.32448223275128
 11
755.63765175953722
 21
575.32448223275128
  0
LINE
  8
_0-a_極細1
  6
CONTINUOUS
 62
    7
 10
735.19911122680924
 20
576.39114879275144
 11
755.63765175953722
 21
576.39114879275144
  0
LINE
  8
_0-a_極細1
  6
CONTINUOUS
 62
    7
 10
734.13244466680908
 20
577.45781535275091
 11
755.63765175953722
 21
577.45781535275091
  0
LINE
  8
_0-a_極細1
  6
CONTINUOUS
 62
    7
 10
734.47619645226359
 20
578.52448191275107
 11
755.63765175953722
 21
578.52448191275107
  0
LINE
  8
_0-a_極細1
  6
CONTINUOUS
 62
    7
 10
735.54286301226375
 20
579.59114847275123
 11
755.63765175953722
 21
579.59114847275123
  0
LINE
  8
_0-a_極細1
  6
CONTINUOUS
 62
    7
 10
736.43765367953586
 20
580.65781503275139
 11
755.63765175953722
 21
580.65781503275139
  0
LINE
  8
_0-a_極細1
  6
CONTINUOUS
 62
    7
 10
736.43765367953586
 20
581.72448159275154
 11
755.63765175953722
 21
581.72448159275154
  0
LINE
  8
_0-a_極細1
  6
CONTINUOUS
 62
    7
 10
736.43765367953586
 20
582.7911481527517
 11
755.63765175953722
 21
582.7911481527517
  0
LINE
  8
_0-a_極細1
  6
CONTINUOUS
 62
    7
 10
736.43765367953586
 20
583.85781471275163
 11
755.63765175953722
 21
583.85781471275163
  0
LINE
  8
_0-a_極細1
  6
CONTINUOUS
 62
    7
 10
736.43765367953586
 20
584.92448127275111
 11
755.63765175953722
 21
584.92448127275111
  0
LINE
  8
_0-a_極細1
  6
CONTINUOUS
 62
    7
 10
736.43765367953586
 20
585.99114783275127
 11
755.63765175953722
 21
585.99114783275127
  0
LINE
  8
_0-a_極細1
  6
CONTINUOUS
 62
    7
 10
736.43765367953586
 20
587.05781439275142
 11
755.63765175953722
 21
587.05781439275142
  0
LINE
  8
_0-a_極細1
  6
CONTINUOUS
 62
    7
 10
735.73244450680636
 20
588.12448095275158
 11
756.01376331832569
 21
588.12448095275158
  0
LINE
  8
_0-a_極細1
  6
CONTINUOUS
 62
    7
 10
734.66577794680916
 20
589.19114751275208
 11
756.58265215032577
 21
589.19114751275208
  0
LINE
  8
_0-a_極細1
  6
CONTINUOUS
 62
    7
 10
733.94286317226351
 20
590.25781407275178
 11
757.15154098232586
 21
590.25781407275178
  0
LINE
  8
_0-a_極細1
  6
CONTINUOUS
 62
    7
 10
735.00952973226367
 20
591.32448063275194
 11
757.72042981432594
 21
591.32448063275194
  0
LINE
  8
_0-a_極細1
  6
CONTINUOUS
 62
    7
 10
736.07619629226383
 20
592.3911471927521
 11
758.28931864632602
 21
592.3911471927521
  0
LINE
  8
_0-a_極細1
  6
CONTINUOUS
 62
    7
 10
736.43765367953586
 20
593.4578137527518
 11
758.85820747832611
 21
593.4578137527518
  0
LINE
  8
_0-a_極細1
  6
CONTINUOUS
 62
    7
 10
736.43765367953586
 20
594.52448031275196
 11
759.42709631032324
 21
594.52448031275196
  0
LINE
  8
_0-a_極細1
  6
CONTINUOUS
 62
    7
 10
790.3473399641457
 20
547.16304748122468
 11
790.3473399641457
 21
629.4827480341595
  0
LINE
  8
_0-a_極細1
  6
CONTINUOUS
 62
    7
 10
789.28067340414555
 20
546.09638092122509
 11
789.28067340414555
 21
629.25201978061421
  0
LINE
  8
_0-a_極細1
  6
CONTINUOUS
 62
    7
 10
788.21400684414539
 20
545.02971436122527
 11
788.21400684414539
 21
628.78221575155874
  0
LINE
  8
_0-a_極細1
  6
CONTINUOUS
 62
    7
 10
787.14734028414523
 20
543.96304780122512
 11
787.14734028414523
 21
627.99139834556706
  0
LINE
  8
_0-a_極細1
  6
CONTINUOUS
 62
    7
 10
786.08067372414507
 20
542.89638124122496
 11
786.08067372414507
 21
626.60995434587164
  0
LINE
  8
_0-a_極細1
  6
CONTINUOUS
 62
    7
 10
785.01400716414491
 20
541.82971468122537
 11
785.01400716414491
 21
622.45236761475996
  0
LINE
  8
_0-a_極細1
  6
CONTINUOUS
 62
    7
 10
783.94734060414476
 20
540.76304812122521
 11
783.94734060414476
 21
620.24297950936841
  0
LINE
  8
_0-a_極細1
  6
CONTINUOUS
 62
    7
 10
782.8806740441446
 20
539.92002319661583
 11
782.8806740441446
 21
618.92195489904077
  0
LINE
  8
_0-a_極細1
  6
CONTINUOUS
 62
    7
 10
781.8140074841458
 20
539.92002319661583
 11
781.8140074841458
 21
617.98741862498071
  0
LINE
  8
_0-a_極細1
  6
CONTINUOUS
 62
    7
 10
780.74734092414428
 20
539.92002319661583
 11
780.74734092414428
 21
617.30191003793732
  0
LINE
  8
_0-a_極細1
  6
CONTINUOUS
 62
    7
 10
779.68067436414549
 20
539.92002319661583
 11
779.68067436414549
 21
616.80459385843676
  0
LINE
  8
_0-a_極細1
  6
CONTINUOUS
 62
    7
 10
778.61400780414533
 20
539.92002319661583
 11
778.61400780414533
 21
616.46346902909625
  0
LINE
  8
_0-a_極細1
  6
CONTINUOUS
 62
    7
 10
777.54734124414517
 20
539.92002319661583
 11
777.54734124414517
 21
616.26074309372859
  0
LINE
  8
_0-a_極細1
  6
CONTINUOUS
 62
    7
 10
776.48067468414501
 20
539.92002319661583
 11
776.48067468414501
 21
616.18712725615421
  0
LINE
  8
_0-a_極細1
  6
CONTINUOUS
 62
    7
 10
775.41400812414486
 20
539.92002319661583
 11
775.41400812414486
 21
616.18668223661678
  0
LINE
  8
_0-a_極細1
  6
CONTINUOUS
 62
    7
 10
774.3473415641447
 20
539.92002319661583
 11
774.3473415641447
 21
616.18668223661678
  0
LINE
  8
_0-a_極細1
  6
CONTINUOUS
 62
    7
 10
773.28067500414454
 20
539.92002319661583
 11
773.28067500414454
 21
616.18668223661678
  0
LINE
  8
_0-a_極細1
  6
CONTINUOUS
 62
    7
 10
772.21400844414438
 20
539.92002319661583
 11
772.21400844414438
 21
616.18668223661678
  0
LINE
  8
_0-a_極細1
  6
CONTINUOUS
 62
    7
 10
771.14734188414423
 20
539.92002319661583
 11
771.14734188414423
 21
616.18668223661678
  0
LINE
  8
_0-a_極細1
  6
CONTINUOUS
 62
    7
 10
770.08067532414407
 20
539.92002319661583
 11
770.08067532414407
 21
616.18668223661678
  0
LINE
  8
_0-a_極細1
  6
CONTINUOUS
 62
    7
 10
769.01400876414391
 20
539.92002319661583
 11
769.01400876414391
 21
616.0923300513972
  0
LINE
  8
_0-a_極細1
  6
CONTINUOUS
 62
    7
 10
767.94734220414375
 20
539.92002319661583
 11
767.94734220414375
 21
615.78193117477201
  0
LINE
  8
_0-a_極細1
  6
CONTINUOUS
 62
    7
 10
766.88067564414359
 20
539.92002319661583
 11
766.88067564414359
 21
615.21199409715962
  0
LINE
  8
_0-a_極細1
  6
CONTINUOUS
 62
    7
 10
765.81400908414491
 20
539.92002319661583
 11
765.81400908414491
 21
614.26375342997369
  0
LINE
  8
_0-a_極細1
  6
CONTINUOUS
 62
    7
 10
764.74734252414476
 20
539.92002319661583
 11
764.74734252414476
 21
612.42315690697558
  0
LINE
  8
_0-a_極細1
  6
CONTINUOUS
 62
    7
 10
763.6806759641446
 20
539.92002319661583
 11
763.6806759641446
 21
550.58668879661593
  0
LINE
  8
_0-a_極細1
  6
CONTINUOUS
 62
    7
 10
762.61400940414444
 20
539.92002319661583
 11
762.61400940414444
 21
550.58668879661593
  0
LINE
  8
_0-a_極細1
  6
CONTINUOUS
 62
    7
 10
761.54734284414428
 20
539.92002319661583
 11
761.54734284414428
 21
550.58668879661593
  0
LINE
  8
_0-a_極細1
  6
CONTINUOUS
 62
    7
 10
760.48067628414412
 20
539.92002319661583
 11
760.48067628414412
 21
550.58668879661593
  0
LINE
  8
_0-a_極細1
  6
CONTINUOUS
 62
    7
 10
759.41400972414397
 20
539.92002319661583
 11
759.41400972414397
 21
550.58668879661593
  0
LINE
  8
_0-a_極細1
  6
CONTINUOUS
 62
    7
 10
758.34734316414381
 20
539.92002319661583
 11
758.34734316414381
 21
550.58668879661593
  0
LINE
  8
_0-a_極細1
  6
CONTINUOUS
 62
    7
 10
757.28067660414365
 20
539.92002319661583
 11
757.28067660414365
 21
550.58668879661593
  0
LINE
  8
_0-a_極細1
  6
CONTINUOUS
 62
    7
 10
756.21401004414349
 20
539.92002319661583
 11
756.21401004414349
 21
550.58668879661593
  0
LINE
  8
_0-a_極細1
  6
CONTINUOUS
 62
    7
 10
755.14734348414333
 20
539.92002319661583
 11
755.14734348414333
 21
550.58668879661593
  0
LINE
  8
_0-a_極細1
  6
CONTINUOUS
 62
    7
 10
754.08067692414318
 20
539.92002319661583
 11
754.08067692414318
 21
550.58668879661593
  0
LINE
  8
_0-a_極細1
  6
CONTINUOUS
 62
    7
 10
753.0140103641445
 20
529.2533575966155
 11
753.0140103641445
 21
561.25335439661569
  0
LINE
  8
_0-a_極細1
  6
CONTINUOUS
 62
    7
 10
751.94734380414434
 20
529.2533575966155
 11
751.94734380414434
 21
561.25335439661569
  0
LINE
  8
_0-a_極細1
  6
CONTINUOUS
 62
    7
 10
750.88067724414418
 20
529.2533575966155
 11
750.88067724414418
 21
532.95139084823961
  0
LINE
  8
_0-a_極細1
  6
CONTINUOUS
 62
    7
 10
750.88067724414418
 20
540.45751114286736
 11
750.88067724414418
 21
561.25335439661569
  0
LINE
  8
_0-a_極細1
  6
CONTINUOUS
 62
    7
 10
749.81401068414402
 20
529.2533575966155
 11
749.81401068414402
 21
530.03874061900854
  0
LINE
  8
_0-a_極細1
  6
CONTINUOUS
 62
    7
 10
749.81401068414402
 20
540.45751114286736
 11
749.81401068414402
 21
561.25335439661569
  0
LINE
  8
_0-a_極細1
  6
CONTINUOUS
 62
    7
 10
748.74734412414386
 20
540.45751114286736
 11
748.74734412414386
 21
561.25335439661569
  0
LINE
  8
_0-a_極細1
  6
CONTINUOUS
 62
    7
 10
747.68067756414371
 20
540.45751114286736
 11
747.68067756414371
 21
561.25335439661569
  0
LINE
  8
_0-a_極細1
  6
CONTINUOUS
 62
    7
 10
746.61401100414355
 20
540.45751114286736
 11
746.61401100414355
 21
561.25335439661569
  0
LINE
  8
_0-a_極細1
  6
CONTINUOUS
 62
    7
 10
745.54734444414635
 20
540.45751114286736
 11
745.54734444414635
 21
561.25335439661569
  0
LINE
  8
_0-a_極細1
  6
CONTINUOUS
 62
    7
 10
744.48067788414619
 20
540.45751114286736
 11
744.48067788414619
 21
561.25335439661569
  0
LINE
  8
_0-a_極細1
  6
CONTINUOUS
 62
    7
 10
743.41401132414603
 20
540.45751114286736
 11
743.41401132414603
 21
561.25335439661569
  0
LINE
  8
_0-a_極細1
  6
CONTINUOUS
 62
    7
 10
742.34734476414587
 20
540.45751114286736
 11
742.34734476414587
 21
561.25335439661569
  0
LINE
  8
_0-a_極細1
  6
CONTINUOUS
 62
    7
 10
741.28067820414572
 20
540.45751114286736
 11
741.28067820414572
 21
561.25335439661569
  0
LINE
  8
_0-a_極細1
  6
CONTINUOUS
 62
    7
 10
740.21401164414556
 20
540.45751114286736
 11
740.21401164414556
 21
561.25335439661569
  0
LINE
  8
_0-a_極細1
  6
CONTINUOUS
 62
    7
 10
739.1473450841454
 20
540.45751114286736
 11
739.1473450841454
 21
561.25335439661569
  0
LINE
  8
_0-a_極細1
  6
CONTINUOUS
 62
    7
 10
724.43765487953624
 20
524.45751274286772
 11
724.43765487953624
 21
539.92002319661583
  0
ARC
  8
_0-a_極細1
  6
CONTINUOUS
 62
    7
 10
708.43765647953535
 20
540.45751114286736
 40
15.999998399999999
 50
358.07490068720415
 51
50.029499419965752
  0
LINE
  8
_0-a_極細1
  6
CONTINUOUS
 62
    7
 10
790.99231489073554
 20
622.25781087275152
 11
797.70110404550633
 21
622.25781087275152
  0
LINE
  8
_0-a_極細1
  6
CONTINUOUS
 62
    7
 10
790.99231489073554
 20
623.32447743275168
 11
806.92910312270669
 21
623.32447743275168
  0
LINE
  8
_0-a_極細1
  6
CONTINUOUS
 62
    7
 10
790.99231489073554
 20
624.39114399275138
 11
816.15710219990569
 21
624.39114399275138
  0
LINE
  8
_0-a_極細1
  6
CONTINUOUS
 62
    7
 10
790.99231489073554
 20
625.45781055275154
 11
825.38510127710606
 21
625.45781055275154
  0
LINE
  8
_0-a_極細1
  6
CONTINUOUS
 62
    7
 10
790.99231489073554
 20
626.52447711275124
 11
827.90431119953564
 21
626.52447711275124
  0
LINE
  8
_0-a_極細1
  6
CONTINUOUS
 62
    7
 10
790.99231489073554
 20
627.5911436727514
 11
827.90431119953564
 21
627.5911436727514
  0
LINE
  8
_0-a_極細1
  6
CONTINUOUS
 62
    7
 10
790.99231489073554
 20
628.65781023275156
 11
827.90431119953564
 21
628.65781023275156
  0
LINE
  8
_0-a_極細1
  6
CONTINUOUS
 62
    7
 10
792.69237984334313
 20
629.72447679275172
 11
827.90431119953564
 21
629.72447679275172
  0
LINE
  8
_0-a_極細1
  6
CONTINUOUS
 62
    7
 10
800.18144172254233
 20
630.79114335275187
 11
827.90431119953564
 21
630.79114335275187
  0
LINE
  8
_0-a_極細1
  6
CONTINUOUS
 62
    7
 10
807.67050360174164
 20
631.85780991275158
 11
827.90431119953564
 21
631.85780991275158
  0
LINE
  8
_0-a_極細1
  6
CONTINUOUS
 62
    7
 10
815.15956548094243
 20
632.92447647275173
 11
827.90431119953564
 21
632.92447647275173
  0
LINE
  8
_0-a_極細1
  6
CONTINUOUS
 62
    7
 10
822.64862736014175
 20
633.99114303275144
 11
827.90431119953564
 21
633.99114303275144
  0
LINE
  8
_0-a_極細1
  6
CONTINUOUS
 62
    7
 10
827.90431119953564
 20
634.81567237371689
 11
827.90431119953564
 21
638.51071741578687
  0
LINE
  8
_0-a_極細1
  6
CONTINUOUS
 62
    7
 10
790.99231489073554
 20
633.25334719661657
 11
827.90431119953564
 21
638.51071741578687
  0
LINE
  8
_0-a_極細1
  6
CONTINUOUS
 62
    7
 10
756.43765167953518
 20
596.45750554286803
 11
756.43765167953518
 21
601.25335039661593
  0
LINE
  8
_0-a_極細1
  6
CONTINUOUS
 62
    7
 10
756.43765167953518
 20
563.92417546286651
 11
756.43765167953518
 21
571.92417466286679
  0
LINE
  8
_0-a_極細1
  6
CONTINUOUS
 62
    7
 10
736.43765367953586
 20
587.41927178002402
 11
736.43765367953586
 21
580.48593914002413
  0
LINE
  8
_0-a_極細1
  6
CONTINUOUS
 62
    7
 10
736.43765367953586
 20
575.15260634002334
 11
736.43765367953586
 21
572.48593994002385
  0
LINE
  8
_0-a_極細1
  6
CONTINUOUS
 62
    7
 10
755.63765175953722
 20
587.41927178002402
 11
755.63765175953722
 21
572.48593994002385
  0
LINE
  8
_0-a_極細1
  6
CONTINUOUS
 62
    7
 10
733.77098727953546
 20
590.08593818002407
 11
736.43765367953586
 21
592.75260458002401
  0
LINE
  8
_0-a_極細1
  6
CONTINUOUS
 62
    7
 10
736.43765367953586
 20
587.41927178002402
 11
733.77098727953546
 21
590.08593818002407
  0
LINE
  8
_0-a_極細1
  6
CONTINUOUS
 62
    7
 10
736.43765367953586
 20
575.15260634002334
 11
733.77098727953546
 21
577.81927274002373
  0
LINE
  8
_0-a_極細1
  6
CONTINUOUS
 62
    7
 10
733.77098727953546
 20
577.81927274002373
 11
736.43765367953586
 21
580.48593914002413
  0
LINE
  8
_0-a_極細1
  6
CONTINUOUS
 62
    7
 10
755.63765175953722
 20
587.41927178002402
 11
759.90431799953649
 21
595.41927098002395
  0
LINE
  8
_0-a_極細1
  6
CONTINUOUS
 62
    7
 10
736.43765367953586
 20
595.41927098002395
 11
736.43765367953586
 21
592.75260458002401
  0
ARC
  8
_0-a_極細1
  6
CONTINUOUS
 62
    7
 10
769.50431703953495
 20
627.92001439661669
 40
2.6666664000000004
 50
24.054548999983247
 51
89.999999999999915
  0
ARC
  8
_0-a_極細1
  6
CONTINUOUS
 62
    7
 10
771.10431687953667
 20
620.98668175661658
 40
1.0666665599999394
 50
269.99999999999977
 51
359.99999999999966
  0
ARC
  8
_0-a_極細1
  6
CONTINUOUS
 62
    7
 10
769.50431703953495
 20
627.92001439661669
 40
2.6666664000000004
 50
0
 51
24.054548999983247
  0
LINE
  8
_0-a_極細1
  6
CONTINUOUS
 62
    7
 10
760.70431791953581
 20
603.92001679661587
 11
760.70431791953877
 21
619.92001519661642
  0
LINE
  8
_0-a_極細1
  6
CONTINUOUS
 62
    7
 10
760.70431791953877
 20
619.92001519661642
 11
771.10431687953667
 21
619.92001519661642
  0
LINE
  8
_0-a_極細1
  6
CONTINUOUS
 62
    7
 10
772.17098343953683
 20
620.98668175661658
 11
772.17098343953683
 21
627.92001439661669
  0
LINE
  8
_0-a_極細1
  6
CONTINUOUS
 62
    7
 10
753.77098527953478
 20
539.92002319661583
 11
783.10431567953628
 21
539.92002319661583
  0
LINE
  8
_0-a_極細1
  6
CONTINUOUS
 62
    7
 10
749.34333772230002
 20
529.2533575966155
 11
753.77098527953478
 21
529.2533575966155
  0
LINE
  8
_0-a_極細1
  6
CONTINUOUS
 62
    7
 10
753.77098527953478
 20
554.32002175661614
 11
760.70431791953581
 21
554.32002175661614
  0
LINE
  8
_0-a_極細1
  6
CONTINUOUS
 62
    7
 10
753.77098527953478
 20
550.58668879661593
 11
764.43765087953489
 21
550.58668879661593
  0
LINE
  8
_0-a_極細1
  6
CONTINUOUS
 62
    7
 10
753.77098527953478
 20
529.2533575966155
 11
753.77098527953478
 21
561.25335439661569
  0
LINE
  8
_0-a_極細1
  6
CONTINUOUS
 62
    7
 10
790.99231489073554
 20
547.80802240781588
 11
783.10431567953628
 21
539.92002319661583
  0
LINE
  8
_0-a_極細1
  6
CONTINUOUS
 62
    7
 10
764.43765087953489
 20
550.58668879661593
 11
764.43765087953636
 21
610.58668279661595
  0
ARC
  8
_0-a_極細1
  6
CONTINUOUS
 62
    7
 10
770.03765031953651
 20
610.58668279661595
 40
5.5999994400000617
 50
89.999999999999915
 51
179.99999999999983
  0
LINE
  8
_0-a_極細1
  6
CONTINUOUS
 62
    7
 10
776.39084435088284
 20
616.18668223661678
 11
770.03765031953651
 21
616.18668223661678
  0
ARC
  8
_0-a_極細1
  6
CONTINUOUS
 62
    7
 10
776.39084435088284
 20
625.2533479966163
 40
9.066665759999939
 50
269.99999999999977
 51
356.64911199999659
  0
ARC
  8
_0-a_極細1
  6
CONTINUOUS
 62
    7
 10
776.39084435088284
 20
625.2533479966163
 40
5.3333328000000009
 50
269.99999999999977
 51
356.64911200000029
  0
ARC
  8
_0-a_極細1
  6
CONTINUOUS
 62
    7
 10
790.99231489073554
 20
623.9200147966161
 40
9.3333324000000015
 50
89.999999999999915
 51
175.84901000000033
  0
ARC
  8
_0-a_極細1
  6
CONTINUOUS
 62
    7
 10
770.03765031953651
 20
610.58668279661595
 40
9.3333324000000015
 50
89.999999999999915
 51
179.99999999999983
  0
LINE
  8
_0-a_極細1
  6
CONTINUOUS
 62
    7
 10
772.43765007953607
 20
619.92001519661642
 11
772.43765007953607
 21
633.25334719661657
  0
LINE
  8
_0-a_極細1
  6
CONTINUOUS
 62
    7
 10
760.70431791953581
 20
554.32002175661614
 11
760.70431791953581
 21
610.58668279661595
  0
LINE
  8
_0-a_極細1
  6
CONTINUOUS
 62
    7
 10
776.39084435088284
 20
619.92001519661642
 11
770.03765031953651
 21
619.92001519661642
  0
LINE
  8
_0-a_極細1
  6
CONTINUOUS
 62
    7
 10
739.10432007953625
 20
561.25335439661569
 11
760.70431791953581
 21
561.25335439661569
  0
LINE
  8
_0-a_極細1
  6
CONTINUOUS
 62
    7
 10
827.90431119953564
 20
625.74900661371737
 11
790.99231489073554
 21
621.48234037371719
  0
LINE
  8
_0-a_極細1
  6
CONTINUOUS
 62
    7
 10
790.99231489073418
 20
520.14901717371697
 11
783.10431567953628
 21
524.41568341371669
  0
LINE
  8
_0-a_極細1
  6
CONTINUOUS
 62
    7
 10
783.10431567953628
 20
524.41568341371669
 11
783.10431567953628
 21
539.92002319661583
  0
LINE
  8
_0-a_極細1
  6
CONTINUOUS
 62
    7
 10
827.90431119953564
 20
554.04363245092202
 11
827.90431119953564
 21
638.43475467847554
  0
LINE
  8
_0-a_極細1
  6
CONTINUOUS
 62
    7
 10
807.1043132795354
 20
551.08234741371666
 11
827.90431119953564
 21
551.08234741371666
  0
LINE
  8
_0-a_極細1
  6
CONTINUOUS
 62
    7
 10
827.90431119953564
 20
551.08234741371666
 11
827.90431119953564
 21
554.04363245092202
  0
LINE
  8
_0-a_極細1
  6
CONTINUOUS
 62
    7
 10
807.1043132795354
 20
508.41568501371614
 11
807.1043132795354
 21
551.08234741371666
  0
LINE
  8
_0-a_極細1
  6
CONTINUOUS
 62
    7
 10
790.99231489073554
 20
629.48233666037947
 11
827.90431119953564
 21
634.73970971464621
  0
LINE
  8
_0-a_極細1
  6
CONTINUOUS
 62
    7
 10
790.99231489073554
 20
547.80802240781588
 11
790.99231489073554
 21
629.52001423661648
  0
ARC
  8
_0-a_極細1
  6
CONTINUOUS
 62
    7
 10
790.99231489073554
 20
623.9200147966161
 40
5.5999994400000617
 50
89.999999999999915
 51
175.84900999999709
  0
LINE
  8
_0-a_極細1
  6
CONTINUOUS
 62
    7
 10
740.43765327953577
 20
524.45751274286772
 11
724.43765487953624
 21
524.45751274286772
  0
ARC
  8
_0-a_極細1
  6
CONTINUOUS
 62
    7
 10
740.43765327953577
 20
535.12417834286782
 40
10.666665600000002
 50
269.99999999999977
 51
359.99999999999966
  0
LINE
  8
_0-a_極細1
  6
CONTINUOUS
 62
    7
 10
751.10431887953735
 20
535.12417834286782
 11
751.10431887953735
 21
540.45751114286736
  0
LINE
  8
_0-a_極細1
  6
CONTINUOUS
 62
    7
 10
751.10431887953735
 20
540.45751114286736
 11
739.10432007953625
 21
540.45751114286736
  0
LINE
  8
_0-a_極細1
  6
CONTINUOUS
 62
    7
 10
756.43765167953518
 20
563.92417546286651
 11
739.10432007953625
 21
563.92417546286651
  0
LINE
  8
_0-a_極細1
  6
CONTINUOUS
 62
    7
 10
739.10432007953625
 20
540.45751114286736
 11
739.10432007953625
 21
563.92417546286742
  0
LINE
  8
_0-a_極細1
  6
CONTINUOUS
 62
    7
 10
754.83765183953642
 20
601.25335039661593
 11
754.83765183953642
 21
606.58668319661626
  0
ARC
  8
_0-a_極細1
  6
CONTINUOUS
 62
    7
 10
758.03765151953542
 20
603.92001679661587
 40
2.6666664000000004
 50
269.99999999999977
 51
359.99999999999966
  0
CIRCLE
  8
_0-a_極細1
  6
CONTINUOUS
 62
    7
 10
761.90527703205282
 20
587.47276458430224
 40
99.281077021678641
  0
ARC
  8
_0-a_極細1
  6
CONTINUOUS
 62
    7
 10
820.4376452795359
 20
485.32167665645113
 40
26.666664000000004
 50
120.00000000000146
 51
161.13978923390272
  0
LINE
  8
_0-a_極細1
  6
CONTINUOUS
 62
    7
 10
780.43764927953589
 20
489.93670236388436
 11
780.43764927953589
 21
520.14901717371697
  0
LINE
  8
_0-a_極細1
  6
CONTINUOUS
 62
    7
 10
804.99354917824519
 20
507.06083175739616
 11
807.1043132795354
 21
509.17159585868842
  0
LINE
  8
_0-a_極細1
  6
CONTINUOUS
 62
    7
 10
780.43764927953589
 20
490.0474034370979
 11
807.1043132795354
 21
516.7140674370977
  0
LINE
  8
_0-a_極細1
  6
CONTINUOUS
 62
    7
 10
780.43764927953589
 20
493.81863922630248
 11
807.1043132795354
 21
520.48530322630245
  0
LINE
  8
_0-a_極細1
  6
CONTINUOUS
 62
    7
 10
780.43764927953589
 20
497.58987501550718
 11
807.1043132795354
 21
524.25653901550697
  0
LINE
  8
_0-a_極細1
  6
CONTINUOUS
 62
    7
 10
780.43764927953589
 20
501.36111080471176
 11
807.1043132795354
 21
528.02777480471173
  0
LINE
  8
_0-a_極細1
  6
CONTINUOUS
 62
    7
 10
780.43764927953589
 20
505.13234659391645
 11
807.1043132795354
 21
531.79901059391625
  0
LINE
  8
_0-a_極細1
  6
CONTINUOUS
 62
    7
 10
826.38765009933695
 20
551.08234741371666
 11
827.90431119953564
 21
552.5990085139166
  0
LINE
  8
_0-a_極細1
  6
CONTINUOUS
 62
    7
 10
780.43764927953589
 20
508.90358238312103
 11
807.1043132795354
 21
535.57024638312134
  0
LINE
  8
_0-a_極細1
  6
CONTINUOUS
 62
    7
 10
822.61641431013118
 20
551.08234741371666
 11
827.90431119953701
 21
556.37024430312135
  0
LINE
  8
_0-a_極細1
  6
CONTINUOUS
 62
    7
 10
780.43764927953589
 20
512.67481817232522
 11
787.91184828092651
 21
520.14901717371697
  0
LINE
  8
_0-a_極細1
  6
CONTINUOUS
 62
    7
 10
788.99318802987239
 20
521.23035692266251
 11
807.1043132795354
 21
539.34148217232553
  0
LINE
  8
_0-a_極細1
  6
CONTINUOUS
 62
    7
 10
818.84517852092677
 20
551.082347413717
 11
827.90431119953564
 21
560.14148009232588
  0
LINE
  8
_0-a_極細1
  6
CONTINUOUS
 62
    7
 10
780.43764927953589
 20
516.44605396153031
 11
784.1406124917221
 21
520.14901717371697
  0
LINE
  8
_0-a_極細1
  6
CONTINUOUS
 62
    7
 10
786.54577349181477
 20
522.55417817380908
 11
807.1043132795354
 21
543.11271796153062
  0
LINE
  8
_0-a_極細1
  6
CONTINUOUS
 62
    7
 10
815.07394273172383
 20
551.08234741371666
 11
827.90431119953564
 21
563.91271588153063
  0
LINE
  8
_0-a_極細1
  6
CONTINUOUS
 62
    7
 10
784.09835895375716
 20
523.87799942495599
 11
807.1043132795354
 21
546.8839537507348
  0
LINE
  8
_0-a_極細1
  6
CONTINUOUS
 62
    7
 10
811.30270694251794
 20
551.08234741371666
 11
827.90431119953564
 21
567.68395167073504
  0
LINE
  8
_0-a_極細1
  6
CONTINUOUS
 62
    7
 10
783.10431567953628
 20
526.65519193993964
 11
807.1043132795354
 21
550.6551895399399
  0
LINE
  8
_0-a_極細1
  6
CONTINUOUS
 62
    7
 10
807.53147115331217
 20
551.08234741371666
 11
827.90431119953564
 21
571.45518745993991
  0
LINE
  8
_0-a_極細1
  6
CONTINUOUS
 62
    7
 10
783.10431567953628
 20
530.42642772914417
 11
827.90431119953564
 21
575.22642324914432
  0
LINE
  8
_0-a_極細1
  6
CONTINUOUS
 62
    7
 10
783.10431567953628
 20
534.19766351834835
 11
827.90431119953701
 21
578.99765903834918
  0
LINE
  8
_0-a_極細1
  6
CONTINUOUS
 62
    7
 10
783.10431567953628
 20
537.9688993075531
 11
827.90431119953701
 21
582.76889482755359
  0
LINE
  8
_0-a_極細1
  6
CONTINUOUS
 62
    7
 10
790.99231489073554
 20
549.62813430795882
 11
827.90431119953564
 21
586.54013061675846
  0
LINE
  8
_0-a_極細1
  6
CONTINUOUS
 62
    7
 10
790.99231489073554
 20
553.39937009716334
 11
827.90431119953564
 21
590.31136640596321
  0
LINE
  8
_0-a_極細1
  6
CONTINUOUS
 62
    7
 10
790.99231489073554
 20
557.17060588636809
 11
827.90431119953564
 21
594.08260219516785
  0
LINE
  8
_0-a_極細1
  6
CONTINUOUS
 62
    7
 10
790.99231489073554
 20
560.94184167557262
 11
827.90431119953564
 21
597.85383798437249
  0
LINE
  8
_0-a_極細1
  6
CONTINUOUS
 62
    7
 10
790.99231489073554
 20
564.71307746477737
 11
827.90431119953701
 21
601.62507377357713
  0
LINE
  8
_0-a_極細1
  6
CONTINUOUS
 62
    7
 10
790.99231489073554
 20
568.48431325398178
 11
827.90431119953701
 21
605.39630956278177
  0
LINE
  8
_0-a_極細1
  6
CONTINUOUS
 62
    7
 10
790.99231489073554
 20
572.25554904318665
 11
827.90431119953701
 21
609.1675453519864
  0
LINE
  8
_0-a_極細1
  6
CONTINUOUS
 62
    7
 10
790.99231489073554
 20
576.02678483239106
 11
827.90431119953564
 21
612.93878114119104
  0
LINE
  8
_0-a_極細1
  6
CONTINUOUS
 62
    7
 10
790.99231489073554
 20
579.79802062159592
 11
827.90431119953564
 21
616.71001693039568
  0
LINE
  8
_0-a_極細1
  6
CONTINUOUS
 62
    7
 10
790.99231489073554
 20
583.56925641080034
 11
827.90431119953564
 21
620.48125271960032
  0
LINE
  8
_0-a_極細1
  6
CONTINUOUS
 62
    7
 10
790.99231489073554
 20
587.34049220000452
 11
827.90431119953701
 21
624.25248850880496
  0
LINE
  8
_0-a_極細1
  6
CONTINUOUS
 62
    7
 10
790.99231489073554
 20
591.11172798920995
 11
825.33229337679654
 21
625.45170647527027
  0
LINE
  8
_0-a_極細1
  6
CONTINUOUS
 62
    7
 10
790.99231489073554
 20
594.88296377841414
 11
821.06816612682439
 21
624.95881501450174
  0
LINE
  8
_0-a_極細1
  6
CONTINUOUS
 62
    7
 10
790.99231489073554
 20
598.65419956761923
 11
816.80403887685088
 21
624.46592355373321
  0
LINE
  8
_0-a_極細1
  6
CONTINUOUS
 62
    7
 10
790.99231489073554
 20
602.42543535682387
 11
812.53991162687726
 21
623.97303209296467
  0
LINE
  8
_0-a_極細1
  6
CONTINUOUS
 62
    7
 10
790.99231489073554
 20
606.19667114602851
 11
808.27578437690374
 21
623.48014063219614
  0
LINE
  8
_0-a_極細1
  6
CONTINUOUS
 62
    7
 10
790.99231489073554
 20
609.96790693523269
 11
804.01165712693023
 21
622.98724917142806
  0
LINE
  8
_0-a_極細1
  6
CONTINUOUS
 62
    7
 10
790.99231489073554
 20
613.73914272443778
 11
799.7475298769582
 21
622.49435771065907
  0
LINE
  8
_0-a_極細1
  6
CONTINUOUS
 62
    7
 10
790.99231489073554
 20
617.51037851364197
 11
795.48340262698457
 21
622.001466249891
  0
LINE
  8
_0-a_極細1
  6
CONTINUOUS
 62
    7
 10
790.99231489073554
 20
621.28161430284706
 11
791.21927537701106
 21
621.50857478912201
  0
LINE
  8
_0-a_極細1
  6
CONTINUOUS
 62
    7
 10
785.10084274393284
 20
490.9393611122897
 11
807.1043132795354
 21
512.94283164789317
  0
LINE
  8
_0-a_極細1
  6
CONTINUOUS
 62
    7
 10
790.25940715376328
 20
492.32668973291595
 11
798.69849017858928
 21
500.76577275774355
  0
LINE
  8
_0-a_極細1
  6
CONTINUOUS
 62
    7
 10
688.93785081199155
 20
520.14901717371697
 11
790.99231489073418
 21
520.14901717371697
  0
LINE
  8
_0-a_極細1
  6
CONTINUOUS
 62
    7
 10
685.2206190564799
 20
524.41568341371669
 11
783.10431567953628
 21
524.41568341371669
  0
LINE
  8
_0-a_極細1
  6
CONTINUOUS
 62
    7
 10
674.75328886712214
 20
539.92002319661583
 11
724.43765487953624
 21
539.92002319661583
  0
LINE
  8
_0-a_極細1
  6
CONTINUOUS
 62
    7
 10
676.74742580648729
 20
638.51071741578687
 11
827.90431119953564
 21
638.51071741578687
  0
LINE
  8
_0-a_極細1
  6
CONTINUOUS
 62
    7
 10
673.80947400908462
 20
633.25334719661657
 11
790.99231489073554
 21
633.25334719661657
  0
LINE
  8
_0-a_極細1
  6
CONTINUOUS
 62
    7
 10
672.47417235687738
 20
630.58668079661618
 11
769.50431703953495
 21
630.58668079661618
  0
LINE
  8
_0-a_極細1
  6
CONTINUOUS
 62
    7
 10
664.48151006594549
 20
606.58668319661626
 11
754.83765183953642
 21
606.58668319661626
  0
LINE
  8
_0-a_極細1
  6
CONTINUOUS
 62
    7
 10
663.58525003218949
 20
601.25335039661638
 11
758.03765151953542
 21
601.25335039661593
  0
LINE
  8
_0-a_極細1
  6
CONTINUOUS
 62
    7
 10
756.43765167953518
 20
596.45750554286803
 11
663.0315864743925
 21
596.45750554286803
  0
LINE
  8
_0-a_極細1
  6
CONTINUOUS
 62
    7
 10
662.94273214416592
 20
595.41927098002395
 11
759.90431799953649
 21
595.41927098002395
  0
LINE
  8
_0-a_極細1
  6
CONTINUOUS
 62
    7
 10
662.65859659213584
 20
590.08593818002407
 11
733.77098727953546
 21
590.08593818002407
  0
LINE
  8
_0-a_極細1
  6
CONTINUOUS
 62
    7
 10
663.09463818280335
 20
577.81927274002373
 11
733.77098727953546
 21
577.81927274002373
  0
LINE
  8
_0-a_極細1
  6
CONTINUOUS
 62
    7
 10
663.76187510575824
 20
572.48593994002385
 11
755.63765175953722
 21
572.48593994002385
  0
LINE
  8
_0-a_極細1
  6
CONTINUOUS
 62
    7
 10
756.43765167953518
 20
571.92417466286679
 11
663.84930523002822
 21
571.92417466286679
  0
LINE
  8
_0-a_極細1
  6
CONTINUOUS
 62
    7
 10
739.10432007953625
 20
563.92417546286742
 11
665.4573833019457
 21
563.92417546286742
  0
LINE
  8
_0-d_寸法1
  6
CONTINUOUS
 62
    7
 10
817.27282522976589
 20
628.42111926149698
 11
823.80389012884223
 21
643.02746005185418
  0
LINE
  8
_0-d_寸法1
  6
CONTINUOUS
 62
    7
 10
817.27282522976589
 20
628.42111926149698
 11
830.23206374130939
 21
637.80504899274104
  0
LINE
  8
_0-d_寸法1
  6
CONTINUOUS
 62
    7
 10
817.27282522976589
 20
628.42111926149698
 11
850.00552564945519
 21
668.71122257220202
  0
LINE
  8
_0-d_寸法1
  6
CONTINUOUS
 62
    7
 10
850.00552564945519
 20
668.71122257220202
 11
920.40552564945517
 21
668.71122257220202
  0
TEXT
  8
_0-d_寸法1
 62
    7
 10
850.00552564945519
 20
668.71122257220202
 40
24
 41
0.7333333333333333
 50
0
  1
パッキン
  0
LINE
  8
_0-d_寸法1
  6
CONTINUOUS
 62
    7
 10
748.4138135380532
 20
579.70715922513659
 11
759.72746542040682
 21
568.39339410980403
  0
LINE
  8
_0-d_寸法1
  6
CONTINUOUS
 62
    7
 10
748.4138135380532
 20
579.70715922513659
 11
752.55484092007873
 21
564.25232528163156
  0
LINE
  8
_0-d_寸法1
  6
CONTINUOUS
 62
    7
 10
748.4138135380532
 20
579.70715922513659
 11
808.26231779554644
 21
476.04531109914763
  0
LINE
  8
_0-d_寸法1
  6
CONTINUOUS
 62
    7
 10
808.26231779554644
 20
476.04531109914763
 11
984.26231779554644
 21
476.04531109914763
  0
TEXT
  8
_0-d_寸法1
 62
    7
 10
808.26231779554644
 20
476.04531109914763
 40
24
 41
0.7333333333333333
 50
0
  1
防臭インナーパッキン
  0
LINE
  8
_0-d_寸法1
  6
CONTINUOUS
 62
    7
 10
816.17362945992636
 20
558.68361965410816
 11
827.48786288729139
 21
547.3704361078602
  0
LINE
  8
_0-d_寸法1
  6
CONTINUOUS
 62
    7
 10
816.17362945992636
 20
558.68361965410816
 11
820.31545125924754
 21
543.22899859169877
  0
LINE
  8
_0-d_寸法1
  6
CONTINUOUS
 62
    7
 10
816.17362945992636
 20
558.68361965410816
 11
846.0505302897144
 21
506.94085398753862
  0
LINE
  8
_0-d_寸法1
  6
CONTINUOUS
 62
    7
 10
846.0505302897144
 20
506.94085398753862
 11
969.25053028971422
 21
506.94085398753862
  0
TEXT
  8
_0-d_寸法1
 62
    7
 10
846.0505302897144
 20
506.94085398753862
 40
24
 41
0.7333333333333333
 50
0
  1
ロックフランジ
  0
LINE
  8
_0-a_極細1
  6
CONTINUOUS
 62
    7
 10
709.28068140414678
 20
530.85335743661631
 11
709.28068140414678
 21
539.92002319661583
  0
LINE
  8
_0-a_極細1
  6
CONTINUOUS
 62
    7
 10
708.21401484414662
 20
530.85335743661631
 11
708.21401484414662
 21
539.92002319661583
  0
LINE
  8
_0-a_極細1
  6
CONTINUOUS
 62
    7
 10
707.14734828414646
 20
530.85335743661631
 11
707.14734828414646
 21
539.92002319661583
  0
LINE
  8
_0-a_極細1
  6
CONTINUOUS
 62
    7
 10
706.0806817241463
 20
530.85335743661631
 11
706.0806817241463
 21
539.92002319661583
  0
LINE
  8
_0-a_極細1
  6
CONTINUOUS
 62
    7
 10
705.01401516414614
 20
530.85335743661631
 11
705.01401516414614
 21
539.92002319661583
  0
LINE
  8
_0-a_極細1
  6
CONTINUOUS
 62
    7
 10
703.94734860414599
 20
530.85335743661631
 11
703.94734860414599
 21
539.92002319661583
  0
LINE
  8
_0-a_極細1
  6
CONTINUOUS
 62
    7
 10
702.88068204414583
 20
530.85335743661631
 11
702.88068204414583
 21
539.92002319661583
  0
LINE
  8
_0-a_極細1
  6
CONTINUOUS
 62
    7
 10
701.81401548414567
 20
530.85335743661631
 11
701.81401548414567
 21
539.92002319661583
  0
LINE
  8
_0-a_極細1
  6
CONTINUOUS
 62
    7
 10
700.74734892414551
 20
530.85335743661631
 11
700.74734892414551
 21
539.92002319661583
  0
LINE
  8
_0-a_極細1
  6
CONTINUOUS
 62
    7
 10
699.68068236414535
 20
530.85335743661631
 11
699.68068236414535
 21
539.92002319661583
  0
LINE
  8
_0-a_極細1
  6
CONTINUOUS
 62
    7
 10
698.6140158041452
 20
530.85335743661631
 11
698.6140158041452
 21
539.92002319661583
  0
LINE
  8
_0-a_極細1
  6
CONTINUOUS
 62
    7
 10
697.54734924414504
 20
530.85335743661631
 11
697.54734924414504
 21
539.92002319661583
  0
LINE
  8
_0-a_極細1
  6
CONTINUOUS
 62
    7
 10
696.48068268414488
 20
530.85335743661631
 11
696.48068268414488
 21
539.92002319661583
  0
LINE
  8
_0-a_極細1
  6
CONTINUOUS
 62
    7
 10
695.41401612414472
 20
530.85335743661631
 11
695.41401612414472
 21
539.92002319661583
  0
LINE
  8
_0-a_極細1
  6
CONTINUOUS
 62
    7
 10
694.34734956414457
 20
530.85335743661631
 11
694.34734956414457
 21
539.92002319661583
  0
LINE
  8
_0-a_極細1
  6
CONTINUOUS
 62
    7
 10
693.28068300414589
 20
530.85335743661631
 11
693.28068300414589
 21
539.92002319661583
  0
LINE
  8
_0-a_極細1
  6
CONTINUOUS
 62
    7
 10
692.21401644414573
 20
530.85335743661631
 11
692.21401644414573
 21
539.92002319661583
  0
LINE
  8
_0-a_極細1
  6
CONTINUOUS
 62
    7
 10
691.14734988414557
 20
530.85335743661631
 11
691.14734988414557
 21
539.92002319661583
  0
LINE
  8
_0-a_極細1
  6
CONTINUOUS
 62
    7
 10
690.08068332414541
 20
530.85335743661631
 11
690.08068332414541
 21
539.92002319661583
  0
LINE
  8
_0-a_極細1
  6
CONTINUOUS
 62
    7
 10
689.01401676414525
 20
530.85335743661631
 11
689.01401676414525
 21
539.92002319661583
  0
LINE
  8
_0-a_極細1
  6
CONTINUOUS
 62
    7
 10
687.9473502041451
 20
530.85335743661631
 11
687.9473502041451
 21
539.92002319661583
  0
LINE
  8
_0-a_極細1
  6
CONTINUOUS
 62
    7
 10
686.88068364414494
 20
530.85335743661631
 11
686.88068364414494
 21
539.92002319661583
  0
LINE
  8
_0-a_極細1
  6
CONTINUOUS
 62
    7
 10
685.81401708414478
 20
530.85335743661631
 11
685.81401708414478
 21
539.92002319661583
  0
LINE
  8
_0-a_極細1
  6
CONTINUOUS
 62
    7
 10
684.74735052414462
 20
530.85335743661631
 11
684.74735052414462
 21
539.92002319661583
  0
LINE
  8
_0-a_極細1
  6
CONTINUOUS
 62
    7
 10
683.68068396414446
 20
530.85335743661631
 11
683.68068396414446
 21
539.92002319661583
  0
LINE
  8
_0-a_極細1
  6
CONTINUOUS
 62
    7
 10
709.96465899350278
 20
530.85335743661631
 11
709.96465899350278
 21
539.92002319661583
  0
LINE
  8
_0-a_極細1
  6
CONTINUOUS
 62
    7
 10
683.29799499350327
 20
530.85335743661631
 11
683.29799499350327
 21
539.92002319661583
  0
LINE
  8
_0-a_極細1
  6
CONTINUOUS
 62
    7
 10
683.29799499350327
 20
530.85335743661631
 11
709.96465899350278
 21
530.85335743661631
  0
ARC
  8
_0-a_極細1
  6
CONTINUOUS
 62
    7
 10
700.43765727953712
 20
526.45349120993626
 40
31.999996799999998
 50
55.166292356159239
 51
148.68484545273145
  0
LINE
  8
_0-a_極細1
  6
CONTINUOUS
 62
    7
 10
724.36851522035124
 20
539.92002319661583
 11
724.36851522035124
 21
541.94334039962098
  0
LINE
  8
_0-a_極細1
  6
CONTINUOUS
 62
    7
 10
722.76851522035122
 20
539.92002319661583
 11
722.76851522035122
 21
547.57273682803236
  0
LINE
  8
_0-a_極細1
  6
CONTINUOUS
 62
    7
 10
721.16851522035131
 20
539.92002319661583
 11
721.16851522035131
 21
550.14901177597051
  0
LINE
  8
_0-a_極細1
  6
CONTINUOUS
 62
    7
 10
719.56851522034981
 20
539.92002319661583
 11
719.56851522034981
 21
551.9511586271102
  0
LINE
  8
_0-a_極細1
  6
CONTINUOUS
 62
    7
 10
717.96851522034979
 20
539.92002319661583
 11
717.96851522034979
 21
553.22416200950659
  0
LINE
  8
_0-a_極細1
  6
CONTINUOUS
 62
    7
 10
716.36851522034976
 20
539.92002319661583
 11
716.36851522034976
 21
554.20610478901392
  0
LINE
  8
_0-a_極細1
  6
CONTINUOUS
 62
    7
 10
714.76851522035122
 20
539.92002319661583
 11
714.76851522035122
 21
555.065137542858
  0
LINE
  8
_0-a_極細1
  6
CONTINUOUS
 62
    7
 10
713.16851522035131
 20
539.92002319661583
 11
713.16851522035131
 21
555.81205131241416
  0
LINE
  8
_0-a_極細1
  6
CONTINUOUS
 62
    7
 10
711.56851522034981
 20
539.92002319661583
 11
711.56851522034981
 21
556.45522110508421
  0
LINE
  8
_0-a_極細1
  6
CONTINUOUS
 62
    7
 10
709.96851522034979
 20
539.92002319661583
 11
709.96851522034979
 21
557.00120048758959
  0
LINE
  8
_0-a_極細1
  6
CONTINUOUS
 62
    7
 10
708.36851522034976
 20
539.92002319661583
 11
708.36851522034976
 21
557.45512483661219
  0
LINE
  8
_0-a_極細1
  6
CONTINUOUS
 62
    7
 10
706.76851522035122
 20
539.92002319661583
 11
706.76851522035122
 21
557.82099083826574
  0
LINE
  8
_0-a_極細1
  6
CONTINUOUS
 62
    7
 10
705.16851522035131
 20
539.92002319661583
 11
705.16851522035131
 21
558.10185259475122
  0
LINE
  8
_0-a_極細1
  6
CONTINUOUS
 62
    7
 10
703.56851522034981
 20
539.92002319661583
 11
703.56851522034981
 21
558.29995920490285
  0
LINE
  8
_0-a_極細1
  6
CONTINUOUS
 62
    7
 10
701.96851522034979
 20
539.92002319661583
 11
701.96851522034979
 21
558.41684943721043
  0
LINE
  8
_0-a_極細1
  6
CONTINUOUS
 62
    7
 10
700.36851522034976
 20
539.92002319661583
 11
700.36851522034976
 21
558.45341331258635
  0
LINE
  8
_0-a_極細1
  6
CONTINUOUS
 62
    7
 10
698.76851522035122
 20
539.92002319661583
 11
698.76851522035122
 21
558.40992655536058
  0
LINE
  8
_0-a_極細1
  6
CONTINUOUS
 62
    7
 10
697.16851522035131
 20
539.92002319661583
 11
697.16851522035131
 21
558.2860610935769
  0
LINE
  8
_0-a_極細1
  6
CONTINUOUS
 62
    7
 10
695.56851522034981
 20
539.92002319661583
 11
695.56851522034981
 21
558.0808725559707
  0
LINE
  8
_0-a_極細1
  6
CONTINUOUS
 62
    7
 10
693.96851522034979
 20
539.92002319661583
 11
693.96851522034979
 21
557.79276363636757
  0
LINE
  8
_0-a_極細1
  6
CONTINUOUS
 62
    7
 10
692.36851522034976
 20
539.92002319661583
 11
692.36851522034976
 21
557.41941993214164
  0
LINE
  8
_0-a_極細1
  6
CONTINUOUS
 62
    7
 10
690.76851522034985
 20
539.92002319661583
 11
690.76851522034985
 21
556.95771201688854
  0
LINE
  8
_0-a_極細1
  6
CONTINUOUS
 62
    7
 10
689.16851522035131
 20
539.92002319661583
 11
689.16851522035131
 21
556.40355352122219
  0
LINE
  8
_0-a_極細1
  6
CONTINUOUS
 62
    7
 10
687.56851522034981
 20
539.92002319661583
 11
687.56851522034981
 21
555.75169896844102
  0
LINE
  8
_0-a_極細1
  6
CONTINUOUS
 62
    7
 10
685.96851522034979
 20
539.92002319661583
 11
685.96851522034979
 21
554.99545546033653
  0
LINE
  8
_0-a_極細1
  6
CONTINUOUS
 62
    7
 10
684.36851522034976
 20
539.92002319661583
 11
684.36851522034976
 21
554.12626607408231
  0
LINE
  8
_0-a_極細1
  6
CONTINUOUS
 62
    7
 10
682.76851522034985
 20
539.92002319661583
 11
682.76851522034985
 21
553.13309416973163
  0
LINE
  8
_0-a_極細1
  6
CONTINUOUS
 62
    7
 10
681.16851522035131
 20
539.92002319661583
 11
681.16851522035131
 21
552.00148446778178
  0
LINE
  8
_0-a_極細1
  6
CONTINUOUS
 62
    7
 10
679.56851522034981
 20
539.92002319661583
 11
679.56851522034981
 21
550.71207123667205
  0
LINE
  8
_0-a_極細1
  6
CONTINUOUS
 62
    7
 10
677.96851522034979
 20
539.92002319661583
 11
677.96851522034979
 21
549.23807920981301
  0
LINE
  8
_0-a_極細1
  6
CONTINUOUS
 62
    7
 10
676.36851522034976
 20
539.92002319661583
 11
676.36851522034976
 21
547.54083802585296
  0
LINE
  8
_0-a_極細1
  6
CONTINUOUS
 62
    7
 10
674.76851522034985
 20
539.92002319661583
 11
674.76851522034985
 21
545.56094894625869
  0
LINE
  8
_0-a_極細1
  6
CONTINUOUS
 62
    7
 10
673.16851522035131
 20
542.94727348361369
 11
673.16851522035131
 21
543.19845124440519
  0
LINE
  8
_1-1_寸法4
  6
CONTINUOUS
 62
    7
 10
454.2038320014907
 20
248.59474133097274
 11
462.20383200149058
 21
234.73833487042168
  0
LINE
  8
_1-1_寸法4
  6
CONTINUOUS
 62
    7
 10
454.2038320014907
 20
248.59474133097274
 11
454.20383200149058
 21
232.59474133097274
  0
LINE
  8
_1-1_寸法4
  6
CONTINUOUS
 62
    7
 10
454.2038320014907
 20
248.59474133097274
 11
469.61108267191139
 21
191.09409902401399
  0
LINE
  8
_1-1_寸法4
  6
CONTINUOUS
 62
    7
 10
469.61108267191139
 20
191.09409902401399
 11
604.01108267191137
 21
191.09409902401399
  0
TEXT
  8
_1-1_寸法4
 62
    7
 10
469.61108267191139
 20
191.09409902401399
 40
24
 41
0.7999999999999998
 50
0
  1
防水マス横引き
  0
TEXT
  8
_1-1_寸法4
 62
    7
 10
469.61108267191139
 20
167.09409902401399
 40
24
 41
0.7999999999999999
 50
0
  1
（ＨＦＴ－５Ｚ）
  0
TEXT
  8
_0-7_枠細線
 62
    5
 10
674.54066658574868
 20
419.94112093717507
 40
40
 41
0.8
 50
0
  1
Ｃ部拡大図
  0
TEXT
  8
_0-7_枠細線
 62
    5
 10
1539.8715071507147
 20
176
 40
32
 41
0.6
 50
0
  1
ＨＳＴＺ－１５Ｌ６００
  0
LINE
  8
_0-0_計極細
  6
CENTER2
 62
    2
 10
1335.4792205215026
 20
620.20544075393059
 11
1335.4792205215026
 21
1231.5142826045294
  0
LINE
  8
_0-5_寸法線
  6
CONTINUOUS
 62
    7
 10
1335.4792205215031
 20
612.36420928466805
 11
1335.4792205215028
 21
540.36420928466805
  0
LINE
  8
_0-5_寸法線
  6
CONTINUOUS
 62
    7
 10
1335.4792205215028
 20
548.36420928466805
 11
1350.9340337421279
 21
552.50531400630837
  0
LINE
  8
_0-5_寸法線
  6
CONTINUOUS
 62
    7
 10
1335.4792205215028
 20
548.36420928466805
 11
1350.9340337421279
 21
544.22310456302773
  0
LINE
  8
_0-5_寸法線
  6
CONTINUOUS
 62
    7
 10
1465.7182183872324
 20
615.89253210917514
 11
1465.7182183872321
 21
540.36420928466805
  0
LINE
  8
_0-5_寸法線
  6
CONTINUOUS
 62
    7
 10
1465.7182183872321
 20
548.36420928466805
 11
1450.2634051666071
 21
544.22310456302773
  0
LINE
  8
_0-5_寸法線
  6
CONTINUOUS
 62
    7
 10
1465.7182183872321
 20
548.36420928466805
 11
1450.2634051666071
 21
552.50531400630848
  0
LINE
  8
_0-5_寸法線
  6
CONTINUOUS
 62
    7
 10
1335.4792205215028
 20
548.36420928466805
 11
1465.7182183872321
 21
548.36420928466805
  0
TEXT
  8
_0-5_寸法線
 62
    7
 10
1382.5987194543675
 20
548.36420928466805
 40
24
 41
1
 50
0
  1
130
  0
TEXT
  8
_0-5_寸法線
 62
    7
 10
1069.0288189671865
 20
506.75163322374317
 40
24
 41
0.7999999999999999
 50
0
  1
※（　）内はトラップ切断時
  0
ENDSEC
  0
EOF
