  0
SECTION
  2
HEADER
  9
$ACADVER
  1
AC1009
  9
$INSBASE
 10
0
 20
0
 30
0
  9
$EXTMIN
 10
0
 20
0
  9
$EXTMAX
 10
1782
 20
1260
  9
$LIMMIN
 10
0
 20
0
  9
$LIMMAX
 10
1782
 20
1260
  9
$LTSCALE
 40
6
  0
ENDSEC
  0
SECTION
  2
TABLES
  0
TABLE
  2
LTYPE
 70
     9
  0
LTYPE
  2
CONTINUOUS
 70
    64
  3
実線
 72
    65
 73
     0
 40
0.0
  0
LTYPE
  2
DASHED1
 70
    64
  3
--  --  --  --  --  --  --  --  
 72
    65
 73
     2
 40
2.5
 49
1.25
 49
-1.25
  0
LTYPE
  2
DASHED2
 70
    64
  3
----    ----    ----    ----    
 72
    65
 73
     2
 40
5.0
 49
2.5
 49
-2.5
  0
LTYPE
  2
DASHED3
 70
    64
  3
------  ------  ------  ------  
 72
    65
 73
     2
 40
5.0
 49
3.75
 49
-1.25
  0
LTYPE
  2
CENTER1
 70
    64
  3
----- - ----- - ----- - ----- - 
 72
    65
 73
     4
 40
10.0
 49
6.25
 49
-1.25
 49
1.25
 49
-1.25
  0
LTYPE
  2
CENTER2
 70
    64
  3
----------  --  ----------  --  
 72
    65
 73
     4
 40
20.0
 49
12.5
 49
-2.5
 49
2.5
 49
-2.5
  0
LTYPE
  2
PHANTOM1
 70
    64
  3
--- - - --- - - --- - - --- - - 
 72
    65
 73
     6
 40
10.0
 49
3.25
 49
-1.25
 49
1.25
 49
-1.25
 49
1.25
 49
-1.25
  0
LTYPE
  2
PHANTOM2
 70
    64
  3
--------  -  -  --------  -  -  
 72
    65
 73
     6
 40
20.0
 49
10.0
 49
-2.5
 49
1.25
 49
-2.5
 49
1.25
 49
-2.5
  0
LTYPE
  2
DOT
 70
    64
  3
-   -   -   -   -   -   -   -   
 72
    65
 73
     2
 40
2.5
 49
0.625
 49
-1.875
  0
LTYPE
  2
DUMMY
 70
    64
  3
ダミー
 72
    65
 73
     0
 40
0.0
  0
LTYPE
  2
RAND1
 70
    64
  3
ランダム線1
 72
    65
 73
     4
 40
10.0
 49
1.0
 49
-2.0
 49
3.0
 49
-4.0
  0
LTYPE
  2
RAND2
 70
    64
  3
ランダム線2
 72
    65
 73
     4
 40
14.0
 49
2.0
 49
-3.0
 49
4.0
 49
-5.0
  0
LTYPE
  2
RAND3
 70
    64
  3
ランダム線3
 72
    65
 73
     4
 40
18.0
 49
3.0
 49
-4.0
 49
5.0
 49
-6.0
  0
LTYPE
  2
RAND4
 70
    64
  3
ランダム線4
 72
    65
 73
     4
 40
22.0
 49
4.0
 49
-5.0
 49
6.0
 49
-7.0
  0
LTYPE
  2
RAND5
 70
    64
  3
ランダム線5
 72
    65
 73
     4
 40
26.0
 49
5.0
 49
-6.0
 49
7.0
 49
-8.0
  0
LTYPE
  2
LONG1
 70
    64
  3
----------  --  ----------  --  
 72
    65
 73
     4
 40
40.0
 49
32.5
 49
-2.5
 49
2.5
 49
-2.5
  0
LTYPE
  2
LONG2
 70
    64
  3
--------  -  -  --------  -  -  
 72
    65
 73
     6
 40
40.0
 49
30.0
 49
-2.5
 49
1.25
 49
-2.5
 49
1.25
 49
-2.5
  0
LTYPE
  2
LONG3
 70
    64
  3
+++++++++++++++..+++++++++++++++
 72
    65
 73
     2
 40
40.0
 49
37.5
 49
-2.5
  0
LTYPE
  2
LONG4
 70
    64
  3
+++++++++++++++..+++++++++++++++
 72
    65
 73
     2
 40
80.0
 49
75.0
 49
-5.0
  0
LTYPE
  2
LONG5
 70
    64
  3
----------  --  ----------  --  
 72
    65
 73
     4
 40
60.0
 49
37.5
 49
-7.5
 49
7.5
 49
-7.5
  0
LTYPE
  2
dashed
 70
   64
  3
-------   -------------   ------
 72
   65
 73
    2
 40
7.5
 49
6
 49
-1.5
  0
LTYPE
  2
dashed_spaced
 70
   64
  3
----        --------        ----
 72
   65
 73
    2
 40
12
 49
6
 49
-6
  0
LTYPE
  2
long_dashed_dotted
 70
   64
  3
------------- --- --------------
 72
   65
 73
    4
 40
15.25
 49
12
 49
-1.5
 49
0.25
 49
-1.5
  0
LTYPE
  2
long_dashed_double-dotted
 70
   64
  3
----------- --- --- ------------
 72
   65
 73
    6
 40
17
 49
12
 49
-1.5
 49
0.25
 49
-1.5
 49
0.25
 49
-1.5
  0
LTYPE
  2
long_dashed_triplicate-dotted
 70
   64
  3
--------- --- --- --- ----------
 72
   65
 73
    8
 40
18.75
 49
12
 49
-1.5
 49
0.25
 49
-1.5
 49
0.25
 49
-1.5
 49
0.25
 49
-1.5
  0
LTYPE
  2
dotted
 70
   64
  3
   -       -       -       -    
 72
   65
 73
    2
 40
1.75
 49
0.25
 49
-1.5
  0
LTYPE
  2
chain
 70
   64
  3
-------------- -- --------------
 72
   65
 73
    4
 40
18.5
 49
12
 49
-1.5
 49
3.5
 49
-1.5
  0
LTYPE
  2
chain_double_dash
 70
   64
  3
------------ -- -- -------------
 72
   65
 73
    6
 40
23.5
 49
12
 49
-1.5
 49
3.5
 49
-1.5
 49
3.5
 49
-1.5
  0
LTYPE
  2
dashed_dotted
 70
   64
  3
-----------     -     ----------
 72
   65
 73
    4
 40
9.25
 49
6
 49
-1.5
 49
0.25
 49
-1.5
  0
LTYPE
  2
double-dashed_dotted
 70
   64
  3
------   -----------   -   -----
 72
   65
 73
    6
 40
16.75
 49
6
 49
-1.5
 49
6
 49
-1.5
 49
0.25
 49
-1.5
  0
LTYPE
  2
dashed_double-dotted
 70
   64
  3
---------    -    -    ---------
 72
   65
 73
    6
 40
11
 49
6
 49
-1.5
 49
0.25
 49
-1.5
 49
0.25
 49
-1.5
  0
LTYPE
  2
double-dashed_double-dotted
 70
   64
  3
-----   ---------   -   -   ----
 72
   65
 73
    8
 40
18.5
 49
6
 49
-1.5
 49
6
 49
-1.5
 49
0.25
 49
-1.5
 49
0.25
 49
-1.5
  0
LTYPE
  2
dashed_triplicate-dotted
 70
   64
  3
-------    -    -    -    ------
 72
   65
 73
    8
 40
12.75
 49
6
 49
-1.5
 49
0.25
 49
-1.5
 49
0.25
 49
-1.5
 49
0.25
 49
-1.5
  0
LTYPE
  2
double-dashed_triplicate-dotted
 70
   64
  3
-----  ---------  -  -  -  -----
 72
   65
 73
   10
 40
20.25
 49
6
 49
-1.5
 49
6
 49
-1.5
 49
0.25
 49
-1.5
 49
0.25
 49
-1.5
 49
0.25
 49
-1.5
  0
LTYPE
  2
undefined
 70
   64
  3
--------------------------------
 72
   65
 73
    0
 40
0
  0
ENDTAB
  0
TABLE
  2
STYLE
  5
3
100
AcDbSymbolTable
 70
     1
  0
STYLE
  5
10
100
AcDbSymbolTableRecord
100
AcDbTextStyleTableRecord
  2
STANDARD
 70
     0
 40
0.0
 41
1.0
 50
0.0
 71
     0
 42
0.2
  3
txt
  4
bigfont.shx
  0
STYLE
  5
26
100
AcDbSymbolTableRecord
100
AcDbTextStyleTableRecord
  2
TATEGAKI
 70
    68
 40
0.0
 41
1.0
 50
0.0
 71
     0
 42
1.0
  3
txt
  4
bigfont.shx
  0
ENDTAB
  0
TABLE
  2
LAYER
 70
    7
  0
LAYER
  2
_0-0_計極細
 70
   64
 62
    7
  6
CONTINUOUS
  0
LAYER
  2
_0-1_計細線
 70
   64
 62
    7
  6
CONTINUOUS
  0
LAYER
  2
_0-5_寸法線
 70
   64
 62
    7
  6
CONTINUOUS
  0
LAYER
  2
_0-7_枠細線
 70
   64
 62
    7
  6
CONTINUOUS
  0
LAYER
  2
_0-8_枠中線
 70
   64
 62
    7
  6
CONTINUOUS
  0
LAYER
  2
_0-9_枠極太
 70
   64
 62
    7
  6
CONTINUOUS
  0
LAYER
  2
ADD_LINE
 70
   64
 62
    7
  6
CONTINUOUS
  0
ENDTAB
  0
ENDSEC
  0
SECTION
  2
BLOCKS
  0
ENDSEC
  0
SECTION
  2
ENTITIES
  0
LINE
  8
_0-7_枠細線
  6
CONTINUOUS
 62
    5
 10
1422
 20
216
 11
1422
 21
120
  0
TEXT
  8
_0-7_枠細線
 62
    5
 10
1125
 20
117
 40
21
 41
1
 50
0
  1
備考
  7
TATEGAKI
  0
TEXT
  8
_0-7_枠細線
 62
    5
 10
1125
 20
165
 40
21
 41
1
 50
0
  1
品番
  7
TATEGAKI
  0
TEXT
  8
_0-7_枠細線
 62
    5
 10
1125
 20
213
 40
21
 41
1
 50
0
  1
品名
  7
TATEGAKI
  0
LINE
  8
_0-7_枠細線
  6
CONTINUOUS
 62
    5
 10
1422
 20
168
 11
1110
 21
168
  0
LINE
  8
_0-7_枠細線
  6
CONTINUOUS
 62
    5
 10
1140
 20
216
 11
1140
 21
72
  0
LINE
  8
_0-8_枠中線
  6
CONTINUOUS
 62
    5
 10
1710
 20
216
 11
1110
 21
216
  0
LINE
  8
_0-8_枠中線
  6
CONTINUOUS
 62
    5
 10
1110
 20
216
 11
1110
 21
72
  0
LINE
  8
_0-7_枠細線
  6
CONTINUOUS
 62
    5
 10
1494
 20
216
 11
1494
 21
72
  0
TEXT
  8
_0-7_枠細線
 62
    5
 10
1431
 20
192
 40
18
 41
1
 50
0
  1
縮　尺
  0
LINE
  8
_0-7_枠細線
  6
CONTINUOUS
 62
    5
 10
1422
 20
186
 11
1494
 21
186
  0
LINE
  8
_0-7_枠細線
  6
CONTINUOUS
 62
    5
 10
1494
 20
120
 11
1110
 21
120
  0
LINE
  8
_0-7_枠細線
  6
CONTINUOUS
 62
    5
 10
1710
 20
108
 11
1494
 21
108
  0
LINE
  8
_0-7_枠細線
  6
CONTINUOUS
 62
    5
 10
1494
 20
144
 11
1710
 21
144
  0
LINE
  8
_0-7_枠細線
  6
CONTINUOUS
 62
    5
 10
1710
 20
168
 11
1494
 21
168
  0
TEXT
  8
_0-7_枠細線
 62
    5
 10
1506
 20
177
 40
30
 41
0.8
 50
0
  1
株式会社シマブン
  0
TEXT
  8
_0-7_枠細線
 62
    5
 10
1503
 20
72
 40
18
 41
1
 50
0
  1
年月日
  0
TEXT
  8
_0-7_枠細線
 62
    5
 10
1503
 20
90
 40
18
 41
1
 50
0
  1
作　成
  0
TEXT
  8
_0-7_枠細線
 62
    5
 10
1507.5
 20
147
 40
18
 41
1
 50
0
  1
承 認
  0
LINE
  8
_0-7_枠細線
  6
CONTINUOUS
 62
    5
 10
1566
 20
168
 11
1566
 21
72
  0
TEXT
  8
_0-7_枠細線
 62
    5
 10
1579.5
 20
147
 40
18
 41
1
 50
0
  1
検 図
  0
LINE
  8
_0-7_枠細線
  6
CONTINUOUS
 62
    5
 10
1638
 20
168
 11
1638
 21
108
  0
TEXT
  8
_0-7_枠細線
 62
    5
 10
1650
 20
114
 40
24
 41
1
 50
0
  1
藤戸
  0
TEXT
  8
_0-7_枠細線
 62
    5
 10
1651.5
 20
147
 40
18
 41
1
 50
0
  1
設 計
  0
TEXT
  8
_0-7_枠細線
 62
    5
 10
1152.5999999999999
 20
190.49999999999991
 40
24.000000000000007
 41
0.5999999999999997
 50
0
  1
セーフティグレーチングＨ２５タイプ
  0
TEXT
  8
_0-7_枠細線
 62
    5
 10
1282.1999999999998
 20
169.5
 40
24.000000000000007
 41
0.5999999999999997
 50
0
  1
集水マス　補強仕様
  0
TEXT
  8
_0-7_枠細線
 62
    5
 10
1152.5999999999999
 20
83.999999999999829
 40
24
 41
0.5999999999999997
 50
0
  1
色については表参照のこと
  0
TEXT
  8
_0-7_枠細線
 62
    5
 10
1432.8
 20
141
 40
24
 41
0.6999999999999999
 50
0
  1
１：６
  0
TEXT
  8
_0-7_枠細線
 62
    5
 10
1152.5999999999999
 20
131.99999999999983
 40
24.000000000000007
 41
0.5999999999999997
 50
0
  1
ＧＲＳＫ－２５Ｋ５００
  0
LINE
  8
_0-0_計極細
  6
CENTER1
 62
    2
 10
1365.1391650787377
 20
794.82214802137207
 11
1365.1391650787377
 21
832.89214802137576
  0
LINE
  8
_0-0_計極細
  6
CONTINUOUS
 62
    2
 10
1110.1391650787377
 20
824.53364571264228
 11
1051.6325167916689
 21
824.53364571264228
  0
CIRCLE
  8
_0-0_計極細
  6
CONTINUOUS
 62
    2
 10
1092.2470865346065
 20
812.76828455522991
 40
1.0953188836088352
  0
LINE
  8
_0-0_計極細
  6
CONTINUOUS
 62
    2
 10
1099.8379732721594
 20
817.53364570896588
 11
1105.139165078738
 21
822.83483751554422
  0
LINE
  8
_0-0_計極細
  6
CONTINUOUS
 62
    2
 10
1087.1100512019746
 20
817.53364570013923
 11
1094.1100512144783
 21
824.53364571264194
  0
LINE
  8
_0-0_計極細
  6
CONTINUOUS
 62
    2
 10
1074.3821291317895
 20
817.53364569131224
 11
1081.3821291531199
 21
824.53364571264228
  0
LINE
  8
_0-0_計極細
  6
CONTINUOUS
 62
    2
 10
1061.6542070616056
 20
817.53364568248526
 11
1068.6542070917619
 21
824.53364571264228
  0
LINE
  8
_0-0_計極細
  6
CONTINUOUS
 62
    2
 10
1051.6325167916689
 20
820.23987747390686
 11
1055.9262850304046
 21
824.53364571264194
  0
LINE
  8
_0-0_計極細
  6
DASHED2
 62
    2
 10
1093.4740122370674
 20
817.53364570455221
 11
1100.4740122451572
 21
824.53364571264228
  0
LINE
  8
_0-0_計極細
  6
DASHED2
 62
    2
 10
1080.7460901668826
 20
817.53364569572557
 11
1087.7460901837992
 21
824.53364571264228
  0
LINE
  8
_0-0_計極細
  6
DASHED2
 62
    2
 10
1068.0181680966975
 20
817.53364568689892
 11
1075.018168122441
 21
824.53364571264228
  0
LINE
  8
_0-0_計極細
  6
DASHED2
 62
    2
 10
1055.2902460265129
 20
817.53364567807228
 11
1062.2902460610826
 21
824.53364571264228
  0
LINE
  8
_0-0_計極細
  6
CONTINUOUS
 62
    2
 10
1110.0203109249221
 20
817.53364571264217
 11
1110.1391650787377
 21
817.65249986645779
  0
LINE
  8
_0-0_計極細
  6
CONTINUOUS
 62
    2
 10
1107.4747265126502
 20
817.53364571264217
 11
1110.1391650787377
 21
820.19808427872897
  0
LINE
  8
_0-0_計極細
  6
CONTINUOUS
 62
    2
 10
1105.139165078738
 20
817.74366869100061
 11
1110.1391650787377
 21
822.74366869100072
  0
LINE
  8
_0-0_計極細
  6
CONTINUOUS
 62
    2
 10
1105.139165078738
 20
820.28925310327247
 11
1109.383557688107
 21
824.53364571264228
  0
LINE
  8
_0-0_計極細
  6
CONTINUOUS
 62
    2
 10
1105.139165078738
 20
822.83483751554422
 11
1106.8379732758356
 21
824.53364571264228
  0
LINE
  8
_0-0_計極細
  6
CONTINUOUS
 62
    2
 10
1110.1391650787377
 20
823.16506558928688
 11
1108.7705849553827
 21
824.53364571264228
  0
LINE
  8
_0-0_計極細
  6
CONTINUOUS
 62
    2
 10
1110.1391650787377
 20
820.61948117701536
 11
1106.2250005431113
 21
824.53364571264228
  0
LINE
  8
_0-0_計極細
  6
CONTINUOUS
 62
    2
 10
1105.139165078738
 20
823.07389676474395
 11
1110.1391650787377
 21
818.07389676474384
  0
LINE
  8
_0-0_計極細
  6
CONTINUOUS
 62
    2
 10
1105.139165078738
 20
820.5283123524722
 11
1108.133831718568
 21
817.53364571264217
  0
LINE
  8
_0-0_計極細
  6
CONTINUOUS
 62
    2
 10
1105.139165078738
 20
817.98272794020068
 11
1105.5882473062964
 21
817.53364571264217
  0
LINE
  8
_0-0_計極細
  6
CONTINUOUS
 62
    2
 10
1110.1391650787377
 20
824.03364571264206
 11
1110.1391650787377
 21
824.53364571264228
  0
LINE
  8
_0-0_計極細
  6
CONTINUOUS
 62
    2
 10
1110.1391650787377
 20
817.53364571264217
 11
1051.6325167916689
 21
817.53364571264217
  0
LINE
  8
_0-0_計極細
  6
CONTINUOUS
 62
    2
 10
1105.139165078738
 20
824.53364571264228
 11
1105.139165078738
 21
817.53364571264217
  0
CIRCLE
  8
_0-0_計極細
  6
CONTINUOUS
 62
    2
 10
1083.5493087568282
 20
814.44235862930464
 40
0.3318518518518431
  0
CIRCLE
  8
_0-0_計極細
  6
CONTINUOUS
 62
    2
 10
1102.1093087568286
 20
815.50902529597147
 40
0.3318518518518431
  0
LINE
  8
_0-0_計極細
  6
CENTER1
 62
    2
 10
1090.6391650787377
 20
746.56760154197013
 11
1090.6391650787377
 21
780.55041462039708
  0
LINE
  8
_0-0_計極細
  6
CONTINUOUS
 62
    2
 10
1086.1391650787377
 20
777.98498252163142
 11
1086.1391650787377
 21
751.53364571264206
  0
LINE
  8
_0-0_計極細
  6
CONTINUOUS
 62
    2
 10
1095.1391650787377
 20
777.98498252163142
 11
1086.1391650787377
 21
777.98498252163142
  0
LINE
  8
_0-0_計極細
  6
CONTINUOUS
 62
    2
 10
1095.1391650787377
 20
751.53364571264206
 11
1095.1391650787377
 21
777.98498252163142
  0
LINE
  8
_0-0_計極細
  6
CENTER1
 62
    2
 10
1079.4427734662856
 20
769.60910517966295
 11
1117.8613857558255
 21
783.5923364706839
  0
LINE
  8
_0-0_計極細
  6
CONTINUOUS
 62
    2
 10
1083.9551241464467
 20
766.46266641014404
 11
1117.0297310406554
 21
778.5008388296917
  0
LINE
  8
_0-0_計極細
  6
CONTINUOUS
 62
    2
 10
1080.8769428565151
 20
774.91989999721727
 11
1113.9515497507243
 21
786.95807241676516
  0
LINE
  8
_0-0_計極細
  6
CONTINUOUS
 62
    2
 10
1113.9515497507243
 20
786.95807241676516
 11
1117.0297310406554
 21
778.5008388296917
  0
LINE
  8
_0-0_計極細
  6
CONTINUOUS
 62
    2
 10
1083.9551241464467
 20
766.46266641014404
 11
1080.8769428565151
 21
774.91989999721727
  0
CIRCLE
  8
_0-0_計極細
  6
CONTINUOUS
 62
    2
 10
1128.7893087568252
 20
775.47495122189775
 40
1.0953188836088352
  0
CIRCLE
  8
_0-0_計極細
  6
CONTINUOUS
 62
    2
 10
1136.2115309790502
 20
740.52204934273664
 40
0.3318518518518431
  0
CIRCLE
  8
_0-0_計極細
  6
CONTINUOUS
 62
    2
 10
1135.4115309790502
 20
754.11569196263849
 40
0.3318518518518431
  0
CIRCLE
  8
_0-0_計極細
  6
CONTINUOUS
 62
    2
 10
1136.0067045901601
 20
786.94161788856445
 40
1.0953188836088352
  0
LINE
  8
_0-0_計極細
  6
CONTINUOUS
 62
    2
 10
1140.1391650787377
 20
796.53364571264206
 11
1140.1391650787377
 21
735.78868553577502
  0
LINE
  8
_0-0_計極細
  6
CONTINUOUS
 62
    2
 10
1139.639165078738
 20
796.53364571264206
 11
1140.1391650787377
 21
796.53364571264206
  0
CIRCLE
  8
_0-0_計極細
  6
CONTINUOUS
 62
    2
 10
1056.4537892113199
 20
805.55495122189745
 40
1.0953188836088352
  0
CIRCLE
  8
_0-0_計極細
  6
CONTINUOUS
 62
    2
 10
1129.1226420901608
 20
743.341617888565
 40
1.0953188836088352
  0
CIRCLE
  8
_0-0_計極細
  6
CONTINUOUS
 62
    2
 10
1126.2426420901618
 20
754.54161788856459
 40
1.0953188836088352
  0
CIRCLE
  8
_0-0_計極細
  6
CONTINUOUS
 62
    2
 10
1104.6559754234947
 20
756.70161788856444
 40
1.0953188836088352
  0
CIRCLE
  8
_0-0_計極細
  6
CONTINUOUS
 62
    2
 10
1072.7359754234956
 20
764.38161788856428
 40
1.0953188836088352
  0
CIRCLE
  8
_0-0_計極細
  6
CONTINUOUS
 62
    2
 10
1084.4959754234947
 20
787.18161788856446
 40
1.0953188836088352
  0
CIRCLE
  8
_0-0_計極細
  6
CONTINUOUS
 62
    2
 10
1097.9359754234954
 20
781.10161788856453
 40
1.0953188836088352
  0
CIRCLE
  8
_0-0_計極細
  6
CONTINUOUS
 62
    2
 10
1068.5720369359676
 20
805.01938645338282
 40
1.0953188836088352
  0
CIRCLE
  8
_0-0_計極細
  6
CONTINUOUS
 62
    2
 10
1099.6293087568288
 20
800.86161788856384
 40
1.0953188836088352
  0
CIRCLE
  8
_0-0_計極細
  6
CONTINUOUS
 62
    2
 10
1111.8026420901622
 20
787.67124751819381
 40
0.3318518518518431
  0
CIRCLE
  8
_0-0_計極細
  6
CONTINUOUS
 62
    2
 10
1132.9493087568278
 20
769.831247518194
 40
0.3318518518518431
  0
CIRCLE
  8
_0-0_計極細
  6
CONTINUOUS
 62
    2
 10
1132.6293087568281
 20
780.60458085152709
 40
0.3318518518518431
  0
CIRCLE
  8
_0-0_計極細
  6
CONTINUOUS
 62
    2
 10
1123.5626420901615
 20
786.57791418486045
 40
0.3318518518518431
  0
CIRCLE
  8
_0-0_計極細
  6
CONTINUOUS
 62
    2
 10
1114.709308756828
 20
766.09791418486077
 40
0.3318518518518431
  0
CIRCLE
  8
_0-0_計極細
  6
CONTINUOUS
 62
    2
 10
1124.7093087568278
 20
739.92902529597211
 40
0.3318518518518431
  0
CIRCLE
  8
_0-0_計極細
  6
CONTINUOUS
 62
    2
 10
1128.8693087568279
 20
748.88902529597215
 40
0.3318518518518431
  0
CIRCLE
  8
_0-0_計極細
  6
CONTINUOUS
 62
    2
 10
1120.6559754234945
 20
757.84902529597184
 40
0.3318518518518431
  0
CIRCLE
  8
_0-0_計極細
  6
CONTINUOUS
 62
    2
 10
1112.8693087568288
 20
755.92902529597188
 40
0.3318518518518431
  0
CIRCLE
  8
_0-0_計極細
  6
CONTINUOUS
 62
    2
 10
1100.9226420901618
 20
755.28902529597167
 40
0.3318518518518431
  0
CIRCLE
  8
_0-0_計極細
  6
CONTINUOUS
 62
    2
 10
1103.0559754234953
 20
760.83569196263829
 40
0.3318518518518431
  0
CIRCLE
  8
_0-0_計極細
  6
CONTINUOUS
 62
    2
 10
1099.3226420901617
 20
762.32902529597186
 40
0.3318518518518431
  0
CIRCLE
  8
_0-0_計極細
  6
CONTINUOUS
 62
    2
 10
1106.042642090162
 20
765.63569196263836
 40
0.3318518518518431
  0
CIRCLE
  8
_0-0_計極細
  6
CONTINUOUS
 62
    2
 10
1082.462642090162
 20
754.90235862930524
 40
0.3318518518518431
  0
CIRCLE
  8
_0-0_計極細
  6
CONTINUOUS
 62
    2
 10
1078.7293087568285
 20
760.02235862930513
 40
0.3318518518518431
  0
CIRCLE
  8
_0-0_計極細
  6
CONTINUOUS
 62
    2
 10
1073.502642090162
 20
755.96902529597196
 40
0.3318518518518431
  0
CIRCLE
  8
_0-0_計極細
  6
CONTINUOUS
 62
    2
 10
1076.9159754234947
 20
766.74235862930504
 40
0.3318518518518431
  0
CIRCLE
  8
_0-0_計極細
  6
CONTINUOUS
 62
    2
 10
1101.5826420901619
 20
783.00902529597147
 40
0.3318518518518431
  0
CIRCLE
  8
_0-0_計極細
  6
CONTINUOUS
 62
    2
 10
1085.1559754234954
 20
778.63569196263836
 40
0.3318518518518431
  0
CIRCLE
  8
_0-0_計極細
  6
CONTINUOUS
 62
    2
 10
1094.0093087568282
 20
786.74235862930493
 40
0.3318518518518431
  0
CIRCLE
  8
_0-0_計極細
  6
CONTINUOUS
 62
    2
 10
1101.5826420901619
 20
790.15569196263812
 40
0.3318518518518431
  0
CIRCLE
  8
_0-0_計極細
  6
CONTINUOUS
 62
    2
 10
1086.542642090162
 20
792.39569196263813
 40
0.3318518518518431
  0
CIRCLE
  8
_0-0_計極細
  6
CONTINUOUS
 62
    2
 10
1074.2759754234955
 20
793.14235862930468
 40
0.3318518518518431
  0
CIRCLE
  8
_0-0_計極細
  6
CONTINUOUS
 62
    2
 10
1090.5893087568288
 20
800.48235862930505
 40
0.3318518518518431
  0
CIRCLE
  8
_0-0_計極細
  6
CONTINUOUS
 62
    2
 10
1105.5226420901615
 20
800.80235862930476
 40
0.3318518518518431
  0
CIRCLE
  8
_0-0_計極細
  6
CONTINUOUS
 62
    2
 10
1087.1759754234949
 20
804.53569196263811
 40
0.3318518518518431
  0
CIRCLE
  8
_0-0_計極細
  6
CONTINUOUS
 62
    2
 10
1070.1093087568283
 20
797.49569196263815
 40
0.3318518518518431
  0
CIRCLE
  8
_0-0_計極細
  6
CONTINUOUS
 62
    2
 10
1062.5359754234955
 20
796.32235862930497
 40
0.3318518518518431
  0
CIRCLE
  8
_0-0_計極細
  6
CONTINUOUS
 62
    2
 10
1056.1715309790513
 20
795.68235862930499
 40
0.3318518518518431
  0
CIRCLE
  8
_0-0_計極細
  6
CONTINUOUS
 62
    2
 10
1062.3700494975699
 20
801.655691962638
 40
0.3318518518518431
  0
LINE
  8
_0-0_計極細
  6
CONTINUOUS
 62
    2
 10
1097.6859803397444
 20
735.78868560563672
 11
1113.4309404467499
 21
751.53364571264206
  0
LINE
  8
_0-0_計極細
  6
CONTINUOUS
 62
    2
 10
1055.2595736005594
 20
735.78868573764487
 11
1071.0045335755565
 21
751.53364571264206
  0
LINE
  8
_0-0_計極細
  6
CONTINUOUS
 62
    2
 10
1051.6325167916689
 20
774.58803579994719
 11
1069.5781267043637
 21
792.5336457126424
  0
LINE
  8
_0-0_計極細
  6
CONTINUOUS
 62
    2
 10
1093.4433396658255
 20
735.78868561883758
 11
1109.1882997596299
 21
751.53364571264206
  0
LINE
  8
_0-0_計極細
  6
CONTINUOUS
 62
    2
 10
1051.6325167916689
 20
736.40426961587377
 11
1070.139165078738
 21
754.91091790294286
  0
LINE
  8
_0-0_計極細
  6
CONTINUOUS
 62
    2
 10
1051.6325167916689
 20
778.83067648706674
 11
1065.3354860172444
 21
792.5336457126424
  0
LINE
  8
_0-0_計極細
  6
CONTINUOUS
 62
    2
 10
1089.2006989919071
 20
735.78868563203855
 11
1104.945659072511
 21
751.53364571264206
  0
LINE
  8
_0-0_計極細
  6
CONTINUOUS
 62
    2
 10
1051.6325167916689
 20
740.64691030299332
 11
1070.139165078738
 21
759.15355859006206
  0
LINE
  8
_0-0_計極細
  6
CONTINUOUS
 62
    2
 10
1051.6325167916689
 20
783.07331717418617
 11
1061.0928453301244
 21
792.5336457126424
  0
LINE
  8
_0-0_計極細
  6
CONTINUOUS
 62
    2
 10
1120.139165078738
 20
751.53364571264206
 11
1120.139165078738
 21
735.78868553577502
  0
LINE
  8
_0-0_計極細
  6
CONTINUOUS
 62
    2
 10
1070.139165078738
 20
792.5336457126424
 11
1051.6325167916689
 21
792.5336457126424
  0
LINE
  8
_0-0_計極細
  6
CONTINUOUS
 62
    2
 10
1120.139165078738
 20
751.53364571264206
 11
1070.139165078738
 21
751.53364571264206
  0
LINE
  8
_0-0_計極細
  6
CONTINUOUS
 62
    2
 10
1070.139165078738
 20
792.5336457126424
 11
1070.139165078738
 21
751.53364571264206
  0
ARC
  8
_0-1_計細線
  6
CONTINUOUS
 62
    3
 10
1113.1391650787377
 20
799.53364571264206
 40
3
 50
179.99999999999983
 51
269.99999999999977
  0
LINE
  8
_0-1_計細線
  6
CONTINUOUS
 62
    3
 10
1110.1391650787377
 20
799.53364571264206
 11
1110.1391650787377
 21
824.03364571264206
  0
LINE
  8
_0-1_計細線
  6
CONTINUOUS
 62
    3
 10
1113.1391650787377
 20
796.53364571264206
 11
1139.639165078738
 21
796.53364571264206
  0
LINE
  8
_0-1_計細線
  6
CONTINUOUS
 62
    3
 10
1140.1391650787377
 20
797.0336457126424
 11
1139.639165078738
 21
796.53364571264206
  0
LINE
  8
_0-1_計細線
  6
CONTINUOUS
 62
    3
 10
1140.1391650787377
 20
799.03364571264228
 11
1140.1391650787377
 21
797.0336457126424
  0
LINE
  8
_0-1_計細線
  6
CONTINUOUS
 62
    3
 10
1139.639165078738
 20
799.53364571264206
 11
1140.1391650787377
 21
799.03364571264228
  0
LINE
  8
_0-1_計細線
  6
CONTINUOUS
 62
    3
 10
1113.1391650787377
 20
799.53364571264206
 11
1139.639165078738
 21
799.53364571264206
  0
LINE
  8
_0-1_計細線
  6
CONTINUOUS
 62
    3
 10
1110.639165078738
 20
824.53364571264228
 11
1110.1391650787377
 21
824.03364571264206
  0
LINE
  8
_0-1_計細線
  6
CONTINUOUS
 62
    3
 10
1112.639165078738
 20
824.53364571264228
 11
1110.639165078738
 21
824.53364571264228
  0
LINE
  8
_0-1_計細線
  6
CONTINUOUS
 62
    3
 10
1113.1391650787377
 20
824.03364571264206
 11
1112.639165078738
 21
824.53364571264228
  0
LINE
  8
_0-1_計細線
  6
CONTINUOUS
 62
    3
 10
1113.1391650787377
 20
799.53364571264206
 11
1113.1391650787377
 21
824.03364571264206
  0
LINE
  8
_0-5_寸法線
  6
CONTINUOUS
 62
    7
 10
1098.1391650787377
 20
824.53364571264194
 11
1032.2802530417009
 21
824.53364571264194
  0
LINE
  8
_0-5_寸法線
  6
CONTINUOUS
 62
    7
 10
1038.2802530417009
 20
824.53364571264194
 11
1041.3860815829312
 21
812.94253579717315
  0
LINE
  8
_0-5_寸法線
  6
CONTINUOUS
 62
    7
 10
1038.2802530417009
 20
824.53364571264194
 11
1035.1744245004706
 21
812.94253579717315
  0
LINE
  8
_0-5_寸法線
  6
CONTINUOUS
 62
    7
 10
1096.9391650787381
 20
796.53364571264206
 11
1032.2802530417009
 21
796.53364571264206
  0
LINE
  8
_0-5_寸法線
  6
CONTINUOUS
 62
    7
 10
1038.2802530417009
 20
796.53364571264206
 11
1035.1744245004706
 21
808.12475562811073
  0
LINE
  8
_0-5_寸法線
  6
CONTINUOUS
 62
    7
 10
1038.2802530417009
 20
796.53364571264206
 11
1041.3860815829312
 21
808.12475562811073
  0
LINE
  8
_0-5_寸法線
  6
CONTINUOUS
 62
    7
 10
1038.2802530417009
 20
824.53364571264194
 11
1038.2802530417009
 21
796.53364571264206
  0
TEXT
  8
_0-5_寸法線
 62
    7
 10
1038.2802530417009
 20
801.53364571264206
 40
18
 41
1
 50
90
  1
28
  0
LINE
  8
_0-5_寸法線
  6
CONTINUOUS
 62
    7
 10
1098.1391650787377
 20
796.53364571264206
 11
1032.2802530417009
 21
796.53364571264206
  0
LINE
  8
_0-5_寸法線
  6
CONTINUOUS
 62
    7
 10
1038.2802530417009
 20
796.53364571264206
 11
1041.3860815829312
 21
784.94253579717315
  0
LINE
  8
_0-5_寸法線
  6
CONTINUOUS
 62
    7
 10
1038.2802530417009
 20
796.53364571264206
 11
1035.1744245004706
 21
784.94253579717315
  0
LINE
  8
_0-5_寸法線
  6
CONTINUOUS
 62
    7
 10
1096.9391650787381
 20
773.53364571264183
 11
1032.2802530417009
 21
773.53364571264183
  0
LINE
  8
_0-5_寸法線
  6
CONTINUOUS
 62
    7
 10
1038.2802530417009
 20
773.53364571264183
 11
1035.1744245004706
 21
785.12475562811051
  0
LINE
  8
_0-5_寸法線
  6
CONTINUOUS
 62
    7
 10
1038.2802530417009
 20
773.53364571264183
 11
1041.3860815829312
 21
785.12475562811051
  0
LINE
  8
_0-5_寸法線
  6
CONTINUOUS
 62
    7
 10
1038.2802530417009
 20
796.53364571264206
 11
1038.2802530417009
 21
773.53364571264183
  0
TEXT
  8
_0-5_寸法線
 62
    7
 10
1038.2802530417009
 20
776.03364571264183
 40
18
 41
1
 50
90
  1
23
  0
LINE
  8
_0-5_寸法線
  6
CONTINUOUS
 62
    7
 10
1110.1391650787377
 20
761.53364571264206
 11
1110.1391650787371
 21
698.21092675952445
  0
LINE
  8
_0-5_寸法線
  6
CONTINUOUS
 62
    7
 10
1110.1391650787371
 20
704.21092675952445
 11
1121.730274994206
 21
707.31675530075472
  0
LINE
  8
_0-5_寸法線
  6
CONTINUOUS
 62
    7
 10
1110.1391650787371
 20
704.21092675952445
 11
1121.730274994206
 21
701.10509821829419
  0
LINE
  8
_0-5_寸法線
  6
CONTINUOUS
 62
    7
 10
1140.1391650787377
 20
784.53364571264206
 11
1140.1391650787359
 21
698.21092675952445
  0
LINE
  8
_0-5_寸法線
  6
CONTINUOUS
 62
    7
 10
1140.1391650787361
 20
704.21092675952445
 11
1128.5480551632672
 21
701.1050982182943
  0
LINE
  8
_0-5_寸法線
  6
CONTINUOUS
 62
    7
 10
1140.1391650787361
 20
704.21092675952445
 11
1128.5480551632672
 21
707.31675530075472
  0
LINE
  8
_0-5_寸法線
  6
CONTINUOUS
 62
    7
 10
1110.1391650787371
 20
704.21092675952445
 11
1140.1391650787361
 21
704.21092675952445
  0
TEXT
  8
_0-5_寸法線
 62
    7
 10
1116.1391650787371
 20
704.21092675952445
 40
18
 41
1
 50
0
  1
30
  0
LINE
  8
_0-0_計極細
  6
CONTINUOUS
 62
    2
 10
1620.1391650787377
 20
824.53364571264228
 11
1678.6458133658066
 21
824.53364571264228
  0
CIRCLE
  8
_0-0_計極細
  6
CONTINUOUS
 62
    2
 10
1624.9093087568269
 20
808.23958085152674
 40
0.3318518518518431
  0
LINE
  8
_0-0_計極細
  6
CONTINUOUS
 62
    2
 10
1666.2126483189193
 20
817.53364571264217
 11
1673.2126479428459
 21
824.53364533656884
  0
LINE
  8
_0-0_計極細
  6
CONTINUOUS
 62
    2
 10
1653.484726257562
 20
817.53364571264217
 11
1660.4847259810572
 21
824.5336454361377
  0
LINE
  8
_0-0_計極細
  6
CONTINUOUS
 62
    2
 10
1640.7568041962036
 20
817.53364571264217
 11
1647.7568040192687
 21
824.53364553570691
  0
LINE
  8
_0-0_計極細
  6
CONTINUOUS
 62
    2
 10
1628.0288821348463
 20
817.53364571264217
 11
1635.0288820574804
 21
824.53364563527612
  0
LINE
  8
_0-0_計極細
  6
DASHED2
 62
    2
 10
1672.5766093495981
 20
817.53364571264217
 11
1678.6458133658066
 21
823.60284972884995
  0
LINE
  8
_0-0_計極細
  6
DASHED2
 62
    2
 10
1659.8486872882399
 20
817.53364571264217
 11
1666.8486869619514
 21
824.5336453863531
  0
LINE
  8
_0-0_計極細
  6
DASHED2
 62
    2
 10
1647.1207652268827
 20
817.53364571264217
 11
1654.1207650001631
 21
824.53364548592231
  0
LINE
  8
_0-0_計極細
  6
DASHED2
 62
    2
 10
1634.3928431655247
 20
817.53364571264217
 11
1641.3928430383737
 21
824.53364558549151
  0
LINE
  8
_0-0_計極細
  6
DASHED2
 62
    2
 10
1625.1391650787377
 20
821.00788968721304
 11
1628.664921076585
 21
824.53364568506072
  0
LINE
  8
_0-0_計極細
  6
CONTINUOUS
 62
    2
 10
1625.1391650787377
 20
819.73509748107676
 11
1622.9377133103023
 21
817.53364571264217
  0
LINE
  8
_0-0_計極細
  6
CONTINUOUS
 62
    2
 10
1625.1391650787377
 20
822.28068189334817
 11
1620.3921288980314
 21
817.53364571264217
  0
LINE
  8
_0-0_計極細
  6
CONTINUOUS
 62
    2
 10
1620.1391650787377
 20
819.82626630562027
 11
1624.8465444857598
 21
824.53364571264228
  0
LINE
  8
_0-0_計極細
  6
CONTINUOUS
 62
    2
 10
1620.1391650787377
 20
822.37185071789168
 11
1622.3009600734881
 21
824.53364571264194
  0
LINE
  8
_0-0_計極細
  6
CONTINUOUS
 62
    2
 10
1625.1391650787377
 20
823.62805238693898
 11
1624.2335717530348
 21
824.53364571264228
  0
LINE
  8
_0-0_計極細
  6
CONTINUOUS
 62
    2
 10
1625.1391650787377
 20
821.08246797466711
 11
1621.6879873407629
 21
824.53364571264228
  0
LINE
  8
_0-0_計極細
  6
CONTINUOUS
 62
    2
 10
1625.1391650787377
 20
818.53688356239581
 11
1620.1391650787377
 21
823.53688356239581
  0
LINE
  8
_0-0_計極細
  6
CONTINUOUS
 62
    2
 10
1623.5968185162196
 20
817.53364571264217
 11
1620.1391650787377
 21
820.99129915012395
  0
LINE
  8
_0-0_計極細
  6
CONTINUOUS
 62
    2
 10
1621.051234103948
 20
817.53364571264217
 11
1620.1391650787377
 21
818.44571473785231
  0
LINE
  8
_0-0_計極細
  6
CONTINUOUS
 62
    2
 10
1620.1391650787377
 20
824.03364571264206
 11
1620.1391650787377
 21
824.53364571264228
  0
LINE
  8
_0-0_計極細
  6
CONTINUOUS
 62
    2
 10
1620.1391650787377
 20
817.53364571264217
 11
1678.6458133658066
 21
817.53364571264217
  0
LINE
  8
_0-0_計極細
  6
CONTINUOUS
 62
    2
 10
1625.1391650787377
 20
824.53364571264228
 11
1625.1391650787377
 21
817.53364571264217
  0
CIRCLE
  8
_0-0_計極細
  6
CONTINUOUS
 62
    2
 10
1632.1359754234932
 20
816.25291418486051
 40
0.3318518518518431
  0
CIRCLE
  8
_0-0_計極細
  6
CONTINUOUS
 62
    2
 10
1644.8559754234925
 20
812.65291418486038
 40
0.3318518518518431
  0
CIRCLE
  8
_0-0_計極細
  6
CONTINUOUS
 62
    2
 10
1663.3359754234932
 20
815.69291418486034
 40
0.3318518518518431
  0
CIRCLE
  8
_0-0_計極細
  6
CONTINUOUS
 62
    2
 10
1636.535975423493
 20
784.64550677745319
 40
0.3318518518518431
  0
CIRCLE
  8
_0-0_計極細
  6
CONTINUOUS
 62
    2
 10
1648.2959754234932
 20
781.28550677745284
 40
0.3318518518518431
  0
LINE
  8
_0-0_計極細
  6
CONTINUOUS
 62
    2
 10
1635.1391650787377
 20
777.98498252163142
 11
1644.1391650787377
 21
777.98498252163142
  0
LINE
  8
_0-0_計極細
  6
CENTER1
 62
    2
 10
1639.6391650787377
 20
746.56760154197013
 11
1639.6391650787377
 21
780.55041462039708
  0
LINE
  8
_0-0_計極細
  6
CONTINUOUS
 62
    2
 10
1644.1391650787377
 20
777.98498252163142
 11
1644.1391650787377
 21
751.53364571264206
  0
LINE
  8
_0-0_計極細
  6
CONTINUOUS
 62
    2
 10
1635.1391650787377
 20
751.53364571264206
 11
1635.1391650787377
 21
777.98498252163142
  0
LINE
  8
_0-0_計極細
  6
CENTER1
 62
    2
 10
1650.83555669119
 20
769.60910517966295
 11
1612.4169444016502
 21
783.5923364706839
  0
LINE
  8
_0-0_計極細
  6
CONTINUOUS
 62
    2
 10
1646.3232060110292
 20
766.46266641014404
 11
1613.2485991168201
 21
778.5008388296917
  0
LINE
  8
_0-0_計極細
  6
CONTINUOUS
 62
    2
 10
1649.4013873009603
 20
774.91989999721727
 11
1616.3267804067507
 21
786.95807241676516
  0
LINE
  8
_0-0_計極細
  6
CONTINUOUS
 62
    2
 10
1616.3267804067507
 20
786.95807241676516
 11
1613.2485991168201
 21
778.5008388296917
  0
LINE
  8
_0-0_計極細
  6
CONTINUOUS
 62
    2
 10
1646.3232060110292
 20
766.46266641014404
 11
1649.4013873009603
 21
774.91989999721727
  0
CIRCLE
  8
_0-0_計極細
  6
CONTINUOUS
 62
    2
 10
1595.8993087568267
 20
744.94495122189778
 40
1.0953188836088352
  0
CIRCLE
  8
_0-0_計極細
  6
CONTINUOUS
 62
    2
 10
1594.1304198679379
 20
788.51828455523116
 40
1.0953188836088352
  0
CIRCLE
  8
_0-0_計極細
  6
CONTINUOUS
 62
    2
 10
1594.5137532012711
 20
748.94624751819424
 40
0.3318518518518431
  0
CIRCLE
  8
_0-0_計極細
  6
CONTINUOUS
 62
    2
 10
1593.7298025839877
 20
772.49958085152718
 40
0.3318518518518431
  0
LINE
  8
_0-0_計極細
  6
CONTINUOUS
 62
    2
 10
1590.1391650787377
 20
796.53364571264206
 11
1590.1391650787377
 21
735.78868553577502
  0
LINE
  8
_0-0_計極細
  6
CONTINUOUS
 62
    2
 10
1590.6391650787371
 20
796.53364571264206
 11
1590.1391650787377
 21
796.53364571264206
  0
CIRCLE
  8
_0-0_計極細
  6
CONTINUOUS
 62
    2
 10
1644.9359754234924
 20
803.86161788856407
 40
1.0953188836088352
  0
CIRCLE
  8
_0-0_計極細
  6
CONTINUOUS
 62
    2
 10
1598.7130124605308
 20
767.42436131100942
 40
0.3318518518518431
  0
CIRCLE
  8
_0-0_計極細
  6
CONTINUOUS
 62
    2
 10
1598.5930124605309
 20
781.79769464434253
 40
0.3318518518518431
  0
CIRCLE
  8
_0-0_計極細
  6
CONTINUOUS
 62
    2
 10
1627.0726420901599
 20
785.05161788856435
 40
1.0953188836088352
  0
CIRCLE
  8
_0-0_計極細
  6
CONTINUOUS
 62
    2
 10
1657.4717576713299
 20
753.01938645338294
 40
1.0953188836088352
  0
CIRCLE
  8
_0-0_計極細
  6
CONTINUOUS
 62
    2
 10
1629.7126420901602
 20
759.13161788856462
 40
1.0953188836088352
  0
CIRCLE
  8
_0-0_計極細
  6
CONTINUOUS
 62
    2
 10
1608.5926420901603
 20
772.57161788856433
 40
1.0953188836088352
  0
CIRCLE
  8
_0-0_計極細
  6
CONTINUOUS
 62
    2
 10
1602.4593087568269
 20
754.65161788856472
 40
1.0953188836088352
  0
CIRCLE
  8
_0-0_計極細
  6
CONTINUOUS
 62
    2
 10
1644.6959754234927
 20
781.38161788856405
 40
1.0953188836088352
  0
CIRCLE
  8
_0-0_計極細
  6
CONTINUOUS
 62
    2
 10
1625.4959754234928
 20
800.58161788856432
 40
1.0953188836088352
  0
CIRCLE
  8
_0-0_計極細
  6
CONTINUOUS
 62
    2
 10
1658.7493087568262
 20
796.63495122189761
 40
1.0953188836088352
  0
CIRCLE
  8
_0-0_計極細
  6
CONTINUOUS
 62
    2
 10
1668.1359754234923
 20
805.91495122189747
 40
1.0953188836088352
  0
CIRCLE
  8
_0-0_計極細
  6
CONTINUOUS
 62
    2
 10
1671.0159754234924
 20
797.65291418486026
 40
0.3318518518518431
  0
CIRCLE
  8
_0-0_計極細
  6
CONTINUOUS
 62
    2
 10
1653.2559754234931
 20
784.93291418486046
 40
0.3318518518518431
  0
CIRCLE
  8
_0-0_計極細
  6
CONTINUOUS
 62
    2
 10
1654.9359754234927
 20
801.01291418486039
 40
0.3318518518518431
  0
CIRCLE
  8
_0-0_計極細
  6
CONTINUOUS
 62
    2
 10
1644.8559754234925
 20
789.25291418486051
 40
0.3318518518518431
  0
CIRCLE
  8
_0-0_計極細
  6
CONTINUOUS
 62
    2
 10
1655.6559754234927
 20
776.53291418486049
 40
0.3318518518518431
  0
CIRCLE
  8
_0-0_計極細
  6
CONTINUOUS
 62
    2
 10
1656.6159754234927
 20
764.05291418486081
 40
0.3318518518518431
  0
CIRCLE
  8
_0-0_計極細
  6
CONTINUOUS
 62
    2
 10
1652.2959754234923
 20
755.65291418486072
 40
0.3318518518518431
  0
CIRCLE
  8
_0-0_計極細
  6
CONTINUOUS
 62
    2
 10
1628.7759754234926
 20
787.57291418486068
 40
0.3318518518518431
  0
CIRCLE
  8
_0-0_計極細
  6
CONTINUOUS
 62
    2
 10
1635.7359754234938
 20
795.9729141848602
 40
0.3318518518518431
  0
CIRCLE
  8
_0-0_計極細
  6
CONTINUOUS
 62
    2
 10
1623.4159754234929
 20
796.39958085152716
 40
0.3318518518518431
  0
CIRCLE
  8
_0-0_計極細
  6
CONTINUOUS
 62
    2
 10
1630.6026420901603
 20
763.82624751819412
 40
0.3318518518518431
  0
CIRCLE
  8
_0-0_計極細
  6
CONTINUOUS
 62
    2
 10
1623.8826420901601
 20
760.46624751819422
 40
0.3318518518518431
  0
CIRCLE
  8
_0-0_計極細
  6
CONTINUOUS
 62
    2
 10
1631.0826420901599
 20
755.02624751819417
 40
0.3318518518518431
  0
CIRCLE
  8
_0-0_計極細
  6
CONTINUOUS
 62
    2
 10
1614.92264209016
 20
754.86624751819409
 40
0.3318518518518431
  0
CIRCLE
  8
_0-0_計極細
  6
CONTINUOUS
 62
    2
 10
1606.6026420901594
 20
757.7462475181942
 40
0.3318518518518431
  0
CIRCLE
  8
_0-0_計極細
  6
CONTINUOUS
 62
    2
 10
1599.7226420901602
 20
739.82624751819435
 40
0.3318518518518431
  0
CIRCLE
  8
_0-0_計極細
  6
CONTINUOUS
 62
    2
 10
1605.3226420901599
 20
750.54624751819426
 40
0.3318518518518431
  0
CIRCLE
  8
_0-0_計極細
  6
CONTINUOUS
 62
    2
 10
1616.0226420901597
 20
764.52624751819405
 40
0.3318518518518431
  0
CIRCLE
  8
_0-0_計極細
  6
CONTINUOUS
 62
    2
 10
1605.50264209016
 20
774.73958085152753
 40
0.3318518518518431
  0
CIRCLE
  8
_0-0_計極細
  6
CONTINUOUS
 62
    2
 10
1607.9559754234931
 20
789.72624751819365
 40
0.3318518518518431
  0
CIRCLE
  8
_0-0_計極細
  6
CONTINUOUS
 62
    2
 10
1601.9826420901595
 20
786.84624751819388
 40
0.3318518518518431
  0
LINE
  8
_0-0_計極細
  6
CONTINUOUS
 62
    2
 10
1665.1131665274931
 20
735.78868553577502
 11
1678.6458133907304
 21
749.32133239901214
  0
LINE
  8
_0-0_計極細
  6
CONTINUOUS
 62
    2
 10
1622.6867596563002
 20
735.78868553577502
 11
1638.4317198331678
 21
751.53364571264206
  0
LINE
  8
_0-0_計極細
  6
CONTINUOUS
 62
    2
 10
1660.139165078738
 20
773.24109095821188
 11
1678.6458133662595
 21
791.74773924573356
  0
LINE
  8
_0-0_計極細
  6
CONTINUOUS
 62
    2
 10
1660.8705258403738
 20
735.78868553577502
 11
1678.6458133882838
 21
753.56397308368435
  0
LINE
  8
_0-0_計極細
  6
CONTINUOUS
 62
    2
 10
1618.4441189691813
 20
735.78868553577502
 11
1634.1890791460489
 21
751.53364571264206
  0
LINE
  8
_0-0_計極細
  6
CONTINUOUS
 62
    2
 10
1660.139165078738
 20
777.48373164533109
 11
1675.1890790383184
 21
792.53364560491195
  0
LINE
  8
_0-0_計極細
  6
CONTINUOUS
 62
    2
 10
1656.6278851532547
 20
735.78868553577502
 11
1678.6458133858364
 21
757.80661376835656
  0
LINE
  8
_0-0_計極細
  6
CONTINUOUS
 62
    2
 10
1614.201478282062
 20
735.78868553577502
 11
1629.9464384589296
 21
751.53364571264206
  0
LINE
  8
_0-0_計極細
  6
CONTINUOUS
 62
    2
 10
1660.139165078738
 20
781.72637233245052
 11
1670.9464383815691
 21
792.53364563528169
  0
LINE
  8
_0-0_計極細
  6
CONTINUOUS
 62
    2
 10
1610.1391650787377
 20
751.53364571264206
 11
1610.1391650787377
 21
735.78868553577502
  0
LINE
  8
_0-0_計極細
  6
CONTINUOUS
 62
    2
 10
1660.139165078738
 20
792.5336457126424
 11
1678.6458133658066
 21
792.5336457126424
  0
LINE
  8
_0-0_計極細
  6
CONTINUOUS
 62
    2
 10
1610.1391650787377
 20
751.53364571264206
 11
1660.139165078738
 21
751.53364571264206
  0
LINE
  8
_0-0_計極細
  6
CONTINUOUS
 62
    2
 10
1660.139165078738
 20
792.5336457126424
 11
1660.139165078738
 21
751.53364571264206
  0
ARC
  8
_0-1_計細線
  6
CONTINUOUS
 62
    3
 10
1617.1391650787377
 20
799.53364571264206
 40
3
 50
269.99999999999977
 51
359.99999999999966
  0
LINE
  8
_0-1_計細線
  6
CONTINUOUS
 62
    3
 10
1620.1391650787377
 20
799.53364571264206
 11
1620.1391650787377
 21
824.03364571264206
  0
LINE
  8
_0-1_計細線
  6
CONTINUOUS
 62
    3
 10
1617.1391650787377
 20
796.53364571264206
 11
1590.6391650787371
 21
796.53364571264206
  0
LINE
  8
_0-1_計細線
  6
CONTINUOUS
 62
    3
 10
1590.1391650787377
 20
797.0336457126424
 11
1590.6391650787371
 21
796.53364571264206
  0
LINE
  8
_0-1_計細線
  6
CONTINUOUS
 62
    3
 10
1590.1391650787377
 20
799.03364571264228
 11
1590.1391650787377
 21
797.0336457126424
  0
LINE
  8
_0-1_計細線
  6
CONTINUOUS
 62
    3
 10
1590.6391650787371
 20
799.53364571264206
 11
1590.1391650787377
 21
799.03364571264228
  0
LINE
  8
_0-1_計細線
  6
CONTINUOUS
 62
    3
 10
1617.1391650787377
 20
799.53364571264206
 11
1590.6391650787371
 21
799.53364571264206
  0
LINE
  8
_0-1_計細線
  6
CONTINUOUS
 62
    3
 10
1619.639165078738
 20
824.53364571264228
 11
1620.1391650787377
 21
824.03364571264206
  0
LINE
  8
_0-1_計細線
  6
CONTINUOUS
 62
    3
 10
1617.6391650787377
 20
824.53364571264228
 11
1619.639165078738
 21
824.53364571264228
  0
LINE
  8
_0-1_計細線
  6
CONTINUOUS
 62
    3
 10
1617.1391650787377
 20
824.03364571264206
 11
1617.6391650787377
 21
824.53364571264228
  0
LINE
  8
_0-1_計細線
  6
CONTINUOUS
 62
    3
 10
1617.1391650787377
 20
799.53364571264206
 11
1617.1391650787377
 21
824.03364571264206
  0
LINE
  8
_0-0_計極細
  6
CENTER1
 62
    2
 10
1621.3391650787378
 20
813.33342671163496
 11
1107.1276953142192
 21
813.33342671163496
  0
LINE
  8
_0-1_計細線
  6
CONTINUOUS
 62
    3
 10
1376.1891650792902
 20
824.7336679714424
 11
1376.1891650792902
 21
804.73366797144195
  0
LINE
  8
_0-1_計細線
  6
CONTINUOUS
 62
    3
 10
1371.4891650792893
 20
804.73366797144195
 11
1371.4891650792893
 21
824.7336679714424
  0
LINE
  8
_0-1_計細線
  6
CONTINUOUS
 62
    3
 10
1376.1891650792902
 20
804.73366797144195
 11
1371.4891650792893
 21
804.73366797144195
  0
LINE
  8
_0-1_計細線
  6
CONTINUOUS
 62
    3
 10
1371.4891650792893
 20
824.7336679714424
 11
1376.1891650792902
 21
824.7336679714424
  0
LINE
  8
_0-1_計細線
  6
DASHED2
 62
    3
 10
1371.4891650792893
 20
807.73366797144195
 11
1376.1891650792902
 21
807.73366797144195
  0
LINE
  8
_0-1_計細線
  6
DASHED2
 62
    3
 10
1371.4891650792893
 20
821.7336679714424
 11
1376.1891650792902
 21
821.7336679714424
  0
LINE
  8
_0-1_計細線
  6
CONTINUOUS
 62
    3
 10
1366.8391650787376
 20
806.83342671163507
 11
1371.4891650792893
 21
806.83342671163507
  0
LINE
  8
_0-1_計細線
  6
CONTINUOUS
 62
    3
 10
1366.8391650787376
 20
819.83342671163484
 11
1371.4891650792893
 21
819.83342671163484
  0
LINE
  8
_0-1_計細線
  6
CONTINUOUS
 62
    3
 10
1376.1891650792902
 20
819.83342671163484
 11
1380.8391650781748
 21
819.83342671163484
  0
LINE
  8
_0-1_計細線
  6
CONTINUOUS
 62
    3
 10
1376.1891650792902
 20
806.83342671163507
 11
1380.8391650788885
 21
806.83342671163507
  0
ARC
  8
_0-1_計細線
  6
CONTINUOUS
 62
    3
 10
1387.2391650781863
 20
822.53342671163512
 40
1
 50
0
 51
89.999999999999915
  0
ARC
  8
_0-1_計細線
  6
CONTINUOUS
 62
    3
 10
1386.7712158868585
 20
824.53342671163466
 40
1
 50
209.99999999999866
 51
269.99999999999977
  0
ARC
  8
_0-1_計細線
  6
CONTINUOUS
 62
    3
 10
1385.0391650792897
 20
823.533426711635
 40
1
 50
29.99999999997862
 51
89.999999999999915
  0
LINE
  8
_0-1_計細線
  6
CONTINUOUS
 62
    3
 10
1387.2391650781863
 20
823.533426711635
 11
1386.7712158868585
 21
823.533426711635
  0
ARC
  8
_0-1_計細線
  6
CONTINUOUS
 62
    3
 10
1377.8391650803931
 20
822.53342671163512
 40
1
 50
89.999999999999915
 51
179.99999999999983
  0
ARC
  8
_0-1_計細線
  6
CONTINUOUS
 62
    3
 10
1378.3071142717204
 20
824.53342671163466
 40
1
 50
269.99999999999977
 51
330.00000000002666
  0
ARC
  8
_0-1_計細線
  6
CONTINUOUS
 62
    3
 10
1380.0391650792897
 20
823.533426711635
 40
1
 50
89.999999999999915
 51
149.99999999999534
  0
LINE
  8
_0-1_計細線
  6
CONTINUOUS
 62
    3
 10
1377.8391650803931
 20
823.533426711635
 11
1378.3071142717204
 21
823.533426711635
  0
ARC
  8
_0-1_計細線
  6
CONTINUOUS
 62
    3
 10
1387.7391650781863
 20
821.13342671163537
 40
0.5
 50
269.99999999999977
 51
359.99999999999966
  0
LINE
  8
_0-1_計細線
  6
CONTINUOUS
 62
    3
 10
1388.239165078186
 20
822.53342671163512
 11
1388.239165078186
 21
821.13342671163537
  0
ARC
  8
_0-1_計細線
  6
CONTINUOUS
 62
    3
 10
1377.3391650803931
 20
821.13342671163537
 40
0.5
 50
179.99999999999983
 51
269.99999999999977
  0
LINE
  8
_0-1_計細線
  6
CONTINUOUS
 62
    3
 10
1376.8391650803928
 20
822.53342671163512
 11
1376.8391650803928
 21
821.13342671163537
  0
ARC
  8
_0-1_計細線
  6
CONTINUOUS
 62
    3
 10
1385.239165078186
 20
819.63342671163514
 40
1
 50
89.999999999999915
 51
179.99999999999983
  0
LINE
  8
_0-1_計細線
  6
CONTINUOUS
 62
    3
 10
1385.239165078186
 20
820.6334267116348
 11
1387.7391650781863
 21
820.6334267116348
  0
ARC
  8
_0-1_計細線
  6
CONTINUOUS
 62
    3
 10
1379.8391650781866
 20
819.63342671163514
 40
1
 50
0
 51
89.999999999999915
  0
LINE
  8
_0-1_計細線
  6
CONTINUOUS
 62
    3
 10
1379.839165080394
 20
820.6334267116348
 11
1377.3391650803931
 21
820.6334267116348
  0
LINE
  8
_0-1_計細線
  6
CONTINUOUS
 62
    3
 10
1380.0391650792897
 20
824.53342671163466
 11
1385.0391650792897
 21
824.53342671163466
  0
LINE
  8
_0-1_計細線
  6
CONTINUOUS
 62
    3
 10
1384.2391650792893
 20
799.53342671163489
 11
1384.2391650781863
 21
819.63342671163514
  0
LINE
  8
_0-1_計細線
  6
CONTINUOUS
 62
    3
 10
1380.8391650792896
 20
799.53342671163489
 11
1380.8391650781857
 21
819.63342671163514
  0
LINE
  8
_0-1_計細線
  6
CONTINUOUS
 62
    3
 10
1380.8391650792896
 20
799.53342671163489
 11
1384.2391650792893
 21
799.53342671163489
  0
ARC
  8
_0-1_計細線
  6
CONTINUOUS
 62
    3
 10
1343.0391650799052
 20
822.53342671163512
 40
1
 50
89.999999999999915
 51
179.99999999999983
  0
ARC
  8
_0-1_計細線
  6
CONTINUOUS
 62
    3
 10
1343.5071142712329
 20
824.53342671163466
 40
1
 50
269.99999999999977
 51
330.00000000000057
  0
ARC
  8
_0-1_計細線
  6
CONTINUOUS
 62
    3
 10
1345.239165078802
 20
823.533426711635
 40
1
 50
89.999999999999915
 51
150.00000000002137
  0
LINE
  8
_0-1_計細線
  6
CONTINUOUS
 62
    3
 10
1343.0391650799052
 20
823.533426711635
 11
1343.5071142712329
 21
823.533426711635
  0
ARC
  8
_0-1_計細線
  6
CONTINUOUS
 62
    3
 10
1352.4391650776975
 20
822.53342671163512
 40
1
 50
0
 51
89.999999999999915
  0
ARC
  8
_0-1_計細線
  6
CONTINUOUS
 62
    3
 10
1351.9712158863701
 20
824.53342671163466
 40
1
 50
209.99999999999866
 51
269.99999999999977
  0
ARC
  8
_0-1_計細線
  6
CONTINUOUS
 62
    3
 10
1350.2391650788018
 20
823.533426711635
 40
1
 50
30.000000000004672
 51
89.999999999999915
  0
LINE
  8
_0-1_計細線
  6
CONTINUOUS
 62
    3
 10
1352.4391650776975
 20
823.533426711635
 11
1351.9712158863701
 21
823.533426711635
  0
ARC
  8
_0-1_計細線
  6
CONTINUOUS
 62
    3
 10
1342.5391650799054
 20
821.13342671163537
 40
0.5
 50
179.99999999999983
 51
269.99999999999977
  0
LINE
  8
_0-1_計細線
  6
CONTINUOUS
 62
    3
 10
1342.0391650799054
 20
822.53342671163512
 11
1342.0391650799054
 21
821.13342671163537
  0
ARC
  8
_0-1_計細線
  6
CONTINUOUS
 62
    3
 10
1352.9391650776984
 20
821.13342671163537
 40
0.5
 50
269.99999999999977
 51
359.99999999999966
  0
LINE
  8
_0-1_計細線
  6
CONTINUOUS
 62
    3
 10
1353.4391650776986
 20
822.53342671163512
 11
1353.4391650776986
 21
821.13342671163537
  0
ARC
  8
_0-1_計細線
  6
CONTINUOUS
 62
    3
 10
1345.0391650799054
 20
819.63342671163514
 40
1
 50
0
 51
89.999999999999915
  0
LINE
  8
_0-1_計細線
  6
CONTINUOUS
 62
    3
 10
1345.0391650799054
 20
820.6334267116348
 11
1342.5391650799054
 21
820.6334267116348
  0
ARC
  8
_0-1_計細線
  6
CONTINUOUS
 62
    3
 10
1350.439165079905
 20
819.63342671163514
 40
1
 50
89.999999999999915
 51
179.99999999999983
  0
LINE
  8
_0-1_計細線
  6
CONTINUOUS
 62
    3
 10
1350.4391650776977
 20
820.6334267116348
 11
1352.9391650776984
 21
820.6334267116348
  0
LINE
  8
_0-1_計細線
  6
CONTINUOUS
 62
    3
 10
1350.2391650788018
 20
824.53342671163466
 11
1345.239165078802
 21
824.53342671163466
  0
LINE
  8
_0-1_計細線
  6
CONTINUOUS
 62
    3
 10
1346.0391650788013
 20
799.53342671163489
 11
1346.0391650799052
 21
819.63342671163514
  0
LINE
  8
_0-1_計細線
  6
CONTINUOUS
 62
    3
 10
1349.4391650788018
 20
799.53342671163489
 11
1349.4391650799048
 21
819.63342671163514
  0
LINE
  8
_0-1_計細線
  6
CONTINUOUS
 62
    3
 10
1349.4391650788018
 20
799.53342671163489
 11
1346.0391650788013
 21
799.53342671163489
  0
LINE
  8
_0-1_計細線
  6
CONTINUOUS
 62
    3
 10
1349.4391650793536
 20
819.83342671163484
 11
1363.4391650793011
 21
819.83342671163484
  0
ARC
  8
_0-1_計細線
  6
CONTINUOUS
 62
    3
 10
1360.4391650792891
 20
822.53342671163512
 40
1
 50
89.999999999999915
 51
179.99999999999983
  0
ARC
  8
_0-1_計細線
  6
CONTINUOUS
 62
    3
 10
1360.9071142706168
 20
824.53342671163466
 40
1
 50
269.99999999999977
 51
330.00000000002666
  0
ARC
  8
_0-1_計細線
  6
CONTINUOUS
 62
    3
 10
1362.6391650781859
 20
823.533426711635
 40
1
 50
89.999999999999915
 51
149.99999999999534
  0
LINE
  8
_0-1_計細線
  6
CONTINUOUS
 62
    3
 10
1360.4391650792891
 20
823.533426711635
 11
1360.9071142706168
 21
823.533426711635
  0
ARC
  8
_0-1_計細線
  6
CONTINUOUS
 62
    3
 10
1369.8391650770825
 20
822.53342671163512
 40
1
 50
0
 51
89.999999999999915
  0
ARC
  8
_0-1_計細線
  6
CONTINUOUS
 62
    3
 10
1369.371215885755
 20
824.53342671163466
 40
1
 50
209.9999999999726
 51
269.99999999999977
  0
ARC
  8
_0-1_計細線
  6
CONTINUOUS
 62
    3
 10
1367.6391650781857
 20
823.533426711635
 40
1
 50
30.000000000004672
 51
89.999999999999915
  0
LINE
  8
_0-1_計細線
  6
CONTINUOUS
 62
    3
 10
1369.8391650770825
 20
823.533426711635
 11
1369.371215885755
 21
823.533426711635
  0
ARC
  8
_0-1_計細線
  6
CONTINUOUS
 62
    3
 10
1359.9391650792893
 20
821.13342671163537
 40
0.5
 50
179.99999999999983
 51
269.99999999999977
  0
LINE
  8
_0-1_計細線
  6
CONTINUOUS
 62
    3
 10
1359.4391650792893
 20
822.53342671163512
 11
1359.4391650792893
 21
821.13342671163537
  0
ARC
  8
_0-1_計細線
  6
CONTINUOUS
 62
    3
 10
1370.3391650770823
 20
821.13342671163537
 40
0.5
 50
269.99999999999977
 51
359.99999999999966
  0
LINE
  8
_0-1_計細線
  6
CONTINUOUS
 62
    3
 10
1370.8391650770825
 20
822.53342671163512
 11
1370.8391650770825
 21
821.13342671163537
  0
ARC
  8
_0-1_計細線
  6
CONTINUOUS
 62
    3
 10
1362.4391650792893
 20
819.63342671163514
 40
1
 50
0
 51
89.999999999999915
  0
LINE
  8
_0-1_計細線
  6
CONTINUOUS
 62
    3
 10
1362.4391650792893
 20
820.6334267116348
 11
1359.9391650792893
 21
820.6334267116348
  0
ARC
  8
_0-1_計細線
  6
CONTINUOUS
 62
    3
 10
1367.8391650792898
 20
819.63342671163514
 40
1
 50
89.999999999999915
 51
179.99999999999983
  0
LINE
  8
_0-1_計細線
  6
CONTINUOUS
 62
    3
 10
1367.8391650770825
 20
820.6334267116348
 11
1370.3391650770823
 21
820.6334267116348
  0
LINE
  8
_0-1_計細線
  6
CONTINUOUS
 62
    3
 10
1367.6391650781857
 20
824.53342671163466
 11
1362.6391650781859
 21
824.53342671163466
  0
LINE
  8
_0-1_計細線
  6
CONTINUOUS
 62
    3
 10
1363.4391650781861
 20
799.53342671163489
 11
1363.4391650792902
 21
819.63342671163514
  0
LINE
  8
_0-1_計細線
  6
CONTINUOUS
 62
    3
 10
1366.8391650781857
 20
799.53342671163489
 11
1366.8391650792898
 21
819.63342671163514
  0
LINE
  8
_0-1_計細線
  6
CONTINUOUS
 62
    3
 10
1366.8391650781857
 20
799.53342671163489
 11
1363.4391650781861
 21
799.53342671163489
  0
LINE
  8
_0-1_計細線
  6
CONTINUOUS
 62
    3
 10
1349.4391650793536
 20
806.83342671163507
 11
1363.4391650785872
 21
806.83342671163507
  0
ARC
  8
_0-1_計細線
  6
CONTINUOUS
 62
    3
 10
1325.6391650805206
 20
822.53342671163512
 40
1
 50
89.999999999999915
 51
179.99999999999983
  0
ARC
  8
_0-1_計細線
  6
CONTINUOUS
 62
    3
 10
1326.1071142718481
 20
824.53342671163466
 40
1
 50
269.99999999999977
 51
330.00000000000057
  0
ARC
  8
_0-1_計細線
  6
CONTINUOUS
 62
    3
 10
1327.8391650794169
 20
823.533426711635
 40
1
 50
89.999999999999915
 51
150.00000000002137
  0
LINE
  8
_0-1_計細線
  6
CONTINUOUS
 62
    3
 10
1325.6391650805206
 20
823.533426711635
 11
1326.1071142718481
 21
823.533426711635
  0
ARC
  8
_0-1_計細線
  6
CONTINUOUS
 62
    3
 10
1335.0391650783129
 20
822.53342671163512
 40
1
 50
0
 51
89.999999999999915
  0
ARC
  8
_0-1_計細線
  6
CONTINUOUS
 62
    3
 10
1334.5712158869851
 20
824.53342671163466
 40
1
 50
209.99999999999866
 51
269.99999999999977
  0
ARC
  8
_0-1_計細線
  6
CONTINUOUS
 62
    3
 10
1332.8391650794172
 20
823.533426711635
 40
1
 50
30.000000000004672
 51
89.999999999999915
  0
LINE
  8
_0-1_計細線
  6
CONTINUOUS
 62
    3
 10
1335.0391650783129
 20
823.533426711635
 11
1334.5712158869851
 21
823.533426711635
  0
ARC
  8
_0-1_計細線
  6
CONTINUOUS
 62
    3
 10
1325.1391650805203
 20
821.13342671163537
 40
0.5
 50
179.99999999999983
 51
269.99999999999977
  0
LINE
  8
_0-1_計細線
  6
CONTINUOUS
 62
    3
 10
1324.6391650805206
 20
822.53342671163512
 11
1324.6391650805206
 21
821.13342671163537
  0
ARC
  8
_0-1_計細線
  6
CONTINUOUS
 62
    3
 10
1335.5391650783138
 20
821.13342671163537
 40
0.5
 50
269.99999999999977
 51
359.99999999999966
  0
LINE
  8
_0-1_計細線
  6
CONTINUOUS
 62
    3
 10
1336.0391650783138
 20
822.53342671163512
 11
1336.0391650783138
 21
821.13342671163537
  0
ARC
  8
_0-1_計細線
  6
CONTINUOUS
 62
    3
 10
1327.6391650805206
 20
819.63342671163514
 40
1
 50
0
 51
89.999999999999915
  0
LINE
  8
_0-1_計細線
  6
CONTINUOUS
 62
    3
 10
1327.6391650805206
 20
820.6334267116348
 11
1325.1391650805203
 21
820.6334267116348
  0
ARC
  8
_0-1_計細線
  6
CONTINUOUS
 62
    3
 10
1333.03916508052
 20
819.63342671163514
 40
1
 50
89.999999999999915
 51
179.99999999999983
  0
LINE
  8
_0-1_計細線
  6
CONTINUOUS
 62
    3
 10
1333.0391650783126
 20
820.6334267116348
 11
1335.5391650783138
 21
820.6334267116348
  0
LINE
  8
_0-1_計細線
  6
CONTINUOUS
 62
    3
 10
1332.8391650794172
 20
824.53342671163466
 11
1327.8391650794169
 21
824.53342671163466
  0
LINE
  8
_0-1_計細線
  6
CONTINUOUS
 62
    3
 10
1328.6391650794162
 20
799.53342671163489
 11
1328.6391650805206
 21
819.63342671163514
  0
LINE
  8
_0-1_計細線
  6
CONTINUOUS
 62
    3
 10
1332.039165079417
 20
799.53342671163489
 11
1332.0391650805202
 21
819.63342671163514
  0
LINE
  8
_0-1_計細線
  6
CONTINUOUS
 62
    3
 10
1332.039165079417
 20
799.53342671163489
 11
1328.6391650794162
 21
799.53342671163489
  0
LINE
  8
_0-1_計細線
  6
CONTINUOUS
 62
    3
 10
1332.0391650799691
 20
819.83342671163484
 11
1346.0391650799161
 21
819.83342671163484
  0
LINE
  8
_0-1_計細線
  6
CONTINUOUS
 62
    3
 10
1332.0391650799691
 20
806.83342671163507
 11
1346.0391650792023
 21
806.83342671163507
  0
ARC
  8
_0-1_計細線
  6
CONTINUOUS
 62
    3
 10
1308.2391650811358
 20
822.53342671163512
 40
1
 50
89.999999999999915
 51
179.99999999999983
  0
ARC
  8
_0-1_計細線
  6
CONTINUOUS
 62
    3
 10
1308.7071142724631
 20
824.53342671163466
 40
1
 50
269.99999999999977
 51
330.00000000000057
  0
ARC
  8
_0-1_計細線
  6
CONTINUOUS
 62
    3
 10
1310.4391650800324
 20
823.533426711635
 40
1
 50
89.999999999999915
 51
150.00000000002137
  0
LINE
  8
_0-1_計細線
  6
CONTINUOUS
 62
    3
 10
1308.2391650811358
 20
823.533426711635
 11
1308.7071142724631
 21
823.533426711635
  0
ARC
  8
_0-1_計細線
  6
CONTINUOUS
 62
    3
 10
1317.639165078928
 20
822.53342671163512
 40
1
 50
0
 51
89.999999999999915
  0
ARC
  8
_0-1_計細線
  6
CONTINUOUS
 62
    3
 10
1317.1712158876005
 20
824.53342671163466
 40
1
 50
209.99999999999866
 51
269.99999999999977
  0
ARC
  8
_0-1_計細線
  6
CONTINUOUS
 62
    3
 10
1315.4391650800324
 20
823.533426711635
 40
1
 50
30.000000000004672
 51
89.999999999999915
  0
LINE
  8
_0-1_計細線
  6
CONTINUOUS
 62
    3
 10
1317.639165078928
 20
823.533426711635
 11
1317.1712158876005
 21
823.533426711635
  0
ARC
  8
_0-1_計細線
  6
CONTINUOUS
 62
    3
 10
1307.7391650811358
 20
821.13342671163537
 40
0.5
 50
179.99999999999983
 51
269.99999999999977
  0
LINE
  8
_0-1_計細線
  6
CONTINUOUS
 62
    3
 10
1307.2391650811355
 20
822.53342671163512
 11
1307.2391650811355
 21
821.13342671163537
  0
ARC
  8
_0-1_計細線
  6
CONTINUOUS
 62
    3
 10
1318.139165078929
 20
821.13342671163537
 40
0.5
 50
269.99999999999977
 51
359.99999999999966
  0
LINE
  8
_0-1_計細線
  6
CONTINUOUS
 62
    3
 10
1318.6391650789287
 20
822.53342671163512
 11
1318.6391650789287
 21
821.13342671163537
  0
ARC
  8
_0-1_計細線
  6
CONTINUOUS
 62
    3
 10
1310.2391650811355
 20
819.63342671163514
 40
1
 50
0
 51
89.999999999999915
  0
LINE
  8
_0-1_計細線
  6
CONTINUOUS
 62
    3
 10
1310.2391650811355
 20
820.6334267116348
 11
1307.7391650811358
 21
820.6334267116348
  0
ARC
  8
_0-1_計細線
  6
CONTINUOUS
 62
    3
 10
1315.6391650811354
 20
819.63342671163514
 40
1
 50
89.999999999999915
 51
179.99999999999983
  0
LINE
  8
_0-1_計細線
  6
CONTINUOUS
 62
    3
 10
1315.639165078928
 20
820.6334267116348
 11
1318.139165078929
 21
820.6334267116348
  0
LINE
  8
_0-1_計細線
  6
CONTINUOUS
 62
    3
 10
1315.4391650800324
 20
824.53342671163466
 11
1310.4391650800324
 21
824.53342671163466
  0
LINE
  8
_0-1_計細線
  6
CONTINUOUS
 62
    3
 10
1311.2391650800316
 20
799.53342671163489
 11
1311.2391650811358
 21
819.63342671163514
  0
LINE
  8
_0-1_計細線
  6
CONTINUOUS
 62
    3
 10
1314.6391650800319
 20
799.53342671163489
 11
1314.6391650811354
 21
819.63342671163514
  0
LINE
  8
_0-1_計細線
  6
CONTINUOUS
 62
    3
 10
1314.6391650800319
 20
799.53342671163489
 11
1311.2391650800316
 21
799.53342671163489
  0
LINE
  8
_0-1_計細線
  6
CONTINUOUS
 62
    3
 10
1314.6391650805842
 20
819.83342671163484
 11
1328.6391650805315
 21
819.83342671163484
  0
LINE
  8
_0-1_計細線
  6
CONTINUOUS
 62
    3
 10
1314.6391650805842
 20
806.83342671163507
 11
1328.6391650798173
 21
806.83342671163507
  0
ARC
  8
_0-1_計細線
  6
CONTINUOUS
 62
    3
 10
1290.8391650817507
 20
822.53342671163512
 40
1
 50
89.999999999999915
 51
179.99999999999983
  0
ARC
  8
_0-1_計細線
  6
CONTINUOUS
 62
    3
 10
1291.3071142730785
 20
824.53342671163466
 40
1
 50
269.99999999999977
 51
330.00000000000057
  0
ARC
  8
_0-1_計細線
  6
CONTINUOUS
 62
    3
 10
1293.0391650806475
 20
823.533426711635
 40
1
 50
89.999999999999915
 51
150.00000000002137
  0
LINE
  8
_0-1_計細線
  6
CONTINUOUS
 62
    3
 10
1290.8391650817507
 20
823.533426711635
 11
1291.3071142730785
 21
823.533426711635
  0
ARC
  8
_0-1_計細線
  6
CONTINUOUS
 62
    3
 10
1300.239165079543
 20
822.53342671163512
 40
1
 50
0
 51
89.999999999999915
  0
ARC
  8
_0-1_計細線
  6
CONTINUOUS
 62
    3
 10
1299.7712158882157
 20
824.53342671163466
 40
1
 50
209.99999999999866
 51
269.99999999999977
  0
ARC
  8
_0-1_計細線
  6
CONTINUOUS
 62
    3
 10
1298.0391650806473
 20
823.533426711635
 40
1
 50
30.000000000004672
 51
89.999999999999915
  0
LINE
  8
_0-1_計細線
  6
CONTINUOUS
 62
    3
 10
1300.239165079543
 20
823.533426711635
 11
1299.7712158882157
 21
823.533426711635
  0
ARC
  8
_0-1_計細線
  6
CONTINUOUS
 62
    3
 10
1290.3391650817509
 20
821.13342671163537
 40
0.5
 50
179.99999999999983
 51
269.99999999999977
  0
LINE
  8
_0-1_計細線
  6
CONTINUOUS
 62
    3
 10
1289.8391650817509
 20
822.53342671163512
 11
1289.8391650817509
 21
821.13342671163537
  0
ARC
  8
_0-1_計細線
  6
CONTINUOUS
 62
    3
 10
1300.7391650795439
 20
821.13342671163537
 40
0.5
 50
269.99999999999977
 51
359.99999999999966
  0
LINE
  8
_0-1_計細線
  6
CONTINUOUS
 62
    3
 10
1301.2391650795441
 20
822.53342671163512
 11
1301.2391650795441
 21
821.13342671163537
  0
ARC
  8
_0-1_計細線
  6
CONTINUOUS
 62
    3
 10
1292.8391650817509
 20
819.63342671163514
 40
1
 50
0
 51
89.999999999999915
  0
LINE
  8
_0-1_計細線
  6
CONTINUOUS
 62
    3
 10
1292.8391650817509
 20
820.6334267116348
 11
1290.3391650817509
 21
820.6334267116348
  0
ARC
  8
_0-1_計細線
  6
CONTINUOUS
 62
    3
 10
1298.2391650817506
 20
819.63342671163514
 40
1
 50
89.999999999999915
 51
179.99999999999983
  0
LINE
  8
_0-1_計細線
  6
CONTINUOUS
 62
    3
 10
1298.2391650795432
 20
820.6334267116348
 11
1300.7391650795439
 21
820.6334267116348
  0
LINE
  8
_0-1_計細線
  6
CONTINUOUS
 62
    3
 10
1298.0391650806473
 20
824.53342671163466
 11
1293.0391650806475
 21
824.53342671163466
  0
LINE
  8
_0-1_計細線
  6
CONTINUOUS
 62
    3
 10
1293.8391650806468
 20
799.53342671163489
 11
1293.8391650817507
 21
819.63342671163514
  0
LINE
  8
_0-1_計細線
  6
CONTINUOUS
 62
    3
 10
1297.2391650806474
 20
799.53342671163489
 11
1297.2391650817503
 21
819.63342671163514
  0
LINE
  8
_0-1_計細線
  6
CONTINUOUS
 62
    3
 10
1297.2391650806474
 20
799.53342671163489
 11
1293.8391650806468
 21
799.53342671163489
  0
LINE
  8
_0-1_計細線
  6
CONTINUOUS
 62
    3
 10
1297.2391650811992
 20
819.83342671163484
 11
1311.2391650811467
 21
819.83342671163484
  0
LINE
  8
_0-1_計細線
  6
CONTINUOUS
 62
    3
 10
1297.2391650811992
 20
806.83342671163507
 11
1311.2391650804327
 21
806.83342671163507
  0
ARC
  8
_0-1_計細線
  6
CONTINUOUS
 62
    3
 10
1273.4391650823661
 20
822.53342671163512
 40
1
 50
89.999999999999915
 51
179.99999999999983
  0
ARC
  8
_0-1_計細線
  6
CONTINUOUS
 62
    3
 10
1273.9071142736937
 20
824.53342671163466
 40
1
 50
269.99999999999977
 51
330.00000000000057
  0
ARC
  8
_0-1_計細線
  6
CONTINUOUS
 62
    3
 10
1275.6391650812625
 20
823.533426711635
 40
1
 50
89.999999999999915
 51
150.00000000002137
  0
LINE
  8
_0-1_計細線
  6
CONTINUOUS
 62
    3
 10
1273.4391650823661
 20
823.533426711635
 11
1273.9071142736937
 21
823.533426711635
  0
ARC
  8
_0-1_計細線
  6
CONTINUOUS
 62
    3
 10
1282.8391650801584
 20
822.53342671163512
 40
1
 50
0
 51
89.999999999999915
  0
ARC
  8
_0-1_計細線
  6
CONTINUOUS
 62
    3
 10
1282.3712158888306
 20
824.53342671163466
 40
1
 50
209.99999999999866
 51
269.99999999999977
  0
ARC
  8
_0-1_計細線
  6
CONTINUOUS
 62
    3
 10
1280.6391650812627
 20
823.533426711635
 40
1
 50
30.000000000004672
 51
89.999999999999915
  0
LINE
  8
_0-1_計細線
  6
CONTINUOUS
 62
    3
 10
1282.8391650801584
 20
823.533426711635
 11
1282.3712158888306
 21
823.533426711635
  0
ARC
  8
_0-1_計細線
  6
CONTINUOUS
 62
    3
 10
1272.9391650823659
 20
821.13342671163537
 40
0.5
 50
179.99999999999983
 51
269.99999999999977
  0
LINE
  8
_0-1_計細線
  6
CONTINUOUS
 62
    3
 10
1272.4391650823661
 20
822.53342671163512
 11
1272.4391650823661
 21
821.13342671163537
  0
ARC
  8
_0-1_計細線
  6
CONTINUOUS
 62
    3
 10
1283.3391650801593
 20
821.13342671163537
 40
0.5
 50
269.99999999999977
 51
359.99999999999966
  0
LINE
  8
_0-1_計細線
  6
CONTINUOUS
 62
    3
 10
1283.8391650801593
 20
822.53342671163512
 11
1283.8391650801593
 21
821.13342671163537
  0
ARC
  8
_0-1_計細線
  6
CONTINUOUS
 62
    3
 10
1275.4391650823661
 20
819.63342671163514
 40
1
 50
0
 51
89.999999999999915
  0
LINE
  8
_0-1_計細線
  6
CONTINUOUS
 62
    3
 10
1275.4391650823661
 20
820.6334267116348
 11
1272.9391650823659
 21
820.6334267116348
  0
ARC
  8
_0-1_計細線
  6
CONTINUOUS
 62
    3
 10
1280.8391650823655
 20
819.63342671163514
 40
1
 50
89.999999999999915
 51
179.99999999999983
  0
LINE
  8
_0-1_計細線
  6
CONTINUOUS
 62
    3
 10
1280.8391650801582
 20
820.6334267116348
 11
1283.3391650801593
 21
820.6334267116348
  0
LINE
  8
_0-1_計細線
  6
CONTINUOUS
 62
    3
 10
1280.6391650812627
 20
824.53342671163466
 11
1275.6391650812625
 21
824.53342671163466
  0
LINE
  8
_0-1_計細線
  6
CONTINUOUS
 62
    3
 10
1276.4391650812618
 20
799.53342671163489
 11
1276.4391650823661
 21
819.63342671163514
  0
LINE
  8
_0-1_計細線
  6
CONTINUOUS
 62
    3
 10
1279.8391650812625
 20
799.53342671163489
 11
1279.8391650823658
 21
819.63342671163514
  0
LINE
  8
_0-1_計細線
  6
CONTINUOUS
 62
    3
 10
1279.8391650812625
 20
799.53342671163489
 11
1276.4391650812618
 21
799.53342671163489
  0
LINE
  8
_0-1_計細線
  6
CONTINUOUS
 62
    3
 10
1279.8391650818146
 20
819.83342671163484
 11
1293.8391650817616
 21
819.83342671163484
  0
LINE
  8
_0-1_計細線
  6
CONTINUOUS
 62
    3
 10
1279.8391650818146
 20
806.83342671163507
 11
1293.8391650810479
 21
806.83342671163507
  0
ARC
  8
_0-1_計細線
  6
CONTINUOUS
 62
    3
 10
1256.0391650829813
 20
822.53342671163512
 40
1
 50
89.999999999999915
 51
179.99999999999983
  0
ARC
  8
_0-1_計細線
  6
CONTINUOUS
 62
    3
 10
1256.5071142743086
 20
824.53342671163466
 40
1
 50
269.99999999999977
 51
330.00000000000057
  0
ARC
  8
_0-1_計細線
  6
CONTINUOUS
 62
    3
 10
1258.2391650818779
 20
823.533426711635
 40
1
 50
89.999999999999915
 51
150.00000000002137
  0
LINE
  8
_0-1_計細線
  6
CONTINUOUS
 62
    3
 10
1256.0391650829813
 20
823.533426711635
 11
1256.5071142743086
 21
823.533426711635
  0
ARC
  8
_0-1_計細線
  6
CONTINUOUS
 62
    3
 10
1265.4391650807736
 20
822.53342671163512
 40
1
 50
0
 51
89.999999999999915
  0
ARC
  8
_0-1_計細線
  6
CONTINUOUS
 62
    3
 10
1264.9712158894461
 20
824.53342671163466
 40
1
 50
209.99999999999866
 51
269.99999999999977
  0
ARC
  8
_0-1_計細線
  6
CONTINUOUS
 62
    3
 10
1263.2391650818779
 20
823.533426711635
 40
1
 50
30.000000000004672
 51
89.999999999999915
  0
LINE
  8
_0-1_計細線
  6
CONTINUOUS
 62
    3
 10
1265.4391650807736
 20
823.533426711635
 11
1264.9712158894461
 21
823.533426711635
  0
ARC
  8
_0-1_計細線
  6
CONTINUOUS
 62
    3
 10
1255.5391650829813
 20
821.13342671163537
 40
0.5
 50
179.99999999999983
 51
269.99999999999977
  0
LINE
  8
_0-1_計細線
  6
CONTINUOUS
 62
    3
 10
1255.0391650829811
 20
822.53342671163512
 11
1255.0391650829811
 21
821.13342671163537
  0
ARC
  8
_0-1_計細線
  6
CONTINUOUS
 62
    3
 10
1265.9391650807745
 20
821.13342671163537
 40
0.5
 50
269.99999999999977
 51
359.99999999999966
  0
LINE
  8
_0-1_計細線
  6
CONTINUOUS
 62
    3
 10
1266.4391650807743
 20
822.53342671163512
 11
1266.4391650807743
 21
821.13342671163537
  0
ARC
  8
_0-1_計細線
  6
CONTINUOUS
 62
    3
 10
1258.0391650829811
 20
819.63342671163514
 40
1
 50
0
 51
89.999999999999915
  0
LINE
  8
_0-1_計細線
  6
CONTINUOUS
 62
    3
 10
1258.0391650829811
 20
820.6334267116348
 11
1255.5391650829813
 21
820.6334267116348
  0
ARC
  8
_0-1_計細線
  6
CONTINUOUS
 62
    3
 10
1263.4391650829809
 20
819.63342671163514
 40
1
 50
89.999999999999915
 51
179.99999999999983
  0
LINE
  8
_0-1_計細線
  6
CONTINUOUS
 62
    3
 10
1263.4391650807736
 20
820.6334267116348
 11
1265.9391650807745
 21
820.6334267116348
  0
LINE
  8
_0-1_計細線
  6
CONTINUOUS
 62
    3
 10
1263.2391650818779
 20
824.53342671163466
 11
1258.2391650818779
 21
824.53342671163466
  0
LINE
  8
_0-1_計細線
  6
CONTINUOUS
 62
    3
 10
1259.0391650818772
 20
799.53342671163489
 11
1259.0391650829813
 21
819.63342671163514
  0
LINE
  8
_0-1_計細線
  6
CONTINUOUS
 62
    3
 10
1262.4391650818775
 20
799.53342671163489
 11
1262.4391650829809
 21
819.63342671163514
  0
LINE
  8
_0-1_計細線
  6
CONTINUOUS
 62
    3
 10
1262.4391650818775
 20
799.53342671163489
 11
1259.0391650818772
 21
799.53342671163489
  0
LINE
  8
_0-1_計細線
  6
CONTINUOUS
 62
    3
 10
1262.4391650824298
 20
819.83342671163484
 11
1276.439165082377
 21
819.83342671163484
  0
LINE
  8
_0-1_計細線
  6
CONTINUOUS
 62
    3
 10
1262.4391650824298
 20
806.83342671163507
 11
1276.4391650816628
 21
806.83342671163507
  0
ARC
  8
_0-1_計細線
  6
CONTINUOUS
 62
    3
 10
1238.6391650835963
 20
822.53342671163512
 40
1
 50
89.999999999999915
 51
179.99999999999983
  0
ARC
  8
_0-1_計細線
  6
CONTINUOUS
 62
    3
 10
1239.107114274924
 20
824.53342671163466
 40
1
 50
269.99999999999977
 51
330.00000000000057
  0
ARC
  8
_0-1_計細線
  6
CONTINUOUS
 62
    3
 10
1240.8391650824931
 20
823.533426711635
 40
1
 50
89.999999999999915
 51
150.00000000002137
  0
LINE
  8
_0-1_計細線
  6
CONTINUOUS
 62
    3
 10
1238.6391650835963
 20
823.533426711635
 11
1239.107114274924
 21
823.533426711635
  0
ARC
  8
_0-1_計細線
  6
CONTINUOUS
 62
    3
 10
1248.0391650813885
 20
822.53342671163512
 40
1
 50
0
 51
89.999999999999915
  0
ARC
  8
_0-1_計細線
  6
CONTINUOUS
 62
    3
 10
1247.5712158900612
 20
824.53342671163466
 40
1
 50
209.99999999999866
 51
269.99999999999977
  0
ARC
  8
_0-1_計細線
  6
CONTINUOUS
 62
    3
 10
1245.8391650824929
 20
823.533426711635
 40
1
 50
30.000000000004672
 51
89.999999999999915
  0
LINE
  8
_0-1_計細線
  6
CONTINUOUS
 62
    3
 10
1248.0391650813885
 20
823.533426711635
 11
1247.5712158900612
 21
823.533426711635
  0
ARC
  8
_0-1_計細線
  6
CONTINUOUS
 62
    3
 10
1238.1391650835965
 20
821.13342671163537
 40
0.5
 50
179.99999999999983
 51
269.99999999999977
  0
LINE
  8
_0-1_計細線
  6
CONTINUOUS
 62
    3
 10
1237.6391650835965
 20
822.53342671163512
 11
1237.6391650835965
 21
821.13342671163537
  0
ARC
  8
_0-1_計細線
  6
CONTINUOUS
 62
    3
 10
1248.5391650813895
 20
821.13342671163537
 40
0.5
 50
269.99999999999977
 51
359.99999999999966
  0
LINE
  8
_0-1_計細線
  6
CONTINUOUS
 62
    3
 10
1249.0391650813897
 20
822.53342671163512
 11
1249.0391650813897
 21
821.13342671163537
  0
ARC
  8
_0-1_計細線
  6
CONTINUOUS
 62
    3
 10
1240.6391650835965
 20
819.63342671163514
 40
1
 50
0
 51
89.999999999999915
  0
LINE
  8
_0-1_計細線
  6
CONTINUOUS
 62
    3
 10
1240.6391650835965
 20
820.6334267116348
 11
1238.1391650835965
 21
820.6334267116348
  0
ARC
  8
_0-1_計細線
  6
CONTINUOUS
 62
    3
 10
1246.0391650835961
 20
819.63342671163514
 40
1
 50
89.999999999999915
 51
179.99999999999983
  0
LINE
  8
_0-1_計細線
  6
CONTINUOUS
 62
    3
 10
1246.0391650813888
 20
820.6334267116348
 11
1248.5391650813895
 21
820.6334267116348
  0
LINE
  8
_0-1_計細線
  6
CONTINUOUS
 62
    3
 10
1245.8391650824929
 20
824.53342671163466
 11
1240.8391650824931
 21
824.53342671163466
  0
LINE
  8
_0-1_計細線
  6
CONTINUOUS
 62
    3
 10
1241.6391650824924
 20
799.53342671163489
 11
1241.6391650835963
 21
819.63342671163514
  0
LINE
  8
_0-1_計細線
  6
CONTINUOUS
 62
    3
 10
1245.0391650824929
 20
799.53342671163489
 11
1245.0391650835959
 21
819.63342671163514
  0
LINE
  8
_0-1_計細線
  6
CONTINUOUS
 62
    3
 10
1245.0391650824929
 20
799.53342671163489
 11
1241.6391650824924
 21
799.53342671163489
  0
LINE
  8
_0-1_計細線
  6
CONTINUOUS
 62
    3
 10
1245.0391650830447
 20
819.83342671163484
 11
1259.0391650829922
 21
819.83342671163484
  0
LINE
  8
_0-1_計細線
  6
CONTINUOUS
 62
    3
 10
1245.0391650830447
 20
806.83342671163507
 11
1259.0391650822783
 21
806.83342671163507
  0
ARC
  8
_0-1_計細線
  6
CONTINUOUS
 62
    3
 10
1221.2391650842117
 20
822.53342671163512
 40
1
 50
89.999999999999915
 51
179.99999999999983
  0
ARC
  8
_0-1_計細線
  6
CONTINUOUS
 62
    3
 10
1221.7071142755392
 20
824.53342671163466
 40
1
 50
269.99999999999977
 51
330.00000000000057
  0
ARC
  8
_0-1_計細線
  6
CONTINUOUS
 62
    3
 10
1223.439165083108
 20
823.533426711635
 40
1
 50
89.999999999999915
 51
150.00000000002137
  0
LINE
  8
_0-1_計細線
  6
CONTINUOUS
 62
    3
 10
1221.2391650842117
 20
823.533426711635
 11
1221.7071142755392
 21
823.533426711635
  0
ARC
  8
_0-1_計細線
  6
CONTINUOUS
 62
    3
 10
1230.639165082004
 20
822.53342671163512
 40
1
 50
0
 51
89.999999999999915
  0
ARC
  8
_0-1_計細線
  6
CONTINUOUS
 62
    3
 10
1230.1712158906762
 20
824.53342671163466
 40
1
 50
209.99999999999866
 51
269.99999999999977
  0
ARC
  8
_0-1_計細線
  6
CONTINUOUS
 62
    3
 10
1228.4391650831083
 20
823.533426711635
 40
1
 50
30.000000000004672
 51
89.999999999999915
  0
LINE
  8
_0-1_計細線
  6
CONTINUOUS
 62
    3
 10
1230.639165082004
 20
823.533426711635
 11
1230.1712158906762
 21
823.533426711635
  0
ARC
  8
_0-1_計細線
  6
CONTINUOUS
 62
    3
 10
1220.7391650842114
 20
821.13342671163537
 40
0.5
 50
179.99999999999983
 51
269.99999999999977
  0
LINE
  8
_0-1_計細線
  6
CONTINUOUS
 62
    3
 10
1220.2391650842117
 20
822.53342671163512
 11
1220.2391650842117
 21
821.13342671163537
  0
ARC
  8
_0-1_計細線
  6
CONTINUOUS
 62
    3
 10
1231.1391650820049
 20
821.13342671163537
 40
0.5
 50
269.99999999999977
 51
359.99999999999966
  0
LINE
  8
_0-1_計細線
  6
CONTINUOUS
 62
    3
 10
1231.6391650820049
 20
822.53342671163512
 11
1231.6391650820049
 21
821.13342671163537
  0
ARC
  8
_0-1_計細線
  6
CONTINUOUS
 62
    3
 10
1223.2391650842117
 20
819.63342671163514
 40
1
 50
0
 51
89.999999999999915
  0
LINE
  8
_0-1_計細線
  6
CONTINUOUS
 62
    3
 10
1223.2391650842117
 20
820.6334267116348
 11
1220.7391650842114
 21
820.6334267116348
  0
ARC
  8
_0-1_計細線
  6
CONTINUOUS
 62
    3
 10
1228.6391650842111
 20
819.63342671163514
 40
1
 50
89.999999999999915
 51
179.99999999999983
  0
LINE
  8
_0-1_計細線
  6
CONTINUOUS
 62
    3
 10
1228.6391650820037
 20
820.6334267116348
 11
1231.1391650820049
 21
820.6334267116348
  0
LINE
  8
_0-1_計細線
  6
CONTINUOUS
 62
    3
 10
1228.4391650831083
 20
824.53342671163466
 11
1223.439165083108
 21
824.53342671163466
  0
LINE
  8
_0-1_計細線
  6
CONTINUOUS
 62
    3
 10
1224.2391650831073
 20
799.53342671163489
 11
1224.2391650842117
 21
819.63342671163514
  0
LINE
  8
_0-1_計細線
  6
CONTINUOUS
 62
    3
 10
1227.6391650831081
 20
799.53342671163489
 11
1227.6391650842113
 21
819.63342671163514
  0
LINE
  8
_0-1_計細線
  6
CONTINUOUS
 62
    3
 10
1227.6391650831081
 20
799.53342671163489
 11
1224.2391650831073
 21
799.53342671163489
  0
LINE
  8
_0-1_計細線
  6
CONTINUOUS
 62
    3
 10
1227.6391650836601
 20
819.83342671163484
 11
1241.6391650836072
 21
819.83342671163484
  0
LINE
  8
_0-1_計細線
  6
CONTINUOUS
 62
    3
 10
1227.6391650836601
 20
806.83342671163507
 11
1241.6391650828934
 21
806.83342671163507
  0
ARC
  8
_0-1_計細線
  6
CONTINUOUS
 62
    3
 10
1203.8391650848268
 20
822.53342671163512
 40
1
 50
89.999999999999915
 51
179.99999999999983
  0
ARC
  8
_0-1_計細線
  6
CONTINUOUS
 62
    3
 10
1204.3071142761542
 20
824.53342671163466
 40
1
 50
269.99999999999977
 51
330.00000000000057
  0
ARC
  8
_0-1_計細線
  6
CONTINUOUS
 62
    3
 10
1206.0391650837234
 20
823.533426711635
 40
1
 50
89.999999999999915
 51
150.00000000002137
  0
LINE
  8
_0-1_計細線
  6
CONTINUOUS
 62
    3
 10
1203.8391650848268
 20
823.533426711635
 11
1204.3071142761542
 21
823.533426711635
  0
ARC
  8
_0-1_計細線
  6
CONTINUOUS
 62
    3
 10
1213.2391650826191
 20
822.53342671163512
 40
1
 50
0
 51
89.999999999999915
  0
ARC
  8
_0-1_計細線
  6
CONTINUOUS
 62
    3
 10
1212.7712158912916
 20
824.53342671163466
 40
1
 50
209.99999999999866
 51
269.99999999999977
  0
ARC
  8
_0-1_計細線
  6
CONTINUOUS
 62
    3
 10
1211.0391650837234
 20
823.533426711635
 40
1
 50
30.000000000004672
 51
89.999999999999915
  0
LINE
  8
_0-1_計細線
  6
CONTINUOUS
 62
    3
 10
1213.2391650826191
 20
823.533426711635
 11
1212.7712158912916
 21
823.533426711635
  0
ARC
  8
_0-1_計細線
  6
CONTINUOUS
 62
    3
 10
1203.3391650848268
 20
821.13342671163537
 40
0.5
 50
179.99999999999983
 51
269.99999999999977
  0
LINE
  8
_0-1_計細線
  6
CONTINUOUS
 62
    3
 10
1202.8391650848266
 20
822.53342671163512
 11
1202.8391650848266
 21
821.13342671163537
  0
ARC
  8
_0-1_計細線
  6
CONTINUOUS
 62
    3
 10
1213.73916508262
 20
821.13342671163537
 40
0.5
 50
269.99999999999977
 51
359.99999999999966
  0
LINE
  8
_0-1_計細線
  6
CONTINUOUS
 62
    3
 10
1214.2391650826198
 20
822.53342671163512
 11
1214.2391650826198
 21
821.13342671163537
  0
ARC
  8
_0-1_計細線
  6
CONTINUOUS
 62
    3
 10
1205.8391650848266
 20
819.63342671163514
 40
1
 50
0
 51
89.999999999999915
  0
LINE
  8
_0-1_計細線
  6
CONTINUOUS
 62
    3
 10
1205.8391650848266
 20
820.6334267116348
 11
1203.3391650848268
 21
820.6334267116348
  0
ARC
  8
_0-1_計細線
  6
CONTINUOUS
 62
    3
 10
1211.2391650848265
 20
819.63342671163514
 40
1
 50
89.999999999999915
 51
179.99999999999983
  0
LINE
  8
_0-1_計細線
  6
CONTINUOUS
 62
    3
 10
1211.2391650826191
 20
820.6334267116348
 11
1213.73916508262
 21
820.6334267116348
  0
LINE
  8
_0-1_計細線
  6
CONTINUOUS
 62
    3
 10
1211.0391650837234
 20
824.53342671163466
 11
1206.0391650837234
 21
824.53342671163466
  0
LINE
  8
_0-1_計細線
  6
CONTINUOUS
 62
    3
 10
1206.8391650837227
 20
799.53342671163489
 11
1206.8391650848268
 21
819.63342671163514
  0
LINE
  8
_0-1_計細線
  6
CONTINUOUS
 62
    3
 10
1210.239165083723
 20
799.53342671163489
 11
1210.2391650848265
 21
819.63342671163514
  0
LINE
  8
_0-1_計細線
  6
CONTINUOUS
 62
    3
 10
1210.239165083723
 20
799.53342671163489
 11
1206.8391650837227
 21
799.53342671163489
  0
LINE
  8
_0-1_計細線
  6
CONTINUOUS
 62
    3
 10
1210.2391650842753
 20
819.83342671163484
 11
1224.2391650842226
 21
819.83342671163484
  0
LINE
  8
_0-1_計細線
  6
CONTINUOUS
 62
    3
 10
1210.2391650842753
 20
806.83342671163507
 11
1224.2391650835084
 21
806.83342671163507
  0
ARC
  8
_0-1_計細線
  6
CONTINUOUS
 62
    3
 10
1186.4391650854418
 20
822.53342671163512
 40
1
 50
89.999999999999915
 51
179.99999999999983
  0
ARC
  8
_0-1_計細線
  6
CONTINUOUS
 62
    3
 10
1186.9071142767696
 20
824.53342671163466
 40
1
 50
269.99999999999977
 51
330.00000000000057
  0
ARC
  8
_0-1_計細線
  6
CONTINUOUS
 62
    3
 10
1188.6391650843386
 20
823.533426711635
 40
1
 50
89.999999999999915
 51
150.00000000002137
  0
LINE
  8
_0-1_計細線
  6
CONTINUOUS
 62
    3
 10
1186.4391650854418
 20
823.533426711635
 11
1186.9071142767696
 21
823.533426711635
  0
ARC
  8
_0-1_計細線
  6
CONTINUOUS
 62
    3
 10
1195.8391650832341
 20
822.53342671163512
 40
1
 50
0
 51
89.999999999999915
  0
ARC
  8
_0-1_計細線
  6
CONTINUOUS
 62
    3
 10
1195.3712158919068
 20
824.53342671163466
 40
1
 50
209.99999999999866
 51
269.99999999999977
  0
ARC
  8
_0-1_計細線
  6
CONTINUOUS
 62
    3
 10
1193.6391650843384
 20
823.533426711635
 40
1
 50
30.000000000004672
 51
89.999999999999915
  0
LINE
  8
_0-1_計細線
  6
CONTINUOUS
 62
    3
 10
1195.8391650832341
 20
823.533426711635
 11
1195.3712158919068
 21
823.533426711635
  0
ARC
  8
_0-1_計細線
  6
CONTINUOUS
 62
    3
 10
1185.939165085442
 20
821.13342671163537
 40
0.5
 50
179.99999999999983
 51
269.99999999999977
  0
LINE
  8
_0-1_計細線
  6
CONTINUOUS
 62
    3
 10
1185.439165085442
 20
822.53342671163512
 11
1185.439165085442
 21
821.13342671163537
  0
ARC
  8
_0-1_計細線
  6
CONTINUOUS
 62
    3
 10
1196.339165083235
 20
821.13342671163537
 40
0.5
 50
269.99999999999977
 51
359.99999999999966
  0
LINE
  8
_0-1_計細線
  6
CONTINUOUS
 62
    3
 10
1196.8391650832352
 20
822.53342671163512
 11
1196.8391650832352
 21
821.13342671163537
  0
ARC
  8
_0-1_計細線
  6
CONTINUOUS
 62
    3
 10
1188.439165085442
 20
819.63342671163514
 40
1
 50
0
 51
89.999999999999915
  0
LINE
  8
_0-1_計細線
  6
CONTINUOUS
 62
    3
 10
1188.439165085442
 20
820.6334267116348
 11
1185.939165085442
 21
820.6334267116348
  0
ARC
  8
_0-1_計細線
  6
CONTINUOUS
 62
    3
 10
1193.8391650854417
 20
819.63342671163514
 40
1
 50
89.999999999999915
 51
179.99999999999983
  0
LINE
  8
_0-1_計細線
  6
CONTINUOUS
 62
    3
 10
1193.8391650832343
 20
820.6334267116348
 11
1196.339165083235
 21
820.6334267116348
  0
LINE
  8
_0-1_計細線
  6
CONTINUOUS
 62
    3
 10
1193.6391650843384
 20
824.53342671163466
 11
1188.6391650843386
 21
824.53342671163466
  0
LINE
  8
_0-1_計細線
  6
CONTINUOUS
 62
    3
 10
1189.4391650843379
 20
799.53342671163489
 11
1189.4391650854418
 21
819.63342671163514
  0
LINE
  8
_0-1_計細線
  6
CONTINUOUS
 62
    3
 10
1192.8391650843384
 20
799.53342671163489
 11
1192.8391650854414
 21
819.63342671163514
  0
LINE
  8
_0-1_計細線
  6
CONTINUOUS
 62
    3
 10
1192.8391650843384
 20
799.53342671163489
 11
1189.4391650843379
 21
799.53342671163489
  0
LINE
  8
_0-1_計細線
  6
CONTINUOUS
 62
    3
 10
1192.8391650848903
 20
819.83342671163484
 11
1206.8391650848378
 21
819.83342671163484
  0
LINE
  8
_0-1_計細線
  6
CONTINUOUS
 62
    3
 10
1192.8391650848903
 20
806.83342671163507
 11
1206.8391650841238
 21
806.83342671163507
  0
ARC
  8
_0-1_計細線
  6
CONTINUOUS
 62
    3
 10
1404.6391650775702
 20
822.53342671163512
 40
1
 50
0
 51
89.999999999999915
  0
ARC
  8
_0-1_計細線
  6
CONTINUOUS
 62
    3
 10
1404.1712158862424
 20
824.53342671163466
 40
1
 50
209.99999999999866
 51
269.99999999999977
  0
ARC
  8
_0-1_計細線
  6
CONTINUOUS
 62
    3
 10
1402.4391650786736
 20
823.533426711635
 40
1
 50
29.99999999997862
 51
89.999999999999915
  0
LINE
  8
_0-1_計細線
  6
CONTINUOUS
 62
    3
 10
1404.6391650775702
 20
823.533426711635
 11
1404.1712158862424
 21
823.533426711635
  0
ARC
  8
_0-1_計細線
  6
CONTINUOUS
 62
    3
 10
1395.2391650797779
 20
822.53342671163512
 40
1
 50
89.999999999999915
 51
179.99999999999983
  0
ARC
  8
_0-1_計細線
  6
CONTINUOUS
 62
    3
 10
1395.7071142711054
 20
824.53342671163466
 40
1
 50
269.99999999999977
 51
330.00000000000057
  0
ARC
  8
_0-1_計細線
  6
CONTINUOUS
 62
    3
 10
1397.4391650786743
 20
823.533426711635
 40
1
 50
90.000000000052111
 51
150.00000000002137
  0
LINE
  8
_0-1_計細線
  6
CONTINUOUS
 62
    3
 10
1395.2391650797779
 20
823.533426711635
 11
1395.7071142711054
 21
823.533426711635
  0
ARC
  8
_0-1_計細線
  6
CONTINUOUS
 62
    3
 10
1405.1391650775702
 20
821.13342671163537
 40
0.5
 50
269.99999999999977
 51
359.99999999999966
  0
LINE
  8
_0-1_計細線
  6
CONTINUOUS
 62
    3
 10
1405.6391650775699
 20
822.53342671163512
 11
1405.6391650775699
 21
821.13342671163537
  0
ARC
  8
_0-1_計細線
  6
CONTINUOUS
 62
    3
 10
1394.739165079777
 20
821.13342671163537
 40
0.5
 50
179.99999999999983
 51
269.99999999999977
  0
LINE
  8
_0-1_計細線
  6
CONTINUOUS
 62
    3
 10
1394.2391650797767
 20
822.53342671163512
 11
1394.2391650797767
 21
821.13342671163537
  0
ARC
  8
_0-1_計細線
  6
CONTINUOUS
 62
    3
 10
1402.6391650775699
 20
819.63342671163514
 40
1
 50
89.999999999999915
 51
179.99999999999983
  0
LINE
  8
_0-1_計細線
  6
CONTINUOUS
 62
    3
 10
1402.6391650775699
 20
820.6334267116348
 11
1405.1391650775702
 21
820.6334267116348
  0
ARC
  8
_0-1_計細線
  6
CONTINUOUS
 62
    3
 10
1397.2391650775705
 20
819.63342671163514
 40
1
 50
0
 51
89.999999999999915
  0
LINE
  8
_0-1_計細線
  6
CONTINUOUS
 62
    3
 10
1397.2391650797779
 20
820.6334267116348
 11
1394.739165079777
 21
820.6334267116348
  0
LINE
  8
_0-1_計細線
  6
CONTINUOUS
 62
    3
 10
1397.4391650786743
 20
824.53342671163466
 11
1402.4391650786736
 21
824.53342671163466
  0
LINE
  8
_0-1_計細線
  6
CONTINUOUS
 62
    3
 10
1401.6391650786743
 20
799.53342671163489
 11
1401.6391650775709
 21
819.63342671163514
  0
LINE
  8
_0-1_計細線
  6
CONTINUOUS
 62
    3
 10
1398.2391650786735
 20
799.53342671163489
 11
1398.2391650775705
 21
819.63342671163514
  0
LINE
  8
_0-1_計細線
  6
CONTINUOUS
 62
    3
 10
1398.2391650786735
 20
799.53342671163489
 11
1401.6391650786743
 21
799.53342671163489
  0
LINE
  8
_0-1_計細線
  6
CONTINUOUS
 62
    3
 10
1398.2391650781224
 20
819.83342671163484
 11
1384.2391650781744
 21
819.83342671163484
  0
LINE
  8
_0-1_計細線
  6
CONTINUOUS
 62
    3
 10
1398.2391650781224
 20
806.83342671163507
 11
1384.2391650788882
 21
806.83342671163507
  0
ARC
  8
_0-1_計細線
  6
CONTINUOUS
 62
    3
 10
1422.0391650769548
 20
822.53342671163512
 40
1
 50
0
 51
89.999999999999915
  0
ARC
  8
_0-1_計細線
  6
CONTINUOUS
 62
    3
 10
1421.5712158856275
 20
824.53342671163466
 40
1
 50
209.99999999999866
 51
269.99999999999977
  0
ARC
  8
_0-1_計細線
  6
CONTINUOUS
 62
    3
 10
1419.8391650780584
 20
823.533426711635
 40
1
 50
29.99999999997862
 51
89.999999999999915
  0
LINE
  8
_0-1_計細線
  6
CONTINUOUS
 62
    3
 10
1422.0391650769548
 20
823.533426711635
 11
1421.5712158856275
 21
823.533426711635
  0
ARC
  8
_0-1_計細線
  6
CONTINUOUS
 62
    3
 10
1412.6391650791625
 20
822.53342671163512
 40
1
 50
89.999999999999915
 51
179.99999999999983
  0
ARC
  8
_0-1_計細線
  6
CONTINUOUS
 62
    3
 10
1413.1071142704902
 20
824.53342671163466
 40
1
 50
269.99999999999977
 51
330.00000000000057
  0
ARC
  8
_0-1_計細線
  6
CONTINUOUS
 62
    3
 10
1414.8391650780593
 20
823.533426711635
 40
1
 50
90.000000000052111
 51
150.00000000002137
  0
LINE
  8
_0-1_計細線
  6
CONTINUOUS
 62
    3
 10
1412.6391650791625
 20
823.533426711635
 11
1413.1071142704902
 21
823.533426711635
  0
ARC
  8
_0-1_計細線
  6
CONTINUOUS
 62
    3
 10
1422.539165076955
 20
821.13342671163537
 40
0.5
 50
269.99999999999977
 51
359.99999999999966
  0
LINE
  8
_0-1_計細線
  6
CONTINUOUS
 62
    3
 10
1423.039165076955
 20
822.53342671163512
 11
1423.039165076955
 21
821.13342671163537
  0
ARC
  8
_0-1_計細線
  6
CONTINUOUS
 62
    3
 10
1412.1391650791616
 20
821.13342671163537
 40
0.5
 50
179.99999999999983
 51
269.99999999999977
  0
LINE
  8
_0-1_計細線
  6
CONTINUOUS
 62
    3
 10
1411.6391650791618
 20
822.53342671163512
 11
1411.6391650791618
 21
821.13342671163537
  0
ARC
  8
_0-1_計細線
  6
CONTINUOUS
 62
    3
 10
1420.039165076955
 20
819.63342671163514
 40
1
 50
89.999999999999915
 51
179.99999999999983
  0
LINE
  8
_0-1_計細線
  6
CONTINUOUS
 62
    3
 10
1420.039165076955
 20
820.6334267116348
 11
1422.539165076955
 21
820.6334267116348
  0
ARC
  8
_0-1_計細線
  6
CONTINUOUS
 62
    3
 10
1414.6391650769554
 20
819.63342671163514
 40
1
 50
0
 51
89.999999999999915
  0
LINE
  8
_0-1_計細線
  6
CONTINUOUS
 62
    3
 10
1414.6391650791627
 20
820.6334267116348
 11
1412.1391650791616
 21
820.6334267116348
  0
LINE
  8
_0-1_計細線
  6
CONTINUOUS
 62
    3
 10
1414.8391650780593
 20
824.53342671163466
 11
1419.8391650780584
 21
824.53342671163466
  0
LINE
  8
_0-1_計細線
  6
CONTINUOUS
 62
    3
 10
1419.0391650780591
 20
799.53342671163489
 11
1419.0391650769559
 21
819.63342671163514
  0
LINE
  8
_0-1_計細線
  6
CONTINUOUS
 62
    3
 10
1415.6391650780586
 20
799.53342671163489
 11
1415.6391650769551
 21
819.63342671163514
  0
LINE
  8
_0-1_計細線
  6
CONTINUOUS
 62
    3
 10
1415.6391650780586
 20
799.53342671163489
 11
1419.0391650780591
 21
799.53342671163489
  0
LINE
  8
_0-1_計細線
  6
CONTINUOUS
 62
    3
 10
1415.6391650775074
 20
819.83342671163484
 11
1401.6391650775593
 21
819.83342671163484
  0
LINE
  8
_0-1_計細線
  6
CONTINUOUS
 62
    3
 10
1415.6391650775074
 20
806.83342671163507
 11
1401.6391650782732
 21
806.83342671163507
  0
ARC
  8
_0-1_計細線
  6
CONTINUOUS
 62
    3
 10
1439.4391650763398
 20
822.53342671163512
 40
1
 50
0
 51
89.999999999999915
  0
ARC
  8
_0-1_計細線
  6
CONTINUOUS
 62
    3
 10
1438.9712158850123
 20
824.53342671163466
 40
1
 50
209.99999999999866
 51
269.99999999999977
  0
ARC
  8
_0-1_計細線
  6
CONTINUOUS
 62
    3
 10
1437.239165077443
 20
823.533426711635
 40
1
 50
29.99999999997862
 51
89.999999999999915
  0
LINE
  8
_0-1_計細線
  6
CONTINUOUS
 62
    3
 10
1439.4391650763398
 20
823.533426711635
 11
1438.9712158850123
 21
823.533426711635
  0
ARC
  8
_0-1_計細線
  6
CONTINUOUS
 62
    3
 10
1430.0391650785475
 20
822.53342671163512
 40
1
 50
89.999999999999915
 51
179.99999999999983
  0
ARC
  8
_0-1_計細線
  6
CONTINUOUS
 62
    3
 10
1430.5071142698748
 20
824.53342671163466
 40
1
 50
269.99999999999977
 51
330.00000000000057
  0
ARC
  8
_0-1_計細線
  6
CONTINUOUS
 62
    3
 10
1432.2391650774441
 20
823.533426711635
 40
1
 50
90.000000000052111
 51
150.00000000002137
  0
LINE
  8
_0-1_計細線
  6
CONTINUOUS
 62
    3
 10
1430.0391650785475
 20
823.533426711635
 11
1430.5071142698748
 21
823.533426711635
  0
ARC
  8
_0-1_計細線
  6
CONTINUOUS
 62
    3
 10
1439.9391650763396
 20
821.13342671163537
 40
0.5
 50
269.99999999999977
 51
359.99999999999966
  0
LINE
  8
_0-1_計細線
  6
CONTINUOUS
 62
    3
 10
1440.4391650763398
 20
822.53342671163512
 11
1440.4391650763398
 21
821.13342671163537
  0
ARC
  8
_0-1_計細線
  6
CONTINUOUS
 62
    3
 10
1429.5391650785466
 20
821.13342671163537
 40
0.5
 50
179.99999999999983
 51
269.99999999999977
  0
LINE
  8
_0-1_計細線
  6
CONTINUOUS
 62
    3
 10
1429.0391650785466
 20
822.53342671163512
 11
1429.0391650785466
 21
821.13342671163537
  0
ARC
  8
_0-1_計細線
  6
CONTINUOUS
 62
    3
 10
1437.4391650763398
 20
819.63342671163514
 40
1
 50
89.999999999999915
 51
179.99999999999983
  0
LINE
  8
_0-1_計細線
  6
CONTINUOUS
 62
    3
 10
1437.4391650763398
 20
820.6334267116348
 11
1439.9391650763396
 21
820.6334267116348
  0
ARC
  8
_0-1_計細線
  6
CONTINUOUS
 62
    3
 10
1432.0391650763399
 20
819.63342671163514
 40
1
 50
0
 51
89.999999999999915
  0
LINE
  8
_0-1_計細線
  6
CONTINUOUS
 62
    3
 10
1432.0391650785473
 20
820.6334267116348
 11
1429.5391650785466
 21
820.6334267116348
  0
LINE
  8
_0-1_計細線
  6
CONTINUOUS
 62
    3
 10
1432.2391650774441
 20
824.53342671163466
 11
1437.239165077443
 21
824.53342671163466
  0
LINE
  8
_0-1_計細線
  6
CONTINUOUS
 62
    3
 10
1436.4391650774437
 20
799.53342671163489
 11
1436.4391650763407
 21
819.63342671163514
  0
LINE
  8
_0-1_計細線
  6
CONTINUOUS
 62
    3
 10
1433.0391650774434
 20
799.53342671163489
 11
1433.0391650763402
 21
819.63342671163514
  0
LINE
  8
_0-1_計細線
  6
CONTINUOUS
 62
    3
 10
1433.0391650774434
 20
799.53342671163489
 11
1436.4391650774437
 21
799.53342671163489
  0
LINE
  8
_0-1_計細線
  6
CONTINUOUS
 62
    3
 10
1433.0391650768922
 20
819.83342671163484
 11
1419.0391650769438
 21
819.83342671163484
  0
LINE
  8
_0-1_計細線
  6
CONTINUOUS
 62
    3
 10
1433.0391650768922
 20
806.83342671163507
 11
1419.039165077658
 21
806.83342671163507
  0
ARC
  8
_0-1_計細線
  6
CONTINUOUS
 62
    3
 10
1456.8391650757246
 20
822.53342671163512
 40
1
 50
0
 51
89.999999999999915
  0
ARC
  8
_0-1_計細線
  6
CONTINUOUS
 62
    3
 10
1456.3712158843969
 20
824.53342671163466
 40
1
 50
209.99999999999866
 51
269.99999999999977
  0
ARC
  8
_0-1_計細線
  6
CONTINUOUS
 62
    3
 10
1454.639165076828
 20
823.533426711635
 40
1
 50
29.99999999997862
 51
89.999999999999915
  0
LINE
  8
_0-1_計細線
  6
CONTINUOUS
 62
    3
 10
1456.8391650757246
 20
823.533426711635
 11
1456.3712158843969
 21
823.533426711635
  0
ARC
  8
_0-1_計細線
  6
CONTINUOUS
 62
    3
 10
1447.4391650779323
 20
822.53342671163512
 40
1
 50
89.999999999999915
 51
179.99999999999983
  0
ARC
  8
_0-1_計細線
  6
CONTINUOUS
 62
    3
 10
1447.9071142692599
 20
824.53342671163466
 40
1
 50
269.99999999999977
 51
330.00000000000057
  0
ARC
  8
_0-1_計細線
  6
CONTINUOUS
 62
    3
 10
1449.6391650768287
 20
823.533426711635
 40
1
 50
90.000000000052111
 51
150.00000000002137
  0
LINE
  8
_0-1_計細線
  6
CONTINUOUS
 62
    3
 10
1447.4391650779323
 20
823.533426711635
 11
1447.9071142692599
 21
823.533426711635
  0
ARC
  8
_0-1_計細線
  6
CONTINUOUS
 62
    3
 10
1457.3391650757246
 20
821.13342671163537
 40
0.5
 50
269.99999999999977
 51
359.99999999999966
  0
LINE
  8
_0-1_計細線
  6
CONTINUOUS
 62
    3
 10
1457.8391650757244
 20
822.53342671163512
 11
1457.8391650757244
 21
821.13342671163537
  0
ARC
  8
_0-1_計細線
  6
CONTINUOUS
 62
    3
 10
1446.9391650779314
 20
821.13342671163537
 40
0.5
 50
179.99999999999983
 51
269.99999999999977
  0
LINE
  8
_0-1_計細線
  6
CONTINUOUS
 62
    3
 10
1446.4391650779312
 20
822.53342671163512
 11
1446.4391650779312
 21
821.13342671163537
  0
ARC
  8
_0-1_計細線
  6
CONTINUOUS
 62
    3
 10
1454.8391650757244
 20
819.63342671163514
 40
1
 50
89.999999999999915
 51
179.99999999999983
  0
LINE
  8
_0-1_計細線
  6
CONTINUOUS
 62
    3
 10
1454.8391650757244
 20
820.6334267116348
 11
1457.3391650757246
 21
820.6334267116348
  0
ARC
  8
_0-1_計細線
  6
CONTINUOUS
 62
    3
 10
1449.439165075725
 20
819.63342671163514
 40
1
 50
0
 51
89.999999999999915
  0
LINE
  8
_0-1_計細線
  6
CONTINUOUS
 62
    3
 10
1449.4391650779323
 20
820.6334267116348
 11
1446.9391650779314
 21
820.6334267116348
  0
LINE
  8
_0-1_計細線
  6
CONTINUOUS
 62
    3
 10
1449.6391650768287
 20
824.53342671163466
 11
1454.639165076828
 21
824.53342671163466
  0
LINE
  8
_0-1_計細線
  6
CONTINUOUS
 62
    3
 10
1453.8391650768287
 20
799.53342671163489
 11
1453.8391650757253
 21
819.63342671163514
  0
LINE
  8
_0-1_計細線
  6
CONTINUOUS
 62
    3
 10
1450.439165076828
 20
799.53342671163489
 11
1450.439165075725
 21
819.63342671163514
  0
LINE
  8
_0-1_計細線
  6
CONTINUOUS
 62
    3
 10
1450.439165076828
 20
799.53342671163489
 11
1453.8391650768287
 21
799.53342671163489
  0
LINE
  8
_0-1_計細線
  6
CONTINUOUS
 62
    3
 10
1450.4391650762768
 20
819.83342671163484
 11
1436.4391650763289
 21
819.83342671163484
  0
LINE
  8
_0-1_計細線
  6
CONTINUOUS
 62
    3
 10
1450.4391650762768
 20
806.83342671163507
 11
1436.4391650770426
 21
806.83342671163507
  0
ARC
  8
_0-1_計細線
  6
CONTINUOUS
 62
    3
 10
1474.2391650751092
 20
822.53342671163512
 40
1
 50
0
 51
89.999999999999915
  0
ARC
  8
_0-1_計細線
  6
CONTINUOUS
 62
    3
 10
1473.7712158837819
 20
824.53342671163466
 40
1
 50
209.99999999999866
 51
269.99999999999977
  0
ARC
  8
_0-1_計細線
  6
CONTINUOUS
 62
    3
 10
1472.0391650762128
 20
823.533426711635
 40
1
 50
29.99999999997862
 51
89.999999999999915
  0
LINE
  8
_0-1_計細線
  6
CONTINUOUS
 62
    3
 10
1474.2391650751092
 20
823.533426711635
 11
1473.7712158837819
 21
823.533426711635
  0
ARC
  8
_0-1_計細線
  6
CONTINUOUS
 62
    3
 10
1464.8391650773169
 20
822.53342671163512
 40
1
 50
89.999999999999915
 51
179.99999999999983
  0
ARC
  8
_0-1_計細線
  6
CONTINUOUS
 62
    3
 10
1465.3071142686447
 20
824.53342671163466
 40
1
 50
269.99999999999977
 51
330.00000000000057
  0
ARC
  8
_0-1_計細線
  6
CONTINUOUS
 62
    3
 10
1467.0391650762137
 20
823.533426711635
 40
1
 50
90.000000000052111
 51
150.00000000002137
  0
LINE
  8
_0-1_計細線
  6
CONTINUOUS
 62
    3
 10
1464.8391650773169
 20
823.533426711635
 11
1465.3071142686447
 21
823.533426711635
  0
ARC
  8
_0-1_計細線
  6
CONTINUOUS
 62
    3
 10
1474.7391650751094
 20
821.13342671163537
 40
0.5
 50
269.99999999999977
 51
359.99999999999966
  0
LINE
  8
_0-1_計細線
  6
CONTINUOUS
 62
    3
 10
1475.2391650751094
 20
822.53342671163512
 11
1475.2391650751094
 21
821.13342671163537
  0
ARC
  8
_0-1_計細線
  6
CONTINUOUS
 62
    3
 10
1464.339165077316
 20
821.13342671163537
 40
0.5
 50
179.99999999999983
 51
269.99999999999977
  0
LINE
  8
_0-1_計細線
  6
CONTINUOUS
 62
    3
 10
1463.8391650773162
 20
822.53342671163512
 11
1463.8391650773162
 21
821.13342671163537
  0
ARC
  8
_0-1_計細線
  6
CONTINUOUS
 62
    3
 10
1472.2391650751094
 20
819.63342671163514
 40
1
 50
89.999999999999915
 51
179.99999999999983
  0
LINE
  8
_0-1_計細線
  6
CONTINUOUS
 62
    3
 10
1472.2391650751094
 20
820.6334267116348
 11
1474.7391650751094
 21
820.6334267116348
  0
ARC
  8
_0-1_計細線
  6
CONTINUOUS
 62
    3
 10
1466.8391650751098
 20
819.63342671163514
 40
1
 50
0
 51
89.999999999999915
  0
LINE
  8
_0-1_計細線
  6
CONTINUOUS
 62
    3
 10
1466.8391650773171
 20
820.6334267116348
 11
1464.339165077316
 21
820.6334267116348
  0
LINE
  8
_0-1_計細線
  6
CONTINUOUS
 62
    3
 10
1467.0391650762137
 20
824.53342671163466
 11
1472.0391650762128
 21
824.53342671163466
  0
LINE
  8
_0-1_計細線
  6
CONTINUOUS
 62
    3
 10
1471.2391650762136
 20
799.53342671163489
 11
1471.2391650751103
 21
819.63342671163514
  0
LINE
  8
_0-1_計細線
  6
CONTINUOUS
 62
    3
 10
1467.839165076213
 20
799.53342671163489
 11
1467.8391650751096
 21
819.63342671163514
  0
LINE
  8
_0-1_計細線
  6
CONTINUOUS
 62
    3
 10
1467.839165076213
 20
799.53342671163489
 11
1471.2391650762136
 21
799.53342671163489
  0
LINE
  8
_0-1_計細線
  6
CONTINUOUS
 62
    3
 10
1467.8391650756619
 20
819.83342671163484
 11
1453.8391650757137
 21
819.83342671163484
  0
LINE
  8
_0-1_計細線
  6
CONTINUOUS
 62
    3
 10
1467.8391650756619
 20
806.83342671163507
 11
1453.8391650764277
 21
806.83342671163507
  0
ARC
  8
_0-1_計細線
  6
CONTINUOUS
 62
    3
 10
1491.6391650744943
 20
822.53342671163512
 40
1
 50
0
 51
89.999999999999915
  0
ARC
  8
_0-1_計細線
  6
CONTINUOUS
 62
    3
 10
1491.1712158831667
 20
824.53342671163466
 40
1
 50
209.99999999999866
 51
269.99999999999977
  0
ARC
  8
_0-1_計細線
  6
CONTINUOUS
 62
    3
 10
1489.4391650755974
 20
823.533426711635
 40
1
 50
29.99999999997862
 51
89.999999999999915
  0
LINE
  8
_0-1_計細線
  6
CONTINUOUS
 62
    3
 10
1491.6391650744943
 20
823.533426711635
 11
1491.1712158831667
 21
823.533426711635
  0
ARC
  8
_0-1_計細線
  6
CONTINUOUS
 62
    3
 10
1482.239165076702
 20
822.53342671163512
 40
1
 50
89.999999999999915
 51
179.99999999999983
  0
ARC
  8
_0-1_計細線
  6
CONTINUOUS
 62
    3
 10
1482.7071142680293
 20
824.53342671163466
 40
1
 50
269.99999999999977
 51
330.00000000000057
  0
ARC
  8
_0-1_計細線
  6
CONTINUOUS
 62
    3
 10
1484.4391650755986
 20
823.533426711635
 40
1
 50
90.000000000052111
 51
150.00000000002137
  0
LINE
  8
_0-1_計細線
  6
CONTINUOUS
 62
    3
 10
1482.239165076702
 20
823.533426711635
 11
1482.7071142680293
 21
823.533426711635
  0
ARC
  8
_0-1_計細線
  6
CONTINUOUS
 62
    3
 10
1492.139165074494
 20
821.13342671163537
 40
0.5
 50
269.99999999999977
 51
359.99999999999966
  0
LINE
  8
_0-1_計細線
  6
CONTINUOUS
 62
    3
 10
1492.6391650744943
 20
822.53342671163512
 11
1492.6391650744943
 21
821.13342671163537
  0
ARC
  8
_0-1_計細線
  6
CONTINUOUS
 62
    3
 10
1481.7391650767011
 20
821.13342671163537
 40
0.5
 50
179.99999999999983
 51
269.99999999999977
  0
LINE
  8
_0-1_計細線
  6
CONTINUOUS
 62
    3
 10
1481.2391650767011
 20
822.53342671163512
 11
1481.2391650767011
 21
821.13342671163537
  0
ARC
  8
_0-1_計細線
  6
CONTINUOUS
 62
    3
 10
1489.6391650744943
 20
819.63342671163514
 40
1
 50
89.999999999999915
 51
179.99999999999983
  0
LINE
  8
_0-1_計細線
  6
CONTINUOUS
 62
    3
 10
1489.6391650744943
 20
820.6334267116348
 11
1492.139165074494
 21
820.6334267116348
  0
ARC
  8
_0-1_計細線
  6
CONTINUOUS
 62
    3
 10
1484.2391650744944
 20
819.63342671163514
 40
1
 50
0
 51
89.999999999999915
  0
LINE
  8
_0-1_計細線
  6
CONTINUOUS
 62
    3
 10
1484.2391650767017
 20
820.6334267116348
 11
1481.7391650767011
 21
820.6334267116348
  0
LINE
  8
_0-1_計細線
  6
CONTINUOUS
 62
    3
 10
1484.4391650755986
 20
824.53342671163466
 11
1489.4391650755974
 21
824.53342671163466
  0
LINE
  8
_0-1_計細線
  6
CONTINUOUS
 62
    3
 10
1488.6391650755982
 20
799.53342671163489
 11
1488.6391650744952
 21
819.63342671163514
  0
LINE
  8
_0-1_計細線
  6
CONTINUOUS
 62
    3
 10
1485.2391650755978
 20
799.53342671163489
 11
1485.2391650744946
 21
819.63342671163514
  0
LINE
  8
_0-1_計細線
  6
CONTINUOUS
 62
    3
 10
1485.2391650755978
 20
799.53342671163489
 11
1488.6391650755982
 21
799.53342671163489
  0
LINE
  8
_0-1_計細線
  6
CONTINUOUS
 62
    3
 10
1485.2391650750467
 20
819.83342671163484
 11
1471.2391650750983
 21
819.83342671163484
  0
LINE
  8
_0-1_計細線
  6
CONTINUOUS
 62
    3
 10
1485.2391650750467
 20
806.83342671163507
 11
1471.2391650758125
 21
806.83342671163507
  0
ARC
  8
_0-1_計細線
  6
CONTINUOUS
 62
    3
 10
1509.0391650738791
 20
822.53342671163512
 40
1
 50
0
 51
89.999999999999915
  0
ARC
  8
_0-1_計細線
  6
CONTINUOUS
 62
    3
 10
1508.5712158825513
 20
824.53342671163466
 40
1
 50
209.99999999999866
 51
269.99999999999977
  0
ARC
  8
_0-1_計細線
  6
CONTINUOUS
 62
    3
 10
1506.8391650749825
 20
823.533426711635
 40
1
 50
29.99999999997862
 51
89.999999999999915
  0
LINE
  8
_0-1_計細線
  6
CONTINUOUS
 62
    3
 10
1509.0391650738791
 20
823.533426711635
 11
1508.5712158825513
 21
823.533426711635
  0
ARC
  8
_0-1_計細線
  6
CONTINUOUS
 62
    3
 10
1499.6391650760868
 20
822.53342671163512
 40
1
 50
89.999999999999915
 51
179.99999999999983
  0
ARC
  8
_0-1_計細線
  6
CONTINUOUS
 62
    3
 10
1500.1071142674143
 20
824.53342671163466
 40
1
 50
269.99999999999977
 51
330.00000000000057
  0
ARC
  8
_0-1_計細線
  6
CONTINUOUS
 62
    3
 10
1501.8391650749832
 20
823.533426711635
 40
1
 50
90.000000000052111
 51
150.00000000002137
  0
LINE
  8
_0-1_計細線
  6
CONTINUOUS
 62
    3
 10
1499.6391650760868
 20
823.533426711635
 11
1500.1071142674143
 21
823.533426711635
  0
ARC
  8
_0-1_計細線
  6
CONTINUOUS
 62
    3
 10
1509.5391650738791
 20
821.13342671163537
 40
0.5
 50
269.99999999999977
 51
359.99999999999966
  0
LINE
  8
_0-1_計細線
  6
CONTINUOUS
 62
    3
 10
1510.0391650738788
 20
822.53342671163512
 11
1510.0391650738788
 21
821.13342671163537
  0
ARC
  8
_0-1_計細線
  6
CONTINUOUS
 62
    3
 10
1499.1391650760859
 20
821.13342671163537
 40
0.5
 50
179.99999999999983
 51
269.99999999999977
  0
LINE
  8
_0-1_計細線
  6
CONTINUOUS
 62
    3
 10
1498.6391650760856
 20
822.53342671163512
 11
1498.6391650760856
 21
821.13342671163537
  0
ARC
  8
_0-1_計細線
  6
CONTINUOUS
 62
    3
 10
1507.0391650738788
 20
819.63342671163514
 40
1
 50
89.999999999999915
 51
179.99999999999983
  0
LINE
  8
_0-1_計細線
  6
CONTINUOUS
 62
    3
 10
1507.0391650738788
 20
820.6334267116348
 11
1509.5391650738791
 21
820.6334267116348
  0
ARC
  8
_0-1_計細線
  6
CONTINUOUS
 62
    3
 10
1501.6391650738794
 20
819.63342671163514
 40
1
 50
0
 51
89.999999999999915
  0
LINE
  8
_0-1_計細線
  6
CONTINUOUS
 62
    3
 10
1501.6391650760868
 20
820.6334267116348
 11
1499.1391650760859
 21
820.6334267116348
  0
LINE
  8
_0-1_計細線
  6
CONTINUOUS
 62
    3
 10
1501.8391650749832
 20
824.53342671163466
 11
1506.8391650749825
 21
824.53342671163466
  0
LINE
  8
_0-1_計細線
  6
CONTINUOUS
 62
    3
 10
1506.0391650749832
 20
799.53342671163489
 11
1506.0391650738798
 21
819.63342671163514
  0
LINE
  8
_0-1_計細線
  6
CONTINUOUS
 62
    3
 10
1502.6391650749824
 20
799.53342671163489
 11
1502.6391650738794
 21
819.63342671163514
  0
LINE
  8
_0-1_計細線
  6
CONTINUOUS
 62
    3
 10
1502.6391650749824
 20
799.53342671163489
 11
1506.0391650749832
 21
799.53342671163489
  0
LINE
  8
_0-1_計細線
  6
CONTINUOUS
 62
    3
 10
1502.6391650744313
 20
819.83342671163484
 11
1488.6391650744833
 21
819.83342671163484
  0
LINE
  8
_0-1_計細線
  6
CONTINUOUS
 62
    3
 10
1502.6391650744313
 20
806.83342671163507
 11
1488.6391650751971
 21
806.83342671163507
  0
ARC
  8
_0-1_計細線
  6
CONTINUOUS
 62
    3
 10
1526.4391650732637
 20
822.53342671163512
 40
1
 50
0
 51
89.999999999999915
  0
ARC
  8
_0-1_計細線
  6
CONTINUOUS
 62
    3
 10
1525.9712158819364
 20
824.53342671163466
 40
1
 50
209.99999999999866
 51
269.99999999999977
  0
ARC
  8
_0-1_計細線
  6
CONTINUOUS
 62
    3
 10
1524.2391650743673
 20
823.533426711635
 40
1
 50
29.99999999997862
 51
89.999999999999915
  0
LINE
  8
_0-1_計細線
  6
CONTINUOUS
 62
    3
 10
1526.4391650732637
 20
823.533426711635
 11
1525.9712158819364
 21
823.533426711635
  0
ARC
  8
_0-1_計細線
  6
CONTINUOUS
 62
    3
 10
1517.0391650754714
 20
822.53342671163512
 40
1
 50
89.999999999999915
 51
179.99999999999983
  0
ARC
  8
_0-1_計細線
  6
CONTINUOUS
 62
    3
 10
1517.5071142667991
 20
824.53342671163466
 40
1
 50
269.99999999999977
 51
330.00000000000057
  0
ARC
  8
_0-1_計細線
  6
CONTINUOUS
 62
    3
 10
1519.2391650743682
 20
823.533426711635
 40
1
 50
90.000000000052111
 51
150.00000000002137
  0
LINE
  8
_0-1_計細線
  6
CONTINUOUS
 62
    3
 10
1517.0391650754714
 20
823.533426711635
 11
1517.5071142667991
 21
823.533426711635
  0
ARC
  8
_0-1_計細線
  6
CONTINUOUS
 62
    3
 10
1526.9391650732639
 20
821.13342671163537
 40
0.5
 50
269.99999999999977
 51
359.99999999999966
  0
LINE
  8
_0-1_計細線
  6
CONTINUOUS
 62
    3
 10
1527.4391650732639
 20
822.53342671163512
 11
1527.4391650732639
 21
821.13342671163537
  0
ARC
  8
_0-1_計細線
  6
CONTINUOUS
 62
    3
 10
1516.5391650754705
 20
821.13342671163537
 40
0.5
 50
179.99999999999983
 51
269.99999999999977
  0
LINE
  8
_0-1_計細線
  6
CONTINUOUS
 62
    3
 10
1516.0391650754707
 20
822.53342671163512
 11
1516.0391650754707
 21
821.13342671163537
  0
ARC
  8
_0-1_計細線
  6
CONTINUOUS
 62
    3
 10
1524.4391650732639
 20
819.63342671163514
 40
1
 50
89.999999999999915
 51
179.99999999999983
  0
LINE
  8
_0-1_計細線
  6
CONTINUOUS
 62
    3
 10
1524.4391650732639
 20
820.6334267116348
 11
1526.9391650732639
 21
820.6334267116348
  0
ARC
  8
_0-1_計細線
  6
CONTINUOUS
 62
    3
 10
1519.0391650732643
 20
819.63342671163514
 40
1
 50
0
 51
89.999999999999915
  0
LINE
  8
_0-1_計細線
  6
CONTINUOUS
 62
    3
 10
1519.0391650754716
 20
820.6334267116348
 11
1516.5391650754705
 21
820.6334267116348
  0
LINE
  8
_0-1_計細線
  6
CONTINUOUS
 62
    3
 10
1519.2391650743682
 20
824.53342671163466
 11
1524.2391650743673
 21
824.53342671163466
  0
LINE
  8
_0-1_計細線
  6
CONTINUOUS
 62
    3
 10
1523.439165074368
 20
799.53342671163489
 11
1523.4391650732648
 21
819.63342671163514
  0
LINE
  8
_0-1_計細線
  6
CONTINUOUS
 62
    3
 10
1520.0391650743675
 20
799.53342671163489
 11
1520.039165073264
 21
819.63342671163514
  0
LINE
  8
_0-1_計細線
  6
CONTINUOUS
 62
    3
 10
1520.0391650743675
 20
799.53342671163489
 11
1523.439165074368
 21
799.53342671163489
  0
LINE
  8
_0-1_計細線
  6
CONTINUOUS
 62
    3
 10
1520.0391650738163
 20
819.83342671163484
 11
1506.0391650738682
 21
819.83342671163484
  0
LINE
  8
_0-1_計細線
  6
CONTINUOUS
 62
    3
 10
1520.0391650738163
 20
806.83342671163507
 11
1506.0391650745821
 21
806.83342671163507
  0
ARC
  8
_0-1_計細線
  6
CONTINUOUS
 62
    3
 10
1543.8391650726487
 20
822.53342671163512
 40
1
 50
0
 51
89.999999999999915
  0
ARC
  8
_0-1_計細線
  6
CONTINUOUS
 62
    3
 10
1543.3712158813209
 20
824.53342671163466
 40
1
 50
209.99999999999866
 51
269.99999999999977
  0
ARC
  8
_0-1_計細線
  6
CONTINUOUS
 62
    3
 10
1541.6391650737519
 20
823.533426711635
 40
1
 50
29.99999999997862
 51
89.999999999999915
  0
LINE
  8
_0-1_計細線
  6
CONTINUOUS
 62
    3
 10
1543.8391650726487
 20
823.533426711635
 11
1543.3712158813209
 21
823.533426711635
  0
ARC
  8
_0-1_計細線
  6
CONTINUOUS
 62
    3
 10
1534.4391650748564
 20
822.53342671163512
 40
1
 50
89.999999999999915
 51
179.99999999999983
  0
ARC
  8
_0-1_計細線
  6
CONTINUOUS
 62
    3
 10
1534.9071142661837
 20
824.53342671163466
 40
1
 50
269.99999999999977
 51
330.00000000000057
  0
ARC
  8
_0-1_計細線
  6
CONTINUOUS
 62
    3
 10
1536.6391650737528
 20
823.533426711635
 40
1
 50
90.000000000052111
 51
150.00000000002137
  0
LINE
  8
_0-1_計細線
  6
CONTINUOUS
 62
    3
 10
1534.4391650748564
 20
823.533426711635
 11
1534.9071142661837
 21
823.533426711635
  0
ARC
  8
_0-1_計細線
  6
CONTINUOUS
 62
    3
 10
1544.3391650726485
 20
821.13342671163537
 40
0.5
 50
269.99999999999977
 51
359.99999999999966
  0
LINE
  8
_0-1_計細線
  6
CONTINUOUS
 62
    3
 10
1544.8391650726485
 20
822.53342671163512
 11
1544.8391650726485
 21
821.13342671163537
  0
ARC
  8
_0-1_計細線
  6
CONTINUOUS
 62
    3
 10
1533.9391650748555
 20
821.13342671163537
 40
0.5
 50
179.99999999999983
 51
269.99999999999977
  0
LINE
  8
_0-1_計細線
  6
CONTINUOUS
 62
    3
 10
1533.4391650748555
 20
822.53342671163512
 11
1533.4391650748555
 21
821.13342671163537
  0
ARC
  8
_0-1_計細線
  6
CONTINUOUS
 62
    3
 10
1541.8391650726485
 20
819.63342671163514
 40
1
 50
89.999999999999915
 51
179.99999999999983
  0
LINE
  8
_0-1_計細線
  6
CONTINUOUS
 62
    3
 10
1541.8391650726485
 20
820.6334267116348
 11
1544.3391650726485
 21
820.6334267116348
  0
ARC
  8
_0-1_計細線
  6
CONTINUOUS
 62
    3
 10
1536.4391650726488
 20
819.63342671163514
 40
1
 50
0
 51
89.999999999999915
  0
LINE
  8
_0-1_計細線
  6
CONTINUOUS
 62
    3
 10
1536.4391650748562
 20
820.6334267116348
 11
1533.9391650748555
 21
820.6334267116348
  0
LINE
  8
_0-1_計細線
  6
CONTINUOUS
 62
    3
 10
1536.6391650737528
 20
824.53342671163466
 11
1541.6391650737519
 21
824.53342671163466
  0
LINE
  8
_0-1_計細線
  6
CONTINUOUS
 62
    3
 10
1540.8391650737526
 20
799.53342671163489
 11
1540.8391650726494
 21
819.63342671163514
  0
LINE
  8
_0-1_計細線
  6
CONTINUOUS
 62
    3
 10
1537.4391650737521
 20
799.53342671163489
 11
1537.4391650726491
 21
819.63342671163514
  0
LINE
  8
_0-1_計細線
  6
CONTINUOUS
 62
    3
 10
1537.4391650737521
 20
799.53342671163489
 11
1540.8391650737526
 21
799.53342671163489
  0
LINE
  8
_0-1_計細線
  6
CONTINUOUS
 62
    3
 10
1537.4391650732009
 20
819.83342671163484
 11
1523.4391650732528
 21
819.83342671163484
  0
LINE
  8
_0-1_計細線
  6
CONTINUOUS
 62
    3
 10
1537.4391650732009
 20
806.83342671163507
 11
1523.4391650739669
 21
806.83342671163507
  0
ARC
  8
_0-1_計細線
  6
CONTINUOUS
 62
    3
 10
1561.2391650720333
 20
822.53342671163512
 40
1
 50
0
 51
89.999999999999915
  0
ARC
  8
_0-1_計細線
  6
CONTINUOUS
 62
    3
 10
1560.7712158807058
 20
824.53342671163466
 40
1
 50
209.99999999999866
 51
269.99999999999977
  0
ARC
  8
_0-1_計細線
  6
CONTINUOUS
 62
    3
 10
1559.0391650731369
 20
823.533426711635
 40
1
 50
29.99999999997862
 51
89.999999999999915
  0
LINE
  8
_0-1_計細線
  6
CONTINUOUS
 62
    3
 10
1561.2391650720333
 20
823.533426711635
 11
1560.7712158807058
 21
823.533426711635
  0
ARC
  8
_0-1_計細線
  6
CONTINUOUS
 62
    3
 10
1551.839165074241
 20
822.53342671163512
 40
1
 50
89.999999999999915
 51
179.99999999999983
  0
ARC
  8
_0-1_計細線
  6
CONTINUOUS
 62
    3
 10
1552.3071142655688
 20
824.53342671163466
 40
1
 50
269.99999999999977
 51
330.00000000000057
  0
ARC
  8
_0-1_計細線
  6
CONTINUOUS
 62
    3
 10
1554.0391650731376
 20
823.533426711635
 40
1
 50
90.000000000052111
 51
150.00000000002137
  0
LINE
  8
_0-1_計細線
  6
CONTINUOUS
 62
    3
 10
1551.839165074241
 20
823.533426711635
 11
1552.3071142655688
 21
823.533426711635
  0
ARC
  8
_0-1_計細線
  6
CONTINUOUS
 62
    3
 10
1561.7391650720335
 20
821.13342671163537
 40
0.5
 50
269.99999999999977
 51
359.99999999999966
  0
LINE
  8
_0-1_計細線
  6
CONTINUOUS
 62
    3
 10
1562.2391650720333
 20
822.53342671163512
 11
1562.2391650720333
 21
821.13342671163537
  0
ARC
  8
_0-1_計細線
  6
CONTINUOUS
 62
    3
 10
1551.3391650742401
 20
821.13342671163537
 40
0.5
 50
179.99999999999983
 51
269.99999999999977
  0
LINE
  8
_0-1_計細線
  6
CONTINUOUS
 62
    3
 10
1550.8391650742401
 20
822.53342671163512
 11
1550.8391650742401
 21
821.13342671163537
  0
ARC
  8
_0-1_計細線
  6
CONTINUOUS
 62
    3
 10
1559.2391650720333
 20
819.63342671163514
 40
1
 50
89.999999999999915
 51
179.99999999999983
  0
LINE
  8
_0-1_計細線
  6
CONTINUOUS
 62
    3
 10
1559.2391650720333
 20
820.6334267116348
 11
1561.7391650720335
 21
820.6334267116348
  0
ARC
  8
_0-1_計細線
  6
CONTINUOUS
 62
    3
 10
1553.8391650720339
 20
819.63342671163514
 40
1
 50
0
 51
89.999999999999915
  0
LINE
  8
_0-1_計細線
  6
CONTINUOUS
 62
    3
 10
1553.8391650742412
 20
820.6334267116348
 11
1551.3391650742401
 21
820.6334267116348
  0
LINE
  8
_0-1_計細線
  6
CONTINUOUS
 62
    3
 10
1554.0391650731376
 20
824.53342671163466
 11
1559.0391650731369
 21
824.53342671163466
  0
LINE
  8
_0-1_計細線
  6
CONTINUOUS
 62
    3
 10
1558.2391650731377
 20
799.53342671163489
 11
1558.2391650720342
 21
819.63342671163514
  0
LINE
  8
_0-1_計細線
  6
CONTINUOUS
 62
    3
 10
1554.8391650731369
 20
799.53342671163489
 11
1554.8391650720337
 21
819.63342671163514
  0
LINE
  8
_0-1_計細線
  6
CONTINUOUS
 62
    3
 10
1554.8391650731369
 20
799.53342671163489
 11
1558.2391650731377
 21
799.53342671163489
  0
LINE
  8
_0-1_計細線
  6
CONTINUOUS
 62
    3
 10
1554.8391650725857
 20
819.83342671163484
 11
1540.8391650726378
 21
819.83342671163484
  0
LINE
  8
_0-1_計細線
  6
CONTINUOUS
 62
    3
 10
1554.8391650725857
 20
806.83342671163507
 11
1540.8391650733515
 21
806.83342671163507
  0
ARC
  8
_0-1_計細線
  6
CONTINUOUS
 62
    3
 10
1169.0391650860572
 20
822.53342671163512
 40
1
 50
89.999999999999915
 51
179.99999999999983
  0
ARC
  8
_0-1_計細線
  6
CONTINUOUS
 62
    3
 10
1169.5071142773847
 20
824.53342671163466
 40
1
 50
269.99999999999977
 51
330.00000000000057
  0
ARC
  8
_0-1_計細線
  6
CONTINUOUS
 62
    3
 10
1171.2391650849536
 20
823.533426711635
 40
1
 50
89.999999999999915
 51
150.00000000002137
  0
LINE
  8
_0-1_計細線
  6
CONTINUOUS
 62
    3
 10
1169.0391650860572
 20
823.533426711635
 11
1169.5071142773847
 21
823.533426711635
  0
ARC
  8
_0-1_計細線
  6
CONTINUOUS
 62
    3
 10
1178.4391650838495
 20
822.53342671163512
 40
1
 50
0
 51
89.999999999999915
  0
ARC
  8
_0-1_計細線
  6
CONTINUOUS
 62
    3
 10
1177.9712158925217
 20
824.53342671163466
 40
1
 50
209.99999999999866
 51
269.99999999999977
  0
ARC
  8
_0-1_計細線
  6
CONTINUOUS
 62
    3
 10
1176.2391650849538
 20
823.533426711635
 40
1
 50
30.000000000004672
 51
89.999999999999915
  0
LINE
  8
_0-1_計細線
  6
CONTINUOUS
 62
    3
 10
1178.4391650838495
 20
823.533426711635
 11
1177.9712158925217
 21
823.533426711635
  0
ARC
  8
_0-1_計細線
  6
CONTINUOUS
 62
    3
 10
1168.539165086057
 20
821.13342671163537
 40
0.5
 50
179.99999999999983
 51
269.99999999999977
  0
LINE
  8
_0-1_計細線
  6
CONTINUOUS
 62
    3
 10
1168.0391650860572
 20
822.53342671163512
 11
1168.0391650860572
 21
821.13342671163537
  0
ARC
  8
_0-1_計細線
  6
CONTINUOUS
 62
    3
 10
1178.9391650838504
 20
821.13342671163537
 40
0.5
 50
269.99999999999977
 51
359.99999999999966
  0
LINE
  8
_0-1_計細線
  6
CONTINUOUS
 62
    3
 10
1179.4391650838504
 20
822.53342671163512
 11
1179.4391650838504
 21
821.13342671163537
  0
ARC
  8
_0-1_計細線
  6
CONTINUOUS
 62
    3
 10
1171.0391650860572
 20
819.63342671163514
 40
1
 50
0
 51
89.999999999999915
  0
LINE
  8
_0-1_計細線
  6
CONTINUOUS
 62
    3
 10
1171.0391650860572
 20
820.6334267116348
 11
1168.539165086057
 21
820.6334267116348
  0
ARC
  8
_0-1_計細線
  6
CONTINUOUS
 62
    3
 10
1176.4391650860566
 20
819.63342671163514
 40
1
 50
89.999999999999915
 51
179.99999999999983
  0
LINE
  8
_0-1_計細線
  6
CONTINUOUS
 62
    3
 10
1176.4391650838493
 20
820.6334267116348
 11
1178.9391650838504
 21
820.6334267116348
  0
LINE
  8
_0-1_計細線
  6
CONTINUOUS
 62
    3
 10
1176.2391650849538
 20
824.53342671163466
 11
1171.2391650849536
 21
824.53342671163466
  0
LINE
  8
_0-1_計細線
  6
CONTINUOUS
 62
    3
 10
1172.0391650849529
 20
799.53342671163489
 11
1172.0391650860572
 21
819.63342671163514
  0
LINE
  8
_0-1_計細線
  6
CONTINUOUS
 62
    3
 10
1175.4391650849536
 20
799.53342671163489
 11
1175.4391650860568
 21
819.63342671163514
  0
LINE
  8
_0-1_計細線
  6
CONTINUOUS
 62
    3
 10
1175.4391650849536
 20
799.53342671163489
 11
1172.0391650849529
 21
799.53342671163489
  0
LINE
  8
_0-1_計細線
  6
CONTINUOUS
 62
    3
 10
1175.4391650855057
 20
819.83342671163484
 11
1189.4391650854527
 21
819.83342671163484
  0
LINE
  8
_0-1_計細線
  6
CONTINUOUS
 62
    3
 10
1175.4391650855057
 20
806.83342671163507
 11
1189.439165084739
 21
806.83342671163507
  0
ARC
  8
_0-1_計細線
  6
CONTINUOUS
 62
    3
 10
1151.6391650866724
 20
822.53342671163512
 40
1
 50
89.999999999999915
 51
179.99999999999983
  0
ARC
  8
_0-1_計細線
  6
CONTINUOUS
 62
    3
 10
1152.1071142779997
 20
824.53342671163466
 40
1
 50
269.99999999999977
 51
330.00000000000057
  0
ARC
  8
_0-1_計細線
  6
CONTINUOUS
 62
    3
 10
1153.839165085569
 20
823.533426711635
 40
1
 50
89.999999999999915
 51
150.00000000002137
  0
LINE
  8
_0-1_計細線
  6
CONTINUOUS
 62
    3
 10
1151.6391650866724
 20
823.533426711635
 11
1152.1071142779997
 21
823.533426711635
  0
ARC
  8
_0-1_計細線
  6
CONTINUOUS
 62
    3
 10
1161.0391650844647
 20
822.53342671163512
 40
1
 50
0
 51
89.999999999999915
  0
ARC
  8
_0-1_計細線
  6
CONTINUOUS
 62
    3
 10
1160.5712158931372
 20
824.53342671163466
 40
1
 50
209.99999999999866
 51
269.99999999999977
  0
ARC
  8
_0-1_計細線
  6
CONTINUOUS
 62
    3
 10
1158.839165085569
 20
823.533426711635
 40
1
 50
30.000000000004672
 51
89.999999999999915
  0
LINE
  8
_0-1_計細線
  6
CONTINUOUS
 62
    3
 10
1161.0391650844647
 20
823.533426711635
 11
1160.5712158931372
 21
823.533426711635
  0
ARC
  8
_0-1_計細線
  6
CONTINUOUS
 62
    3
 10
1151.1391650866724
 20
821.13342671163537
 40
0.5
 50
179.99999999999983
 51
269.99999999999977
  0
LINE
  8
_0-1_計細線
  6
CONTINUOUS
 62
    3
 10
1150.6391650866722
 20
822.53342671163512
 11
1150.6391650866722
 21
821.13342671163537
  0
ARC
  8
_0-1_計細線
  6
CONTINUOUS
 62
    3
 10
1161.5391650844656
 20
821.13342671163537
 40
0.5
 50
269.99999999999977
 51
359.99999999999966
  0
LINE
  8
_0-1_計細線
  6
CONTINUOUS
 62
    3
 10
1162.0391650844654
 20
822.53342671163512
 11
1162.0391650844654
 21
821.13342671163537
  0
ARC
  8
_0-1_計細線
  6
CONTINUOUS
 62
    3
 10
1153.6391650866722
 20
819.63342671163514
 40
1
 50
0
 51
89.999999999999915
  0
LINE
  8
_0-1_計細線
  6
CONTINUOUS
 62
    3
 10
1153.6391650866722
 20
820.6334267116348
 11
1151.1391650866724
 21
820.6334267116348
  0
ARC
  8
_0-1_計細線
  6
CONTINUOUS
 62
    3
 10
1159.039165086672
 20
819.63342671163514
 40
1
 50
89.999999999999915
 51
179.99999999999983
  0
LINE
  8
_0-1_計細線
  6
CONTINUOUS
 62
    3
 10
1159.0391650844647
 20
820.6334267116348
 11
1161.5391650844656
 21
820.6334267116348
  0
LINE
  8
_0-1_計細線
  6
CONTINUOUS
 62
    3
 10
1158.839165085569
 20
824.53342671163466
 11
1153.839165085569
 21
824.53342671163466
  0
LINE
  8
_0-1_計細線
  6
CONTINUOUS
 62
    3
 10
1154.6391650855683
 20
799.53342671163489
 11
1154.6391650866724
 21
819.63342671163514
  0
LINE
  8
_0-1_計細線
  6
CONTINUOUS
 62
    3
 10
1158.0391650855686
 20
799.53342671163489
 11
1158.039165086672
 21
819.63342671163514
  0
LINE
  8
_0-1_計細線
  6
CONTINUOUS
 62
    3
 10
1158.0391650855686
 20
799.53342671163489
 11
1154.6391650855683
 21
799.53342671163489
  0
LINE
  8
_0-1_計細線
  6
CONTINUOUS
 62
    3
 10
1158.0391650861209
 20
819.83342671163484
 11
1172.0391650860681
 21
819.83342671163484
  0
LINE
  8
_0-1_計細線
  6
CONTINUOUS
 62
    3
 10
1158.0391650861209
 20
806.83342671163507
 11
1172.0391650853539
 21
806.83342671163507
  0
LINE
  8
_0-1_計細線
  6
CONTINUOUS
 62
    3
 10
1140.6391650867358
 20
819.83342671163484
 11
1154.6391650866833
 21
819.83342671163484
  0
LINE
  8
_0-1_計細線
  6
CONTINUOUS
 62
    3
 10
1140.6391650867358
 20
806.83342671163507
 11
1154.6391650859694
 21
806.83342671163507
  0
ARC
  8
_0-1_計細線
  6
CONTINUOUS
 62
    3
 10
1578.6391650714181
 20
822.53342671163512
 40
1
 50
0
 51
89.999999999999915
  0
ARC
  8
_0-1_計細線
  6
CONTINUOUS
 62
    3
 10
1578.1712158800908
 20
824.53342671163466
 40
1
 50
209.99999999999866
 51
269.99999999999977
  0
ARC
  8
_0-1_計細線
  6
CONTINUOUS
 62
    3
 10
1576.4391650725215
 20
823.533426711635
 40
1
 50
29.99999999997862
 51
89.999999999999915
  0
LINE
  8
_0-1_計細線
  6
CONTINUOUS
 62
    3
 10
1578.6391650714181
 20
823.533426711635
 11
1578.1712158800908
 21
823.533426711635
  0
ARC
  8
_0-1_計細線
  6
CONTINUOUS
 62
    3
 10
1569.2391650736258
 20
822.53342671163512
 40
1
 50
89.999999999999915
 51
179.99999999999983
  0
ARC
  8
_0-1_計細線
  6
CONTINUOUS
 62
    3
 10
1569.7071142649534
 20
824.53342671163466
 40
1
 50
269.99999999999977
 51
330.00000000000057
  0
ARC
  8
_0-1_計細線
  6
CONTINUOUS
 62
    3
 10
1571.4391650725227
 20
823.533426711635
 40
1
 50
90.000000000052111
 51
150.00000000002137
  0
LINE
  8
_0-1_計細線
  6
CONTINUOUS
 62
    3
 10
1569.2391650736258
 20
823.533426711635
 11
1569.7071142649534
 21
823.533426711635
  0
ARC
  8
_0-1_計細線
  6
CONTINUOUS
 62
    3
 10
1579.1391650714181
 20
821.13342671163537
 40
0.5
 50
269.99999999999977
 51
359.99999999999966
  0
LINE
  8
_0-1_計細線
  6
CONTINUOUS
 62
    3
 10
1579.6391650714183
 20
822.53342671163512
 11
1579.6391650714183
 21
821.13342671163537
  0
ARC
  8
_0-1_計細線
  6
CONTINUOUS
 62
    3
 10
1568.7391650736249
 20
821.13342671163537
 40
0.5
 50
179.99999999999983
 51
269.99999999999977
  0
LINE
  8
_0-1_計細線
  6
CONTINUOUS
 62
    3
 10
1568.2391650736251
 20
822.53342671163512
 11
1568.2391650736251
 21
821.13342671163537
  0
ARC
  8
_0-1_計細線
  6
CONTINUOUS
 62
    3
 10
1576.6391650714183
 20
819.63342671163514
 40
1
 50
89.999999999999915
 51
179.99999999999983
  0
LINE
  8
_0-1_計細線
  6
CONTINUOUS
 62
    3
 10
1576.6391650714183
 20
820.6334267116348
 11
1579.1391650714181
 21
820.6334267116348
  0
ARC
  8
_0-1_計細線
  6
CONTINUOUS
 62
    3
 10
1571.2391650714185
 20
819.63342671163514
 40
1
 50
0
 51
89.999999999999915
  0
LINE
  8
_0-1_計細線
  6
CONTINUOUS
 62
    3
 10
1571.2391650736258
 20
820.6334267116348
 11
1568.7391650736249
 21
820.6334267116348
  0
LINE
  8
_0-1_計細線
  6
CONTINUOUS
 62
    3
 10
1571.4391650725227
 20
824.53342671163466
 11
1576.4391650725215
 21
824.53342671163466
  0
LINE
  8
_0-1_計細線
  6
CONTINUOUS
 62
    3
 10
1575.6391650725222
 20
799.53342671163489
 11
1575.6391650714193
 21
819.63342671163514
  0
LINE
  8
_0-1_計細線
  6
CONTINUOUS
 62
    3
 10
1572.2391650725219
 20
799.53342671163489
 11
1572.2391650714185
 21
819.63342671163514
  0
LINE
  8
_0-1_計細線
  6
CONTINUOUS
 62
    3
 10
1572.2391650725219
 20
799.53342671163489
 11
1575.6391650725222
 21
799.53342671163489
  0
LINE
  8
_0-1_計細線
  6
CONTINUOUS
 62
    3
 10
1572.2391650719708
 20
819.83342671163484
 11
1558.2391650720224
 21
819.83342671163484
  0
LINE
  8
_0-1_計細線
  6
CONTINUOUS
 62
    3
 10
1572.2391650719708
 20
806.83342671163507
 11
1558.2391650727366
 21
806.83342671163507
  0
ARC
  8
_0-1_計細線
  6
CONTINUOUS
 62
    3
 10
1596.0391650708032
 20
822.53342671163512
 40
1
 50
0
 51
89.999999999999915
  0
ARC
  8
_0-1_計細線
  6
CONTINUOUS
 62
    3
 10
1595.5712158794754
 20
824.53342671163466
 40
1
 50
209.99999999999866
 51
269.99999999999977
  0
ARC
  8
_0-1_計細線
  6
CONTINUOUS
 62
    3
 10
1593.8391650719063
 20
823.533426711635
 40
1
 50
29.99999999997862
 51
89.999999999999915
  0
LINE
  8
_0-1_計細線
  6
CONTINUOUS
 62
    3
 10
1596.0391650708032
 20
823.533426711635
 11
1595.5712158794754
 21
823.533426711635
  0
ARC
  8
_0-1_計細線
  6
CONTINUOUS
 62
    3
 10
1586.6391650730109
 20
822.53342671163512
 40
1
 50
89.999999999999915
 51
179.99999999999983
  0
ARC
  8
_0-1_計細線
  6
CONTINUOUS
 62
    3
 10
1587.1071142643382
 20
824.53342671163466
 40
1
 50
269.99999999999977
 51
330.00000000000057
  0
ARC
  8
_0-1_計細線
  6
CONTINUOUS
 62
    3
 10
1588.8391650719072
 20
823.533426711635
 40
1
 50
90.000000000052111
 51
150.00000000002137
  0
LINE
  8
_0-1_計細線
  6
CONTINUOUS
 62
    3
 10
1586.6391650730109
 20
823.533426711635
 11
1587.1071142643382
 21
823.533426711635
  0
ARC
  8
_0-1_計細線
  6
CONTINUOUS
 62
    3
 10
1596.5391650708029
 20
821.13342671163537
 40
0.5
 50
269.99999999999977
 51
359.99999999999966
  0
LINE
  8
_0-1_計細線
  6
CONTINUOUS
 62
    3
 10
1597.0391650708029
 20
822.53342671163512
 11
1597.0391650708029
 21
821.13342671163537
  0
ARC
  8
_0-1_計細線
  6
CONTINUOUS
 62
    3
 10
1586.13916507301
 20
821.13342671163537
 40
0.5
 50
179.99999999999983
 51
269.99999999999977
  0
LINE
  8
_0-1_計細線
  6
CONTINUOUS
 62
    3
 10
1585.6391650730097
 20
822.53342671163512
 11
1585.6391650730097
 21
821.13342671163537
  0
ARC
  8
_0-1_計細線
  6
CONTINUOUS
 62
    3
 10
1594.0391650708029
 20
819.63342671163514
 40
1
 50
89.999999999999915
 51
179.99999999999983
  0
LINE
  8
_0-1_計細線
  6
CONTINUOUS
 62
    3
 10
1594.0391650708029
 20
820.6334267116348
 11
1596.5391650708029
 21
820.6334267116348
  0
ARC
  8
_0-1_計細線
  6
CONTINUOUS
 62
    3
 10
1588.6391650708033
 20
819.63342671163514
 40
1
 50
0
 51
89.999999999999915
  0
LINE
  8
_0-1_計細線
  6
CONTINUOUS
 62
    3
 10
1588.6391650730106
 20
820.6334267116348
 11
1586.13916507301
 21
820.6334267116348
  0
LINE
  8
_0-1_計細線
  6
CONTINUOUS
 62
    3
 10
1588.8391650719072
 20
824.53342671163466
 11
1593.8391650719063
 21
824.53342671163466
  0
LINE
  8
_0-1_計細線
  6
CONTINUOUS
 62
    3
 10
1593.0391650719071
 20
799.53342671163489
 11
1593.0391650708038
 21
819.63342671163514
  0
LINE
  8
_0-1_計細線
  6
CONTINUOUS
 62
    3
 10
1589.6391650719065
 20
799.53342671163489
 11
1589.6391650708035
 21
819.63342671163514
  0
LINE
  8
_0-1_計細線
  6
CONTINUOUS
 62
    3
 10
1589.6391650719065
 20
799.53342671163489
 11
1593.0391650719071
 21
799.53342671163489
  0
LINE
  8
_0-1_計細線
  6
CONTINUOUS
 62
    3
 10
1589.6391650713554
 20
819.83342671163484
 11
1575.6391650714072
 21
819.83342671163484
  0
LINE
  8
_0-1_計細線
  6
CONTINUOUS
 62
    3
 10
1589.6391650713554
 20
806.83342671163507
 11
1575.6391650721212
 21
806.83342671163507
  0
ARC
  8
_0-1_計細線
  6
CONTINUOUS
 62
    3
 10
1118.3391650773517
 20
807.03342671163489
 40
0.2
 50
179.99999999999983
 51
269.99999999999977
  0
ARC
  8
_0-1_計細線
  6
CONTINUOUS
 62
    3
 10
1118.3391650773517
 20
819.63342671163502
 40
0.2
 50
89.999999999999915
 51
179.99999999999983
  0
LINE
  8
_0-1_計細線
  6
CONTINUOUS
 62
    3
 10
1118.1391650773519
 20
812.83342671163507
 11
1118.1391650773519
 21
807.03342671163489
  0
LINE
  8
_0-1_計細線
  6
CONTINUOUS
 62
    3
 10
1118.1391650773519
 20
819.63342671163502
 11
1118.1391650773519
 21
812.83342671163507
  0
LINE
  8
_0-1_計細線
  6
CONTINUOUS
 62
    3
 10
1119.1391650765304
 20
819.83342671163518
 11
1118.3391650773517
 21
819.83342671163518
  0
LINE
  8
_0-1_計細線
  6
CONTINUOUS
 62
    3
 10
1119.1391650772446
 20
806.83342671163507
 11
1118.3391650773517
 21
806.83342671163507
  0
LINE
  8
_0-1_計細線
  6
CONTINUOUS
 62
    3
 10
1118.1391650773519
 20
813.33342671163496
 11
1115.1346490773517
 21
813.33342671163496
  0
LINE
  8
_0-1_計細線
  6
CONTINUOUS
 62
    3
 10
1118.1391650773519
 20
809.83342671163507
 11
1115.1346370773524
 21
809.83342671163507
  0
ARC
  8
_0-1_計細線
  6
CONTINUOUS
 62
    3
 10
1115.1346370773524
 20
810.03342671163489
 40
0.2
 50
179.99999999999983
 51
269.99999999999977
  0
ARC
  8
_0-1_計細線
  6
CONTINUOUS
 62
    3
 10
1122.692617077352
 20
811.58328071163555
 40
7.7579560000000001
 50
166.96197800000661
 51
193.03566999999887
  0
ARC
  8
_0-1_計細線
  6
CONTINUOUS
 62
    3
 10
1115.1346370773524
 20
816.63342671163559
 40
0.2
 50
89.999999999999915
 51
179.99999999999983
  0
ARC
  8
_0-1_計細線
  6
CONTINUOUS
 62
    3
 10
1122.692617077352
 20
815.08357071163471
 40
7.7579560000000001
 50
166.96433000000079
 51
193.03802199999794
  0
LINE
  8
_0-1_計細線
  6
CONTINUOUS
 62
    3
 10
1118.1391650773519
 20
816.83342671163541
 11
1115.1346370773524
 21
816.83342671163541
  0
LINE
  8
_0-1_計細線
  6
CONTINUOUS
 62
    3
 10
1114.9346370773526
 20
810.03342671163489
 11
1114.9346370773526
 21
816.63342671163559
  0
ARC
  8
_0-1_計細線
  6
CONTINUOUS
 62
    3
 10
1125.5391650765312
 20
822.53342671163512
 40
1
 50
0
 51
89.999999999999915
  0
ARC
  8
_0-1_計細線
  6
CONTINUOUS
 62
    3
 10
1125.0712158852036
 20
824.53342671163466
 40
1
 50
209.9999999999726
 51
269.99999999999977
  0
ARC
  8
_0-1_計細線
  6
CONTINUOUS
 62
    3
 10
1123.3391650776343
 20
823.533426711635
 40
1
 50
30.000000000004672
 51
89.999999999999915
  0
LINE
  8
_0-1_計細線
  6
CONTINUOUS
 62
    3
 10
1125.5391650765312
 20
823.533426711635
 11
1125.0712158852036
 21
823.533426711635
  0
ARC
  8
_0-1_計細線
  6
CONTINUOUS
 62
    3
 10
1116.1391650787377
 20
822.53342671163512
 40
1
 50
89.999999999999915
 51
179.99999999999983
  0
ARC
  8
_0-1_計細線
  6
CONTINUOUS
 62
    3
 10
1116.6071142700655
 20
824.53342671163466
 40
1
 50
269.99999999999977
 51
330.00000000002666
  0
ARC
  8
_0-1_計細線
  6
CONTINUOUS
 62
    3
 10
1118.3391650776346
 20
823.533426711635
 40
1
 50
89.999999999999915
 51
149.99999999999534
  0
LINE
  8
_0-1_計細線
  6
CONTINUOUS
 62
    3
 10
1116.1391650787377
 20
823.533426711635
 11
1116.6071142700655
 21
823.533426711635
  0
ARC
  8
_0-1_計細線
  6
CONTINUOUS
 62
    3
 10
1126.0391650765309
 20
821.13342671163537
 40
0.5
 50
269.99999999999977
 51
359.99999999999966
  0
LINE
  8
_0-1_計細線
  6
CONTINUOUS
 62
    3
 10
1126.5391650765312
 20
822.53342671163512
 11
1126.5391650765312
 21
821.13342671163537
  0
ARC
  8
_0-1_計細線
  6
CONTINUOUS
 62
    3
 10
1115.639165078738
 20
821.13342671163537
 40
0.5
 50
179.99999999999983
 51
269.99999999999977
  0
LINE
  8
_0-1_計細線
  6
CONTINUOUS
 62
    3
 10
1115.139165078738
 20
822.53342671163512
 11
1115.139165078738
 21
821.13342671163537
  0
ARC
  8
_0-1_計細線
  6
CONTINUOUS
 62
    3
 10
1123.5391650765312
 20
819.63342671163514
 40
1
 50
89.999999999999915
 51
179.99999999999983
  0
LINE
  8
_0-1_計細線
  6
CONTINUOUS
 62
    3
 10
1123.5391650765312
 20
820.6334267116348
 11
1126.0391650765309
 21
820.6334267116348
  0
ARC
  8
_0-1_計細線
  6
CONTINUOUS
 62
    3
 10
1118.1391650765306
 20
819.63342671163514
 40
1
 50
0
 51
89.999999999999915
  0
LINE
  8
_0-1_計細線
  6
CONTINUOUS
 62
    3
 10
1118.1391650787386
 20
820.6334267116348
 11
1115.639165078738
 21
820.6334267116348
  0
LINE
  8
_0-1_計細線
  6
CONTINUOUS
 62
    3
 10
1118.3391650776346
 20
824.53342671163466
 11
1123.3391650776343
 21
824.53342671163466
  0
LINE
  8
_0-1_計細線
  6
CONTINUOUS
 62
    3
 10
1122.5391650776344
 20
799.53342671163489
 11
1122.5391650765312
 21
819.63342671163514
  0
LINE
  8
_0-1_計細線
  6
CONTINUOUS
 62
    3
 10
1119.1391650776347
 20
799.53342671163489
 11
1119.1391650765304
 21
819.63342671163514
  0
LINE
  8
_0-1_計細線
  6
CONTINUOUS
 62
    3
 10
1119.1391650776347
 20
799.53342671163489
 11
1122.5391650776344
 21
799.53342671163489
  0
LINE
  8
_0-1_計細線
  6
CONTINUOUS
 62
    3
 10
1122.5391650772337
 20
806.83342671163507
 11
1137.2391650865845
 21
806.83342671163507
  0
LINE
  8
_0-1_計細線
  6
CONTINUOUS
 62
    3
 10
1122.5593691794177
 20
819.83342671163484
 11
1137.2391650872983
 21
819.83342671163484
  0
ARC
  8
_0-1_計細線
  6
CONTINUOUS
 62
    3
 10
1611.9391650807006
 20
807.03342671163489
 40
0.2
 50
269.99999999999977
 51
359.99999999999966
  0
ARC
  8
_0-1_計細線
  6
CONTINUOUS
 62
    3
 10
1611.9391650807006
 20
819.63342671163502
 40
0.2
 50
0
 51
89.999999999999915
  0
LINE
  8
_0-1_計細線
  6
CONTINUOUS
 62
    3
 10
1612.1391650807004
 20
812.83342671163507
 11
1612.1391650807004
 21
807.03342671163489
  0
LINE
  8
_0-1_計細線
  6
CONTINUOUS
 62
    3
 10
1612.1391650807004
 20
819.63342671163502
 11
1612.1391650807004
 21
812.83342671163507
  0
LINE
  8
_0-1_計細線
  6
CONTINUOUS
 62
    3
 10
1611.1391650802314
 20
806.83342671163507
 11
1611.9391650807006
 21
806.83342671163507
  0
LINE
  8
_0-1_計細線
  6
CONTINUOUS
 62
    3
 10
1611.1391650809451
 20
819.83342671163518
 11
1611.9391650807006
 21
819.83342671163518
  0
LINE
  8
_0-1_計細線
  6
CONTINUOUS
 62
    3
 10
1612.1391650807004
 20
813.33342671163496
 11
1615.1436810807006
 21
813.33342671163496
  0
LINE
  8
_0-1_計細線
  6
CONTINUOUS
 62
    3
 10
1612.1391650807004
 20
809.83342671163507
 11
1615.1436930806999
 21
809.83342671163507
  0
ARC
  8
_0-1_計細線
  6
CONTINUOUS
 62
    3
 10
1615.1436930806999
 20
810.03342671163489
 40
0.2
 50
269.99999999999977
 51
359.99999999999966
  0
ARC
  8
_0-1_計細線
  6
CONTINUOUS
 62
    3
 10
1607.5857130807003
 20
811.58328071163555
 40
7.7579560000000001
 50
346.96433000000042
 51
13.038021999993047
  0
ARC
  8
_0-1_計細線
  6
CONTINUOUS
 62
    3
 10
1615.1436930806999
 20
816.63342671163559
 40
0.2
 50
0
 51
89.999999999999915
  0
ARC
  8
_0-1_計細線
  6
CONTINUOUS
 62
    3
 10
1607.5857130807003
 20
815.08357071163471
 40
7.7579560000000001
 50
346.96197800000135
 51
13.035669999998861
  0
LINE
  8
_0-1_計細線
  6
CONTINUOUS
 62
    3
 10
1612.1391650807004
 20
816.83342671163541
 11
1615.1436930806999
 21
816.83342671163541
  0
LINE
  8
_0-1_計細線
  6
CONTINUOUS
 62
    3
 10
1615.3436930807006
 20
810.03342671163489
 11
1615.3436930807006
 21
816.63342671163559
  0
ARC
  8
_0-1_計細線
  6
CONTINUOUS
 62
    3
 10
1604.7391650809445
 20
822.53342671163512
 40
1
 50
89.999999999999915
 51
179.99999999999983
  0
ARC
  8
_0-1_計細線
  6
CONTINUOUS
 62
    3
 10
1605.207114272273
 20
824.53342671163466
 40
1
 50
269.99999999999977
 51
330.00000000000057
  0
ARC
  8
_0-1_計細線
  6
CONTINUOUS
 62
    3
 10
1606.9391650798411
 20
823.533426711635
 40
1
 50
89.999999999999915
 51
149.99999999999534
  0
LINE
  8
_0-1_計細線
  6
CONTINUOUS
 62
    3
 10
1604.7391650809445
 20
823.533426711635
 11
1605.207114272273
 21
823.533426711635
  0
ARC
  8
_0-1_計細線
  6
CONTINUOUS
 62
    3
 10
1614.1391650787377
 20
822.53342671163512
 40
1
 50
0
 51
89.999999999999915
  0
ARC
  8
_0-1_計細線
  6
CONTINUOUS
 62
    3
 10
1613.6712158874104
 20
824.53342671163466
 40
1
 50
209.99999999999866
 51
269.99999999999977
  0
ARC
  8
_0-1_計細線
  6
CONTINUOUS
 62
    3
 10
1611.9391650798411
 20
823.533426711635
 40
1
 50
29.99999999997862
 51
89.999999999947889
  0
LINE
  8
_0-1_計細線
  6
CONTINUOUS
 62
    3
 10
1614.1391650787377
 20
823.533426711635
 11
1613.6712158874104
 21
823.533426711635
  0
ARC
  8
_0-1_計細線
  6
CONTINUOUS
 62
    3
 10
1604.2391650809445
 20
821.13342671163537
 40
0.5
 50
179.99999999999983
 51
269.99999999999977
  0
LINE
  8
_0-1_計細線
  6
CONTINUOUS
 62
    3
 10
1603.7391650809454
 20
822.53342671163512
 11
1603.7391650809454
 21
821.13342671163537
  0
ARC
  8
_0-1_計細線
  6
CONTINUOUS
 62
    3
 10
1614.6391650787377
 20
821.13342671163537
 40
0.5
 50
269.99999999999977
 51
359.99999999999966
  0
LINE
  8
_0-1_計細線
  6
CONTINUOUS
 62
    3
 10
1615.139165078738
 20
822.53342671163512
 11
1615.139165078738
 21
821.13342671163537
  0
ARC
  8
_0-1_計細線
  6
CONTINUOUS
 62
    3
 10
1606.7391650809454
 20
819.63342671163514
 40
1
 50
0
 51
89.999999999999915
  0
LINE
  8
_0-1_計細線
  6
CONTINUOUS
 62
    3
 10
1606.7391650809454
 20
820.6334267116348
 11
1604.2391650809445
 21
820.6334267116348
  0
ARC
  8
_0-1_計細線
  6
CONTINUOUS
 62
    3
 10
1612.1391650809453
 20
819.63342671163514
 40
1
 50
89.999999999999915
 51
179.99999999999983
  0
LINE
  8
_0-1_計細線
  6
CONTINUOUS
 62
    3
 10
1612.139165078738
 20
820.6334267116348
 11
1614.6391650787377
 21
820.6334267116348
  0
LINE
  8
_0-1_計細線
  6
CONTINUOUS
 62
    3
 10
1611.9391650798411
 20
824.53342671163466
 11
1606.9391650798411
 21
824.53342671163466
  0
LINE
  8
_0-1_計細線
  6
CONTINUOUS
 62
    3
 10
1607.7391650798415
 20
799.53342671163489
 11
1607.7391650809445
 21
819.63342671163514
  0
LINE
  8
_0-1_計細線
  6
CONTINUOUS
 62
    3
 10
1611.1391650798419
 20
799.53342671163489
 11
1611.1391650809451
 21
819.63342671163514
  0
LINE
  8
_0-1_計細線
  6
CONTINUOUS
 62
    3
 10
1611.1391650798419
 20
799.53342671163489
 11
1607.7391650798415
 21
799.53342671163489
  0
LINE
  8
_0-1_計細線
  6
CONTINUOUS
 62
    3
 10
1593.0391650715064
 20
806.83342671163507
 11
1607.7391650808572
 21
806.83342671163507
  0
LINE
  8
_0-1_計細線
  6
CONTINUOUS
 62
    3
 10
1607.7189609780589
 20
819.83342671163484
 11
1593.0391650707923
 21
819.83342671163484
  0
ARC
  8
_0-1_計細線
  6
CONTINUOUS
 62
    3
 10
1134.2391650872873
 20
822.53342671163512
 40
1
 50
89.999999999999915
 51
179.99999999999983
  0
ARC
  8
_0-1_計細線
  6
CONTINUOUS
 62
    3
 10
1134.7071142786151
 20
824.53342671163466
 40
1
 50
269.99999999999977
 51
330.00000000000057
  0
ARC
  8
_0-1_計細線
  6
CONTINUOUS
 62
    3
 10
1136.4391650861842
 20
823.533426711635
 40
1
 50
89.999999999999915
 51
150.00000000002137
  0
LINE
  8
_0-1_計細線
  6
CONTINUOUS
 62
    3
 10
1134.2391650872873
 20
823.533426711635
 11
1134.7071142786151
 21
823.533426711635
  0
ARC
  8
_0-1_計細線
  6
CONTINUOUS
 62
    3
 10
1143.6391650850796
 20
822.53342671163512
 40
1
 50
0
 51
89.999999999999915
  0
ARC
  8
_0-1_計細線
  6
CONTINUOUS
 62
    3
 10
1143.1712158937523
 20
824.53342671163466
 40
1
 50
209.99999999999866
 51
269.99999999999977
  0
ARC
  8
_0-1_計細線
  6
CONTINUOUS
 62
    3
 10
1141.4391650861839
 20
823.533426711635
 40
1
 50
30.000000000004672
 51
89.999999999999915
  0
LINE
  8
_0-1_計細線
  6
CONTINUOUS
 62
    3
 10
1143.6391650850796
 20
823.533426711635
 11
1143.1712158937523
 21
823.533426711635
  0
ARC
  8
_0-1_計細線
  6
CONTINUOUS
 62
    3
 10
1133.7391650872876
 20
821.13342671163537
 40
0.5
 50
179.99999999999983
 51
269.99999999999977
  0
LINE
  8
_0-1_計細線
  6
CONTINUOUS
 62
    3
 10
1133.2391650872876
 20
822.53342671163512
 11
1133.2391650872876
 21
821.13342671163537
  0
ARC
  8
_0-1_計細線
  6
CONTINUOUS
 62
    3
 10
1144.1391650850805
 20
821.13342671163537
 40
0.5
 50
269.99999999999977
 51
359.99999999999966
  0
LINE
  8
_0-1_計細線
  6
CONTINUOUS
 62
    3
 10
1144.6391650850808
 20
822.53342671163512
 11
1144.6391650850808
 21
821.13342671163537
  0
ARC
  8
_0-1_計細線
  6
CONTINUOUS
 62
    3
 10
1136.2391650872876
 20
819.63342671163514
 40
1
 50
0
 51
89.999999999999915
  0
LINE
  8
_0-1_計細線
  6
CONTINUOUS
 62
    3
 10
1136.2391650872876
 20
820.6334267116348
 11
1133.7391650872876
 21
820.6334267116348
  0
ARC
  8
_0-1_計細線
  6
CONTINUOUS
 62
    3
 10
1141.6391650872872
 20
819.63342671163514
 40
1
 50
89.999999999999915
 51
179.99999999999983
  0
LINE
  8
_0-1_計細線
  6
CONTINUOUS
 62
    3
 10
1141.6391650850799
 20
820.6334267116348
 11
1144.1391650850805
 21
820.6334267116348
  0
LINE
  8
_0-1_計細線
  6
CONTINUOUS
 62
    3
 10
1141.4391650861839
 20
824.53342671163466
 11
1136.4391650861842
 21
824.53342671163466
  0
LINE
  8
_0-1_計細線
  6
CONTINUOUS
 62
    3
 10
1137.2391650861834
 20
799.53342671163489
 11
1137.2391650872873
 21
819.63342671163514
  0
LINE
  8
_0-1_計細線
  6
CONTINUOUS
 62
    3
 10
1140.639165086184
 20
799.53342671163489
 11
1140.639165087287
 21
819.63342671163514
  0
LINE
  8
_0-1_計細線
  6
CONTINUOUS
 62
    3
 10
1140.639165086184
 20
799.53342671163489
 11
1137.2391650861834
 21
799.53342671163489
  0
TEXT
  8
_0-7_枠細線
 62
    5
 10
1153.2000000000003
 20
544.48023598978273
 40
18.000000000000004
 41
0.8
 50
0
  1
品　　番
  0
LINE
  8
_0-7_枠細線
  6
CONTINUOUS
 62
    5
 10
1110
 20
478.48023598978278
 11
1494.0000000000002
 21
478.48023598978278
  0
LINE
  8
_0-7_枠細線
  6
CONTINUOUS
 62
    5
 10
1110
 20
508.48023598978278
 11
1494.0000000000002
 21
508.48023598978278
  0
LINE
  8
_0-7_枠細線
  6
CONTINUOUS
 62
    5
 10
1110
 20
538.48023598978273
 11
1494.0000000000002
 21
538.48023598978273
  0
TEXT
  8
_0-7_枠細線
 62
    5
 10
1306.8000000000004
 20
544.48023598978273
 40
18.000000000000004
 41
0.8
 50
0
  1
色
  0
TEXT
  8
_0-7_枠細線
 62
    5
 10
1405.2000000000005
 20
544.48023598978273
 40
18.000000000000004
 41
0.8
 50
0
  1
備　　考
  0
LINE
  8
_0-7_枠細線
  6
CONTINUOUS
 62
    5
 10
1110
 20
568.48023598978273
 11
1494.0000000000002
 21
568.48023598978273
  0
LINE
  8
_0-7_枠細線
  6
CONTINUOUS
 62
    5
 10
1110
 20
298.48023598978273
 11
1494.0000000000002
 21
298.48023598978273
  0
LINE
  8
_0-7_枠細線
  6
CONTINUOUS
 62
    5
 10
1110
 20
448.48023598978273
 11
1494.0000000000002
 21
448.48023598978273
  0
LINE
  8
_0-7_枠細線
  6
CONTINUOUS
 62
    5
 10
1110
 20
418.48023598978273
 11
1494.0000000000002
 21
418.48023598978273
  0
LINE
  8
_0-7_枠細線
  6
CONTINUOUS
 62
    5
 10
1110
 20
388.48023598978273
 11
1494.0000000000002
 21
388.48023598978273
  0
LINE
  8
_0-7_枠細線
  6
CONTINUOUS
 62
    5
 10
1110
 20
358.48023598978273
 11
1494.0000000000002
 21
358.48023598978273
  0
LINE
  8
_0-7_枠細線
  6
CONTINUOUS
 62
    5
 10
1110
 20
328.48023598978273
 11
1494.0000000000002
 21
328.48023598978273
  0
TEXT
  8
_0-7_枠細線
 62
    5
 10
1228.5
 20
574.48023598978273
 40
21.000000000000004
 41
1
 50
0
  1
品番表
  0
LINE
  8
_0-7_枠細線
  6
CONTINUOUS
 62
    5
 10
1110
 20
268.48023598978273
 11
1494.0000000000002
 21
268.48023598978273
  0
LINE
  8
_0-7_枠細線
  6
CONTINUOUS
 62
    5
 10
1494.0000000000002
 20
568.48023598978273
 11
1494.0000000000002
 21
268.48023598978273
  0
LINE
  8
_0-7_枠細線
  6
CONTINUOUS
 62
    5
 10
1374
 20
568.48023598978273
 11
1374
 21
268.48023598978273
  0
LINE
  8
_0-7_枠細線
  6
CONTINUOUS
 62
    5
 10
1254.0000000000005
 20
568.48023598978273
 11
1254.0000000000005
 21
268.48023598978273
  0
LINE
  8
_0-7_枠細線
  6
CONTINUOUS
 62
    5
 10
1110
 20
568.48023598978273
 11
1110
 21
268.48023598978273
  0
LINE
  8
_0-7_枠細線
  6
CONTINUOUS
 62
    5
 10
1548.9511007961914
 20
472.48023598978278
 11
1548.9511007961914
 21
568.48023598978273
  0
TEXT
  8
_0-7_枠細線
 62
    5
 10
1575.9511007961914
 20
541.48023598978273
 40
18.000000000000007
 41
1
 50
0
  1
耐荷重
  0
TEXT
  8
_0-7_枠細線
 62
    5
 10
1557.9511007961914
 20
481.48023598978278
 40
18.000000000000007
 41
1
 50
0
  1
（歩道用）
  0
LINE
  8
_0-7_枠細線
  6
CONTINUOUS
 62
    5
 10
1656.9511007961914
 20
472.48023598978278
 11
1656.9511007961914
 21
568.48023598978273
  0
LINE
  8
_0-7_枠細線
  6
CONTINUOUS
 62
    5
 10
1548.9511007961914
 20
568.48023598978273
 11
1656.9511007961914
 21
568.48023598978273
  0
LINE
  8
_0-7_枠細線
  6
CONTINUOUS
 62
    5
 10
1548.9511007961914
 20
532.48023598978284
 11
1656.9511007961914
 21
532.48023598978284
  0
LINE
  8
_0-7_枠細線
  6
CONTINUOUS
 62
    5
 10
1548.9511007961914
 20
472.48023598978278
 11
1656.9511007961914
 21
472.48023598978278
  0
TEXT
  8
_0-7_枠細線
 62
    5
 10
1566.9511007961914
 20
505.48023598978278
 40
18.000000000000007
 41
1
 50
0
  1
5.0kN/㎡
  0
TEXT
  8
_0-7_枠細線
 62
    5
 10
1506
 20
113.99999999999974
 40
24
 41
1
 50
0
  1
大野
  0
TEXT
  8
_0-7_枠細線
 62
    5
 10
1578
 20
113.99999999999974
 40
24
 41
1
 50
0
  1
深川
  0
TEXT
  8
_0-7_枠細線
 62
    5
 10
1571.9999999999995
 20
80.999999999999744
 40
18.000000000000011
 41
0.6666666666666665
 50
0
  1
２０１７年０４月０１日
  0
TEXT
  8
_0-7_枠細線
 62
    5
 10
1115.7000000000005
 20
514.48023598978284
 40
18.000000000000004
 41
0.5666666666666666
 50
0
  1
ＧＲＳＫ－２５Ｋ５００－Ｂ
  0
TEXT
  8
_0-7_枠細線
 62
    5
 10
1115.7000000000005
 20
484.48023598978278
 40
18.000000000000004
 41
0.5666666666666666
 50
0
  1
ＧＲＳＫ－２５Ｋ５００－Ｇ
  0
TEXT
  8
_0-7_枠細線
 62
    5
 10
1115.7000000000005
 20
454.48023598978284
 40
18.000000000000004
 41
0.5666666666666666
 50
0
  1
ＧＲＳＫ－２５Ｋ５００－Ｓ
  0
TEXT
  8
_0-7_枠細線
 62
    5
 10
1115.7000000000005
 20
424.48023598978273
 40
18.000000000000004
 41
0.5666666666666666
 50
0
  1
ＧＲＳＫ－２５Ｋ５００－Ｐ
  0
TEXT
  8
_0-7_枠細線
 62
    5
 10
1115.7000000000005
 20
394.48023598978273
 40
18.000000000000004
 41
0.5666666666666666
 50
0
  1
ＧＲＳＫ－２５Ｋ５００－Ａ
  0
TEXT
  8
_0-7_枠細線
 62
    5
 10
1115.7000000000005
 20
364.48023598978273
 40
18.000000000000004
 41
0.5666666666666666
 50
0
  1
ＧＲＳＫ－２５Ｋ５００－Ｄ
  0
TEXT
  8
_0-7_枠細線
 62
    5
 10
1115.7000000000005
 20
334.48023598978273
 40
18.000000000000004
 41
0.5666666666666666
 50
0
  1
ＧＲＳＫ－２５Ｋ５００－Ｍ
  0
TEXT
  8
_0-7_枠細線
 62
    5
 10
1115.7000000000005
 20
304.48023598978273
 40
18.000000000000004
 41
0.5666666666666666
 50
0
  1
ＧＲＳＫ－２５Ｋ５００－Ｃ
  0
TEXT
  8
_0-7_枠細線
 62
    5
 10
1115.7000000000005
 20
274.48023598978273
 40
18.000000000000004
 41
0.5666666666666666
 50
0
  1
ＧＲＳＫ－２５Ｋ５００－Ｋ
  0
LINE
  8
_0-9_枠極太
  6
CONTINUOUS
 62
    5
 10
72
 20
72
 11
72
 21
1152
  0
LINE
  8
_0-9_枠極太
  6
CONTINUOUS
 62
    5
 10
72
 20
1152
 11
1710
 21
1152
  0
LINE
  8
_0-9_枠極太
  6
CONTINUOUS
 62
    5
 10
1710
 20
1152
 11
1710
 21
72
  0
LINE
  8
_0-9_枠極太
  6
CONTINUOUS
 62
    5
 10
1710
 20
72
 11
72
 21
72
  0
LINE
  8
_0-0_計極細
  6
CONTINUOUS
 62
    2
 10
1110.1391650787377
 20
808.53364571264206
 11
1110.1391650787377
 21
773.53364571264194
  0
LINE
  8
_0-0_計極細
  6
CONTINUOUS
 62
    2
 10
1110.1391650787377
 20
773.53364571264194
 11
1107.839165078738
 21
773.53364571264194
  0
LINE
  8
_0-0_計極細
  6
CONTINUOUS
 62
    2
 10
1107.839165078738
 20
773.53364571264194
 11
1107.839165078738
 21
808.53364571264206
  0
LINE
  8
_0-0_計極細
  6
CONTINUOUS
 62
    2
 10
1107.839165078738
 20
808.53364571264206
 11
1110.1391650787377
 21
808.53364571264206
  0
LINE
  8
_0-0_計極細
  6
CONTINUOUS
 62
    2
 10
1107.839165078738
 20
792.53364571264206
 11
1110.1391650787377
 21
792.53364571264206
  0
LINE
  8
_0-0_計極細
  6
CONTINUOUS
 62
    2
 10
1107.839165078738
 20
794.53364571264194
 11
1110.1391650787377
 21
794.53364571264194
  0
LINE
  8
_0-0_計極細
  6
CONTINUOUS
 62
    2
 10
1107.839165078738
 20
790.53364571264206
 11
1110.1391650787377
 21
790.53364571264206
  0
LINE
  8
_0-0_計極細
  6
CONTINUOUS
 62
    2
 10
1107.839165078738
 20
796.53364571264206
 11
1110.1391650787377
 21
796.53364571264206
  0
LINE
  8
_0-0_計極細
  6
CONTINUOUS
 62
    2
 10
1110.1391650787377
 20
776.53364571264194
 11
1107.839165078738
 21
776.53364571264194
  0
LINE
  8
_0-0_計極細
  6
CONTINUOUS
 62
    2
 10
1107.839165078738
 20
806.53364571264194
 11
1110.1391650787377
 21
806.53364571264194
  0
LINE
  8
_0-0_計極細
  6
CONTINUOUS
 62
    2
 10
1620.1391650787382
 20
808.53364571264206
 11
1620.1391650787382
 21
773.53364571264194
  0
LINE
  8
_0-0_計極細
  6
CONTINUOUS
 62
    2
 10
1620.1391650787382
 20
773.53364571264194
 11
1622.4391650787381
 21
773.53364571264194
  0
LINE
  8
_0-0_計極細
  6
CONTINUOUS
 62
    2
 10
1622.4391650787381
 20
773.53364571264194
 11
1622.4391650787381
 21
808.53364571264206
  0
LINE
  8
_0-0_計極細
  6
CONTINUOUS
 62
    2
 10
1622.4391650787381
 20
808.53364571264206
 11
1620.1391650787382
 21
808.53364571264206
  0
LINE
  8
_0-0_計極細
  6
CONTINUOUS
 62
    2
 10
1622.4391650787381
 20
792.53364571264206
 11
1620.1391650787382
 21
792.53364571264206
  0
LINE
  8
_0-0_計極細
  6
CONTINUOUS
 62
    2
 10
1622.4391650787381
 20
794.53364571264194
 11
1620.1391650787382
 21
794.53364571264194
  0
LINE
  8
_0-0_計極細
  6
CONTINUOUS
 62
    2
 10
1622.4391650787381
 20
790.53364571264206
 11
1620.1391650787382
 21
790.53364571264206
  0
LINE
  8
_0-0_計極細
  6
CONTINUOUS
 62
    2
 10
1622.4391650787381
 20
796.53364571264206
 11
1620.1391650787382
 21
796.53364571264206
  0
LINE
  8
_0-0_計極細
  6
CONTINUOUS
 62
    2
 10
1620.1391650787382
 20
776.53364571264194
 11
1622.4391650787381
 21
776.53364571264194
  0
LINE
  8
_0-0_計極細
  6
CONTINUOUS
 62
    2
 10
1622.4391650787381
 20
806.53364571264194
 11
1620.1391650787382
 21
806.53364571264194
  0
LINE
  8
_0-7_枠細線
  6
CONTINUOUS
 62
    5
 10
1647.4605849815
 20
795.59676787930357
 11
1638.4605849815
 21
813.59676787930357
  0
LINE
  8
_0-7_枠細線
  6
CONTINUOUS
 62
    5
 10
1629.4605849815
 20
795.59676787930357
 11
1647.4605849815
 21
795.59676787930357
  0
LINE
  8
_0-7_枠細線
  6
CONTINUOUS
 62
    5
 10
1638.4605849815
 20
813.59676787930357
 11
1629.4605849815
 21
795.59676787930357
  0
TEXT
  8
_0-7_枠細線
 62
    5
 10
1632.2987665032774
 20
794.45818392148385
 40
15
 41
0.8
 50
0
  1
１
  0
LINE
  8
_0-7_枠細線
  6
CONTINUOUS
 62
    5
 10
1710
 20
1131
 11
1068
 21
1131
  0
TEXT
  8
_0-7_枠細線
 62
    5
 10
1074
 20
1134
 40
15
 41
1
 50
0
  1
記号
  0
TEXT
  8
_0-7_枠細線
 62
    5
 10
1196.25
 20
1134
 40
15
 41
1
 50
0
  1
訂　 正　 記　 事
  0
TEXT
  8
_0-7_枠細線
 62
    5
 10
1417.5
 20
1134
 40
15
 41
1
 50
0
  1
訂 正 年 月 日
  0
TEXT
  8
_0-7_枠細線
 62
    5
 10
1567.5
 20
1134
 40
15
 41
1
 50
0
  1
備　　　　　考
  0
LINE
  8
_0-7_枠細線
  6
CONTINUOUS
 62
    5
 10
1710
 20
1110
 11
1068
 21
1110
  0
LINE
  8
_0-7_枠細線
  6
CONTINUOUS
 62
    5
 10
1098
 20
1111.7308007660963
 11
1089
 21
1129.7308007660963
  0
LINE
  8
_0-7_枠細線
  6
CONTINUOUS
 62
    5
 10
1080
 20
1111.7308007660963
 11
1098
 21
1111.7308007660963
  0
LINE
  8
_0-7_枠細線
  6
CONTINUOUS
 62
    5
 10
1089
 20
1129.7308007660963
 11
1080
 21
1111.7308007660963
  0
TEXT
  8
_0-7_枠細線
 62
    5
 10
1416
 20
1113
 40
15
 41
0.7199999999999999
 50
0
  1
２０１９．０９．０１
  0
TEXT
  8
_0-7_枠細線
 62
    5
 10
1126.6204444444443
 20
1113
 40
15
 41
1
 50
0
  1
アンカー材質･厚み変更
  0
TEXT
  8
_0-7_枠細線
 62
    5
 10
1082.8381815217776
 20
1110.5922168082761
 40
14.999999999999995
 41
0.8000000000000002
 50
0
  1
１
  0
LINE
  8
_0-7_枠細線
  6
CONTINUOUS
 62
    5
 10
1710
 20
1089
 11
1068
 21
1089
  0
LINE
  8
_0-7_枠細線
  6
CONTINUOUS
 62
    5
 10
1710
 20
1068
 11
1068
 21
1068
  0
TEXT
  8
_0-7_枠細線
 62
    5
 10
1082.8381815217776
 20
1090.36239807164
 40
15
 41
0.8
 50
0
  1
２
  0
LINE
  8
_0-7_枠細線
  6
CONTINUOUS
 62
    5
 10
1089
 20
1108.7308007660963
 11
1080
 21
1090.7308007660963
  0
LINE
  8
_0-7_枠細線
  6
CONTINUOUS
 62
    5
 10
1080
 20
1090.7308007660963
 11
1098
 21
1090.7308007660963
  0
LINE
  8
_0-7_枠細線
  6
CONTINUOUS
 62
    5
 10
1098
 20
1090.7308007660963
 11
1089
 21
1108.7308007660963
  0
TEXT
  8
_0-7_枠細線
 62
    5
 10
1082.8381815217776
 20
1069.0735800978787
 40
15
 41
0.8
 50
0
  1
３
  0
LINE
  8
_0-7_枠細線
  6
CONTINUOUS
 62
    5
 10
1089
 20
1087.7308007660963
 11
1080
 21
1069.7308007660963
  0
LINE
  8
_0-7_枠細線
  6
CONTINUOUS
 62
    5
 10
1080
 20
1069.7308007660963
 11
1098
 21
1069.7308007660963
  0
LINE
  8
_0-7_枠細線
  6
CONTINUOUS
 62
    5
 10
1098
 20
1069.7308007660963
 11
1089
 21
1087.7308007660963
  0
LINE
  8
_0-7_枠細線
  6
CONTINUOUS
 62
    5
 10
1530
 20
1068
 11
1530
 21
1151.9999999999989
  0
LINE
  8
_0-7_枠細線
  6
CONTINUOUS
 62
    5
 10
1410
 20
1068
 11
1410
 21
1151.9999999999989
  0
LINE
  8
_0-7_枠細線
  6
CONTINUOUS
 62
    5
 10
1110
 20
1068
 11
1110
 21
1151.9999999999989
  0
LINE
  8
_0-7_枠細線
  6
CONTINUOUS
 62
    5
 10
1068
 20
1068
 11
1068
 21
1151.9999999999989
  0
TEXT
  8
_0-7_枠細線
 62
    5
 10
1416
 20
1092
 40
15
 41
0.7199999999999999
 50
0
  1
２０２０．０９．０１
  0
TEXT
  8
_0-7_枠細線
 62
    5
 10
1270.8000000000004
 20
484.48023598978278
 40
18.000000000000004
 41
0.7999999999999997
 50
0
  1
ライトグレー
  0
TEXT
  8
_0-7_枠細線
 62
    5
 10
1285.2000000000005
 20
514.48023598978284
 40
18.000000000000004
 41
0.7999999999999997
 50
0
  1
ベージュ
  0
TEXT
  8
_0-7_枠細線
 62
    5
 10
1285.2000000000005
 20
454.48023598978278
 40
18.000000000000004
 41
0.7999999999999997
 50
0
  1
ホワイト
  0
TEXT
  8
_0-7_枠細線
 62
    5
 10
1292.4000000000005
 20
424.48023598978273
 40
18.000000000000004
 41
0.7999999999999997
 50
0
  1
ピンク
  0
TEXT
  8
_0-7_枠細線
 62
    5
 10
1292.4000000000005
 20
394.48023598978273
 40
18.000000000000004
 41
0.7999999999999997
 50
0
  1
ブルー
  0
TEXT
  8
_0-7_枠細線
 62
    5
 10
1270.8000000000004
 20
364.48023598978273
 40
18.000000000000004
 41
0.7999999999999997
 50
0
  1
ダークグレー
  0
TEXT
  8
_0-7_枠細線
 62
    5
 10
1292.4000000000005
 20
334.48023598978273
 40
18.000000000000004
 41
0.7999999999999997
 50
0
  1
ウッド
  0
TEXT
  8
_0-7_枠細線
 62
    5
 10
1285.2000000000005
 20
274.48023598978273
 40
18.000000000000004
 41
0.7999999999999997
 50
0
  1
ブラック
  0
TEXT
  8
_0-7_枠細線
 62
    5
 10
1285.2000000000005
 20
304.48023598978273
 40
18.000000000000004
 41
0.7999999999999997
 50
0
  1
ブラウン
  0
LINE
  8
_0-5_寸法線
  6
CONTINUOUS
 62
    7
 10
1110.1391650787377
 20
830.53362316485754
 11
1110.1391650787377
 21
950.533426711635
  0
LINE
  8
_0-5_寸法線
  6
CONTINUOUS
 62
    7
 10
1110.1391650787377
 20
944.533426711635
 11
1121.7302749942069
 21
947.63925525286515
  0
LINE
  8
_0-5_寸法線
  6
CONTINUOUS
 62
    7
 10
1110.1391650787377
 20
944.533426711635
 11
1121.7302749942069
 21
941.42759817040474
  0
LINE
  8
_0-5_寸法線
  6
CONTINUOUS
 62
    7
 10
1620.1391650787377
 20
830.53362316485754
 11
1620.1391650787377
 21
950.533426711635
  0
LINE
  8
_0-5_寸法線
  6
CONTINUOUS
 62
    7
 10
1620.1391650787377
 20
944.533426711635
 11
1608.5480551632691
 21
941.42759817040485
  0
LINE
  8
_0-5_寸法線
  6
CONTINUOUS
 62
    7
 10
1620.1391650787377
 20
944.533426711635
 11
1608.5480551632691
 21
947.63925525286515
  0
LINE
  8
_0-5_寸法線
  6
CONTINUOUS
 62
    7
 10
1110.1391650787377
 20
944.533426711635
 11
1620.1391650787377
 21
944.533426711635
  0
TEXT
  8
_0-5_寸法線
 62
    7
 10
1351.6391650787382
 20
944.533426711635
 40
18
 41
1
 50
0
  1
510
  0
LINE
  8
_0-5_寸法線
  6
CONTINUOUS
 62
    7
 10
1355.3090280273575
 20
806.41656294885456
 11
1336.6823013470039
 21
819.45913738261015
  0
LINE
  8
_0-5_寸法線
  6
CONTINUOUS
 62
    7
 10
1341.597213612738
 20
816.0176787645039
 11
1338.4913850715075
 21
827.60878867997269
  0
LINE
  8
_0-5_寸法線
  6
CONTINUOUS
 62
    7
 10
1341.597213612738
 20
816.0176787645039
 11
1344.7030421539682
 21
827.60878867997269
  0
LINE
  8
_0-5_寸法線
  6
CONTINUOUS
 62
    7
 10
1355.3090280273575
 20
831.41656294885468
 11
1336.6823013470039
 21
844.45913738261004
  0
LINE
  8
_0-5_寸法線
  6
CONTINUOUS
 62
    7
 10
1341.597213612738
 20
841.01767876450367
 11
1344.7030421539682
 21
829.42656884903488
  0
LINE
  8
_0-5_寸法線
  6
CONTINUOUS
 62
    7
 10
1341.597213612738
 20
841.01767876450367
 11
1338.4913850715075
 21
829.42656884903488
  0
LINE
  8
_0-5_寸法線
  6
CONTINUOUS
 62
    7
 10
1341.597213612738
 20
816.0176787645039
 11
1341.597213612738
 21
841.01767876450367
  0
TEXT
  8
_0-5_寸法線
 62
    7
 10
1341.597213612738
 20
819.51767876450344
 40
18
 41
1
 50
90
  1
25
  0
LINE
  8
_0-5_寸法線
  6
CONTINUOUS
 62
    7
 10
1590.1391650787377
 20
761.53364571264206
 11
1590.1391650787375
 21
698.21092675952445
  0
LINE
  8
_0-5_寸法線
  6
CONTINUOUS
 62
    7
 10
1590.1391650787375
 20
704.21092675952445
 11
1601.7302749942066
 21
707.31675530075472
  0
LINE
  8
_0-5_寸法線
  6
CONTINUOUS
 62
    7
 10
1590.1391650787375
 20
704.21092675952445
 11
1601.7302749942066
 21
701.10509821829419
  0
LINE
  8
_0-5_寸法線
  6
CONTINUOUS
 62
    7
 10
1620.1391650787377
 20
784.53364571264206
 11
1620.1391650787375
 21
698.21092675952445
  0
LINE
  8
_0-5_寸法線
  6
CONTINUOUS
 62
    7
 10
1620.1391650787375
 20
704.21092675952445
 11
1608.5480551632684
 21
701.1050982182943
  0
LINE
  8
_0-5_寸法線
  6
CONTINUOUS
 62
    7
 10
1620.1391650787375
 20
704.21092675952445
 11
1608.5480551632684
 21
707.31675530075472
  0
LINE
  8
_0-5_寸法線
  6
CONTINUOUS
 62
    7
 10
1590.1391650787375
 20
704.21092675952445
 11
1620.1391650787375
 21
704.21092675952445
  0
TEXT
  8
_0-5_寸法線
 62
    7
 10
1596.1391650787377
 20
704.21092675952445
 40
18
 41
1
 50
0
  1
30
  0
TEXT
  8
_0-7_枠細線
 62
    5
 10
1305.4892749657349
 20
638.3950520984115
 40
30
 41
0.8
 50
0
  1
断面詳細図
  0
TEXT
  8
_0-7_枠細線
 62
    5
 10
1443.4280386647365
 20
641.38996660312841
 40
24
 41
0.6
 50
0
  1
Ｓ＝１：６
  0
LINE
  8
_0-1_計細線
  6
CONTINUOUS
 62
    3
 10
319.18632092744861
 20
802.61981132075277
 11
319.18632092744861
 21
292.61981132075726
  0
LINE
  8
_0-1_計細線
  6
CONTINUOUS
 62
    3
 10
322.18632092744861
 20
295.61981132075726
 11
322.18632092744861
 21
799.61981132075277
  0
LINE
  8
_0-0_計極細
  6
CENTER2
 62
    2
 10
307.79772139042939
 20
547.61981132075459
 11
840.73105472380644
 21
547.61981132075459
  0
LINE
  8
_0-1_計細線
  6
CONTINUOUS
 62
    3
 10
319.18632092744861
 20
802.61981132075277
 11
829.18632092744861
 21
802.61981132075277
  0
LINE
  8
_0-1_計細線
  6
CONTINUOUS
 62
    3
 10
322.18632092744861
 20
799.61981132075277
 11
826.18632092744861
 21
799.61981132075277
  0
LINE
  8
_0-1_計細線
  6
CONTINUOUS
 62
    3
 10
826.18632092744861
 20
295.61981132075726
 11
322.18632092744861
 21
295.61981132075726
  0
LINE
  8
_0-1_計細線
  6
CONTINUOUS
 62
    3
 10
829.18632092744861
 20
292.61981132075726
 11
319.18632092744861
 21
292.61981132075726
  0
LINE
  8
_0-1_計細線
  6
CONTINUOUS
 62
    3
 10
829.18632092744861
 20
802.61981132075277
 11
829.18632092744861
 21
292.61981132075726
  0
LINE
  8
_0-1_計細線
  6
CONTINUOUS
 62
    3
 10
826.18632092744861
 20
295.61981132075726
 11
826.18632092744861
 21
799.61981132075277
  0
LINE
  8
_0-1_計細線
  6
CONTINUOUS
 62
    3
 10
324.18632092744832
 20
797.61981132078188
 11
824.18632092744861
 21
797.61981132078188
  0
LINE
  8
_0-1_計細線
  6
CONTINUOUS
 62
    3
 10
324.18632092744832
 20
786.21981132078133
 11
824.18632092744861
 21
786.21981132078133
  0
LINE
  8
_0-1_計細線
  6
CONTINUOUS
 62
    3
 10
324.18632092744832
 20
797.61981132078188
 11
324.18632092744832
 21
786.21981132078133
  0
LINE
  8
_0-1_計細線
  6
CONTINUOUS
 62
    3
 10
824.18632092744861
 20
797.61981132078188
 11
824.18632092744861
 21
786.21981132078133
  0
LINE
  8
_0-0_計極細
  6
CONTINUOUS
 62
    2
 10
324.18632092744832
 20
789.41981132078217
 11
824.18632092744861
 21
789.41981132078217
  0
LINE
  8
_0-0_計極細
  6
CONTINUOUS
 62
    2
 10
324.18632092744832
 20
794.41981132078206
 11
824.18632092744861
 21
794.41981132078206
  0
LINE
  8
_0-1_計細線
  6
CONTINUOUS
 62
    3
 10
324.18632092744832
 20
297.61981132078188
 11
824.18632092744861
 21
297.61981132078188
  0
LINE
  8
_0-1_計細線
  6
CONTINUOUS
 62
    3
 10
324.18632092744832
 20
309.01981132078242
 11
824.18632092744861
 21
309.01981132078242
  0
LINE
  8
_0-1_計細線
  6
CONTINUOUS
 62
    3
 10
324.18632092744832
 20
297.61981132078188
 11
324.18632092744832
 21
309.01981132078242
  0
LINE
  8
_0-1_計細線
  6
CONTINUOUS
 62
    3
 10
824.18632092744861
 20
297.61981132078188
 11
824.18632092744861
 21
309.01981132078242
  0
LINE
  8
_0-0_計極細
  6
CONTINUOUS
 62
    2
 10
324.18632092744832
 20
305.8198113207817
 11
824.18632092744861
 21
305.8198113207817
  0
LINE
  8
_0-0_計極細
  6
CONTINUOUS
 62
    2
 10
324.18632092744832
 20
300.8198113207817
 11
824.18632092744861
 21
300.8198113207817
  0
LINE
  8
_0-1_計細線
  6
CONTINUOUS
 62
    3
 10
324.18632092744832
 20
379.31981132075578
 11
824.18632092744861
 21
379.31981132075578
  0
LINE
  8
_0-1_計細線
  6
CONTINUOUS
 62
    3
 10
324.18632092744832
 20
367.91981132075523
 11
824.18632092744861
 21
367.91981132075523
  0
LINE
  8
_0-1_計細線
  6
CONTINUOUS
 62
    3
 10
324.18632092744832
 20
379.31981132075578
 11
324.18632092744832
 21
367.91981132075523
  0
LINE
  8
_0-1_計細線
  6
CONTINUOUS
 62
    3
 10
824.18632092744861
 20
379.31981132075578
 11
824.18632092744861
 21
367.91981132075523
  0
LINE
  8
_0-0_計極細
  6
CONTINUOUS
 62
    2
 10
324.18632092744832
 20
371.11981132075596
 11
824.18632092744861
 21
371.11981132075596
  0
LINE
  8
_0-0_計極細
  6
CONTINUOUS
 62
    2
 10
324.18632092744832
 20
376.11981132075596
 11
824.18632092744861
 21
376.11981132075596
  0
LINE
  8
_0-1_計細線
  6
CONTINUOUS
 62
    3
 10
324.18632092744832
 20
727.31981132075578
 11
824.18632092744861
 21
727.31981132075578
  0
LINE
  8
_0-1_計細線
  6
CONTINUOUS
 62
    3
 10
324.18632092744832
 20
715.91981132075523
 11
824.18632092744861
 21
715.91981132075523
  0
LINE
  8
_0-1_計細線
  6
CONTINUOUS
 62
    3
 10
324.18632092744832
 20
727.31981132075578
 11
324.18632092744832
 21
715.91981132075523
  0
LINE
  8
_0-1_計細線
  6
CONTINUOUS
 62
    3
 10
824.18632092744861
 20
727.31981132075578
 11
824.18632092744861
 21
715.91981132075523
  0
LINE
  8
_0-0_計極細
  6
CONTINUOUS
 62
    2
 10
324.18632092744832
 20
719.11981132075584
 11
824.18632092744861
 21
719.11981132075584
  0
LINE
  8
_0-0_計極細
  6
CONTINUOUS
 62
    2
 10
324.18632092744832
 20
724.11981132075596
 11
824.18632092744861
 21
724.11981132075596
  0
LINE
  8
_0-1_計細線
  6
CONTINUOUS
 62
    3
 10
324.18632092744832
 20
709.91981132075523
 11
824.18632092744861
 21
709.91981132075523
  0
LINE
  8
_0-1_計細線
  6
CONTINUOUS
 62
    3
 10
324.18632092744832
 20
698.51981132075468
 11
824.18632092744861
 21
698.51981132075468
  0
LINE
  8
_0-1_計細線
  6
CONTINUOUS
 62
    3
 10
324.18632092744832
 20
709.91981132075523
 11
324.18632092744832
 21
698.51981132075468
  0
LINE
  8
_0-1_計細線
  6
CONTINUOUS
 62
    3
 10
824.18632092744861
 20
709.91981132075523
 11
824.18632092744861
 21
698.51981132075468
  0
LINE
  8
_0-0_計極細
  6
CONTINUOUS
 62
    2
 10
324.18632092744832
 20
701.7198113207553
 11
824.18632092744861
 21
701.7198113207553
  0
LINE
  8
_0-0_計極細
  6
CONTINUOUS
 62
    2
 10
324.18632092744832
 20
706.71981132075541
 11
824.18632092744861
 21
706.71981132075541
  0
LINE
  8
_0-1_計細線
  6
CONTINUOUS
 62
    3
 10
324.18632092744832
 20
692.51981132075548
 11
824.18632092744861
 21
692.51981132075548
  0
LINE
  8
_0-1_計細線
  6
CONTINUOUS
 62
    3
 10
324.18632092744832
 20
681.11981132075493
 11
824.18632092744861
 21
681.11981132075493
  0
LINE
  8
_0-1_計細線
  6
CONTINUOUS
 62
    3
 10
324.18632092744832
 20
692.51981132075548
 11
324.18632092744832
 21
681.11981132075493
  0
LINE
  8
_0-1_計細線
  6
CONTINUOUS
 62
    3
 10
824.18632092744861
 20
692.51981132075548
 11
824.18632092744861
 21
681.11981132075493
  0
LINE
  8
_0-0_計極細
  6
CONTINUOUS
 62
    2
 10
324.18632092744832
 20
684.31981132075578
 11
824.18632092744861
 21
684.31981132075578
  0
LINE
  8
_0-0_計極細
  6
CONTINUOUS
 62
    2
 10
324.18632092744832
 20
689.31981132075566
 11
824.18632092744861
 21
689.31981132075566
  0
LINE
  8
_0-1_計細線
  6
CONTINUOUS
 62
    3
 10
324.18632092744832
 20
675.11981132075493
 11
824.18632092744861
 21
675.11981132075493
  0
LINE
  8
_0-1_計細線
  6
CONTINUOUS
 62
    3
 10
324.18632092744832
 20
663.71981132075439
 11
824.18632092744861
 21
663.71981132075439
  0
LINE
  8
_0-1_計細線
  6
CONTINUOUS
 62
    3
 10
324.18632092744832
 20
675.11981132075493
 11
324.18632092744832
 21
663.71981132075439
  0
LINE
  8
_0-1_計細線
  6
CONTINUOUS
 62
    3
 10
824.18632092744861
 20
675.11981132075493
 11
824.18632092744861
 21
663.71981132075439
  0
LINE
  8
_0-0_計極細
  6
CONTINUOUS
 62
    2
 10
324.18632092744832
 20
666.91981132075523
 11
824.18632092744861
 21
666.91981132075523
  0
LINE
  8
_0-0_計極細
  6
CONTINUOUS
 62
    2
 10
324.18632092744832
 20
671.91981132075512
 11
824.18632092744861
 21
671.91981132075512
  0
LINE
  8
_0-1_計細線
  6
CONTINUOUS
 62
    3
 10
324.18632092744832
 20
657.71981132075541
 11
824.18632092744861
 21
657.71981132075541
  0
LINE
  8
_0-1_計細線
  6
CONTINUOUS
 62
    3
 10
324.18632092744832
 20
646.31981132075487
 11
824.18632092744861
 21
646.31981132075487
  0
LINE
  8
_0-1_計細線
  6
CONTINUOUS
 62
    3
 10
324.18632092744832
 20
657.71981132075541
 11
324.18632092744832
 21
646.31981132075487
  0
LINE
  8
_0-1_計細線
  6
CONTINUOUS
 62
    3
 10
824.18632092744861
 20
657.71981132075541
 11
824.18632092744861
 21
646.31981132075487
  0
LINE
  8
_0-0_計極細
  6
CONTINUOUS
 62
    2
 10
324.18632092744832
 20
649.51981132075559
 11
824.18632092744861
 21
649.51981132075559
  0
LINE
  8
_0-0_計極細
  6
CONTINUOUS
 62
    2
 10
324.18632092744832
 20
654.51981132075559
 11
824.18632092744861
 21
654.51981132075559
  0
LINE
  8
_0-1_計細線
  6
CONTINUOUS
 62
    3
 10
324.18632092744832
 20
640.31981132075487
 11
824.18632092744861
 21
640.31981132075487
  0
LINE
  8
_0-1_計細線
  6
CONTINUOUS
 62
    3
 10
324.18632092744832
 20
628.91981132075432
 11
824.18632092744861
 21
628.91981132075432
  0
LINE
  8
_0-1_計細線
  6
CONTINUOUS
 62
    3
 10
324.18632092744832
 20
640.31981132075487
 11
324.18632092744832
 21
628.91981132075432
  0
LINE
  8
_0-1_計細線
  6
CONTINUOUS
 62
    3
 10
824.18632092744861
 20
640.31981132075487
 11
824.18632092744861
 21
628.91981132075432
  0
LINE
  8
_0-0_計極細
  6
CONTINUOUS
 62
    2
 10
324.18632092744832
 20
632.11981132075505
 11
824.18632092744861
 21
632.11981132075505
  0
LINE
  8
_0-0_計極細
  6
CONTINUOUS
 62
    2
 10
324.18632092744832
 20
637.11981132075505
 11
824.18632092744861
 21
637.11981132075505
  0
LINE
  8
_0-1_計細線
  6
CONTINUOUS
 62
    3
 10
324.18632092744832
 20
622.91981132075523
 11
824.18632092744861
 21
622.91981132075523
  0
LINE
  8
_0-1_計細線
  6
CONTINUOUS
 62
    3
 10
324.18632092744832
 20
611.51981132075468
 11
824.18632092744861
 21
611.51981132075468
  0
LINE
  8
_0-1_計細線
  6
CONTINUOUS
 62
    3
 10
324.18632092744832
 20
622.91981132075523
 11
324.18632092744832
 21
611.51981132075468
  0
LINE
  8
_0-1_計細線
  6
CONTINUOUS
 62
    3
 10
824.18632092744861
 20
622.91981132075523
 11
824.18632092744861
 21
611.51981132075468
  0
LINE
  8
_0-0_計極細
  6
CONTINUOUS
 62
    2
 10
324.18632092744832
 20
614.7198113207553
 11
824.18632092744861
 21
614.7198113207553
  0
LINE
  8
_0-0_計極細
  6
CONTINUOUS
 62
    2
 10
324.18632092744832
 20
619.71981132075541
 11
824.18632092744861
 21
619.71981132075541
  0
LINE
  8
_0-1_計細線
  6
CONTINUOUS
 62
    3
 10
324.18632092744832
 20
605.51981132075548
 11
824.18632092744861
 21
605.51981132075548
  0
LINE
  8
_0-1_計細線
  6
CONTINUOUS
 62
    3
 10
324.18632092744832
 20
594.11981132075493
 11
824.18632092744861
 21
594.11981132075493
  0
LINE
  8
_0-1_計細線
  6
CONTINUOUS
 62
    3
 10
324.18632092744832
 20
605.51981132075548
 11
324.18632092744832
 21
594.11981132075493
  0
LINE
  8
_0-1_計細線
  6
CONTINUOUS
 62
    3
 10
824.18632092744861
 20
605.51981132075548
 11
824.18632092744861
 21
594.11981132075493
  0
LINE
  8
_0-0_計極細
  6
CONTINUOUS
 62
    2
 10
324.18632092744832
 20
597.31981132075578
 11
824.18632092744861
 21
597.31981132075578
  0
LINE
  8
_0-0_計極細
  6
CONTINUOUS
 62
    2
 10
324.18632092744832
 20
602.31981132075566
 11
824.18632092744861
 21
602.31981132075566
  0
LINE
  8
_0-1_計細線
  6
CONTINUOUS
 62
    3
 10
324.18632092744832
 20
588.11981132075493
 11
824.18632092744861
 21
588.11981132075493
  0
LINE
  8
_0-1_計細線
  6
CONTINUOUS
 62
    3
 10
324.18632092744832
 20
576.71981132075439
 11
824.18632092744861
 21
576.71981132075439
  0
LINE
  8
_0-1_計細線
  6
CONTINUOUS
 62
    3
 10
324.18632092744832
 20
588.11981132075493
 11
324.18632092744832
 21
576.71981132075439
  0
LINE
  8
_0-1_計細線
  6
CONTINUOUS
 62
    3
 10
824.18632092744861
 20
588.11981132075493
 11
824.18632092744861
 21
576.71981132075439
  0
LINE
  8
_0-0_計極細
  6
CONTINUOUS
 62
    2
 10
324.18632092744832
 20
579.91981132075523
 11
824.18632092744861
 21
579.91981132075523
  0
LINE
  8
_0-0_計極細
  6
CONTINUOUS
 62
    2
 10
324.18632092744832
 20
584.91981132075512
 11
824.18632092744861
 21
584.91981132075512
  0
LINE
  8
_0-1_計細線
  6
CONTINUOUS
 62
    3
 10
324.18632092744832
 20
570.71981132075541
 11
824.18632092744861
 21
570.71981132075541
  0
LINE
  8
_0-1_計細線
  6
CONTINUOUS
 62
    3
 10
324.18632092744832
 20
559.31981132075487
 11
824.18632092744861
 21
559.31981132075487
  0
LINE
  8
_0-1_計細線
  6
CONTINUOUS
 62
    3
 10
324.18632092744832
 20
570.71981132075541
 11
324.18632092744832
 21
559.31981132075487
  0
LINE
  8
_0-1_計細線
  6
CONTINUOUS
 62
    3
 10
824.18632092744861
 20
570.71981132075541
 11
824.18632092744861
 21
559.31981132075487
  0
LINE
  8
_0-0_計極細
  6
CONTINUOUS
 62
    2
 10
324.18632092744832
 20
562.51981132075559
 11
824.18632092744861
 21
562.51981132075559
  0
LINE
  8
_0-0_計極細
  6
CONTINUOUS
 62
    2
 10
324.18632092744832
 20
567.51981132075559
 11
824.18632092744861
 21
567.51981132075559
  0
LINE
  8
_0-1_計細線
  6
CONTINUOUS
 62
    3
 10
324.18632092744832
 20
553.31981132075487
 11
824.18632092744861
 21
553.31981132075487
  0
LINE
  8
_0-1_計細線
  6
CONTINUOUS
 62
    3
 10
324.18632092744832
 20
541.91981132075432
 11
824.18632092744861
 21
541.91981132075432
  0
LINE
  8
_0-1_計細線
  6
CONTINUOUS
 62
    3
 10
324.18632092744832
 20
553.31981132075487
 11
324.18632092744832
 21
541.91981132075432
  0
LINE
  8
_0-1_計細線
  6
CONTINUOUS
 62
    3
 10
824.18632092744861
 20
553.31981132075487
 11
824.18632092744861
 21
541.91981132075432
  0
LINE
  8
_0-0_計極細
  6
CONTINUOUS
 62
    2
 10
324.18632092744832
 20
545.11981132075505
 11
824.18632092744861
 21
545.11981132075505
  0
LINE
  8
_0-0_計極細
  6
CONTINUOUS
 62
    2
 10
324.18632092744832
 20
550.11981132075505
 11
824.18632092744861
 21
550.11981132075505
  0
LINE
  8
_0-1_計細線
  6
CONTINUOUS
 62
    3
 10
324.18632092744832
 20
535.91981132075523
 11
824.18632092744861
 21
535.91981132075523
  0
LINE
  8
_0-1_計細線
  6
CONTINUOUS
 62
    3
 10
324.18632092744832
 20
524.51981132075468
 11
824.18632092744861
 21
524.51981132075468
  0
LINE
  8
_0-1_計細線
  6
CONTINUOUS
 62
    3
 10
324.18632092744832
 20
535.91981132075523
 11
324.18632092744832
 21
524.51981132075468
  0
LINE
  8
_0-1_計細線
  6
CONTINUOUS
 62
    3
 10
824.18632092744861
 20
535.91981132075523
 11
824.18632092744861
 21
524.51981132075468
  0
LINE
  8
_0-0_計極細
  6
CONTINUOUS
 62
    2
 10
324.18632092744832
 20
527.7198113207553
 11
824.18632092744861
 21
527.7198113207553
  0
LINE
  8
_0-0_計極細
  6
CONTINUOUS
 62
    2
 10
324.18632092744832
 20
532.71981132075541
 11
824.18632092744861
 21
532.71981132075541
  0
LINE
  8
_0-1_計細線
  6
CONTINUOUS
 62
    3
 10
324.18632092744832
 20
518.51981132075548
 11
824.18632092744861
 21
518.51981132075548
  0
LINE
  8
_0-1_計細線
  6
CONTINUOUS
 62
    3
 10
324.18632092744832
 20
507.11981132075499
 11
824.18632092744861
 21
507.11981132075499
  0
LINE
  8
_0-1_計細線
  6
CONTINUOUS
 62
    3
 10
324.18632092744832
 20
518.51981132075548
 11
324.18632092744832
 21
507.11981132075499
  0
LINE
  8
_0-1_計細線
  6
CONTINUOUS
 62
    3
 10
824.18632092744861
 20
518.51981132075548
 11
824.18632092744861
 21
507.11981132075499
  0
LINE
  8
_0-0_計極細
  6
CONTINUOUS
 62
    2
 10
324.18632092744832
 20
510.31981132075578
 11
824.18632092744861
 21
510.31981132075578
  0
LINE
  8
_0-0_計極細
  6
CONTINUOUS
 62
    2
 10
324.18632092744832
 20
515.31981132075566
 11
824.18632092744861
 21
515.31981132075566
  0
LINE
  8
_0-1_計細線
  6
CONTINUOUS
 62
    3
 10
324.18632092744832
 20
501.11981132075499
 11
824.18632092744861
 21
501.11981132075499
  0
LINE
  8
_0-1_計細線
  6
CONTINUOUS
 62
    3
 10
324.18632092744832
 20
489.71981132075445
 11
824.18632092744861
 21
489.71981132075445
  0
LINE
  8
_0-1_計細線
  6
CONTINUOUS
 62
    3
 10
324.18632092744832
 20
501.11981132075499
 11
324.18632092744832
 21
489.71981132075445
  0
LINE
  8
_0-1_計細線
  6
CONTINUOUS
 62
    3
 10
824.18632092744861
 20
501.11981132075499
 11
824.18632092744861
 21
489.71981132075445
  0
LINE
  8
_0-0_計極細
  6
CONTINUOUS
 62
    2
 10
324.18632092744832
 20
492.91981132075523
 11
824.18632092744861
 21
492.91981132075523
  0
LINE
  8
_0-0_計極細
  6
CONTINUOUS
 62
    2
 10
324.18632092744832
 20
497.91981132075517
 11
824.18632092744861
 21
497.91981132075517
  0
LINE
  8
_0-1_計細線
  6
CONTINUOUS
 62
    3
 10
324.18632092744832
 20
483.71981132075541
 11
824.18632092744861
 21
483.71981132075541
  0
LINE
  8
_0-1_計細線
  6
CONTINUOUS
 62
    3
 10
324.18632092744832
 20
472.31981132075487
 11
824.18632092744861
 21
472.31981132075487
  0
LINE
  8
_0-1_計細線
  6
CONTINUOUS
 62
    3
 10
324.18632092744832
 20
483.71981132075541
 11
324.18632092744832
 21
472.31981132075487
  0
LINE
  8
_0-1_計細線
  6
CONTINUOUS
 62
    3
 10
824.18632092744861
 20
483.71981132075541
 11
824.18632092744861
 21
472.31981132075487
  0
LINE
  8
_0-0_計極細
  6
CONTINUOUS
 62
    2
 10
324.18632092744832
 20
475.51981132075559
 11
824.18632092744861
 21
475.51981132075559
  0
LINE
  8
_0-0_計極細
  6
CONTINUOUS
 62
    2
 10
324.18632092744832
 20
480.51981132075559
 11
824.18632092744861
 21
480.51981132075559
  0
LINE
  8
_0-1_計細線
  6
CONTINUOUS
 62
    3
 10
324.18632092744832
 20
466.31981132075487
 11
824.18632092744861
 21
466.31981132075487
  0
LINE
  8
_0-1_計細線
  6
CONTINUOUS
 62
    3
 10
324.18632092744832
 20
454.91981132075432
 11
824.18632092744861
 21
454.91981132075432
  0
LINE
  8
_0-1_計細線
  6
CONTINUOUS
 62
    3
 10
324.18632092744832
 20
466.31981132075487
 11
324.18632092744832
 21
454.91981132075432
  0
LINE
  8
_0-1_計細線
  6
CONTINUOUS
 62
    3
 10
824.18632092744861
 20
466.31981132075487
 11
824.18632092744861
 21
454.91981132075432
  0
LINE
  8
_0-0_計極細
  6
CONTINUOUS
 62
    2
 10
324.18632092744832
 20
458.11981132075505
 11
824.18632092744861
 21
458.11981132075505
  0
LINE
  8
_0-0_計極細
  6
CONTINUOUS
 62
    2
 10
324.18632092744832
 20
463.11981132075505
 11
824.18632092744861
 21
463.11981132075505
  0
LINE
  8
_0-1_計細線
  6
CONTINUOUS
 62
    3
 10
324.18632092744832
 20
448.91981132075523
 11
824.18632092744861
 21
448.91981132075523
  0
LINE
  8
_0-1_計細線
  6
CONTINUOUS
 62
    3
 10
324.18632092744832
 20
437.51981132075468
 11
824.18632092744861
 21
437.51981132075468
  0
LINE
  8
_0-1_計細線
  6
CONTINUOUS
 62
    3
 10
324.18632092744832
 20
448.91981132075523
 11
324.18632092744832
 21
437.51981132075468
  0
LINE
  8
_0-1_計細線
  6
CONTINUOUS
 62
    3
 10
824.18632092744861
 20
448.91981132075523
 11
824.18632092744861
 21
437.51981132075468
  0
LINE
  8
_0-0_計極細
  6
CONTINUOUS
 62
    2
 10
324.18632092744832
 20
440.71981132075535
 11
824.18632092744861
 21
440.71981132075535
  0
LINE
  8
_0-0_計極細
  6
CONTINUOUS
 62
    2
 10
324.18632092744832
 20
445.71981132075541
 11
824.18632092744861
 21
445.71981132075541
  0
LINE
  8
_0-1_計細線
  6
CONTINUOUS
 62
    3
 10
324.18632092744832
 20
431.51981132075554
 11
824.18632092744861
 21
431.51981132075554
  0
LINE
  8
_0-1_計細線
  6
CONTINUOUS
 62
    3
 10
324.18632092744832
 20
420.11981132075499
 11
824.18632092744861
 21
420.11981132075499
  0
LINE
  8
_0-1_計細線
  6
CONTINUOUS
 62
    3
 10
324.18632092744832
 20
431.51981132075554
 11
324.18632092744832
 21
420.11981132075499
  0
LINE
  8
_0-1_計細線
  6
CONTINUOUS
 62
    3
 10
824.18632092744861
 20
431.51981132075554
 11
824.18632092744861
 21
420.11981132075499
  0
LINE
  8
_0-0_計極細
  6
CONTINUOUS
 62
    2
 10
324.18632092744832
 20
423.31981132075578
 11
824.18632092744861
 21
423.31981132075578
  0
LINE
  8
_0-0_計極細
  6
CONTINUOUS
 62
    2
 10
324.18632092744832
 20
428.31981132075572
 11
824.18632092744861
 21
428.31981132075572
  0
LINE
  8
_0-1_計細線
  6
CONTINUOUS
 62
    3
 10
324.18632092744832
 20
414.11981132075499
 11
824.18632092744861
 21
414.11981132075499
  0
LINE
  8
_0-1_計細線
  6
CONTINUOUS
 62
    3
 10
324.18632092744832
 20
402.71981132075445
 11
824.18632092744861
 21
402.71981132075445
  0
LINE
  8
_0-1_計細線
  6
CONTINUOUS
 62
    3
 10
324.18632092744832
 20
414.11981132075499
 11
324.18632092744832
 21
402.71981132075445
  0
LINE
  8
_0-1_計細線
  6
CONTINUOUS
 62
    3
 10
824.18632092744861
 20
414.11981132075499
 11
824.18632092744861
 21
402.71981132075445
  0
LINE
  8
_0-0_計極細
  6
CONTINUOUS
 62
    2
 10
324.18632092744832
 20
405.91981132075523
 11
824.18632092744861
 21
405.91981132075523
  0
LINE
  8
_0-0_計極細
  6
CONTINUOUS
 62
    2
 10
324.18632092744832
 20
410.91981132075517
 11
824.18632092744861
 21
410.91981132075517
  0
LINE
  8
_0-1_計細線
  6
CONTINUOUS
 62
    3
 10
324.18632092744832
 20
396.71981132075541
 11
824.18632092744861
 21
396.71981132075541
  0
LINE
  8
_0-1_計細線
  6
CONTINUOUS
 62
    3
 10
324.18632092744832
 20
385.31981132075487
 11
824.18632092744861
 21
385.31981132075487
  0
LINE
  8
_0-1_計細線
  6
CONTINUOUS
 62
    3
 10
324.18632092744832
 20
396.71981132075541
 11
324.18632092744832
 21
385.31981132075487
  0
LINE
  8
_0-1_計細線
  6
CONTINUOUS
 62
    3
 10
824.18632092744861
 20
396.71981132075541
 11
824.18632092744861
 21
385.31981132075487
  0
LINE
  8
_0-0_計極細
  6
CONTINUOUS
 62
    2
 10
324.18632092744832
 20
388.51981132075559
 11
824.18632092744861
 21
388.51981132075559
  0
LINE
  8
_0-0_計極細
  6
CONTINUOUS
 62
    2
 10
324.18632092744832
 20
393.51981132075559
 11
824.18632092744861
 21
393.51981132075559
  0
LINE
  8
_0-1_計細線
  6
CONTINUOUS
 62
    3
 10
324.18632092744832
 20
780.31981132075668
 11
824.18632092744861
 21
780.31981132075668
  0
LINE
  8
_0-1_計細線
  6
CONTINUOUS
 62
    3
 10
324.18632092744832
 20
768.91981132075614
 11
824.18632092744861
 21
768.91981132075614
  0
LINE
  8
_0-1_計細線
  6
CONTINUOUS
 62
    3
 10
324.18632092744832
 20
780.31981132075668
 11
324.18632092744832
 21
768.91981132075614
  0
LINE
  8
_0-1_計細線
  6
CONTINUOUS
 62
    3
 10
824.18632092744861
 20
780.31981132075668
 11
824.18632092744861
 21
768.91981132075614
  0
LINE
  8
_0-0_計極細
  6
CONTINUOUS
 62
    2
 10
324.18632092744832
 20
772.11981132075675
 11
824.18632092744861
 21
772.11981132075675
  0
LINE
  8
_0-0_計極細
  6
CONTINUOUS
 62
    2
 10
324.18632092744832
 20
777.11981132075687
 11
824.18632092744861
 21
777.11981132075687
  0
LINE
  8
_0-0_計極細
  6
CENTER1
 62
    2
 10
331.68632092744861
 20
806.37053074524545
 11
331.68632092744861
 21
290.06198757976995
  0
LINE
  8
_0-0_計極細
  6
CENTER1
 62
    2
 10
428.68632092744906
 20
806.37053074524545
 11
428.68632092744906
 21
290.06198757976995
  0
LINE
  8
_0-0_計極細
  6
CENTER1
 62
    2
 10
477.186320927449
 20
806.37053074524545
 11
477.186320927449
 21
290.06198757976995
  0
LINE
  8
_0-0_計極細
  6
CENTER1
 62
    2
 10
525.68632092744906
 20
806.37053074524545
 11
525.68632092744906
 21
290.06198757976995
  0
LINE
  8
_0-0_計極細
  6
CONTINUOUS
 62
    2
 10
325.18632092744861
 20
751.11981132075323
 11
325.18632092744861
 21
744.71981132075632
  0
LINE
  8
_0-0_計極細
  6
CONTINUOUS
 62
    2
 10
338.18632092744855
 20
751.11981132075323
 11
338.18632092744855
 21
744.71981132075632
  0
LINE
  8
_0-0_計極細
  6
CONTINUOUS
 62
    2
 10
325.18632092744861
 20
367.9198113207525
 11
325.18632092744861
 21
361.51981132075559
  0
LINE
  8
_0-0_計極細
  6
CONTINUOUS
 62
    2
 10
338.18632092744855
 20
367.9198113207525
 11
338.18632092744855
 21
361.51981132075559
  0
LINE
  8
_0-0_計極細
  6
CONTINUOUS
 62
    2
 10
325.18632092744861
 20
733.31981132075305
 11
325.18632092744861
 21
727.31981132075578
  0
LINE
  8
_0-0_計極細
  6
CONTINUOUS
 62
    2
 10
338.18632092744855
 20
733.31981132075305
 11
338.18632092744855
 21
727.31981132075578
  0
LINE
  8
_0-0_計極細
  6
CONTINUOUS
 62
    2
 10
325.18632092744861
 20
715.9198113207525
 11
325.18632092744861
 21
709.91981132075523
  0
LINE
  8
_0-0_計極細
  6
CONTINUOUS
 62
    2
 10
338.18632092744855
 20
715.9198113207525
 11
338.18632092744855
 21
709.91981132075523
  0
LINE
  8
_0-0_計極細
  6
CONTINUOUS
 62
    2
 10
325.18632092744861
 20
698.51981132075275
 11
325.18632092744861
 21
692.51981132075548
  0
LINE
  8
_0-0_計極細
  6
CONTINUOUS
 62
    2
 10
338.18632092744855
 20
698.51981132075275
 11
338.18632092744855
 21
692.51981132075548
  0
LINE
  8
_0-0_計極細
  6
CONTINUOUS
 62
    2
 10
325.18632092744861
 20
681.11981132075221
 11
325.18632092744861
 21
675.11981132075493
  0
LINE
  8
_0-0_計極細
  6
CONTINUOUS
 62
    2
 10
338.18632092744855
 20
681.11981132075221
 11
338.18632092744855
 21
675.11981132075493
  0
LINE
  8
_0-0_計極細
  6
CONTINUOUS
 62
    2
 10
325.18632092744861
 20
663.71981132075268
 11
325.18632092744861
 21
657.71981132075541
  0
LINE
  8
_0-0_計極細
  6
CONTINUOUS
 62
    2
 10
338.18632092744855
 20
663.71981132075268
 11
338.18632092744855
 21
657.71981132075541
  0
LINE
  8
_0-0_計極細
  6
CONTINUOUS
 62
    2
 10
325.18632092744861
 20
646.31981132075214
 11
325.18632092744861
 21
640.31981132075487
  0
LINE
  8
_0-0_計極細
  6
CONTINUOUS
 62
    2
 10
338.18632092744855
 20
646.31981132075214
 11
338.18632092744855
 21
640.31981132075487
  0
LINE
  8
_0-0_計極細
  6
CONTINUOUS
 62
    2
 10
325.18632092744861
 20
628.9198113207525
 11
325.18632092744861
 21
622.91981132075523
  0
LINE
  8
_0-0_計極細
  6
CONTINUOUS
 62
    2
 10
338.18632092744855
 20
628.9198113207525
 11
338.18632092744855
 21
622.91981132075523
  0
LINE
  8
_0-0_計極細
  6
CONTINUOUS
 62
    2
 10
325.18632092744861
 20
611.51981132075275
 11
325.18632092744861
 21
605.51981132075548
  0
LINE
  8
_0-0_計極細
  6
CONTINUOUS
 62
    2
 10
338.18632092744855
 20
611.51981132075275
 11
338.18632092744855
 21
605.51981132075548
  0
LINE
  8
_0-0_計極細
  6
CONTINUOUS
 62
    2
 10
325.18632092744861
 20
594.11981132075221
 11
325.18632092744861
 21
588.11981132075493
  0
LINE
  8
_0-0_計極細
  6
CONTINUOUS
 62
    2
 10
338.18632092744855
 20
594.11981132075221
 11
338.18632092744855
 21
588.11981132075493
  0
LINE
  8
_0-0_計極細
  6
CONTINUOUS
 62
    2
 10
325.18632092744861
 20
576.71981132075268
 11
325.18632092744861
 21
570.71981132075541
  0
LINE
  8
_0-0_計極細
  6
CONTINUOUS
 62
    2
 10
338.18632092744855
 20
576.71981132075268
 11
338.18632092744855
 21
570.71981132075541
  0
LINE
  8
_0-0_計極細
  6
CONTINUOUS
 62
    2
 10
325.18632092744861
 20
559.31981132075214
 11
325.18632092744861
 21
553.31981132075487
  0
LINE
  8
_0-0_計極細
  6
CONTINUOUS
 62
    2
 10
338.18632092744855
 20
559.31981132075214
 11
338.18632092744855
 21
553.31981132075487
  0
LINE
  8
_0-0_計極細
  6
CONTINUOUS
 62
    2
 10
325.18632092744861
 20
541.9198113207525
 11
325.18632092744861
 21
535.91981132075523
  0
LINE
  8
_0-0_計極細
  6
CONTINUOUS
 62
    2
 10
338.18632092744855
 20
541.9198113207525
 11
338.18632092744855
 21
535.91981132075523
  0
LINE
  8
_0-0_計極細
  6
CONTINUOUS
 62
    2
 10
325.18632092744861
 20
524.51981132075275
 11
325.18632092744861
 21
518.51981132075548
  0
LINE
  8
_0-0_計極細
  6
CONTINUOUS
 62
    2
 10
338.18632092744855
 20
524.51981132075275
 11
338.18632092744855
 21
518.51981132075548
  0
LINE
  8
_0-0_計極細
  6
CONTINUOUS
 62
    2
 10
325.18632092744861
 20
507.11981132075226
 11
325.18632092744861
 21
501.11981132075499
  0
LINE
  8
_0-0_計極細
  6
CONTINUOUS
 62
    2
 10
338.18632092744855
 20
507.11981132075226
 11
338.18632092744855
 21
501.11981132075499
  0
LINE
  8
_0-0_計極細
  6
CONTINUOUS
 62
    2
 10
325.18632092744861
 20
489.71981132075268
 11
325.18632092744861
 21
483.71981132075541
  0
LINE
  8
_0-0_計極細
  6
CONTINUOUS
 62
    2
 10
338.18632092744855
 20
489.71981132075268
 11
338.18632092744855
 21
483.71981132075541
  0
LINE
  8
_0-0_計極細
  6
CONTINUOUS
 62
    2
 10
325.18632092744861
 20
472.31981132075214
 11
325.18632092744861
 21
466.31981132075487
  0
LINE
  8
_0-0_計極細
  6
CONTINUOUS
 62
    2
 10
338.18632092744855
 20
472.31981132075214
 11
338.18632092744855
 21
466.31981132075487
  0
LINE
  8
_0-0_計極細
  6
CONTINUOUS
 62
    2
 10
325.18632092744861
 20
454.9198113207525
 11
325.18632092744861
 21
448.91981132075523
  0
LINE
  8
_0-0_計極細
  6
CONTINUOUS
 62
    2
 10
338.18632092744855
 20
454.9198113207525
 11
338.18632092744855
 21
448.91981132075523
  0
LINE
  8
_0-0_計極細
  6
CONTINUOUS
 62
    2
 10
325.18632092744861
 20
437.51981132075281
 11
325.18632092744861
 21
431.51981132075554
  0
LINE
  8
_0-0_計極細
  6
CONTINUOUS
 62
    2
 10
338.18632092744855
 20
437.51981132075281
 11
338.18632092744855
 21
431.51981132075554
  0
LINE
  8
_0-0_計極細
  6
CONTINUOUS
 62
    2
 10
325.18632092744861
 20
420.11981132075226
 11
325.18632092744861
 21
414.11981132075499
  0
LINE
  8
_0-0_計極細
  6
CONTINUOUS
 62
    2
 10
338.18632092744855
 20
420.11981132075226
 11
338.18632092744855
 21
414.11981132075499
  0
LINE
  8
_0-0_計極細
  6
CONTINUOUS
 62
    2
 10
325.18632092744861
 20
402.71981132075268
 11
325.18632092744861
 21
396.71981132075541
  0
LINE
  8
_0-0_計極細
  6
CONTINUOUS
 62
    2
 10
338.18632092744855
 20
402.71981132075268
 11
338.18632092744855
 21
396.71981132075541
  0
LINE
  8
_0-0_計極細
  6
CONTINUOUS
 62
    2
 10
325.18632092744861
 20
385.31981132075305
 11
325.18632092744861
 21
379.31981132075578
  0
LINE
  8
_0-0_計極細
  6
CONTINUOUS
 62
    2
 10
338.18632092744855
 20
385.31981132075305
 11
338.18632092744855
 21
379.31981132075578
  0
LINE
  8
_0-0_計極細
  6
CONTINUOUS
 62
    2
 10
422.18632092744906
 20
751.11981132075323
 11
422.18632092744906
 21
744.71981132075632
  0
LINE
  8
_0-0_計極細
  6
CONTINUOUS
 62
    2
 10
435.186320927449
 20
751.11981132075323
 11
435.186320927449
 21
744.71981132075632
  0
LINE
  8
_0-0_計極細
  6
CONTINUOUS
 62
    2
 10
422.18632092744906
 20
367.9198113207525
 11
422.18632092744906
 21
361.51981132075559
  0
LINE
  8
_0-0_計極細
  6
CONTINUOUS
 62
    2
 10
435.186320927449
 20
367.9198113207525
 11
435.186320927449
 21
361.51981132075559
  0
LINE
  8
_0-0_計極細
  6
CONTINUOUS
 62
    2
 10
422.18632092744906
 20
733.31981132075305
 11
422.18632092744906
 21
727.31981132075578
  0
LINE
  8
_0-0_計極細
  6
CONTINUOUS
 62
    2
 10
435.186320927449
 20
733.31981132075305
 11
435.186320927449
 21
727.31981132075578
  0
LINE
  8
_0-0_計極細
  6
CONTINUOUS
 62
    2
 10
422.18632092744906
 20
715.9198113207525
 11
422.18632092744906
 21
709.91981132075523
  0
LINE
  8
_0-0_計極細
  6
CONTINUOUS
 62
    2
 10
435.186320927449
 20
715.9198113207525
 11
435.186320927449
 21
709.91981132075523
  0
LINE
  8
_0-0_計極細
  6
CONTINUOUS
 62
    2
 10
422.18632092744906
 20
698.51981132075275
 11
422.18632092744906
 21
692.51981132075548
  0
LINE
  8
_0-0_計極細
  6
CONTINUOUS
 62
    2
 10
435.186320927449
 20
698.51981132075275
 11
435.186320927449
 21
692.51981132075548
  0
LINE
  8
_0-0_計極細
  6
CONTINUOUS
 62
    2
 10
422.18632092744906
 20
681.11981132075221
 11
422.18632092744906
 21
675.11981132075493
  0
LINE
  8
_0-0_計極細
  6
CONTINUOUS
 62
    2
 10
435.186320927449
 20
681.11981132075221
 11
435.186320927449
 21
675.11981132075493
  0
LINE
  8
_0-0_計極細
  6
CONTINUOUS
 62
    2
 10
422.18632092744906
 20
663.71981132075268
 11
422.18632092744906
 21
657.71981132075541
  0
LINE
  8
_0-0_計極細
  6
CONTINUOUS
 62
    2
 10
435.186320927449
 20
663.71981132075268
 11
435.186320927449
 21
657.71981132075541
  0
LINE
  8
_0-0_計極細
  6
CONTINUOUS
 62
    2
 10
422.18632092744906
 20
646.31981132075214
 11
422.18632092744906
 21
640.31981132075487
  0
LINE
  8
_0-0_計極細
  6
CONTINUOUS
 62
    2
 10
435.186320927449
 20
646.31981132075214
 11
435.186320927449
 21
640.31981132075487
  0
LINE
  8
_0-0_計極細
  6
CONTINUOUS
 62
    2
 10
422.18632092744906
 20
628.9198113207525
 11
422.18632092744906
 21
622.91981132075523
  0
LINE
  8
_0-0_計極細
  6
CONTINUOUS
 62
    2
 10
435.186320927449
 20
628.9198113207525
 11
435.186320927449
 21
622.91981132075523
  0
LINE
  8
_0-0_計極細
  6
CONTINUOUS
 62
    2
 10
422.18632092744906
 20
611.51981132075275
 11
422.18632092744906
 21
605.51981132075548
  0
LINE
  8
_0-0_計極細
  6
CONTINUOUS
 62
    2
 10
435.186320927449
 20
611.51981132075275
 11
435.186320927449
 21
605.51981132075548
  0
LINE
  8
_0-0_計極細
  6
CONTINUOUS
 62
    2
 10
422.18632092744906
 20
594.11981132075221
 11
422.18632092744906
 21
588.11981132075493
  0
LINE
  8
_0-0_計極細
  6
CONTINUOUS
 62
    2
 10
435.186320927449
 20
594.11981132075221
 11
435.186320927449
 21
588.11981132075493
  0
LINE
  8
_0-0_計極細
  6
CONTINUOUS
 62
    2
 10
422.18632092744906
 20
576.71981132075268
 11
422.18632092744906
 21
570.71981132075541
  0
LINE
  8
_0-0_計極細
  6
CONTINUOUS
 62
    2
 10
435.186320927449
 20
576.71981132075268
 11
435.186320927449
 21
570.71981132075541
  0
LINE
  8
_0-0_計極細
  6
CONTINUOUS
 62
    2
 10
422.18632092744906
 20
541.9198113207525
 11
422.18632092744906
 21
535.91981132075523
  0
LINE
  8
_0-0_計極細
  6
CONTINUOUS
 62
    2
 10
435.186320927449
 20
541.9198113207525
 11
435.186320927449
 21
535.91981132075523
  0
LINE
  8
_0-0_計極細
  6
CONTINUOUS
 62
    2
 10
422.18632092744906
 20
524.51981132075275
 11
422.18632092744906
 21
518.51981132075548
  0
LINE
  8
_0-0_計極細
  6
CONTINUOUS
 62
    2
 10
435.186320927449
 20
524.51981132075275
 11
435.186320927449
 21
518.51981132075548
  0
LINE
  8
_0-0_計極細
  6
CONTINUOUS
 62
    2
 10
422.18632092744906
 20
507.11981132075226
 11
422.18632092744906
 21
501.11981132075499
  0
LINE
  8
_0-0_計極細
  6
CONTINUOUS
 62
    2
 10
435.186320927449
 20
507.11981132075226
 11
435.186320927449
 21
501.11981132075499
  0
LINE
  8
_0-0_計極細
  6
CONTINUOUS
 62
    2
 10
422.18632092744906
 20
489.71981132075268
 11
422.18632092744906
 21
483.71981132075541
  0
LINE
  8
_0-0_計極細
  6
CONTINUOUS
 62
    2
 10
435.186320927449
 20
489.71981132075268
 11
435.186320927449
 21
483.71981132075541
  0
LINE
  8
_0-0_計極細
  6
CONTINUOUS
 62
    2
 10
422.18632092744906
 20
472.31981132075214
 11
422.18632092744906
 21
466.31981132075487
  0
LINE
  8
_0-0_計極細
  6
CONTINUOUS
 62
    2
 10
435.186320927449
 20
472.31981132075214
 11
435.186320927449
 21
466.31981132075487
  0
LINE
  8
_0-0_計極細
  6
CONTINUOUS
 62
    2
 10
422.18632092744906
 20
454.9198113207525
 11
422.18632092744906
 21
448.91981132075523
  0
LINE
  8
_0-0_計極細
  6
CONTINUOUS
 62
    2
 10
435.186320927449
 20
454.9198113207525
 11
435.186320927449
 21
448.91981132075523
  0
LINE
  8
_0-0_計極細
  6
CONTINUOUS
 62
    2
 10
422.18632092744906
 20
437.51981132075281
 11
422.18632092744906
 21
431.51981132075554
  0
LINE
  8
_0-0_計極細
  6
CONTINUOUS
 62
    2
 10
435.186320927449
 20
437.51981132075281
 11
435.186320927449
 21
431.51981132075554
  0
LINE
  8
_0-0_計極細
  6
CONTINUOUS
 62
    2
 10
422.18632092744906
 20
420.11981132075226
 11
422.18632092744906
 21
414.11981132075499
  0
LINE
  8
_0-0_計極細
  6
CONTINUOUS
 62
    2
 10
435.186320927449
 20
420.11981132075226
 11
435.186320927449
 21
414.11981132075499
  0
LINE
  8
_0-0_計極細
  6
CONTINUOUS
 62
    2
 10
422.18632092744906
 20
402.71981132075268
 11
422.18632092744906
 21
396.71981132075541
  0
LINE
  8
_0-0_計極細
  6
CONTINUOUS
 62
    2
 10
435.186320927449
 20
402.71981132075268
 11
435.186320927449
 21
396.71981132075541
  0
LINE
  8
_0-0_計極細
  6
CONTINUOUS
 62
    2
 10
422.18632092744906
 20
385.31981132075305
 11
422.18632092744906
 21
379.31981132075578
  0
LINE
  8
_0-0_計極細
  6
CONTINUOUS
 62
    2
 10
435.186320927449
 20
385.31981132075305
 11
435.186320927449
 21
379.31981132075578
  0
LINE
  8
_0-0_計極細
  6
CONTINUOUS
 62
    2
 10
470.68632092744906
 20
751.11981132075323
 11
470.68632092744906
 21
744.71981132075632
  0
LINE
  8
_0-0_計極細
  6
CONTINUOUS
 62
    2
 10
483.68632092744906
 20
751.11981132075323
 11
483.68632092744906
 21
744.71981132075632
  0
LINE
  8
_0-0_計極細
  6
CONTINUOUS
 62
    2
 10
470.68632092744906
 20
367.9198113207525
 11
470.68632092744906
 21
361.51981132075559
  0
LINE
  8
_0-0_計極細
  6
CONTINUOUS
 62
    2
 10
483.68632092744906
 20
367.9198113207525
 11
483.68632092744906
 21
361.51981132075559
  0
LINE
  8
_0-0_計極細
  6
CONTINUOUS
 62
    2
 10
470.68632092744906
 20
733.31981132075305
 11
470.68632092744906
 21
727.31981132075578
  0
LINE
  8
_0-0_計極細
  6
CONTINUOUS
 62
    2
 10
483.68632092744906
 20
733.31981132075305
 11
483.68632092744906
 21
727.31981132075578
  0
LINE
  8
_0-0_計極細
  6
CONTINUOUS
 62
    2
 10
470.68632092744906
 20
715.9198113207525
 11
470.68632092744906
 21
709.91981132075523
  0
LINE
  8
_0-0_計極細
  6
CONTINUOUS
 62
    2
 10
483.68632092744906
 20
715.9198113207525
 11
483.68632092744906
 21
709.91981132075523
  0
LINE
  8
_0-0_計極細
  6
CONTINUOUS
 62
    2
 10
470.68632092744906
 20
698.51981132075275
 11
470.68632092744906
 21
692.51981132075548
  0
LINE
  8
_0-0_計極細
  6
CONTINUOUS
 62
    2
 10
483.68632092744906
 20
698.51981132075275
 11
483.68632092744906
 21
692.51981132075548
  0
LINE
  8
_0-0_計極細
  6
CONTINUOUS
 62
    2
 10
470.68632092744906
 20
681.11981132075221
 11
470.68632092744906
 21
675.11981132075493
  0
LINE
  8
_0-0_計極細
  6
CONTINUOUS
 62
    2
 10
483.68632092744906
 20
681.11981132075221
 11
483.68632092744906
 21
675.11981132075493
  0
LINE
  8
_0-0_計極細
  6
CONTINUOUS
 62
    2
 10
470.68632092744906
 20
663.71981132075268
 11
470.68632092744906
 21
657.71981132075541
  0
LINE
  8
_0-0_計極細
  6
CONTINUOUS
 62
    2
 10
483.68632092744906
 20
663.71981132075268
 11
483.68632092744906
 21
657.71981132075541
  0
LINE
  8
_0-0_計極細
  6
CONTINUOUS
 62
    2
 10
470.68632092744906
 20
646.31981132075214
 11
470.68632092744906
 21
640.31981132075487
  0
LINE
  8
_0-0_計極細
  6
CONTINUOUS
 62
    2
 10
483.68632092744906
 20
646.31981132075214
 11
483.68632092744906
 21
640.31981132075487
  0
LINE
  8
_0-0_計極細
  6
CONTINUOUS
 62
    2
 10
470.68632092744906
 20
628.9198113207525
 11
470.68632092744906
 21
622.91981132075523
  0
LINE
  8
_0-0_計極細
  6
CONTINUOUS
 62
    2
 10
483.68632092744906
 20
628.9198113207525
 11
483.68632092744906
 21
622.91981132075523
  0
LINE
  8
_0-0_計極細
  6
CONTINUOUS
 62
    2
 10
470.68632092744906
 20
611.51981132075275
 11
470.68632092744906
 21
605.51981132075548
  0
LINE
  8
_0-0_計極細
  6
CONTINUOUS
 62
    2
 10
483.68632092744906
 20
611.51981132075275
 11
483.68632092744906
 21
605.51981132075548
  0
LINE
  8
_0-0_計極細
  6
CONTINUOUS
 62
    2
 10
470.68632092744906
 20
594.11981132075221
 11
470.68632092744906
 21
588.11981132075493
  0
LINE
  8
_0-0_計極細
  6
CONTINUOUS
 62
    2
 10
483.68632092744906
 20
594.11981132075221
 11
483.68632092744906
 21
588.11981132075493
  0
LINE
  8
_0-0_計極細
  6
CONTINUOUS
 62
    2
 10
470.68632092744906
 20
576.71981132075268
 11
470.68632092744906
 21
570.71981132075541
  0
LINE
  8
_0-0_計極細
  6
CONTINUOUS
 62
    2
 10
483.68632092744906
 20
576.71981132075268
 11
483.68632092744906
 21
570.71981132075541
  0
LINE
  8
_0-0_計極細
  6
CONTINUOUS
 62
    2
 10
470.68632092744906
 20
559.31981132075214
 11
470.68632092744906
 21
553.31981132075487
  0
LINE
  8
_0-0_計極細
  6
CONTINUOUS
 62
    2
 10
483.68632092744906
 20
559.31981132075214
 11
483.68632092744906
 21
553.31981132075487
  0
LINE
  8
_0-0_計極細
  6
CONTINUOUS
 62
    2
 10
470.68632092744906
 20
541.9198113207525
 11
470.68632092744906
 21
535.91981132075523
  0
LINE
  8
_0-0_計極細
  6
CONTINUOUS
 62
    2
 10
483.68632092744906
 20
541.9198113207525
 11
483.68632092744906
 21
535.91981132075523
  0
LINE
  8
_0-0_計極細
  6
CONTINUOUS
 62
    2
 10
470.68632092744906
 20
524.51981132075275
 11
470.68632092744906
 21
518.51981132075548
  0
LINE
  8
_0-0_計極細
  6
CONTINUOUS
 62
    2
 10
483.68632092744906
 20
524.51981132075275
 11
483.68632092744906
 21
518.51981132075548
  0
LINE
  8
_0-0_計極細
  6
CONTINUOUS
 62
    2
 10
470.68632092744906
 20
507.11981132075226
 11
470.68632092744906
 21
501.11981132075499
  0
LINE
  8
_0-0_計極細
  6
CONTINUOUS
 62
    2
 10
483.68632092744906
 20
507.11981132075226
 11
483.68632092744906
 21
501.11981132075499
  0
LINE
  8
_0-0_計極細
  6
CONTINUOUS
 62
    2
 10
470.68632092744906
 20
489.71981132075268
 11
470.68632092744906
 21
483.71981132075541
  0
LINE
  8
_0-0_計極細
  6
CONTINUOUS
 62
    2
 10
483.68632092744906
 20
489.71981132075268
 11
483.68632092744906
 21
483.71981132075541
  0
LINE
  8
_0-0_計極細
  6
CONTINUOUS
 62
    2
 10
470.68632092744906
 20
472.31981132075214
 11
470.68632092744906
 21
466.31981132075487
  0
LINE
  8
_0-0_計極細
  6
CONTINUOUS
 62
    2
 10
483.68632092744906
 20
472.31981132075214
 11
483.68632092744906
 21
466.31981132075487
  0
LINE
  8
_0-0_計極細
  6
CONTINUOUS
 62
    2
 10
470.68632092744906
 20
454.9198113207525
 11
470.68632092744906
 21
448.91981132075523
  0
LINE
  8
_0-0_計極細
  6
CONTINUOUS
 62
    2
 10
483.68632092744906
 20
454.9198113207525
 11
483.68632092744906
 21
448.91981132075523
  0
LINE
  8
_0-0_計極細
  6
CONTINUOUS
 62
    2
 10
470.68632092744906
 20
437.51981132075281
 11
470.68632092744906
 21
431.51981132075554
  0
LINE
  8
_0-0_計極細
  6
CONTINUOUS
 62
    2
 10
483.68632092744906
 20
437.51981132075281
 11
483.68632092744906
 21
431.51981132075554
  0
LINE
  8
_0-0_計極細
  6
CONTINUOUS
 62
    2
 10
470.68632092744906
 20
420.11981132075226
 11
470.68632092744906
 21
414.11981132075499
  0
LINE
  8
_0-0_計極細
  6
CONTINUOUS
 62
    2
 10
483.68632092744906
 20
420.11981132075226
 11
483.68632092744906
 21
414.11981132075499
  0
LINE
  8
_0-0_計極細
  6
CONTINUOUS
 62
    2
 10
470.68632092744906
 20
402.71981132075268
 11
470.68632092744906
 21
396.71981132075541
  0
LINE
  8
_0-0_計極細
  6
CONTINUOUS
 62
    2
 10
483.68632092744906
 20
402.71981132075268
 11
483.68632092744906
 21
396.71981132075541
  0
LINE
  8
_0-0_計極細
  6
CONTINUOUS
 62
    2
 10
470.68632092744906
 20
385.31981132075305
 11
470.68632092744906
 21
379.31981132075578
  0
LINE
  8
_0-0_計極細
  6
CONTINUOUS
 62
    2
 10
483.68632092744906
 20
385.31981132075305
 11
483.68632092744906
 21
379.31981132075578
  0
LINE
  8
_0-0_計極細
  6
CONTINUOUS
 62
    2
 10
519.18632092744906
 20
751.11981132075323
 11
519.18632092744906
 21
744.71981132075632
  0
LINE
  8
_0-0_計極細
  6
CONTINUOUS
 62
    2
 10
532.18632092744906
 20
751.11981132075323
 11
532.18632092744906
 21
744.71981132075632
  0
LINE
  8
_0-0_計極細
  6
CONTINUOUS
 62
    2
 10
519.18632092744906
 20
367.9198113207525
 11
519.18632092744906
 21
361.51981132075559
  0
LINE
  8
_0-0_計極細
  6
CONTINUOUS
 62
    2
 10
532.18632092744906
 20
367.9198113207525
 11
532.18632092744906
 21
361.51981132075559
  0
LINE
  8
_0-0_計極細
  6
CONTINUOUS
 62
    2
 10
519.18632092744906
 20
733.31981132075305
 11
519.18632092744906
 21
727.31981132075578
  0
LINE
  8
_0-0_計極細
  6
CONTINUOUS
 62
    2
 10
532.18632092744906
 20
733.31981132075305
 11
532.18632092744906
 21
727.31981132075578
  0
LINE
  8
_0-0_計極細
  6
CONTINUOUS
 62
    2
 10
519.18632092744906
 20
715.9198113207525
 11
519.18632092744906
 21
709.91981132075523
  0
LINE
  8
_0-0_計極細
  6
CONTINUOUS
 62
    2
 10
532.18632092744906
 20
715.9198113207525
 11
532.18632092744906
 21
709.91981132075523
  0
LINE
  8
_0-0_計極細
  6
CONTINUOUS
 62
    2
 10
519.18632092744906
 20
698.51981132075275
 11
519.18632092744906
 21
692.51981132075548
  0
LINE
  8
_0-0_計極細
  6
CONTINUOUS
 62
    2
 10
532.18632092744906
 20
698.51981132075275
 11
532.18632092744906
 21
692.51981132075548
  0
LINE
  8
_0-0_計極細
  6
CONTINUOUS
 62
    2
 10
519.18632092744906
 20
681.11981132075221
 11
519.18632092744906
 21
675.11981132075493
  0
LINE
  8
_0-0_計極細
  6
CONTINUOUS
 62
    2
 10
532.18632092744906
 20
681.11981132075221
 11
532.18632092744906
 21
675.11981132075493
  0
LINE
  8
_0-0_計極細
  6
CONTINUOUS
 62
    2
 10
519.18632092744906
 20
663.71981132075268
 11
519.18632092744906
 21
657.71981132075541
  0
LINE
  8
_0-0_計極細
  6
CONTINUOUS
 62
    2
 10
532.18632092744906
 20
663.71981132075268
 11
532.18632092744906
 21
657.71981132075541
  0
LINE
  8
_0-0_計極細
  6
CONTINUOUS
 62
    2
 10
519.18632092744906
 20
646.31981132075214
 11
519.18632092744906
 21
640.31981132075487
  0
LINE
  8
_0-0_計極細
  6
CONTINUOUS
 62
    2
 10
532.18632092744906
 20
646.31981132075214
 11
532.18632092744906
 21
640.31981132075487
  0
LINE
  8
_0-0_計極細
  6
CONTINUOUS
 62
    2
 10
519.18632092744906
 20
628.9198113207525
 11
519.18632092744906
 21
622.91981132075523
  0
LINE
  8
_0-0_計極細
  6
CONTINUOUS
 62
    2
 10
532.18632092744906
 20
628.9198113207525
 11
532.18632092744906
 21
622.91981132075523
  0
LINE
  8
_0-0_計極細
  6
CONTINUOUS
 62
    2
 10
519.18632092744906
 20
611.51981132075275
 11
519.18632092744906
 21
605.51981132075548
  0
LINE
  8
_0-0_計極細
  6
CONTINUOUS
 62
    2
 10
532.18632092744906
 20
611.51981132075275
 11
532.18632092744906
 21
605.51981132075548
  0
LINE
  8
_0-0_計極細
  6
CONTINUOUS
 62
    2
 10
519.18632092744906
 20
594.11981132075221
 11
519.18632092744906
 21
588.11981132075493
  0
LINE
  8
_0-0_計極細
  6
CONTINUOUS
 62
    2
 10
532.18632092744906
 20
594.11981132075221
 11
532.18632092744906
 21
588.11981132075493
  0
LINE
  8
_0-0_計極細
  6
CONTINUOUS
 62
    2
 10
519.18632092744906
 20
576.71981132075268
 11
519.18632092744906
 21
570.71981132075541
  0
LINE
  8
_0-0_計極細
  6
CONTINUOUS
 62
    2
 10
532.18632092744906
 20
576.71981132075268
 11
532.18632092744906
 21
570.71981132075541
  0
LINE
  8
_0-0_計極細
  6
CONTINUOUS
 62
    2
 10
519.18632092744906
 20
559.31981132075214
 11
519.18632092744906
 21
553.31981132075487
  0
LINE
  8
_0-0_計極細
  6
CONTINUOUS
 62
    2
 10
532.18632092744906
 20
559.31981132075214
 11
532.18632092744906
 21
553.31981132075487
  0
LINE
  8
_0-0_計極細
  6
CONTINUOUS
 62
    2
 10
519.18632092744906
 20
541.9198113207525
 11
519.18632092744906
 21
535.91981132075523
  0
LINE
  8
_0-0_計極細
  6
CONTINUOUS
 62
    2
 10
532.18632092744906
 20
541.9198113207525
 11
532.18632092744906
 21
535.91981132075523
  0
LINE
  8
_0-0_計極細
  6
CONTINUOUS
 62
    2
 10
519.18632092744906
 20
524.51981132075275
 11
519.18632092744906
 21
518.51981132075548
  0
LINE
  8
_0-0_計極細
  6
CONTINUOUS
 62
    2
 10
532.18632092744906
 20
524.51981132075275
 11
532.18632092744906
 21
518.51981132075548
  0
LINE
  8
_0-0_計極細
  6
CONTINUOUS
 62
    2
 10
519.18632092744906
 20
507.11981132075226
 11
519.18632092744906
 21
501.11981132075499
  0
LINE
  8
_0-0_計極細
  6
CONTINUOUS
 62
    2
 10
532.18632092744906
 20
507.11981132075226
 11
532.18632092744906
 21
501.11981132075499
  0
LINE
  8
_0-0_計極細
  6
CONTINUOUS
 62
    2
 10
519.18632092744906
 20
489.71981132075268
 11
519.18632092744906
 21
483.71981132075541
  0
LINE
  8
_0-0_計極細
  6
CONTINUOUS
 62
    2
 10
532.18632092744906
 20
489.71981132075268
 11
532.18632092744906
 21
483.71981132075541
  0
LINE
  8
_0-0_計極細
  6
CONTINUOUS
 62
    2
 10
519.18632092744906
 20
472.31981132075214
 11
519.18632092744906
 21
466.31981132075487
  0
LINE
  8
_0-0_計極細
  6
CONTINUOUS
 62
    2
 10
532.18632092744906
 20
472.31981132075214
 11
532.18632092744906
 21
466.31981132075487
  0
LINE
  8
_0-0_計極細
  6
CONTINUOUS
 62
    2
 10
519.18632092744906
 20
454.9198113207525
 11
519.18632092744906
 21
448.91981132075523
  0
LINE
  8
_0-0_計極細
  6
CONTINUOUS
 62
    2
 10
532.18632092744906
 20
454.9198113207525
 11
532.18632092744906
 21
448.91981132075523
  0
LINE
  8
_0-0_計極細
  6
CONTINUOUS
 62
    2
 10
519.18632092744906
 20
437.51981132075281
 11
519.18632092744906
 21
431.51981132075554
  0
LINE
  8
_0-0_計極細
  6
CONTINUOUS
 62
    2
 10
532.18632092744906
 20
437.51981132075281
 11
532.18632092744906
 21
431.51981132075554
  0
LINE
  8
_0-0_計極細
  6
CONTINUOUS
 62
    2
 10
519.18632092744906
 20
420.11981132075226
 11
519.18632092744906
 21
414.11981132075499
  0
LINE
  8
_0-0_計極細
  6
CONTINUOUS
 62
    2
 10
532.18632092744906
 20
420.11981132075226
 11
532.18632092744906
 21
414.11981132075499
  0
LINE
  8
_0-0_計極細
  6
CONTINUOUS
 62
    2
 10
519.18632092744906
 20
402.71981132075268
 11
519.18632092744906
 21
396.71981132075541
  0
LINE
  8
_0-0_計極細
  6
CONTINUOUS
 62
    2
 10
532.18632092744906
 20
402.71981132075268
 11
532.18632092744906
 21
396.71981132075541
  0
LINE
  8
_0-0_計極細
  6
CONTINUOUS
 62
    2
 10
519.18632092744906
 20
385.31981132075305
 11
519.18632092744906
 21
379.31981132075578
  0
LINE
  8
_0-0_計極細
  6
CONTINUOUS
 62
    2
 10
532.18632092744906
 20
385.31981132075305
 11
532.18632092744906
 21
379.31981132075578
  0
LINE
  8
_0-0_計極細
  6
CONTINUOUS
 62
    2
 10
422.18632092744906
 20
559.31981132075214
 11
422.18632092744906
 21
558.66981132073386
  0
LINE
  8
_0-0_計極細
  6
CONTINUOUS
 62
    2
 10
422.18632092744906
 20
553.96981132073404
 11
422.18632092744906
 21
553.31981132075487
  0
LINE
  8
_0-0_計極細
  6
CONTINUOUS
 62
    2
 10
435.186320927449
 20
559.31981132075214
 11
435.186320927449
 21
558.66981132073386
  0
LINE
  8
_0-0_計極細
  6
CONTINUOUS
 62
    2
 10
435.186320927449
 20
553.96981132073404
 11
435.186320927449
 21
553.31981132075487
  0
LINE
  8
_0-0_計極細
  6
CONTINUOUS
 62
    2
 10
325.18632092744861
 20
768.91981132075341
 11
325.18632092744861
 21
762.5198113207565
  0
LINE
  8
_0-0_計極細
  6
CONTINUOUS
 62
    2
 10
338.18632092744855
 20
768.91981132075341
 11
338.18632092744855
 21
762.5198113207565
  0
LINE
  8
_0-0_計極細
  6
CONTINUOUS
 62
    2
 10
422.18632092744906
 20
768.91981132075341
 11
422.18632092744906
 21
762.5198113207565
  0
LINE
  8
_0-0_計極細
  6
CONTINUOUS
 62
    2
 10
435.186320927449
 20
768.91981132075341
 11
435.186320927449
 21
762.5198113207565
  0
LINE
  8
_0-0_計極細
  6
CONTINUOUS
 62
    2
 10
470.68632092744906
 20
768.91981132075341
 11
470.68632092744906
 21
762.5198113207565
  0
LINE
  8
_0-0_計極細
  6
CONTINUOUS
 62
    2
 10
483.68632092744906
 20
768.91981132075341
 11
483.68632092744906
 21
762.5198113207565
  0
LINE
  8
_0-0_計極細
  6
CONTINUOUS
 62
    2
 10
519.18632092744906
 20
768.91981132075341
 11
519.18632092744906
 21
762.5198113207565
  0
LINE
  8
_0-0_計極細
  6
CONTINUOUS
 62
    2
 10
532.18632092744906
 20
768.91981132075341
 11
532.18632092744906
 21
762.5198113207565
  0
LINE
  8
_0-0_計極細
  6
CONTINUOUS
 62
    2
 10
325.18632092744861
 20
350.11981132075232
 11
325.18632092744861
 21
343.71981132075541
  0
LINE
  8
_0-0_計極細
  6
CONTINUOUS
 62
    2
 10
338.18632092744855
 20
350.11981132075232
 11
338.18632092744855
 21
343.71981132075541
  0
LINE
  8
_0-0_計極細
  6
CONTINUOUS
 62
    2
 10
422.18632092744906
 20
350.11981132075232
 11
422.18632092744906
 21
343.71981132075541
  0
LINE
  8
_0-0_計極細
  6
CONTINUOUS
 62
    2
 10
435.186320927449
 20
350.11981132075232
 11
435.186320927449
 21
343.71981132075541
  0
LINE
  8
_0-0_計極細
  6
CONTINUOUS
 62
    2
 10
470.68632092744906
 20
350.11981132075232
 11
470.68632092744906
 21
343.71981132075541
  0
LINE
  8
_0-0_計極細
  6
CONTINUOUS
 62
    2
 10
483.68632092744906
 20
350.11981132075232
 11
483.68632092744906
 21
343.71981132075541
  0
LINE
  8
_0-0_計極細
  6
CONTINUOUS
 62
    2
 10
519.18632092744906
 20
350.11981132075232
 11
519.18632092744906
 21
343.71981132075541
  0
LINE
  8
_0-0_計極細
  6
CONTINUOUS
 62
    2
 10
532.18632092744906
 20
350.11981132075232
 11
532.18632092744906
 21
343.71981132075541
  0
LINE
  8
_0-0_計極細
  6
CONTINUOUS
 62
    2
 10
325.18632092744861
 20
332.31981132075214
 11
325.18632092744861
 21
325.91981132075523
  0
LINE
  8
_0-0_計極細
  6
CONTINUOUS
 62
    2
 10
338.18632092744855
 20
332.31981132075214
 11
338.18632092744855
 21
325.91981132075523
  0
LINE
  8
_0-0_計極細
  6
CONTINUOUS
 62
    2
 10
422.18632092744906
 20
332.31981132075214
 11
422.18632092744906
 21
325.91981132075523
  0
LINE
  8
_0-0_計極細
  6
CONTINUOUS
 62
    2
 10
435.186320927449
 20
332.31981132075214
 11
435.186320927449
 21
325.91981132075523
  0
LINE
  8
_0-0_計極細
  6
CONTINUOUS
 62
    2
 10
470.68632092744906
 20
332.31981132075214
 11
470.68632092744906
 21
325.91981132075523
  0
LINE
  8
_0-0_計極細
  6
CONTINUOUS
 62
    2
 10
483.68632092744906
 20
332.31981132075214
 11
483.68632092744906
 21
325.91981132075523
  0
LINE
  8
_0-0_計極細
  6
CONTINUOUS
 62
    2
 10
519.18632092744906
 20
332.31981132075214
 11
519.18632092744906
 21
325.91981132075523
  0
LINE
  8
_0-0_計極細
  6
CONTINUOUS
 62
    2
 10
532.18632092744906
 20
332.31981132075214
 11
532.18632092744906
 21
325.91981132075523
  0
LINE
  8
_0-0_計極細
  6
CONTINUOUS
 62
    2
 10
325.18632092744861
 20
314.51981132075196
 11
325.18632092744861
 21
309.01981132078242
  0
LINE
  8
_0-0_計極細
  6
CONTINUOUS
 62
    2
 10
338.18632092744855
 20
314.51981132075196
 11
338.18632092744855
 21
309.01981132078242
  0
LINE
  8
_0-0_計極細
  6
CONTINUOUS
 62
    2
 10
422.18632092744906
 20
314.51981132075196
 11
422.18632092744906
 21
309.01981132078242
  0
LINE
  8
_0-0_計極細
  6
CONTINUOUS
 62
    2
 10
435.186320927449
 20
314.51981132075196
 11
435.186320927449
 21
309.01981132078242
  0
LINE
  8
_0-0_計極細
  6
CONTINUOUS
 62
    2
 10
470.68632092744906
 20
314.51981132075196
 11
470.68632092744906
 21
309.01981132078242
  0
LINE
  8
_0-0_計極細
  6
CONTINUOUS
 62
    2
 10
483.68632092744906
 20
314.51981132075196
 11
483.68632092744906
 21
309.01981132078242
  0
LINE
  8
_0-0_計極細
  6
CONTINUOUS
 62
    2
 10
519.18632092744906
 20
314.51981132075196
 11
519.18632092744906
 21
309.01981132078242
  0
LINE
  8
_0-0_計極細
  6
CONTINUOUS
 62
    2
 10
532.18632092744906
 20
314.51981132075196
 11
532.18632092744906
 21
309.01981132078242
  0
LINE
  8
_0-0_計極細
  6
CENTER1
 62
    2
 10
816.68632092744861
 20
806.37053074524545
 11
816.68632092744861
 21
290.06198757976995
  0
LINE
  8
_0-0_計極細
  6
CENTER1
 62
    2
 10
719.68632092744906
 20
806.37053074524545
 11
719.68632092744906
 21
290.06198757976995
  0
LINE
  8
_0-0_計極細
  6
CONTINUOUS
 62
    2
 10
810.18632092744849
 20
751.11981132075323
 11
810.18632092744849
 21
744.71981132075632
  0
LINE
  8
_0-0_計極細
  6
CONTINUOUS
 62
    2
 10
823.18632092744861
 20
751.11981132075323
 11
823.18632092744861
 21
744.71981132075632
  0
LINE
  8
_0-0_計極細
  6
CONTINUOUS
 62
    2
 10
810.18632092744849
 20
367.9198113207525
 11
810.18632092744849
 21
361.51981132075559
  0
LINE
  8
_0-0_計極細
  6
CONTINUOUS
 62
    2
 10
823.18632092744861
 20
367.9198113207525
 11
823.18632092744861
 21
361.51981132075559
  0
LINE
  8
_0-0_計極細
  6
CONTINUOUS
 62
    2
 10
810.18632092744849
 20
733.31981132075305
 11
810.18632092744849
 21
727.31981132075578
  0
LINE
  8
_0-0_計極細
  6
CONTINUOUS
 62
    2
 10
823.18632092744861
 20
733.31981132075305
 11
823.18632092744861
 21
727.31981132075578
  0
LINE
  8
_0-0_計極細
  6
CONTINUOUS
 62
    2
 10
810.18632092744849
 20
715.9198113207525
 11
810.18632092744849
 21
709.91981132075523
  0
LINE
  8
_0-0_計極細
  6
CONTINUOUS
 62
    2
 10
823.18632092744861
 20
715.9198113207525
 11
823.18632092744861
 21
709.91981132075523
  0
LINE
  8
_0-0_計極細
  6
CONTINUOUS
 62
    2
 10
810.18632092744849
 20
698.51981132075275
 11
810.18632092744849
 21
692.51981132075548
  0
LINE
  8
_0-0_計極細
  6
CONTINUOUS
 62
    2
 10
823.18632092744861
 20
698.51981132075275
 11
823.18632092744861
 21
692.51981132075548
  0
LINE
  8
_0-0_計極細
  6
CONTINUOUS
 62
    2
 10
810.18632092744849
 20
681.11981132075221
 11
810.18632092744849
 21
675.11981132075493
  0
LINE
  8
_0-0_計極細
  6
CONTINUOUS
 62
    2
 10
823.18632092744861
 20
681.11981132075221
 11
823.18632092744861
 21
675.11981132075493
  0
LINE
  8
_0-0_計極細
  6
CONTINUOUS
 62
    2
 10
810.18632092744849
 20
663.71981132075268
 11
810.18632092744849
 21
657.71981132075541
  0
LINE
  8
_0-0_計極細
  6
CONTINUOUS
 62
    2
 10
823.18632092744861
 20
663.71981132075268
 11
823.18632092744861
 21
657.71981132075541
  0
LINE
  8
_0-0_計極細
  6
CONTINUOUS
 62
    2
 10
810.18632092744849
 20
646.31981132075214
 11
810.18632092744849
 21
640.31981132075487
  0
LINE
  8
_0-0_計極細
  6
CONTINUOUS
 62
    2
 10
823.18632092744861
 20
646.31981132075214
 11
823.18632092744861
 21
640.31981132075487
  0
LINE
  8
_0-0_計極細
  6
CONTINUOUS
 62
    2
 10
810.18632092744849
 20
628.9198113207525
 11
810.18632092744849
 21
622.91981132075523
  0
LINE
  8
_0-0_計極細
  6
CONTINUOUS
 62
    2
 10
823.18632092744861
 20
628.9198113207525
 11
823.18632092744861
 21
622.91981132075523
  0
LINE
  8
_0-0_計極細
  6
CONTINUOUS
 62
    2
 10
810.18632092744849
 20
611.51981132075275
 11
810.18632092744849
 21
605.51981132075548
  0
LINE
  8
_0-0_計極細
  6
CONTINUOUS
 62
    2
 10
823.18632092744861
 20
611.51981132075275
 11
823.18632092744861
 21
605.51981132075548
  0
LINE
  8
_0-0_計極細
  6
CONTINUOUS
 62
    2
 10
810.18632092744849
 20
594.11981132075221
 11
810.18632092744849
 21
588.11981132075493
  0
LINE
  8
_0-0_計極細
  6
CONTINUOUS
 62
    2
 10
823.18632092744861
 20
594.11981132075221
 11
823.18632092744861
 21
588.11981132075493
  0
LINE
  8
_0-0_計極細
  6
CONTINUOUS
 62
    2
 10
810.18632092744849
 20
576.71981132075268
 11
810.18632092744849
 21
570.71981132075541
  0
LINE
  8
_0-0_計極細
  6
CONTINUOUS
 62
    2
 10
823.18632092744861
 20
576.71981132075268
 11
823.18632092744861
 21
570.71981132075541
  0
LINE
  8
_0-0_計極細
  6
CONTINUOUS
 62
    2
 10
810.18632092744849
 20
559.31981132075214
 11
810.18632092744849
 21
553.31981132075487
  0
LINE
  8
_0-0_計極細
  6
CONTINUOUS
 62
    2
 10
823.18632092744861
 20
559.31981132075214
 11
823.18632092744861
 21
553.31981132075487
  0
LINE
  8
_0-0_計極細
  6
CONTINUOUS
 62
    2
 10
810.18632092744849
 20
541.9198113207525
 11
810.18632092744849
 21
535.91981132075523
  0
LINE
  8
_0-0_計極細
  6
CONTINUOUS
 62
    2
 10
823.18632092744861
 20
541.9198113207525
 11
823.18632092744861
 21
535.91981132075523
  0
LINE
  8
_0-0_計極細
  6
CONTINUOUS
 62
    2
 10
810.18632092744849
 20
524.51981132075275
 11
810.18632092744849
 21
518.51981132075548
  0
LINE
  8
_0-0_計極細
  6
CONTINUOUS
 62
    2
 10
823.18632092744861
 20
524.51981132075275
 11
823.18632092744861
 21
518.51981132075548
  0
LINE
  8
_0-0_計極細
  6
CONTINUOUS
 62
    2
 10
810.18632092744849
 20
507.11981132075226
 11
810.18632092744849
 21
501.11981132075499
  0
LINE
  8
_0-0_計極細
  6
CONTINUOUS
 62
    2
 10
823.18632092744861
 20
507.11981132075226
 11
823.18632092744861
 21
501.11981132075499
  0
LINE
  8
_0-0_計極細
  6
CONTINUOUS
 62
    2
 10
810.18632092744849
 20
489.71981132075268
 11
810.18632092744849
 21
483.71981132075541
  0
LINE
  8
_0-0_計極細
  6
CONTINUOUS
 62
    2
 10
823.18632092744861
 20
489.71981132075268
 11
823.18632092744861
 21
483.71981132075541
  0
LINE
  8
_0-0_計極細
  6
CONTINUOUS
 62
    2
 10
810.18632092744849
 20
472.31981132075214
 11
810.18632092744849
 21
466.31981132075487
  0
LINE
  8
_0-0_計極細
  6
CONTINUOUS
 62
    2
 10
823.18632092744861
 20
472.31981132075214
 11
823.18632092744861
 21
466.31981132075487
  0
LINE
  8
_0-0_計極細
  6
CONTINUOUS
 62
    2
 10
810.18632092744849
 20
454.9198113207525
 11
810.18632092744849
 21
448.91981132075523
  0
LINE
  8
_0-0_計極細
  6
CONTINUOUS
 62
    2
 10
823.18632092744861
 20
454.9198113207525
 11
823.18632092744861
 21
448.91981132075523
  0
LINE
  8
_0-0_計極細
  6
CONTINUOUS
 62
    2
 10
810.18632092744849
 20
437.51981132075281
 11
810.18632092744849
 21
431.51981132075554
  0
LINE
  8
_0-0_計極細
  6
CONTINUOUS
 62
    2
 10
823.18632092744861
 20
437.51981132075281
 11
823.18632092744861
 21
431.51981132075554
  0
LINE
  8
_0-0_計極細
  6
CONTINUOUS
 62
    2
 10
810.18632092744849
 20
420.11981132075226
 11
810.18632092744849
 21
414.11981132075499
  0
LINE
  8
_0-0_計極細
  6
CONTINUOUS
 62
    2
 10
823.18632092744861
 20
420.11981132075226
 11
823.18632092744861
 21
414.11981132075499
  0
LINE
  8
_0-0_計極細
  6
CONTINUOUS
 62
    2
 10
810.18632092744849
 20
402.71981132075268
 11
810.18632092744849
 21
396.71981132075541
  0
LINE
  8
_0-0_計極細
  6
CONTINUOUS
 62
    2
 10
823.18632092744861
 20
402.71981132075268
 11
823.18632092744861
 21
396.71981132075541
  0
LINE
  8
_0-0_計極細
  6
CONTINUOUS
 62
    2
 10
810.18632092744849
 20
385.31981132075305
 11
810.18632092744849
 21
379.31981132075578
  0
LINE
  8
_0-0_計極細
  6
CONTINUOUS
 62
    2
 10
823.18632092744861
 20
385.31981132075305
 11
823.18632092744861
 21
379.31981132075578
  0
LINE
  8
_0-0_計極細
  6
CONTINUOUS
 62
    2
 10
713.18632092744906
 20
751.11981132075323
 11
713.18632092744906
 21
744.71981132075632
  0
LINE
  8
_0-0_計極細
  6
CONTINUOUS
 62
    2
 10
726.18632092744906
 20
751.11981132075323
 11
726.18632092744906
 21
744.71981132075632
  0
LINE
  8
_0-0_計極細
  6
CONTINUOUS
 62
    2
 10
713.18632092744906
 20
367.9198113207525
 11
713.18632092744906
 21
361.51981132075559
  0
LINE
  8
_0-0_計極細
  6
CONTINUOUS
 62
    2
 10
726.18632092744906
 20
367.9198113207525
 11
726.18632092744906
 21
361.51981132075559
  0
LINE
  8
_0-0_計極細
  6
CONTINUOUS
 62
    2
 10
713.18632092744906
 20
733.31981132075305
 11
713.18632092744906
 21
727.31981132075578
  0
LINE
  8
_0-0_計極細
  6
CONTINUOUS
 62
    2
 10
726.18632092744906
 20
733.31981132075305
 11
726.18632092744906
 21
727.31981132075578
  0
LINE
  8
_0-0_計極細
  6
CONTINUOUS
 62
    2
 10
713.18632092744906
 20
715.9198113207525
 11
713.18632092744906
 21
709.91981132075523
  0
LINE
  8
_0-0_計極細
  6
CONTINUOUS
 62
    2
 10
726.18632092744906
 20
715.9198113207525
 11
726.18632092744906
 21
709.91981132075523
  0
LINE
  8
_0-0_計極細
  6
CONTINUOUS
 62
    2
 10
713.18632092744906
 20
698.51981132075275
 11
713.18632092744906
 21
692.51981132075548
  0
LINE
  8
_0-0_計極細
  6
CONTINUOUS
 62
    2
 10
726.18632092744906
 20
698.51981132075275
 11
726.18632092744906
 21
692.51981132075548
  0
LINE
  8
_0-0_計極細
  6
CONTINUOUS
 62
    2
 10
713.18632092744906
 20
681.11981132075221
 11
713.18632092744906
 21
675.11981132075493
  0
LINE
  8
_0-0_計極細
  6
CONTINUOUS
 62
    2
 10
726.18632092744906
 20
681.11981132075221
 11
726.18632092744906
 21
675.11981132075493
  0
LINE
  8
_0-0_計極細
  6
CONTINUOUS
 62
    2
 10
713.18632092744906
 20
663.71981132075268
 11
713.18632092744906
 21
657.71981132075541
  0
LINE
  8
_0-0_計極細
  6
CONTINUOUS
 62
    2
 10
726.18632092744906
 20
663.71981132075268
 11
726.18632092744906
 21
657.71981132075541
  0
LINE
  8
_0-0_計極細
  6
CONTINUOUS
 62
    2
 10
713.18632092744906
 20
646.31981132075214
 11
713.18632092744906
 21
640.31981132075487
  0
LINE
  8
_0-0_計極細
  6
CONTINUOUS
 62
    2
 10
726.18632092744906
 20
646.31981132075214
 11
726.18632092744906
 21
640.31981132075487
  0
LINE
  8
_0-0_計極細
  6
CONTINUOUS
 62
    2
 10
713.18632092744906
 20
628.9198113207525
 11
713.18632092744906
 21
622.91981132075523
  0
LINE
  8
_0-0_計極細
  6
CONTINUOUS
 62
    2
 10
726.18632092744906
 20
628.9198113207525
 11
726.18632092744906
 21
622.91981132075523
  0
LINE
  8
_0-0_計極細
  6
CONTINUOUS
 62
    2
 10
713.18632092744906
 20
611.51981132075275
 11
713.18632092744906
 21
605.51981132075548
  0
LINE
  8
_0-0_計極細
  6
CONTINUOUS
 62
    2
 10
726.18632092744906
 20
611.51981132075275
 11
726.18632092744906
 21
605.51981132075548
  0
LINE
  8
_0-0_計極細
  6
CONTINUOUS
 62
    2
 10
713.18632092744906
 20
594.11981132075221
 11
713.18632092744906
 21
588.11981132075493
  0
LINE
  8
_0-0_計極細
  6
CONTINUOUS
 62
    2
 10
726.18632092744906
 20
594.11981132075221
 11
726.18632092744906
 21
588.11981132075493
  0
LINE
  8
_0-0_計極細
  6
CONTINUOUS
 62
    2
 10
713.18632092744906
 20
576.71981132075268
 11
713.18632092744906
 21
570.71981132075541
  0
LINE
  8
_0-0_計極細
  6
CONTINUOUS
 62
    2
 10
726.18632092744906
 20
576.71981132075268
 11
726.18632092744906
 21
570.71981132075541
  0
LINE
  8
_0-0_計極細
  6
CONTINUOUS
 62
    2
 10
713.18632092744906
 20
559.31981132075214
 11
713.18632092744906
 21
553.31981132075487
  0
LINE
  8
_0-0_計極細
  6
CONTINUOUS
 62
    2
 10
726.18632092744906
 20
559.31981132075214
 11
726.18632092744906
 21
553.31981132075487
  0
LINE
  8
_0-0_計極細
  6
CONTINUOUS
 62
    2
 10
713.18632092744906
 20
541.9198113207525
 11
713.18632092744906
 21
535.91981132075523
  0
LINE
  8
_0-0_計極細
  6
CONTINUOUS
 62
    2
 10
726.18632092744906
 20
541.9198113207525
 11
726.18632092744906
 21
535.91981132075523
  0
LINE
  8
_0-0_計極細
  6
CONTINUOUS
 62
    2
 10
713.18632092744906
 20
524.51981132075275
 11
713.18632092744906
 21
518.51981132075548
  0
LINE
  8
_0-0_計極細
  6
CONTINUOUS
 62
    2
 10
726.18632092744906
 20
524.51981132075275
 11
726.18632092744906
 21
518.51981132075548
  0
LINE
  8
_0-0_計極細
  6
CONTINUOUS
 62
    2
 10
713.18632092744906
 20
507.11981132075226
 11
713.18632092744906
 21
501.11981132075499
  0
LINE
  8
_0-0_計極細
  6
CONTINUOUS
 62
    2
 10
726.18632092744906
 20
507.11981132075226
 11
726.18632092744906
 21
501.11981132075499
  0
LINE
  8
_0-0_計極細
  6
CONTINUOUS
 62
    2
 10
713.18632092744906
 20
489.71981132075268
 11
713.18632092744906
 21
483.71981132075541
  0
LINE
  8
_0-0_計極細
  6
CONTINUOUS
 62
    2
 10
726.18632092744906
 20
489.71981132075268
 11
726.18632092744906
 21
483.71981132075541
  0
LINE
  8
_0-0_計極細
  6
CONTINUOUS
 62
    2
 10
713.18632092744906
 20
472.31981132075214
 11
713.18632092744906
 21
466.31981132075487
  0
LINE
  8
_0-0_計極細
  6
CONTINUOUS
 62
    2
 10
726.18632092744906
 20
472.31981132075214
 11
726.18632092744906
 21
466.31981132075487
  0
LINE
  8
_0-0_計極細
  6
CONTINUOUS
 62
    2
 10
713.18632092744906
 20
454.9198113207525
 11
713.18632092744906
 21
448.91981132075523
  0
LINE
  8
_0-0_計極細
  6
CONTINUOUS
 62
    2
 10
726.18632092744906
 20
454.9198113207525
 11
726.18632092744906
 21
448.91981132075523
  0
LINE
  8
_0-0_計極細
  6
CONTINUOUS
 62
    2
 10
713.18632092744906
 20
437.51981132075281
 11
713.18632092744906
 21
431.51981132075554
  0
LINE
  8
_0-0_計極細
  6
CONTINUOUS
 62
    2
 10
726.18632092744906
 20
437.51981132075281
 11
726.18632092744906
 21
431.51981132075554
  0
LINE
  8
_0-0_計極細
  6
CONTINUOUS
 62
    2
 10
713.18632092744906
 20
420.11981132075226
 11
713.18632092744906
 21
414.11981132075499
  0
LINE
  8
_0-0_計極細
  6
CONTINUOUS
 62
    2
 10
726.18632092744906
 20
420.11981132075226
 11
726.18632092744906
 21
414.11981132075499
  0
LINE
  8
_0-0_計極細
  6
CONTINUOUS
 62
    2
 10
713.18632092744906
 20
402.71981132075268
 11
713.18632092744906
 21
396.71981132075541
  0
LINE
  8
_0-0_計極細
  6
CONTINUOUS
 62
    2
 10
726.18632092744906
 20
402.71981132075268
 11
726.18632092744906
 21
396.71981132075541
  0
LINE
  8
_0-0_計極細
  6
CONTINUOUS
 62
    2
 10
713.18632092744906
 20
385.31981132075305
 11
713.18632092744906
 21
379.31981132075578
  0
LINE
  8
_0-0_計極細
  6
CONTINUOUS
 62
    2
 10
726.18632092744906
 20
385.31981132075305
 11
726.18632092744906
 21
379.31981132075578
  0
LINE
  8
_0-0_計極細
  6
CONTINUOUS
 62
    2
 10
810.18632092744849
 20
768.91981132075341
 11
810.18632092744849
 21
762.5198113207565
  0
LINE
  8
_0-0_計極細
  6
CONTINUOUS
 62
    2
 10
823.18632092744861
 20
768.91981132075341
 11
823.18632092744861
 21
762.5198113207565
  0
LINE
  8
_0-0_計極細
  6
CONTINUOUS
 62
    2
 10
713.18632092744906
 20
768.91981132075341
 11
713.18632092744906
 21
762.5198113207565
  0
LINE
  8
_0-0_計極細
  6
CONTINUOUS
 62
    2
 10
726.18632092744906
 20
768.91981132075341
 11
726.18632092744906
 21
762.5198113207565
  0
LINE
  8
_0-0_計極細
  6
CONTINUOUS
 62
    2
 10
810.18632092744849
 20
350.11981132075232
 11
810.18632092744849
 21
343.71981132075541
  0
LINE
  8
_0-0_計極細
  6
CONTINUOUS
 62
    2
 10
823.18632092744861
 20
350.11981132075232
 11
823.18632092744861
 21
343.71981132075541
  0
LINE
  8
_0-0_計極細
  6
CONTINUOUS
 62
    2
 10
713.18632092744906
 20
350.11981132075232
 11
713.18632092744906
 21
343.71981132075541
  0
LINE
  8
_0-0_計極細
  6
CONTINUOUS
 62
    2
 10
726.18632092744906
 20
350.11981132075232
 11
726.18632092744906
 21
343.71981132075541
  0
LINE
  8
_0-0_計極細
  6
CONTINUOUS
 62
    2
 10
810.18632092744849
 20
332.31981132075214
 11
810.18632092744849
 21
325.91981132075523
  0
LINE
  8
_0-0_計極細
  6
CONTINUOUS
 62
    2
 10
823.18632092744861
 20
332.31981132075214
 11
823.18632092744861
 21
325.91981132075523
  0
LINE
  8
_0-0_計極細
  6
CONTINUOUS
 62
    2
 10
713.18632092744906
 20
332.31981132075214
 11
713.18632092744906
 21
325.91981132075523
  0
LINE
  8
_0-0_計極細
  6
CONTINUOUS
 62
    2
 10
726.18632092744906
 20
332.31981132075214
 11
726.18632092744906
 21
325.91981132075523
  0
LINE
  8
_0-0_計極細
  6
CONTINUOUS
 62
    2
 10
713.18632092744906
 20
314.51981132075196
 11
713.18632092744906
 21
309.01981132078242
  0
LINE
  8
_0-0_計極細
  6
CONTINUOUS
 62
    2
 10
726.18632092744906
 20
314.51981132075196
 11
726.18632092744906
 21
309.01981132078242
  0
LINE
  8
_0-0_計極細
  6
CONTINUOUS
 62
    2
 10
810.18632092744849
 20
314.51981132075196
 11
810.18632092744849
 21
309.01981132078242
  0
LINE
  8
_0-0_計極細
  6
CONTINUOUS
 62
    2
 10
823.18632092744861
 20
314.51981132075196
 11
823.18632092744861
 21
309.01981132078242
  0
LINE
  8
_0-0_計極細
  6
CENTER1
 62
    2
 10
622.68632092744906
 20
806.37053074524545
 11
622.68632092744906
 21
290.06198757976995
  0
LINE
  8
_0-0_計極細
  6
CONTINUOUS
 62
    2
 10
616.18632092744906
 20
751.11981132075323
 11
616.18632092744906
 21
744.71981132075632
  0
LINE
  8
_0-0_計極細
  6
CONTINUOUS
 62
    2
 10
629.18632092744906
 20
751.11981132075323
 11
629.18632092744906
 21
744.71981132075632
  0
LINE
  8
_0-0_計極細
  6
CONTINUOUS
 62
    2
 10
616.18632092744906
 20
367.9198113207525
 11
616.18632092744906
 21
361.51981132075559
  0
LINE
  8
_0-0_計極細
  6
CONTINUOUS
 62
    2
 10
629.18632092744906
 20
367.9198113207525
 11
629.18632092744906
 21
361.51981132075559
  0
LINE
  8
_0-0_計極細
  6
CONTINUOUS
 62
    2
 10
616.18632092744906
 20
733.31981132075305
 11
616.18632092744906
 21
727.31981132075578
  0
LINE
  8
_0-0_計極細
  6
CONTINUOUS
 62
    2
 10
629.18632092744906
 20
733.31981132075305
 11
629.18632092744906
 21
727.31981132075578
  0
LINE
  8
_0-0_計極細
  6
CONTINUOUS
 62
    2
 10
616.18632092744906
 20
715.9198113207525
 11
616.18632092744906
 21
709.91981132075523
  0
LINE
  8
_0-0_計極細
  6
CONTINUOUS
 62
    2
 10
629.18632092744906
 20
715.9198113207525
 11
629.18632092744906
 21
709.91981132075523
  0
LINE
  8
_0-0_計極細
  6
CONTINUOUS
 62
    2
 10
616.18632092744906
 20
698.51981132075275
 11
616.18632092744906
 21
692.51981132075548
  0
LINE
  8
_0-0_計極細
  6
CONTINUOUS
 62
    2
 10
629.18632092744906
 20
698.51981132075275
 11
629.18632092744906
 21
692.51981132075548
  0
LINE
  8
_0-0_計極細
  6
CONTINUOUS
 62
    2
 10
616.18632092744906
 20
681.11981132075221
 11
616.18632092744906
 21
675.11981132075493
  0
LINE
  8
_0-0_計極細
  6
CONTINUOUS
 62
    2
 10
629.18632092744906
 20
681.11981132075221
 11
629.18632092744906
 21
675.11981132075493
  0
LINE
  8
_0-0_計極細
  6
CONTINUOUS
 62
    2
 10
616.18632092744906
 20
663.71981132075268
 11
616.18632092744906
 21
657.71981132075541
  0
LINE
  8
_0-0_計極細
  6
CONTINUOUS
 62
    2
 10
629.18632092744906
 20
663.71981132075268
 11
629.18632092744906
 21
657.71981132075541
  0
LINE
  8
_0-0_計極細
  6
CONTINUOUS
 62
    2
 10
616.18632092744906
 20
646.31981132075214
 11
616.18632092744906
 21
640.31981132075487
  0
LINE
  8
_0-0_計極細
  6
CONTINUOUS
 62
    2
 10
629.18632092744906
 20
646.31981132075214
 11
629.18632092744906
 21
640.31981132075487
  0
LINE
  8
_0-0_計極細
  6
CONTINUOUS
 62
    2
 10
616.18632092744906
 20
628.9198113207525
 11
616.18632092744906
 21
622.91981132075523
  0
LINE
  8
_0-0_計極細
  6
CONTINUOUS
 62
    2
 10
629.18632092744906
 20
628.9198113207525
 11
629.18632092744906
 21
622.91981132075523
  0
LINE
  8
_0-0_計極細
  6
CONTINUOUS
 62
    2
 10
616.18632092744906
 20
611.51981132075275
 11
616.18632092744906
 21
605.51981132075548
  0
LINE
  8
_0-0_計極細
  6
CONTINUOUS
 62
    2
 10
629.18632092744906
 20
611.51981132075275
 11
629.18632092744906
 21
605.51981132075548
  0
LINE
  8
_0-0_計極細
  6
CONTINUOUS
 62
    2
 10
616.18632092744906
 20
594.11981132075221
 11
616.18632092744906
 21
588.11981132075493
  0
LINE
  8
_0-0_計極細
  6
CONTINUOUS
 62
    2
 10
629.18632092744906
 20
594.11981132075221
 11
629.18632092744906
 21
588.11981132075493
  0
LINE
  8
_0-0_計極細
  6
CONTINUOUS
 62
    2
 10
616.18632092744906
 20
576.71981132075268
 11
616.18632092744906
 21
570.71981132075541
  0
LINE
  8
_0-0_計極細
  6
CONTINUOUS
 62
    2
 10
629.18632092744906
 20
576.71981132075268
 11
629.18632092744906
 21
570.71981132075541
  0
LINE
  8
_0-0_計極細
  6
CONTINUOUS
 62
    2
 10
616.18632092744906
 20
559.31981132075214
 11
616.18632092744906
 21
553.31981132075487
  0
LINE
  8
_0-0_計極細
  6
CONTINUOUS
 62
    2
 10
629.18632092744906
 20
559.31981132075214
 11
629.18632092744906
 21
553.31981132075487
  0
LINE
  8
_0-0_計極細
  6
CONTINUOUS
 62
    2
 10
616.18632092744906
 20
541.9198113207525
 11
616.18632092744906
 21
535.91981132075523
  0
LINE
  8
_0-0_計極細
  6
CONTINUOUS
 62
    2
 10
629.18632092744906
 20
541.9198113207525
 11
629.18632092744906
 21
535.91981132075523
  0
LINE
  8
_0-0_計極細
  6
CONTINUOUS
 62
    2
 10
616.18632092744906
 20
524.51981132075275
 11
616.18632092744906
 21
518.51981132075548
  0
LINE
  8
_0-0_計極細
  6
CONTINUOUS
 62
    2
 10
629.18632092744906
 20
524.51981132075275
 11
629.18632092744906
 21
518.51981132075548
  0
LINE
  8
_0-0_計極細
  6
CONTINUOUS
 62
    2
 10
616.18632092744906
 20
507.11981132075226
 11
616.18632092744906
 21
501.11981132075499
  0
LINE
  8
_0-0_計極細
  6
CONTINUOUS
 62
    2
 10
629.18632092744906
 20
507.11981132075226
 11
629.18632092744906
 21
501.11981132075499
  0
LINE
  8
_0-0_計極細
  6
CONTINUOUS
 62
    2
 10
616.18632092744906
 20
489.71981132075268
 11
616.18632092744906
 21
483.71981132075541
  0
LINE
  8
_0-0_計極細
  6
CONTINUOUS
 62
    2
 10
629.18632092744906
 20
489.71981132075268
 11
629.18632092744906
 21
483.71981132075541
  0
LINE
  8
_0-0_計極細
  6
CONTINUOUS
 62
    2
 10
616.18632092744906
 20
472.31981132075214
 11
616.18632092744906
 21
466.31981132075487
  0
LINE
  8
_0-0_計極細
  6
CONTINUOUS
 62
    2
 10
629.18632092744906
 20
472.31981132075214
 11
629.18632092744906
 21
466.31981132075487
  0
LINE
  8
_0-0_計極細
  6
CONTINUOUS
 62
    2
 10
616.18632092744906
 20
454.9198113207525
 11
616.18632092744906
 21
448.91981132075523
  0
LINE
  8
_0-0_計極細
  6
CONTINUOUS
 62
    2
 10
629.18632092744906
 20
454.9198113207525
 11
629.18632092744906
 21
448.91981132075523
  0
LINE
  8
_0-0_計極細
  6
CONTINUOUS
 62
    2
 10
616.18632092744906
 20
437.51981132075281
 11
616.18632092744906
 21
431.51981132075554
  0
LINE
  8
_0-0_計極細
  6
CONTINUOUS
 62
    2
 10
629.18632092744906
 20
437.51981132075281
 11
629.18632092744906
 21
431.51981132075554
  0
LINE
  8
_0-0_計極細
  6
CONTINUOUS
 62
    2
 10
616.18632092744906
 20
420.11981132075226
 11
616.18632092744906
 21
414.11981132075499
  0
LINE
  8
_0-0_計極細
  6
CONTINUOUS
 62
    2
 10
629.18632092744906
 20
420.11981132075226
 11
629.18632092744906
 21
414.11981132075499
  0
LINE
  8
_0-0_計極細
  6
CONTINUOUS
 62
    2
 10
616.18632092744906
 20
402.71981132075268
 11
616.18632092744906
 21
396.71981132075541
  0
LINE
  8
_0-0_計極細
  6
CONTINUOUS
 62
    2
 10
629.18632092744906
 20
402.71981132075268
 11
629.18632092744906
 21
396.71981132075541
  0
LINE
  8
_0-0_計極細
  6
CONTINUOUS
 62
    2
 10
616.18632092744906
 20
385.31981132075305
 11
616.18632092744906
 21
379.31981132075578
  0
LINE
  8
_0-0_計極細
  6
CONTINUOUS
 62
    2
 10
629.18632092744906
 20
385.31981132075305
 11
629.18632092744906
 21
379.31981132075578
  0
LINE
  8
_0-0_計極細
  6
CONTINUOUS
 62
    2
 10
616.18632092744906
 20
768.91981132075341
 11
616.18632092744906
 21
762.5198113207565
  0
LINE
  8
_0-0_計極細
  6
CONTINUOUS
 62
    2
 10
629.18632092744906
 20
768.91981132075341
 11
629.18632092744906
 21
762.5198113207565
  0
LINE
  8
_0-0_計極細
  6
CONTINUOUS
 62
    2
 10
616.18632092744906
 20
350.11981132075232
 11
616.18632092744906
 21
343.71981132075541
  0
LINE
  8
_0-0_計極細
  6
CONTINUOUS
 62
    2
 10
629.18632092744906
 20
350.11981132075232
 11
629.18632092744906
 21
343.71981132075541
  0
LINE
  8
_0-0_計極細
  6
CONTINUOUS
 62
    2
 10
616.18632092744906
 20
332.31981132075214
 11
616.18632092744906
 21
325.91981132075523
  0
LINE
  8
_0-0_計極細
  6
CONTINUOUS
 62
    2
 10
629.18632092744906
 20
332.31981132075214
 11
629.18632092744906
 21
325.91981132075523
  0
LINE
  8
_0-0_計極細
  6
CONTINUOUS
 62
    2
 10
616.18632092744906
 20
314.51981132075196
 11
616.18632092744906
 21
309.01981132078242
  0
LINE
  8
_0-0_計極細
  6
CONTINUOUS
 62
    2
 10
629.18632092744906
 20
314.51981132075196
 11
629.18632092744906
 21
309.01981132078242
  0
LINE
  8
_0-0_計極細
  6
CENTER1
 62
    2
 10
671.18632092744906
 20
806.37053074524545
 11
671.18632092744906
 21
290.06198757977006
  0
LINE
  8
_0-0_計極細
  6
CONTINUOUS
 62
    2
 10
664.68632092744906
 20
751.11981132075323
 11
664.68632092744906
 21
744.71981132075632
  0
LINE
  8
_0-0_計極細
  6
CONTINUOUS
 62
    2
 10
677.68632092744906
 20
751.11981132075323
 11
677.68632092744906
 21
744.71981132075632
  0
LINE
  8
_0-0_計極細
  6
CONTINUOUS
 62
    2
 10
664.68632092744906
 20
367.9198113207525
 11
664.68632092744906
 21
361.51981132075559
  0
LINE
  8
_0-0_計極細
  6
CONTINUOUS
 62
    2
 10
677.68632092744906
 20
367.9198113207525
 11
677.68632092744906
 21
361.51981132075559
  0
LINE
  8
_0-0_計極細
  6
CONTINUOUS
 62
    2
 10
664.68632092744906
 20
733.31981132075305
 11
664.68632092744906
 21
727.31981132075578
  0
LINE
  8
_0-0_計極細
  6
CONTINUOUS
 62
    2
 10
677.68632092744906
 20
733.31981132075305
 11
677.68632092744906
 21
727.31981132075578
  0
LINE
  8
_0-0_計極細
  6
CONTINUOUS
 62
    2
 10
664.68632092744906
 20
715.9198113207525
 11
664.68632092744906
 21
709.91981132075523
  0
LINE
  8
_0-0_計極細
  6
CONTINUOUS
 62
    2
 10
677.68632092744906
 20
715.9198113207525
 11
677.68632092744906
 21
709.91981132075523
  0
LINE
  8
_0-0_計極細
  6
CONTINUOUS
 62
    2
 10
664.68632092744906
 20
698.51981132075275
 11
664.68632092744906
 21
692.51981132075548
  0
LINE
  8
_0-0_計極細
  6
CONTINUOUS
 62
    2
 10
677.68632092744906
 20
698.51981132075275
 11
677.68632092744906
 21
692.51981132075548
  0
LINE
  8
_0-0_計極細
  6
CONTINUOUS
 62
    2
 10
664.68632092744906
 20
681.11981132075221
 11
664.68632092744906
 21
675.11981132075493
  0
LINE
  8
_0-0_計極細
  6
CONTINUOUS
 62
    2
 10
677.68632092744906
 20
681.11981132075221
 11
677.68632092744906
 21
675.11981132075493
  0
LINE
  8
_0-0_計極細
  6
CONTINUOUS
 62
    2
 10
664.68632092744906
 20
663.71981132075268
 11
664.68632092744906
 21
657.71981132075541
  0
LINE
  8
_0-0_計極細
  6
CONTINUOUS
 62
    2
 10
677.68632092744906
 20
663.71981132075268
 11
677.68632092744906
 21
657.71981132075541
  0
LINE
  8
_0-0_計極細
  6
CONTINUOUS
 62
    2
 10
664.68632092744906
 20
646.31981132075214
 11
664.68632092744906
 21
640.31981132075487
  0
LINE
  8
_0-0_計極細
  6
CONTINUOUS
 62
    2
 10
677.68632092744906
 20
646.31981132075214
 11
677.68632092744906
 21
640.31981132075487
  0
LINE
  8
_0-0_計極細
  6
CONTINUOUS
 62
    2
 10
664.68632092744906
 20
628.9198113207525
 11
664.68632092744906
 21
622.91981132075523
  0
LINE
  8
_0-0_計極細
  6
CONTINUOUS
 62
    2
 10
677.68632092744906
 20
628.9198113207525
 11
677.68632092744906
 21
622.91981132075523
  0
LINE
  8
_0-0_計極細
  6
CONTINUOUS
 62
    2
 10
664.68632092744906
 20
611.51981132075275
 11
664.68632092744906
 21
605.51981132075548
  0
LINE
  8
_0-0_計極細
  6
CONTINUOUS
 62
    2
 10
677.68632092744906
 20
611.51981132075275
 11
677.68632092744906
 21
605.51981132075548
  0
LINE
  8
_0-0_計極細
  6
CONTINUOUS
 62
    2
 10
664.68632092744906
 20
594.11981132075221
 11
664.68632092744906
 21
588.11981132075493
  0
LINE
  8
_0-0_計極細
  6
CONTINUOUS
 62
    2
 10
677.68632092744906
 20
594.11981132075221
 11
677.68632092744906
 21
588.11981132075493
  0
LINE
  8
_0-0_計極細
  6
CONTINUOUS
 62
    2
 10
664.68632092744906
 20
576.71981132075268
 11
664.68632092744906
 21
570.71981132075541
  0
LINE
  8
_0-0_計極細
  6
CONTINUOUS
 62
    2
 10
677.68632092744906
 20
576.71981132075268
 11
677.68632092744906
 21
570.71981132075541
  0
LINE
  8
_0-0_計極細
  6
CONTINUOUS
 62
    2
 10
664.68632092744906
 20
559.31981132075214
 11
664.68632092744906
 21
553.31981132075487
  0
LINE
  8
_0-0_計極細
  6
CONTINUOUS
 62
    2
 10
677.68632092744906
 20
559.31981132075214
 11
677.68632092744906
 21
553.31981132075487
  0
LINE
  8
_0-0_計極細
  6
CONTINUOUS
 62
    2
 10
664.68632092744906
 20
541.9198113207525
 11
664.68632092744906
 21
535.91981132075523
  0
LINE
  8
_0-0_計極細
  6
CONTINUOUS
 62
    2
 10
677.68632092744906
 20
541.9198113207525
 11
677.68632092744906
 21
535.91981132075523
  0
LINE
  8
_0-0_計極細
  6
CONTINUOUS
 62
    2
 10
664.68632092744906
 20
524.51981132075275
 11
664.68632092744906
 21
518.51981132075548
  0
LINE
  8
_0-0_計極細
  6
CONTINUOUS
 62
    2
 10
677.68632092744906
 20
524.51981132075275
 11
677.68632092744906
 21
518.51981132075548
  0
LINE
  8
_0-0_計極細
  6
CONTINUOUS
 62
    2
 10
664.68632092744906
 20
507.11981132075226
 11
664.68632092744906
 21
501.11981132075499
  0
LINE
  8
_0-0_計極細
  6
CONTINUOUS
 62
    2
 10
677.68632092744906
 20
507.11981132075226
 11
677.68632092744906
 21
501.11981132075499
  0
LINE
  8
_0-0_計極細
  6
CONTINUOUS
 62
    2
 10
664.68632092744906
 20
489.71981132075268
 11
664.68632092744906
 21
483.71981132075541
  0
LINE
  8
_0-0_計極細
  6
CONTINUOUS
 62
    2
 10
677.68632092744906
 20
489.71981132075268
 11
677.68632092744906
 21
483.71981132075541
  0
LINE
  8
_0-0_計極細
  6
CONTINUOUS
 62
    2
 10
664.68632092744906
 20
472.31981132075214
 11
664.68632092744906
 21
466.31981132075487
  0
LINE
  8
_0-0_計極細
  6
CONTINUOUS
 62
    2
 10
677.68632092744906
 20
472.31981132075214
 11
677.68632092744906
 21
466.31981132075487
  0
LINE
  8
_0-0_計極細
  6
CONTINUOUS
 62
    2
 10
664.68632092744906
 20
454.9198113207525
 11
664.68632092744906
 21
448.91981132075523
  0
LINE
  8
_0-0_計極細
  6
CONTINUOUS
 62
    2
 10
677.68632092744906
 20
454.9198113207525
 11
677.68632092744906
 21
448.91981132075523
  0
LINE
  8
_0-0_計極細
  6
CONTINUOUS
 62
    2
 10
664.68632092744906
 20
437.51981132075281
 11
664.68632092744906
 21
431.51981132075554
  0
LINE
  8
_0-0_計極細
  6
CONTINUOUS
 62
    2
 10
677.68632092744906
 20
437.51981132075281
 11
677.68632092744906
 21
431.51981132075554
  0
LINE
  8
_0-0_計極細
  6
CONTINUOUS
 62
    2
 10
664.68632092744906
 20
420.11981132075226
 11
664.68632092744906
 21
414.11981132075499
  0
LINE
  8
_0-0_計極細
  6
CONTINUOUS
 62
    2
 10
677.68632092744906
 20
420.11981132075226
 11
677.68632092744906
 21
414.11981132075499
  0
LINE
  8
_0-0_計極細
  6
CONTINUOUS
 62
    2
 10
664.68632092744906
 20
402.71981132075268
 11
664.68632092744906
 21
396.71981132075541
  0
LINE
  8
_0-0_計極細
  6
CONTINUOUS
 62
    2
 10
677.68632092744906
 20
402.71981132075268
 11
677.68632092744906
 21
396.71981132075541
  0
LINE
  8
_0-0_計極細
  6
CONTINUOUS
 62
    2
 10
664.68632092744906
 20
385.31981132075305
 11
664.68632092744906
 21
379.31981132075578
  0
LINE
  8
_0-0_計極細
  6
CONTINUOUS
 62
    2
 10
677.68632092744906
 20
385.31981132075305
 11
677.68632092744906
 21
379.31981132075578
  0
LINE
  8
_0-0_計極細
  6
CONTINUOUS
 62
    2
 10
664.68632092744906
 20
768.91981132075341
 11
664.68632092744906
 21
762.5198113207565
  0
LINE
  8
_0-0_計極細
  6
CONTINUOUS
 62
    2
 10
677.68632092744906
 20
768.91981132075341
 11
677.68632092744906
 21
762.5198113207565
  0
LINE
  8
_0-0_計極細
  6
CONTINUOUS
 62
    2
 10
664.68632092744906
 20
350.11981132075232
 11
664.68632092744906
 21
343.71981132075541
  0
LINE
  8
_0-0_計極細
  6
CONTINUOUS
 62
    2
 10
677.68632092744906
 20
350.11981132075232
 11
677.68632092744906
 21
343.71981132075541
  0
LINE
  8
_0-0_計極細
  6
CONTINUOUS
 62
    2
 10
664.68632092744906
 20
332.31981132075214
 11
664.68632092744906
 21
325.91981132075523
  0
LINE
  8
_0-0_計極細
  6
CONTINUOUS
 62
    2
 10
677.68632092744906
 20
332.31981132075214
 11
677.68632092744906
 21
325.91981132075523
  0
LINE
  8
_0-0_計極細
  6
CONTINUOUS
 62
    2
 10
664.68632092744906
 20
314.51981132075196
 11
664.68632092744906
 21
309.01981132078242
  0
LINE
  8
_0-0_計極細
  6
CONTINUOUS
 62
    2
 10
677.68632092744906
 20
314.51981132075196
 11
677.68632092744906
 21
309.01981132078242
  0
LINE
  8
_0-0_計極細
  6
CENTER1
 62
    2
 10
574.18632092744906
 20
806.37053074524545
 11
574.18632092744906
 21
290.06198757976995
  0
LINE
  8
_0-0_計極細
  6
CONTINUOUS
 62
    2
 10
567.68632092744906
 20
751.11981132075323
 11
567.68632092744906
 21
744.71981132075632
  0
LINE
  8
_0-0_計極細
  6
CONTINUOUS
 62
    2
 10
580.68632092744906
 20
751.11981132075323
 11
580.68632092744906
 21
744.71981132075632
  0
LINE
  8
_0-0_計極細
  6
CONTINUOUS
 62
    2
 10
567.68632092744906
 20
367.9198113207525
 11
567.68632092744906
 21
361.51981132075559
  0
LINE
  8
_0-0_計極細
  6
CONTINUOUS
 62
    2
 10
580.68632092744906
 20
367.9198113207525
 11
580.68632092744906
 21
361.51981132075559
  0
LINE
  8
_0-0_計極細
  6
CONTINUOUS
 62
    2
 10
567.68632092744906
 20
733.31981132075305
 11
567.68632092744906
 21
727.31981132075578
  0
LINE
  8
_0-0_計極細
  6
CONTINUOUS
 62
    2
 10
580.68632092744906
 20
733.31981132075305
 11
580.68632092744906
 21
727.31981132075578
  0
LINE
  8
_0-0_計極細
  6
CONTINUOUS
 62
    2
 10
567.68632092744906
 20
715.9198113207525
 11
567.68632092744906
 21
709.91981132075523
  0
LINE
  8
_0-0_計極細
  6
CONTINUOUS
 62
    2
 10
580.68632092744906
 20
715.9198113207525
 11
580.68632092744906
 21
709.91981132075523
  0
LINE
  8
_0-0_計極細
  6
CONTINUOUS
 62
    2
 10
567.68632092744906
 20
698.51981132075275
 11
567.68632092744906
 21
692.51981132075548
  0
LINE
  8
_0-0_計極細
  6
CONTINUOUS
 62
    2
 10
580.68632092744906
 20
698.51981132075275
 11
580.68632092744906
 21
692.51981132075548
  0
LINE
  8
_0-0_計極細
  6
CONTINUOUS
 62
    2
 10
567.68632092744906
 20
681.11981132075221
 11
567.68632092744906
 21
675.11981132075493
  0
LINE
  8
_0-0_計極細
  6
CONTINUOUS
 62
    2
 10
580.68632092744906
 20
681.11981132075221
 11
580.68632092744906
 21
675.11981132075493
  0
LINE
  8
_0-0_計極細
  6
CONTINUOUS
 62
    2
 10
567.68632092744906
 20
663.71981132075268
 11
567.68632092744906
 21
657.71981132075541
  0
LINE
  8
_0-0_計極細
  6
CONTINUOUS
 62
    2
 10
580.68632092744906
 20
663.71981132075268
 11
580.68632092744906
 21
657.71981132075541
  0
LINE
  8
_0-0_計極細
  6
CONTINUOUS
 62
    2
 10
567.68632092744906
 20
646.31981132075214
 11
567.68632092744906
 21
640.31981132075487
  0
LINE
  8
_0-0_計極細
  6
CONTINUOUS
 62
    2
 10
580.68632092744906
 20
646.31981132075214
 11
580.68632092744906
 21
640.31981132075487
  0
LINE
  8
_0-0_計極細
  6
CONTINUOUS
 62
    2
 10
567.68632092744906
 20
628.9198113207525
 11
567.68632092744906
 21
622.91981132075523
  0
LINE
  8
_0-0_計極細
  6
CONTINUOUS
 62
    2
 10
580.68632092744906
 20
628.9198113207525
 11
580.68632092744906
 21
622.91981132075523
  0
LINE
  8
_0-0_計極細
  6
CONTINUOUS
 62
    2
 10
567.68632092744906
 20
611.51981132075275
 11
567.68632092744906
 21
605.51981132075548
  0
LINE
  8
_0-0_計極細
  6
CONTINUOUS
 62
    2
 10
580.68632092744906
 20
611.51981132075275
 11
580.68632092744906
 21
605.51981132075548
  0
LINE
  8
_0-0_計極細
  6
CONTINUOUS
 62
    2
 10
567.68632092744906
 20
594.11981132075221
 11
567.68632092744906
 21
588.11981132075493
  0
LINE
  8
_0-0_計極細
  6
CONTINUOUS
 62
    2
 10
580.68632092744906
 20
594.11981132075221
 11
580.68632092744906
 21
588.11981132075493
  0
LINE
  8
_0-0_計極細
  6
CONTINUOUS
 62
    2
 10
567.68632092744906
 20
576.71981132075268
 11
567.68632092744906
 21
570.71981132075541
  0
LINE
  8
_0-0_計極細
  6
CONTINUOUS
 62
    2
 10
580.68632092744906
 20
576.71981132075268
 11
580.68632092744906
 21
570.71981132075541
  0
LINE
  8
_0-0_計極細
  6
CONTINUOUS
 62
    2
 10
567.68632092744906
 20
559.31981132075214
 11
567.68632092744906
 21
553.31981132075487
  0
LINE
  8
_0-0_計極細
  6
CONTINUOUS
 62
    2
 10
580.68632092744906
 20
559.31981132075214
 11
580.68632092744906
 21
553.31981132075487
  0
LINE
  8
_0-0_計極細
  6
CONTINUOUS
 62
    2
 10
567.68632092744906
 20
541.9198113207525
 11
567.68632092744906
 21
535.91981132075523
  0
LINE
  8
_0-0_計極細
  6
CONTINUOUS
 62
    2
 10
580.68632092744906
 20
541.9198113207525
 11
580.68632092744906
 21
535.91981132075523
  0
LINE
  8
_0-0_計極細
  6
CONTINUOUS
 62
    2
 10
567.68632092744906
 20
524.51981132075275
 11
567.68632092744906
 21
518.51981132075548
  0
LINE
  8
_0-0_計極細
  6
CONTINUOUS
 62
    2
 10
580.68632092744906
 20
524.51981132075275
 11
580.68632092744906
 21
518.51981132075548
  0
LINE
  8
_0-0_計極細
  6
CONTINUOUS
 62
    2
 10
567.68632092744906
 20
507.11981132075226
 11
567.68632092744906
 21
501.11981132075499
  0
LINE
  8
_0-0_計極細
  6
CONTINUOUS
 62
    2
 10
580.68632092744906
 20
507.11981132075226
 11
580.68632092744906
 21
501.11981132075499
  0
LINE
  8
_0-0_計極細
  6
CONTINUOUS
 62
    2
 10
567.68632092744906
 20
489.71981132075268
 11
567.68632092744906
 21
483.71981132075541
  0
LINE
  8
_0-0_計極細
  6
CONTINUOUS
 62
    2
 10
580.68632092744906
 20
489.71981132075268
 11
580.68632092744906
 21
483.71981132075541
  0
LINE
  8
_0-0_計極細
  6
CONTINUOUS
 62
    2
 10
567.68632092744906
 20
472.31981132075214
 11
567.68632092744906
 21
466.31981132075487
  0
LINE
  8
_0-0_計極細
  6
CONTINUOUS
 62
    2
 10
580.68632092744906
 20
472.31981132075214
 11
580.68632092744906
 21
466.31981132075487
  0
LINE
  8
_0-0_計極細
  6
CONTINUOUS
 62
    2
 10
567.68632092744906
 20
454.9198113207525
 11
567.68632092744906
 21
448.91981132075523
  0
LINE
  8
_0-0_計極細
  6
CONTINUOUS
 62
    2
 10
580.68632092744906
 20
454.9198113207525
 11
580.68632092744906
 21
448.91981132075523
  0
LINE
  8
_0-0_計極細
  6
CONTINUOUS
 62
    2
 10
567.68632092744906
 20
437.51981132075281
 11
567.68632092744906
 21
431.51981132075554
  0
LINE
  8
_0-0_計極細
  6
CONTINUOUS
 62
    2
 10
580.68632092744906
 20
437.51981132075281
 11
580.68632092744906
 21
431.51981132075554
  0
LINE
  8
_0-0_計極細
  6
CONTINUOUS
 62
    2
 10
567.68632092744906
 20
420.11981132075226
 11
567.68632092744906
 21
414.11981132075499
  0
LINE
  8
_0-0_計極細
  6
CONTINUOUS
 62
    2
 10
580.68632092744906
 20
420.11981132075226
 11
580.68632092744906
 21
414.11981132075499
  0
LINE
  8
_0-0_計極細
  6
CONTINUOUS
 62
    2
 10
567.68632092744906
 20
402.71981132075268
 11
567.68632092744906
 21
396.71981132075541
  0
LINE
  8
_0-0_計極細
  6
CONTINUOUS
 62
    2
 10
580.68632092744906
 20
402.71981132075268
 11
580.68632092744906
 21
396.71981132075541
  0
LINE
  8
_0-0_計極細
  6
CONTINUOUS
 62
    2
 10
567.68632092744906
 20
385.31981132075305
 11
567.68632092744906
 21
379.31981132075578
  0
LINE
  8
_0-0_計極細
  6
CONTINUOUS
 62
    2
 10
580.68632092744906
 20
385.31981132075305
 11
580.68632092744906
 21
379.31981132075578
  0
LINE
  8
_0-0_計極細
  6
CONTINUOUS
 62
    2
 10
567.68632092744906
 20
768.91981132075341
 11
567.68632092744906
 21
762.5198113207565
  0
LINE
  8
_0-0_計極細
  6
CONTINUOUS
 62
    2
 10
580.68632092744906
 20
768.91981132075341
 11
580.68632092744906
 21
762.5198113207565
  0
LINE
  8
_0-0_計極細
  6
CONTINUOUS
 62
    2
 10
567.68632092744906
 20
350.11981132075232
 11
567.68632092744906
 21
343.71981132075541
  0
LINE
  8
_0-0_計極細
  6
CONTINUOUS
 62
    2
 10
580.68632092744906
 20
350.11981132075232
 11
580.68632092744906
 21
343.71981132075541
  0
LINE
  8
_0-0_計極細
  6
CONTINUOUS
 62
    2
 10
567.68632092744906
 20
332.31981132075214
 11
567.68632092744906
 21
325.91981132075523
  0
LINE
  8
_0-0_計極細
  6
CONTINUOUS
 62
    2
 10
580.68632092744906
 20
332.31981132075214
 11
580.68632092744906
 21
325.91981132075523
  0
LINE
  8
_0-0_計極細
  6
CONTINUOUS
 62
    2
 10
567.68632092744906
 20
314.51981132075196
 11
567.68632092744906
 21
309.01981132078242
  0
LINE
  8
_0-0_計極細
  6
CONTINUOUS
 62
    2
 10
580.68632092744906
 20
314.51981132075196
 11
580.68632092744906
 21
309.01981132078242
  0
LINE
  8
_0-1_計細線
  6
CONTINUOUS
 62
    3
 10
324.18632092744832
 20
325.91981132075523
 11
824.18632092744861
 21
325.91981132075523
  0
LINE
  8
_0-1_計細線
  6
CONTINUOUS
 62
    3
 10
324.18632092744832
 20
314.51981132075468
 11
824.18632092744861
 21
314.51981132075468
  0
LINE
  8
_0-1_計細線
  6
CONTINUOUS
 62
    3
 10
324.18632092744832
 20
325.91981132075523
 11
324.18632092744832
 21
314.51981132075468
  0
LINE
  8
_0-1_計細線
  6
CONTINUOUS
 62
    3
 10
824.18632092744861
 20
325.91981132075523
 11
824.18632092744861
 21
314.51981132075468
  0
LINE
  8
_0-0_計極細
  6
CONTINUOUS
 62
    2
 10
324.18632092744832
 20
317.71981132075541
 11
824.18632092744861
 21
317.71981132075541
  0
LINE
  8
_0-0_計極細
  6
CONTINUOUS
 62
    2
 10
324.18632092744832
 20
322.71981132075541
 11
824.18632092744861
 21
322.71981132075541
  0
LINE
  8
_0-1_計細線
  6
CONTINUOUS
 62
    3
 10
324.18632092744832
 20
343.71981132075541
 11
824.18632092744861
 21
343.71981132075541
  0
LINE
  8
_0-1_計細線
  6
CONTINUOUS
 62
    3
 10
324.18632092744832
 20
332.31981132075487
 11
824.18632092744861
 21
332.31981132075487
  0
LINE
  8
_0-1_計細線
  6
CONTINUOUS
 62
    3
 10
324.18632092744832
 20
343.71981132075541
 11
324.18632092744832
 21
332.31981132075487
  0
LINE
  8
_0-1_計細線
  6
CONTINUOUS
 62
    3
 10
824.18632092744861
 20
343.71981132075541
 11
824.18632092744861
 21
332.31981132075487
  0
LINE
  8
_0-0_計極細
  6
CONTINUOUS
 62
    2
 10
324.18632092744832
 20
335.51981132075559
 11
824.18632092744861
 21
335.51981132075559
  0
LINE
  8
_0-0_計極細
  6
CONTINUOUS
 62
    2
 10
324.18632092744832
 20
340.51981132075559
 11
824.18632092744861
 21
340.51981132075559
  0
LINE
  8
_0-1_計細線
  6
CONTINUOUS
 62
    3
 10
324.18632092744832
 20
361.51981132075559
 11
824.18632092744861
 21
361.51981132075559
  0
LINE
  8
_0-1_計細線
  6
CONTINUOUS
 62
    3
 10
324.18632092744832
 20
350.11981132075505
 11
824.18632092744861
 21
350.11981132075505
  0
LINE
  8
_0-1_計細線
  6
CONTINUOUS
 62
    3
 10
324.18632092744832
 20
361.51981132075559
 11
324.18632092744832
 21
350.11981132075505
  0
LINE
  8
_0-1_計細線
  6
CONTINUOUS
 62
    3
 10
824.18632092744861
 20
361.51981132075559
 11
824.18632092744861
 21
350.11981132075505
  0
LINE
  8
_0-0_計極細
  6
CONTINUOUS
 62
    2
 10
324.18632092744832
 20
353.31981132075578
 11
824.18632092744861
 21
353.31981132075578
  0
LINE
  8
_0-0_計極細
  6
CONTINUOUS
 62
    2
 10
324.18632092744832
 20
358.31981132075578
 11
824.18632092744861
 21
358.31981132075578
  0
LINE
  8
_0-1_計細線
  6
CONTINUOUS
 62
    3
 10
324.18632092744832
 20
762.5198113207565
 11
824.18632092744861
 21
762.5198113207565
  0
LINE
  8
_0-1_計細線
  6
CONTINUOUS
 62
    3
 10
324.18632092744832
 20
751.11981132075596
 11
824.18632092744861
 21
751.11981132075596
  0
LINE
  8
_0-1_計細線
  6
CONTINUOUS
 62
    3
 10
324.18632092744832
 20
762.5198113207565
 11
324.18632092744832
 21
751.11981132075596
  0
LINE
  8
_0-1_計細線
  6
CONTINUOUS
 62
    3
 10
824.18632092744861
 20
762.5198113207565
 11
824.18632092744861
 21
751.11981132075596
  0
LINE
  8
_0-0_計極細
  6
CONTINUOUS
 62
    2
 10
324.18632092744832
 20
754.31981132075657
 11
824.18632092744861
 21
754.31981132075657
  0
LINE
  8
_0-0_計極細
  6
CONTINUOUS
 62
    2
 10
324.18632092744832
 20
759.31981132075668
 11
824.18632092744861
 21
759.31981132075668
  0
LINE
  8
_0-1_計細線
  6
CONTINUOUS
 62
    3
 10
324.18632092744832
 20
744.71981132075632
 11
824.18632092744861
 21
744.71981132075632
  0
LINE
  8
_0-1_計細線
  6
CONTINUOUS
 62
    3
 10
324.18632092744832
 20
733.31981132075578
 11
824.18632092744861
 21
733.31981132075578
  0
LINE
  8
_0-1_計細線
  6
CONTINUOUS
 62
    3
 10
324.18632092744832
 20
744.71981132075632
 11
324.18632092744832
 21
733.31981132075578
  0
LINE
  8
_0-1_計細線
  6
CONTINUOUS
 62
    3
 10
824.18632092744861
 20
744.71981132075632
 11
824.18632092744861
 21
733.31981132075578
  0
LINE
  8
_0-0_計極細
  6
CONTINUOUS
 62
    2
 10
324.18632092744832
 20
736.51981132075639
 11
824.18632092744861
 21
736.51981132075639
  0
LINE
  8
_0-0_計極細
  6
CONTINUOUS
 62
    2
 10
324.18632092744832
 20
741.5198113207565
 11
824.18632092744861
 21
741.5198113207565
  0
LINE
  8
_0-1_計細線
  6
CONTINUOUS
 62
    3
 10
389.68632092744861
 20
553.96981132073404
 11
442.68632092744861
 21
553.96981132073404
  0
LINE
  8
_0-1_計細線
  6
CONTINUOUS
 62
    3
 10
442.68632092744861
 20
558.66981132073386
 11
389.68632092744861
 21
558.66981132073386
  0
LINE
  8
_0-1_計細線
  6
CONTINUOUS
 62
    3
 10
389.68632092744861
 20
558.66981132073386
 11
389.68632092744861
 21
553.96981132073404
  0
LINE
  8
_0-1_計細線
  6
CONTINUOUS
 62
    3
 10
432.68632092744855
 20
558.66981132073386
 11
432.68632092744855
 21
553.96981132073404
  0
LINE
  8
_0-1_計細線
  6
CONTINUOUS
 62
    3
 10
440.68632092744861
 20
558.66981132073386
 11
440.68632092744861
 21
553.96981132073404
  0
LINE
  8
_0-1_計細線
  6
CONTINUOUS
 62
    3
 10
442.68632092744861
 20
558.66981132073386
 11
442.68632092744861
 21
553.96981132073404
  0
LINE
  8
_0-1_計細線
  6
CONTINUOUS
 62
    3
 10
438.68632092744855
 20
558.66981132073386
 11
438.68632092744855
 21
553.96981132073404
  0
LINE
  8
_0-1_計細線
  6
CONTINUOUS
 62
    3
 10
436.68632092744861
 20
558.66981132073386
 11
436.68632092744861
 21
553.96981132073404
  0
LINE
  8
_0-1_計細線
  6
CONTINUOUS
 62
    3
 10
434.68632092744861
 20
558.66981132073386
 11
434.68632092744861
 21
553.96981132073404
  0
LINE
  8
_0-0_計極細
  6
CONTINUOUS
 62
    2
 10
325.18632092744861
 20
786.21981132078133
 11
325.18632092744861
 21
780.31981132075668
  0
LINE
  8
_0-0_計極細
  6
CONTINUOUS
 62
    2
 10
338.18632092744855
 20
786.21981132078133
 11
338.18632092744855
 21
780.31981132075668
  0
LINE
  8
_0-0_計極細
  6
CONTINUOUS
 62
    2
 10
422.18632092744906
 20
786.21981132078133
 11
422.18632092744906
 21
780.31981132075668
  0
LINE
  8
_0-0_計極細
  6
CONTINUOUS
 62
    2
 10
435.186320927449
 20
786.21981132078133
 11
435.186320927449
 21
780.31981132075668
  0
LINE
  8
_0-0_計極細
  6
CONTINUOUS
 62
    2
 10
470.68632092744906
 20
786.21981132078133
 11
470.68632092744906
 21
780.31981132075668
  0
LINE
  8
_0-0_計極細
  6
CONTINUOUS
 62
    2
 10
483.68632092744906
 20
786.21981132078133
 11
483.68632092744906
 21
780.31981132075668
  0
LINE
  8
_0-0_計極細
  6
CONTINUOUS
 62
    2
 10
519.18632092744906
 20
786.21981132078133
 11
519.18632092744906
 21
780.31981132075668
  0
LINE
  8
_0-0_計極細
  6
CONTINUOUS
 62
    2
 10
532.18632092744906
 20
786.21981132078133
 11
532.18632092744906
 21
780.31981132075668
  0
LINE
  8
_0-0_計極細
  6
CONTINUOUS
 62
    2
 10
713.18632092744906
 20
786.21981132078133
 11
713.18632092744906
 21
780.31981132075668
  0
LINE
  8
_0-0_計極細
  6
CONTINUOUS
 62
    2
 10
726.18632092744906
 20
786.21981132078133
 11
726.18632092744906
 21
780.31981132075668
  0
LINE
  8
_0-0_計極細
  6
CONTINUOUS
 62
    2
 10
810.18632092744849
 20
786.21981132078133
 11
810.18632092744849
 21
780.31981132075668
  0
LINE
  8
_0-0_計極細
  6
CONTINUOUS
 62
    2
 10
823.18632092744861
 20
786.21981132078133
 11
823.18632092744861
 21
780.31981132075668
  0
LINE
  8
_0-0_計極細
  6
CONTINUOUS
 62
    2
 10
616.18632092744906
 20
786.21981132078133
 11
616.18632092744906
 21
780.31981132075668
  0
LINE
  8
_0-0_計極細
  6
CONTINUOUS
 62
    2
 10
629.18632092744906
 20
786.21981132078133
 11
629.18632092744906
 21
780.31981132075668
  0
LINE
  8
_0-0_計極細
  6
CONTINUOUS
 62
    2
 10
664.68632092744906
 20
786.21981132078133
 11
664.68632092744906
 21
780.31981132075668
  0
LINE
  8
_0-0_計極細
  6
CONTINUOUS
 62
    2
 10
677.68632092744906
 20
786.21981132078133
 11
677.68632092744906
 21
780.31981132075668
  0
LINE
  8
_0-0_計極細
  6
CONTINUOUS
 62
    2
 10
567.68632092744906
 20
786.21981132078133
 11
567.68632092744906
 21
780.31981132075668
  0
LINE
  8
_0-0_計極細
  6
CONTINUOUS
 62
    2
 10
580.68632092744906
 20
786.21981132078133
 11
580.68632092744906
 21
780.31981132075668
  0
LINE
  8
_0-0_計極細
  6
CENTER1
 62
    2
 10
380.18632092744855
 20
806.37053074524545
 11
380.18632092744855
 21
290.06198757976995
  0
LINE
  8
_0-0_計極細
  6
CONTINUOUS
 62
    2
 10
373.68632092744861
 20
751.11981132075323
 11
373.68632092744861
 21
744.71981132075632
  0
LINE
  8
_0-0_計極細
  6
CONTINUOUS
 62
    2
 10
386.68632092744861
 20
751.11981132075323
 11
386.68632092744861
 21
744.71981132075632
  0
LINE
  8
_0-0_計極細
  6
CONTINUOUS
 62
    2
 10
373.68632092744861
 20
367.9198113207525
 11
373.68632092744861
 21
361.51981132075559
  0
LINE
  8
_0-0_計極細
  6
CONTINUOUS
 62
    2
 10
386.68632092744861
 20
367.9198113207525
 11
386.68632092744861
 21
361.51981132075559
  0
LINE
  8
_0-0_計極細
  6
CONTINUOUS
 62
    2
 10
373.68632092744861
 20
733.31981132075305
 11
373.68632092744861
 21
727.31981132075578
  0
LINE
  8
_0-0_計極細
  6
CONTINUOUS
 62
    2
 10
386.68632092744861
 20
733.31981132075305
 11
386.68632092744861
 21
727.31981132075578
  0
LINE
  8
_0-0_計極細
  6
CONTINUOUS
 62
    2
 10
373.68632092744861
 20
715.9198113207525
 11
373.68632092744861
 21
709.91981132075523
  0
LINE
  8
_0-0_計極細
  6
CONTINUOUS
 62
    2
 10
386.68632092744861
 20
715.9198113207525
 11
386.68632092744861
 21
709.91981132075523
  0
LINE
  8
_0-0_計極細
  6
CONTINUOUS
 62
    2
 10
373.68632092744861
 20
698.51981132075275
 11
373.68632092744861
 21
692.51981132075548
  0
LINE
  8
_0-0_計極細
  6
CONTINUOUS
 62
    2
 10
386.68632092744861
 20
698.51981132075275
 11
386.68632092744861
 21
692.51981132075548
  0
LINE
  8
_0-0_計極細
  6
CONTINUOUS
 62
    2
 10
373.68632092744861
 20
681.11981132075221
 11
373.68632092744861
 21
675.11981132075493
  0
LINE
  8
_0-0_計極細
  6
CONTINUOUS
 62
    2
 10
386.68632092744861
 20
681.11981132075221
 11
386.68632092744861
 21
675.11981132075493
  0
LINE
  8
_0-0_計極細
  6
CONTINUOUS
 62
    2
 10
373.68632092744861
 20
663.71981132075268
 11
373.68632092744861
 21
657.71981132075541
  0
LINE
  8
_0-0_計極細
  6
CONTINUOUS
 62
    2
 10
386.68632092744861
 20
663.71981132075268
 11
386.68632092744861
 21
657.71981132075541
  0
LINE
  8
_0-0_計極細
  6
CONTINUOUS
 62
    2
 10
373.68632092744861
 20
646.31981132075214
 11
373.68632092744861
 21
640.31981132075487
  0
LINE
  8
_0-0_計極細
  6
CONTINUOUS
 62
    2
 10
386.68632092744861
 20
646.31981132075214
 11
386.68632092744861
 21
640.31981132075487
  0
LINE
  8
_0-0_計極細
  6
CONTINUOUS
 62
    2
 10
373.68632092744861
 20
628.9198113207525
 11
373.68632092744861
 21
622.91981132075523
  0
LINE
  8
_0-0_計極細
  6
CONTINUOUS
 62
    2
 10
386.68632092744861
 20
628.9198113207525
 11
386.68632092744861
 21
622.91981132075523
  0
LINE
  8
_0-0_計極細
  6
CONTINUOUS
 62
    2
 10
373.68632092744861
 20
611.51981132075275
 11
373.68632092744861
 21
605.51981132075548
  0
LINE
  8
_0-0_計極細
  6
CONTINUOUS
 62
    2
 10
386.68632092744861
 20
611.51981132075275
 11
386.68632092744861
 21
605.51981132075548
  0
LINE
  8
_0-0_計極細
  6
CONTINUOUS
 62
    2
 10
373.68632092744861
 20
594.11981132075221
 11
373.68632092744861
 21
588.11981132075493
  0
LINE
  8
_0-0_計極細
  6
CONTINUOUS
 62
    2
 10
386.68632092744861
 20
594.11981132075221
 11
386.68632092744861
 21
588.11981132075493
  0
LINE
  8
_0-0_計極細
  6
CONTINUOUS
 62
    2
 10
373.68632092744861
 20
576.71981132075268
 11
373.68632092744861
 21
570.71981132075541
  0
LINE
  8
_0-0_計極細
  6
CONTINUOUS
 62
    2
 10
386.68632092744861
 20
576.71981132075268
 11
386.68632092744861
 21
570.71981132075541
  0
LINE
  8
_0-0_計極細
  6
CONTINUOUS
 62
    2
 10
373.68632092744861
 20
559.31981132075214
 11
373.68632092744861
 21
553.31981132075487
  0
LINE
  8
_0-0_計極細
  6
CONTINUOUS
 62
    2
 10
386.68632092744861
 20
559.31981132075214
 11
386.68632092744861
 21
553.31981132075487
  0
LINE
  8
_0-0_計極細
  6
CONTINUOUS
 62
    2
 10
373.68632092744861
 20
541.9198113207525
 11
373.68632092744861
 21
535.91981132075523
  0
LINE
  8
_0-0_計極細
  6
CONTINUOUS
 62
    2
 10
386.68632092744861
 20
541.9198113207525
 11
386.68632092744861
 21
535.91981132075523
  0
LINE
  8
_0-0_計極細
  6
CONTINUOUS
 62
    2
 10
373.68632092744861
 20
524.51981132075275
 11
373.68632092744861
 21
518.51981132075548
  0
LINE
  8
_0-0_計極細
  6
CONTINUOUS
 62
    2
 10
386.68632092744861
 20
524.51981132075275
 11
386.68632092744861
 21
518.51981132075548
  0
LINE
  8
_0-0_計極細
  6
CONTINUOUS
 62
    2
 10
373.68632092744861
 20
507.11981132075226
 11
373.68632092744861
 21
501.11981132075499
  0
LINE
  8
_0-0_計極細
  6
CONTINUOUS
 62
    2
 10
386.68632092744861
 20
507.11981132075226
 11
386.68632092744861
 21
501.11981132075499
  0
LINE
  8
_0-0_計極細
  6
CONTINUOUS
 62
    2
 10
373.68632092744861
 20
489.71981132075268
 11
373.68632092744861
 21
483.71981132075541
  0
LINE
  8
_0-0_計極細
  6
CONTINUOUS
 62
    2
 10
386.68632092744861
 20
489.71981132075268
 11
386.68632092744861
 21
483.71981132075541
  0
LINE
  8
_0-0_計極細
  6
CONTINUOUS
 62
    2
 10
373.68632092744861
 20
472.31981132075214
 11
373.68632092744861
 21
466.31981132075487
  0
LINE
  8
_0-0_計極細
  6
CONTINUOUS
 62
    2
 10
386.68632092744861
 20
472.31981132075214
 11
386.68632092744861
 21
466.31981132075487
  0
LINE
  8
_0-0_計極細
  6
CONTINUOUS
 62
    2
 10
373.68632092744861
 20
454.9198113207525
 11
373.68632092744861
 21
448.91981132075523
  0
LINE
  8
_0-0_計極細
  6
CONTINUOUS
 62
    2
 10
386.68632092744861
 20
454.9198113207525
 11
386.68632092744861
 21
448.91981132075523
  0
LINE
  8
_0-0_計極細
  6
CONTINUOUS
 62
    2
 10
373.68632092744861
 20
437.51981132075281
 11
373.68632092744861
 21
431.51981132075554
  0
LINE
  8
_0-0_計極細
  6
CONTINUOUS
 62
    2
 10
386.68632092744861
 20
437.51981132075281
 11
386.68632092744861
 21
431.51981132075554
  0
LINE
  8
_0-0_計極細
  6
CONTINUOUS
 62
    2
 10
373.68632092744861
 20
420.11981132075226
 11
373.68632092744861
 21
414.11981132075499
  0
LINE
  8
_0-0_計極細
  6
CONTINUOUS
 62
    2
 10
386.68632092744861
 20
420.11981132075226
 11
386.68632092744861
 21
414.11981132075499
  0
LINE
  8
_0-0_計極細
  6
CONTINUOUS
 62
    2
 10
373.68632092744861
 20
402.71981132075268
 11
373.68632092744861
 21
396.71981132075541
  0
LINE
  8
_0-0_計極細
  6
CONTINUOUS
 62
    2
 10
386.68632092744861
 20
402.71981132075268
 11
386.68632092744861
 21
396.71981132075541
  0
LINE
  8
_0-0_計極細
  6
CONTINUOUS
 62
    2
 10
373.68632092744861
 20
385.31981132075305
 11
373.68632092744861
 21
379.31981132075578
  0
LINE
  8
_0-0_計極細
  6
CONTINUOUS
 62
    2
 10
386.68632092744861
 20
385.31981132075305
 11
386.68632092744861
 21
379.31981132075578
  0
LINE
  8
_0-0_計極細
  6
CONTINUOUS
 62
    2
 10
373.68632092744861
 20
768.91981132075341
 11
373.68632092744861
 21
762.5198113207565
  0
LINE
  8
_0-0_計極細
  6
CONTINUOUS
 62
    2
 10
386.68632092744861
 20
768.91981132075341
 11
386.68632092744861
 21
762.5198113207565
  0
LINE
  8
_0-0_計極細
  6
CONTINUOUS
 62
    2
 10
373.68632092744861
 20
350.11981132075232
 11
373.68632092744861
 21
343.71981132075541
  0
LINE
  8
_0-0_計極細
  6
CONTINUOUS
 62
    2
 10
386.68632092744861
 20
350.11981132075232
 11
386.68632092744861
 21
343.71981132075541
  0
LINE
  8
_0-0_計極細
  6
CONTINUOUS
 62
    2
 10
373.68632092744861
 20
332.31981132075214
 11
373.68632092744861
 21
325.91981132075523
  0
LINE
  8
_0-0_計極細
  6
CONTINUOUS
 62
    2
 10
386.68632092744861
 20
332.31981132075214
 11
386.68632092744861
 21
325.91981132075523
  0
LINE
  8
_0-0_計極細
  6
CONTINUOUS
 62
    2
 10
373.68632092744861
 20
314.51981132075196
 11
373.68632092744861
 21
309.01981132078242
  0
LINE
  8
_0-0_計極細
  6
CONTINUOUS
 62
    2
 10
386.68632092744861
 20
314.51981132075196
 11
386.68632092744861
 21
309.01981132078242
  0
LINE
  8
_0-0_計極細
  6
CENTER1
 62
    2
 10
768.18632092744906
 20
806.37053074524545
 11
768.18632092744906
 21
290.06198757976995
  0
LINE
  8
_0-0_計極細
  6
CONTINUOUS
 62
    2
 10
761.68632092744906
 20
751.11981132075323
 11
761.68632092744906
 21
744.71981132075632
  0
LINE
  8
_0-0_計極細
  6
CONTINUOUS
 62
    2
 10
774.68632092744906
 20
751.11981132075323
 11
774.68632092744906
 21
744.71981132075632
  0
LINE
  8
_0-0_計極細
  6
CONTINUOUS
 62
    2
 10
761.68632092744906
 20
367.9198113207525
 11
761.68632092744906
 21
361.51981132075559
  0
LINE
  8
_0-0_計極細
  6
CONTINUOUS
 62
    2
 10
774.68632092744906
 20
367.9198113207525
 11
774.68632092744906
 21
361.51981132075559
  0
LINE
  8
_0-0_計極細
  6
CONTINUOUS
 62
    2
 10
761.68632092744906
 20
733.31981132075305
 11
761.68632092744906
 21
727.31981132075578
  0
LINE
  8
_0-0_計極細
  6
CONTINUOUS
 62
    2
 10
774.68632092744906
 20
733.31981132075305
 11
774.68632092744906
 21
727.31981132075578
  0
LINE
  8
_0-0_計極細
  6
CONTINUOUS
 62
    2
 10
761.68632092744906
 20
715.9198113207525
 11
761.68632092744906
 21
709.91981132075523
  0
LINE
  8
_0-0_計極細
  6
CONTINUOUS
 62
    2
 10
774.68632092744906
 20
715.9198113207525
 11
774.68632092744906
 21
709.91981132075523
  0
LINE
  8
_0-0_計極細
  6
CONTINUOUS
 62
    2
 10
761.68632092744906
 20
698.51981132075275
 11
761.68632092744906
 21
692.51981132075548
  0
LINE
  8
_0-0_計極細
  6
CONTINUOUS
 62
    2
 10
774.68632092744906
 20
698.51981132075275
 11
774.68632092744906
 21
692.51981132075548
  0
LINE
  8
_0-0_計極細
  6
CONTINUOUS
 62
    2
 10
761.68632092744906
 20
681.11981132075221
 11
761.68632092744906
 21
675.11981132075493
  0
LINE
  8
_0-0_計極細
  6
CONTINUOUS
 62
    2
 10
774.68632092744906
 20
681.11981132075221
 11
774.68632092744906
 21
675.11981132075493
  0
LINE
  8
_0-0_計極細
  6
CONTINUOUS
 62
    2
 10
761.68632092744906
 20
663.71981132075268
 11
761.68632092744906
 21
657.71981132075541
  0
LINE
  8
_0-0_計極細
  6
CONTINUOUS
 62
    2
 10
774.68632092744906
 20
663.71981132075268
 11
774.68632092744906
 21
657.71981132075541
  0
LINE
  8
_0-0_計極細
  6
CONTINUOUS
 62
    2
 10
761.68632092744906
 20
646.31981132075214
 11
761.68632092744906
 21
640.31981132075487
  0
LINE
  8
_0-0_計極細
  6
CONTINUOUS
 62
    2
 10
774.68632092744906
 20
646.31981132075214
 11
774.68632092744906
 21
640.31981132075487
  0
LINE
  8
_0-0_計極細
  6
CONTINUOUS
 62
    2
 10
761.68632092744906
 20
628.9198113207525
 11
761.68632092744906
 21
622.91981132075523
  0
LINE
  8
_0-0_計極細
  6
CONTINUOUS
 62
    2
 10
774.68632092744906
 20
628.9198113207525
 11
774.68632092744906
 21
622.91981132075523
  0
LINE
  8
_0-0_計極細
  6
CONTINUOUS
 62
    2
 10
761.68632092744906
 20
611.51981132075275
 11
761.68632092744906
 21
605.51981132075548
  0
LINE
  8
_0-0_計極細
  6
CONTINUOUS
 62
    2
 10
774.68632092744906
 20
611.51981132075275
 11
774.68632092744906
 21
605.51981132075548
  0
LINE
  8
_0-0_計極細
  6
CONTINUOUS
 62
    2
 10
761.68632092744906
 20
594.11981132075221
 11
761.68632092744906
 21
588.11981132075493
  0
LINE
  8
_0-0_計極細
  6
CONTINUOUS
 62
    2
 10
774.68632092744906
 20
594.11981132075221
 11
774.68632092744906
 21
588.11981132075493
  0
LINE
  8
_0-0_計極細
  6
CONTINUOUS
 62
    2
 10
761.68632092744906
 20
576.71981132075268
 11
761.68632092744906
 21
570.71981132075541
  0
LINE
  8
_0-0_計極細
  6
CONTINUOUS
 62
    2
 10
774.68632092744906
 20
576.71981132075268
 11
774.68632092744906
 21
570.71981132075541
  0
LINE
  8
_0-0_計極細
  6
CONTINUOUS
 62
    2
 10
761.68632092744906
 20
559.31981132075214
 11
761.68632092744906
 21
553.31981132075487
  0
LINE
  8
_0-0_計極細
  6
CONTINUOUS
 62
    2
 10
774.68632092744906
 20
559.31981132075214
 11
774.68632092744906
 21
553.31981132075487
  0
LINE
  8
_0-0_計極細
  6
CONTINUOUS
 62
    2
 10
761.68632092744906
 20
541.9198113207525
 11
761.68632092744906
 21
535.91981132075523
  0
LINE
  8
_0-0_計極細
  6
CONTINUOUS
 62
    2
 10
774.68632092744906
 20
541.9198113207525
 11
774.68632092744906
 21
535.91981132075523
  0
LINE
  8
_0-0_計極細
  6
CONTINUOUS
 62
    2
 10
761.68632092744906
 20
524.51981132075275
 11
761.68632092744906
 21
518.51981132075548
  0
LINE
  8
_0-0_計極細
  6
CONTINUOUS
 62
    2
 10
774.68632092744906
 20
524.51981132075275
 11
774.68632092744906
 21
518.51981132075548
  0
LINE
  8
_0-0_計極細
  6
CONTINUOUS
 62
    2
 10
761.68632092744906
 20
507.11981132075226
 11
761.68632092744906
 21
501.11981132075499
  0
LINE
  8
_0-0_計極細
  6
CONTINUOUS
 62
    2
 10
774.68632092744906
 20
507.11981132075226
 11
774.68632092744906
 21
501.11981132075499
  0
LINE
  8
_0-0_計極細
  6
CONTINUOUS
 62
    2
 10
761.68632092744906
 20
489.71981132075268
 11
761.68632092744906
 21
483.71981132075541
  0
LINE
  8
_0-0_計極細
  6
CONTINUOUS
 62
    2
 10
774.68632092744906
 20
489.71981132075268
 11
774.68632092744906
 21
483.71981132075541
  0
LINE
  8
_0-0_計極細
  6
CONTINUOUS
 62
    2
 10
761.68632092744906
 20
472.31981132075214
 11
761.68632092744906
 21
466.31981132075487
  0
LINE
  8
_0-0_計極細
  6
CONTINUOUS
 62
    2
 10
774.68632092744906
 20
472.31981132075214
 11
774.68632092744906
 21
466.31981132075487
  0
LINE
  8
_0-0_計極細
  6
CONTINUOUS
 62
    2
 10
761.68632092744906
 20
454.9198113207525
 11
761.68632092744906
 21
448.91981132075523
  0
LINE
  8
_0-0_計極細
  6
CONTINUOUS
 62
    2
 10
774.68632092744906
 20
454.9198113207525
 11
774.68632092744906
 21
448.91981132075523
  0
LINE
  8
_0-0_計極細
  6
CONTINUOUS
 62
    2
 10
761.68632092744906
 20
437.51981132075281
 11
761.68632092744906
 21
431.51981132075554
  0
LINE
  8
_0-0_計極細
  6
CONTINUOUS
 62
    2
 10
774.68632092744906
 20
437.51981132075281
 11
774.68632092744906
 21
431.51981132075554
  0
LINE
  8
_0-0_計極細
  6
CONTINUOUS
 62
    2
 10
761.68632092744906
 20
420.11981132075226
 11
761.68632092744906
 21
414.11981132075499
  0
LINE
  8
_0-0_計極細
  6
CONTINUOUS
 62
    2
 10
774.68632092744906
 20
420.11981132075226
 11
774.68632092744906
 21
414.11981132075499
  0
LINE
  8
_0-0_計極細
  6
CONTINUOUS
 62
    2
 10
761.68632092744906
 20
402.71981132075268
 11
761.68632092744906
 21
396.71981132075541
  0
LINE
  8
_0-0_計極細
  6
CONTINUOUS
 62
    2
 10
774.68632092744906
 20
402.71981132075268
 11
774.68632092744906
 21
396.71981132075541
  0
LINE
  8
_0-0_計極細
  6
CONTINUOUS
 62
    2
 10
761.68632092744906
 20
385.31981132075305
 11
761.68632092744906
 21
379.31981132075578
  0
LINE
  8
_0-0_計極細
  6
CONTINUOUS
 62
    2
 10
774.68632092744906
 20
385.31981132075305
 11
774.68632092744906
 21
379.31981132075578
  0
LINE
  8
_0-0_計極細
  6
CONTINUOUS
 62
    2
 10
761.68632092744906
 20
768.91981132075341
 11
761.68632092744906
 21
762.5198113207565
  0
LINE
  8
_0-0_計極細
  6
CONTINUOUS
 62
    2
 10
774.68632092744906
 20
768.91981132075341
 11
774.68632092744906
 21
762.5198113207565
  0
LINE
  8
_0-0_計極細
  6
CONTINUOUS
 62
    2
 10
761.68632092744906
 20
350.11981132075232
 11
761.68632092744906
 21
343.71981132075541
  0
LINE
  8
_0-0_計極細
  6
CONTINUOUS
 62
    2
 10
774.68632092744906
 20
350.11981132075232
 11
774.68632092744906
 21
343.71981132075541
  0
LINE
  8
_0-0_計極細
  6
CONTINUOUS
 62
    2
 10
761.68632092744906
 20
332.31981132075214
 11
761.68632092744906
 21
325.91981132075523
  0
LINE
  8
_0-0_計極細
  6
CONTINUOUS
 62
    2
 10
774.68632092744906
 20
332.31981132075214
 11
774.68632092744906
 21
325.91981132075523
  0
LINE
  8
_0-0_計極細
  6
CONTINUOUS
 62
    2
 10
761.68632092744906
 20
314.51981132075196
 11
761.68632092744906
 21
309.01981132078242
  0
LINE
  8
_0-0_計極細
  6
CONTINUOUS
 62
    2
 10
774.68632092744906
 20
314.51981132075196
 11
774.68632092744906
 21
309.01981132078242
  0
LINE
  8
_0-0_計極細
  6
CONTINUOUS
 62
    2
 10
373.68632092744861
 20
786.21981132078133
 11
373.68632092744861
 21
780.31981132075668
  0
LINE
  8
_0-0_計極細
  6
CONTINUOUS
 62
    2
 10
386.68632092744861
 20
786.21981132078133
 11
386.68632092744861
 21
780.31981132075668
  0
LINE
  8
_0-0_計極細
  6
CONTINUOUS
 62
    2
 10
761.68632092744906
 20
786.21981132078133
 11
761.68632092744906
 21
780.31981132075668
  0
LINE
  8
_0-0_計極細
  6
CONTINUOUS
 62
    2
 10
774.68632092744906
 20
786.21981132078133
 11
774.68632092744906
 21
780.31981132075668
  0
LINE
  8
_0-5_寸法線
  6
CONTINUOUS
 62
    7
 10
319.18632092744861
 20
814.61981132075243
 11
319.18632092744912
 21
952.61981132075243
  0
LINE
  8
_0-5_寸法線
  6
CONTINUOUS
 62
    7
 10
319.18632092744912
 20
946.61981132075243
 11
307.59521101198027
 21
943.51398277952228
  0
LINE
  8
_0-5_寸法線
  6
CONTINUOUS
 62
    7
 10
319.18632092744912
 20
946.61981132075243
 11
307.59521101198033
 21
949.72563986198259
  0
LINE
  8
_0-5_寸法線
  6
CONTINUOUS
 62
    7
 10
322.18632092744861
 20
814.61981132075243
 11
322.18632092744912
 21
952.61981132075243
  0
LINE
  8
_0-5_寸法線
  6
CONTINUOUS
 62
    7
 10
289.18632092744912
 20
946.61981132075243
 11
322.18632092744912
 21
946.61981132075243
  0
TEXT
  8
_0-5_寸法線
 62
    7
 10
291.35965264167214
 20
946.61981132075243
 40
18
 41
1
 50
0
  1
3
  0
LINE
  8
_0-5_寸法線
  6
CONTINUOUS
 62
    7
 10
322.18632092744912
 20
946.61981132075243
 11
333.77743084291791
 21
949.72563986198259
  0
LINE
  8
_0-5_寸法線
  6
CONTINUOUS
 62
    7
 10
322.18632092744912
 20
946.61981132075243
 11
333.77743084291791
 21
943.51398277952217
  0
LINE
  8
_0-5_寸法線
  6
CONTINUOUS
 62
    7
 10
826.18632092744861
 20
814.61981132075243
 11
826.18632092744861
 21
952.61981132075243
  0
LINE
  8
_0-5_寸法線
  6
CONTINUOUS
 62
    7
 10
826.18632092744861
 20
946.61981132075243
 11
814.59521101197981
 21
943.51398277952228
  0
LINE
  8
_0-5_寸法線
  6
CONTINUOUS
 62
    7
 10
826.18632092744861
 20
946.61981132075243
 11
814.59521101197981
 21
949.72563986198259
  0
LINE
  8
_0-5_寸法線
  6
CONTINUOUS
 62
    7
 10
322.18632092744912
 20
946.61981132075243
 11
826.18632092744861
 21
946.61981132075243
  0
TEXT
  8
_0-5_寸法線
 62
    7
 10
560.68632092744906
 20
946.61981132075243
 40
18
 41
1
 50
0
  1
504
  0
LINE
  8
_0-5_寸法線
  6
CONTINUOUS
 62
    7
 10
829.18632092744861
 20
814.61981132075243
 11
829.18632092744861
 21
952.61981132075243
  0
LINE
  8
_0-5_寸法線
  6
CONTINUOUS
 62
    7
 10
829.18632092744861
 20
946.61981132075243
 11
840.7774308429174
 21
949.72563986198259
  0
LINE
  8
_0-5_寸法線
  6
CONTINUOUS
 62
    7
 10
829.18632092744861
 20
946.61981132075243
 11
840.7774308429174
 21
943.51398277952217
  0
LINE
  8
_0-5_寸法線
  6
CONTINUOUS
 62
    7
 10
826.18632092744861
 20
946.61981132075243
 11
859.18632092744861
 21
946.61981132075243
  0
TEXT
  8
_0-5_寸法線
 62
    7
 10
848.71224698129561
 20
946.61981132075243
 40
18
 41
1
 50
0
  1
3
  0
LINE
  8
_0-5_寸法線
  6
CONTINUOUS
 62
    7
 10
319.18632092744906
 20
814.61981132075243
 11
319.18632092744906
 21
994.61981132075243
  0
LINE
  8
_0-5_寸法線
  6
CONTINUOUS
 62
    7
 10
319.18632092744906
 20
988.61981132075243
 11
330.77743084291785
 21
991.72563986198259
  0
LINE
  8
_0-5_寸法線
  6
CONTINUOUS
 62
    7
 10
319.18632092744906
 20
988.61981132075243
 11
330.77743084291785
 21
985.51398277952217
  0
LINE
  8
_0-5_寸法線
  6
CONTINUOUS
 62
    7
 10
829.18632092744861
 20
814.61981132075243
 11
829.18632092744861
 21
994.61981132075243
  0
LINE
  8
_0-5_寸法線
  6
CONTINUOUS
 62
    7
 10
829.18632092744861
 20
988.61981132075243
 11
817.59521101197981
 21
985.51398277952228
  0
LINE
  8
_0-5_寸法線
  6
CONTINUOUS
 62
    7
 10
829.18632092744861
 20
988.61981132075243
 11
817.59521101197981
 21
991.72563986198259
  0
LINE
  8
_0-5_寸法線
  6
CONTINUOUS
 62
    7
 10
319.18632092744906
 20
988.61981132075243
 11
829.18632092744861
 21
988.61981132075243
  0
TEXT
  8
_0-5_寸法線
 62
    7
 10
560.68632092744906
 20
988.61981132075243
 40
18
 41
1
 50
0
  1
510
  0
LINE
  8
_0-5_寸法線
  6
CONTINUOUS
 62
    7
 10
824.18632092744872
 20
814.61981132075243
 11
824.18632092744974
 21
910.61981132075243
  0
LINE
  8
_0-5_寸法線
  6
CONTINUOUS
 62
    7
 10
824.18632092744974
 20
904.61981132075243
 11
812.59521101198095
 21
901.51398277952228
  0
LINE
  8
_0-5_寸法線
  6
CONTINUOUS
 62
    7
 10
824.18632092744974
 20
904.61981132075243
 11
812.59521101198095
 21
907.7256398619827
  0
LINE
  8
_0-5_寸法線
  6
CONTINUOUS
 62
    7
 10
324.18632092744866
 20
814.61981132075243
 11
324.18632092744969
 21
910.61981132075243
  0
LINE
  8
_0-5_寸法線
  6
CONTINUOUS
 62
    7
 10
324.18632092744963
 20
904.61981132075243
 11
335.77743084291842
 21
907.7256398619827
  0
LINE
  8
_0-5_寸法線
  6
CONTINUOUS
 62
    7
 10
324.18632092744963
 20
904.61981132075243
 11
335.77743084291842
 21
901.51398277952228
  0
LINE
  8
_0-5_寸法線
  6
CONTINUOUS
 62
    7
 10
824.18632092744974
 20
904.61981132075243
 11
324.18632092744963
 21
904.61981132075243
  0
TEXT
  8
_0-5_寸法線
 62
    7
 10
560.68632092744906
 20
904.61981132075243
 40
18
 41
1
 50
0
  1
500
  0
LINE
  8
_0-5_寸法線
  6
CONTINUOUS
 62
    7
 10
324.18632092744861
 20
814.61981132075243
 11
324.18632092744861
 21
868.61981132075243
  0
LINE
  8
_0-5_寸法線
  6
CONTINUOUS
 62
    7
 10
324.18632092744861
 20
862.61981132075243
 11
335.7774308429174
 21
865.7256398619827
  0
LINE
  8
_0-5_寸法線
  6
CONTINUOUS
 62
    7
 10
324.18632092744861
 20
862.61981132075243
 11
335.7774308429174
 21
859.51398277952228
  0
LINE
  8
_0-5_寸法線
  6
CONTINUOUS
 62
    7
 10
331.68632092744832
 20
814.61981132075243
 11
331.68632092744832
 21
868.61981132075243
  0
LINE
  8
_0-5_寸法線
  6
CONTINUOUS
 62
    7
 10
331.68632092744832
 20
862.61981132075243
 11
320.09521101197953
 21
859.51398277952228
  0
LINE
  8
_0-5_寸法線
  6
CONTINUOUS
 62
    7
 10
331.68632092744832
 20
862.61981132075243
 11
320.09521101197953
 21
865.7256398619827
  0
LINE
  8
_0-5_寸法線
  6
CONTINUOUS
 62
    7
 10
324.18632092744861
 20
862.61981132075243
 11
360.343219512362
 21
862.61981132075243
  0
TEXT
  8
_0-5_寸法線
 62
    7
 10
333.343219512362
 20
862.61981132075243
 40
18
 41
1
 50
0
  1
7.5
  0
LINE
  8
_0-5_寸法線
  6
CONTINUOUS
 62
    7
 10
331.68632092744832
 20
862.61981132075243
 11
343.27743084291717
 21
865.72563986198259
  0
LINE
  8
_0-5_寸法線
  6
CONTINUOUS
 62
    7
 10
331.68632092744832
 20
862.61981132075243
 11
343.27743084291711
 21
859.51398277952228
  0
LINE
  8
_0-5_寸法線
  6
CONTINUOUS
 62
    7
 10
816.68632092744861
 20
814.61981132075243
 11
816.68632092744861
 21
868.61981132075243
  0
LINE
  8
_0-5_寸法線
  6
CONTINUOUS
 62
    7
 10
816.68632092744861
 20
862.61981132075243
 11
805.0952110119797
 21
859.51398277952228
  0
LINE
  8
_0-5_寸法線
  6
CONTINUOUS
 62
    7
 10
816.68632092744861
 20
862.61981132075243
 11
805.0952110119797
 21
865.7256398619827
  0
LINE
  8
_0-5_寸法線
  6
CONTINUOUS
 62
    7
 10
331.68632092744832
 20
862.61981132075243
 11
816.68632092744861
 21
862.61981132075243
  0
TEXT
  8
_0-5_寸法線
 62
    7
 10
524.68632092744838
 20
862.61981132075243
 40
18
 41
1
 50
0
  1
10@48.5=485
  0
LINE
  8
_0-5_寸法線
  6
CONTINUOUS
 62
    7
 10
816.68632092744861
 20
862.61981132075243
 11
828.27743084291728
 21
865.72563986198259
  0
LINE
  8
_0-5_寸法線
  6
CONTINUOUS
 62
    7
 10
816.68632092744861
 20
862.61981132075243
 11
828.27743084291728
 21
859.51398277952228
  0
LINE
  8
_0-5_寸法線
  6
CONTINUOUS
 62
    7
 10
824.18632092744861
 20
814.61981132075243
 11
824.18632092744861
 21
868.61981132075243
  0
LINE
  8
_0-5_寸法線
  6
CONTINUOUS
 62
    7
 10
824.18632092744861
 20
862.61981132075243
 11
812.5952110119797
 21
859.51398277952228
  0
LINE
  8
_0-5_寸法線
  6
CONTINUOUS
 62
    7
 10
824.18632092744861
 20
862.61981132075243
 11
812.5952110119797
 21
865.7256398619827
  0
LINE
  8
_0-5_寸法線
  6
CONTINUOUS
 62
    7
 10
788.89572540858512
 20
862.61981132075243
 11
824.18632092744861
 21
862.61981132075243
  0
TEXT
  8
_0-5_寸法線
 62
    7
 10
788.89572540858535
 20
862.61981132075243
 40
18
 41
1
 50
0
  1
7.5
  0
LINE
  8
_0-5_寸法線
  6
CONTINUOUS
 62
    7
 10
307.18632092744809
 20
292.61981132075721
 11
211.18632092744861
 21
292.61981132075744
  0
LINE
  8
_0-5_寸法線
  6
CONTINUOUS
 62
    7
 10
217.18632092744861
 20
292.61981132075744
 11
214.08049238621837
 21
304.21092123622623
  0
LINE
  8
_0-5_寸法線
  6
CONTINUOUS
 62
    7
 10
217.18632092744861
 20
292.61981132075744
 11
220.29214946867884
 21
304.21092123622623
  0
LINE
  8
_0-5_寸法線
  6
CONTINUOUS
 62
    7
 10
307.18632092744809
 20
802.61981132075277
 11
211.18632092744861
 21
802.61981132075289
  0
LINE
  8
_0-5_寸法線
  6
CONTINUOUS
 62
    7
 10
217.18632092744861
 20
802.61981132075289
 11
220.29214946867884
 21
791.02870140528421
  0
LINE
  8
_0-5_寸法線
  6
CONTINUOUS
 62
    7
 10
217.18632092744861
 20
802.61981132075289
 11
214.08049238621837
 21
791.02870140528421
  0
LINE
  8
_0-5_寸法線
  6
CONTINUOUS
 62
    7
 10
217.18632092744861
 20
292.61981132075744
 11
217.18632092744861
 21
802.61981132075289
  0
TEXT
  8
_0-5_寸法線
 62
    7
 10
217.18632092744861
 20
534.11981132075528
 40
18
 41
1
 50
90
  1
510
  0
LINE
  8
_0-5_寸法線
  6
CONTINUOUS
 62
    7
 10
307.18632092744809
 20
292.61981132075726
 11
253.18632092744861
 21
292.61981132075744
  0
LINE
  8
_0-5_寸法線
  6
CONTINUOUS
 62
    7
 10
259.18632092744861
 20
292.61981132075744
 11
262.29214946867876
 21
281.02870140528859
  0
LINE
  8
_0-5_寸法線
  6
CONTINUOUS
 62
    7
 10
259.18632092744861
 20
292.61981132075744
 11
256.08049238621828
 21
281.02870140528864
  0
LINE
  8
_0-5_寸法線
  6
CONTINUOUS
 62
    7
 10
307.18632092744809
 20
295.61981132075726
 11
253.18632092744861
 21
295.61981132075744
  0
CIRCLE
  8
_0-5_寸法線
  6
CONTINUOUS
 62
    1
 10
259.18632092744861
 20
295.61981132075744
 40
1.7999999999999996
  0
LINE
  8
_0-5_寸法線
  6
CONTINUOUS
 62
    7
 10
259.18632092744861
 20
262.61981132075744
 11
259.18632092744861
 21
295.61981132075744
  0
TEXT
  8
_0-5_寸法線
 62
    7
 10
259.18632092744861
 20
266.65046831603445
 40
18
 41
1
 50
90
  1
3
  0
LINE
  8
_0-5_寸法線
  6
CONTINUOUS
 62
    7
 10
307.18632092744809
 20
297.61981132078188
 11
253.18632092744861
 21
297.61981132078205
  0
LINE
  8
_0-5_寸法線
  6
CONTINUOUS
 62
    7
 10
259.18632092744861
 20
295.61981132075744
 11
259.18632092744861
 21
297.61981132078205
  0
TEXT
  8
_0-5_寸法線
 62
    7
 10
280.09903943412456
 20
301.40300369342378
 40
18
 41
1
 50
90
  1
2
  0
LINE
  8
_0-5_寸法線
  6
CONTINUOUS
 62
    7
 10
259.18632092744861
 20
297.61981132078205
 11
256.08049238621834
 21
309.2109212362509
  0
LINE
  8
_0-5_寸法線
  6
CONTINUOUS
 62
    7
 10
259.18632092744861
 20
297.61981132078205
 11
262.29214946867887
 21
309.21092123625084
  0
LINE
  8
_0-5_寸法線
  6
CONTINUOUS
 62
    7
 10
307.18632092744809
 20
797.61981132078188
 11
253.18632092744861
 21
797.61981132078199
  0
LINE
  8
_0-5_寸法線
  6
CONTINUOUS
 62
    7
 10
259.18632092744861
 20
797.61981132078199
 11
262.29214946867876
 21
786.02870140531331
  0
LINE
  8
_0-5_寸法線
  6
CONTINUOUS
 62
    7
 10
259.18632092744861
 20
797.61981132078199
 11
256.08049238621828
 21
786.02870140531331
  0
LINE
  8
_0-5_寸法線
  6
CONTINUOUS
 62
    7
 10
259.18632092744861
 20
297.61981132078205
 11
259.18632092744861
 21
797.61981132078199
  0
TEXT
  8
_0-5_寸法線
 62
    7
 10
259.18632092744861
 20
534.11981132078199
 40
18
 41
1
 50
90
  1
500
  0
LINE
  8
_0-5_寸法線
  6
CONTINUOUS
 62
    7
 10
307.18632092744809
 20
799.61981132075277
 11
253.18632092744861
 21
799.61981132075277
  0
CIRCLE
  8
_0-5_寸法線
  6
CONTINUOUS
 62
    1
 10
259.18632092744861
 20
799.61981132075277
 40
1.7999999999999996
  0
LINE
  8
_0-5_寸法線
  6
CONTINUOUS
 62
    7
 10
259.18632092744861
 20
797.61981132078199
 11
259.18632092744861
 21
799.61981132075277
  0
TEXT
  8
_0-5_寸法線
 62
    7
 10
278.89178707563343
 20
787.3467831745445
 40
18
 41
1
 50
90
  1
2
  0
LINE
  8
_0-5_寸法線
  6
CONTINUOUS
 62
    7
 10
307.18632092744809
 20
802.61981132075277
 11
253.18632092744861
 21
802.61981132075277
  0
LINE
  8
_0-5_寸法線
  6
CONTINUOUS
 62
    7
 10
259.18632092744861
 20
802.61981132075277
 11
256.08049238621834
 21
814.21092123622157
  0
LINE
  8
_0-5_寸法線
  6
CONTINUOUS
 62
    7
 10
259.18632092744861
 20
802.61981132075277
 11
262.29214946867887
 21
814.21092123622157
  0
LINE
  8
_0-5_寸法線
  6
CONTINUOUS
 62
    7
 10
259.18632092744861
 20
799.61981132075277
 11
259.18632092744861
 21
832.61981132075277
  0
TEXT
  8
_0-5_寸法線
 62
    7
 10
259.18632092744861
 20
819.54551548584141
 40
18
 41
1
 50
90
  1
3
  0
LINE
  8
_0-5_寸法線
  6
CONTINUOUS
 62
    7
 10
828.66677252787372
 20
502.05314465408958
 11
837.15205390211213
 21
510.5384260283281
  0
LINE
  8
_0-5_寸法線
  6
CONTINUOUS
 62
    7
 10
828.66677252787372
 20
502.05314465408958
 11
840.25788244334251
 21
505.15897319531985
  0
LINE
  8
_0-5_寸法線
  6
CONTINUOUS
 62
    7
 10
828.66677252787372
 20
502.05314465408958
 11
870.06677252787426
 21
525.95544579854015
  0
LINE
  8
_0-5_寸法線
  6
CONTINUOUS
 62
    7
 10
870.06677252787426
 20
525.95544579854015
 11
999.66677252787417
 21
525.95544579854015
  0
TEXT
  8
_0-5_寸法線
 62
    7
 10
870.06677252787426
 20
525.95544579854015
 40
18
 41
0.7999999999999998
 50
0
  1
ＳＵＳアングル受枠
  0
LINE
  8
_0-5_寸法線
  6
CONTINUOUS
 62
    7
 10
790.95563728150478
 20
590.3345693942947
 11
799.44091865574319
 21
598.81985076853323
  0
LINE
  8
_0-5_寸法線
  6
CONTINUOUS
 62
    7
 10
790.95563728150478
 20
590.3345693942947
 11
802.54674719697346
 21
593.44039793552497
  0
LINE
  8
_0-5_寸法線
  6
CONTINUOUS
 62
    7
 10
790.95563728150478
 20
590.3345693942947
 11
870.06677252787426
 21
636.00940462468293
  0
LINE
  8
_0-5_寸法線
  6
CONTINUOUS
 62
    7
 10
870.06677252787426
 20
636.00940462468293
 11
1028.4667725278744
 21
636.00940462468293
  0
TEXT
  8
_0-5_寸法線
 62
    7
 10
870.06677252787426
 20
636.00940462468293
 40
18
 41
0.7999999999999998
 50
0
  1
セーフティグレーチング
  0
TEXT
  8
_0-5_寸法線
 62
    7
 10
870.06677252787426
 20
618.00940462468293
 40
18
 41
0.7999999999999998
 50
0
  1
補強仕様
  0
TEXT
  8
_0-5_寸法線
 62
    7
 10
870.06677252787426
 20
507.95544579854015
 40
18
 41
0.7999999999999998
 50
0
  1
ＧＳＬ－２５
  0
LINE
  8
_0-7_枠細線
  6
CONTINUOUS
 62
    5
 10
213.93100319287154
 20
891.17041093293165
 11
204.93100319287154
 21
909.17041093293165
  0
LINE
  8
_0-7_枠細線
  6
CONTINUOUS
 62
    5
 10
195.93100319287154
 20
891.17041093293165
 11
213.93100319287154
 21
891.17041093293165
  0
LINE
  8
_0-7_枠細線
  6
CONTINUOUS
 62
    5
 10
204.93100319287154
 20
909.17041093293165
 11
195.93100319287154
 21
891.17041093293165
  0
LINE
  8
_0-5_寸法線
  6
CONTINUOUS
 62
    7
 10
434.37836742401123
 20
556.70231103897095
 11
426.21823589255365
 21
565.50073438575942
  0
LINE
  8
_0-5_寸法線
  6
CONTINUOUS
 62
    7
 10
434.37836742401123
 20
556.70231103897095
 11
431.7106978929408
 21
568.40203493626859
  0
LINE
  8
_0-5_寸法線
  6
CONTINUOUS
 62
    7
 10
434.37836742401123
 20
556.70231103897095
 11
269.11914941749836
 21
869.55510216230141
  0
LINE
  8
_0-5_寸法線
  6
CONTINUOUS
 62
    7
 10
269.11914941749836
 20
869.55510216230141
 11
197.11914941749853
 21
869.55510216230141
  0
TEXT
  8
_0-5_寸法線
 62
    7
 10
197.11914941749836
 20
869.55510216230141
 40
18
 41
0.7999999999999998
 50
0
  1
取　外　具
  0
TEXT
  8
_0-5_寸法線
 62
    7
 10
197.11914941749853
 20
851.55510216230141
 40
18
 41
0.7999999999999998
 50
0
  1
(標準付属)
  0
LINE
  8
_0-5_寸法線
  6
CONTINUOUS
 62
    7
 10
1452.1391650762771
 20
836.53364571264194
 11
1452.1391650762771
 21
880.53342671163523
  0
LINE
  8
_0-5_寸法線
  6
CONTINUOUS
 62
    7
 10
1452.1391650762771
 20
874.53342671163523
 11
1463.7302749917458
 21
877.63925525286538
  0
LINE
  8
_0-5_寸法線
  6
CONTINUOUS
 62
    7
 10
1452.1391650762771
 20
874.53342671163523
 11
1463.7302749917458
 21
871.42759817040496
  0
LINE
  8
_0-5_寸法線
  6
CONTINUOUS
 62
    7
 10
1469.5391650756619
 20
836.53364571264194
 11
1469.5391650756619
 21
880.53342671163523
  0
LINE
  8
_0-5_寸法線
  6
CONTINUOUS
 62
    7
 10
1469.5391650756619
 20
874.53342671163523
 11
1457.9480551601932
 21
871.42759817040508
  0
LINE
  8
_0-5_寸法線
  6
CONTINUOUS
 62
    7
 10
1469.5391650756619
 20
874.53342671163523
 11
1457.9480551601932
 21
877.63925525286538
  0
LINE
  8
_0-5_寸法線
  6
CONTINUOUS
 62
    7
 10
1421.9896085781854
 20
874.53342671163523
 11
1469.5391650756619
 21
874.53342671163523
  0
TEXT
  8
_0-5_寸法線
 62
    7
 10
1421.9896085781857
 20
856.53342671163523
 40
18
 41
1
 50
0
  1
(17.4)
  0
LINE
  8
_0-5_寸法線
  6
CONTINUOUS
 62
    7
 10
1469.5391650756619
 20
874.53342671163523
 11
1481.130274991131
 21
877.63925525286538
  0
LINE
  8
_0-5_寸法線
  6
CONTINUOUS
 62
    7
 10
1469.5391650756619
 20
874.53342671163523
 11
1481.130274991131
 21
871.42759817040496
  0
LINE
  8
_0-5_寸法線
  6
CONTINUOUS
 62
    7
 10
1486.9391650753228
 20
836.53364571264194
 11
1486.9391650753228
 21
880.53342671163523
  0
LINE
  8
_0-5_寸法線
  6
CONTINUOUS
 62
    7
 10
1486.9391650753228
 20
874.53342671163523
 11
1475.3480551598536
 21
871.42759817040508
  0
LINE
  8
_0-5_寸法線
  6
CONTINUOUS
 62
    7
 10
1486.9391650753228
 20
874.53342671163523
 11
1475.3480551598536
 21
877.63925525286538
  0
LINE
  8
_0-5_寸法線
  6
CONTINUOUS
 62
    7
 10
1469.5391650756619
 20
874.53342671163523
 11
1516.576778389697
 21
874.53342671163523
  0
TEXT
  8
_0-5_寸法線
 62
    7
 10
1462.576778389697
 20
874.53342671163455
 40
18
 41
1
 50
0
  1
(17.4)
  0
LINE
  8
_0-5_寸法線
  6
CONTINUOUS
 62
    7
 10
1249.0391650813897
 20
834.53364571264171
 11
1249.0391650813897
 21
880.53342671163523
  0
LINE
  8
_0-5_寸法線
  6
CONTINUOUS
 62
    7
 10
1249.0391650813897
 20
874.53342671163523
 11
1237.4480551659208
 21
871.42759817040508
  0
LINE
  8
_0-5_寸法線
  6
CONTINUOUS
 62
    7
 10
1249.0391650813897
 20
874.53342671163523
 11
1237.4480551659208
 21
877.63925525286538
  0
LINE
  8
_0-5_寸法線
  6
CONTINUOUS
 62
    7
 10
1255.039165082982
 20
834.53364571264171
 11
1255.039165082982
 21
880.53342671163523
  0
LINE
  8
_0-5_寸法線
  6
CONTINUOUS
 62
    7
 10
1219.7904182615889
 20
874.53342671163523
 11
1255.039165082982
 21
874.53342671163523
  0
TEXT
  8
_0-5_寸法線
 62
    7
 10
1219.7904182615894
 20
856.53342671163523
 40
18
 41
1
 50
0
  1
(6)
  0
LINE
  8
_0-5_寸法線
  6
CONTINUOUS
 62
    7
 10
1255.039165082982
 20
874.53342671163523
 11
1266.6302749984509
 21
877.63925525286538
  0
LINE
  8
_0-5_寸法線
  6
CONTINUOUS
 62
    7
 10
1255.039165082982
 20
874.53342671163523
 11
1266.6302749984509
 21
871.42759817040496
  0
LINE
  8
_0-5_寸法線
  6
CONTINUOUS
 62
    7
 10
1266.4391650807743
 20
834.53364571264171
 11
1266.4391650807743
 21
880.53342671163523
  0
LINE
  8
_0-5_寸法線
  6
CONTINUOUS
 62
    7
 10
1266.4391650807743
 20
874.53342671163523
 11
1254.8480551653056
 21
871.42759817040508
  0
LINE
  8
_0-5_寸法線
  6
CONTINUOUS
 62
    7
 10
1266.4391650807743
 20
874.53342671163523
 11
1254.8480551653056
 21
877.63925525286538
  0
LINE
  8
_0-5_寸法線
  6
CONTINUOUS
 62
    7
 10
1255.039165082982
 20
874.53342671163523
 11
1266.4391650807743
 21
874.53342671163523
  0
TEXT
  8
_0-5_寸法線
 62
    7
 10
1238.2215293702584
 20
874.53342671163523
 40
18
 41
1
 50
0
  1
11.4
  0
LINE
  8
_0-5_寸法線
  6
CONTINUOUS
 62
    7
 10
1110.1391650787377
 20
909.533426711635
 11
1098.5480551632691
 21
906.42759817040474
  0
LINE
  8
_0-5_寸法線
  6
CONTINUOUS
 62
    7
 10
1110.1391650787377
 20
909.533426711635
 11
1098.5480551632691
 21
912.63925525286527
  0
LINE
  8
_0-5_寸法線
  6
CONTINUOUS
 62
    7
 10
1113.1391650787377
 20
830.03362316485766
 11
1113.1391650787377
 21
915.533426711635
  0
CIRCLE
  8
_0-5_寸法線
  6
CONTINUOUS
 62
    1
 10
1113.1391650787377
 20
909.533426711635
 40
1.8000000000000003
  0
LINE
  8
_0-5_寸法線
  6
CONTINUOUS
 62
    7
 10
1080.1391650787377
 20
909.533426711635
 11
1113.1391650787377
 21
909.533426711635
  0
TEXT
  8
_0-5_寸法線
 62
    7
 10
1083.4548718782912
 20
909.533426711635
 40
18
 41
1
 50
0
  1
3
  0
LINE
  8
_0-5_寸法線
  6
CONTINUOUS
 62
    7
 10
1115.139165078738
 20
828.53362216385085
 11
1115.1391650787386
 21
915.533426711635
  0
LINE
  8
_0-5_寸法線
  6
CONTINUOUS
 62
    7
 10
1113.1391650787377
 20
909.533426711635
 11
1115.1391650787386
 21
909.533426711635
  0
TEXT
  8
_0-5_寸法線
 62
    7
 10
1113.3734303832898
 20
909.533426711635
 40
18
 41
1
 50
0
  1
2
  0
LINE
  8
_0-5_寸法線
  6
CONTINUOUS
 62
    7
 10
1115.1391650787386
 20
909.533426711635
 11
1126.7302749942075
 21
912.63925525286527
  0
LINE
  8
_0-5_寸法線
  6
CONTINUOUS
 62
    7
 10
1115.1391650787386
 20
909.533426711635
 11
1126.7302749942075
 21
906.42759817040462
  0
LINE
  8
_0-5_寸法線
  6
CONTINUOUS
 62
    7
 10
1615.139165078738
 20
828.53362216385085
 11
1615.139165078738
 21
915.533426711635
  0
LINE
  8
_0-5_寸法線
  6
CONTINUOUS
 62
    7
 10
1615.139165078738
 20
909.533426711635
 11
1603.5480551632688
 21
906.42759817040474
  0
LINE
  8
_0-5_寸法線
  6
CONTINUOUS
 62
    7
 10
1615.139165078738
 20
909.533426711635
 11
1603.5480551632688
 21
912.63925525286527
  0
LINE
  8
_0-5_寸法線
  6
CONTINUOUS
 62
    7
 10
1115.1391650787386
 20
909.533426711635
 11
1615.139165078738
 21
909.533426711635
  0
TEXT
  8
_0-5_寸法線
 62
    7
 10
1351.6391650787382
 20
909.533426711635
 40
18
 41
1
 50
0
  1
500
  0
LINE
  8
_0-5_寸法線
  6
CONTINUOUS
 62
    7
 10
1617.1391650787377
 20
830.03362316485766
 11
1617.1391650787377
 21
915.533426711635
  0
CIRCLE
  8
_0-5_寸法線
  6
CONTINUOUS
 62
    1
 10
1617.1391650787377
 20
909.533426711635
 40
1.8000000000000003
  0
LINE
  8
_0-5_寸法線
  6
CONTINUOUS
 62
    7
 10
1615.139165078738
 20
909.533426711635
 11
1617.1391650787377
 21
909.533426711635
  0
TEXT
  8
_0-5_寸法線
 62
    7
 10
1605.6325990153621
 20
909.533426711635
 40
18
 41
1
 50
0
  1
2
  0
LINE
  8
_0-5_寸法線
  6
CONTINUOUS
 62
    7
 10
1620.1391650787377
 20
909.533426711635
 11
1631.7302749942066
 21
912.63925525286504
  0
LINE
  8
_0-5_寸法線
  6
CONTINUOUS
 62
    7
 10
1620.1391650787377
 20
909.533426711635
 11
1631.7302749942066
 21
906.42759817040462
  0
LINE
  8
_0-5_寸法線
  6
CONTINUOUS
 62
    7
 10
1617.1391650787377
 20
909.533426711635
 11
1650.1391650787377
 21
909.533426711635
  0
TEXT
  8
_0-5_寸法線
 62
    7
 10
1637.1149620120241
 20
909.533426711635
 40
18
 41
1
 50
0
  1
3
  0
TEXT
  8
_0-7_枠細線
 62
    5
 10
1416
 20
1071
 40
15
 41
0.7199999999999999
 50
0
  1
２０２０．１０．０１
  0
TEXT
  8
_0-7_枠細線
 62
    5
 10
1126.6204444444443
 20
1092
 40
15
 41
1
 50
0
  1
クロスバーピッチ変更
  0
TEXT
  8
_0-7_枠細線
 62
    5
 10
1126.6204444444443
 20
1071
 40
15
 41
1
 50
0
  1
取外具形状変更
  0
LINE
  8
_0-7_枠細線
  6
CONTINUOUS
 62
    5
 10
542.46489613191386
 20
884.04948007828807
 11
533.46489613191386
 21
902.04948007828807
  0
LINE
  8
_0-7_枠細線
  6
CONTINUOUS
 62
    5
 10
524.46489613191386
 20
884.04948007828807
 11
542.46489613191386
 21
884.04948007828807
  0
LINE
  8
_0-7_枠細線
  6
CONTINUOUS
 62
    5
 10
533.46489613191386
 20
902.04948007828807
 11
524.46489613191386
 21
884.04948007828807
  0
TEXT
  8
_0-7_枠細線
 62
    5
 10
527.30307765369139
 20
883.68107738383139
 40
15
 41
0.8
 50
0
  1
２
  0
TEXT
  8
_0-7_枠細線
 62
    5
 10
198.76918471464924
 20
890.80200823847508
 40
15
 41
0.8
 50
0
  1
３
  0
LINE
  8
_0-5_寸法線
  6
CONTINUOUS
 62
    7
 10
1140.1391650787377
 20
790.53364571264206
 11
1140.1391650787377
 21
698.21092675952445
  0
LINE
  8
_0-5_寸法線
  6
CONTINUOUS
 62
    7
 10
1140.1391650787377
 20
704.21092675952445
 11
1151.7302749942069
 21
707.31675530075472
  0
LINE
  8
_0-5_寸法線
  6
CONTINUOUS
 62
    7
 10
1140.1391650787377
 20
704.21092675952445
 11
1151.7302749942069
 21
701.10509821829419
  0
LINE
  8
_0-5_寸法線
  6
CONTINUOUS
 62
    7
 10
1590.1391650787377
 20
790.53364571264206
 11
1590.1391650787375
 21
698.21092675952445
  0
LINE
  8
_0-5_寸法線
  6
CONTINUOUS
 62
    7
 10
1590.1391650787375
 20
704.21092675952445
 11
1578.5480551632686
 21
701.1050982182943
  0
LINE
  8
_0-5_寸法線
  6
CONTINUOUS
 62
    7
 10
1590.1391650787375
 20
704.21092675952445
 11
1578.5480551632686
 21
707.31675530075472
  0
LINE
  8
_0-5_寸法線
  6
CONTINUOUS
 62
    7
 10
1140.1391650787377
 20
704.21092675952445
 11
1590.1391650787375
 21
704.21092675952445
  0
TEXT
  8
_0-5_寸法線
 62
    7
 10
1351.6391650787373
 20
704.21092675952445
 40
18
 41
1
 50
0
  1
450
  0
ENDSEC
  0
EOF
