  0
SECTION
  2
HEADER
  9
$ACADVER
  1
AC1009
  9
$INSBASE
 10
0
 20
0
 30
0
  9
$EXTMIN
 10
0
 20
0
  9
$EXTMAX
 10
2970
 20
2100
  9
$LIMMIN
 10
0
 20
0
  9
$LIMMAX
 10
2970
 20
2100
  9
$LTSCALE
 40
10
  0
ENDSEC
  0
SECTION
  2
TABLES
  0
TABLE
  2
LTYPE
 70
     9
  0
LTYPE
  2
CONTINUOUS
 70
    64
  3
実線
 72
    65
 73
     0
 40
0.0
  0
LTYPE
  2
DASHED1
 70
    64
  3
--  --  --  --  --  --  --  --  
 72
    65
 73
     2
 40
2.5
 49
1.25
 49
-1.25
  0
LTYPE
  2
DASHED2
 70
    64
  3
----    ----    ----    ----    
 72
    65
 73
     2
 40
5.0
 49
2.5
 49
-2.5
  0
LTYPE
  2
DASHED3
 70
    64
  3
------  ------  ------  ------  
 72
    65
 73
     2
 40
5.0
 49
3.75
 49
-1.25
  0
LTYPE
  2
CENTER1
 70
    64
  3
----- - ----- - ----- - ----- - 
 72
    65
 73
     4
 40
10.0
 49
6.25
 49
-1.25
 49
1.25
 49
-1.25
  0
LTYPE
  2
CENTER2
 70
    64
  3
----------  --  ----------  --  
 72
    65
 73
     4
 40
20.0
 49
12.5
 49
-2.5
 49
2.5
 49
-2.5
  0
LTYPE
  2
PHANTOM1
 70
    64
  3
--- - - --- - - --- - - --- - - 
 72
    65
 73
     6
 40
10.0
 49
3.25
 49
-1.25
 49
1.25
 49
-1.25
 49
1.25
 49
-1.25
  0
LTYPE
  2
PHANTOM2
 70
    64
  3
--------  -  -  --------  -  -  
 72
    65
 73
     6
 40
20.0
 49
10.0
 49
-2.5
 49
1.25
 49
-2.5
 49
1.25
 49
-2.5
  0
LTYPE
  2
DOT
 70
    64
  3
-   -   -   -   -   -   -   -   
 72
    65
 73
     2
 40
2.5
 49
0.625
 49
-1.875
  0
LTYPE
  2
DUMMY
 70
    64
  3
ダミー
 72
    65
 73
     0
 40
0.0
  0
LTYPE
  2
RAND1
 70
    64
  3
ランダム線1
 72
    65
 73
     4
 40
10.0
 49
1.0
 49
-2.0
 49
3.0
 49
-4.0
  0
LTYPE
  2
RAND2
 70
    64
  3
ランダム線2
 72
    65
 73
     4
 40
14.0
 49
2.0
 49
-3.0
 49
4.0
 49
-5.0
  0
LTYPE
  2
RAND3
 70
    64
  3
ランダム線3
 72
    65
 73
     4
 40
18.0
 49
3.0
 49
-4.0
 49
5.0
 49
-6.0
  0
LTYPE
  2
RAND4
 70
    64
  3
ランダム線4
 72
    65
 73
     4
 40
22.0
 49
4.0
 49
-5.0
 49
6.0
 49
-7.0
  0
LTYPE
  2
RAND5
 70
    64
  3
ランダム線5
 72
    65
 73
     4
 40
26.0
 49
5.0
 49
-6.0
 49
7.0
 49
-8.0
  0
LTYPE
  2
LONG1
 70
    64
  3
----------  --  ----------  --  
 72
    65
 73
     4
 40
40.0
 49
32.5
 49
-2.5
 49
2.5
 49
-2.5
  0
LTYPE
  2
LONG2
 70
    64
  3
--------  -  -  --------  -  -  
 72
    65
 73
     6
 40
40.0
 49
30.0
 49
-2.5
 49
1.25
 49
-2.5
 49
1.25
 49
-2.5
  0
LTYPE
  2
LONG3
 70
    64
  3
+++++++++++++++..+++++++++++++++
 72
    65
 73
     2
 40
40.0
 49
37.5
 49
-2.5
  0
LTYPE
  2
LONG4
 70
    64
  3
+++++++++++++++..+++++++++++++++
 72
    65
 73
     2
 40
80.0
 49
75.0
 49
-5.0
  0
LTYPE
  2
LONG5
 70
    64
  3
----------  --  ----------  --  
 72
    65
 73
     4
 40
60.0
 49
37.5
 49
-7.5
 49
7.5
 49
-7.5
  0
LTYPE
  2
dashed
 70
   64
  3
-------   -------------   ------
 72
   65
 73
    2
 40
7.5
 49
6
 49
-1.5
  0
LTYPE
  2
dashed_spaced
 70
   64
  3
----        --------        ----
 72
   65
 73
    2
 40
12
 49
6
 49
-6
  0
LTYPE
  2
long_dashed_dotted
 70
   64
  3
------------- --- --------------
 72
   65
 73
    4
 40
15.25
 49
12
 49
-1.5
 49
0.25
 49
-1.5
  0
LTYPE
  2
long_dashed_double-dotted
 70
   64
  3
----------- --- --- ------------
 72
   65
 73
    6
 40
17
 49
12
 49
-1.5
 49
0.25
 49
-1.5
 49
0.25
 49
-1.5
  0
LTYPE
  2
long_dashed_triplicate-dotted
 70
   64
  3
--------- --- --- --- ----------
 72
   65
 73
    8
 40
18.75
 49
12
 49
-1.5
 49
0.25
 49
-1.5
 49
0.25
 49
-1.5
 49
0.25
 49
-1.5
  0
LTYPE
  2
dotted
 70
   64
  3
   -       -       -       -    
 72
   65
 73
    2
 40
1.75
 49
0.25
 49
-1.5
  0
LTYPE
  2
chain
 70
   64
  3
-------------- -- --------------
 72
   65
 73
    4
 40
18.5
 49
12
 49
-1.5
 49
3.5
 49
-1.5
  0
LTYPE
  2
chain_double_dash
 70
   64
  3
------------ -- -- -------------
 72
   65
 73
    6
 40
23.5
 49
12
 49
-1.5
 49
3.5
 49
-1.5
 49
3.5
 49
-1.5
  0
LTYPE
  2
dashed_dotted
 70
   64
  3
-----------     -     ----------
 72
   65
 73
    4
 40
9.25
 49
6
 49
-1.5
 49
0.25
 49
-1.5
  0
LTYPE
  2
double-dashed_dotted
 70
   64
  3
------   -----------   -   -----
 72
   65
 73
    6
 40
16.75
 49
6
 49
-1.5
 49
6
 49
-1.5
 49
0.25
 49
-1.5
  0
LTYPE
  2
dashed_double-dotted
 70
   64
  3
---------    -    -    ---------
 72
   65
 73
    6
 40
11
 49
6
 49
-1.5
 49
0.25
 49
-1.5
 49
0.25
 49
-1.5
  0
LTYPE
  2
double-dashed_double-dotted
 70
   64
  3
-----   ---------   -   -   ----
 72
   65
 73
    8
 40
18.5
 49
6
 49
-1.5
 49
6
 49
-1.5
 49
0.25
 49
-1.5
 49
0.25
 49
-1.5
  0
LTYPE
  2
dashed_triplicate-dotted
 70
   64
  3
-------    -    -    -    ------
 72
   65
 73
    8
 40
12.75
 49
6
 49
-1.5
 49
0.25
 49
-1.5
 49
0.25
 49
-1.5
 49
0.25
 49
-1.5
  0
LTYPE
  2
double-dashed_triplicate-dotted
 70
   64
  3
-----  ---------  -  -  -  -----
 72
   65
 73
   10
 40
20.25
 49
6
 49
-1.5
 49
6
 49
-1.5
 49
0.25
 49
-1.5
 49
0.25
 49
-1.5
 49
0.25
 49
-1.5
  0
LTYPE
  2
undefined
 70
   64
  3
--------------------------------
 72
   65
 73
    0
 40
0
  0
ENDTAB
  0
TABLE
  2
STYLE
  5
3
100
AcDbSymbolTable
 70
     1
  0
STYLE
  5
10
100
AcDbSymbolTableRecord
100
AcDbTextStyleTableRecord
  2
STANDARD
 70
     0
 40
0.0
 41
1.0
 50
0.0
 71
     0
 42
0.2
  3
txt
  4
bigfont.shx
  0
STYLE
  5
26
100
AcDbSymbolTableRecord
100
AcDbTextStyleTableRecord
  2
TATEGAKI
 70
    68
 40
0.0
 41
1.0
 50
0.0
 71
     0
 42
1.0
  3
txt
  4
bigfont.shx
  0
ENDTAB
  0
TABLE
  2
LAYER
 70
   13
  0
LAYER
  2
_0-0_計極細
 70
   64
 62
    7
  6
CONTINUOUS
  0
LAYER
  2
_0-1_計細線
 70
   64
 62
    7
  6
CONTINUOUS
  0
LAYER
  2
_0-5_寸法線
 70
   64
 62
    7
  6
CONTINUOUS
  0
LAYER
  2
_0-7_枠細線
 70
   64
 62
    7
  6
CONTINUOUS
  0
LAYER
  2
_0-8_枠中線
 70
   64
 62
    7
  6
CONTINUOUS
  0
LAYER
  2
_0-a_極細3
 70
   64
 62
    7
  6
CONTINUOUS
  0
LAYER
  2
_0-b_細線3
 70
   64
 62
    7
  6
CONTINUOUS
  0
LAYER
  2
_0-d_寸法3
 70
   64
 62
    7
  6
CONTINUOUS
  0
LAYER
  2
_0-e_極細4
 70
   64
 62
    7
  6
CONTINUOUS
  0
LAYER
  2
_0-f_
 70
   64
 62
    7
  6
CONTINUOUS
  0
LAYER
  2
_1-0_
 70
   64
 62
    7
  6
CONTINUOUS
  0
LAYER
  2
_1-1_寸法4
 70
   64
 62
    7
  6
CONTINUOUS
  0
LAYER
  2
ADD_LINE
 70
   64
 62
    7
  6
CONTINUOUS
  0
ENDTAB
  0
ENDSEC
  0
SECTION
  2
BLOCKS
  0
ENDSEC
  0
SECTION
  2
ENTITIES
  0
LINE
  8
_0-8_枠中線
  6
CONTINUOUS
 62
    9
 10
120
 20
120
 11
120
 21
1920
  0
LINE
  8
_0-8_枠中線
  6
CONTINUOUS
 62
    9
 10
120
 20
1920
 11
2850
 21
1920
  0
LINE
  8
_0-8_枠中線
  6
CONTINUOUS
 62
    9
 10
2850
 20
1920
 11
2850
 21
120
  0
LINE
  8
_0-8_枠中線
  6
CONTINUOUS
 62
    9
 10
2850
 20
120
 11
120
 21
120
  0
LINE
  8
_0-7_枠細線
  6
CONTINUOUS
 62
    9
 10
2370
 20
360
 11
2370
 21
200
  0
TEXT
  8
_0-7_枠細線
 62
    1
 10
1875
 20
195
 40
35
 41
1
 50
0
  1
備考
  7
TATEGAKI
  0
TEXT
  8
_0-7_枠細線
 62
    1
 10
1875
 20
275
 40
35
 41
1
 50
0
  1
品番
  7
TATEGAKI
  0
TEXT
  8
_0-7_枠細線
 62
    1
 10
1875
 20
355
 40
35
 41
1
 50
0
  1
品名
  7
TATEGAKI
  0
LINE
  8
_0-7_枠細線
  6
CONTINUOUS
 62
    9
 10
1900
 20
360
 11
1900
 21
120
  0
LINE
  8
_0-7_枠細線
  6
CONTINUOUS
 62
    9
 10
2490
 20
360
 11
2490
 21
120
  0
TEXT
  8
_0-7_枠細線
 62
    1
 10
2385
 20
320
 40
30
 41
1
 50
0
  1
縮　尺
  0
LINE
  8
_0-7_枠細線
  6
CONTINUOUS
 62
    9
 10
2370
 20
310
 11
2490
 21
310
  0
LINE
  8
_0-7_枠細線
  6
CONTINUOUS
 62
    9
 10
2490
 20
200
 11
1850
 21
200
  0
LINE
  8
_0-7_枠細線
  6
CONTINUOUS
 62
    9
 10
2850
 20
180
 11
2490
 21
180
  0
LINE
  8
_0-7_枠細線
  6
CONTINUOUS
 62
    9
 10
2490
 20
240
 11
2850
 21
240
  0
LINE
  8
_0-7_枠細線
  6
CONTINUOUS
 62
    9
 10
2850
 20
280
 11
2490
 21
280
  0
TEXT
  8
_0-7_枠細線
 62
    1
 10
2510
 20
295
 40
50
 41
0.8
 50
0
  1
株式会社シマブン
  0
TEXT
  8
_0-7_枠細線
 62
    1
 10
2505
 20
120
 40
30
 41
1
 50
0
  1
年月日
  0
TEXT
  8
_0-7_枠細線
 62
    1
 10
2505
 20
150
 40
30
 41
1
 50
0
  1
作　成
  0
TEXT
  8
_0-7_枠細線
 62
    1
 10
2512.5
 20
245
 40
30
 41
1
 50
0
  1
承 認
  0
LINE
  8
_0-7_枠細線
  6
CONTINUOUS
 62
    9
 10
2610
 20
280
 11
2610
 21
120
  0
TEXT
  8
_0-7_枠細線
 62
    1
 10
2632.5
 20
245
 40
30
 41
1
 50
0
  1
検 図
  0
LINE
  8
_0-7_枠細線
  6
CONTINUOUS
 62
    9
 10
2730
 20
280
 11
2730
 21
180
  0
TEXT
  8
_0-7_枠細線
 62
    1
 10
2752.5
 20
245
 40
30
 41
1
 50
0
  1
設 計
  0
LINE
  8
_0-7_枠細線
  6
CONTINUOUS
 62
    9
 10
2850
 20
1885
 11
1780
 21
1885
  0
TEXT
  8
_0-7_枠細線
 62
    1
 10
1790
 20
1890
 40
25
 41
1
 50
0
  1
記号
  0
TEXT
  8
_0-7_枠細線
 62
    1
 10
1993.75
 20
1890
 40
25
 41
1
 50
0
  1
訂　 正　 記　 事
  0
TEXT
  8
_0-7_枠細線
 62
    1
 10
2362.5
 20
1890
 40
25
 41
1
 50
0
  1
訂 正 年 月 日
  0
TEXT
  8
_0-7_枠細線
 62
    1
 10
2612.5
 20
1890
 40
25
 41
1
 50
0
  1
備　　　　　考
  0
LINE
  8
_0-7_枠細線
  6
CONTINUOUS
 62
    9
 10
2850
 20
1850
 11
1780
 21
1850
  0
LINE
  8
_0-8_枠中線
  6
CONTINUOUS
 62
    9
 10
1850
 20
360
 11
1850
 21
120
  0
LINE
  8
_0-8_枠中線
  6
CONTINUOUS
 62
    9
 10
2850
 20
360
 11
1850
 21
360
  0
LINE
  8
_0-7_枠細線
  6
CONTINUOUS
 62
    9
 10
2370
 20
280
 11
1850
 21
280
  0
LINE
  8
_0-7_枠細線
  6
CONTINUOUS
 62
    9
 10
2550
 20
1850
 11
2550
 21
1919.9999999999989
  0
LINE
  8
_0-7_枠細線
  6
CONTINUOUS
 62
    9
 10
2350
 20
1850
 11
2350
 21
1919.9999999999989
  0
LINE
  8
_0-7_枠細線
  6
CONTINUOUS
 62
    9
 10
1850
 20
1850
 11
1850
 21
1919.9999999999989
  0
LINE
  8
_0-7_枠細線
  6
CONTINUOUS
 62
    9
 10
1780
 20
1850
 11
1780
 21
1919.9999999999989
  0
TEXT
  8
_0-7_枠細線
 62
    1
 10
1913.4522417153994
 20
299.06069690229901
 40
40
 41
0.55
 50
0
  1
排水ユニット 屋内外樹脂グレーチング 深型
  0
TEXT
  8
_0-7_枠細線
 62
    1
 10
2510
 20
190
 40
40
 41
1
 50
0
  1
上田
  0
TEXT
  8
_0-7_枠細線
 62
    1
 10
2630
 20
190
 40
40
 41
1
 50
0
  1
中村
  0
TEXT
  8
_0-7_枠細線
 62
    1
 10
2750
 20
190
 40
40
 41
1
 50
0
  1
石井
  0
TEXT
  8
_0-7_枠細線
 62
    1
 10
2620
 20
135
 40
30
 41
0.6666666666666666
 50
0
  1
２０２３年１１月０１日
  0
TEXT
  8
_0-7_枠細線
 62
    1
 10
1917.1186917912062
 20
139.99999999999986
 40
40
 41
0.5999999999999998
 50
0
  1
品番・色については表参照のこと
  0
TEXT
  8
_0-7_枠細線
 62
    1
 10
2374
 20
235
 40
40
 41
0.7000000000000001
 50
0
  1
１：１０
  0
LINE
  8
_0-1_計細線
  6
CONTINUOUS
 62
    9
 10
391.59649122807082
 20
1450.2107285393038
 11
391.59649122807082
 21
1594.2107285393038
  0
LINE
  8
_0-1_計細線
  6
CONTINUOUS
 62
    9
 10
391.59649122807082
 20
1594.2107285393038
 11
1385.5964912280706
 21
1594.2107285393038
  0
LINE
  8
_0-1_計細線
  6
CONTINUOUS
 62
    9
 10
1385.5964912280706
 20
1594.2107285393038
 11
1385.5964912280706
 21
1450.2107285393038
  0
LINE
  8
_0-1_計細線
  6
CONTINUOUS
 62
    9
 10
1385.5964912280706
 20
1450.2107285393038
 11
391.59649122807082
 21
1450.2107285393038
  0
LINE
  8
_0-0_計極細
  6
CENTER1
 62
    9
 10
379.29649122807064
 20
1522.210728539304
 11
1407.5464912280713
 21
1522.210728539304
  0
ARC
  8
_0-0_計極細
  6
CONTINUOUS
 62
    9
 10
1179.1744593455487
 20
1551.2107285392176
 40
54.312365187078854
 50
327.72737804884298
 51
32.272621951156722
  0
ARC
  8
_0-0_計極細
  6
CONTINUOUS
 62
    9
 10
1271.0185231106007
 20
1493.210728539394
 40
54.312365187078854
 50
147.72737804884292
 51
212.27262195115645
  0
LINE
  8
_0-1_計細線
  6
CONTINUOUS
 62
    9
 10
405.09649122807332
 20
1568.8107285391311
 11
405.09649122807332
 21
1580.2107285391317
  0
LINE
  8
_0-1_計細線
  6
CONTINUOUS
 62
    9
 10
405.09649122807332
 20
1580.2107285391317
 11
1225.0964912280733
 21
1580.2107285391317
  0
LINE
  8
_0-0_計極細
  6
CONTINUOUS
 62
    9
 10
405.09649122807332
 20
1577.0107285391314
 11
1226.9676912117775
 21
1577.0107285391314
  0
LINE
  8
_0-0_計極細
  6
CONTINUOUS
 62
    9
 10
405.09649122807332
 20
1572.0107285391314
 11
1229.346094880163
 21
1572.0107285391314
  0
LINE
  8
_0-1_計細線
  6
CONTINUOUS
 62
    9
 10
405.09649122807332
 20
1568.8107285391311
 11
1230.5561001544766
 21
1568.8107285391311
  0
LINE
  8
_0-1_計細線
  6
CONTINUOUS
 62
    9
 10
405.09649122807332
 20
1551.3107285389169
 11
405.09649122807332
 21
1562.7107285389172
  0
LINE
  8
_0-1_計細線
  6
CONTINUOUS
 62
    9
 10
405.09649122807332
 20
1562.7107285389172
 11
1232.2553694001203
 21
1562.7107285389172
  0
LINE
  8
_0-0_計極細
  6
CONTINUOUS
 62
    9
 10
405.09649122807332
 20
1559.510728538917
 11
1232.8488760840623
 21
1559.510728538917
  0
LINE
  8
_0-0_計極細
  6
CONTINUOUS
 62
    9
 10
405.09649122807332
 20
1554.510728538917
 11
1233.3864784208108
 21
1554.510728538917
  0
LINE
  8
_0-1_計細線
  6
CONTINUOUS
 62
    9
 10
405.09649122807332
 20
1551.3107285389169
 11
1233.4867324724828
 21
1551.3107285389169
  0
LINE
  8
_0-1_計細線
  6
CONTINUOUS
 62
    9
 10
405.09649122807332
 20
1499.110728539463
 11
405.09649122807332
 21
1510.5107285394636
  0
LINE
  8
_0-1_計細線
  6
CONTINUOUS
 62
    9
 10
405.09649122807332
 20
1510.5107285394636
 11
1219.5350984749739
 21
1510.5107285394636
  0
LINE
  8
_0-0_計極細
  6
CONTINUOUS
 62
    9
 10
405.09649122807332
 20
1507.3107285394633
 11
1218.5683275703291
 21
1507.3107285394633
  0
LINE
  8
_0-0_計極細
  6
CONTINUOUS
 62
    9
 10
405.09649122807332
 20
1502.3107285394633
 11
1217.4739341009408
 21
1502.3107285394633
  0
LINE
  8
_0-1_計細線
  6
CONTINUOUS
 62
    9
 10
405.09649122807332
 20
1499.110728539463
 11
1217.0275700516495
 21
1499.110728539463
  0
LINE
  8
_0-1_計細線
  6
CONTINUOUS
 62
    9
 10
405.09649122807332
 20
1481.7107285387999
 11
405.09649122807332
 21
1493.1107285388007
  0
LINE
  8
_0-1_計細線
  6
CONTINUOUS
 62
    9
 10
405.09649122807332
 20
1493.1107285388007
 11
1216.7062499836679
 21
1493.1107285388007
  0
LINE
  8
_0-0_計極細
  6
CONTINUOUS
 62
    9
 10
405.09649122807332
 20
1489.9107285388002
 11
1216.8065040353922
 21
1489.9107285388002
  0
LINE
  8
_0-0_計極細
  6
CONTINUOUS
 62
    9
 10
405.09649122807332
 20
1484.9107285388002
 11
1217.3441063722248
 21
1484.9107285388002
  0
LINE
  8
_0-1_計細線
  6
CONTINUOUS
 62
    9
 10
405.09649122807332
 20
1481.7107285387999
 11
1217.9376130562223
 21
1481.7107285387999
  0
LINE
  8
_0-1_計細線
  6
CONTINUOUS
 62
    9
 10
405.09649122807332
 20
1464.2107285367526
 11
405.09649122807332
 21
1475.6107285367532
  0
LINE
  8
_0-1_計細線
  6
CONTINUOUS
 62
    9
 10
405.09649122807332
 20
1464.2107285367526
 11
1225.0964912280733
 21
1464.2107285367526
  0
LINE
  8
_0-1_計細線
  6
CONTINUOUS
 62
    9
 10
405.09649122807332
 20
1475.6107285367532
 11
1219.6368823026073
 21
1475.6107285367532
  0
LINE
  8
_0-0_計極細
  6
CONTINUOUS
 62
    9
 10
405.09649122807332
 20
1472.4107285367529
 11
1220.8468875771168
 21
1472.4107285367529
  0
LINE
  8
_0-0_計極細
  6
CONTINUOUS
 62
    9
 10
405.09649122807332
 20
1467.4107285367529
 11
1223.2252912458448
 21
1467.4107285367529
  0
LINE
  8
_0-1_計細線
  6
CONTINUOUS
 62
    9
 10
405.09649122807332
 20
1545.3107285414719
 11
1233.1654124047532
 21
1545.3107285414719
  0
LINE
  8
_0-0_計極細
  6
CONTINUOUS
 62
    9
 10
405.09649122807332
 20
1542.1107285414719
 11
1232.7190483556028
 21
1542.1107285414719
  0
LINE
  8
_0-0_計極細
  6
CONTINUOUS
 62
    9
 10
405.09649122807332
 20
1537.1107285414719
 11
1231.6246548864442
 21
1537.1107285414719
  0
LINE
  8
_0-1_計細線
  6
CONTINUOUS
 62
    9
 10
405.09649122807332
 20
1533.9107285414716
 11
405.09649122807332
 21
1545.3107285414719
  0
LINE
  8
_0-1_計細線
  6
CONTINUOUS
 62
    9
 10
405.09649122807332
 20
1533.9107285414716
 11
1230.6578839819558
 21
1533.9107285414716
  0
LINE
  8
_0-0_計極細
  6
CONTINUOUS
 62
    9
 10
405.09649122807332
 20
1524.7107285392642
 11
1226.5831401141277
 21
1524.7107285392642
  0
LINE
  8
_0-0_計極細
  6
CONTINUOUS
 62
    9
 10
405.09649122807332
 20
1519.7107285392642
 11
1223.6098423419739
 21
1519.7107285392642
  0
LINE
  8
_0-1_計細線
  6
CONTINUOUS
 62
    9
 10
405.09649122807332
 20
1516.5107285392639
 11
1221.9579176086227
 21
1516.5107285392639
  0
LINE
  8
_0-1_計細線
  6
CONTINUOUS
 62
    9
 10
405.09649122807332
 20
1527.9107285392647
 11
1228.2350648474862
 21
1527.9107285392647
  0
LINE
  8
_0-1_計細線
  6
CONTINUOUS
 62
    9
 10
405.09649122807332
 20
1516.5107285392639
 11
405.09649122807332
 21
1527.9107285392647
  0
LINE
  8
_0-1_計細線
  6
CONTINUOUS
 62
    9
 10
1488.5964912280706
 20
1594.2107285393038
 11
1488.5964912280706
 21
1450.2107285393038
  0
LINE
  8
_0-1_計細線
  6
CONTINUOUS
 62
    9
 10
1488.5964912280706
 20
1450.2107285393038
 11
1496.5964912280706
 21
1450.2107285393038
  0
LINE
  8
_0-1_計細線
  6
CONTINUOUS
 62
    9
 10
1496.5964912280706
 20
1450.2107285393038
 11
1496.5964912280706
 21
1594.2107285393038
  0
LINE
  8
_0-1_計細線
  6
CONTINUOUS
 62
    9
 10
1496.5964912280706
 20
1594.2107285393038
 11
1488.5964912280706
 21
1594.2107285393038
  0
LINE
  8
_0-1_計細線
  6
CONTINUOUS
 62
    9
 10
1576.5964912280708
 20
1461.2107285393042
 11
1611.5964912280708
 21
1461.2107285393042
  0
LINE
  8
_0-1_計細線
  6
CONTINUOUS
 62
    9
 10
1611.5964912280708
 20
1461.2107285393042
 11
1611.5964912280708
 21
1460.010728539304
  0
LINE
  8
_0-1_計細線
  6
CONTINUOUS
 62
    9
 10
1611.5964912280708
 20
1460.010728539304
 11
1576.5964912280708
 21
1460.010728539304
  0
LINE
  8
_0-1_計細線
  6
CONTINUOUS
 62
    9
 10
1576.5964912280708
 20
1460.010728539304
 11
1576.5964912280708
 21
1461.2107285393042
  0
LINE
  8
_0-1_計細線
  6
CONTINUOUS
 62
    9
 10
1578.596491228071
 20
1460.010728539304
 11
1578.596491228071
 21
1461.2107285393042
  0
LINE
  8
_0-1_計細線
  6
CONTINUOUS
 62
    9
 10
1588.596491228071
 20
1460.010728539304
 11
1588.596491228071
 21
1461.2107285393042
  0
LINE
  8
_0-1_計細線
  6
CONTINUOUS
 62
    9
 10
1590.5964912280708
 20
1460.010728539304
 11
1590.5964912280708
 21
1461.2107285393042
  0
LINE
  8
_0-1_計細線
  6
CONTINUOUS
 62
    9
 10
1592.596491228071
 20
1460.010728539304
 11
1592.596491228071
 21
1461.2107285393042
  0
LINE
  8
_0-1_計細線
  6
CONTINUOUS
 62
    9
 10
1594.596491228071
 20
1460.010728539304
 11
1594.596491228071
 21
1461.2107285393042
  0
LINE
  8
_0-1_計細線
  6
CONTINUOUS
 62
    9
 10
1608.596491228071
 20
1460.010728539304
 11
1608.596491228071
 21
1461.2107285393042
  0
LINE
  8
_0-1_計細線
  6
CONTINUOUS
 62
    9
 10
1576.5964912280708
 20
1584.4107285393036
 11
1611.5964912280708
 21
1584.4107285393036
  0
LINE
  8
_0-1_計細線
  6
CONTINUOUS
 62
    9
 10
1611.5964912280708
 20
1584.4107285393036
 11
1611.5964912280708
 21
1583.210728539304
  0
LINE
  8
_0-1_計細線
  6
CONTINUOUS
 62
    9
 10
1611.5964912280708
 20
1583.210728539304
 11
1576.5964912280708
 21
1583.210728539304
  0
LINE
  8
_0-1_計細線
  6
CONTINUOUS
 62
    9
 10
1576.5964912280708
 20
1583.210728539304
 11
1576.5964912280708
 21
1584.4107285393036
  0
LINE
  8
_0-1_計細線
  6
CONTINUOUS
 62
    9
 10
1578.596491228071
 20
1583.210728539304
 11
1578.596491228071
 21
1584.4107285393036
  0
LINE
  8
_0-1_計細線
  6
CONTINUOUS
 62
    9
 10
1588.596491228071
 20
1583.210728539304
 11
1588.596491228071
 21
1584.4107285393036
  0
LINE
  8
_0-1_計細線
  6
CONTINUOUS
 62
    9
 10
1590.5964912280708
 20
1583.210728539304
 11
1590.5964912280708
 21
1584.4107285393036
  0
LINE
  8
_0-1_計細線
  6
CONTINUOUS
 62
    9
 10
1592.596491228071
 20
1583.210728539304
 11
1592.596491228071
 21
1584.4107285393036
  0
LINE
  8
_0-1_計細線
  6
CONTINUOUS
 62
    9
 10
1594.596491228071
 20
1583.210728539304
 11
1594.596491228071
 21
1584.4107285393036
  0
LINE
  8
_0-1_計細線
  6
CONTINUOUS
 62
    9
 10
1608.596491228071
 20
1583.210728539304
 11
1608.596491228071
 21
1584.4107285393036
  0
LINE
  8
_0-1_計細線
  6
CONTINUOUS
 62
    9
 10
1588.596491228071
 20
1583.210728539304
 11
1588.596491228071
 21
1461.2107285393042
  0
LINE
  8
_0-1_計細線
  6
CONTINUOUS
 62
    9
 10
1496.5964912280708
 20
1583.210728539304
 11
1588.596491228071
 21
1583.210728539304
  0
LINE
  8
_0-1_計細線
  6
CONTINUOUS
 62
    9
 10
1588.596491228071
 20
1461.2107285393042
 11
1496.5964912280706
 21
1461.2107285393042
  0
LINE
  8
_0-0_計極細
  6
CENTER1
 62
    9
 10
1465.5884141363385
 20
1522.210728539304
 11
1616.1491885438986
 21
1522.210728539304
  0
ARC
  8
_0-1_計細線
  6
CONTINUOUS
 62
    9
 10
1344.2122499632692
 20
1536.4105334273095
 40
0.501740082747087
 50
330.00000000006594
 51
20.189990999972171
  0
ARC
  8
_0-1_計細線
  6
CONTINUOUS
 62
    9
 10
1344.2122499632692
 20
1508.0109236513001
 40
0.501740082747087
 50
339.81000900002709
 51
29.999999999933351
  0
LINE
  8
_0-1_計細線
  6
CONTINUOUS
 62
    9
 10
1306.9010564370683
 20
1524.468567943024
 11
1305.5974883416525
 21
1526.7264073467431
  0
LINE
  8
_0-1_計細線
  6
CONTINUOUS
 62
    9
 10
1306.9010564370683
 20
1524.468567943024
 11
1286.761165081321
 21
1559.3518796643307
  0
LINE
  8
_0-1_計細線
  6
CONTINUOUS
 62
    9
 10
1306.9010564370683
 20
1524.468567943024
 11
1309.508186606995
 21
1524.468567943024
  0
LINE
  8
_0-1_計細線
  6
CONTINUOUS
 62
    9
 10
1302.9903641926317
 20
1522.210728539304
 11
1282.8504728368816
 21
1557.0940402606129
  0
ARC
  8
_0-1_計細線
  6
CONTINUOUS
 62
    9
 10
1273.9927159780773
 20
1495.869268829244
 40
0.501740082747087
 50
219.81000899998574
 51
269.99999999999977
  0
LINE
  8
_0-1_計細線
  6
CONTINUOUS
 62
    9
 10
1306.9010564370683
 20
1519.9528891355849
 11
1286.761165081321
 21
1485.0695774142775
  0
LINE
  8
_0-1_計細線
  6
CONTINUOUS
 62
    9
 10
1302.9903641926317
 20
1522.210728539304
 11
1282.8504728368816
 21
1487.3274168179967
  0
ARC
  8
_0-1_計細線
  6
CONTINUOUS
 62
    9
 10
1305.5974883416525
 20
1522.210728539304
 40
46.4111412917104
 50
89.999999999999915
 51
269.99999999999977
  0
ARC
  8
_0-1_計細線
  6
CONTINUOUS
 62
    9
 10
1305.5974883416525
 20
1522.210728539304
 40
57.198598227560836
 50
89.999999999999915
 51
269.99999999999977
  0
CIRCLE
  8
_0-1_計細線
  6
CONTINUOUS
 62
    9
 10
1305.5974883416525
 20
1522.210728539304
 40
58.202084413960065
  0
LINE
  8
_0-1_計細線
  6
CONTINUOUS
 62
    9
 10
1306.9010564370683
 20
1524.468567943024
 11
1347.1808331276593
 21
1524.468567943024
  0
LINE
  8
_0-1_計細線
  6
CONTINUOUS
 62
    9
 10
1306.9010564370683
 20
1519.9528891355849
 11
1347.1808331276593
 21
1519.9528891355849
  0
ARC
  8
_0-1_計細線
  6
CONTINUOUS
 62
    9
 10
1305.5974883416525
 20
1522.210728539304
 40
46.4111412917104
 50
269.99999999999977
 51
89.999999999999545
  0
ARC
  8
_0-1_計細線
  6
CONTINUOUS
 62
    9
 10
1305.5974883416525
 20
1522.210728539304
 40
57.198598227560836
 50
269.99999999999977
 51
89.999999999999545
  0
ARC
  8
_0-1_計細線
  6
CONTINUOUS
 62
    9
 10
1305.5974883416525
 20
1522.210728539304
 40
41.644595453350377
 50
89.999999999999915
 51
116.89207624474167
  0
ARC
  8
_0-1_計細線
  6
CONTINUOUS
 62
    9
 10
1305.5974883416525
 20
1522.210728539304
 40
41.644595453350377
 50
123.1079186869396
 51
236.89208131305881
  0
ARC
  8
_0-1_計細線
  6
CONTINUOUS
 62
    9
 10
1305.5974883416525
 20
1522.210728539304
 40
41.644595453350377
 50
243.1079237552571
 51
269.99999999999977
  0
ARC
  8
_0-1_計細線
  6
CONTINUOUS
 62
    9
 10
1305.5974883416525
 20
1522.210728539304
 40
41.644595453350377
 50
269.99999999999977
 51
356.89207858909316
  0
ARC
  8
_0-1_計細線
  6
CONTINUOUS
 62
    9
 10
1305.5974883416525
 20
1522.210728539304
 40
41.644595453350377
 50
3.1079214109077626
 51
89.999999999999915
  0
ARC
  8
_0-0_計極細
  6
CONTINUOUS
 62
    9
 10
1305.5974883416525
 20
1522.210728539304
 40
50.153133796808191
 50
269.99999999999977
 51
89.999999999999545
  0
ARC
  8
_0-0_計極細
  6
CONTINUOUS
 62
    9
 10
1305.5974883416525
 20
1522.210728539304
 40
50.153133796808191
 50
89.999999999999915
 51
269.99999999999977
  0
ARC
  8
_0-0_計極細
  6
CONTINUOUS
 62
    9
 10
1291.9824872971456
 20
1493.1096863097125
 40
0.501740082747087
 50
149.99997568602743
 51
210.00002243784951
  0
ARC
  8
_0-0_計極細
  6
CONTINUOUS
 62
    9
 10
1305.8871721476019
 20
1516.1898234627176
 40
1.0034861863992508
 50
29.999999999951111
 51
149.99999999997101
  0
ARC
  8
_0-0_計極細
  6
CONTINUOUS
 62
    9
 10
1305.8871721476019
 20
1516.1898234627176
 40
1.0034861863992508
 50
29.999999999951111
 51
106.77865499997519
  0
ARC
  8
_0-0_計極細
  6
CONTINUOUS
 62
    9
 10
1300.2383951301808
 20
1519.4511490528373
 40
1.0034861863992508
 50
329.99999999996464
 51
89.999999999999545
  0
ARC
  8
_0-0_計極細
  6
CONTINUOUS
 62
    9
 10
1265.1022720416154
 20
1529.4894893383969
 40
0.501740082747087
 50
89.993779916899371
 51
169.80868012339329
  0
ARC
  8
_0-0_計極細
  6
CONTINUOUS
 62
    9
 10
1265.1007063361822
 20
1514.9389660056427
 40
0.501740082747087
 50
190.17882981053808
 51
269.99383436899353
  0
ARC
  8
_0-0_計極細
  6
CONTINUOUS
 62
    9
 10
1265.048974045576
 20
1524.973814935938
 40
1.0034861863992508
 50
176.10042624738495
 51
269.99385985771437
  0
ARC
  8
_0-0_計極細
  6
CONTINUOUS
 62
    9
 10
1305.5974883416525
 20
1522.210728539304
 40
37.630656728658437
 50
317.45760300000074
 51
327.3871079999999
  0
ARC
  8
_0-0_計極細
  6
CONTINUOUS
 62
    9
 10
1305.5974883416525
 20
1522.210728539304
 40
37.630656728658437
 50
32.612892000000336
 51
42.54239699999939
  0
LINE
  8
_0-0_計極細
  6
CONTINUOUS
 62
    9
 10
1340.7717061126405
 20
1502.9317904840784
 11
1331.8136168916399
 21
1518.4476628664399
  0
LINE
  8
_0-0_計極細
  6
CONTINUOUS
 62
    9
 10
1339.3648794951614
 20
1498.3440956310176
 11
1327.0338792502562
 21
1519.7020160837583
  0
LINE
  8
_0-0_計極細
  6
CONTINUOUS
 62
    9
 10
1334.7429437549299
 20
1494.3077109722001
 11
1320.8057406418407
 21
1518.4476628664399
  0
LINE
  8
_0-0_計極細
  6
CONTINUOUS
 62
    9
 10
1340.7717061126405
 20
1541.4896665945307
 11
1331.8136168916399
 21
1525.9737942121701
  0
LINE
  8
_0-0_計極細
  6
CONTINUOUS
 62
    9
 10
1339.3648794951614
 20
1546.0773614475909
 11
1327.0338792502562
 21
1524.7194409948499
  0
LINE
  8
_0-0_計極細
  6
CONTINUOUS
 62
    9
 10
1334.7429437549299
 20
1550.1137400855043
 11
1320.8057406418407
 21
1525.9737942121701
  0
LINE
  8
_0-0_計極細
  6
CONTINUOUS
 62
    9
 10
1303.5905219897595
 20
1495.1910921441324
 11
1303.5905219897595
 21
1503.1085040480764
  0
LINE
  8
_0-0_計極細
  6
CONTINUOUS
 62
    9
 10
1304.0922620725064
 20
1495.1585009849528
 11
1304.0922620725064
 21
1502.2394646720375
  0
ARC
  8
_0-0_計極細
  6
CONTINUOUS
 62
    9
 10
1305.5974883416525
 20
1522.210728539304
 40
37.630656728658437
 50
213.59599499999973
 51
225.50677599999941
  0
LINE
  8
_0-0_計極細
  6
CONTINUOUS
 62
    9
 10
1332.579825229876
 20
1491.0299603530343
 11
1316.026003000457
 21
1519.7020160837583
  0
LINE
  8
_0-0_計極細
  6
CONTINUOUS
 62
    9
 10
1327.391972579687
 20
1487.9737730197783
 11
1309.797864392041
 21
1518.4476628664399
  0
LINE
  8
_0-0_計極細
  6
CONTINUOUS
 62
    9
 10
1309.3829036141628
 20
1481.0339935358345
 11
1297.0519033692576
 21
1502.3919139885754
  0
LINE
  8
_0-0_計極細
  6
CONTINUOUS
 62
    9
 10
1315.189482532737
 20
1483.0185139536022
 11
1301.2522794196461
 21
1507.1584658478412
  0
LINE
  8
_0-0_計極細
  6
CONTINUOUS
 62
    9
 10
1319.1096637235764
 20
1483.2529559554764
 11
1302.5558414941588
 21
1511.9250177071067
  0
LINE
  8
_0-0_計極細
  6
CONTINUOUS
 62
    9
 10
1324.3503197112873
 20
1486.2176797197114
 11
1306.7562175445473
 21
1516.6915635454664
  0
LINE
  8
_0-0_計極細
  6
CONTINUOUS
 62
    9
 10
1273.9927159780773
 20
1495.3675287464969
 11
1287.2027503014485
 21
1495.3675287464969
  0
ARC
  8
_0-0_計極細
  6
CONTINUOUS
 62
    9
 10
1283.7265807554818
 20
1490.8518499390573
 40
1.0034861863992508
 50
329.99999999997061
 51
89.999999999999545
  0
ARC
  8
_0-0_計極細
  6
CONTINUOUS
 62
    9
 10
1305.5974883416525
 20
1522.210728539304
 40
37.630656728658437
 50
233.77152299999995
 51
236.31964599999873
  0
ARC
  8
_0-0_計極細
  6
CONTINUOUS
 62
    9
 10
1279.7456004651795
 20
1490.8518499390573
 40
1.0034861863992508
 50
89.999999999999915
 51
230.49822999999429
  0
LINE
  8
_0-0_計極細
  6
CONTINUOUS
 62
    9
 10
1279.7456004651795
 20
1491.8553301045515
 11
1283.7265807554818
 21
1491.8553301045515
  0
ARC
  8
_0-0_計極細
  6
CONTINUOUS
 62
    9
 10
1305.5974883416525
 20
1522.210728539304
 40
37.630656728658437
 50
272.6128920000001
 51
282.54239699999982
  0
ARC
  8
_0-0_計極細
  6
CONTINUOUS
 62
    9
 10
1309.8174263126343
 20
1481.2848665876604
 40
0.501740082747087
 50
210.00000000003024
 51
275.8870620000269
  0
LINE
  8
_0-0_計極細
  6
CONTINUOUS
 62
    9
 10
1304.7064305157483
 20
1482.1094897469511
 11
1295.7483412947477
 21
1497.6253681502167
  0
LINE
  8
_0-0_計極細
  6
CONTINUOUS
 62
    9
 10
1298.152982406044
 20
1481.418590889414
 11
1291.5479652443591
 21
1492.8588162909518
  0
ARC
  8
_0-0_計極細
  6
CONTINUOUS
 62
    9
 10
1305.5974883416525
 20
1522.210728539304
 40
37.630656728658437
 50
254.49322399999997
 51
266.40400500000044
  0
ARC
  8
_0-0_計極細
  6
CONTINUOUS
 62
    9
 10
1287.2027503014485
 20
1495.869268829244
 40
0.501740082747087
 50
269.99999999999977
 51
329.9999999999431
  0
ARC
  8
_0-0_計極細
  6
CONTINUOUS
 62
    9
 10
1291.3658509285065
 20
1484.1428938930355
 40
1.0034861863992508
 50
249.50177000008239
 51
29.999999999950756
  0
LINE
  8
_0-0_計極細
  6
CONTINUOUS
 62
    9
 10
1292.2348903045477
 20
1484.6446339757831
 11
1290.2444031698483
 21
1488.0922644316845
  0
ARC
  8
_0-0_計極細
  6
CONTINUOUS
 62
    9
 10
1294.8792958978036
 20
1497.1236220465651
 40
1.0034861863992508
 50
29.999999999977071
 51
150.00000000000995
  0
ARC
  8
_0-0_計極細
  6
CONTINUOUS
 62
    9
 10
1305.5974883416525
 20
1522.210728539304
 40
27.094072844634091
 50
244.78019200000111
 51
249.77896100000117
  0
ARC
  8
_0-0_計極細
  6
CONTINUOUS
 62
    9
 10
1305.5974883416525
 20
1522.210728539304
 40
37.630656728658437
 50
243.68035399999945
 51
246.22847699999903
  0
ARC
  8
_0-0_計極細
  6
CONTINUOUS
 62
    9
 10
1289.375357772904
 20
1487.5905243489397
 40
1.0034861863992508
 50
29.999999999990056
 51
150.00000000000995
  0
ARC
  8
_0-0_計極細
  6
CONTINUOUS
 62
    9
 10
1303.8373911397098
 20
1481.6077496642056
 40
1.0034861863992508
 50
267.51783600001954
 51
29.999999999989686
  0
ARC
  8
_0-0_計極細
  6
CONTINUOUS
 62
    9
 10
1298.5875051045155
 20
1481.6694639412399
 40
0.501740082747087
 50
210.00000000005619
 51
260.18999099994863
  0
ARC
  8
_0-0_計極細
  6
CONTINUOUS
 62
    9
 10
1305.5974883416525
 20
1522.210728539304
 40
27.094072844634091
 50
260.29098300000004
 51
275.37568200000089
  0
ARC
  8
_0-0_計極細
  6
CONTINUOUS
 62
    9
 10
1305.5974883416525
 20
1522.210728539304
 40
37.630656728658437
 50
288.07291800000053
 51
297.32522600000027
  0
ARC
  8
_0-0_計極細
  6
CONTINUOUS
 62
    9
 10
1305.5974883416525
 20
1522.210728539304
 40
27.094072844634091
 50
283.31934900000215
 51
296.28378000000021
  0
ARC
  8
_0-0_計極細
  6
CONTINUOUS
 62
    9
 10
1319.544180401143
 20
1483.5038290073023
 40
0.501740082747087
 50
210.00000000005619
 51
289.81487200001084
  0
ARC
  8
_0-0_計極細
  6
CONTINUOUS
 62
    9
 10
1314.3204371357924
 20
1482.5167738708558
 40
1.0034861863992508
 50
282.39403400005705
 51
29.999999999989686
  0
ARC
  8
_0-0_計極細
  6
CONTINUOUS
 62
    9
 10
1305.5974883416525
 20
1522.210728539304
 40
37.630656728658437
 50
302.67477399999979
 51
311.9270819999997
  0
ARC
  8
_0-0_計極細
  6
CONTINUOUS
 62
    9
 10
1328.2610119557253
 20
1488.475519123431
 40
1.0034861863992508
 50
210.00000000001219
 51
303.89344999999258
  0
ARC
  8
_0-0_計極細
  6
CONTINUOUS
 62
    9
 10
1332.1453025314031
 20
1490.7790873012084
 40
0.501740082747087
 50
310.18512800003361
 51
29.999999999933351
  0
ARC
  8
_0-0_計極細
  6
CONTINUOUS
 62
    9
 10
1323.4812803352488
 20
1485.7159336160587
 40
1.0034861863992508
 50
296.10655000000122
 51
30.000000000012179
  0
LINE
  8
_0-0_計極細
  6
CONTINUOUS
 62
    9
 10
1271.3143283965701
 20
1501.3884338230828
 11
1289.2305188803803
 21
1501.3884338230828
  0
ARC
  8
_0-0_計極細
  6
CONTINUOUS
 62
    9
 10
1283.7265807554818
 20
1553.5696071395523
 40
1.0034861863992508
 50
269.99999999999977
 51
30.000000000051159
  0
LINE
  8
_0-0_計極細
  6
CONTINUOUS
 62
    9
 10
1273.9927159780773
 20
1549.0539283321127
 11
1287.2027503014485
 21
1549.0539283321127
  0
LINE
  8
_0-0_計極細
  6
CONTINUOUS
 62
    9
 10
1271.3143283965701
 20
1543.0330232555261
 11
1289.2305188803803
 21
1543.0330232555261
  0
LINE
  8
_0-0_計極細
  6
CONTINUOUS
 62
    9
 10
1268.0446879365404
 20
1539.5208306344875
 11
1292.7066884263481
 21
1539.5208306344875
  0
LINE
  8
_0-0_計極細
  6
CONTINUOUS
 62
    9
 10
1266.8600447581966
 20
1533.4999255579021
 11
1294.7344570052815
 21
1533.4999255579021
  0
LINE
  8
_0-0_計極細
  6
CONTINUOUS
 62
    9
 10
1265.1029881133159
 20
1529.9877329368619
 11
1298.2106265512468
 21
1529.9877329368619
  0
LINE
  8
_0-0_計極細
  6
CONTINUOUS
 62
    9
 10
1265.0501787548897
 20
1523.9668278602765
 11
1300.2383951301808
 21
1523.9668278602765
  0
LINE
  8
_0-0_計極細
  6
CONTINUOUS
 62
    9
 10
1268.0446879365404
 20
1504.9006264441221
 11
1292.7066884263481
 21
1504.9006264441221
  0
LINE
  8
_0-0_計極細
  6
CONTINUOUS
 62
    9
 10
1266.8600447581966
 20
1510.9215315207077
 11
1294.7344570052815
 21
1510.9215315207077
  0
LINE
  8
_0-0_計極細
  6
CONTINUOUS
 62
    9
 10
1265.1029881133159
 20
1514.4337241417477
 11
1298.2106265512468
 21
1514.4337241417477
  0
LINE
  8
_0-0_計極細
  6
CONTINUOUS
 62
    9
 10
1265.0501787548897
 20
1520.4546292183315
 11
1300.2383951301808
 21
1520.4546292183315
  0
ARC
  8
_0-0_計極細
  6
CONTINUOUS
 62
    9
 10
1305.5974883416525
 20
1522.210728539304
 40
27.094072844634091
 50
140.2909829999995
 51
155.37568199999961
  0
ARC
  8
_0-0_計極細
  6
CONTINUOUS
 62
    9
 10
1305.5974883416525
 20
1522.210728539304
 40
37.630656728658437
 50
152.61289199999976
 51
162.54239699999948
  0
ARC
  8
_0-0_計極細
  6
CONTINUOUS
 62
    9
 10
1266.8600447581966
 20
1534.5034117443026
 40
1.0034861863992508
 50
162.39403400002894
 51
269.99999999999977
  0
ARC
  8
_0-0_計極細
  6
CONTINUOUS
 62
    9
 10
1271.3143283965701
 20
1500.3849476366822
 40
1.0034861863992508
 50
89.999999999999915
 51
212.48216399999936
  0
ARC
  8
_0-0_計極細
  6
CONTINUOUS
 62
    9
 10
1305.5974883416525
 20
1522.210728539304
 40
37.630656728658437
 50
168.07291799999925
 51
177.3252260000001
  0
ARC
  8
_0-0_計極細
  6
CONTINUOUS
 62
    9
 10
1305.5974883416525
 20
1522.210728539304
 40
37.630656728658437
 50
182.67477399999885
 51
191.9270819999997
  0
ARC
  8
_0-0_計極細
  6
CONTINUOUS
 62
    9
 10
1305.5974883416525
 20
1522.210728539304
 40
37.630656728658437
 50
197.45760299999952
 51
207.38710799999927
  0
ARC
  8
_0-0_計極細
  6
CONTINUOUS
 62
    9
 10
1265.0501787548897
 20
1519.4511490528382
 40
1.0034861863992508
 50
89.999999999999915
 51
183.89344999999844
  0
ARC
  8
_0-0_計極細
  6
CONTINUOUS
 62
    9
 10
1266.8600447581966
 20
1509.9180453343088
 40
1.0034861863992508
 50
89.999999999999915
 51
197.60596599999548
  0
ARC
  8
_0-0_計極細
  6
CONTINUOUS
 62
    9
 10
1268.0446879365404
 20
1505.4023665268683
 40
0.501740082747087
 50
204.11293800004927
 51
269.99999999999977
  0
ARC
  8
_0-0_計極細
  6
CONTINUOUS
 62
    9
 10
1305.5974883416525
 20
1522.210728539304
 40
27.094072844634091
 50
163.31934899999922
 51
176.2837799999995
  0
ARC
  8
_0-0_計極細
  6
CONTINUOUS
 62
    9
 10
1305.5974883416525
 20
1522.210728539304
 40
27.094072844634091
 50
183.71621999999917
 51
196.68065099999947
  0
ARC
  8
_0-0_計極細
  6
CONTINUOUS
 62
    9
 10
1305.5974883416525
 20
1522.210728539304
 40
27.094072844634091
 50
204.62431799999914
 51
219.70901699999865
  0
ARC
  8
_0-0_計極細
  6
CONTINUOUS
 62
    9
 10
1268.0446879365404
 20
1539.0190905517416
 40
0.501740082747087
 50
89.999999999999915
 51
155.88706199995036
  0
ARC
  8
_0-0_計極細
  6
CONTINUOUS
 62
    9
 10
1271.3143283965701
 20
1544.0365094419269
 40
1.0034861863992508
 50
147.51783600000024
 51
269.99999999999977
  0
ARC
  8
_0-0_計極細
  6
CONTINUOUS
 62
    9
 10
1305.5974883416525
 20
1522.210728539304
 40
37.630656728658437
 50
123.68035400000058
 51
126.22847699999969
  0
ARC
  8
_0-0_計極細
  6
CONTINUOUS
 62
    9
 10
1305.5974883416525
 20
1522.210728539304
 40
37.630656728658437
 50
134.49322399999971
 51
146.40400499999933
  0
ARC
  8
_0-0_計極細
  6
CONTINUOUS
 62
    9
 10
1273.9927159780773
 20
1548.5521882493663
 40
0.501740082747087
 50
89.999999999999915
 51
140.18999100005377
  0
ARC
  8
_0-0_計極細
  6
CONTINUOUS
 62
    9
 10
1279.7456004651795
 20
1553.5696071395523
 40
1.0034861863992508
 50
129.50177000000534
 51
269.99999999999977
  0
LINE
  8
_0-0_計極細
  6
CONTINUOUS
 62
    9
 10
1279.7456004651795
 20
1552.5661269740579
 11
1283.7265807554818
 21
1552.5661269740579
  0
ARC
  8
_0-0_計極細
  6
CONTINUOUS
 62
    9
 10
1305.5974883416525
 20
1522.210728539304
 40
37.630656728658437
 50
77.457603000000148
 51
87.387107999999586
  0
ARC
  8
_0-0_計極細
  6
CONTINUOUS
 62
    9
 10
1305.5974883416525
 20
1522.210728539304
 40
37.630656728658437
 50
77.457603000000148
 51
87.387107999999586
  0
ARC
  8
_0-0_計極細
  6
CONTINUOUS
 62
    9
 10
1310.6669097889867
 20
1518.9494029491866
 40
1.0034861863992508
 50
89.999999999999915
 51
209.9999999999732
  0
ARC
  8
_0-0_計極細
  6
CONTINUOUS
 62
    9
 10
1310.6669097889867
 20
1525.4720541294246
 40
1.0034861863992508
 50
150.00000000002643
 51
269.99999999999977
  0
ARC
  8
_0-0_計極細
  6
CONTINUOUS
 62
    9
 10
1309.8174263126343
 20
1563.1365904909467
 40
0.501740082747087
 50
84.112937999972772
 51
150.00000000001438
  0
LINE
  8
_0-0_計極細
  6
CONTINUOUS
 62
    9
 10
1315.189482532737
 20
1561.4029371040999
 11
1301.2522794196461
 21
1537.2629912307684
  0
LINE
  8
_0-0_計極細
  6
CONTINUOUS
 62
    9
 10
1319.1096637235764
 20
1561.1684951022289
 11
1302.5558414941588
 21
1532.4964393715029
  0
LINE
  8
_0-0_計極細
  6
CONTINUOUS
 62
    9
 10
1324.3503197112873
 20
1558.2037773588979
 11
1306.7562175445473
 21
1527.729893533143
  0
LINE
  8
_0-0_計極細
  6
CONTINUOUS
 62
    9
 10
1303.5905219897595
 20
1530.2025768927094
 11
1303.5905219897595
 21
1534.2885617675481
  0
LINE
  8
_0-0_計極細
  6
CONTINUOUS
 62
    9
 10
1304.0922620725064
 20
1529.3335375166705
 11
1304.0922620725064
 21
1535.1576071644911
  0
ARC
  8
_0-0_計極細
  6
CONTINUOUS
 62
    9
 10
1294.7344570052815
 20
1534.5034117443026
 40
1.0034861863992508
 50
269.99999999999977
 51
30.000000000012179
  0
LINE
  8
_0-0_計極細
  6
CONTINUOUS
 62
    9
 10
1307.1027146107999
 20
1528.3300513302729
 11
1307.1027146107999
 21
1540.3718614834424
  0
LINE
  8
_0-0_計極細
  6
CONTINUOUS
 62
    9
 10
1307.6044607144513
 20
1529.1990967272154
 11
1307.6044607144513
 21
1541.2409068803877
  0
ARC
  8
_0-0_計極細
  6
CONTINUOUS
 62
    9
 10
1294.7344570052815
 20
1509.9180453343088
 40
1.0034861863992508
 50
329.99999999996464
 51
89.999999999999545
  0
ARC
  8
_0-0_計極細
  6
CONTINUOUS
 62
    9
 10
1292.7066884263481
 20
1505.4023665268683
 40
0.501740082747087
 50
269.99999999999977
 51
329.9999999999431
  0
ARC
  8
_0-0_計極細
  6
CONTINUOUS
 62
    9
 10
1305.5974883416525
 20
1522.210728539304
 40
27.094072844634091
 50
230.22103899999954
 51
235.21980799999949
  0
ARC
  8
_0-0_計極細
  6
CONTINUOUS
 62
    9
 10
1289.2305188803803
 20
1500.3849476366822
 40
1.0034861863992508
 50
329.9999999999871
 51
89.999999999999545
  0
ARC
  8
_0-0_計極細
  6
CONTINUOUS
 62
    9
 10
1297.4864260677305
 20
1502.6427870404027
 40
0.501740082747087
 50
149.9999999999884
 51
210.00000000005619
  0
LINE
  8
_0-0_計極細
  6
CONTINUOUS
 62
    9
 10
1303.5905219897595
 20
1510.1328953110612
 11
1303.5905219897595
 21
1514.2188801859002
  0
LINE
  8
_0-0_計極細
  6
CONTINUOUS
 62
    9
 10
1304.0922620725064
 20
1509.2638499141165
 11
1304.0922620725064
 21
1515.0879195619384
  0
ARC
  8
_0-0_計極細
  6
CONTINUOUS
 62
    9
 10
1298.2106265512468
 20
1514.9354702453991
 40
0.501740082747087
 50
269.99999999999977
 51
330.00000000006594
  0
ARC
  8
_0-0_計極細
  6
CONTINUOUS
 62
    9
 10
1302.9903641926317
 20
1512.175884738027
 40
0.501740082747087
 50
150.00000000004732
 51
209.99999999990737
  0
ARC
  8
_0-0_計極細
  6
CONTINUOUS
 62
    9
 10
1300.3832340227018
 20
1506.6567257650941
 40
1.0034861863992508
 50
30.000000000012541
 51
149.99999999998747
  0
ARC
  8
_0-0_計極細
  6
CONTINUOUS
 62
    9
 10
1302.9903641926317
 20
1532.2455723405819
 40
0.501740082747087
 50
150.00000000004732
 51
209.99999999990737
  0
ARC
  8
_0-0_計極細
  6
CONTINUOUS
 62
    9
 10
1305.8871721476019
 20
1528.2316336158906
 40
1.0034861863992508
 50
210.00000000005113
 51
330.00000000002603
  0
ARC
  8
_0-0_計極細
  6
CONTINUOUS
 62
    9
 10
1298.2106265512468
 20
1529.4859868332092
 40
0.501740082747087
 50
29.999999999933703
 51
89.999999999999929
  0
ARC
  8
_0-0_計極細
  6
CONTINUOUS
 62
    9
 10
1300.2383951301808
 20
1524.9703080257711
 40
1.0034861863992508
 50
269.99999999999977
 51
29.999999999989686
  0
LINE
  8
_0-0_計極細
  6
CONTINUOUS
 62
    9
 10
1307.1027146107999
 20
1504.0495955951665
 11
1307.1027146107999
 21
1516.0914057483383
  0
LINE
  8
_0-0_計極細
  6
CONTINUOUS
 62
    9
 10
1307.6044607144513
 20
1503.1805501982235
 11
1307.6044607144513
 21
1515.2223603513935
  0
ARC
  8
_0-0_計極細
  6
CONTINUOUS
 62
    9
 10
1305.8871721476019
 20
1528.2316336158906
 40
1.0034861863992508
 50
253.22134500003193
 51
330.00000000002603
  0
LINE
  8
_0-0_計極細
  6
CONTINUOUS
 62
    9
 10
1304.7064305157483
 20
1562.3119613107538
 11
1295.7483412947477
 21
1546.7960889283927
  0
ARC
  8
_0-0_計極細
  6
CONTINUOUS
 62
    9
 10
1305.5974883416525
 20
1522.210728539304
 40
37.630656728658437
 50
93.595994999999121
 51
105.50677599999949
  0
LINE
  8
_0-0_計極細
  6
CONTINUOUS
 62
    9
 10
1298.152982406044
 20
1563.0028661891979
 11
1291.5479652443591
 21
1551.5626407876573
  0
LINE
  8
_0-0_計極細
  6
CONTINUOUS
 62
    9
 10
1309.3829036141628
 20
1563.3874635427737
 11
1297.0519033692576
 21
1542.0295430900321
  0
ARC
  8
_0-0_計極細
  6
CONTINUOUS
 62
    9
 10
1297.4864260677305
 20
1541.7786700382069
 40
0.501740082747087
 50
149.9999999999884
 51
210.00000000001123
  0
ARC
  8
_0-0_計極細
  6
CONTINUOUS
 62
    9
 10
1305.5974883416525
 20
1522.210728539304
 40
27.094072844634091
 50
110.2210389999981
 51
115.21980799999808
  0
ARC
  8
_0-0_計極細
  6
CONTINUOUS
 62
    9
 10
1294.8792958978036
 20
1547.2978350320457
 40
1.0034861863992508
 50
209.99999999998968
 51
330.00000000002257
  0
ARC
  8
_0-0_計極細
  6
CONTINUOUS
 62
    9
 10
1291.9824879428306
 20
1551.3117677358312
 40
0.501740082747087
 50
150.00000000002132
 51
209.99999999993332
  0
ARC
  8
_0-0_計極細
  6
CONTINUOUS
 62
    9
 10
1305.5974883416525
 20
1522.210728539304
 40
37.630656728658437
 50
113.77152300000034
 51
116.31964599999986
  0
ARC
  8
_0-0_計極細
  6
CONTINUOUS
 62
    9
 10
1291.3658509285065
 20
1560.2785631855738
 40
1.0034861863992508
 50
330.00000000004854
 51
110.49822999991692
  0
ARC
  8
_0-0_計極細
  6
CONTINUOUS
 62
    9
 10
1289.375357772904
 20
1556.8309327296693
 40
1.0034861863992508
 50
210.00000000001219
 51
329.9999999999871
  0
LINE
  8
_0-0_計極細
  6
CONTINUOUS
 62
    9
 10
1292.2348903045477
 20
1559.7768231028267
 11
1290.2444031698483
 21
1556.3291926469244
  0
ARC
  8
_0-0_計極細
  6
CONTINUOUS
 62
    9
 10
1305.5974883416525
 20
1522.210728539304
 40
27.094072844634091
 50
124.78019199999905
 51
129.7789609999995
  0
ARC
  8
_0-0_計極細
  6
CONTINUOUS
 62
    9
 10
1287.2027503014485
 20
1548.5521882493663
 40
0.501740082747087
 50
30.000000000011593
 51
89.999999999999915
  0
ARC
  8
_0-0_計極細
  6
CONTINUOUS
 62
    9
 10
1289.2305188803803
 20
1544.0365094419269
 40
1.0034861863992508
 50
269.99999999999977
 51
30.000000000012179
  0
ARC
  8
_0-0_計極細
  6
CONTINUOUS
 62
    9
 10
1292.7066884263481
 20
1539.0190905517416
 40
0.501740082747087
 50
30.000000000011593
 51
89.999999999999915
  0
LINE
  8
_0-0_計極細
  6
CONTINUOUS
 62
    9
 10
1304.0922620725064
 20
1542.1819924065721
 11
1304.0922620725064
 21
1549.2629560936571
  0
LINE
  8
_0-0_計極細
  6
CONTINUOUS
 62
    9
 10
1303.5905219897595
 20
1541.3129530305334
 11
1303.5905219897595
 21
1549.2303649344772
  0
ARC
  8
_0-0_計極細
  6
CONTINUOUS
 62
    9
 10
1303.8373911397098
 20
1562.8137074144072
 40
1.0034861863992508
 50
329.9999999999871
 51
92.482163999979747
  0
ARC
  8
_0-0_計極細
  6
CONTINUOUS
 62
    9
 10
1305.5974883416525
 20
1522.210728539304
 40
27.094072844634091
 50
84.624317999998866
 51
99.709016999999434
  0
ARC
  8
_0-0_計極細
  6
CONTINUOUS
 62
    9
 10
1298.5875051045155
 20
1562.7519931373727
 40
0.501740082747087
 50
99.810009000050982
 51
149.9999999999884
  0
ARC
  8
_0-0_計極細
  6
CONTINUOUS
 62
    9
 10
1300.3832340227018
 20
1537.7647313135142
 40
1.0034861863992508
 50
210.00000000001219
 51
329.9999999999871
  0
ARC
  8
_0-0_計極細
  6
CONTINUOUS
 62
    9
 10
1305.5974883416525
 20
1522.210728539304
 40
27.094072844634091
 50
84.624317999998866
 51
89.999999999999915
  0
ARC
  8
_0-0_計極細
  6
CONTINUOUS
 62
    9
 10
1305.5974883416525
 20
1522.210728539304
 40
27.094072844634091
 50
20.290983000001241
 51
35.375682000000126
  0
LINE
  8
_0-0_計極細
  6
CONTINUOUS
 62
    9
 10
1332.579825229876
 20
1553.3914967255769
 11
1316.026003000457
 21
1524.7194409948499
  0
LINE
  8
_0-0_計極細
  6
CONTINUOUS
 62
    9
 10
1327.391972579687
 20
1556.4476840588306
 11
1309.797864392041
 21
1525.9737942121701
  0
ARC
  8
_0-0_計極細
  6
CONTINUOUS
 62
    9
 10
1305.5974883416525
 20
1522.210728539304
 40
27.094072844634091
 50
303.71622000000229
 51
316.6806509999999
  0
ARC
  8
_0-0_計極細
  6
CONTINUOUS
 62
    9
 10
1321.6747800178789
 20
1518.9494029491866
 40
1.0034861863992508
 50
89.999999999999915
 51
210.00000000001216
  0
ARC
  8
_0-0_計極細
  6
CONTINUOUS
 62
    9
 10
1315.5914803019855
 20
1519.4511490528382
 40
0.501740082747087
 50
30.000000000056566
 51
89.999999999999915
  0
ARC
  8
_0-0_計極細
  6
CONTINUOUS
 62
    9
 10
1321.6747800178789
 20
1525.4720541294246
 40
1.0034861863992508
 50
149.99999999998747
 51
269.99999999999977
  0
ARC
  8
_0-0_計極細
  6
CONTINUOUS
 62
    9
 10
1315.5914803019855
 20
1524.9703080257711
 40
0.501740082747087
 50
269.99999999999977
 51
329.9999999999431
  0
ARC
  8
_0-0_計極細
  6
CONTINUOUS
 62
    9
 10
1305.5974883416525
 20
1522.210728539304
 40
27.094072844634091
 50
324.6243180000003
 51
339.70901700000019
  0
ARC
  8
_0-0_計極細
  6
CONTINUOUS
 62
    9
 10
1305.5974883416525
 20
1522.210728539304
 40
27.094072844634091
 50
350.22103899999968
 51
355.21980800000068
  0
ARC
  8
_0-0_計極細
  6
CONTINUOUS
 62
    9
 10
1305.5974883416525
 20
1522.210728539304
 40
27.094072844634091
 50
4.7801919999998796
 51
9.778961000000896
  0
ARC
  8
_0-0_計極細
  6
CONTINUOUS
 62
    9
 10
1332.6826562676783
 20
1518.9494029491866
 40
1.0034861863992508
 50
89.999999999999915
 51
210.00000000001216
  0
ARC
  8
_0-0_計極細
  6
CONTINUOUS
 62
    9
 10
1326.5993565517849
 20
1519.4511490528382
 40
0.501740082747087
 50
30.0000000000306
 51
89.999999999999915
  0
ARC
  8
_0-0_計極細
  6
CONTINUOUS
 62
    9
 10
1332.6826562676783
 20
1525.4720541294246
 40
1.0034861863992508
 50
149.99999999998747
 51
269.99999999999977
  0
ARC
  8
_0-0_計極細
  6
CONTINUOUS
 62
    9
 10
1326.5993565517849
 20
1524.9703080257711
 40
0.501740082747087
 50
269.99999999999977
 51
329.99999999996902
  0
ARC
  8
_0-0_計極細
  6
CONTINUOUS
 62
    9
 10
1305.5974883416525
 20
1522.210728539304
 40
27.094072844634091
 50
43.319349000000443
 51
56.283779999998394
  0
ARC
  8
_0-0_計極細
  6
CONTINUOUS
 62
    9
 10
1305.5974883416525
 20
1522.210728539304
 40
37.630656728658437
 50
62.674773999999701
 51
71.927081999999317
  0
ARC
  8
_0-0_計極細
  6
CONTINUOUS
 62
    9
 10
1305.5974883416525
 20
1522.210728539304
 40
27.094072844634091
 50
63.716219999999879
 51
76.680650999997951
  0
ARC
  8
_0-0_計極細
  6
CONTINUOUS
 62
    9
 10
1319.544180401143
 20
1560.9176280713066
 40
0.501740082747087
 50
70.185127999988836
 51
149.9999999999884
  0
ARC
  8
_0-0_計極細
  6
CONTINUOUS
 62
    9
 10
1314.3204371357924
 20
1561.9046832077538
 40
1.0034861863992508
 50
330.00000000000961
 51
77.605965999942228
  0
ARC
  8
_0-0_計極細
  6
CONTINUOUS
 62
    9
 10
1305.5974883416525
 20
1522.210728539304
 40
37.630656728658437
 50
48.072918000000854
 51
57.3252260000002
  0
ARC
  8
_0-0_計極細
  6
CONTINUOUS
 62
    9
 10
1328.2610119557253
 20
1555.9459379551788
 40
1.0034861863992508
 50
56.106549999992559
 51
150.00000000000995
  0
ARC
  8
_0-0_計極細
  6
CONTINUOUS
 62
    9
 10
1332.1453025314031
 20
1553.6423637564972
 40
0.501740082747087
 50
330.00000000006594
 51
49.814871999965682
  0
ARC
  8
_0-0_計極細
  6
CONTINUOUS
 62
    9
 10
1323.4812803352488
 20
1558.7055234625495
 40
1.0034861863992508
 50
329.9999999999871
 51
63.893449999998062
  0
ARC
  8
_0-0_計極細
  6
CONTINUOUS
 62
    9
 10
1335.6119891518731
 20
1494.8094570758528
 40
1.0034861863992508
 50
210.00000000001219
 51
317.60596600000804
  0
ARC
  8
_0-0_計極細
  6
CONTINUOUS
 62
    9
 10
1338.9303628175933
 20
1498.0932225791921
 40
0.501740082747087
 50
324.11293799996702
 51
29.99999999998526
  0
ARC
  8
_0-0_計極細
  6
CONTINUOUS
 62
    9
 10
1305.5974883416525
 20
1522.210728539304
 40
37.630656728658437
 50
14.493223999999607
 51
26.404005000000225
  0
LINE
  8
_0-0_計極細
  6
CONTINUOUS
 62
    9
 10
1344.6467726617407
 20
1536.1596663963892
 11
1338.0417555000558
 21
1524.7194409948499
  0
ARC
  8
_0-0_計極細
  6
CONTINUOUS
 62
    9
 10
1345.6810256730819
 20
1515.5017724932823
 40
1.0034861863992508
 50
209.99999999998968
 51
350.4982300000064
  0
ARC
  8
_0-0_計極細
  6
CONTINUOUS
 62
    9
 10
1345.6810256730819
 20
1528.9196845853276
 40
1.0034861863992508
 50
9.5017699999932326
 51
149.99999999998747
  0
ARC
  8
_0-0_計極細
  6
CONTINUOUS
 62
    9
 10
1305.5974883416525
 20
1522.210728539304
 40
37.630656728658437
 50
3.6803540000001314
 51
6.2284770000002974
  0
ARC
  8
_0-0_計極細
  6
CONTINUOUS
 62
    9
 10
1305.5974883416525
 20
1522.210728539304
 40
37.630656728658437
 50
353.77152300000074
 51
356.3196460000002
  0
ARC
  8
_0-0_計極細
  6
CONTINUOUS
 62
    9
 10
1305.5974883416525
 20
1522.210728539304
 40
37.630656728658437
 50
333.59599500000002
 51
345.50677600000074
  0
ARC
  8
_0-0_計極細
  6
CONTINUOUS
 62
    9
 10
1341.640751509585
 20
1503.4335305668253
 40
1.0034861863992508
 50
209.99999999998968
 51
332.48216400001218
  0
ARC
  8
_0-0_計極細
  6
CONTINUOUS
 62
    9
 10
1343.6905325174766
 20
1518.9494029491866
 40
1.0034861863992508
 50
89.999999999999915
 51
210.00000000001216
  0
ARC
  8
_0-0_計極細
  6
CONTINUOUS
 62
    9
 10
1337.6072328015832
 20
1519.4511490528382
 40
0.501740082747087
 50
29.999999999978677
 51
89.999999999999901
  0
LINE
  8
_0-0_計極細
  6
CONTINUOUS
 62
    9
 10
1344.811980276138
 20
1515.0000324105358
 11
1342.8214931414382
 21
1518.4476628664399
  0
LINE
  8
_0-0_計極細
  6
CONTINUOUS
 62
    9
 10
1344.6467726617407
 20
1508.2617906822213
 11
1338.0417555000558
 21
1519.7020160837583
  0
ARC
  8
_0-0_計極細
  6
CONTINUOUS
 62
    9
 10
1343.6905325174766
 20
1525.4720541294246
 40
1.0034861863992508
 50
149.99999999998747
 51
269.99999999999977
  0
ARC
  8
_0-0_計極細
  6
CONTINUOUS
 62
    9
 10
1337.6072328015832
 20
1524.9703080257711
 40
0.501740082747087
 50
269.99999999999977
 51
330.00000000002098
  0
LINE
  8
_0-0_計極細
  6
CONTINUOUS
 62
    9
 10
1344.811980276138
 20
1529.4214246680738
 11
1342.8214931414382
 21
1525.9737942121701
  0
ARC
  8
_0-0_計極細
  6
CONTINUOUS
 62
    9
 10
1335.6119891518731
 20
1549.6120000027565
 40
1.0034861863992508
 50
42.394033999991557
 51
149.99999999998747
  0
ARC
  8
_0-0_計極細
  6
CONTINUOUS
 62
    9
 10
1338.9303628175933
 20
1546.3282344994172
 40
0.501740082747087
 50
330.00000000001404
 51
35.887062000032259
  0
ARC
  8
_0-0_計極細
  6
CONTINUOUS
 62
    9
 10
1341.640751509585
 20
1540.9879265117843
 40
1.0034861863992508
 50
27.517836000010465
 51
149.99999999998747
  0
LINE
  8
_0-0_計極細
  6
CONTINUOUS
 62
    9
 10
1307.1027146107999
 20
1495.1584998475857
 11
1307.1027146107999
 21
1497.0252114976797
  0
LINE
  8
_0-0_計極細
  6
CONTINUOUS
 62
    9
 10
1307.6044607144513
 20
1495.1910903995142
 11
1307.6044607144513
 21
1496.1561614661214
  0
LINE
  8
_0-0_計極細
  6
CONTINUOUS
 62
    9
 10
1307.1027146107999
 20
1547.3962430535275
 11
1307.1027146107999
 21
1549.2629572310218
  0
LINE
  8
_0-0_計極細
  6
CONTINUOUS
 62
    9
 10
1307.6044607144513
 20
1548.2652928683299
 11
1307.6044607144513
 21
1549.2303666790935
  0
LINE
  8
_0-1_計細線
  6
CONTINUOUS
 62
    9
 10
1373.5964912280706
 20
1582.210728539304
 11
403.5964912280707
 21
1582.210728539304
  0
LINE
  8
_0-1_計細線
  6
CONTINUOUS
 62
    9
 10
403.5964912280707
 20
1582.210728539304
 11
403.5964912280707
 21
1462.210728539304
  0
LINE
  8
_0-1_計細線
  6
CONTINUOUS
 62
    9
 10
403.5964912280707
 20
1462.210728539304
 11
1373.5964912280706
 21
1462.210728539304
  0
LINE
  8
_0-1_計細線
  6
CONTINUOUS
 62
    9
 10
1373.5964912280706
 20
1462.210728539304
 11
1373.5964912280706
 21
1582.210728539304
  0
LINE
  8
_0-1_計細線
  6
CONTINUOUS
 62
    9
 10
1277.5964912280706
 20
1582.210728539304
 11
1277.5964912280706
 21
1580.2107285393038
  0
LINE
  8
_0-1_計細線
  6
CONTINUOUS
 62
    9
 10
1232.3612341322632
 20
1562.210728539304
 11
1251.3122199806085
 21
1562.210728539304
  0
LINE
  8
_0-1_計細線
  6
CONTINUOUS
 62
    9
 10
1277.5964912280706
 20
1580.2107285393038
 11
1265.4543556043395
 21
1568.0685929155729
  0
ARC
  8
_0-1_計細線
  6
CONTINUOUS
 62
    9
 10
1251.3122199806085
 20
1582.210728539304
 40
20
 50
269.99999999999977
 51
314.99999999999966
  0
LINE
  8
_0-1_計細線
  6
CONTINUOUS
 62
    9
 10
1333.5964912280706
 20
1582.210728539304
 11
1333.5964912280706
 21
1580.2107285393038
  0
LINE
  8
_0-1_計細線
  6
CONTINUOUS
 62
    9
 10
1333.5964912280706
 20
1580.2107285393038
 11
1345.7386268518012
 21
1568.0685929155729
  0
LINE
  8
_0-1_計細線
  6
CONTINUOUS
 62
    9
 10
1359.8807624755323
 20
1562.210728539304
 11
1373.5964912280706
 21
1562.210728539304
  0
ARC
  8
_0-1_計細線
  6
CONTINUOUS
 62
    9
 10
1359.8807624755323
 20
1582.210728539304
 40
20
 50
224.99999999999963
 51
269.99999999999977
  0
LINE
  8
_0-1_計細線
  6
CONTINUOUS
 62
    9
 10
1277.5964912280706
 20
1462.210728539304
 11
1277.5964912280706
 21
1464.2107285393038
  0
LINE
  8
_0-1_計細線
  6
CONTINUOUS
 62
    9
 10
1217.8317483238866
 20
1482.210728539304
 11
1251.3122199806085
 21
1482.210728539304
  0
LINE
  8
_0-1_計細線
  6
CONTINUOUS
 62
    9
 10
1277.5964912280706
 20
1464.2107285393038
 11
1265.4543556043395
 21
1476.3528641630344
  0
ARC
  8
_0-1_計細線
  6
CONTINUOUS
 62
    9
 10
1251.3122199806085
 20
1462.210728539304
 40
20
 50
44.999999999999076
 51
89.999999999999915
  0
LINE
  8
_0-1_計細線
  6
CONTINUOUS
 62
    9
 10
1333.5964912280706
 20
1462.210728539304
 11
1333.5964912280706
 21
1464.2107285393038
  0
LINE
  8
_0-1_計細線
  6
CONTINUOUS
 62
    9
 10
1333.5964912280706
 20
1464.2107285393038
 11
1345.7386268518012
 21
1476.3528641630344
  0
LINE
  8
_0-1_計細線
  6
CONTINUOUS
 62
    9
 10
1359.8807624755323
 20
1482.210728539304
 11
1373.5964912280706
 21
1482.210728539304
  0
ARC
  8
_0-1_計細線
  6
CONTINUOUS
 62
    9
 10
1359.8807624755323
 20
1462.210728539304
 40
20
 50
89.999999999999915
 51
135.00000000000091
  0
ARC
  8
_0-1_計細線
  6
CONTINUOUS
 62
    9
 10
1589.0964912280708
 20
1581.210728539304
 40
0.5
 50
179.99999999999983
 51
269.99999999999977
  0
LINE
  8
_0-1_計細線
  6
CONTINUOUS
 62
    9
 10
1589.0964912280708
 20
1580.710728539304
 11
1591.096491228071
 21
1580.710728539304
  0
ARC
  8
_0-1_計細線
  6
CONTINUOUS
 62
    9
 10
1589.0964912280708
 20
1463.210728539304
 40
0.5
 50
89.999999999999915
 51
179.99999999999983
  0
LINE
  8
_0-1_計細線
  6
CONTINUOUS
 62
    9
 10
1589.0964912280708
 20
1463.7107285393038
 11
1591.096491228071
 21
1463.7107285393038
  0
ARC
  8
_0-1_計細線
  6
CONTINUOUS
 62
    9
 10
1591.096491228071
 20
1579.2107285393038
 40
1.5000000000000002
 50
0
 51
89.999999999999915
  0
LINE
  8
_0-1_計細線
  6
CONTINUOUS
 62
    9
 10
1592.596491228071
 20
1465.2107285393038
 11
1592.596491228071
 21
1579.2107285393038
  0
ARC
  8
_0-1_計細線
  6
CONTINUOUS
 62
    9
 10
1591.096491228071
 20
1465.2107285393038
 40
1.5000000000000002
 50
269.99999999999977
 51
359.99999999999966
  0
LINE
  8
_0-0_計極細
  6
CENTER1
 62
    9
 10
1362.0964912280706
 20
1585.8614479655998
 11
1362.0964912280706
 21
1459.7107285411375
  0
LINE
  8
_0-0_計極細
  6
CENTER1
 62
    9
 10
415.09649122807059
 20
1585.8614479655998
 11
415.09649122807059
 21
1458.1844183438409
  0
LINE
  8
_0-0_計極細
  6
CONTINUOUS
 62
    9
 10
421.84649122807059
 20
1510.5107285394636
 11
421.84649122807059
 21
1516.5107285392639
  0
LINE
  8
_0-0_計極細
  6
CONTINUOUS
 62
    9
 10
421.84649122807059
 20
1527.9107285392647
 11
421.84649122807059
 21
1533.9107285414716
  0
LINE
  8
_0-0_計極細
  6
CONTINUOUS
 62
    9
 10
421.84649122807059
 20
1545.3107285414719
 11
421.84649122807059
 21
1551.3107285389169
  0
LINE
  8
_0-0_計極細
  6
CONTINUOUS
 62
    9
 10
421.84649122807059
 20
1493.1107285388007
 11
421.84649122807059
 21
1499.110728539463
  0
LINE
  8
_0-0_計極細
  6
CONTINUOUS
 62
    9
 10
421.84649122807059
 20
1562.7107285389172
 11
421.84649122807059
 21
1568.8107285391311
  0
LINE
  8
_0-0_計極細
  6
CONTINUOUS
 62
    9
 10
421.84649122807059
 20
1475.6107285367532
 11
421.84649122807059
 21
1481.7107285387999
  0
LINE
  8
_0-0_計極細
  6
CONTINUOUS
 62
    9
 10
408.34649122807065
 20
1510.5107285394636
 11
408.34649122807065
 21
1516.5107285392639
  0
LINE
  8
_0-0_計極細
  6
CONTINUOUS
 62
    9
 10
408.34649122807065
 20
1527.9107285392647
 11
408.34649122807065
 21
1533.9107285414716
  0
LINE
  8
_0-0_計極細
  6
CONTINUOUS
 62
    9
 10
408.34649122807065
 20
1545.3107285414719
 11
408.34649122807065
 21
1551.3107285389169
  0
LINE
  8
_0-0_計極細
  6
CONTINUOUS
 62
    9
 10
408.34649122807065
 20
1493.1107285388007
 11
408.34649122807065
 21
1499.110728539463
  0
LINE
  8
_0-0_計極細
  6
CONTINUOUS
 62
    9
 10
408.34649122807065
 20
1562.7107285389172
 11
408.34649122807065
 21
1568.8107285391311
  0
LINE
  8
_0-0_計極細
  6
CONTINUOUS
 62
    9
 10
408.34649122807065
 20
1475.6107285367532
 11
408.34649122807065
 21
1481.7107285387999
  0
LINE
  8
_0-0_計極細
  6
CENTER1
 62
    9
 10
512.09649122807059
 20
1585.8614479655998
 11
512.09649122807059
 21
1458.1844183438409
  0
LINE
  8
_0-0_計極細
  6
CONTINUOUS
 62
    9
 10
518.84649122807059
 20
1510.5107285394636
 11
518.84649122807059
 21
1516.5107285392639
  0
LINE
  8
_0-0_計極細
  6
CONTINUOUS
 62
    9
 10
518.84649122807059
 20
1527.9107285392647
 11
518.84649122807059
 21
1533.9107285414716
  0
LINE
  8
_0-0_計極細
  6
CONTINUOUS
 62
    9
 10
518.84649122807059
 20
1545.3107285414719
 11
518.84649122807059
 21
1551.3107285389169
  0
LINE
  8
_0-0_計極細
  6
CONTINUOUS
 62
    9
 10
518.84649122807059
 20
1493.1107285388007
 11
518.84649122807059
 21
1499.110728539463
  0
LINE
  8
_0-0_計極細
  6
CONTINUOUS
 62
    9
 10
518.84649122807059
 20
1562.7107285389172
 11
518.84649122807059
 21
1568.8107285391311
  0
LINE
  8
_0-0_計極細
  6
CONTINUOUS
 62
    9
 10
518.84649122807059
 20
1475.6107285367532
 11
518.84649122807059
 21
1481.7107285387999
  0
LINE
  8
_0-0_計極細
  6
CONTINUOUS
 62
    9
 10
505.34649122807053
 20
1510.5107285394636
 11
505.34649122807053
 21
1516.5107285392639
  0
LINE
  8
_0-0_計極細
  6
CONTINUOUS
 62
    9
 10
505.34649122807053
 20
1527.9107285392647
 11
505.34649122807053
 21
1533.9107285414716
  0
LINE
  8
_0-0_計極細
  6
CONTINUOUS
 62
    9
 10
505.34649122807053
 20
1545.3107285414719
 11
505.34649122807053
 21
1551.3107285389169
  0
LINE
  8
_0-0_計極細
  6
CONTINUOUS
 62
    9
 10
505.34649122807053
 20
1493.1107285388007
 11
505.34649122807053
 21
1499.110728539463
  0
LINE
  8
_0-0_計極細
  6
CONTINUOUS
 62
    9
 10
505.34649122807053
 20
1562.7107285389172
 11
505.34649122807053
 21
1568.8107285391311
  0
LINE
  8
_0-0_計極細
  6
CONTINUOUS
 62
    9
 10
505.34649122807053
 20
1475.6107285367532
 11
505.34649122807053
 21
1481.7107285387999
  0
LINE
  8
_0-0_計極細
  6
CENTER1
 62
    9
 10
609.09649122807059
 20
1585.8614479655998
 11
609.09649122807059
 21
1458.1844183438409
  0
LINE
  8
_0-0_計極細
  6
CONTINUOUS
 62
    9
 10
615.84649122807059
 20
1510.5107285394636
 11
615.84649122807059
 21
1516.5107285392639
  0
LINE
  8
_0-0_計極細
  6
CONTINUOUS
 62
    9
 10
615.84649122807059
 20
1527.9107285392647
 11
615.84649122807059
 21
1533.9107285414716
  0
LINE
  8
_0-0_計極細
  6
CONTINUOUS
 62
    9
 10
615.84649122807059
 20
1545.3107285414719
 11
615.84649122807059
 21
1551.3107285389169
  0
LINE
  8
_0-0_計極細
  6
CONTINUOUS
 62
    9
 10
615.84649122807059
 20
1493.1107285388007
 11
615.84649122807059
 21
1499.110728539463
  0
LINE
  8
_0-0_計極細
  6
CONTINUOUS
 62
    9
 10
615.84649122807059
 20
1562.7107285389172
 11
615.84649122807059
 21
1568.8107285391311
  0
LINE
  8
_0-0_計極細
  6
CONTINUOUS
 62
    9
 10
615.84649122807059
 20
1475.6107285367532
 11
615.84649122807059
 21
1481.7107285387999
  0
LINE
  8
_0-0_計極細
  6
CONTINUOUS
 62
    9
 10
602.3464912280707
 20
1510.5107285394636
 11
602.3464912280707
 21
1516.5107285392639
  0
LINE
  8
_0-0_計極細
  6
CONTINUOUS
 62
    9
 10
602.3464912280707
 20
1527.9107285392647
 11
602.3464912280707
 21
1533.9107285414716
  0
LINE
  8
_0-0_計極細
  6
CONTINUOUS
 62
    9
 10
602.3464912280707
 20
1545.3107285414719
 11
602.3464912280707
 21
1551.3107285389169
  0
LINE
  8
_0-0_計極細
  6
CONTINUOUS
 62
    9
 10
602.3464912280707
 20
1493.1107285388007
 11
602.3464912280707
 21
1499.110728539463
  0
LINE
  8
_0-0_計極細
  6
CONTINUOUS
 62
    9
 10
602.3464912280707
 20
1562.7107285389172
 11
602.3464912280707
 21
1568.8107285391311
  0
LINE
  8
_0-0_計極細
  6
CONTINUOUS
 62
    9
 10
602.3464912280707
 20
1475.6107285367532
 11
602.3464912280707
 21
1481.7107285387999
  0
LINE
  8
_0-0_計極細
  6
CENTER1
 62
    9
 10
706.09649122807059
 20
1585.8614479655998
 11
706.09649122807059
 21
1458.1844183438409
  0
LINE
  8
_0-0_計極細
  6
CONTINUOUS
 62
    9
 10
712.8464912280707
 20
1510.5107285394636
 11
712.8464912280707
 21
1516.5107285392639
  0
LINE
  8
_0-0_計極細
  6
CONTINUOUS
 62
    9
 10
712.8464912280707
 20
1527.9107285392647
 11
712.8464912280707
 21
1533.9107285414716
  0
LINE
  8
_0-0_計極細
  6
CONTINUOUS
 62
    9
 10
712.8464912280707
 20
1545.3107285414719
 11
712.8464912280707
 21
1551.3107285389169
  0
LINE
  8
_0-0_計極細
  6
CONTINUOUS
 62
    9
 10
712.8464912280707
 20
1493.1107285388007
 11
712.8464912280707
 21
1499.110728539463
  0
LINE
  8
_0-0_計極細
  6
CONTINUOUS
 62
    9
 10
712.8464912280707
 20
1562.7107285389172
 11
712.8464912280707
 21
1568.8107285391311
  0
LINE
  8
_0-0_計極細
  6
CONTINUOUS
 62
    9
 10
712.8464912280707
 20
1475.6107285367532
 11
712.8464912280707
 21
1481.7107285387999
  0
LINE
  8
_0-0_計極細
  6
CONTINUOUS
 62
    9
 10
699.34649122807059
 20
1510.5107285394636
 11
699.34649122807059
 21
1516.5107285392639
  0
LINE
  8
_0-0_計極細
  6
CONTINUOUS
 62
    9
 10
699.34649122807059
 20
1527.9107285392647
 11
699.34649122807059
 21
1533.9107285414716
  0
LINE
  8
_0-0_計極細
  6
CONTINUOUS
 62
    9
 10
699.34649122807059
 20
1545.3107285414719
 11
699.34649122807059
 21
1551.3107285389169
  0
LINE
  8
_0-0_計極細
  6
CONTINUOUS
 62
    9
 10
699.34649122807059
 20
1493.1107285388007
 11
699.34649122807059
 21
1499.110728539463
  0
LINE
  8
_0-0_計極細
  6
CONTINUOUS
 62
    9
 10
699.34649122807059
 20
1562.7107285389172
 11
699.34649122807059
 21
1568.8107285391311
  0
LINE
  8
_0-0_計極細
  6
CONTINUOUS
 62
    9
 10
699.34649122807059
 20
1475.6107285367532
 11
699.34649122807059
 21
1481.7107285387999
  0
LINE
  8
_0-0_計極細
  6
CENTER1
 62
    9
 10
803.09649122807059
 20
1585.8614479655998
 11
803.09649122807059
 21
1458.1844183438409
  0
LINE
  8
_0-0_計極細
  6
CONTINUOUS
 62
    9
 10
809.8464912280707
 20
1510.5107285394636
 11
809.8464912280707
 21
1516.5107285392639
  0
LINE
  8
_0-0_計極細
  6
CONTINUOUS
 62
    9
 10
809.8464912280707
 20
1527.9107285392647
 11
809.8464912280707
 21
1533.9107285414716
  0
LINE
  8
_0-0_計極細
  6
CONTINUOUS
 62
    9
 10
809.8464912280707
 20
1545.3107285414719
 11
809.8464912280707
 21
1551.3107285389169
  0
LINE
  8
_0-0_計極細
  6
CONTINUOUS
 62
    9
 10
809.8464912280707
 20
1493.1107285388007
 11
809.8464912280707
 21
1499.110728539463
  0
LINE
  8
_0-0_計極細
  6
CONTINUOUS
 62
    9
 10
809.8464912280707
 20
1562.7107285389172
 11
809.8464912280707
 21
1568.8107285391311
  0
LINE
  8
_0-0_計極細
  6
CONTINUOUS
 62
    9
 10
809.8464912280707
 20
1475.6107285367532
 11
809.8464912280707
 21
1481.7107285387999
  0
LINE
  8
_0-0_計極細
  6
CONTINUOUS
 62
    9
 10
796.34649122807059
 20
1510.5107285394636
 11
796.34649122807059
 21
1516.5107285392639
  0
LINE
  8
_0-0_計極細
  6
CONTINUOUS
 62
    9
 10
796.34649122807059
 20
1527.9107285392647
 11
796.34649122807059
 21
1533.9107285414716
  0
LINE
  8
_0-0_計極細
  6
CONTINUOUS
 62
    9
 10
796.34649122807059
 20
1545.3107285414719
 11
796.34649122807059
 21
1551.3107285389169
  0
LINE
  8
_0-0_計極細
  6
CONTINUOUS
 62
    9
 10
796.34649122807059
 20
1493.1107285388007
 11
796.34649122807059
 21
1499.110728539463
  0
LINE
  8
_0-0_計極細
  6
CONTINUOUS
 62
    9
 10
796.34649122807059
 20
1562.7107285389172
 11
796.34649122807059
 21
1568.8107285391311
  0
LINE
  8
_0-0_計極細
  6
CONTINUOUS
 62
    9
 10
796.34649122807059
 20
1475.6107285367532
 11
796.34649122807059
 21
1481.7107285387999
  0
LINE
  8
_0-0_計極細
  6
CENTER1
 62
    9
 10
900.09649122807059
 20
1585.8614479655998
 11
900.09649122807059
 21
1458.1844183438409
  0
LINE
  8
_0-0_計極細
  6
CONTINUOUS
 62
    9
 10
906.84649122807059
 20
1510.5107285394636
 11
906.84649122807059
 21
1516.5107285392639
  0
LINE
  8
_0-0_計極細
  6
CONTINUOUS
 62
    9
 10
906.84649122807059
 20
1527.9107285392647
 11
906.84649122807059
 21
1533.9107285414716
  0
LINE
  8
_0-0_計極細
  6
CONTINUOUS
 62
    9
 10
906.84649122807059
 20
1545.3107285414719
 11
906.84649122807059
 21
1551.3107285389169
  0
LINE
  8
_0-0_計極細
  6
CONTINUOUS
 62
    9
 10
906.84649122807059
 20
1493.1107285388007
 11
906.84649122807059
 21
1499.110728539463
  0
LINE
  8
_0-0_計極細
  6
CONTINUOUS
 62
    9
 10
906.84649122807059
 20
1562.7107285389172
 11
906.84649122807059
 21
1568.8107285391311
  0
LINE
  8
_0-0_計極細
  6
CONTINUOUS
 62
    9
 10
906.84649122807059
 20
1475.6107285367532
 11
906.84649122807059
 21
1481.7107285387999
  0
LINE
  8
_0-0_計極細
  6
CONTINUOUS
 62
    9
 10
893.34649122807059
 20
1510.5107285394636
 11
893.34649122807059
 21
1516.5107285392639
  0
LINE
  8
_0-0_計極細
  6
CONTINUOUS
 62
    9
 10
893.34649122807059
 20
1527.9107285392647
 11
893.34649122807059
 21
1533.9107285414716
  0
LINE
  8
_0-0_計極細
  6
CONTINUOUS
 62
    9
 10
893.34649122807059
 20
1545.3107285414719
 11
893.34649122807059
 21
1551.3107285389169
  0
LINE
  8
_0-0_計極細
  6
CONTINUOUS
 62
    9
 10
893.34649122807059
 20
1493.1107285388007
 11
893.34649122807059
 21
1499.110728539463
  0
LINE
  8
_0-0_計極細
  6
CONTINUOUS
 62
    9
 10
893.34649122807059
 20
1562.7107285389172
 11
893.34649122807059
 21
1568.8107285391311
  0
LINE
  8
_0-0_計極細
  6
CONTINUOUS
 62
    9
 10
893.34649122807059
 20
1475.6107285367532
 11
893.34649122807059
 21
1481.7107285387999
  0
LINE
  8
_0-0_計極細
  6
CENTER1
 62
    9
 10
974.0964912280707
 20
1585.8614479655998
 11
974.0964912280707
 21
1458.1844183438409
  0
LINE
  8
_0-0_計極細
  6
CONTINUOUS
 62
    9
 10
980.84649122807059
 20
1510.5107285394636
 11
980.84649122807059
 21
1516.5107285392639
  0
LINE
  8
_0-0_計極細
  6
CONTINUOUS
 62
    9
 10
980.84649122807059
 20
1527.9107285392647
 11
980.84649122807059
 21
1533.9107285414716
  0
LINE
  8
_0-0_計極細
  6
CONTINUOUS
 62
    9
 10
980.84649122807059
 20
1545.3107285414719
 11
980.84649122807059
 21
1551.3107285389169
  0
LINE
  8
_0-0_計極細
  6
CONTINUOUS
 62
    9
 10
980.84649122807059
 20
1493.1107285388007
 11
980.84649122807059
 21
1499.110728539463
  0
LINE
  8
_0-0_計極細
  6
CONTINUOUS
 62
    9
 10
980.84649122807059
 20
1562.7107285389172
 11
980.84649122807059
 21
1568.8107285391311
  0
LINE
  8
_0-0_計極細
  6
CONTINUOUS
 62
    9
 10
980.84649122807059
 20
1475.6107285367532
 11
980.84649122807059
 21
1481.7107285387999
  0
LINE
  8
_0-0_計極細
  6
CONTINUOUS
 62
    9
 10
967.3464912280707
 20
1510.5107285394636
 11
967.3464912280707
 21
1516.5107285392639
  0
LINE
  8
_0-0_計極細
  6
CONTINUOUS
 62
    9
 10
967.3464912280707
 20
1527.9107285392647
 11
967.3464912280707
 21
1533.9107285414716
  0
LINE
  8
_0-0_計極細
  6
CONTINUOUS
 62
    9
 10
967.3464912280707
 20
1545.3107285414719
 11
967.3464912280707
 21
1551.3107285389169
  0
LINE
  8
_0-0_計極細
  6
CONTINUOUS
 62
    9
 10
967.3464912280707
 20
1493.1107285388007
 11
967.3464912280707
 21
1499.110728539463
  0
LINE
  8
_0-0_計極細
  6
CONTINUOUS
 62
    9
 10
967.3464912280707
 20
1562.7107285389172
 11
967.3464912280707
 21
1568.8107285391311
  0
LINE
  8
_0-0_計極細
  6
CONTINUOUS
 62
    9
 10
967.3464912280707
 20
1475.6107285367532
 11
967.3464912280707
 21
1481.7107285387999
  0
LINE
  8
_0-0_計極細
  6
CENTER1
 62
    9
 10
1071.0964912280706
 20
1585.8614479655998
 11
1071.0964912280706
 21
1458.1844183438409
  0
LINE
  8
_0-0_計極細
  6
CONTINUOUS
 62
    9
 10
1077.8464912280706
 20
1510.5107285394636
 11
1077.8464912280706
 21
1516.5107285392639
  0
LINE
  8
_0-0_計極細
  6
CONTINUOUS
 62
    9
 10
1077.8464912280706
 20
1527.9107285392647
 11
1077.8464912280706
 21
1533.9107285414716
  0
LINE
  8
_0-0_計極細
  6
CONTINUOUS
 62
    9
 10
1077.8464912280706
 20
1545.3107285414719
 11
1077.8464912280706
 21
1551.3107285389169
  0
LINE
  8
_0-0_計極細
  6
CONTINUOUS
 62
    9
 10
1077.8464912280706
 20
1493.1107285388007
 11
1077.8464912280706
 21
1499.110728539463
  0
LINE
  8
_0-0_計極細
  6
CONTINUOUS
 62
    9
 10
1077.8464912280706
 20
1562.7107285389172
 11
1077.8464912280706
 21
1568.8107285391311
  0
LINE
  8
_0-0_計極細
  6
CONTINUOUS
 62
    9
 10
1077.8464912280706
 20
1475.6107285367532
 11
1077.8464912280706
 21
1481.7107285387999
  0
LINE
  8
_0-0_計極細
  6
CONTINUOUS
 62
    9
 10
1064.3464912280706
 20
1510.5107285394636
 11
1064.3464912280706
 21
1516.5107285392639
  0
LINE
  8
_0-0_計極細
  6
CONTINUOUS
 62
    9
 10
1064.3464912280706
 20
1527.9107285392647
 11
1064.3464912280706
 21
1533.9107285414716
  0
LINE
  8
_0-0_計極細
  6
CONTINUOUS
 62
    9
 10
1064.3464912280706
 20
1545.3107285414719
 11
1064.3464912280706
 21
1551.3107285389169
  0
LINE
  8
_0-0_計極細
  6
CONTINUOUS
 62
    9
 10
1064.3464912280706
 20
1493.1107285388007
 11
1064.3464912280706
 21
1499.110728539463
  0
LINE
  8
_0-0_計極細
  6
CONTINUOUS
 62
    9
 10
1064.3464912280706
 20
1562.7107285389172
 11
1064.3464912280706
 21
1568.8107285391311
  0
LINE
  8
_0-0_計極細
  6
CONTINUOUS
 62
    9
 10
1064.3464912280706
 20
1475.6107285367532
 11
1064.3464912280706
 21
1481.7107285387999
  0
LINE
  8
_0-0_計極細
  6
CENTER1
 62
    9
 10
1168.0964912280706
 20
1585.8614479655998
 11
1168.0964912280706
 21
1458.1844183438409
  0
LINE
  8
_0-0_計極細
  6
CONTINUOUS
 62
    9
 10
1174.8464912280706
 20
1510.5107285394636
 11
1174.8464912280706
 21
1516.5107285392639
  0
LINE
  8
_0-0_計極細
  6
CONTINUOUS
 62
    9
 10
1174.8464912280706
 20
1527.9107285392647
 11
1174.8464912280706
 21
1533.9107285414716
  0
LINE
  8
_0-0_計極細
  6
CONTINUOUS
 62
    9
 10
1174.8464912280706
 20
1545.3107285414719
 11
1174.8464912280706
 21
1551.3107285389169
  0
LINE
  8
_0-0_計極細
  6
CONTINUOUS
 62
    9
 10
1174.8464912280706
 20
1493.1107285388007
 11
1174.8464912280706
 21
1499.110728539463
  0
LINE
  8
_0-0_計極細
  6
CONTINUOUS
 62
    9
 10
1174.8464912280706
 20
1562.7107285389172
 11
1174.8464912280706
 21
1568.8107285391311
  0
LINE
  8
_0-0_計極細
  6
CONTINUOUS
 62
    9
 10
1174.8464912280706
 20
1475.6107285367532
 11
1174.8464912280706
 21
1481.7107285387999
  0
LINE
  8
_0-0_計極細
  6
CONTINUOUS
 62
    9
 10
1161.3464912280706
 20
1510.5107285394636
 11
1161.3464912280706
 21
1516.5107285392639
  0
LINE
  8
_0-0_計極細
  6
CONTINUOUS
 62
    9
 10
1161.3464912280706
 20
1527.9107285392647
 11
1161.3464912280706
 21
1533.9107285414716
  0
LINE
  8
_0-0_計極細
  6
CONTINUOUS
 62
    9
 10
1161.3464912280706
 20
1545.3107285414719
 11
1161.3464912280706
 21
1551.3107285389169
  0
LINE
  8
_0-0_計極細
  6
CONTINUOUS
 62
    9
 10
1161.3464912280706
 20
1493.1107285388007
 11
1161.3464912280706
 21
1499.110728539463
  0
LINE
  8
_0-0_計極細
  6
CONTINUOUS
 62
    9
 10
1161.3464912280706
 20
1562.7107285389172
 11
1161.3464912280706
 21
1568.8107285391311
  0
LINE
  8
_0-0_計極細
  6
CONTINUOUS
 62
    9
 10
1161.3464912280706
 20
1475.6107285367532
 11
1161.3464912280706
 21
1481.7107285387999
  0
LINE
  8
_0-0_計極細
  6
CENTER1
 62
    9
 10
1265.0964912280706
 20
1585.8614479655998
 11
1265.0964912280706
 21
1459.7107285411375
  0
LINE
  8
_0-5_寸法線
  6
CONTINUOUS
 62
    7
 10
221.59649122807082
 20
1594.2107285393038
 11
221.59649122807082
 21
1450.2107285393038
  0
TEXT
  8
_0-5_寸法線
 62
    7
 10
221.59649122807082
 20
1499.710728539304
 40
30
 41
1
 50
90
  1
144
  0
LINE
  8
_0-5_寸法線
  6
CONTINUOUS
 62
    7
 10
371.59649122807082
 20
1594.2107285393038
 11
211.59649122807082
 21
1594.2107285393038
  0
LINE
  8
_0-5_寸法線
  6
CONTINUOUS
 62
    7
 10
371.59649122807082
 20
1450.2107285393038
 11
211.59649122807082
 21
1450.2107285393038
  0
POINT
  8
_0-5_寸法線
 62
    7
 10
221.59649122807082
 20
1594.2107285393038
  0
POINT
  8
_0-5_寸法線
 62
    7
 10
221.59649122807082
 20
1450.2107285393038
  0
LINE
  8
_0-5_寸法線
  6
CONTINUOUS
 62
    7
 10
291.59649122807082
 20
1645.3846716734631
 11
291.59649122807082
 21
1582.210728539304
  0
TEXT
  8
_0-5_寸法線
 62
    7
 10
291.59649122807082
 20
1615.3846716734631
 40
30
 41
1
 50
90
  1
12
  0
LINE
  8
_0-5_寸法線
  6
CONTINUOUS
 62
    7
 10
1485
 20
1050
 11
1485
 21
1050
  0
LINE
  8
_0-5_寸法線
  6
CONTINUOUS
 62
    7
 10
371.59649122807082
 20
1582.210728539304
 11
281.59649122807082
 21
1582.210728539304
  0
POINT
  8
_0-5_寸法線
 62
    7
 10
291.59649122807082
 20
1594.2107285393038
  0
POINT
  8
_0-5_寸法線
 62
    7
 10
0
 20
0
  0
LINE
  8
_0-5_寸法線
  6
CONTINUOUS
 62
    7
 10
291.59649122807082
 20
1582.210728539304
 11
291.59649122807082
 21
1462.210728539304
  0
TEXT
  8
_0-5_寸法線
 62
    7
 10
291.59649122807082
 20
1499.710728539304
 40
30
 41
1
 50
90
  1
120
  0
LINE
  8
_0-5_寸法線
  6
CONTINUOUS
 62
    7
 10
1485
 20
1050
 11
1485
 21
1050
  0
LINE
  8
_0-5_寸法線
  6
CONTINUOUS
 62
    7
 10
371.59649122807082
 20
1462.210728539304
 11
281.59649122807082
 21
1462.210728539304
  0
POINT
  8
_0-5_寸法線
 62
    7
 10
291.59649122807082
 20
1582.210728539304
  0
POINT
  8
_0-5_寸法線
 62
    7
 10
291.59649122807082
 20
1462.210728539304
  0
LINE
  8
_0-5_寸法線
  6
CONTINUOUS
 62
    7
 10
291.59649122807082
 20
1462.210728539304
 11
291.59649122807093
 21
1395.9588299773156
  0
TEXT
  8
_0-5_寸法線
 62
    7
 10
291.59649122807082
 20
1395.9588299773156
 40
30
 41
1
 50
90
  1
12
  0
LINE
  8
_0-5_寸法線
  6
CONTINUOUS
 62
    7
 10
1485
 20
1050
 11
1485
 21
1050
  0
LINE
  8
_0-5_寸法線
  6
CONTINUOUS
 62
    7
 10
1485
 20
1050
 11
1485
 21
1050
  0
POINT
  8
_0-5_寸法線
 62
    7
 10
0
 20
0
  0
POINT
  8
_0-5_寸法線
 62
    7
 10
291.59649122807082
 20
1450.2107285393038
  0
LINE
  8
_0-5_寸法線
  6
CONTINUOUS
 62
    7
 10
391.59649122807082
 20
1834.2107285393038
 11
1385.5964912280715
 21
1834.2107285393038
  0
TEXT
  8
_0-5_寸法線
 62
    7
 10
873.59649122807116
 20
1834.2107285393038
 40
30
 41
1
 50
0
  1
Ｌ
  0
LINE
  8
_0-5_寸法線
  6
CONTINUOUS
 62
    7
 10
391.59649122807082
 20
1614.2107285393038
 11
391.59649122807082
 21
1844.2107285393038
  0
LINE
  8
_0-5_寸法線
  6
CONTINUOUS
 62
    7
 10
1385.5964912280706
 20
1614.2107285393038
 11
1385.5964912280715
 21
1844.2107285393038
  0
POINT
  8
_0-5_寸法線
 62
    7
 10
391.59649122807082
 20
1834.2107285393038
  0
POINT
  8
_0-5_寸法線
 62
    7
 10
1385.5964912280715
 20
1834.2107285393038
  0
LINE
  8
_0-5_寸法線
  6
CONTINUOUS
 62
    7
 10
335.71472629929048
 20
1764.2107285393038
 11
403.59649122807127
 21
1764.2107285393038
  0
TEXT
  8
_0-5_寸法線
 62
    7
 10
335.71472629929076
 20
1764.2107285393038
 40
30
 41
1
 50
0
  1
12
  0
LINE
  8
_0-5_寸法線
  6
CONTINUOUS
 62
    7
 10
1485
 20
1050
 11
1485
 21
1050
  0
LINE
  8
_0-5_寸法線
  6
CONTINUOUS
 62
    7
 10
403.5964912280707
 20
1614.2107285393038
 11
403.59649122807127
 21
1774.2107285393038
  0
POINT
  8
_0-5_寸法線
 62
    7
 10
391.59649122807082
 20
1764.2107285393038
  0
POINT
  8
_0-5_寸法線
 62
    7
 10
0
 20
0
  0
LINE
  8
_0-5_寸法線
  6
CONTINUOUS
 62
    7
 10
403.59649122807127
 20
1764.2107285393038
 11
1373.5964912280713
 21
1764.2107285393038
  0
TEXT
  8
_0-5_寸法線
 62
    7
 10
873.59649122807127
 20
1764.2107285393038
 40
30
 41
1
 50
0
  1
Ａ
  0
LINE
  8
_0-5_寸法線
  6
CONTINUOUS
 62
    7
 10
1485
 20
1050
 11
1485
 21
1050
  0
LINE
  8
_0-5_寸法線
  6
CONTINUOUS
 62
    7
 10
1373.5964912280706
 20
1614.2107285393038
 11
1373.5964912280713
 21
1774.2107285393038
  0
POINT
  8
_0-5_寸法線
 62
    7
 10
403.59649122807127
 20
1764.2107285393038
  0
POINT
  8
_0-5_寸法線
 62
    7
 10
1373.5964912280713
 20
1764.2107285393038
  0
LINE
  8
_0-5_寸法線
  6
CONTINUOUS
 62
    7
 10
1373.5964912280713
 20
1764.2107285393038
 11
1443.1134580394832
 21
1764.2107285393038
  0
TEXT
  8
_0-5_寸法線
 62
    7
 10
1413.1134580394832
 20
1764.2107285393038
 40
30
 41
1
 50
0
  1
12
  0
LINE
  8
_0-5_寸法線
  6
CONTINUOUS
 62
    7
 10
1485
 20
1050
 11
1485
 21
1050
  0
LINE
  8
_0-5_寸法線
  6
CONTINUOUS
 62
    7
 10
1485
 20
1050
 11
1485
 21
1050
  0
POINT
  8
_0-5_寸法線
 62
    7
 10
0
 20
0
  0
POINT
  8
_0-5_寸法線
 62
    7
 10
1385.5964912280715
 20
1764.2107285393038
  0
LINE
  8
_0-5_寸法線
  6
CONTINUOUS
 62
    7
 10
405.096491228074
 20
1694.2107285393038
 11
1372.0964912280713
 21
1694.2107285393038
  0
TEXT
  8
_0-5_寸法線
 62
    7
 10
873.59649122807252
 20
1694.2107285393038
 40
30
 41
1
 50
0
  1
Ｂ
  0
LINE
  8
_0-5_寸法線
  6
CONTINUOUS
 62
    7
 10
405.09649122807343
 20
1614.2107285393038
 11
405.09649122807417
 21
1704.2107285393038
  0
LINE
  8
_0-5_寸法線
  6
CONTINUOUS
 62
    7
 10
1372.096491228071
 20
1614.2107285393038
 11
1372.0964912280713
 21
1704.2107285393038
  0
POINT
  8
_0-5_寸法線
 62
    7
 10
405.096491228074
 20
1694.2107285393038
  0
POINT
  8
_0-5_寸法線
 62
    7
 10
1372.0964912280713
 20
1694.2107285393038
  0
LINE
  8
_0-5_寸法線
  6
CONTINUOUS
 62
    7
 10
1488.5964912280706
 20
1764.2107285393038
 11
1611.5964912280708
 21
1764.2107285393038
  0
TEXT
  8
_0-5_寸法線
 62
    7
 10
1527.5964912280708
 20
1764.2107285393031
 40
30
 41
1
 50
0
  1
123
  0
LINE
  8
_0-5_寸法線
  6
CONTINUOUS
 62
    7
 10
1488.5964912280706
 20
1614.2107285393035
 11
1488.5964912280706
 21
1774.2107285393038
  0
LINE
  8
_0-5_寸法線
  6
CONTINUOUS
 62
    7
 10
1611.5964912280708
 20
1604.4107285393036
 11
1611.5964912280708
 21
1774.2107285393038
  0
POINT
  8
_0-5_寸法線
 62
    7
 10
1488.5964912280706
 20
1764.2107285393038
  0
POINT
  8
_0-5_寸法線
 62
    7
 10
1611.5964912280708
 20
1764.2107285393038
  0
LINE
  8
_0-5_寸法線
  6
CONTINUOUS
 62
    7
 10
1488.5964912280706
 20
1694.2107285393038
 11
1588.5964912280706
 21
1694.2107285393038
  0
TEXT
  8
_0-5_寸法線
 62
    7
 10
1516.0964912280706
 20
1694.2107285393038
 40
30
 41
1
 50
0
  1
100
  0
LINE
  8
_0-5_寸法線
  6
CONTINUOUS
 62
    7
 10
1488.5964912280706
 20
1614.2107285393035
 11
1488.5964912280706
 21
1704.2107285393038
  0
LINE
  8
_0-5_寸法線
  6
CONTINUOUS
 62
    7
 10
1588.5964912280706
 20
1604.4107285393036
 11
1588.5964912280706
 21
1704.2107285393038
  0
POINT
  8
_0-5_寸法線
 62
    7
 10
1488.5964912280706
 20
1694.2107285393038
  0
POINT
  8
_0-5_寸法線
 62
    7
 10
1588.5964912280706
 20
1694.2107285393038
  0
LINE
  8
_0-5_寸法線
  6
CONTINUOUS
 62
    7
 10
1588.5964912280706
 20
1694.2107285393038
 11
1668.7129683598855
 21
1694.2107285393038
  0
TEXT
  8
_0-5_寸法線
 62
    7
 10
1638.7129683598855
 20
1694.2107285393038
 40
30
 41
1
 50
0
  1
23
  0
LINE
  8
_0-5_寸法線
  6
CONTINUOUS
 62
    7
 10
1485
 20
1050
 11
1485
 21
1050
  0
LINE
  8
_0-5_寸法線
  6
CONTINUOUS
 62
    7
 10
1611.5964912280708
 20
1604.4107285393036
 11
1611.5964912280708
 21
1704.2107285393038
  0
POINT
  8
_0-5_寸法線
 62
    7
 10
0
 20
0
  0
POINT
  8
_0-5_寸法線
 62
    7
 10
1611.5964912280708
 20
1694.2107285393038
  0
LINE
  8
_0-5_寸法線
  6
CONTINUOUS
 62
    7
 10
391.59649122806968
 20
1350.2107285393038
 11
1305.5964912280692
 21
1350.2107285393038
  0
TEXT
  8
_0-5_寸法線
 62
    7
 10
833.59649122806923
 20
1350.2107285393038
 40
30
 41
1
 50
0
  1
Ｃ
  0
LINE
  8
_0-5_寸法線
  6
CONTINUOUS
 62
    7
 10
391.59649122807053
 20
1430.2107285393038
 11
391.59649122806968
 21
1340.2107285393038
  0
LINE
  8
_0-5_寸法線
  6
CONTINUOUS
 62
    7
 10
1305.5964912280704
 20
1430.2107285393038
 11
1305.5964912280692
 21
1340.2107285393038
  0
POINT
  8
_0-5_寸法線
 62
    7
 10
391.59649122806968
 20
1350.2107285393038
  0
POINT
  8
_0-5_寸法線
 62
    7
 10
1305.5964912280692
 20
1350.2107285393038
  0
LINE
  8
_0-5_寸法線
  6
CONTINUOUS
 62
    7
 10
1305.5964912280692
 20
1350.2107285393038
 11
1385.5964912280695
 21
1350.2107285393038
  0
TEXT
  8
_0-5_寸法線
 62
    7
 10
1330.5964912280697
 20
1350.2107285393038
 40
30
 41
1
 50
0
  1
80
  0
LINE
  8
_0-5_寸法線
  6
CONTINUOUS
 62
    7
 10
1485
 20
1050
 11
1485
 21
1050
  0
LINE
  8
_0-5_寸法線
  6
CONTINUOUS
 62
    7
 10
1385.5964912280704
 20
1430.2107285393038
 11
1385.5964912280695
 21
1340.2107285393038
  0
POINT
  8
_0-5_寸法線
 62
    7
 10
1305.5964912280692
 20
1350.2107285393038
  0
POINT
  8
_0-5_寸法線
 62
    7
 10
1385.5964912280695
 20
1350.2107285393038
  0
LINE
  8
_0-1_計細線
  6
CONTINUOUS
 62
    9
 10
1305.5964912280706
 20
1080.2107285393038
 11
1230.5964909219192
 21
1080.2107285393038
  0
LINE
  8
_0-1_計細線
  6
CONTINUOUS
 62
    9
 10
391.59649122807082
 20
1172.2107285393038
 11
1305.5964912280706
 21
1172.2107285393038
  0
LINE
  8
_0-1_計細線
  6
CONTINUOUS
 62
    9
 10
1230.5964909219192
 20
1080.2107285393038
 11
896.62847060581782
 21
1088.2775889363957
  0
LINE
  8
_0-1_計細線
  6
CONTINUOUS
 62
    9
 10
880.82248007576436
 20
1088.6593761474071
 11
434.62847060581765
 21
1099.4370092303768
  0
LINE
  8
_0-1_計細線
  6
CONTINUOUS
 62
    9
 10
420.82248007576436
 20
1111.6310183941621
 11
418.82248007576436
 21
1109.6310183941621
  0
LINE
  8
_0-1_計細線
  6
CONTINUOUS
 62
    9
 10
418.82248007576436
 20
1099.6310183941621
 11
418.82248007576436
 21
1109.6310183941621
  0
LINE
  8
_0-1_計細線
  6
CONTINUOUS
 62
    9
 10
434.82247976960309
 20
1099.6310183941621
 11
434.82247976960309
 21
1109.6310183941621
  0
LINE
  8
_0-1_計細線
  6
CONTINUOUS
 62
    9
 10
420.82248007576436
 20
1095.6310183941623
 11
418.82248007576436
 21
1093.6310183941621
  0
LINE
  8
_0-1_計細線
  6
CONTINUOUS
 62
    9
 10
420.82248007576436
 20
1097.6310183941621
 11
420.82248007576436
 21
1095.6310183941623
  0
LINE
  8
_0-1_計細線
  6
CONTINUOUS
 62
    9
 10
418.82248007576436
 20
1099.6310183941621
 11
420.82248007576436
 21
1097.6310183941621
  0
LINE
  8
_0-1_計細線
  6
CONTINUOUS
 62
    9
 10
432.82247976960292
 20
1095.6310183941623
 11
434.82247976960309
 21
1093.6310183941621
  0
LINE
  8
_0-1_計細線
  6
CONTINUOUS
 62
    9
 10
432.82247976960292
 20
1097.6310183941621
 11
432.82247976960292
 21
1095.6310183941623
  0
LINE
  8
_0-1_計細線
  6
CONTINUOUS
 62
    9
 10
434.82247976960309
 20
1099.6310183941621
 11
432.82247976960292
 21
1097.6310183941621
  0
LINE
  8
_0-1_計細線
  6
CONTINUOUS
 62
    9
 10
418.82248007576436
 20
1093.6310183941621
 11
418.82248007576436
 21
1079.6310183941619
  0
ARC
  8
_0-1_計細線
  6
CONTINUOUS
 62
    9
 10
421.82248007576447
 20
1079.6310183941619
 40
3.0000000000000004
 50
179.99999999999983
 51
269.99999999999977
  0
LINE
  8
_0-1_計細線
  6
CONTINUOUS
 62
    9
 10
421.82248007576447
 20
1076.6310183941619
 11
431.82247976960298
 21
1076.6310183941619
  0
LINE
  8
_0-1_計細線
  6
CONTINUOUS
 62
    9
 10
434.82247976960309
 20
1093.6310183941621
 11
434.82247976960309
 21
1079.6310183941619
  0
ARC
  8
_0-1_計細線
  6
CONTINUOUS
 62
    9
 10
431.82247976960298
 20
1079.6310183941619
 40
3.0000000000000004
 50
269.99999999999977
 51
359.99999999999966
  0
LINE
  8
_0-1_計細線
  6
CONTINUOUS
 62
    9
 10
420.82248007576436
 20
1111.6310183941621
 11
432.82247976960292
 21
1111.6310183941621
  0
LINE
  8
_0-1_計細線
  6
CONTINUOUS
 62
    9
 10
434.82247976960309
 20
1109.6310183941621
 11
432.82247976960292
 21
1111.6310183941621
  0
LINE
  8
_0-0_計極細
  6
CENTER1
 62
    9
 10
426.59649122807053
 20
1115.2817378204579
 11
426.59649122807053
 21
1073.085101826812
  0
LINE
  8
_0-1_計細線
  6
CONTINUOUS
 62
    9
 10
882.82248007576436
 20
1100.4715981001807
 11
880.82248007576436
 21
1098.4715981001807
  0
LINE
  8
_0-1_計細線
  6
CONTINUOUS
 62
    9
 10
880.82248007576436
 20
1088.4715981001807
 11
880.82248007576436
 21
1098.4715981001807
  0
LINE
  8
_0-1_計細線
  6
CONTINUOUS
 62
    9
 10
896.82247976960298
 20
1088.4715981001807
 11
896.82247976960298
 21
1098.4715981001807
  0
LINE
  8
_0-1_計細線
  6
CONTINUOUS
 62
    9
 10
882.82248007576436
 20
1084.4715981001807
 11
880.82248007576436
 21
1082.4715981001807
  0
LINE
  8
_0-1_計細線
  6
CONTINUOUS
 62
    9
 10
882.82248007576436
 20
1086.4715981001809
 11
882.82248007576436
 21
1084.4715981001807
  0
LINE
  8
_0-1_計細線
  6
CONTINUOUS
 62
    9
 10
880.82248007576436
 20
1088.4715981001807
 11
882.82248007576436
 21
1086.4715981001809
  0
LINE
  8
_0-1_計細線
  6
CONTINUOUS
 62
    9
 10
894.82247976960309
 20
1084.4715981001807
 11
896.82247976960298
 21
1082.4715981001807
  0
LINE
  8
_0-1_計細線
  6
CONTINUOUS
 62
    9
 10
894.82247976960309
 20
1086.4715981001809
 11
894.82247976960309
 21
1084.4715981001807
  0
LINE
  8
_0-1_計細線
  6
CONTINUOUS
 62
    9
 10
896.82247976960298
 20
1088.4715981001807
 11
894.82247976960309
 21
1086.4715981001809
  0
LINE
  8
_0-1_計細線
  6
CONTINUOUS
 62
    9
 10
880.82248007576436
 20
1082.4715981001807
 11
880.82248007576436
 21
1068.4715981001807
  0
ARC
  8
_0-1_計細線
  6
CONTINUOUS
 62
    9
 10
883.82248007576436
 20
1068.4715981001807
 40
3.0000000000000004
 50
179.99999999999983
 51
269.99999999999977
  0
LINE
  8
_0-1_計細線
  6
CONTINUOUS
 62
    9
 10
883.82248007576436
 20
1065.4715981001807
 11
893.82247976960298
 21
1065.4715981001807
  0
LINE
  8
_0-1_計細線
  6
CONTINUOUS
 62
    9
 10
896.82247976960298
 20
1082.4715981001807
 11
896.82247976960298
 21
1068.4715981001807
  0
ARC
  8
_0-1_計細線
  6
CONTINUOUS
 62
    9
 10
893.82247976960298
 20
1068.4715981001807
 40
3.0000000000000004
 50
269.99999999999977
 51
359.99999999999966
  0
LINE
  8
_0-1_計細線
  6
CONTINUOUS
 62
    9
 10
882.82248007576436
 20
1100.4715981001807
 11
894.82247976960309
 21
1100.4715981001807
  0
LINE
  8
_0-1_計細線
  6
CONTINUOUS
 62
    9
 10
896.82247976960298
 20
1098.4715981001807
 11
894.82247976960309
 21
1100.4715981001807
  0
LINE
  8
_0-0_計極細
  6
CENTER1
 62
    9
 10
888.5964912280707
 20
1104.1223175264765
 11
888.5964912280707
 21
1061.9256815328308
  0
LINE
  8
_0-1_計細線
  6
CONTINUOUS
 62
    9
 10
1374.5964912280706
 20
1179.2107285393038
 11
1374.5964912280706
 21
1081.2107285393038
  0
ARC
  8
_0-1_計細線
  6
CONTINUOUS
 62
    9
 10
1374.5964912280706
 20
1179.2107285393038
 40
1
 50
89.999999999999915
 51
179.99999999999983
  0
LINE
  8
_0-1_計細線
  6
CONTINUOUS
 62
    9
 10
1384.5964912280706
 20
1180.2107285393038
 11
1374.5964912280706
 21
1180.2107285393038
  0
ARC
  8
_0-1_計細線
  6
CONTINUOUS
 62
    9
 10
1384.5964912280706
 20
1179.2107285393038
 40
1
 50
0
 51
89.999999999999915
  0
LINE
  8
_0-1_計細線
  6
CONTINUOUS
 62
    9
 10
1385.5964912280706
 20
1172.2107285393038
 11
1385.5964912280706
 21
1179.2107285393038
  0
LINE
  8
_0-1_計細線
  6
CONTINUOUS
 62
    9
 10
1384.5964912280706
 20
1172.2107285393038
 11
1385.5964912280706
 21
1172.2107285393038
  0
LINE
  8
_0-1_計細線
  6
CONTINUOUS
 62
    9
 10
1384.5964912280706
 20
1179.2107285393038
 11
1374.5964912280706
 21
1179.2107285393038
  0
LINE
  8
_0-1_計細線
  6
CONTINUOUS
 62
    9
 10
1384.5964912280706
 20
1172.2107285393038
 11
1384.5964912280706
 21
1179.2107285393038
  0
LINE
  8
_0-1_計細線
  6
CONTINUOUS
 62
    9
 10
1374.5964912280706
 20
1180.2107285393038
 11
392.59649122807076
 21
1180.2107285393038
  0
LINE
  8
_0-1_計細線
  6
CONTINUOUS
 62
    9
 10
391.59649122807082
 20
1172.2107285393038
 11
391.59649122807082
 21
1179.2107285393038
  0
ARC
  8
_0-1_計細線
  6
CONTINUOUS
 62
    9
 10
392.59649122807076
 20
1179.2107285393038
 40
1
 50
89.999999999999915
 51
179.99999999999983
  0
LINE
  8
_0-1_計細線
  6
CONTINUOUS
 62
    9
 10
418.82248007576436
 20
1099.8187964413885
 11
403.57234368203535
 21
1100.1871572239818
  0
LINE
  8
_0-1_計細線
  6
CONTINUOUS
 62
    9
 10
402.59649122807059
 20
1101.1868656294787
 11
402.59649122807059
 21
1172.2107285393038
  0
ARC
  8
_0-1_計細線
  6
CONTINUOUS
 62
    9
 10
403.5964912280707
 20
1101.1868656294787
 40
1
 50
179.99999999999983
 51
268.61631303213005
  0
LINE
  8
_0-0_計極細
  6
DASHED2
 62
    9
 10
1350.5964912280706
 20
1095.8614479655996
 11
1350.5964912280706
 21
1053.6648119719539
  0
LINE
  8
_0-1_計細線
  6
DASHED2
 62
    9
 10
1358.8224797696021
 20
1090.2107285393038
 11
1356.8224797696021
 21
1092.2107285393038
  0
LINE
  8
_0-1_計細線
  6
DASHED2
 62
    9
 10
1344.8224800757639
 20
1092.2107285393038
 11
1356.8224797696021
 21
1092.2107285393038
  0
ARC
  8
_0-1_計細線
  6
DASHED2
 62
    9
 10
1355.8224797696021
 20
1060.2107285393038
 40
3.0000000000000004
 50
269.99999999999977
 51
359.99999999999966
  0
LINE
  8
_0-1_計細線
  6
DASHED2
 62
    9
 10
1358.8224797696021
 20
1074.2107285393038
 11
1358.8224797696021
 21
1060.2107285393038
  0
LINE
  8
_0-1_計細線
  6
DASHED2
 62
    9
 10
1345.8224800757639
 20
1057.2107285393038
 11
1355.8224797696021
 21
1057.2107285393038
  0
ARC
  8
_0-1_計細線
  6
DASHED2
 62
    9
 10
1345.8224800757639
 20
1060.2107285393038
 40
3.0000000000000004
 50
179.99999999999983
 51
269.99999999999977
  0
LINE
  8
_0-1_計細線
  6
DASHED2
 62
    9
 10
1342.8224800757639
 20
1074.2107285393038
 11
1342.8224800757639
 21
1060.2107285393038
  0
LINE
  8
_0-1_計細線
  6
DASHED2
 62
    9
 10
1358.8224797696021
 20
1080.2107285393038
 11
1356.8224797696021
 21
1078.210728539304
  0
LINE
  8
_0-1_計細線
  6
DASHED2
 62
    9
 10
1356.8224797696021
 20
1078.210728539304
 11
1356.8224797696021
 21
1076.2107285393038
  0
LINE
  8
_0-1_計細線
  6
DASHED2
 62
    9
 10
1356.8224797696021
 20
1076.2107285393038
 11
1358.8224797696021
 21
1074.2107285393038
  0
LINE
  8
_0-1_計細線
  6
DASHED2
 62
    9
 10
1342.8224800757639
 20
1080.2107285393038
 11
1344.8224800757639
 21
1078.210728539304
  0
LINE
  8
_0-1_計細線
  6
DASHED2
 62
    9
 10
1344.8224800757639
 20
1078.210728539304
 11
1344.8224800757639
 21
1076.2107285393038
  0
LINE
  8
_0-1_計細線
  6
DASHED2
 62
    9
 10
1344.8224800757639
 20
1076.2107285393038
 11
1342.8224800757639
 21
1074.2107285393038
  0
LINE
  8
_0-1_計細線
  6
DASHED2
 62
    9
 10
1358.8224797696021
 20
1080.2107285393038
 11
1358.8224797696021
 21
1090.2107285393038
  0
LINE
  8
_0-1_計細線
  6
DASHED2
 62
    9
 10
1342.8224800757639
 20
1080.2107285393038
 11
1342.8224800757639
 21
1090.2107285393038
  0
LINE
  8
_0-1_計細線
  6
DASHED2
 62
    9
 10
1344.8224800757639
 20
1092.2107285393038
 11
1342.8224800757639
 21
1090.2107285393038
  0
LINE
  8
_0-1_計細線
  6
CONTINUOUS
 62
    9
 10
1305.5964912280706
 20
1160.2107285393038
 11
1372.0964912280706
 21
1160.2107285393038
  0
LINE
  8
_0-1_計細線
  6
CONTINUOUS
 62
    9
 10
1305.5964912280706
 20
1176.3107285393041
 11
1372.0964912280706
 21
1176.3107285393041
  0
LINE
  8
_0-1_計細線
  6
CONTINUOUS
 62
    9
 10
1372.0964912280706
 20
1180.2107285393038
 11
1372.0964912280706
 21
1160.2107285393038
  0
LINE
  8
_0-0_計極細
  6
CONTINUOUS
 62
    9
 10
1305.5964912280706
 20
1179.1107285393039
 11
1372.0964912280706
 21
1179.1107285393039
  0
ARC
  8
_0-1_計細線
  6
CONTINUOUS
 62
    9
 10
1364.5964912280704
 20
1079.7107285393038
 40
1.5000000000000002
 50
89.999999999999915
 51
179.99999999999983
  0
LINE
  8
_0-1_計細線
  6
CONTINUOUS
 62
    9
 10
1363.0964912280704
 20
1079.7107285393038
 11
1363.0964912280704
 21
1077.7107285393038
  0
ARC
  8
_0-1_計細線
  6
CONTINUOUS
 62
    9
 10
1362.5964912280706
 20
1077.7107285393038
 40
1.5000000000000002
 50
269.99999999999977
 51
359.99999999999966
  0
LINE
  8
_0-1_計細線
  6
CONTINUOUS
 62
    9
 10
1364.0964912280706
 20
1079.7107285393038
 11
1364.0964912280706
 21
1077.7107285393038
  0
LINE
  8
_0-1_計細線
  6
CONTINUOUS
 62
    9
 10
1362.5964912280706
 20
1076.2107285393038
 11
1356.5964912280706
 21
1076.2107285393038
  0
ARC
  8
_0-1_計細線
  6
CONTINUOUS
 62
    9
 10
1364.5964912280704
 20
1079.7107285393038
 40
0.5
 50
89.999999999999915
 51
179.99999999999983
  0
ARC
  8
_0-1_計細線
  6
CONTINUOUS
 62
    9
 10
1362.5964912280706
 20
1077.7107285393038
 40
0.5
 50
269.99999999999977
 51
359.99999999999966
  0
LINE
  8
_0-1_計細線
  6
CONTINUOUS
 62
    9
 10
1362.5964912280706
 20
1077.2107285393038
 11
1356.5964912280706
 21
1077.2107285393038
  0
LINE
  8
_0-1_計細線
  6
CONTINUOUS
 62
    9
 10
1356.5964912280706
 20
1077.2107285393038
 11
1356.5964912280706
 21
1076.2107285393038
  0
LINE
  8
_0-1_計細線
  6
CONTINUOUS
 62
    9
 10
1373.5964912280706
 20
1080.2107285393038
 11
1364.5964912280704
 21
1080.2107285393038
  0
ARC
  8
_0-1_計細線
  6
CONTINUOUS
 62
    9
 10
1373.5964912280706
 20
1081.2107285393038
 40
1
 50
269.99999999999977
 51
359.99999999999966
  0
LINE
  8
_0-1_計細線
  6
CONTINUOUS
 62
    9
 10
1373.5964912280706
 20
1081.2107285393038
 11
1364.5964912280704
 21
1081.2107285393038
  0
LINE
  8
_0-1_計細線
  6
CONTINUOUS
 62
    9
 10
1373.5964912280706
 20
1179.2107285393038
 11
1373.5964912280706
 21
1081.2107285393038
  0
LINE
  8
_0-5_寸法線
  6
CONTINUOUS
 62
    7
 10
426.59649122807053
 20
1076.6310183941619
 11
436.58627813122212
 21
1059.3046177976842
  0
LINE
  8
_0-5_寸法線
  6
CONTINUOUS
 62
    7
 10
426.59649122807053
 20
1076.6310183941619
 11
426.58470016635408
 21
1056.6310218698909
  0
LINE
  8
_0-5_寸法線
  6
CONTINUOUS
 62
    7
 10
426.59649122807053
 20
1076.6310183941619
 11
439.73704453274377
 21
1027.4739011903462
  0
LINE
  8
_0-5_寸法線
  6
CONTINUOUS
 62
    7
 10
439.73704453274377
 20
1027.4739011903462
 11
535.73704453274388
 21
1027.4739011903462
  0
TEXT
  8
_0-5_寸法線
 62
    7
 10
439.73704453274377
 20
1027.4739011903462
 40
30
 41
0.8000000000000001
 50
0
  1
アンカー
  0
LINE
  8
_0-0_計極細
  6
CENTER1
 62
    9
 10
1305.5964912280706
 20
1607.3040467531234
 11
1305.5964912280706
 21
918.15582726245168
  0
LINE
  8
_0-5_寸法線
  6
CONTINUOUS
 62
    7
 10
291.59649122807082
 20
1100.2107285393038
 11
291.59649122807082
 21
1180.2107285393038
  0
TEXT
  8
_0-5_寸法線
 62
    7
 10
291.59649122807082
 20
1125.2107285393038
 40
30
 41
1
 50
90
  1
80
  0
LINE
  8
_0-5_寸法線
  6
CONTINUOUS
 62
    7
 10
382.59649122807059
 20
1100.2107285393038
 11
281.59649122807082
 21
1100.2107285393038
  0
LINE
  8
_0-5_寸法線
  6
CONTINUOUS
 62
    7
 10
371.59649122807082
 20
1180.2107285393038
 11
281.59649122807082
 21
1180.2107285393038
  0
POINT
  8
_0-5_寸法線
 62
    7
 10
291.59649122807082
 20
1100.2107285393038
  0
POINT
  8
_0-5_寸法線
 62
    7
 10
291.59649122807082
 20
1180.2107285393038
  0
LINE
  8
_0-5_寸法線
  6
CONTINUOUS
 62
    7
 10
486.99590804408615
 20
1487.0330984314726
 11
496.99590803996261
 21
1469.7125903534034
  0
LINE
  8
_0-5_寸法線
  6
CONTINUOUS
 62
    7
 10
486.99590804408615
 20
1487.0330984314726
 11
486.99590803932466
 21
1467.0330984314726
  0
LINE
  8
_0-5_寸法線
  6
CONTINUOUS
 62
    7
 10
486.99590804408615
 20
1487.0330984314726
 11
512.49325033461696
 21
1391.8757214546204
  0
LINE
  8
_0-5_寸法線
  6
CONTINUOUS
 62
    7
 10
512.49325033461696
 20
1391.8757214546204
 11
800.4932503346173
 21
1391.8757214546204
  0
TEXT
  8
_0-5_寸法線
 62
    7
 10
512.49325033461696
 20
1391.8757214546204
 40
30
 41
0.8000000000000001
 50
0
  1
屋内外用樹脂グレーチング
  0
LINE
  8
_0-5_寸法線
  6
CONTINUOUS
 62
    7
 10
862.76220257900491
 20
1457.4927627523869
 11
872.76220258357796
 21
1440.1722546793383
  0
LINE
  8
_0-5_寸法線
  6
CONTINUOUS
 62
    7
 10
862.76220257900491
 20
1457.4927627523869
 11
862.76220258428555
 21
1437.4927627523869
  0
LINE
  8
_0-5_寸法線
  6
CONTINUOUS
 62
    7
 10
862.76220257900491
 20
1457.4927627523869
 11
880.34423582302963
 21
1391.8757214546204
  0
LINE
  8
_0-5_寸法線
  6
CONTINUOUS
 62
    7
 10
880.34423582302963
 20
1391.8757214546204
 11
1024.3442358230295
 21
1391.8757214546204
  0
TEXT
  8
_0-5_寸法線
 62
    7
 10
880.34423582302963
 20
1391.8757214546204
 40
30
 41
0.8000000000000001
 50
0
  1
排水ユニット
  0
ARC
  8
_0-1_計細線
  6
CONTINUOUS
 62
    9
 10
1248.5964912280708
 20
1077.7107285393038
 40
1.5000000000000002
 50
179.99999999999983
 51
269.99999999999977
  0
LINE
  8
_0-1_計細線
  6
CONTINUOUS
 62
    9
 10
1247.096491228071
 20
1079.7107285393038
 11
1247.096491228071
 21
1077.7107285393038
  0
ARC
  8
_0-1_計細線
  6
CONTINUOUS
 62
    9
 10
1246.5964912280708
 20
1079.7107285393038
 40
0.5
 50
0
 51
89.999999999999915
  0
LINE
  8
_0-7_枠細線
  6
CONTINUOUS
 62
    9
 10
1801.7738468233374
 20
1746.2261792523225
 11
1801.7738468233374
 21
1496.2261792523234
  0
LINE
  8
_0-7_枠細線
  6
CONTINUOUS
 62
    9
 10
1801.7738468233374
 20
1746.2261792523225
 11
2439.2738468233342
 21
1746.2261792523225
  0
LINE
  8
_0-7_枠細線
  6
CONTINUOUS
 62
    9
 10
1801.7738468233374
 20
1696.2261792523225
 11
2439.2738468233342
 21
1696.2261792523225
  0
LINE
  8
_0-7_枠細線
  6
CONTINUOUS
 62
    9
 10
1801.7738468233374
 20
1646.2261792523225
 11
2439.2738468233342
 21
1646.2261792523225
  0
LINE
  8
_0-7_枠細線
  6
CONTINUOUS
 62
    9
 10
1801.7738468233374
 20
1596.2261792523234
 11
2439.2738468233342
 21
1596.2261792523234
  0
LINE
  8
_0-7_枠細線
  6
CONTINUOUS
 62
    9
 10
1801.7738468233374
 20
1546.2261792523234
 11
2439.2738468233342
 21
1546.2261792523234
  0
LINE
  8
_0-7_枠細線
  6
CONTINUOUS
 62
    9
 10
1801.7738468233374
 20
1496.2261792523234
 11
2439.2738468233342
 21
1496.2261792523234
  0
LINE
  8
_0-7_枠細線
  6
CONTINUOUS
 62
    9
 10
2039.2738468233374
 20
1746.2261792523225
 11
2039.2738468233374
 21
1496.2261792523234
  0
LINE
  8
_0-7_枠細線
  6
CONTINUOUS
 62
    9
 10
2139.273846823336
 20
1746.2261792523225
 11
2139.273846823336
 21
1496.2261792523234
  0
LINE
  8
_0-7_枠細線
  6
CONTINUOUS
 62
    9
 10
2239.2738468233342
 20
1746.2261792523225
 11
2239.2738468233342
 21
1496.2261792523234
  0
LINE
  8
_0-7_枠細線
  6
CONTINUOUS
 62
    9
 10
2339.2738468233329
 20
1746.2261792523225
 11
2339.2738468233329
 21
1496.2261792523234
  0
LINE
  8
_0-7_枠細線
  6
CONTINUOUS
 62
    9
 10
2439.273846823332
 20
1746.2261792523225
 11
2439.273846823332
 21
1496.2261792523234
  0
TEXT
  8
_0-7_枠細線
 62
    1
 10
2059.2738468233374
 20
1606.2261792523234
 40
30
 41
1
 50
0
  1
1194
  0
TEXT
  8
_0-7_枠細線
 62
    1
 10
2059.2738468233374
 20
1556.2261792523234
 40
30
 41
1
 50
0
  1
1494
  0
TEXT
  8
_0-7_枠細線
 62
    1
 10
2159.2738468233351
 20
1606.2261792523234
 40
30
 41
1
 50
0
  1
1170
  0
TEXT
  8
_0-7_枠細線
 62
    1
 10
2159.2738468233351
 20
1556.2261792523234
 40
30
 41
1
 50
0
  1
1470
  0
TEXT
  8
_0-7_枠細線
 62
    1
 10
2259.2738468233338
 20
1606.2261792523234
 40
30
 41
1
 50
0
  1
1167
  0
TEXT
  8
_0-7_枠細線
 62
    1
 10
2244.2738468233338
 20
1556.2261792523234
 40
30
 41
1
 50
0
  1
733×2
  0
TEXT
  8
_0-7_枠細線
 62
    1
 10
2359.273846823332
 20
1606.2261792523234
 40
30
 41
1
 50
0
  1
1114
  0
TEXT
  8
_0-7_枠細線
 62
    1
 10
2359.273846823332
 20
1556.2261792523234
 40
30
 41
1
 50
0
  1
1414
  0
TEXT
  8
_0-7_枠細線
 62
    1
 10
2059.2738468233374
 20
1506.2261792523234
 40
30
 41
1
 50
0
  1
1794
  0
TEXT
  8
_0-7_枠細線
 62
    1
 10
2159.2738468233351
 20
1506.2261792523234
 40
30
 41
1
 50
0
  1
1770
  0
TEXT
  8
_0-7_枠細線
 62
    1
 10
2244.2738468233338
 20
1506.2261792523234
 40
30
 41
1
 50
0
  1
883×2
  0
TEXT
  8
_0-7_枠細線
 62
    1
 10
2359.273846823332
 20
1506.2261792523234
 40
30
 41
1
 50
0
  1
1714
  0
TEXT
  8
_0-7_枠細線
 62
    1
 10
1860.5238468233374
 20
1706.2261792523225
 40
30
 41
1
 50
0
  1
品　　番
  0
TEXT
  8
_0-7_枠細線
 62
    1
 10
2066.7738468233365
 20
1656.2261792523225
 40
30
 41
1
 50
0
  1
994
  0
TEXT
  8
_0-7_枠細線
 62
    1
 10
2166.7738468233351
 20
1656.2261792523227
 40
30
 41
1
 50
0
  1
970
  0
TEXT
  8
_0-7_枠細線
 62
    1
 10
2266.7738468873349
 20
1656.2261792523225
 40
30
 41
1
 50
0
  1
967
  0
TEXT
  8
_0-7_枠細線
 62
    1
 10
2366.7738468233329
 20
1656.2261792523225
 40
30
 41
1
 50
0
  1
914
  0
TEXT
  8
_0-7_枠細線
 62
    1
 10
2381.7738468233329
 20
1706.2261792523225
 40
30
 41
1
 50
0
  1
C
  0
TEXT
  8
_0-7_枠細線
 62
    1
 10
2281.7738468233338
 20
1706.2261792523225
 40
30
 41
1
 50
0
  1
B
  0
TEXT
  8
_0-7_枠細線
 62
    1
 10
2181.773846823336
 20
1706.2261792523225
 40
30
 41
1
 50
0
  1
A
  0
TEXT
  8
_0-7_枠細線
 62
    1
 10
2081.7738468233374
 20
1706.2261792523225
 40
30
 41
1
 50
0
  1
L
  0
LINE
  8
_0-7_枠細線
  6
CONTINUOUS
 62
    9
 10
1801.7738468233374
 20
1402.4761792523234
 11
1801.7738468233374
 21
1152.4761792523241
  0
LINE
  8
_0-7_枠細線
  6
CONTINUOUS
 62
    9
 10
2039.2738468233374
 20
1402.4761792523234
 11
2039.2738468233374
 21
1152.4761792523241
  0
TEXT
  8
_0-7_枠細線
 62
    1
 10
1860.5238468233374
 20
1362.4761792523234
 40
30
 41
1
 50
0
  1
品　　番
  0
LINE
  8
_0-7_枠細線
  6
CONTINUOUS
 62
    9
 10
1801.7738468233374
 20
1152.4761792523241
 11
2539.2738468233297
 21
1152.4761792523241
  0
LINE
  8
_0-7_枠細線
  6
CONTINUOUS
 62
    9
 10
1801.7738468233374
 20
1202.4761792523241
 11
2539.2738468233297
 21
1202.4761792523241
  0
LINE
  8
_0-7_枠細線
  6
CONTINUOUS
 62
    9
 10
1801.7738468233374
 20
1252.4761792523241
 11
2539.2738468233297
 21
1252.4761792523241
  0
LINE
  8
_0-7_枠細線
  6
CONTINUOUS
 62
    9
 10
1801.7738468233374
 20
1302.4761792523234
 11
2539.2738468233297
 21
1302.4761792523234
  0
LINE
  8
_0-7_枠細線
  6
CONTINUOUS
 62
    9
 10
1801.7738468233374
 20
1352.4761792523234
 11
2539.2738468233297
 21
1352.4761792523234
  0
LINE
  8
_0-7_枠細線
  6
CONTINUOUS
 62
    9
 10
1801.7738468233374
 20
1402.4761792523234
 11
2539.2738468233297
 21
1402.4761792523234
  0
TEXT
  8
_0-7_枠細線
 62
    1
 10
1812.2071801566713
 20
1112.205543983529
 40
30
 41
1
 50
0
  1
※○に色記号を付記
  0
TEXT
  8
_0-7_枠細線
 62
    1
 10
1804.0502154068236
 20
1756.2261792523225
 40
35
 41
1
 50
0
  1
品番寸法表
  0
TEXT
  8
_0-7_枠細線
 62
    1
 10
1804.0502154068236
 20
1412.4761792523234
 40
35
 41
1
 50
0
  1
アンカー位置寸法表
  0
LINE
  8
_0-b_細線3
  6
CONTINUOUS
 62
    9
 10
2053.3764004408263
 20
486.63633123671889
 11
2453.3764004408258
 21
486.63633123671889
  0
LINE
  8
_0-b_細線3
  6
CONTINUOUS
 62
    9
 10
2456.7097337741593
 20
483.3029979033854
 11
2050.0430671074928
 21
483.3029979033854
  0
LINE
  8
_0-b_細線3
  6
CONTINUOUS
 62
    9
 10
2013.3764004408263
 20
789.96966457005237
 11
2013.3764004408263
 21
816.63633123671889
  0
LINE
  8
_0-b_細線3
  6
CONTINUOUS
 62
    9
 10
2013.3764004408263
 20
816.63633123671889
 11
2053.3764004408263
 21
816.63633123671889
  0
LINE
  8
_0-b_細線3
  6
CONTINUOUS
 62
    9
 10
2453.3764004408258
 20
816.63633123671889
 11
2493.3764004408258
 21
816.63633123671889
  0
LINE
  8
_0-b_細線3
  6
CONTINUOUS
 62
    9
 10
2493.3764004408258
 20
816.63633123671889
 11
2493.3764004408258
 21
789.96966457005237
  0
LINE
  8
_0-b_細線3
  6
CONTINUOUS
 62
    9
 10
2493.3764004408258
 20
789.96966457005237
 11
2490.0430671074923
 21
789.96966457005237
  0
LINE
  8
_0-b_細線3
  6
CONTINUOUS
 62
    9
 10
2490.0430671074923
 20
789.96966457005237
 11
2490.0430671074923
 21
813.3029979033854
  0
LINE
  8
_0-b_細線3
  6
CONTINUOUS
 62
    9
 10
2490.0430671074923
 20
813.3029979033854
 11
2456.7097337741593
 21
813.3029979033854
  0
LINE
  8
_0-b_細線3
  6
CONTINUOUS
 62
    9
 10
2050.0430671074928
 20
813.3029979033854
 11
2016.7097337741598
 21
813.3029979033854
  0
LINE
  8
_0-b_細線3
  6
CONTINUOUS
 62
    9
 10
2016.7097337741598
 20
813.3029979033854
 11
2016.7097337741598
 21
789.96966457005237
  0
LINE
  8
_0-b_細線3
  6
CONTINUOUS
 62
    9
 10
2016.7097337741598
 20
789.96966457005237
 11
2013.3764004408263
 21
789.96966457005237
  0
LINE
  8
_0-b_細線3
  6
CONTINUOUS
 62
    9
 10
2053.3764004408263
 20
816.63633123671889
 11
2053.3764004408263
 21
486.63633123671889
  0
LINE
  8
_0-b_細線3
  6
CONTINUOUS
 62
    9
 10
2453.3764004408258
 20
486.63633123671889
 11
2453.3764004408258
 21
816.63633123671889
  0
LINE
  8
_0-b_細線3
  6
CONTINUOUS
 62
    9
 10
2456.7097337741593
 20
813.3029979033854
 11
2456.7097337741593
 21
483.3029979033854
  0
LINE
  8
_0-b_細線3
  6
CONTINUOUS
 62
    9
 10
2050.0430671074928
 20
483.3029979033854
 11
2050.0430671074928
 21
813.3029979033854
  0
LINE
  8
_0-a_極細3
  6
CENTER1
 62
    9
 10
2253.3764004408263
 20
714.26467226581917
 11
2253.3764004408263
 21
841.16467226583177
  0
LINE
  8
_0-b_細線3
  6
CONTINUOUS
 62
    9
 10
2094.7097337693358
 20
739.96966457005169
 11
2083.3764004360023
 21
739.96966457005169
  0
LINE
  8
_0-b_細線3
  6
CONTINUOUS
 62
    9
 10
2118.3764004408254
 20
739.96966457005169
 11
2108.0430671038757
 21
739.96966457005169
  0
LINE
  8
_0-b_細線3
  6
CONTINUOUS
 62
    9
 10
2388.3764004408272
 20
739.96966457005169
 11
2398.7097337777768
 21
739.96966457005169
  0
LINE
  8
_0-b_細線3
  6
CONTINUOUS
 62
    9
 10
2120.0430671074923
 20
744.96966457005146
 11
2118.3764004408254
 21
746.63633123671855
  0
LINE
  8
_0-b_細線3
  6
CONTINUOUS
 62
    9
 10
2120.0430671074923
 20
741.63633123671775
 11
2120.0430671074923
 21
744.96966457005146
  0
LINE
  8
_0-b_細線3
  6
CONTINUOUS
 62
    9
 10
2118.3764004408254
 20
739.96966457005169
 11
2120.0430671074923
 21
741.63633123671775
  0
LINE
  8
_0-b_細線3
  6
CONTINUOUS
 62
    9
 10
2060.0430671074928
 20
739.96966457005169
 11
2118.3764004408254
 21
739.96966457005169
  0
LINE
  8
_0-b_細線3
  6
CONTINUOUS
 62
    9
 10
2055.0430671074919
 20
679.96966457005112
 11
2053.3764004408263
 21
681.63633123671798
  0
LINE
  8
_0-b_細線3
  6
CONTINUOUS
 62
    9
 10
2058.3764004408263
 20
679.96966457005112
 11
2055.0430671074919
 21
679.96966457005112
  0
LINE
  8
_0-b_細線3
  6
CONTINUOUS
 62
    9
 10
2060.0430671074928
 20
681.63633123671798
 11
2058.3764004408263
 21
679.96966457005112
  0
LINE
  8
_0-b_細線3
  6
CONTINUOUS
 62
    9
 10
2060.0430671074928
 20
739.96966457005169
 11
2060.0430671074928
 21
681.63633123671798
  0
LINE
  8
_0-b_細線3
  6
CONTINUOUS
 62
    9
 10
2053.3764004408263
 20
739.96966457005169
 11
2053.3764004408263
 21
681.63633123671798
  0
LINE
  8
_0-b_細線3
  6
CONTINUOUS
 62
    9
 10
2060.0430671074928
 20
746.63633123671855
 11
2118.3764004408254
 21
746.63633123671855
  0
ARC
  8
_0-b_細線3
  6
CONTINUOUS
 62
    9
 10
2060.0430671074928
 20
739.96966457005169
 40
6.6666666666666661
 50
89.999999999999915
 51
179.99999999999983
  0
LINE
  8
_0-b_細線3
  6
CONTINUOUS
 62
    9
 10
2386.7097337741602
 20
744.96966457005146
 11
2388.3764004408272
 21
746.63633123671855
  0
LINE
  8
_0-b_細線3
  6
CONTINUOUS
 62
    9
 10
2386.7097337741602
 20
741.63633123671775
 11
2386.7097337741602
 21
744.96966457005146
  0
LINE
  8
_0-b_細線3
  6
CONTINUOUS
 62
    9
 10
2388.3764004408272
 20
739.96966457005169
 11
2386.7097337741602
 21
741.63633123671775
  0
LINE
  8
_0-b_細線3
  6
CONTINUOUS
 62
    9
 10
2446.7097337741593
 20
739.96966457005169
 11
2388.3764004408272
 21
739.96966457005169
  0
LINE
  8
_0-b_細線3
  6
CONTINUOUS
 62
    9
 10
2451.7097337741602
 20
679.96966457005112
 11
2453.3764004408263
 21
681.63633123671798
  0
LINE
  8
_0-b_細線3
  6
CONTINUOUS
 62
    9
 10
2448.3764004408263
 20
679.96966457005112
 11
2451.7097337741602
 21
679.96966457005112
  0
LINE
  8
_0-b_細線3
  6
CONTINUOUS
 62
    9
 10
2446.7097337741593
 20
681.63633123671798
 11
2448.3764004408263
 21
679.96966457005112
  0
LINE
  8
_0-b_細線3
  6
CONTINUOUS
 62
    9
 10
2446.7097337741593
 20
739.96966457005169
 11
2446.7097337741593
 21
681.63633123671798
  0
LINE
  8
_0-b_細線3
  6
CONTINUOUS
 62
    9
 10
2446.7097337741593
 20
746.63633123671855
 11
2388.3764004408272
 21
746.63633123671855
  0
LINE
  8
_0-b_細線3
  6
CONTINUOUS
 62
    9
 10
2453.3764004408263
 20
739.96966457005169
 11
2453.3764004408263
 21
681.63633123671798
  0
ARC
  8
_0-b_細線3
  6
CONTINUOUS
 62
    9
 10
2446.7097337741593
 20
739.96966457005169
 40
6.6666666666666661
 50
0
 51
89.999999999999915
  0
LINE
  8
_0-d_寸法3
  6
CONTINUOUS
 62
    7
 10
2184.7199395066677
 20
804.2459422603356
 11
2184.7199395066677
 21
870.91260892700257
  0
TEXT
  8
_0-d_寸法3
 62
    7
 10
2184.7199395066677
 20
823.19712045304186
 40
30
 41
1
 50
90
  1
20
  0
LINE
  8
_0-d_寸法3
  6
CONTINUOUS
 62
    7
 10
2238.0555115496381
 20
759.49208343044904
 11
2177.059495075478
 21
810.67381835720107
  0
LINE
  8
_0-d_寸法3
  6
CONTINUOUS
 62
    7
 10
2238.0555115496381
 20
826.15875009711601
 11
2177.059495075478
 21
877.34048502386815
  0
POINT
  8
_0-d_寸法3
 62
    7
 10
2184.7199395066677
 20
804.2459422603356
  0
POINT
  8
_0-d_寸法3
 62
    7
 10
2184.7199395066677
 20
870.91260892700257
  0
LINE
  8
_0-d_寸法3
  6
CONTINUOUS
 62
    7
 10
2013.3764004408263
 20
1056.6363279000293
 11
2493.3764004408263
 21
1056.6363279000293
  0
TEXT
  8
_0-d_寸法3
 62
    7
 10
2230.8764004408272
 20
1056.6363279000293
 40
30
 41
1
 50
0
  1
144
  0
LINE
  8
_0-d_寸法3
  6
CONTINUOUS
 62
    7
 10
2013.3764004408263
 20
826.63633123671889
 11
2013.3764004408263
 21
1066.6363279000293
  0
LINE
  8
_0-d_寸法3
  6
CONTINUOUS
 62
    7
 10
2493.3764004408263
 20
826.63633123671889
 11
2493.3764004408263
 21
1066.6363279000293
  0
POINT
  8
_0-d_寸法3
 62
    7
 10
2013.3764004408263
 20
1056.6363279000293
  0
POINT
  8
_0-d_寸法3
 62
    7
 10
2493.3764004408263
 20
1056.6363279000293
  0
LINE
  8
_0-d_寸法3
  6
CONTINUOUS
 62
    7
 10
2013.3764004408263
 20
986.63632790002953
 11
2053.3764004408263
 21
986.63632790002953
  0
TEXT
  8
_0-d_寸法3
 62
    7
 10
2018.0722020326016
 20
986.63632790002953
 40
30
 41
1
 50
0
  1
12
  0
LINE
  8
_0-d_寸法3
  6
CONTINUOUS
 62
    7
 10
1485
 20
1050
 11
1485
 21
1050
  0
LINE
  8
_0-d_寸法3
  6
CONTINUOUS
 62
    7
 10
2053.3764004408263
 20
826.63633123671889
 11
2053.3764004408263
 21
996.63632790002953
  0
POINT
  8
_0-d_寸法3
 62
    7
 10
2013.3764004408263
 20
986.63632790002953
  0
POINT
  8
_0-d_寸法3
 62
    7
 10
2053.3764004408263
 20
986.63632790002953
  0
LINE
  8
_0-d_寸法3
  6
CONTINUOUS
 62
    7
 10
2053.3764004408263
 20
986.63632790002953
 11
2060.0430671063468
 21
986.63632790002953
  0
TEXT
  8
_0-d_寸法3
 62
    7
 10
2066.0610909214902
 20
956.63632790002953
 40
30
 41
1
 50
0
  1
2
  0
LINE
  8
_0-d_寸法3
  6
CONTINUOUS
 62
    7
 10
1485
 20
1050
 11
1485
 21
1050
  0
LINE
  8
_0-d_寸法3
  6
CONTINUOUS
 62
    7
 10
2060.0430671063468
 20
826.63633123671889
 11
2060.0430671063468
 21
996.63632790002953
  0
POINT
  8
_0-d_寸法3
 62
    7
 10
0
 20
0
  0
POINT
  8
_0-d_寸法3
 62
    7
 10
0
 20
0
  0
LINE
  8
_0-d_寸法3
  6
CONTINUOUS
 62
    7
 10
2060.0430671063468
 20
986.63632790002953
 11
2446.7097337735863
 21
986.63632790002953
  0
TEXT
  8
_0-d_寸法3
 62
    7
 10
2230.8764004408263
 20
986.63632790002953
 40
30
 41
1
 50
0
  1
116
  0
LINE
  8
_0-d_寸法3
  6
CONTINUOUS
 62
    7
 10
1485
 20
1050
 11
1485
 21
1050
  0
LINE
  8
_0-d_寸法3
  6
CONTINUOUS
 62
    7
 10
2446.7097337735863
 20
826.63633123671889
 11
2446.7097337735863
 21
996.63632790002953
  0
POINT
  8
_0-d_寸法3
 62
    7
 10
2060.0430671063468
 20
986.63632790002953
  0
POINT
  8
_0-d_寸法3
 62
    7
 10
2446.7097337735863
 20
986.63632790002953
  0
LINE
  8
_0-d_寸法3
  6
CONTINUOUS
 62
    7
 10
2446.7097337735863
 20
986.63632790002953
 11
2453.3764004408263
 21
986.63632790002953
  0
TEXT
  8
_0-d_寸法3
 62
    7
 10
2425.9722020326012
 20
956.63632790002953
 40
30
 41
1
 50
0
  1
2
  0
LINE
  8
_0-d_寸法3
  6
CONTINUOUS
 62
    7
 10
1485
 20
1050
 11
1485
 21
1050
  0
LINE
  8
_0-d_寸法3
  6
CONTINUOUS
 62
    7
 10
2453.3764004408258
 20
826.63633123671889
 11
2453.3764004408263
 21
996.63632790002953
  0
POINT
  8
_0-d_寸法3
 62
    7
 10
0
 20
0
  0
POINT
  8
_0-d_寸法3
 62
    7
 10
0
 20
0
  0
LINE
  8
_0-d_寸法3
  6
CONTINUOUS
 62
    7
 10
2453.3764004408263
 20
986.63632790002953
 11
2493.3764004408263
 21
986.63632790002953
  0
TEXT
  8
_0-d_寸法3
 62
    7
 10
2458.5759057363057
 20
986.63632790002953
 40
30
 41
1
 50
0
  1
12
  0
LINE
  8
_0-d_寸法3
  6
CONTINUOUS
 62
    7
 10
1485
 20
1050
 11
1485
 21
1050
  0
LINE
  8
_0-d_寸法3
  6
CONTINUOUS
 62
    7
 10
1485
 20
1050
 11
1485
 21
1050
  0
POINT
  8
_0-d_寸法3
 62
    7
 10
2453.3764004408263
 20
986.63632790002953
  0
POINT
  8
_0-d_寸法3
 62
    7
 10
2493.3764004408263
 20
986.63632790002953
  0
LINE
  8
_0-d_寸法3
  6
CONTINUOUS
 62
    7
 10
2593.3764004408258
 20
816.63633123671912
 11
2593.3764004408258
 21
789.9696645700526
  0
TEXT
  8
_0-d_寸法3
 62
    7
 10
2593.3764004408258
 20
795.80299790338609
 40
30
 41
1
 50
90
  1
8
  0
LINE
  8
_0-d_寸法3
  6
CONTINUOUS
 62
    7
 10
2513.3764004408263
 20
816.636331236719
 11
2603.3764004408258
 21
816.63633123671912
  0
LINE
  8
_0-d_寸法3
  6
CONTINUOUS
 62
    7
 10
2513.3764004408263
 20
789.96966457005237
 11
2603.3764004408258
 21
789.9696645700526
  0
POINT
  8
_0-d_寸法3
 62
    7
 10
2593.3764004408258
 20
816.63633123671912
  0
POINT
  8
_0-d_寸法3
 62
    7
 10
2593.3764004408258
 20
789.9696645700526
  0
LINE
  8
_0-d_寸法3
  6
CONTINUOUS
 62
    7
 10
1913.3764004408263
 20
483.30299790338597
 11
1913.3764004408263
 21
816.63633123671912
  0
TEXT
  8
_0-d_寸法3
 62
    7
 10
1913.3764004408263
 20
597.46966457005249
 40
30
 41
1
 50
90
  1
80～100
  0
LINE
  8
_0-d_寸法3
  6
CONTINUOUS
 62
    7
 10
2030.0430671074928
 20
483.30299790338552
 11
1903.3764004408263
 21
483.30299790338609
  0
LINE
  8
_0-d_寸法3
  6
CONTINUOUS
 62
    7
 10
1993.3764004408263
 20
816.636331236719
 11
1903.3764004408263
 21
816.63633123671912
  0
POINT
  8
_0-d_寸法3
 62
    7
 10
1913.3764004408263
 20
483.30299790338597
  0
POINT
  8
_0-d_寸法3
 62
    7
 10
1913.3764004408263
 20
816.63633123671912
  0
ARC
  8
_0-b_細線3
  6
CONTINUOUS
 62
    9
 10
2061.7097337730142
 20
801.96966457005271
 40
1.6666666666666665
 50
179.99999999999983
 51
269.99999999999977
  0
LINE
  8
_0-b_細線3
  6
CONTINUOUS
 62
    9
 10
2060.0430671063468
 20
806.63633123671855
 11
2060.0430671063468
 21
801.96966457005271
  0
ARC
  8
_0-b_細線3
  6
CONTINUOUS
 62
    9
 10
2096.3764004323225
 20
801.96966457005271
 40
1.6666666666666665
 50
269.99999999999977
 51
359.99999999999966
  0
LINE
  8
_0-b_細線3
  6
CONTINUOUS
 62
    9
 10
2098.0430670989886
 20
806.63633123671855
 11
2098.0430670989886
 21
801.96966457005271
  0
ARC
  8
_0-b_細線3
  6
CONTINUOUS
 62
    9
 10
2070.0430671063468
 20
796.96966457005271
 40
3.333333333333333
 50
0
 51
89.999999999999915
  0
LINE
  8
_0-b_細線3
  6
CONTINUOUS
 62
    9
 10
2070.0430671063468
 20
800.30299790338574
 11
2061.7097337730142
 21
800.30299790338574
  0
ARC
  8
_0-b_細線3
  6
CONTINUOUS
 62
    9
 10
2088.0430671063464
 20
796.96966457005271
 40
3.333333333333333
 50
89.999999999999915
 51
179.99999999999983
  0
LINE
  8
_0-b_細線3
  6
CONTINUOUS
 62
    9
 10
2088.0430670989886
 20
800.30299790338574
 11
2096.3764004323225
 21
800.30299790338574
  0
LINE
  8
_0-b_細線3
  6
CONTINUOUS
 62
    9
 10
2087.3764004360005
 20
813.30299790338529
 11
2070.7097337693349
 21
813.30299790338529
  0
LINE
  8
_0-b_細線3
  6
CONTINUOUS
 62
    9
 10
2073.3764004360005
 20
746.63633123671855
 11
2073.3764004396799
 21
796.96966457005271
  0
LINE
  8
_0-b_細線3
  6
CONTINUOUS
 62
    9
 10
2084.7097337693344
 20
746.63633123671855
 11
2084.7097337730147
 21
796.96966457005271
  0
LINE
  8
_0-b_細線3
  6
CONTINUOUS
 62
    9
 10
2084.7097337693344
 20
746.63633123671855
 11
2073.3764004360005
 21
746.63633123671855
  0
LINE
  8
_0-b_細線3
  6
CONTINUOUS
 62
    9
 10
2087.3764004360014
 20
813.30299790338529
 11
2096.8735254210383
 21
810.33514634453786
  0
LINE
  8
_0-b_細線3
  6
CONTINUOUS
 62
    9
 10
2098.0430670989886
 20
806.63633123671855
 11
2098.0430670989886
 21
808.74434638119521
  0
ARC
  8
_0-b_細線3
  6
CONTINUOUS
 62
    9
 10
2096.376400432322
 20
808.74434638119487
 40
1.6666666666666665
 50
0.000000000015633
 51
72.645975358110036
  0
LINE
  8
_0-b_細線3
  6
CONTINUOUS
 62
    9
 10
2070.709733769334
 20
813.30299790338529
 11
2061.212608784298
 21
810.3351463445382
  0
LINE
  8
_0-b_細線3
  6
CONTINUOUS
 62
    9
 10
2060.0430671063468
 20
806.63633123671855
 11
2060.0430671063468
 21
808.74434638119453
  0
ARC
  8
_0-b_細線3
  6
CONTINUOUS
 62
    9
 10
2061.7097337730133
 20
808.74434638119487
 40
1.6666666666666665
 50
107.35402464185547
 51
180.00000000000745
  0
ARC
  8
_0-b_細線3
  6
CONTINUOUS
 62
    9
 10
2060.0430671026688
 20
764.96966457005317
 40
0.6666666666666669
 50
179.99999999999983
 51
269.99999999999977
  0
ARC
  8
_0-b_細線3
  6
CONTINUOUS
 62
    9
 10
2085.2363337693341
 20
770.13584457005436
 40
25.859853333333334
 50
166.96197800000505
 51
193.03566999999961
  0
ARC
  8
_0-b_細線3
  6
CONTINUOUS
 62
    9
 10
2060.0430671026688
 20
786.96966457005396
 40
0.6666666666666669
 50
89.999999999999915
 51
179.99999999999983
  0
ARC
  8
_0-b_細線3
  6
CONTINUOUS
 62
    9
 10
2085.2363337693341
 20
781.80347790338601
 40
25.859853333333334
 50
166.96433000000002
 51
193.03802199999876
  0
LINE
  8
_0-b_細線3
  6
CONTINUOUS
 62
    9
 10
2059.3764004360009
 20
764.96966457005317
 11
2059.3764004360009
 21
786.96966457005396
  0
LINE
  8
_0-b_細線3
  6
CONTINUOUS
 62
    9
 10
2070.0430671026679
 20
787.63633123672003
 11
2060.0430671026688
 21
787.63633123672003
  0
LINE
  8
_0-b_細線3
  6
CONTINUOUS
 62
    9
 10
2070.0430671026679
 20
775.96966457005237
 11
2060.0431071026669
 21
775.96966457005237
  0
LINE
  8
_0-b_細線3
  6
CONTINUOUS
 62
    9
 10
2070.0430671026679
 20
764.30299790338711
 11
2060.0430671026688
 21
764.30299790338711
  0
ARC
  8
_0-b_細線3
  6
CONTINUOUS
 62
    9
 10
2070.7097337693367
 20
753.30299790338597
 40
0.6666666666666669
 50
179.99999999999983
 51
269.99999999999977
  0
ARC
  8
_0-b_細線3
  6
CONTINUOUS
 62
    9
 10
2070.7097337693367
 20
798.63633123671718
 40
0.6666666666666669
 50
89.999999999999915
 51
179.99999999999983
  0
LINE
  8
_0-b_細線3
  6
CONTINUOUS
 62
    9
 10
2072.4235432491923
 20
799.30299790338552
 11
2070.7097337693367
 21
799.30299790338552
  0
LINE
  8
_0-b_細線3
  6
CONTINUOUS
 62
    9
 10
2070.0430671026679
 20
774.3029979033862
 11
2070.0430671026679
 21
753.30299790338597
  0
LINE
  8
_0-b_細線3
  6
CONTINUOUS
 62
    9
 10
2070.0430671026679
 20
798.63633123671718
 11
2070.0430671026679
 21
774.3029979033862
  0
LINE
  8
_0-b_細線3
  6
CONTINUOUS
 62
    9
 10
2073.3764004364393
 20
752.63633123671877
 11
2070.7097337693367
 21
752.63633123671877
  0
ARC
  8
_0-b_細線3
  6
CONTINUOUS
 62
    9
 10
2120.0430671131721
 20
801.96966457005271
 40
1.6666666666666665
 50
179.99999999999983
 51
269.99999999999977
  0
LINE
  8
_0-b_細線3
  6
CONTINUOUS
 62
    9
 10
2118.3764004465042
 20
806.63633123671855
 11
2118.3764004465042
 21
801.96966457005271
  0
ARC
  8
_0-b_細線3
  6
CONTINUOUS
 62
    9
 10
2154.7097337724804
 20
801.96966457005271
 40
1.6666666666666665
 50
269.99999999999977
 51
359.99999999999966
  0
LINE
  8
_0-b_細線3
  6
CONTINUOUS
 62
    9
 10
2156.3764004391464
 20
806.63633123671855
 11
2156.3764004391464
 21
801.96966457005271
  0
ARC
  8
_0-b_細線3
  6
CONTINUOUS
 62
    9
 10
2128.3764004465042
 20
796.96966457005271
 40
3.333333333333333
 50
0
 51
89.999999999999915
  0
LINE
  8
_0-b_細線3
  6
CONTINUOUS
 62
    9
 10
2128.3764004465042
 20
800.30299790338574
 11
2120.0430671131721
 21
800.30299790338574
  0
ARC
  8
_0-b_細線3
  6
CONTINUOUS
 62
    9
 10
2146.3764004465042
 20
796.96966457005271
 40
3.333333333333333
 50
89.999999999999915
 51
179.99999999999983
  0
LINE
  8
_0-b_細線3
  6
CONTINUOUS
 62
    9
 10
2146.3764004391464
 20
800.30299790338574
 11
2154.7097337724804
 21
800.30299790338574
  0
LINE
  8
_0-b_細線3
  6
CONTINUOUS
 62
    9
 10
2145.7097337761584
 20
813.30299790338529
 11
2129.0430671094923
 21
813.30299790338529
  0
LINE
  8
_0-b_細線3
  6
CONTINUOUS
 62
    9
 10
2131.7097337761584
 20
746.63633123671855
 11
2131.7097337798377
 21
796.96966457005271
  0
LINE
  8
_0-b_細線3
  6
CONTINUOUS
 62
    9
 10
2143.0430671094923
 20
746.63633123671855
 11
2143.0430671131721
 21
796.96966457005271
  0
LINE
  8
_0-b_細線3
  6
CONTINUOUS
 62
    9
 10
2143.0430671094923
 20
746.63633123671855
 11
2131.7097337761584
 21
746.63633123671855
  0
LINE
  8
_0-b_細線3
  6
CONTINUOUS
 62
    9
 10
2145.7097337761593
 20
813.30299790338529
 11
2155.2068587611961
 21
810.33514634453786
  0
LINE
  8
_0-b_細線3
  6
CONTINUOUS
 62
    9
 10
2156.3764004391464
 20
806.63633123671855
 11
2156.3764004391464
 21
808.74434638119521
  0
ARC
  8
_0-b_細線3
  6
CONTINUOUS
 62
    9
 10
2154.7097337724799
 20
808.74434638119487
 40
1.6666666666666665
 50
0.000000000015633
 51
72.645975358110036
  0
LINE
  8
_0-b_細線3
  6
CONTINUOUS
 62
    9
 10
2129.0430671094914
 20
813.30299790338529
 11
2119.5459421244555
 21
810.3351463445382
  0
LINE
  8
_0-b_細線3
  6
CONTINUOUS
 62
    9
 10
2118.3764004465042
 20
806.63633123671855
 11
2118.3764004465042
 21
808.74434638119453
  0
ARC
  8
_0-b_細線3
  6
CONTINUOUS
 62
    9
 10
2120.0430671131712
 20
808.74434638119487
 40
1.6666666666666665
 50
107.3540246418704
 51
180.00000000000745
  0
ARC
  8
_0-b_細線3
  6
CONTINUOUS
 62
    9
 10
2088.0430671045083
 20
796.80299790338552
 40
3.333333333333333
 50
89.999999999999915
 51
179.99999999999983
  0
LINE
  8
_0-b_細線3
  6
CONTINUOUS
 62
    9
 10
2128.3764004428249
 20
800.13633123671866
 11
2088.0430671045083
 21
800.13633123671866
  0
ARC
  8
_0-b_細線3
  6
CONTINUOUS
 62
    9
 10
2128.3764004428249
 20
796.80299790338552
 40
3.333333333333333
 50
0
 51
89.999999999999915
  0
LINE
  8
_0-b_細線3
  6
CONTINUOUS
 62
    9
 10
2084.7097337711748
 20
796.80299790338552
 11
2084.7097337711748
 21
755.13633123671866
  0
ARC
  8
_0-b_細線3
  6
CONTINUOUS
 62
    9
 10
2088.0430671045083
 20
755.13633123671866
 40
3.333333333333333
 50
179.99999999999983
 51
269.99999999999977
  0
LINE
  8
_0-b_細線3
  6
CONTINUOUS
 62
    9
 10
2131.7097337761584
 20
755.13633123671866
 11
2131.7097337761584
 21
796.80299790338552
  0
LINE
  8
_0-b_細線3
  6
CONTINUOUS
 62
    9
 10
2087.3764004433583
 20
751.80299790338552
 11
2128.3764004428249
 21
751.80299790338552
  0
ARC
  8
_0-b_細線3
  6
CONTINUOUS
 62
    9
 10
2128.3764004428249
 20
755.13633123671866
 40
3.333333333333333
 50
269.99999999999977
 51
359.99999999999966
  0
ARC
  8
_0-b_細線3
  6
CONTINUOUS
 62
    9
 10
2178.0430671120444
 20
801.96966457005271
 40
1.6666666666666665
 50
179.99999999999983
 51
269.99999999999977
  0
LINE
  8
_0-b_細線3
  6
CONTINUOUS
 62
    9
 10
2176.3764004453765
 20
806.63633123671855
 11
2176.3764004453765
 21
801.96966457005271
  0
ARC
  8
_0-b_細線3
  6
CONTINUOUS
 62
    9
 10
2212.7097337713526
 20
801.96966457005271
 40
1.6666666666666665
 50
269.99999999999977
 51
359.99999999999966
  0
LINE
  8
_0-b_細線3
  6
CONTINUOUS
 62
    9
 10
2214.3764004380187
 20
806.63633123671855
 11
2214.3764004380187
 21
801.96966457005271
  0
ARC
  8
_0-b_細線3
  6
CONTINUOUS
 62
    9
 10
2186.3764004453765
 20
796.96966457005271
 40
3.333333333333333
 50
0
 51
89.999999999999915
  0
LINE
  8
_0-b_細線3
  6
CONTINUOUS
 62
    9
 10
2186.3764004453765
 20
800.30299790338574
 11
2178.0430671120444
 21
800.30299790338574
  0
ARC
  8
_0-b_細線3
  6
CONTINUOUS
 62
    9
 10
2204.3764004453765
 20
796.96966457005271
 40
3.333333333333333
 50
89.999999999999915
 51
179.99999999999983
  0
LINE
  8
_0-b_細線3
  6
CONTINUOUS
 62
    9
 10
2204.3764004380187
 20
800.30299790338574
 11
2212.7097337713526
 21
800.30299790338574
  0
LINE
  8
_0-b_細線3
  6
CONTINUOUS
 62
    9
 10
2203.7097337750306
 20
813.30299790338529
 11
2187.043067108365
 21
813.30299790338529
  0
LINE
  8
_0-b_細線3
  6
CONTINUOUS
 62
    9
 10
2189.7097337750306
 20
746.63633123671855
 11
2189.7097337787104
 21
796.96966457005271
  0
LINE
  8
_0-b_細線3
  6
CONTINUOUS
 62
    9
 10
2201.0430671083645
 20
746.63633123671855
 11
2201.0430671120448
 21
796.96966457005271
  0
LINE
  8
_0-b_細線3
  6
CONTINUOUS
 62
    9
 10
2201.0430671083645
 20
746.63633123671855
 11
2189.7097337750306
 21
746.63633123671855
  0
LINE
  8
_0-b_細線3
  6
CONTINUOUS
 62
    9
 10
2203.7097337750315
 20
813.30299790338529
 11
2213.2068587600684
 21
810.33514634453786
  0
LINE
  8
_0-b_細線3
  6
CONTINUOUS
 62
    9
 10
2214.3764004380187
 20
806.63633123671855
 11
2214.3764004380187
 21
808.74434638119521
  0
ARC
  8
_0-b_細線3
  6
CONTINUOUS
 62
    9
 10
2212.7097337713521
 20
808.74434638119487
 40
1.6666666666666665
 50
0.000000000015633
 51
72.645975358110036
  0
LINE
  8
_0-b_細線3
  6
CONTINUOUS
 62
    9
 10
2187.0430671083636
 20
813.30299790338529
 11
2177.5459421233281
 21
810.3351463445382
  0
LINE
  8
_0-b_細線3
  6
CONTINUOUS
 62
    9
 10
2176.3764004453765
 20
806.63633123671855
 11
2176.3764004453765
 21
808.74434638119453
  0
ARC
  8
_0-b_細線3
  6
CONTINUOUS
 62
    9
 10
2178.0430671120434
 20
808.74434638119487
 40
1.6666666666666665
 50
107.3540246418704
 51
180.00000000000745
  0
ARC
  8
_0-b_細線3
  6
CONTINUOUS
 62
    9
 10
2146.3764004446662
 20
796.80299790338552
 40
3.333333333333333
 50
89.999999999999915
 51
179.99999999999983
  0
LINE
  8
_0-b_細線3
  6
CONTINUOUS
 62
    9
 10
2186.3764004416971
 20
800.13633123671866
 11
2146.3764004446662
 21
800.13633123671866
  0
ARC
  8
_0-b_細線3
  6
CONTINUOUS
 62
    9
 10
2186.3764004416971
 20
796.80299790338552
 40
3.333333333333333
 50
0
 51
89.999999999999915
  0
LINE
  8
_0-b_細線3
  6
CONTINUOUS
 62
    9
 10
2143.0430671113322
 20
796.80299790338552
 11
2143.0430671113322
 21
755.13633123671866
  0
ARC
  8
_0-b_細線3
  6
CONTINUOUS
 62
    9
 10
2146.3764004446662
 20
755.13633123671866
 40
3.333333333333333
 50
179.99999999999983
 51
269.99999999999977
  0
LINE
  8
_0-b_細線3
  6
CONTINUOUS
 62
    9
 10
2189.7097337750306
 20
755.13633123671866
 11
2189.7097337750306
 21
796.80299790338552
  0
LINE
  8
_0-b_細線3
  6
CONTINUOUS
 62
    9
 10
2145.7097337835162
 20
751.80299790338552
 11
2186.3764004416971
 21
751.80299790338552
  0
ARC
  8
_0-b_細線3
  6
CONTINUOUS
 62
    9
 10
2186.3764004416971
 20
755.13633123671866
 40
3.333333333333333
 50
269.99999999999977
 51
359.99999999999966
  0
ARC
  8
_0-b_細線3
  6
CONTINUOUS
 62
    9
 10
2236.0430671111721
 20
801.96966457005271
 40
1.6666666666666665
 50
179.99999999999983
 51
269.99999999999977
  0
LINE
  8
_0-b_細線3
  6
CONTINUOUS
 62
    9
 10
2234.3764004445043
 20
806.63633123671855
 11
2234.3764004445043
 21
801.96966457005271
  0
ARC
  8
_0-b_細線3
  6
CONTINUOUS
 62
    9
 10
2270.7097337704799
 20
801.96966457005271
 40
1.6666666666666665
 50
269.99999999999977
 51
359.99999999999966
  0
LINE
  8
_0-b_細線3
  6
CONTINUOUS
 62
    9
 10
2272.3764004371465
 20
806.63633123671855
 11
2272.3764004371465
 21
801.96966457005271
  0
ARC
  8
_0-b_細線3
  6
CONTINUOUS
 62
    9
 10
2244.3764004445043
 20
796.96966457005271
 40
3.333333333333333
 50
0
 51
89.999999999999915
  0
LINE
  8
_0-b_細線3
  6
CONTINUOUS
 62
    9
 10
2244.3764004445043
 20
800.30299790338574
 11
2236.0430671111721
 21
800.30299790338574
  0
ARC
  8
_0-b_細線3
  6
CONTINUOUS
 62
    9
 10
2262.3764004445043
 20
796.96966457005271
 40
3.333333333333333
 50
89.999999999999915
 51
179.99999999999983
  0
LINE
  8
_0-b_細線3
  6
CONTINUOUS
 62
    9
 10
2262.3764004371465
 20
800.30299790338574
 11
2270.7097337704799
 21
800.30299790338574
  0
LINE
  8
_0-b_細線3
  6
CONTINUOUS
 62
    9
 10
2261.7097337741579
 20
813.30299790338529
 11
2245.0430671074923
 21
813.30299790338529
  0
LINE
  8
_0-b_細線3
  6
CONTINUOUS
 62
    9
 10
2247.7097337741584
 20
746.63633123671855
 11
2247.7097337778378
 21
796.96966457005271
  0
LINE
  8
_0-b_細線3
  6
CONTINUOUS
 62
    9
 10
2259.0430671074923
 20
746.63633123671855
 11
2259.0430671111721
 21
796.96966457005271
  0
LINE
  8
_0-b_細線3
  6
CONTINUOUS
 62
    9
 10
2259.0430671074923
 20
746.63633123671855
 11
2247.7097337741584
 21
746.63633123671855
  0
LINE
  8
_0-b_細線3
  6
CONTINUOUS
 62
    9
 10
2261.7097337741588
 20
813.30299790338529
 11
2271.2068587591957
 21
810.33514634453786
  0
LINE
  8
_0-b_細線3
  6
CONTINUOUS
 62
    9
 10
2272.3764004371465
 20
806.63633123671855
 11
2272.3764004371465
 21
808.74434638119521
  0
ARC
  8
_0-b_細線3
  6
CONTINUOUS
 62
    9
 10
2270.7097337704795
 20
808.74434638119487
 40
1.6666666666666665
 50
0.000000000015633
 51
72.645975358110036
  0
LINE
  8
_0-b_細線3
  6
CONTINUOUS
 62
    9
 10
2245.0430671074914
 20
813.30299790338529
 11
2235.5459421224555
 21
810.3351463445382
  0
LINE
  8
_0-b_細線3
  6
CONTINUOUS
 62
    9
 10
2234.3764004445043
 20
806.63633123671855
 11
2234.3764004445043
 21
808.74434638119453
  0
ARC
  8
_0-b_細線3
  6
CONTINUOUS
 62
    9
 10
2236.0430671111708
 20
808.74434638119487
 40
1.6666666666666665
 50
107.35402464185547
 51
180.00000000000745
  0
ARC
  8
_0-b_細線3
  6
CONTINUOUS
 62
    9
 10
2204.3764004435384
 20
796.80299790338552
 40
3.333333333333333
 50
89.999999999999915
 51
179.99999999999983
  0
LINE
  8
_0-b_細線3
  6
CONTINUOUS
 62
    9
 10
2244.3764004408245
 20
800.13633123671866
 11
2204.3764004435384
 21
800.13633123671866
  0
ARC
  8
_0-b_細線3
  6
CONTINUOUS
 62
    9
 10
2244.3764004408245
 20
796.80299790338552
 40
3.333333333333333
 50
0
 51
89.999999999999915
  0
LINE
  8
_0-b_細線3
  6
CONTINUOUS
 62
    9
 10
2201.0430671102049
 20
796.80299790338552
 11
2201.0430671102049
 21
755.13633123671866
  0
ARC
  8
_0-b_細線3
  6
CONTINUOUS
 62
    9
 10
2204.3764004435384
 20
755.13633123671866
 40
3.333333333333333
 50
179.99999999999983
 51
269.99999999999977
  0
LINE
  8
_0-b_細線3
  6
CONTINUOUS
 62
    9
 10
2247.7097337741584
 20
755.13633123671866
 11
2247.7097337741584
 21
796.80299790338552
  0
LINE
  8
_0-b_細線3
  6
CONTINUOUS
 62
    9
 10
2203.7097337823884
 20
751.80299790338552
 11
2244.3764004408245
 21
751.80299790338552
  0
ARC
  8
_0-b_細線3
  6
CONTINUOUS
 62
    9
 10
2244.3764004408245
 20
755.13633123671866
 40
3.333333333333333
 50
269.99999999999977
 51
359.99999999999966
  0
ARC
  8
_0-b_細線3
  6
CONTINUOUS
 62
    9
 10
2294.0430671123363
 20
801.96966457005271
 40
1.6666666666666665
 50
179.99999999999983
 51
269.99999999999977
  0
LINE
  8
_0-b_細線3
  6
CONTINUOUS
 62
    9
 10
2292.3764004456684
 20
806.63633123671855
 11
2292.3764004456684
 21
801.96966457005271
  0
ARC
  8
_0-b_細線3
  6
CONTINUOUS
 62
    9
 10
2328.7097337716446
 20
801.96966457005271
 40
1.6666666666666665
 50
269.99999999999977
 51
359.99999999999966
  0
LINE
  8
_0-b_細線3
  6
CONTINUOUS
 62
    9
 10
2330.3764004383106
 20
806.63633123671855
 11
2330.3764004383106
 21
801.96966457005271
  0
ARC
  8
_0-b_細線3
  6
CONTINUOUS
 62
    9
 10
2302.3764004456684
 20
796.96966457005271
 40
3.333333333333333
 50
0
 51
89.999999999999915
  0
LINE
  8
_0-b_細線3
  6
CONTINUOUS
 62
    9
 10
2302.3764004456684
 20
800.30299790338574
 11
2294.0430671123363
 21
800.30299790338574
  0
ARC
  8
_0-b_細線3
  6
CONTINUOUS
 62
    9
 10
2320.3764004456684
 20
796.96966457005271
 40
3.333333333333333
 50
89.999999999999915
 51
179.99999999999983
  0
LINE
  8
_0-b_細線3
  6
CONTINUOUS
 62
    9
 10
2320.3764004383106
 20
800.30299790338574
 11
2328.7097337716446
 21
800.30299790338574
  0
LINE
  8
_0-b_細線3
  6
CONTINUOUS
 62
    9
 10
2319.7097337753225
 20
813.30299790338529
 11
2303.0430671086565
 21
813.30299790338529
  0
LINE
  8
_0-b_細線3
  6
CONTINUOUS
 62
    9
 10
2305.7097337753225
 20
746.63633123671855
 11
2305.7097337790019
 21
796.96966457005271
  0
LINE
  8
_0-b_細線3
  6
CONTINUOUS
 62
    9
 10
2317.0430671086565
 20
746.63633123671855
 11
2317.0430671123363
 21
796.96966457005271
  0
LINE
  8
_0-b_細線3
  6
CONTINUOUS
 62
    9
 10
2317.0430671086565
 20
746.63633123671855
 11
2305.7097337753225
 21
746.63633123671855
  0
LINE
  8
_0-b_細線3
  6
CONTINUOUS
 62
    9
 10
2319.7097337753235
 20
813.30299790338529
 11
2329.2068587603603
 21
810.33514634453786
  0
LINE
  8
_0-b_細線3
  6
CONTINUOUS
 62
    9
 10
2330.3764004383106
 20
806.63633123671855
 11
2330.3764004383106
 21
808.74434638119521
  0
ARC
  8
_0-b_細線3
  6
CONTINUOUS
 62
    9
 10
2328.7097337716441
 20
808.74434638119487
 40
1.6666666666666665
 50
0.000000000015633
 51
72.645975358110036
  0
LINE
  8
_0-b_細線3
  6
CONTINUOUS
 62
    9
 10
2303.0430671086556
 20
813.30299790338529
 11
2293.5459421236196
 21
810.3351463445382
  0
LINE
  8
_0-b_細線3
  6
CONTINUOUS
 62
    9
 10
2292.3764004456684
 20
806.63633123671855
 11
2292.3764004456684
 21
808.74434638119453
  0
ARC
  8
_0-b_細線3
  6
CONTINUOUS
 62
    9
 10
2294.0430671123354
 20
808.74434638119487
 40
1.6666666666666665
 50
107.3540246418704
 51
180.00000000000745
  0
ARC
  8
_0-b_細線3
  6
CONTINUOUS
 62
    9
 10
2262.3764004426657
 20
796.80299790338552
 40
3.333333333333333
 50
89.999999999999915
 51
179.99999999999983
  0
LINE
  8
_0-b_細線3
  6
CONTINUOUS
 62
    9
 10
2302.3764004419891
 20
800.13633123671866
 11
2262.3764004426657
 21
800.13633123671866
  0
ARC
  8
_0-b_細線3
  6
CONTINUOUS
 62
    9
 10
2302.3764004419891
 20
796.80299790338552
 40
3.333333333333333
 50
0
 51
89.999999999999915
  0
LINE
  8
_0-b_細線3
  6
CONTINUOUS
 62
    9
 10
2259.0430671093322
 20
796.80299790338552
 11
2259.0430671093322
 21
755.13633123671866
  0
ARC
  8
_0-b_細線3
  6
CONTINUOUS
 62
    9
 10
2262.3764004426657
 20
755.13633123671866
 40
3.333333333333333
 50
179.99999999999983
 51
269.99999999999977
  0
LINE
  8
_0-b_細線3
  6
CONTINUOUS
 62
    9
 10
2305.7097337753225
 20
755.13633123671866
 11
2305.7097337753225
 21
796.80299790338552
  0
LINE
  8
_0-b_細線3
  6
CONTINUOUS
 62
    9
 10
2261.7097337815158
 20
751.80299790338552
 11
2302.3764004419891
 21
751.80299790338552
  0
ARC
  8
_0-b_細線3
  6
CONTINUOUS
 62
    9
 10
2302.3764004419891
 20
755.13633123671866
 40
3.333333333333333
 50
269.99999999999977
 51
359.99999999999966
  0
ARC
  8
_0-b_細線3
  6
CONTINUOUS
 62
    9
 10
2352.0430671135637
 20
801.96966457005271
 40
1.6666666666666665
 50
179.99999999999983
 51
269.99999999999977
  0
LINE
  8
_0-b_細線3
  6
CONTINUOUS
 62
    9
 10
2350.3764004468962
 20
806.63633123671855
 11
2350.3764004468962
 21
801.96966457005271
  0
ARC
  8
_0-b_細線3
  6
CONTINUOUS
 62
    9
 10
2386.7097337728719
 20
801.96966457005271
 40
1.6666666666666665
 50
269.99999999999977
 51
359.99999999999966
  0
LINE
  8
_0-b_細線3
  6
CONTINUOUS
 62
    9
 10
2388.376400439538
 20
806.63633123671855
 11
2388.376400439538
 21
801.96966457005271
  0
ARC
  8
_0-b_細線3
  6
CONTINUOUS
 62
    9
 10
2360.3764004468962
 20
796.96966457005271
 40
3.333333333333333
 50
0
 51
89.999999999999915
  0
LINE
  8
_0-b_細線3
  6
CONTINUOUS
 62
    9
 10
2360.3764004468962
 20
800.30299790338574
 11
2352.0430671135637
 21
800.30299790338574
  0
ARC
  8
_0-b_細線3
  6
CONTINUOUS
 62
    9
 10
2378.3764004468958
 20
796.96966457005271
 40
3.333333333333333
 50
89.999999999999915
 51
179.99999999999983
  0
LINE
  8
_0-b_細線3
  6
CONTINUOUS
 62
    9
 10
2378.376400439538
 20
800.30299790338574
 11
2386.7097337728719
 21
800.30299790338574
  0
LINE
  8
_0-b_細線3
  6
CONTINUOUS
 62
    9
 10
2377.7097337765499
 20
813.30299790338529
 11
2361.0430671098839
 21
813.30299790338529
  0
LINE
  8
_0-b_細線3
  6
CONTINUOUS
 62
    9
 10
2363.7097337765499
 20
746.63633123671855
 11
2363.7097337802293
 21
796.96966457005271
  0
LINE
  8
_0-b_細線3
  6
CONTINUOUS
 62
    9
 10
2375.0430671098843
 20
746.63633123671855
 11
2375.0430671135637
 21
796.96966457005271
  0
LINE
  8
_0-b_細線3
  6
CONTINUOUS
 62
    9
 10
2375.0430671098843
 20
746.63633123671855
 11
2363.7097337765499
 21
746.63633123671855
  0
LINE
  8
_0-b_細線3
  6
CONTINUOUS
 62
    9
 10
2377.7097337765504
 20
813.30299790338529
 11
2387.2068587615872
 21
810.33514634453786
  0
LINE
  8
_0-b_細線3
  6
CONTINUOUS
 62
    9
 10
2388.376400439538
 20
806.63633123671855
 11
2388.376400439538
 21
808.74434638119521
  0
ARC
  8
_0-b_細線3
  6
CONTINUOUS
 62
    9
 10
2386.7097337728719
 20
808.74434638119487
 40
1.6666666666666665
 50
0.000000000015633
 51
72.645975358124957
  0
LINE
  8
_0-b_細線3
  6
CONTINUOUS
 62
    9
 10
2361.0430671098834
 20
813.30299790338529
 11
2351.545942124847
 21
810.3351463445382
  0
LINE
  8
_0-b_細線3
  6
CONTINUOUS
 62
    9
 10
2350.3764004468962
 20
806.63633123671855
 11
2350.3764004468962
 21
808.74434638119453
  0
ARC
  8
_0-b_細線3
  6
CONTINUOUS
 62
    9
 10
2352.0430671135628
 20
808.74434638119487
 40
1.6666666666666665
 50
107.35402464185547
 51
180.00000000000745
  0
ARC
  8
_0-b_細線3
  6
CONTINUOUS
 62
    9
 10
2320.3764004438303
 20
796.80299790338552
 40
3.333333333333333
 50
89.999999999999915
 51
179.99999999999983
  0
LINE
  8
_0-b_細線3
  6
CONTINUOUS
 62
    9
 10
2360.3764004432164
 20
800.13633123671866
 11
2320.3764004438303
 21
800.13633123671866
  0
ARC
  8
_0-b_細線3
  6
CONTINUOUS
 62
    9
 10
2360.3764004432164
 20
796.80299790338552
 40
3.333333333333333
 50
0
 51
89.999999999999915
  0
LINE
  8
_0-b_細線3
  6
CONTINUOUS
 62
    9
 10
2317.0430671104964
 20
796.80299790338552
 11
2317.0430671104964
 21
755.13633123671866
  0
ARC
  8
_0-b_細線3
  6
CONTINUOUS
 62
    9
 10
2320.3764004438303
 20
755.13633123671866
 40
3.333333333333333
 50
179.99999999999983
 51
269.99999999999977
  0
LINE
  8
_0-b_細線3
  6
CONTINUOUS
 62
    9
 10
2363.7097337765499
 20
755.13633123671866
 11
2363.7097337765499
 21
796.80299790338552
  0
LINE
  8
_0-b_細線3
  6
CONTINUOUS
 62
    9
 10
2319.7097337826804
 20
751.80299790338552
 11
2360.3764004432164
 21
751.80299790338552
  0
ARC
  8
_0-b_細線3
  6
CONTINUOUS
 62
    9
 10
2360.3764004432164
 20
755.13633123671866
 40
3.333333333333333
 50
269.99999999999977
 51
359.99999999999966
  0
ARC
  8
_0-b_細線3
  6
CONTINUOUS
 62
    9
 10
2410.3764004537215
 20
801.96966457005271
 40
1.6666666666666665
 50
179.99999999999983
 51
269.99999999999977
  0
LINE
  8
_0-b_細線3
  6
CONTINUOUS
 62
    9
 10
2408.7097337870537
 20
806.63633123671855
 11
2408.7097337870537
 21
801.96966457005271
  0
ARC
  8
_0-b_細線3
  6
CONTINUOUS
 62
    9
 10
2445.0430671130293
 20
801.96966457005271
 40
1.6666666666666665
 50
269.99999999999977
 51
359.99999999999966
  0
LINE
  8
_0-b_細線3
  6
CONTINUOUS
 62
    9
 10
2446.7097337796959
 20
806.63633123671855
 11
2446.7097337796959
 21
801.96966457005271
  0
ARC
  8
_0-b_細線3
  6
CONTINUOUS
 62
    9
 10
2418.7097337870537
 20
796.96966457005271
 40
3.333333333333333
 50
0
 51
89.999999999999915
  0
LINE
  8
_0-b_細線3
  6
CONTINUOUS
 62
    9
 10
2418.7097337870537
 20
800.30299790338574
 11
2410.3764004537215
 21
800.30299790338574
  0
ARC
  8
_0-b_細線3
  6
CONTINUOUS
 62
    9
 10
2436.7097337870537
 20
796.96966457005271
 40
3.333333333333333
 50
89.999999999999915
 51
179.99999999999983
  0
LINE
  8
_0-b_細線3
  6
CONTINUOUS
 62
    9
 10
2436.7097337796959
 20
800.30299790338574
 11
2445.0430671130293
 21
800.30299790338574
  0
LINE
  8
_0-b_細線3
  6
CONTINUOUS
 62
    9
 10
2436.0430671167073
 20
813.30299790338529
 11
2419.3764004500417
 21
813.30299790338529
  0
LINE
  8
_0-b_細線3
  6
CONTINUOUS
 62
    9
 10
2422.0430671167078
 20
746.63633123671855
 11
2422.0430671203871
 21
796.96966457005271
  0
LINE
  8
_0-b_細線3
  6
CONTINUOUS
 62
    9
 10
2433.3764004500417
 20
746.63633123671855
 11
2433.3764004537215
 21
796.96966457005271
  0
LINE
  8
_0-b_細線3
  6
CONTINUOUS
 62
    9
 10
2433.3764004500417
 20
746.63633123671855
 11
2422.0430671167078
 21
746.63633123671855
  0
LINE
  8
_0-b_細線3
  6
CONTINUOUS
 62
    9
 10
2436.0430671167082
 20
813.30299790338529
 11
2445.5401921017451
 21
810.33514634453786
  0
LINE
  8
_0-b_細線3
  6
CONTINUOUS
 62
    9
 10
2446.7097337796959
 20
806.63633123671855
 11
2446.7097337796959
 21
808.74434638119521
  0
ARC
  8
_0-b_細線3
  6
CONTINUOUS
 62
    9
 10
2445.0430671130293
 20
808.74434638119487
 40
1.6666666666666665
 50
0.000000000015633
 51
72.645975358124957
  0
LINE
  8
_0-b_細線3
  6
CONTINUOUS
 62
    9
 10
2419.3764004500408
 20
813.30299790338529
 11
2409.8792754650049
 21
810.3351463445382
  0
LINE
  8
_0-b_細線3
  6
CONTINUOUS
 62
    9
 10
2408.7097337870537
 20
806.63633123671855
 11
2408.7097337870537
 21
808.74434638119453
  0
ARC
  8
_0-b_細線3
  6
CONTINUOUS
 62
    9
 10
2410.3764004537202
 20
808.74434638119487
 40
1.6666666666666665
 50
107.35402464185547
 51
180.00000000000745
  0
ARC
  8
_0-b_細線3
  6
CONTINUOUS
 62
    9
 10
2378.3764004450577
 20
796.80299790338552
 40
3.333333333333333
 50
89.999999999999915
 51
179.99999999999983
  0
LINE
  8
_0-b_細線3
  6
CONTINUOUS
 62
    9
 10
2418.7097337833738
 20
800.13633123671866
 11
2378.3764004450577
 21
800.13633123671866
  0
ARC
  8
_0-b_細線3
  6
CONTINUOUS
 62
    9
 10
2418.7097337833738
 20
796.80299790338552
 40
3.333333333333333
 50
0
 51
89.999999999999915
  0
LINE
  8
_0-b_細線3
  6
CONTINUOUS
 62
    9
 10
2375.0430671117242
 20
796.80299790338552
 11
2375.0430671117242
 21
755.13633123671866
  0
ARC
  8
_0-b_細線3
  6
CONTINUOUS
 62
    9
 10
2378.3764004450577
 20
755.13633123671866
 40
3.333333333333333
 50
179.99999999999983
 51
269.99999999999977
  0
LINE
  8
_0-b_細線3
  6
CONTINUOUS
 62
    9
 10
2422.0430671167078
 20
755.13633123671866
 11
2422.0430671167078
 21
796.80299790338552
  0
LINE
  8
_0-b_細線3
  6
CONTINUOUS
 62
    9
 10
2377.7097337839077
 20
751.80299790338552
 11
2418.7097337833738
 21
751.80299790338552
  0
ARC
  8
_0-b_細線3
  6
CONTINUOUS
 62
    9
 10
2418.7097337833738
 20
755.13633123671866
 40
3.333333333333333
 50
269.99999999999977
 51
359.99999999999966
  0
ARC
  8
_0-b_細線3
  6
CONTINUOUS
 62
    9
 10
2446.7097341660751
 20
764.96966457005317
 40
0.6666666666666669
 50
269.99999999999977
 51
359.99999999999966
  0
ARC
  8
_0-b_細線3
  6
CONTINUOUS
 62
    9
 10
2421.5164674994098
 20
770.13584457005436
 40
25.859853333333334
 50
346.96432999999968
 51
13.038021999994573
  0
ARC
  8
_0-b_細線3
  6
CONTINUOUS
 62
    9
 10
2446.7097341660751
 20
786.96966457005396
 40
0.6666666666666669
 50
0
 51
89.999999999999915
  0
ARC
  8
_0-b_細線3
  6
CONTINUOUS
 62
    9
 10
2421.5164674994098
 20
781.80347790338601
 40
25.859853333333334
 50
346.96197800000056
 51
13.035669999999625
  0
LINE
  8
_0-b_細線3
  6
CONTINUOUS
 62
    9
 10
2447.376400832743
 20
764.96966457005317
 11
2447.376400832743
 21
786.96966457005396
  0
LINE
  8
_0-b_細線3
  6
CONTINUOUS
 62
    9
 10
2436.7097341660765
 20
787.63633123672003
 11
2446.7097341660751
 21
787.63633123672003
  0
LINE
  8
_0-b_細線3
  6
CONTINUOUS
 62
    9
 10
2436.7097341660765
 20
775.96966457005237
 11
2446.709694166077
 21
775.96966457005237
  0
LINE
  8
_0-b_細線3
  6
CONTINUOUS
 62
    9
 10
2436.7097341660765
 20
764.30299790338711
 11
2446.7097341660751
 21
764.30299790338711
  0
ARC
  8
_0-b_細線3
  6
CONTINUOUS
 62
    9
 10
2436.0430674994077
 20
753.30299790338597
 40
0.6666666666666669
 50
269.99999999999977
 51
359.99999999999966
  0
ARC
  8
_0-b_細線3
  6
CONTINUOUS
 62
    9
 10
2436.0430674994077
 20
798.63633123671718
 40
0.6666666666666669
 50
0
 51
89.999999999999915
  0
LINE
  8
_0-b_細線3
  6
CONTINUOUS
 62
    9
 10
2434.3292580195516
 20
799.30299790338552
 11
2436.0430674994077
 21
799.30299790338552
  0
LINE
  8
_0-b_細線3
  6
CONTINUOUS
 62
    9
 10
2436.7097341660765
 20
774.3029979033862
 11
2436.7097341660765
 21
753.30299790338597
  0
LINE
  8
_0-b_細線3
  6
CONTINUOUS
 62
    9
 10
2436.7097341660765
 20
798.63633123671718
 11
2436.7097341660765
 21
774.3029979033862
  0
LINE
  8
_0-b_細線3
  6
CONTINUOUS
 62
    9
 10
2433.3764008323051
 20
752.63633123671877
 11
2436.0430674994077
 21
752.63633123671877
  0
LINE
  8
_0-a_極細3
  6
CENTER1
 62
    9
 10
2458.8666416626943
 20
775.96966457005237
 11
2045.4179714681529
 21
775.96966457005237
  0
LINE
  8
_0-d_寸法3
  6
CONTINUOUS
 62
    7
 10
2311.37640044199
 20
916.63633123671889
 11
2369.3764004432173
 21
916.63633123671889
  0
TEXT
  8
_0-d_寸法3
 62
    7
 10
2288.284044622706
 20
886.63633123671889
 40
30
 41
1
 50
0
  1
(17.4)
  0
LINE
  8
_0-d_寸法3
  6
CONTINUOUS
 62
    7
 10
2311.37640044199
 20
833.30299790338529
 11
2311.37640044199
 21
926.63633123671889
  0
LINE
  8
_0-d_寸法3
  6
CONTINUOUS
 62
    7
 10
2369.3764004432169
 20
833.30299790338529
 11
2369.3764004432173
 21
926.63633123671889
  0
POINT
  8
_0-d_寸法3
 62
    7
 10
2311.37640044199
 20
916.63633123671889
  0
POINT
  8
_0-d_寸法3
 62
    7
 10
2369.3764004432173
 20
916.63633123671889
  0
LINE
  8
_0-d_寸法3
  6
CONTINUOUS
 62
    7
 10
2369.3764004432173
 20
916.63633123671889
 11
2427.7097337833748
 21
916.63633123671889
  0
TEXT
  8
_0-d_寸法3
 62
    7
 10
2340.8555973078323
 20
916.63633123671866
 40
30
 41
1
 50
0
  1
(17.4)
  0
LINE
  8
_0-d_寸法3
  6
CONTINUOUS
 62
    7
 10
1485
 20
1050
 11
1485
 21
1050
  0
LINE
  8
_0-d_寸法3
  6
CONTINUOUS
 62
    7
 10
2427.7097337833743
 20
833.30299790338529
 11
2427.7097337833748
 21
926.63633123671889
  0
POINT
  8
_0-d_寸法3
 62
    7
 10
2369.3764004432173
 20
916.63633123671889
  0
POINT
  8
_0-d_寸法3
 62
    7
 10
2427.7097337833748
 20
916.63633123671889
  0
LINE
  8
_0-d_寸法3
  6
CONTINUOUS
 62
    7
 10
2055.9718494063745
 20
916.63633123671889
 11
2118.3764004465047
 21
916.63633123671889
  0
TEXT
  8
_0-d_寸法3
 62
    7
 10
2055.9718494063745
 20
886.63633123671889
 40
30
 41
1
 50
0
  1
(6)
  0
LINE
  8
_0-d_寸法3
  6
CONTINUOUS
 62
    7
 10
2098.0430670989904
 20
833.30299790338529
 11
2098.0430670989908
 21
926.63633123671889
  0
LINE
  8
_0-d_寸法3
  6
CONTINUOUS
 62
    7
 10
2118.3764004465042
 20
833.30299790338529
 11
2118.3764004465047
 21
926.63633123671889
  0
POINT
  8
_0-d_寸法3
 62
    7
 10
2098.0430670989908
 20
916.63633123671889
  0
POINT
  8
_0-d_寸法3
 62
    7
 10
0
 20
0
  0
LINE
  8
_0-d_寸法3
  6
CONTINUOUS
 62
    7
 10
2118.3764004465047
 20
916.63633123671889
 11
2156.3764004391487
 21
916.63633123671889
  0
TEXT
  8
_0-d_寸法3
 62
    7
 10
2099.8470075901264
 20
916.63633123671889
 40
30
 41
1
 50
0
  1
11.4
  0
LINE
  8
_0-d_寸法3
  6
CONTINUOUS
 62
    7
 10
1485
 20
1050
 11
1485
 21
1050
  0
LINE
  8
_0-d_寸法3
  6
CONTINUOUS
 62
    7
 10
2156.3764004391483
 20
833.30299790338529
 11
2156.3764004391487
 21
926.63633123671889
  0
POINT
  8
_0-d_寸法3
 62
    7
 10
2118.3764004465047
 20
916.63633123671889
  0
POINT
  8
_0-d_寸法3
 62
    7
 10
2156.3764004391487
 20
916.63633123671889
  0
LINE
  8
_0-d_寸法3
  6
CONTINUOUS
 62
    7
 10
2053.3764004408263
 20
639.96966457005169
 11
2120.0430671074923
 21
639.96966457005169
  0
TEXT
  8
_0-d_寸法3
 62
    7
 10
2071.7097337741588
 20
639.96966457005169
 40
30
 41
1
 50
0
  1
20
  0
LINE
  8
_0-d_寸法3
  6
CONTINUOUS
 62
    7
 10
2053.3764004408263
 20
659.96966457005112
 11
2053.3764004408263
 21
629.96966457005169
  0
LINE
  8
_0-d_寸法3
  6
CONTINUOUS
 62
    7
 10
2120.0430671074923
 20
719.96966457005169
 11
2120.0430671074923
 21
629.96966457005169
  0
POINT
  8
_0-d_寸法3
 62
    7
 10
2053.3764004408263
 20
639.96966457005169
  0
POINT
  8
_0-d_寸法3
 62
    7
 10
2120.0430671074923
 20
639.96966457005169
  0
LINE
  8
_0-d_寸法3
  6
CONTINUOUS
 62
    7
 10
2120.0430671074923
 20
639.96966457005169
 11
2386.7097337741593
 21
639.96966457005169
  0
TEXT
  8
_0-d_寸法3
 62
    7
 10
2238.3764004408258
 20
639.96966457005169
 40
30
 41
1
 50
0
  1
80
  0
LINE
  8
_0-d_寸法3
  6
CONTINUOUS
 62
    7
 10
1485
 20
1050
 11
1485
 21
1050
  0
LINE
  8
_0-d_寸法3
  6
CONTINUOUS
 62
    7
 10
2386.7097337741602
 20
719.96966457005169
 11
2386.7097337741593
 21
629.96966457005169
  0
POINT
  8
_0-d_寸法3
 62
    7
 10
2120.0430671074923
 20
639.96966457005169
  0
POINT
  8
_0-d_寸法3
 62
    7
 10
2386.7097337741593
 20
639.96966457005169
  0
LINE
  8
_0-d_寸法3
  6
CONTINUOUS
 62
    7
 10
2386.7097337741593
 20
639.96966457005169
 11
2453.3764004408258
 21
639.96966457005169
  0
TEXT
  8
_0-d_寸法3
 62
    7
 10
2405.0430671074923
 20
639.96966457005169
 40
30
 41
1
 50
0
  1
20
  0
LINE
  8
_0-d_寸法3
  6
CONTINUOUS
 62
    7
 10
1485
 20
1050
 11
1485
 21
1050
  0
LINE
  8
_0-d_寸法3
  6
CONTINUOUS
 62
    7
 10
2453.3764004408258
 20
659.96966457005112
 11
2453.3764004408258
 21
629.96966457005169
  0
POINT
  8
_0-d_寸法3
 62
    7
 10
2386.7097337741593
 20
639.96966457005169
  0
POINT
  8
_0-d_寸法3
 62
    7
 10
2453.3764004408258
 20
639.96966457005169
  0
TEXT
  8
_0-7_枠細線
 62
    1
 10
2153.3261728100856
 20
408.28927308473794
 40
50
 41
0.8
 50
0
  1
断面詳細図
  0
TEXT
  8
_0-7_枠細線
 62
    1
 10
2383.2241123084218
 20
413.242103273417
 40
40
 41
0.5999999999999998
 50
0
  1
Ｓ＝１：３
  0
TEXT
  8
_0-7_枠細線
 62
    1
 10
2611.2738468233329
 20
1656.2261792523223
 40
30
 41
0.8000000000000001
 50
0
  1
ブラック
  0
TEXT
  8
_0-7_枠細線
 62
    1
 10
2611.2738468233329
 20
1606.2261792523225
 40
30
 41
0.8000000000000001
 50
0
  1
ベージュ
  0
TEXT
  8
_0-7_枠細線
 62
    1
 10
2587.2738468233329
 20
1556.2261792523225
 40
30
 41
0.8000000000000001
 50
0
  1
ライトグレー
  0
TEXT
  8
_0-7_枠細線
 62
    1
 10
2587.2738468233329
 20
1506.2261792523225
 40
30
 41
0.8000000000000001
 50
0
  1
ダークグレー
  0
TEXT
  8
_0-7_枠細線
 62
    1
 10
2611.2738468233329
 20
1456.2261792523225
 40
30
 41
0.8000000000000001
 50
0
  1
ブラウン
  0
LINE
  8
_0-7_枠細線
  6
CONTINUOUS
 62
    9
 10
2579.2738468233329
 20
1746.2261792523225
 11
2579.2738468233329
 21
1446.2261792523232
  0
LINE
  8
_0-7_枠細線
  6
CONTINUOUS
 62
    9
 10
2499.273846823332
 20
1746.2261792523225
 11
2499.273846823332
 21
1446.2261792523225
  0
LINE
  8
_0-7_枠細線
  6
CONTINUOUS
 62
    9
 10
2739.2738468233324
 20
1746.2261792523225
 11
2739.2738468233324
 21
1446.2261792523225
  0
TEXT
  8
_0-7_枠細線
 62
    1
 10
2501.5502154068181
 20
1756.2261792523225
 40
35
 41
1
 50
0
  1
色記号表
  0
TEXT
  8
_0-7_枠細線
 62
    1
 10
2509.2738468233324
 20
1706.2261792523223
 40
30
 41
1
 50
0
  1
記号
  0
TEXT
  8
_0-7_枠細線
 62
    1
 10
2644.2738468233329
 20
1706.2261792523223
 40
30
 41
1
 50
0
  1
色
  0
TEXT
  8
_0-7_枠細線
 62
    1
 10
2524.2738468233324
 20
1656.2261792523223
 40
30
 41
1
 50
0
  1
Ｋ
  0
TEXT
  8
_0-7_枠細線
 62
    1
 10
2524.2738468233324
 20
1606.2261792523225
 40
30
 41
1
 50
0
  1
Ｂ
  0
TEXT
  8
_0-7_枠細線
 62
    1
 10
2524.2738468233324
 20
1556.2261792523225
 40
30
 41
1
 50
0
  1
Ｇ
  0
TEXT
  8
_0-7_枠細線
 62
    1
 10
2524.2738468233324
 20
1506.2261792523225
 40
30
 41
1
 50
0
  1
Ｄ
  0
TEXT
  8
_0-7_枠細線
 62
    1
 10
2524.2738468233324
 20
1456.2261792523225
 40
30
 41
1
 50
0
  1
Ｃ
  0
LINE
  8
_0-7_枠細線
  6
CONTINUOUS
 62
    9
 10
2499.273846823332
 20
1696.2261792523223
 11
2739.273846823332
 21
1696.2261792523223
  0
LINE
  8
_0-7_枠細線
  6
CONTINUOUS
 62
    9
 10
2499.273846823332
 20
1746.2261792523225
 11
2739.2738468233329
 21
1746.2261792523225
  0
LINE
  8
_0-7_枠細線
  6
CONTINUOUS
 62
    9
 10
2499.273846823332
 20
1646.2261792523225
 11
2739.2738468233329
 21
1646.2261792523225
  0
LINE
  8
_0-7_枠細線
  6
CONTINUOUS
 62
    9
 10
2499.273846823332
 20
1596.2261792523225
 11
2739.2738468233329
 21
1596.2261792523225
  0
LINE
  8
_0-7_枠細線
  6
CONTINUOUS
 62
    9
 10
2499.273846823332
 20
1496.2261792523225
 11
2739.2738468233329
 21
1496.2261792523225
  0
LINE
  8
_0-7_枠細線
  6
CONTINUOUS
 62
    9
 10
2499.273846823332
 20
1446.2261792523225
 11
2739.2738468233329
 21
1446.2261792523225
  0
LINE
  8
_0-7_枠細線
  6
CONTINUOUS
 62
    9
 10
2499.273846823332
 20
1546.2261792523225
 11
2739.2738468233329
 21
1546.2261792523225
  0
LINE
  8
_0-5_寸法線
  6
CONTINUOUS
 62
    7
 10
1274.0691007806922
 20
1028.6633602261893
 11
1268.8927198786423
 21
1009.3448437004079
  0
LINE
  8
_0-5_寸法線
  6
CONTINUOUS
 62
    7
 10
1274.0691007806922
 20
1028.6633602261893
 11
1259.9269651569614
 21
1014.5212246024583
  0
LINE
  8
_0-5_寸法線
  6
CONTINUOUS
 62
    7
 10
1274.0691007806922
 20
1028.6633602261893
 11
1222.84688376449
 21
939.94387787780568
  0
LINE
  8
_0-5_寸法線
  6
CONTINUOUS
 62
    7
 10
1222.84688376449
 20
939.94387787780568
 11
958.84688376449003
 21
939.94387787780681
  0
TEXT
  8
_0-5_寸法線
 62
    7
 10
958.84688376449003
 20
939.94387787780568
 40
30
 41
0.8000000000000001
 50
0
  1
縦引き排水トラップ一式
  0
LINE
  8
_0-5_寸法線
  6
CONTINUOUS
 62
    7
 10
1555.5964912280706
 20
939.21072853930184
 11
1555.5964912280706
 21
1180.2107285393031
  0
TEXT
  8
_0-5_寸法線
 62
    7
 10
1555.5964912280706
 20
1037.2107285393017
 40
30
 41
1
 50
90
  1
241
  0
LINE
  8
_0-5_寸法線
  6
CONTINUOUS
 62
    7
 10
1353.0964912280704
 20
939.21072853930355
 11
1565.5964912280706
 21
939.21072853930173
  0
LINE
  8
_0-5_寸法線
  6
CONTINUOUS
 62
    7
 10
1405.5964912280706
 20
1180.2107285393038
 11
1565.5964912280706
 21
1180.2107285393031
  0
POINT
  8
_0-5_寸法線
 62
    7
 10
1555.5964912280706
 20
939.21072853930184
  0
POINT
  8
_0-5_寸法線
 62
    7
 10
1555.5964912280706
 20
1180.2107285393031
  0
LINE
  8
_0-5_寸法線
  6
CONTINUOUS
 62
    7
 10
1485.5964912280706
 20
939.21072853930229
 11
1485.5964912280706
 21
1080.2107285393033
  0
TEXT
  8
_0-5_寸法線
 62
    7
 10
1485.5964912280706
 20
987.21072853930252
 40
30
 41
1
 50
90
  1
141
  0
LINE
  8
_0-5_寸法線
  6
CONTINUOUS
 62
    7
 10
1353.0964912280704
 20
939.21072853930355
 11
1495.5964912280706
 21
939.21072853930218
  0
LINE
  8
_0-5_寸法線
  6
CONTINUOUS
 62
    7
 10
1394.5964912280706
 20
1080.2107285393038
 11
1495.5964912280706
 21
1080.2107285393033
  0
POINT
  8
_0-5_寸法線
 62
    7
 10
1485.5964912280706
 20
939.21072853930229
  0
POINT
  8
_0-5_寸法線
 62
    7
 10
1485.5964912280706
 20
1080.2107285393033
  0
LINE
  8
_0-5_寸法線
  6
CONTINUOUS
 62
    7
 10
1485.5964912280706
 20
1080.2107285393033
 11
1485.5964912280706
 21
1180.2107285393038
  0
TEXT
  8
_0-5_寸法線
 62
    7
 10
1485.5964912280706
 20
1107.7107285393029
 40
30
 41
1
 50
90
  1
100
  0
LINE
  8
_0-5_寸法線
  6
CONTINUOUS
 62
    7
 10
1394.5964912280706
 20
1080.2107285393038
 11
1495.5964912280706
 21
1080.2107285393033
  0
LINE
  8
_0-5_寸法線
  6
CONTINUOUS
 62
    7
 10
1405.5964912280706
 20
1180.2107285393038
 11
1495.5964912280706
 21
1180.2107285393038
  0
POINT
  8
_0-5_寸法線
 62
    7
 10
1485.5964912280706
 20
1080.2107285393033
  0
POINT
  8
_0-5_寸法線
 62
    7
 10
1485.5964912280706
 20
1180.2107285393038
  0
LINE
  8
_0-0_計極細
  6
CONTINUOUS
 62
    9
 10
1345.3464912280701
 20
1071.0239045393043
 11
1345.3464912280701
 21
1070.5239045393043
  0
LINE
  8
_0-1_計細線
  6
CONTINUOUS
 62
    9
 10
1358.5964912280706
 20
1054.7107285393038
 11
1358.5964912280706
 21
1062.7107285393038
  0
ARC
  8
_0-1_計細線
  6
CONTINUOUS
 62
    9
 10
1361.0964912280706
 20
1050.3806005393042
 40
5
 50
119.99999999999989
 51
179.99999999999983
  0
LINE
  8
_0-1_計細線
  6
CONTINUOUS
 62
    9
 10
1346.6964912280705
 20
944.21072853930377
 11
1347.0964912280701
 21
969.21072853930377
  0
LINE
  8
_0-1_計細線
  6
CONTINUOUS
 62
    9
 10
1347.0964912280701
 20
969.21072853930377
 11
1348.0964912280704
 21
969.21072853930377
  0
ARC
  8
_0-1_計細線
  6
CONTINUOUS
 62
    9
 10
1348.0964912280704
 20
977.21072853930377
 40
8
 50
269.99999999999977
 51
359.99999999999966
  0
LINE
  8
_0-1_計細線
  6
CONTINUOUS
 62
    9
 10
1333.179819228071
 20
944.21072853930377
 11
1346.6964912280705
 21
944.21072853930377
  0
LINE
  8
_0-1_計細線
  6
CONTINUOUS
 62
    9
 10
1356.0964912280706
 20
977.21072853930377
 11
1356.0964912280706
 21
1050.3806005393042
  0
LINE
  8
_0-1_計細線
  6
CONTINUOUS
 62
    9
 10
1305.5964912280704
 20
1062.7107285393038
 11
1303.5964912280701
 21
1062.7107285393038
  0
LINE
  8
_0-1_計細線
  6
CONTINUOUS
 62
    9
 10
1303.5964912280701
 20
1062.7107285393038
 11
1303.5964912280701
 21
1072.7107285393038
  0
LINE
  8
_0-1_計細線
  6
CONTINUOUS
 62
    9
 10
1280.0964912280701
 20
1062.7107285393038
 11
1280.0964912280701
 21
1072.7107285393038
  0
LINE
  8
_0-1_計細線
  6
CONTINUOUS
 62
    9
 10
1252.5964912280701
 20
1054.7107285393038
 11
1252.5964912280701
 21
1072.7107285393038
  0
ARC
  8
_0-1_計細線
  6
CONTINUOUS
 62
    9
 10
1250.0964912280701
 20
1050.3806005393042
 40
5
 50
0
 51
60.000000000000107
  0
LINE
  8
_0-1_計細線
  6
CONTINUOUS
 62
    9
 10
1276.0964912280701
 20
1062.7107285393038
 11
1276.0964912280701
 21
1072.7107285393038
  0
LINE
  8
_0-1_計細線
  6
CONTINUOUS
 62
    9
 10
1305.5964912280704
 20
1054.7107285393038
 11
1252.5964912280701
 21
1054.7107285393038
  0
LINE
  8
_0-1_計細線
  6
CONTINUOUS
 62
    9
 10
1280.0964912280701
 20
1062.7107285393038
 11
1276.0964912280701
 21
1062.7107285393038
  0
LINE
  8
_0-1_計細線
  6
CONTINUOUS
 62
    9
 10
1264.4964912280698
 20
944.21072853930377
 11
1264.0964912280701
 21
969.21072853930377
  0
ARC
  8
_0-1_計細線
  6
CONTINUOUS
 62
    9
 10
1263.0964912280701
 20
977.21072853930377
 40
8
 50
179.99999999999983
 51
269.99999999999977
  0
LINE
  8
_0-1_計細線
  6
CONTINUOUS
 62
    9
 10
1305.5964912280704
 20
944.21072853930377
 11
1264.4964912280698
 21
944.21072853930377
  0
LINE
  8
_0-1_計細線
  6
CONTINUOUS
 62
    9
 10
1305.5964912280704
 20
969.21072853930377
 11
1263.0964912280701
 21
969.21072853930377
  0
LINE
  8
_0-1_計細線
  6
CONTINUOUS
 62
    9
 10
1255.0964912280701
 20
977.21072853930377
 11
1255.0964912280701
 21
1050.3806005393042
  0
LINE
  8
_0-1_計細線
  6
CONTINUOUS
 62
    9
 10
1305.5964912280704
 20
939.21072853930377
 11
1278.0964912280701
 21
939.21072853930377
  0
LINE
  8
_0-1_計細線
  6
CONTINUOUS
 62
    9
 10
1305.5964912280704
 20
939.21072853930377
 11
1333.0964912280704
 21
939.21072853930377
  0
LINE
  8
_0-1_計細線
  6
CONTINUOUS
 62
    9
 10
1278.0964912280701
 20
939.21072853930377
 11
1278.0131552280704
 21
944.21072853930377
  0
LINE
  8
_0-0_計極細
  6
CONTINUOUS
 62
    9
 10
1354.0964912280706
 20
1057.7107285393038
 11
1354.0964912280706
 21
1060.6177925393038
  0
LINE
  8
_0-0_計極細
  6
CONTINUOUS
 62
    9
 10
1355.5754912280718
 20
1056.9107285393036
 11
1354.0964912280706
 21
1057.7107285393038
  0
LINE
  8
_0-0_計極細
  6
CONTINUOUS
 62
    9
 10
1345.8464912280701
 20
1064.617792539304
 11
1349.8964912280717
 21
1064.617792539304
  0
LINE
  8
_0-0_計極細
  6
CONTINUOUS
 62
    9
 10
1352.83771522807
 20
1075.6177925393038
 11
1351.6464912280717
 21
1075.6177925393038
  0
LINE
  8
_0-0_計極細
  6
CONTINUOUS
 62
    9
 10
1349.8964912280717
 20
1063.3177925393045
 11
1349.8964912280717
 21
1073.8677925393038
  0
ARC
  8
_0-0_計極細
  6
CONTINUOUS
 62
    9
 10
1351.6464912280717
 20
1073.8677925393038
 40
1.7500000000000002
 50
89.999999999999915
 51
179.99999999999983
  0
ARC
  8
_0-0_計極細
  6
CONTINUOUS
 62
    9
 10
1355.5754912280718
 20
1076.3677925393038
 40
1.7500000000000002
 50
89.999999999999915
 51
173.71630243580054
  0
ARC
  8
_0-0_計極細
  6
CONTINUOUS
 62
    9
 10
1352.83771522807
 20
1076.6177925393038
 40
1
 50
269.99999999999977
 51
356.64911199999977
  0
ARC
  8
_0-0_計極細
  6
CONTINUOUS
 62
    9
 10
1355.5754912280718
 20
1076.3677925393038
 40
1.05
 50
89.999999999999915
 51
172.98761645885341
  0
ARC
  8
_0-0_計極細
  6
CONTINUOUS
 62
    9
 10
1352.83771522807
 20
1076.6177925393038
 40
1.7000000000000002
 50
269.99999999999977
 51
355.89100209803809
  0
LINE
  8
_0-0_計極細
  6
CONTINUOUS
 62
    9
 10
1352.83771522807
 20
1074.9177925393039
 11
1351.6464912280717
 21
1074.9177925393039
  0
ARC
  8
_0-0_計極細
  6
CONTINUOUS
 62
    9
 10
1351.6464912280717
 20
1073.8677925393038
 40
1.05
 50
89.999999999999915
 51
179.99999999999983
  0
LINE
  8
_0-0_計極細
  6
CONTINUOUS
 62
    9
 10
1350.5964912280706
 20
1062.6177925393038
 11
1350.5964912280706
 21
1073.8677925393038
  0
LINE
  8
_0-0_計極細
  6
CONTINUOUS
 62
    9
 10
1355.5754912280718
 20
1062.096792539304
 11
1355.5754912280718
 21
1077.4177925393039
  0
LINE
  8
_0-0_計極細
  6
CONTINUOUS
 62
    9
 10
1355.5754912280718
 20
1062.096792539304
 11
1354.0964912280706
 21
1060.6177925393038
  0
LINE
  8
_0-0_計極細
  6
CONTINUOUS
 62
    9
 10
1348.5964912280701
 20
1058.6177925393038
 11
1348.5964912280701
 21
1064.617792539304
  0
LINE
  8
_0-0_計極細
  6
CONTINUOUS
 62
    9
 10
1346.3464912280701
 20
1060.718568539304
 11
1346.3464912280701
 21
1064.617792539304
  0
LINE
  8
_0-0_計極細
  6
CONTINUOUS
 62
    9
 10
1348.5964912280701
 20
1062.6177925393038
 11
1350.5964912280706
 21
1062.6177925393038
  0
LINE
  8
_0-0_計極細
  6
CONTINUOUS
 62
    9
 10
1348.5964912280701
 20
1063.3177925393045
 11
1349.8964912280717
 21
1063.3177925393045
  0
LINE
  8
_0-0_計極細
  6
CONTINUOUS
 62
    9
 10
1347.7663072280698
 20
1058.6177925393038
 11
1348.5964912280701
 21
1058.6177925393038
  0
LINE
  8
_0-0_計極細
  6
CONTINUOUS
 62
    9
 10
1348.5964912280701
 20
1060.6177925393038
 11
1354.0964912280706
 21
1060.6177925393038
  0
LINE
  8
_0-0_計極細
  6
CONTINUOUS
 62
    9
 10
1349.8964912280717
 20
1075.6177925393038
 11
1351.8464912280706
 21
1075.6177925393038
  0
LINE
  8
_0-0_計極細
  6
CONTINUOUS
 62
    9
 10
1349.8964912280717
 20
1072.6177925393038
 11
1349.8964912280717
 21
1075.6177925393038
  0
LINE
  8
_0-0_計極細
  6
CONTINUOUS
 62
    9
 10
1348.7964912280709
 20
1072.117792539304
 11
1348.7964912280709
 21
1073.1177925393038
  0
ARC
  8
_0-0_計極細
  6
CONTINUOUS
 62
    9
 10
1349.3964912280717
 20
1072.6177925393038
 40
0.5
 50
269.99999999999977
 51
359.99999999999966
  0
LINE
  8
_0-0_計極細
  6
CONTINUOUS
 62
    9
 10
1348.9464912280707
 20
1069.5239045393043
 11
1349.7464912280702
 21
1071.0239045393043
  0
LINE
  8
_0-0_計極細
  6
CONTINUOUS
 62
    9
 10
1344.8464912280701
 20
1067.7239045393044
 11
1345.3464912280701
 21
1068.2239045393042
  0
LINE
  8
_0-0_計極細
  6
CONTINUOUS
 62
    9
 10
1345.3464912280701
 20
1067.2239045393042
 11
1344.8464912280701
 21
1067.7239045393044
  0
LINE
  8
_0-0_計極細
  6
CONTINUOUS
 62
    9
 10
1345.3464912280701
 20
1069.5239045393043
 11
1344.8464912280701
 21
1070.0239045393046
  0
LINE
  8
_0-0_計極細
  6
CONTINUOUS
 62
    9
 10
1344.8464912280701
 20
1070.0239045393046
 11
1345.3464912280701
 21
1070.5239045393043
  0
LINE
  8
_0-0_計極細
  6
CONTINUOUS
 62
    9
 10
1348.9464912280707
 20
1069.5239045393043
 11
1348.9464912280707
 21
1066.7239045393042
  0
LINE
  8
_0-0_計極細
  6
CONTINUOUS
 62
    9
 10
1345.3464912280701
 20
1067.2239045393042
 11
1345.3464912280701
 21
1066.7239045393042
  0
LINE
  8
_0-0_計極細
  6
CONTINUOUS
 62
    9
 10
1345.3464912280701
 20
1069.5239045393043
 11
1345.3464912280701
 21
1068.2239045393042
  0
ARC
  8
_0-0_計極細
  6
CONTINUOUS
 62
    9
 10
1346.0964912280701
 20
1059.718568539304
 40
2
 50
269.99999999999977
 51
359.99999999999966
  0
LINE
  8
_0-0_計極細
  6
CONTINUOUS
 62
    9
 10
1348.0964912280704
 20
1059.718568539304
 11
1348.0964912280704
 21
1060.718568539304
  0
LINE
  8
_0-0_計極細
  6
CONTINUOUS
 62
    9
 10
1348.0964912280704
 20
1060.718568539304
 11
1345.8464912280701
 21
1060.718568539304
  0
LINE
  8
_0-0_計極細
  6
CONTINUOUS
 62
    9
 10
1349.0964912280706
 20
1065.1185685393045
 11
1349.0964912280706
 21
1066.6185685393045
  0
LINE
  8
_0-0_計極細
  6
CONTINUOUS
 62
    9
 10
1349.0964912280706
 20
1071.2185685393042
 11
1349.0964912280706
 21
1072.117792539304
  0
LINE
  8
_0-0_計極細
  6
CONTINUOUS
 62
    9
 10
1345.8464912280701
 20
1060.718568539304
 11
1345.8464912280701
 21
1065.1185685393045
  0
ARC
  8
_0-0_計極細
  6
CONTINUOUS
 62
    9
 10
1343.8464912280701
 20
1050.710728539304
 40
1
 50
89.999999999999915
 51
179.99999999999983
  0
LINE
  8
_0-0_計極細
  6
CONTINUOUS
 62
    9
 10
1343.8464912280701
 20
1051.7107285393038
 11
1332.5964912280701
 21
1051.7107285393038
  0
LINE
  8
_0-0_計極細
  6
CONTINUOUS
 62
    9
 10
1333.1536512280704
 20
1060.6177925393038
 11
1343.094795228071
 21
1060.6177925393038
  0
LINE
  8
_0-0_計極細
  6
CONTINUOUS
 62
    9
 10
1335.3828032280703
 20
1058.9177925393039
 11
1340.3828032280703
 21
1058.9177925393039
  0
LINE
  8
_0-0_計極細
  6
CONTINUOUS
 62
    9
 10
1335.3828032280703
 20
1058.9177925393039
 11
1335.3828032280703
 21
1060.6177925393038
  0
LINE
  8
_0-0_計極細
  6
CONTINUOUS
 62
    9
 10
1340.3828032280703
 20
1058.9177925393039
 11
1340.3828032280703
 21
1060.6177925393038
  0
LINE
  8
_0-0_計極細
  6
CONTINUOUS
 62
    9
 10
1336.8828032280703
 20
1058.9177925393039
 11
1336.8828032280703
 21
1060.6177925393038
  0
ARC
  8
_0-0_計極細
  6
CONTINUOUS
 62
    9
 10
1338.5964912280701
 20
1058.0928165393041
 40
6.0000000000000009
 50
55.166294000000143
 51
179.99999999999983
  0
ARC
  8
_0-0_計極細
  6
CONTINUOUS
 62
    9
 10
1340.0964912280701
 20
1060.718568539304
 40
3.0000000000000004
 50
0
 51
50.029503000001569
  0
LINE
  8
_0-0_計極細
  6
CONTINUOUS
 62
    9
 10
1343.0964912280704
 20
1057.718568539304
 11
1343.0964912280704
 21
1060.718568539304
  0
ARC
  8
_0-0_計極細
  6
CONTINUOUS
 62
    9
 10
1343.8464912280701
 20
1050.710728539304
 40
1
 50
0
 51
89.999999999999915
  0
LINE
  8
_0-0_計極細
  6
CONTINUOUS
 62
    9
 10
1346.0964912280701
 20
1057.718568539304
 11
1343.0964912280704
 21
1057.718568539304
  0
LINE
  8
_0-0_計極細
  6
CONTINUOUS
 62
    9
 10
1332.5964912280701
 20
1057.7107285393038
 11
1354.0964912280706
 21
1057.7107285393038
  0
LINE
  8
_0-0_計極細
  6
CONTINUOUS
 62
    9
 10
1332.4993632280709
 20
1056.9107285393036
 11
1355.5754912280718
 21
1056.9107285393036
  0
LINE
  8
_0-0_計極細
  6
CONTINUOUS
 62
    9
 10
1344.8464912280701
 20
993.71072853930389
 11
1344.8464912280701
 21
1020.7107285393039
  0
ARC
  8
_0-0_計極細
  6
CONTINUOUS
 62
    9
 10
1352.5964912280708
 20
1030.6322965393044
 40
1
 50
277.18075599995041
 51
359.99999999999966
  0
LINE
  8
_0-0_計極細
  6
CONTINUOUS
 62
    9
 10
1344.8464912280701
 20
1029.6401365393037
 11
1352.7214912280706
 21
1029.6401365393037
  0
ARC
  8
_0-0_計極細
  6
CONTINUOUS
 62
    9
 10
1331.5964912280701
 20
1001.9185685393039
 40
1
 50
269.99999999999977
 51
359.99999999999966
  0
ARC
  8
_0-0_計極細
  6
CONTINUOUS
 62
    9
 10
1331.5964752280704
 20
1001.9185685393039
 40
1
 50
179.99999999999983
 51
269.99999999999977
  0
LINE
  8
_0-0_計極細
  6
CONTINUOUS
 62
    9
 10
1332.5880192280706
 20
1001.788792539304
 11
1332.5880352280706
 21
1001.7888085393041
  0
ARC
  8
_0-0_計極細
  6
CONTINUOUS
 62
    9
 10
1345.5964912280704
 20
979.71072853930377
 40
8
 50
269.99999999999977
 51
359.99999999999966
  0
LINE
  8
_0-0_計極細
  6
CONTINUOUS
 62
    9
 10
1333.5964912280701
 20
969.21072853930377
 11
1343.5964912280701
 21
969.21072853930377
  0
LINE
  8
_0-0_計極細
  6
CONTINUOUS
 62
    9
 10
1330.5980672280707
 20
971.60805653930379
 11
1330.5964912280704
 21
971.71072853930377
  0
LINE
  8
_0-0_計極細
  6
CONTINUOUS
 62
    9
 10
1332.8464912280701
 20
981.71072853930377
 11
1330.5964912280704
 21
981.71072853930377
  0
LINE
  8
_0-0_計極細
  6
CONTINUOUS
 62
    9
 10
1330.5964912280704
 20
971.71072853930377
 11
1330.5964912280704
 21
981.71072853930377
  0
LINE
  8
_0-0_計極細
  6
CONTINUOUS
 62
    9
 10
1343.8464912280701
 20
944.21072853930377
 11
1343.5964912280701
 21
969.21072853930377
  0
LINE
  8
_0-0_計極細
  6
CONTINUOUS
 62
    9
 10
1345.5964912280704
 20
971.71072853930377
 11
1330.5964912280704
 21
971.71072853930377
  0
LINE
  8
_0-0_計極細
  6
CONTINUOUS
 62
    9
 10
1353.5964912280706
 20
979.71072853930377
 11
1353.5964912280706
 21
1030.6322965393044
  0
ARC
  8
_0-0_計極細
  6
CONTINUOUS
 62
    9
 10
1332.8464912280701
 20
993.71072853930389
 40
12.000000000000002
 50
269.99999999999977
 51
359.99999999999966
  0
ARC
  8
_0-0_計極細
  6
CONTINUOUS
 62
    9
 10
1332.8464912280701
 20
993.71072853930389
 40
10
 50
269.99999999999977
 51
359.99999999999966
  0
LINE
  8
_0-0_計極細
  6
CONTINUOUS
 62
    9
 10
1353.5964912280706
 20
1030.6322965393044
 11
1353.5964912280706
 21
1056.9107285393036
  0
LINE
  8
_0-0_計極細
  6
CONTINUOUS
 62
    9
 10
1344.8464912280701
 20
993.71072853930389
 11
1344.8464912280701
 21
1050.710728539304
  0
LINE
  8
_0-0_計極細
  6
CONTINUOUS
 62
    9
 10
1342.8464912280701
 20
993.71072853930389
 11
1342.8464912280701
 21
1050.710728539304
  0
LINE
  8
_0-0_計極細
  6
CONTINUOUS
 62
    9
 10
1332.5964912280701
 20
1001.9185685393039
 11
1332.5964912280701
 21
1058.0928165393041
  0
LINE
  8
_0-0_計極細
  6
CONTINUOUS
 62
    9
 10
1330.5964752280702
 20
1001.9185685393039
 11
1330.5964752280702
 21
1056.9107285393036
  0
LINE
  8
_0-0_計極細
  6
CONTINUOUS
 62
    9
 10
1306.5930672280697
 20
972.20728053930429
 11
1306.5275952280715
 21
981.70044853930438
  0
ARC
  8
_0-0_計極細
  6
CONTINUOUS
 62
    9
 10
1307.0930512280715
 20
972.21072853930377
 40
0.5
 50
180.39513700000634
 51
269.99999999999977
  0
LINE
  8
_0-0_計極細
  6
CONTINUOUS
 62
    9
 10
1305.5964912280704
 20
981.71072853930377
 11
1306.5275232280705
 21
981.71072853930377
  0
LINE
  8
_0-0_計極細
  6
CONTINUOUS
 62
    9
 10
1305.5964912280704
 20
1056.9107285393036
 11
1330.5964752280702
 21
1056.9107285393036
  0
LINE
  8
_0-0_計極細
  6
CONTINUOUS
 62
    9
 10
1330.5964912280704
 20
971.71072853930377
 11
1305.5964912280704
 21
971.71072853930377
  0
LINE
  8
_0-0_計極細
  6
CONTINUOUS
 62
    9
 10
1306.5275232280705
 20
981.71072853930377
 11
1332.8464912280701
 21
981.71072853930377
  0
LINE
  8
_0-0_計極細
  6
CONTINUOUS
 62
    9
 10
1305.5964912280704
 20
983.71072853930389
 11
1332.8464912280701
 21
983.71072853930389
  0
LINE
  8
_0-0_計極細
  6
CONTINUOUS
 62
    9
 10
1305.5964912280704
 20
1078.1177925393038
 11
1355.5754912280718
 21
1078.1177925393038
  0
LINE
  8
_0-0_計極細
  6
CONTINUOUS
 62
    9
 10
1305.7964912280709
 20
1073.1177925393038
 11
1348.7964912280709
 21
1073.1177925393038
  0
LINE
  8
_0-0_計極細
  6
CONTINUOUS
 62
    9
 10
1305.7964912280709
 20
1072.117792539304
 11
1349.3964912280717
 21
1072.117792539304
  0
LINE
  8
_0-0_計極細
  6
CONTINUOUS
 62
    9
 10
1305.5964912280704
 20
1071.0239045393043
 11
1349.7464912280702
 21
1071.0239045393043
  0
LINE
  8
_0-0_計極細
  6
CONTINUOUS
 62
    9
 10
1305.5964912280704
 20
1070.0239045393046
 11
1344.8464912280701
 21
1070.0239045393046
  0
LINE
  8
_0-0_計極細
  6
CONTINUOUS
 62
    9
 10
1305.5964912280704
 20
1067.7239045393044
 11
1344.8464912280701
 21
1067.7239045393044
  0
LINE
  8
_0-0_計極細
  6
CONTINUOUS
 62
    9
 10
1305.5964912280704
 20
1066.7239045393042
 11
1348.9464912280707
 21
1066.7239045393042
  0
LINE
  8
_0-0_計極細
  6
CONTINUOUS
 62
    9
 10
1331.5964912280701
 20
1000.9185685393038
 11
1305.5964912280704
 21
1000.9185685393038
  0
LINE
  8
_0-0_計極細
  6
CONTINUOUS
 62
    9
 10
1349.0964912280706
 20
1065.1185685393045
 11
1305.5964912280704
 21
1065.1185685393045
  0
LINE
  8
_0-0_計極細
  6
CONTINUOUS
 62
    9
 10
1349.0964912280706
 20
1066.6185685393045
 11
1305.5964912280704
 21
1066.6185685393045
  0
LINE
  8
_0-0_計極細
  6
CONTINUOUS
 62
    9
 10
1349.0964912280706
 20
1071.2185685393042
 11
1305.5964912280704
 21
1071.2185685393042
  0
LINE
  8
_0-0_計極細
  6
CONTINUOUS
 62
    9
 10
1331.0964912280701
 20
939.21072853930377
 11
1330.5964912280704
 21
971.71072853930377
  0
LINE
  8
_0-0_計極細
  6
CONTINUOUS
 62
    9
 10
1305.5964912280704
 20
1050.3806005393042
 11
1255.0964912280701
 21
1050.3806005393042
  0
LINE
  8
_0-0_計極細
  6
CONTINUOUS
 62
    9
 10
1333.1798245614032
 20
944.21072853930377
 11
1333.5964912280701
 21
969.21072853930377
  0
LINE
  8
_0-1_計細線
  6
CONTINUOUS
 62
    9
 10
1333.0964912280704
 20
939.21072853930377
 11
1333.1798245614032
 21
944.21072853930377
  0
LINE
  8
_0-1_計細線
  6
CONTINUOUS
 62
    9
 10
1361.5964912280706
 20
1062.7107285393038
 11
1361.5964912280706
 21
1079.1177925393038
  0
LINE
  8
_0-0_計極細
  6
CONTINUOUS
 62
    9
 10
1355.5754912280718
 20
1078.1177925393038
 11
1361.5964912280706
 21
1079.1177925393038
  0
LINE
  8
_0-0_計極細
  6
CONTINUOUS
 62
    9
 10
1355.5754912280718
 20
1077.4107260652042
 11
1361.5964912280706
 21
1078.4107315246338
  0
LINE
  8
_0-0_計極細
  6
CONTINUOUS
 62
    9
 10
1361.5964912280706
 20
1076.7107285393038
 11
1355.5754912280718
 21
1075.9107285393038
  0
LINE
  8
_0-1_計細線
  6
CONTINUOUS
 62
    9
 10
1305.5964912280704
 20
1079.1177925393038
 11
1361.5964912280706
 21
1079.1177925393038
  0
LINE
  8
_0-1_計細線
  6
CONTINUOUS
 62
    9
 10
1358.5964912280706
 20
1062.7107285393038
 11
1361.5964912280706
 21
1062.7107285393038
  0
LINE
  8
_0-1_計細線
  6
CONTINUOUS
 62
    9
 10
1252.5964912280701
 20
1062.7107285393038
 11
1249.5964912280701
 21
1062.7107285393038
  0
LINE
  8
_0-1_計細線
  6
CONTINUOUS
 62
    9
 10
1305.5964912280704
 20
1072.7107285393038
 11
1249.5964912280701
 21
1072.7107285393038
  0
LINE
  8
_0-1_計細線
  6
CONTINUOUS
 62
    9
 10
1249.5964912280701
 20
1076.7107452593075
 11
1305.5964912280704
 21
1076.7107452593075
  0
LINE
  8
_0-1_計細線
  6
CONTINUOUS
 62
    9
 10
1249.5964912280701
 20
1062.7107285393038
 11
1249.5964912280701
 21
1076.7107452593075
  0
LINE
  8
_0-1_計細線
  6
CONTINUOUS
 62
    9
 10
1248.5964912280708
 20
1076.2107285393038
 11
1249.5964912280699
 21
1076.2107285393038
  0
TEXT
  8
_0-7_枠細線
 62
    1
 10
1808.0238468233374
 20
1656.2261792523225
 40
30
 41
1
 50
0
  1
HNFT-15L1000-○
  0
TEXT
  8
_0-7_枠細線
 62
    1
 10
1808.0238468233374
 20
1606.2261792523225
 40
30
 41
1
 50
0
  1
HNFT-15L1200-○
  0
TEXT
  8
_0-7_枠細線
 62
    1
 10
1808.0238468233374
 20
1556.2261792523225
 40
30
 41
1
 50
0
  1
HNFT-15L1500-○
  0
TEXT
  8
_0-7_枠細線
 62
    1
 10
1808.0238468233374
 20
1506.2261792523223
 40
30
 41
1
 50
0
  1
HNFT-15L1800-○
  0
TEXT
  8
_0-7_枠細線
 62
    1
 10
1808.0238468233374
 20
1312.4761792523234
 40
30
 41
1
 50
0
  1
HNFT-15L1000-○
  0
TEXT
  8
_0-7_枠細線
 62
    1
 10
1808.0238468233374
 20
1262.4761792523232
 40
30
 41
1
 50
0
  1
HNFT-15L1200-○
  0
TEXT
  8
_0-7_枠細線
 62
    1
 10
1808.0238468233374
 20
1212.4761792523232
 40
30
 41
1
 50
0
  1
HNFT-15L1500-○
  0
TEXT
  8
_0-7_枠細線
 62
    1
 10
1808.0238468233374
 20
1162.4761792523232
 40
30
 41
1
 50
0
  1
HNFT-15L1800-○
  0
TEXT
  8
_0-7_枠細線
 62
    1
 10
1917.1186917912062
 20
220
 40
40.000000000000014
 41
0.5999999999999998
 50
0
  1
ＨＮＦＴ－１５Ｌ１０００～１８００
  0
LINE
  8
_0-f_
  6
CONTINUOUS
 62
    9
 10
1050.359496110374
 20
710.82416497735505
 11
1074.3594937103737
 21
710.82416497735505
  0
LINE
  8
_0-f_
  6
CONTINUOUS
 62
    9
 10
1050.359496110374
 20
712.15749817735525
 11
1074.3594937103737
 21
712.15749817735525
  0
LINE
  8
_0-f_
  6
CONTINUOUS
 62
    9
 10
1050.1446512444618
 20
713.49083137735545
 11
1074.3594937103737
 21
713.49083137735545
  0
LINE
  8
_0-f_
  6
CONTINUOUS
 62
    9
 10
1048.8113180444616
 20
714.82416457735565
 11
1074.3594937103737
 21
714.82416457735565
  0
LINE
  8
_0-f_
  6
CONTINUOUS
 62
    9
 10
1047.4779848444655
 20
716.15749777735584
 11
1074.3594937103737
 21
716.15749777735584
  0
LINE
  8
_0-f_
  6
CONTINUOUS
 62
    9
 10
1047.90767457628
 20
717.49083097735604
 11
1074.3594937103737
 21
717.49083097735604
  0
LINE
  8
_0-f_
  6
CONTINUOUS
 62
    9
 10
1049.2410077762802
 20
718.82416417735624
 11
1074.3594937103737
 21
718.82416417735624
  0
LINE
  8
_0-f_
  6
CONTINUOUS
 62
    9
 10
1050.359496110374
 20
720.15749737735644
 11
1074.3594937103737
 21
720.15749737735644
  0
LINE
  8
_0-f_
  6
CONTINUOUS
 62
    9
 10
1050.359496110374
 20
721.49083057735663
 11
1074.3594937103737
 21
721.49083057735663
  0
LINE
  8
_0-f_
  6
CONTINUOUS
 62
    9
 10
1050.359496110374
 20
722.82416377735683
 11
1074.3594937103737
 21
722.82416377735683
  0
LINE
  8
_0-f_
  6
CONTINUOUS
 62
    9
 10
1050.359496110374
 20
724.15749697735566
 11
1074.3594937103737
 21
724.15749697735566
  0
LINE
  8
_0-f_
  6
CONTINUOUS
 62
    9
 10
1050.359496110374
 20
725.49083017735586
 11
1074.3594937103737
 21
725.49083017735586
  0
LINE
  8
_0-f_
  6
CONTINUOUS
 62
    9
 10
1050.359496110374
 20
726.82416337735606
 11
1074.3594937103737
 21
726.82416337735606
  0
LINE
  8
_0-f_
  6
CONTINUOUS
 62
    9
 10
1050.359496110374
 20
728.15749657735626
 11
1074.3594937103737
 21
728.15749657735626
  0
LINE
  8
_0-f_
  6
CONTINUOUS
 62
    9
 10
1049.4779846444617
 20
729.49082977735645
 11
1074.8296331588592
 21
729.49082977735645
  0
LINE
  8
_0-f_
  6
CONTINUOUS
 62
    9
 10
1048.1446514444615
 20
730.82416297735665
 11
1075.5407441988593
 21
730.82416297735665
  0
LINE
  8
_0-f_
  6
CONTINUOUS
 62
    9
 10
1047.2410079762835
 20
732.15749617735685
 11
1076.251855238859
 21
732.15749617735685
  0
LINE
  8
_0-f_
  6
CONTINUOUS
 62
    9
 10
1048.5743411762837
 20
733.49082937735704
 11
1076.9629662788595
 21
733.49082937735704
  0
LINE
  8
_0-f_
  6
CONTINUOUS
 62
    9
 10
1049.9076743762839
 20
734.82416257735724
 11
1077.6740773188596
 21
734.82416257735724
  0
LINE
  8
_0-f_
  6
CONTINUOUS
 62
    9
 10
1050.359496110374
 20
736.15749577735744
 11
1078.3851883588593
 21
736.15749577735744
  0
LINE
  8
_0-f_
  6
CONTINUOUS
 62
    9
 10
1050.359496110374
 20
737.49082897735764
 11
1079.0962993988599
 21
737.49082897735764
  0
LINE
  8
_0-f_
  6
CONTINUOUS
 62
    9
 10
1117.746603966136
 20
678.28903793794882
 11
1117.746603966136
 21
781.18866362911604
  0
LINE
  8
_0-f_
  6
CONTINUOUS
 62
    9
 10
1116.4132707661358
 20
676.95570473794862
 11
1116.4132707661358
 21
780.90025331218499
  0
LINE
  8
_0-f_
  6
CONTINUOUS
 62
    9
 10
1115.0799375661356
 20
675.62237153794842
 11
1115.0799375661356
 21
780.31299827586508
  0
LINE
  8
_0-f_
  6
CONTINUOUS
 62
    9
 10
1113.7466043661354
 20
674.28903833794823
 11
1113.7466043661354
 21
779.32447651837538
  0
LINE
  8
_0-f_
  6
CONTINUOUS
 62
    9
 10
1112.4132711661352
 20
672.95570513794803
 11
1112.4132711661352
 21
777.59767151875599
  0
LINE
  8
_0-f_
  6
CONTINUOUS
 62
    9
 10
1111.079937966135
 20
671.6223719379492
 11
1111.079937966135
 21
772.40068810486696
  0
LINE
  8
_0-f_
  6
CONTINUOUS
 62
    9
 10
1109.7466047661349
 20
670.28903873794764
 11
1109.7466047661349
 21
769.63895297312718
  0
LINE
  8
_0-f_
  6
CONTINUOUS
 62
    9
 10
1108.4132715661347
 20
669.23525758218727
 11
1108.4132715661347
 21
767.98767221021774
  0
LINE
  8
_0-f_
  6
CONTINUOUS
 62
    9
 10
1107.0799383661345
 20
669.23525758218727
 11
1107.0799383661345
 21
766.81950186764209
  0
LINE
  8
_0-f_
  6
CONTINUOUS
 62
    9
 10
1105.7466051661343
 20
669.23525758218727
 11
1105.7466051661343
 21
765.96261613383763
  0
LINE
  8
_0-f_
  6
CONTINUOUS
 62
    9
 10
1104.4132719661341
 20
669.23525758218727
 11
1104.4132719661341
 21
765.34097090946307
  0
LINE
  8
_0-f_
  6
CONTINUOUS
 62
    9
 10
1103.0799387661339
 20
669.23525758218727
 11
1103.0799387661339
 21
764.91456487278754
  0
LINE
  8
_0-f_
  6
CONTINUOUS
 62
    9
 10
1101.7466055661337
 20
669.23525758218727
 11
1101.7466055661337
 21
764.66115745357672
  0
LINE
  8
_0-f_
  6
CONTINUOUS
 62
    9
 10
1100.4132723661335
 20
669.23525758218727
 11
1100.4132723661335
 21
764.56913765660931
  0
LINE
  8
_0-f_
  6
CONTINUOUS
 62
    9
 10
1099.0799391661333
 20
669.23525758218727
 11
1099.0799391661333
 21
764.56858138218752
  0
LINE
  8
_0-f_
  6
CONTINUOUS
 62
    9
 10
1097.7466059661331
 20
669.23525758218727
 11
1097.7466059661331
 21
764.56858138218752
  0
LINE
  8
_0-f_
  6
CONTINUOUS
 62
    9
 10
1096.4132727661329
 20
669.23525758218727
 11
1096.4132727661329
 21
764.56858138218752
  0
LINE
  8
_0-f_
  6
CONTINUOUS
 62
    9
 10
1095.0799395661327
 20
669.23525758218727
 11
1095.0799395661327
 21
764.56858138218752
  0
LINE
  8
_0-f_
  6
CONTINUOUS
 62
    9
 10
1093.7466063661325
 20
669.23525758218727
 11
1093.7466063661325
 21
764.56858138218752
  0
LINE
  8
_0-f_
  6
CONTINUOUS
 62
    9
 10
1092.4132731661323
 20
669.23525758218727
 11
1092.4132731661323
 21
764.56858138218752
  0
LINE
  8
_0-f_
  6
CONTINUOUS
 62
    9
 10
1091.0799399661341
 20
669.23525758218727
 11
1091.0799399661341
 21
764.45064115066327
  0
LINE
  8
_0-f_
  6
CONTINUOUS
 62
    9
 10
1089.7466067661339
 20
669.23525758218727
 11
1089.7466067661339
 21
764.06264255488111
  0
LINE
  8
_0-f_
  6
CONTINUOUS
 62
    9
 10
1088.4132735661353
 20
669.23525758218727
 11
1088.4132735661353
 21
763.35022120786664
  0
LINE
  8
_0-f_
  6
CONTINUOUS
 62
    9
 10
1087.0799403661351
 20
669.23525758218727
 11
1087.0799403661351
 21
762.16492037388377
  0
LINE
  8
_0-f_
  6
CONTINUOUS
 62
    9
 10
1085.7466071661349
 20
669.23525758218727
 11
1085.7466071661349
 21
759.86417472013511
  0
LINE
  8
_0-f_
  6
CONTINUOUS
 62
    9
 10
1084.4132739661347
 20
669.23525758218727
 11
1084.4132739661347
 21
682.56858958218584
  0
LINE
  8
_0-f_
  6
CONTINUOUS
 62
    9
 10
1083.0799407661345
 20
669.23525758218727
 11
1083.0799407661345
 21
682.56858958218584
  0
LINE
  8
_0-f_
  6
CONTINUOUS
 62
    9
 10
1081.7466075661343
 20
669.23525758218727
 11
1081.7466075661343
 21
682.56858958218584
  0
LINE
  8
_0-f_
  6
CONTINUOUS
 62
    9
 10
1080.4132743661341
 20
669.23525758218727
 11
1080.4132743661341
 21
682.56858958218584
  0
LINE
  8
_0-f_
  6
CONTINUOUS
 62
    9
 10
1079.0799411661339
 20
669.23525758218727
 11
1079.0799411661339
 21
682.56858958218584
  0
LINE
  8
_0-f_
  6
CONTINUOUS
 62
    9
 10
1077.7466079661338
 20
669.23525758218727
 11
1077.7466079661338
 21
682.56858958218584
  0
LINE
  8
_0-f_
  6
CONTINUOUS
 62
    9
 10
1076.4132747661336
 20
669.23525758218727
 11
1076.4132747661336
 21
682.56858958218584
  0
LINE
  8
_0-f_
  6
CONTINUOUS
 62
    9
 10
1075.0799415661334
 20
669.23525758218727
 11
1075.0799415661334
 21
682.56858958218584
  0
LINE
  8
_0-f_
  6
CONTINUOUS
 62
    9
 10
1073.7466083661332
 20
669.23525758218727
 11
1073.7466083661332
 21
682.56858958218584
  0
LINE
  8
_0-f_
  6
CONTINUOUS
 62
    9
 10
1072.413275166133
 20
669.23525758218727
 11
1072.413275166133
 21
682.56858958218584
  0
LINE
  8
_0-f_
  6
CONTINUOUS
 62
    9
 10
1071.0799419661346
 20
655.90192558218644
 11
1071.0799419661346
 21
695.90192158218645
  0
LINE
  8
_0-f_
  6
CONTINUOUS
 62
    9
 10
1069.7466087661344
 20
655.90192558218644
 11
1069.7466087661344
 21
695.90192158218645
  0
LINE
  8
_0-f_
  6
CONTINUOUS
 62
    9
 10
1068.4132755661342
 20
655.90192558218644
 11
1068.4132755661342
 21
660.52446714671635
  0
LINE
  8
_0-f_
  6
CONTINUOUS
 62
    9
 10
1068.4132755661342
 20
669.90711751500169
 11
1068.4132755661342
 21
695.90192158218645
  0
LINE
  8
_0-f_
  6
CONTINUOUS
 62
    9
 10
1067.079942366134
 20
655.90192558218644
 11
1067.079942366134
 21
656.8836543601775
  0
LINE
  8
_0-f_
  6
CONTINUOUS
 62
    9
 10
1067.079942366134
 20
669.90711751500169
 11
1067.079942366134
 21
695.90192158218645
  0
LINE
  8
_0-f_
  6
CONTINUOUS
 62
    9
 10
1065.7466091661338
 20
669.90711751500169
 11
1065.7466091661338
 21
695.90192158218645
  0
LINE
  8
_0-f_
  6
CONTINUOUS
 62
    9
 10
1064.4132759661338
 20
669.90711751500169
 11
1064.4132759661338
 21
695.90192158218645
  0
LINE
  8
_0-f_
  6
CONTINUOUS
 62
    9
 10
1063.0799427661336
 20
669.90711751500169
 11
1063.0799427661336
 21
695.90192158218645
  0
LINE
  8
_0-f_
  6
CONTINUOUS
 62
    9
 10
1061.7466095661334
 20
669.90711751500169
 11
1061.7466095661334
 21
695.90192158218645
  0
LINE
  8
_0-f_
  6
CONTINUOUS
 62
    9
 10
1060.4132763661332
 20
669.90711751500169
 11
1060.4132763661332
 21
695.90192158218645
  0
LINE
  8
_0-f_
  6
CONTINUOUS
 62
    9
 10
1059.079943166133
 20
669.90711751500169
 11
1059.079943166133
 21
695.90192158218645
  0
LINE
  8
_0-f_
  6
CONTINUOUS
 62
    9
 10
1057.7466099661328
 20
669.90711751500169
 11
1057.7466099661328
 21
695.90192158218645
  0
LINE
  8
_0-f_
  6
CONTINUOUS
 62
    9
 10
1056.4132767661363
 20
669.90711751500169
 11
1056.4132767661363
 21
695.90192158218645
  0
LINE
  8
_0-f_
  6
CONTINUOUS
 62
    9
 10
1055.0799435661361
 20
669.90711751500169
 11
1055.0799435661361
 21
695.90192158218645
  0
LINE
  8
_0-f_
  6
CONTINUOUS
 62
    9
 10
1053.7466103661359
 20
669.90711751500169
 11
1053.7466103661359
 21
695.90192158218645
  0
LINE
  8
_0-f_
  6
CONTINUOUS
 62
    9
 10
1035.3594976103727
 20
649.90711951500191
 11
1035.3594976103727
 21
669.23525758218727
  0
ARC
  8
_0-f_
  6
CONTINUOUS
 62
    9
 10
1015.3594996103733
 20
669.90711751500169
 40
19.999997999999991
 50
358.07490068720392
 51
50.029499419962704
  0
LINE
  8
_0-f_
  6
CONTINUOUS
 62
    9
 10
1118.5528226243716
 20
772.15749217735538
 11
1126.9388090678351
 21
772.15749217735538
  0
LINE
  8
_0-f_
  6
CONTINUOUS
 62
    9
 10
1118.5528226243716
 20
773.49082537735558
 11
1138.4738079143356
 21
773.49082537735558
  0
LINE
  8
_0-f_
  6
CONTINUOUS
 62
    9
 10
1118.5528226243716
 20
774.82415857735577
 11
1150.008806760836
 21
774.82415857735577
  0
LINE
  8
_0-f_
  6
CONTINUOUS
 62
    9
 10
1118.5528226243716
 20
776.15749177735597
 11
1161.5438056073369
 21
776.15749177735597
  0
LINE
  8
_0-f_
  6
CONTINUOUS
 62
    9
 10
1118.5528226243716
 20
777.49082497735617
 11
1164.6928180103739
 21
777.49082497735617
  0
LINE
  8
_0-f_
  6
CONTINUOUS
 62
    9
 10
1118.5528226243716
 20
778.82415817735637
 11
1164.6928180103739
 21
778.82415817735637
  0
LINE
  8
_0-f_
  6
CONTINUOUS
 62
    9
 10
1118.5528226243716
 20
780.15749137735656
 11
1164.6928180103739
 21
780.15749137735656
  0
LINE
  8
_0-f_
  6
CONTINUOUS
 62
    9
 10
1120.6779038151328
 20
781.49082457735676
 11
1164.6928180103739
 21
781.49082457735676
  0
LINE
  8
_0-f_
  6
CONTINUOUS
 62
    9
 10
1130.0392311641301
 20
782.82415777735696
 11
1164.6928180103739
 21
782.82415777735696
  0
LINE
  8
_0-f_
  6
CONTINUOUS
 62
    9
 10
1139.400558513131
 20
784.15749097735716
 11
1164.6928180103739
 21
784.15749097735716
  0
LINE
  8
_0-f_
  6
CONTINUOUS
 62
    9
 10
1148.7618858621283
 20
785.49082417735735
 11
1164.6928180103739
 21
785.49082417735735
  0
LINE
  8
_0-f_
  6
CONTINUOUS
 62
    9
 10
1158.1232132111315
 20
786.82415737735596
 11
1164.6928180103739
 21
786.82415737735596
  0
LINE
  8
_0-f_
  6
CONTINUOUS
 62
    9
 10
1164.6928180103739
 20
787.85481905356369
 11
1164.6928180103739
 21
792.47362535615071
  0
LINE
  8
_0-f_
  6
CONTINUOUS
 62
    9
 10
1118.5528226243716
 20
785.90191258218749
 11
1164.6928180103739
 21
792.47362535615071
  0
LINE
  8
_0-f_
  6
CONTINUOUS
 62
    9
 10
1075.359493610373
 20
739.90711051500159
 11
1075.359493610373
 21
745.90191658218646
  0
LINE
  8
_0-f_
  6
CONTINUOUS
 62
    9
 10
1075.359493610373
 20
699.24044791500012
 11
1075.359493610373
 21
709.24044691499989
  0
LINE
  8
_0-f_
  6
CONTINUOUS
 62
    9
 10
1050.359496110374
 20
728.60931831144728
 11
1050.359496110374
 21
719.94265251144736
  0
LINE
  8
_0-f_
  6
CONTINUOUS
 62
    9
 10
1050.359496110374
 20
713.27598651144638
 11
1050.359496110374
 21
709.94265351144588
  0
LINE
  8
_0-f_
  6
CONTINUOUS
 62
    9
 10
1074.3594937103737
 20
728.60931831144728
 11
1074.3594937103737
 21
709.94265351144588
  0
LINE
  8
_0-f_
  6
CONTINUOUS
 62
    9
 10
1047.0261631103735
 20
731.94265131144778
 11
1050.359496110374
 21
735.27598431144656
  0
LINE
  8
_0-f_
  6
CONTINUOUS
 62
    9
 10
1050.359496110374
 20
728.60931831144728
 11
1047.0261631103735
 21
731.94265131144778
  0
LINE
  8
_0-f_
  6
CONTINUOUS
 62
    9
 10
1050.359496110374
 20
713.27598651144638
 11
1047.0261631103735
 21
716.60931951144687
  0
LINE
  8
_0-f_
  6
CONTINUOUS
 62
    9
 10
1047.0261631103735
 20
716.60931951144687
 11
1050.359496110374
 21
719.94265251144736
  0
LINE
  8
_0-f_
  6
CONTINUOUS
 62
    9
 10
1074.3594937103737
 20
728.60931831144728
 11
1079.6928265103745
 21
738.60931731144558
  0
LINE
  8
_0-f_
  6
CONTINUOUS
 62
    9
 10
1050.359496110374
 20
738.60931731144558
 11
1050.359496110374
 21
735.27598431144656
  0
ARC
  8
_0-f_
  6
CONTINUOUS
 62
    9
 10
1091.6928253103727
 20
779.23524658218651
 40
3.3333330000000001
 50
24.054548999992022
 51
89.999999999999915
  0
ARC
  8
_0-f_
  6
CONTINUOUS
 62
    9
 10
1093.692825110373
 20
770.5685807821867
 40
1.3333331999999241
 50
269.99999999999977
 51
359.99999999999966
  0
ARC
  8
_0-f_
  6
CONTINUOUS
 62
    9
 10
1091.6928253103727
 20
779.23524658218651
 40
3.3333330000000001
 50
0
 51
24.054548999992022
  0
LINE
  8
_0-f_
  6
CONTINUOUS
 62
    9
 10
1080.6928264103738
 20
749.23524958218695
 11
1080.6928264103756
 21
769.23524758218832
  0
LINE
  8
_0-f_
  6
CONTINUOUS
 62
    9
 10
1080.6928264103756
 20
769.23524758218832
 11
1093.692825110373
 21
769.23524758218832
  0
LINE
  8
_0-f_
  6
CONTINUOUS
 62
    9
 10
1095.0261583103731
 20
770.5685807821867
 11
1095.0261583103731
 21
779.23524658218651
  0
LINE
  8
_0-f_
  6
CONTINUOUS
 62
    9
 10
1072.0261606103743
 20
669.23525758218727
 11
1108.6928236103702
 21
669.23525758218727
  0
LINE
  8
_0-f_
  6
CONTINUOUS
 62
    9
 10
1066.4916011638293
 20
655.90192558218644
 11
1072.0261606103743
 21
655.90192558218644
  0
LINE
  8
_0-f_
  6
CONTINUOUS
 62
    9
 10
1072.0261606103743
 20
687.23525578218653
 11
1080.6928264103738
 21
687.23525578218653
  0
LINE
  8
_0-f_
  6
CONTINUOUS
 62
    9
 10
1072.0261606103743
 20
682.56858958218584
 11
1085.3594926103729
 21
682.56858958218584
  0
LINE
  8
_0-f_
  6
CONTINUOUS
 62
    9
 10
1072.0261606103743
 20
655.90192558218644
 11
1072.0261606103743
 21
695.90192158218645
  0
LINE
  8
_0-f_
  6
CONTINUOUS
 62
    9
 10
1118.5528226243716
 20
679.09525659618578
 11
1108.6928236103702
 21
669.23525758218727
  0
LINE
  8
_0-f_
  6
CONTINUOUS
 62
    9
 10
1085.3594926103729
 20
682.56858958218584
 11
1085.3594926103744
 21
757.56858208218648
  0
ARC
  8
_0-f_
  6
CONTINUOUS
 62
    9
 10
1092.3594919103728
 20
757.56858208218648
 40
6.9999993000000762
 50
89.999999999999915
 51
179.99999999999983
  0
LINE
  8
_0-f_
  6
CONTINUOUS
 62
    9
 10
1100.3009844495571
 20
764.56858138218752
 11
1092.3594919103728
 21
764.56858138218752
  0
ARC
  8
_0-f_
  6
CONTINUOUS
 62
    9
 10
1100.3009844495571
 20
775.90191358218601
 40
11.333332199999919
 50
269.99999999999977
 51
356.64911200000029
  0
ARC
  8
_0-f_
  6
CONTINUOUS
 62
    9
 10
1100.3009844495571
 20
775.90191358218601
 40
6.6666660000000002
 50
269.99999999999977
 51
356.64911200000734
  0
ARC
  8
_0-f_
  6
CONTINUOUS
 62
    9
 10
1118.5528226243716
 20
774.23524708218724
 40
11.666665500000002
 50
89.999999999999915
 51
175.84901000000195
  0
ARC
  8
_0-f_
  6
CONTINUOUS
 62
    9
 10
1092.3594919103728
 20
757.56858208218648
 40
11.666665500000002
 50
89.999999999999915
 51
179.99999999999983
  0
LINE
  8
_0-f_
  6
CONTINUOUS
 62
    9
 10
1095.3594916103723
 20
769.23524758218832
 11
1095.3594916103723
 21
785.90191258218749
  0
LINE
  8
_0-f_
  6
CONTINUOUS
 62
    9
 10
1080.6928264103738
 20
687.23525578218653
 11
1080.6928264103738
 21
757.56858208218648
  0
LINE
  8
_0-f_
  6
CONTINUOUS
 62
    9
 10
1100.3009844495571
 20
769.23524758218832
 11
1092.3594919103728
 21
769.23524758218832
  0
LINE
  8
_0-f_
  6
CONTINUOUS
 62
    9
 10
1053.6928291103745
 20
695.90192158218645
 11
1080.6928264103738
 21
695.90192158218645
  0
LINE
  8
_0-f_
  6
CONTINUOUS
 62
    9
 10
1164.6928180103739
 20
776.52148685356337
 11
1118.5528226243716
 21
771.18815405356258
  0
LINE
  8
_0-f_
  6
CONTINUOUS
 62
    9
 10
1118.5528226243716
 20
644.52150005356327
 11
1108.6928236103702
 21
649.85483285356293
  0
LINE
  8
_0-f_
  6
CONTINUOUS
 62
    9
 10
1108.6928236103702
 20
649.85483285356293
 11
1108.6928236103702
 21
669.23525758218727
  0
LINE
  8
_0-f_
  6
CONTINUOUS
 62
    9
 10
1164.6928180103739
 20
686.88976915006822
 11
1164.6928180103739
 21
792.37867193451109
  0
LINE
  8
_0-f_
  6
CONTINUOUS
 62
    9
 10
1138.6928206103732
 20
683.18816285356309
 11
1164.6928180103739
 21
683.18816285356309
  0
LINE
  8
_0-f_
  6
CONTINUOUS
 62
    9
 10
1164.6928180103739
 20
683.18816285356309
 11
1164.6928180103739
 21
686.88976915006822
  0
LINE
  8
_0-f_
  6
CONTINUOUS
 62
    9
 10
1138.6928206103732
 20
629.85483485356269
 11
1138.6928206103732
 21
683.18816285356309
  0
LINE
  8
_0-f_
  6
CONTINUOUS
 62
    9
 10
1118.5528226243716
 20
781.188149411891
 11
1164.6928180103739
 21
787.75986572972454
  0
LINE
  8
_0-f_
  6
CONTINUOUS
 62
    9
 10
1118.5528226243716
 20
679.09525659618578
 11
1118.5528226243716
 21
781.2352463821868
  0
ARC
  8
_0-f_
  6
CONTINUOUS
 62
    9
 10
1118.5528226243716
 20
774.23524708218724
 40
6.9999993000000762
 50
89.999999999999915
 51
175.84901000000636
  0
LINE
  8
_0-f_
  6
CONTINUOUS
 62
    9
 10
1055.3594956103721
 20
649.90711951500191
 11
1035.3594976103727
 21
649.90711951500191
  0
ARC
  8
_0-f_
  6
CONTINUOUS
 62
    9
 10
1055.3594956103721
 20
663.2404515150007
 40
13.333332
 50
269.99999999999977
 51
359.99999999999966
  0
LINE
  8
_0-f_
  6
CONTINUOUS
 62
    9
 10
1068.6928276103738
 20
663.2404515150007
 11
1068.6928276103738
 21
669.90711751500169
  0
LINE
  8
_0-f_
  6
CONTINUOUS
 62
    9
 10
1068.6928276103738
 20
669.90711751500169
 11
1053.6928291103745
 21
669.90711751500169
  0
LINE
  8
_0-f_
  6
CONTINUOUS
 62
    9
 10
1075.359493610373
 20
699.24044791500012
 11
1053.6928291103745
 21
699.24044791500012
  0
LINE
  8
_0-f_
  6
CONTINUOUS
 62
    9
 10
1053.6928291103745
 20
669.90711751500169
 11
1053.6928291103745
 21
699.24044791500148
  0
LINE
  8
_0-f_
  6
CONTINUOUS
 62
    9
 10
1073.3594938103745
 20
745.90191658218646
 11
1073.3594938103745
 21
752.56858258218745
  0
ARC
  8
_0-f_
  6
CONTINUOUS
 62
    9
 10
1077.3594934103733
 20
749.23524958218695
 40
3.3333330000000001
 50
269.99999999999977
 51
359.99999999999966
  0
ARC
  8
_0-f_
  6
CONTINUOUS
 62
    9
 10
1155.3594856103725
 20
600.98732440698097
 40
33.333330000000004
 50
119.99999999999849
 51
161.1397892339005
  0
LINE
  8
_0-f_
  6
CONTINUOUS
 62
    9
 10
1105.3594906103738
 20
606.75610654127252
 11
1105.3594906103738
 21
644.52150005356327
  0
LINE
  8
_0-f_
  6
CONTINUOUS
 62
    9
 10
1136.0543654837568
 20
628.16126828316203
 11
1138.6928206103732
 21
630.79972340977849
  0
LINE
  8
_0-f_
  6
CONTINUOUS
 62
    9
 10
1105.3594906103738
 20
606.89448288278902
 11
1138.6928206103732
 21
640.22781288278804
  0
LINE
  8
_0-f_
  6
CONTINUOUS
 62
    9
 10
1105.3594906103738
 20
611.6085276192938
 11
1138.6928206103732
 21
644.94185761929441
  0
LINE
  8
_0-f_
  6
CONTINUOUS
 62
    9
 10
1105.3594906103738
 20
616.32257235580016
 11
1138.6928206103732
 21
649.65590235580078
  0
LINE
  8
_0-f_
  6
CONTINUOUS
 62
    9
 10
1105.3594906103738
 20
621.03661709230653
 11
1138.6928206103732
 21
654.36994709230714
  0
LINE
  8
_0-f_
  6
CONTINUOUS
 62
    9
 10
1105.3594906103738
 20
625.75066182881289
 11
1138.6928206103732
 21
659.08399182881237
  0
LINE
  8
_0-f_
  6
CONTINUOUS
 62
    9
 10
1162.7969916351256
 20
683.18816285356309
 11
1164.6928180103739
 21
685.08398922881281
  0
LINE
  8
_0-f_
  6
CONTINUOUS
 62
    9
 10
1105.3594906103738
 20
630.46470656531812
 11
1138.6928206103732
 21
663.79803656531874
  0
LINE
  8
_0-f_
  6
CONTINUOUS
 62
    9
 10
1158.0829468986178
 20
683.18816285356309
 11
1164.6928180103739
 21
689.79803396531918
  0
LINE
  8
_0-f_
  6
CONTINUOUS
 62
    9
 10
1105.3594906103738
 20
635.17875130182449
 11
1114.7022393621103
 21
644.52150005356327
  0
LINE
  8
_0-f_
  6
CONTINUOUS
 62
    9
 10
1116.0539140482945
 20
645.87317473974451
 11
1138.6928206103732
 21
668.51208130182511
  0
LINE
  8
_0-f_
  6
CONTINUOUS
 62
    9
 10
1153.3689021621128
 20
683.18816285356309
 11
1164.6928180103739
 21
694.51207870182418
  0
LINE
  8
_0-f_
  6
CONTINUOUS
 62
    9
 10
1105.3594906103738
 20
639.89279603832927
 11
1109.9881946256048
 21
644.52150005356327
  0
LINE
  8
_0-f_
  6
CONTINUOUS
 62
    9
 10
1112.9946458757206
 20
647.52795130367861
 11
1138.6928206103732
 21
673.22612603832954
  0
LINE
  8
_0-f_
  6
CONTINUOUS
 62
    9
 10
1148.6548574256051
 20
683.18816285356309
 11
1164.6928180103739
 21
699.22612343833055
  0
LINE
  8
_0-f_
  6
CONTINUOUS
 62
    9
 10
1109.9353777031481
 20
649.18272786761247
 11
1138.6928206103732
 21
677.94017077483591
  0
LINE
  8
_0-f_
  6
CONTINUOUS
 62
    9
 10
1143.9408126891001
 20
683.18816285356309
 11
1164.6928180103739
 21
703.94016817483691
  0
LINE
  8
_0-f_
  6
CONTINUOUS
 62
    9
 10
1108.6928236103743
 20
652.6542185113409
 11
1138.6928206103732
 21
682.65421551134079
  0
LINE
  8
_0-f_
  6
CONTINUOUS
 62
    9
 10
1139.2267679525942
 20
683.18816285356309
 11
1164.6928180103739
 21
708.65421291134157
  0
LINE
  8
_0-f_
  6
CONTINUOUS
 62
    9
 10
1108.6928236103743
 20
657.36826324784727
 11
1164.6928180103739
 21
713.36825764784624
  0
LINE
  8
_0-f_
  6
CONTINUOUS
 62
    9
 10
1108.6928236103743
 20
662.0823079843525
 11
1164.6928180103739
 21
718.0823023843526
  0
LINE
  8
_0-f_
  6
CONTINUOUS
 62
    9
 10
1108.6928236103743
 20
666.79635272085886
 11
1164.6928180103739
 21
722.79634712085897
  0
LINE
  8
_0-f_
  6
CONTINUOUS
 62
    9
 10
1118.5528226243753
 20
681.37039647136532
 11
1164.6928180103739
 21
727.51039185736533
  0
LINE
  8
_0-f_
  6
CONTINUOUS
 62
    9
 10
1118.5528226243753
 20
686.0844412078701
 11
1164.6928180103739
 21
732.22443659387056
  0
LINE
  8
_0-f_
  6
CONTINUOUS
 62
    9
 10
1118.5528226243716
 20
690.79848594437647
 11
1164.6928180103739
 21
736.93848133037693
  0
LINE
  8
_0-f_
  6
CONTINUOUS
 62
    9
 10
1118.5528226243716
 20
695.51253068088283
 11
1164.6928180103739
 21
741.65252606688171
  0
LINE
  8
_0-f_
  6
CONTINUOUS
 62
    9
 10
1118.5528226243753
 20
700.2265754173892
 11
1164.6928180103739
 21
746.36657080338807
  0
LINE
  8
_0-f_
  6
CONTINUOUS
 62
    9
 10
1118.5528226243753
 20
704.94062015389443
 11
1164.6928180103739
 21
751.08061553989444
  0
LINE
  8
_0-f_
  6
CONTINUOUS
 62
    9
 10
1118.5528226243753
 20
709.6546648904008
 11
1164.6928180103739
 21
755.79466027639955
  0
LINE
  8
_0-f_
  6
CONTINUOUS
 62
    9
 10
1118.5528226243753
 20
714.36870962690716
 11
1164.6928180103739
 21
760.50870501290592
  0
LINE
  8
_0-f_
  6
CONTINUOUS
 62
    9
 10
1118.5528226243753
 20
719.0827543634116
 11
1164.6928180103739
 21
765.22274974941058
  0
LINE
  8
_0-f_
  6
CONTINUOUS
 62
    9
 10
1118.5528226243753
 20
723.79679909991796
 11
1164.6928180103739
 21
769.93679448591706
  0
LINE
  8
_0-f_
  6
CONTINUOUS
 62
    9
 10
1118.5528226243716
 20
728.51084383642285
 11
1164.6928180103739
 21
774.65083922242343
  0
LINE
  8
_0-f_
  6
CONTINUOUS
 62
    9
 10
1118.5528226243716
 20
733.22488857292922
 11
1161.4777957319495
 21
776.14986168050507
  0
LINE
  8
_0-f_
  6
CONTINUOUS
 62
    9
 10
1118.5528226243716
 20
737.93893330943422
 11
1156.1476366694826
 21
775.5337473545444
  0
LINE
  8
_0-f_
  6
CONTINUOUS
 62
    9
 10
1118.5528226243716
 20
742.65297804594059
 11
1150.8174776070175
 21
774.91763302858362
  0
LINE
  8
_0-f_
  6
CONTINUOUS
 62
    9
 10
1118.5528226243716
 20
747.36702278244695
 11
1145.4873185445488
 21
774.30151870262284
  0
LINE
  8
_0-f_
  6
CONTINUOUS
 62
    9
 10
1118.5528226243716
 20
752.08106751895332
 11
1140.1571594820837
 21
773.68540437666184
  0
LINE
  8
_0-f_
  6
CONTINUOUS
 62
    9
 10
1118.5528226243716
 20
756.79511225545843
 11
1134.8270004196168
 21
773.0692900507006
  0
LINE
  8
_0-f_
  6
CONTINUOUS
 62
    9
 10
1118.5528226243716
 20
761.50915699196264
 11
1129.4968413571517
 21
772.45317572474164
  0
LINE
  8
_0-f_
  6
CONTINUOUS
 62
    9
 10
1118.5528226243716
 20
766.22320172846901
 11
1124.1666822946829
 21
771.83706139878041
  0
LINE
  8
_0-f_
  6
CONTINUOUS
 62
    9
 10
1118.5528226243716
 20
770.93724646497549
 11
1118.8365232322178
 21
771.22094707281963
  0
LINE
  8
_0-f_
  6
CONTINUOUS
 62
    9
 10
1111.1884824408683
 20
608.00942997677896
 11
1138.6928206103732
 21
635.51376814628327
  0
LINE
  8
_0-f_
  6
CONTINUOUS
 62
    9
 10
1117.6366879531563
 20
609.743590752562
 11
1128.1855417341901
 21
620.29244453359513
  0
LINE
  8
_0-f_
  6
CONTINUOUS
 62
    9
 10
990.98474252594178
 20
644.52150005356327
 11
1118.5528226243716
 21
644.52150005356327
  0
LINE
  8
_0-f_
  6
CONTINUOUS
 62
    9
 10
986.33820283155399
 20
649.85483285356293
 11
1108.6928236103702
 21
649.85483285356293
  0
LINE
  8
_0-f_
  6
CONTINUOUS
 62
    9
 10
973.2540400948551
 20
669.23525758218727
 11
1035.3594976103727
 21
669.23525758218727
  0
LINE
  8
_0-f_
  6
CONTINUOUS
 62
    9
 10
975.74671126906139
 20
792.47362535615071
 11
1164.6928180103739
 21
792.47362535615071
  0
LINE
  8
_0-f_
  6
CONTINUOUS
 62
    9
 10
972.07427152230991
 20
785.90191258218749
 11
1118.5528226243716
 21
785.90191258218749
  0
LINE
  8
_0-f_
  6
CONTINUOUS
 62
    9
 10
970.40514445705082
 20
782.568579582187
 11
1091.6928253103727
 21
782.568579582187
  0
LINE
  8
_0-f_
  6
CONTINUOUS
 62
    9
 10
960.41431659338411
 20
752.56858258218745
 11
1073.3594938103745
 21
752.56858258218745
  0
LINE
  8
_0-f_
  6
CONTINUOUS
 62
    9
 10
959.29399155118915
 20
745.90191658218646
 11
1077.3594934103733
 21
745.90191658218646
  0
LINE
  8
_0-f_
  6
CONTINUOUS
 62
    9
 10
1075.359493610373
 20
739.90711051500159
 11
958.60191210394476
 21
739.90711051500159
  0
LINE
  8
_0-f_
  6
CONTINUOUS
 62
    9
 10
958.49084419115968
 20
738.60931731144706
 11
1079.6928265103745
 21
738.60931731144558
  0
LINE
  8
_0-f_
  6
CONTINUOUS
 62
    9
 10
958.13567475112222
 20
731.94265131144778
 11
1047.0261631103735
 21
731.94265131144778
  0
LINE
  8
_0-f_
  6
CONTINUOUS
 62
    9
 10
958.68072673945653
 20
716.60931951144687
 11
1047.0261631103735
 21
716.60931951144687
  0
LINE
  8
_0-f_
  6
CONTINUOUS
 62
    9
 10
959.51477289315005
 20
709.94265351144588
 11
1074.3594937103737
 21
709.94265351144588
  0
LINE
  8
_0-f_
  6
CONTINUOUS
 62
    9
 10
1075.359493610373
 20
709.24044691499989
 11
959.62406054848771
 21
709.24044691499989
  0
LINE
  8
_0-f_
  6
CONTINUOUS
 62
    9
 10
1053.6928291103745
 20
699.24044791500148
 11
961.63415813838253
 21
699.24044791500148
  0
LINE
  8
_0-f_
  6
CONTINUOUS
 62
    9
 10
1016.4132807661339
 20
657.90192538218673
 11
1016.4132807661339
 21
669.23525758218727
  0
LINE
  8
_0-f_
  6
CONTINUOUS
 62
    9
 10
1015.0799475661337
 20
657.90192538218673
 11
1015.0799475661337
 21
669.23525758218727
  0
LINE
  8
_0-f_
  6
CONTINUOUS
 62
    9
 10
1013.7466143661335
 20
657.90192538218673
 11
1013.7466143661335
 21
669.23525758218727
  0
LINE
  8
_0-f_
  6
CONTINUOUS
 62
    9
 10
1012.4132811661333
 20
657.90192538218673
 11
1012.4132811661333
 21
669.23525758218727
  0
LINE
  8
_0-f_
  6
CONTINUOUS
 62
    9
 10
1011.0799479661331
 20
657.90192538218673
 11
1011.0799479661331
 21
669.23525758218727
  0
LINE
  8
_0-f_
  6
CONTINUOUS
 62
    9
 10
1009.7466147661329
 20
657.90192538218673
 11
1009.7466147661329
 21
669.23525758218727
  0
LINE
  8
_0-f_
  6
CONTINUOUS
 62
    9
 10
1008.4132815661327
 20
657.90192538218673
 11
1008.4132815661327
 21
669.23525758218727
  0
LINE
  8
_0-f_
  6
CONTINUOUS
 62
    9
 10
1007.0799483661325
 20
657.90192538218673
 11
1007.0799483661325
 21
669.23525758218727
  0
LINE
  8
_0-f_
  6
CONTINUOUS
 62
    9
 10
1005.7466151661323
 20
657.90192538218673
 11
1005.7466151661323
 21
669.23525758218727
  0
LINE
  8
_0-f_
  6
CONTINUOUS
 62
    9
 10
1004.4132819661321
 20
657.90192538218673
 11
1004.4132819661321
 21
669.23525758218727
  0
LINE
  8
_0-f_
  6
CONTINUOUS
 62
    9
 10
1003.0799487661334
 20
657.90192538218673
 11
1003.0799487661334
 21
669.23525758218727
  0
LINE
  8
_0-f_
  6
CONTINUOUS
 62
    9
 10
1001.7466155661317
 20
657.90192538218673
 11
1001.7466155661317
 21
669.23525758218727
  0
LINE
  8
_0-f_
  6
CONTINUOUS
 62
    9
 10
1000.413282366133
 20
657.90192538218673
 11
1000.413282366133
 21
669.23525758218727
  0
LINE
  8
_0-f_
  6
CONTINUOUS
 62
    9
 10
999.07994916613279
 20
657.90192538218673
 11
999.07994916613279
 21
669.23525758218727
  0
LINE
  8
_0-f_
  6
CONTINUOUS
 62
    9
 10
997.74661596613259
 20
657.90192538218673
 11
997.74661596613259
 21
669.23525758218727
  0
LINE
  8
_0-f_
  6
CONTINUOUS
 62
    9
 10
996.4132827661324
 20
657.90192538218673
 11
996.4132827661324
 21
669.23525758218727
  0
LINE
  8
_0-f_
  6
CONTINUOUS
 62
    9
 10
995.0799495661322
 20
657.90192538218673
 11
995.0799495661322
 21
669.23525758218727
  0
LINE
  8
_0-f_
  6
CONTINUOUS
 62
    9
 10
993.746616366132
 20
657.90192538218673
 11
993.746616366132
 21
669.23525758218727
  0
LINE
  8
_0-f_
  6
CONTINUOUS
 62
    9
 10
992.4132831661359
 20
657.90192538218673
 11
992.4132831661359
 21
669.23525758218727
  0
LINE
  8
_0-f_
  6
CONTINUOUS
 62
    9
 10
991.0799499661357
 20
657.90192538218673
 11
991.0799499661357
 21
669.23525758218727
  0
LINE
  8
_0-f_
  6
CONTINUOUS
 62
    9
 10
989.7466167661355
 20
657.90192538218673
 11
989.7466167661355
 21
669.23525758218727
  0
LINE
  8
_0-f_
  6
CONTINUOUS
 62
    9
 10
988.41328356613531
 20
657.90192538218673
 11
988.41328356613531
 21
669.23525758218727
  0
LINE
  8
_0-f_
  6
CONTINUOUS
 62
    9
 10
987.07995036613511
 20
657.90192538218673
 11
987.07995036613511
 21
669.23525758218727
  0
LINE
  8
_0-f_
  6
CONTINUOUS
 62
    9
 10
985.74661716613491
 20
657.90192538218673
 11
985.74661716613491
 21
669.23525758218727
  0
LINE
  8
_0-f_
  6
CONTINUOUS
 62
    9
 10
984.41328396613471
 20
657.90192538218673
 11
984.41328396613471
 21
669.23525758218727
  0
LINE
  8
_0-f_
  6
CONTINUOUS
 62
    9
 10
1017.2682527528309
 20
657.90192538218673
 11
1017.2682527528309
 21
669.23525758218727
  0
LINE
  8
_0-f_
  6
CONTINUOUS
 62
    9
 10
983.93492275282949
 20
657.90192538218673
 11
983.93492275282949
 21
669.23525758218727
  0
LINE
  8
_0-f_
  6
CONTINUOUS
 62
    9
 10
983.93492275282949
 20
657.90192538218673
 11
1017.2682527528309
 21
657.90192538218673
  0
ARC
  8
_0-f_
  6
CONTINUOUS
 62
    9
 10
1005.3595006103718
 20
652.40209259883716
 40
39.999995999999982
 50
55.166292356154052
 51
148.68484545272852
  0
LINE
  8
_0-f_
  6
CONTINUOUS
 62
    9
 10
1035.2730730363933
 20
669.23525758218727
 11
1035.2730730363933
 21
671.76440408594249
  0
LINE
  8
_0-f_
  6
CONTINUOUS
 62
    9
 10
1033.2730730363915
 20
669.23525758218727
 11
1033.2730730363915
 21
678.80114962145637
  0
LINE
  8
_0-f_
  6
CONTINUOUS
 62
    9
 10
1031.2730730363933
 20
669.23525758218727
 11
1031.2730730363933
 21
682.02149330637997
  0
LINE
  8
_0-f_
  6
CONTINUOUS
 62
    9
 10
1029.2730730363915
 20
669.23525758218727
 11
1029.2730730363915
 21
684.27417687030459
  0
LINE
  8
_0-f_
  6
CONTINUOUS
 62
    9
 10
1027.2730730363933
 20
669.23525758218727
 11
1027.2730730363933
 21
685.8654310983012
  0
LINE
  8
_0-f_
  6
CONTINUOUS
 62
    9
 10
1025.2730730363933
 20
669.23525758218727
 11
1025.2730730363933
 21
687.09285957268332
  0
LINE
  8
_0-f_
  6
CONTINUOUS
 62
    9
 10
1023.2730730363915
 20
669.23525758218727
 11
1023.2730730363915
 21
688.16665051498819
  0
LINE
  8
_0-f_
  6
CONTINUOUS
 62
    9
 10
1021.2730730363933
 20
669.23525758218727
 11
1021.2730730363933
 21
689.10029272693566
  0
LINE
  8
_0-f_
  6
CONTINUOUS
 62
    9
 10
1019.2730730363895
 20
669.23525758218727
 11
1019.2730730363895
 21
689.90425496777095
  0
LINE
  8
_0-f_
  6
CONTINUOUS
 62
    9
 10
1017.2730730363913
 20
669.23525758218727
 11
1017.2730730363913
 21
690.58672919590424
  0
LINE
  8
_0-f_
  6
CONTINUOUS
 62
    9
 10
1015.2730730363913
 20
669.23525758218727
 11
1015.2730730363913
 21
691.15413463218158
  0
LINE
  8
_0-f_
  6
CONTINUOUS
 62
    9
 10
1013.2730730363915
 20
669.23525758218727
 11
1013.2730730363915
 21
691.61146713424944
  0
LINE
  8
_0-f_
  6
CONTINUOUS
 62
    9
 10
1011.2730730363933
 20
669.23525758218727
 11
1011.2730730363933
 21
691.96254432985586
  0
LINE
  8
_0-f_
  6
CONTINUOUS
 62
    9
 10
1009.2730730363895
 20
669.23525758218727
 11
1009.2730730363895
 21
692.21017759254607
  0
LINE
  8
_0-f_
  6
CONTINUOUS
 62
    9
 10
1007.2730730363913
 20
669.23525758218727
 11
1007.2730730363913
 21
692.35629038292939
  0
LINE
  8
_0-f_
  6
CONTINUOUS
 62
    9
 10
1005.2730730363913
 20
669.23525758218727
 11
1005.2730730363913
 21
692.40199522714886
  0
LINE
  8
_0-f_
  6
CONTINUOUS
 62
    9
 10
1003.2730730363915
 20
669.23525758218727
 11
1003.2730730363915
 21
692.34763678061665
  0
LINE
  8
_0-f_
  6
CONTINUOUS
 62
    9
 10
1001.2730730363896
 20
669.23525758218727
 11
1001.2730730363896
 21
692.19280495338933
  0
LINE
  8
_0-f_
  6
CONTINUOUS
 62
    9
 10
999.27307303638952
 20
669.23525758218727
 11
999.27307303638952
 21
691.93631928138007
  0
LINE
  8
_0-f_
  6
CONTINUOUS
 62
    9
 10
997.27307303639134
 20
669.23525758218727
 11
997.27307303639134
 21
691.57618313187652
  0
LINE
  8
_0-f_
  6
CONTINUOUS
 62
    9
 10
995.27307303638963
 20
669.23525758218727
 11
995.27307303638963
 21
691.1095035015943
  0
LINE
  8
_0-f_
  6
CONTINUOUS
 62
    9
 10
993.27307303639145
 20
669.23525758218727
 11
993.27307303639145
 21
690.53236860752736
  0
LINE
  8
_0-f_
  6
CONTINUOUS
 62
    9
 10
991.27307303638918
 20
669.23525758218727
 11
991.27307303638918
 21
689.83967048794455
  0
LINE
  8
_0-f_
  6
CONTINUOUS
 62
    9
 10
989.27307303638952
 20
669.23525758218727
 11
989.27307303638952
 21
689.02485229696833
  0
LINE
  8
_0-f_
  6
CONTINUOUS
 62
    9
 10
987.27307303639134
 20
669.23525758218727
 11
987.27307303639134
 21
688.07954791183658
  0
LINE
  8
_0-f_
  6
CONTINUOUS
 62
    9
 10
985.27307303638963
 20
669.23525758218727
 11
985.27307303638963
 21
686.99306117901995
  0
LINE
  8
_0-f_
  6
CONTINUOUS
 62
    9
 10
983.27307303639145
 20
669.23525758218727
 11
983.27307303639145
 21
685.75159629858047
  0
LINE
  8
_0-f_
  6
CONTINUOUS
 62
    9
 10
981.27307303638963
 20
669.23525758218727
 11
981.27307303638963
 21
684.33708417114428
  0
LINE
  8
_0-f_
  6
CONTINUOUS
 62
    9
 10
979.27307303638952
 20
669.23525758218727
 11
979.27307303638952
 21
682.72531763225686
  0
LINE
  8
_0-f_
  6
CONTINUOUS
 62
    9
 10
977.27307303639134
 20
669.23525758218727
 11
977.27307303639134
 21
680.88282759868366
  0
LINE
  8
_0-f_
  6
CONTINUOUS
 62
    9
 10
975.27307303638963
 20
669.23525758218727
 11
975.27307303638963
 21
678.76127611873255
  0
LINE
  8
_0-f_
  6
CONTINUOUS
 62
    9
 10
973.27307303639145
 20
669.23525758218727
 11
973.27307303639145
 21
676.28641476924042
  0
LINE
  8
_0-f_
  6
CONTINUOUS
 62
    9
 10
971.27307303638963
 20
673.01932044093462
 11
971.27307303638963
 21
673.33329264192287
  0
CIRCLE
  8
_1-0_
  6
CONTINUOUS
 62
    7
 10
1082.19402530102
 20
728.67618431679364
 40
124.10134627709829
  0
LINE
  8
_1-0_
  6
CONTINUOUS
 62
    7
 10
1151.4034605481595
 20
779.861627663288
 11
1159.5672916720048
 21
798.1195536512347
  0
LINE
  8
_1-0_
  6
CONTINUOUS
 62
    7
 10
1151.4034605481595
 20
779.861627663288
 11
1167.6025086875889
 21
791.59153982734324
  0
LINE
  8
_1-0_
  6
CONTINUOUS
 62
    7
 10
1151.4034605481595
 20
779.861627663288
 11
1192.3193360727716
 21
830.22425680166907
  0
LINE
  8
_1-0_
  6
CONTINUOUS
 62
    7
 10
1192.3193360727716
 20
830.22425680166907
 11
1288.3193360727714
 21
830.22425680166907
  0
TEXT
  8
_1-0_
 62
    7
 10
1192.3193360727716
 20
830.22425680166918
 40
30
 41
0.8000000000000001
 50
0
  1
パッキン
  0
LINE
  8
_1-0_
  6
CONTINUOUS
 62
    7
 10
1150.0294658358619
 20
692.68975315405203
 11
1164.1722576200682
 21
678.54827372124203
  0
LINE
  8
_1-0_
  6
CONTINUOUS
 62
    7
 10
1150.0294658358619
 20
692.68975315405203
 11
1155.2067430850134
 21
673.37147682604029
  0
LINE
  8
_1-0_
  6
CONTINUOUS
 62
    7
 10
1150.0294658358619
 20
692.68975315405203
 11
1187.3755918730951
 21
628.01129607084147
  0
LINE
  8
_1-0_
  6
CONTINUOUS
 62
    7
 10
1187.3755918730951
 20
628.01129607084147
 11
1355.3755918730949
 21
628.01129607084147
  0
TEXT
  8
_1-0_
 62
    7
 10
1187.3755918730951
 20
628.01129607084169
 40
30
 41
0.8000000000000001
 50
0
  1
ロックフランジ
  0
LINE
  8
_1-0_
  6
CONTINUOUS
 62
    7
 10
1065.3296959335207
 20
718.969177617838
 11
1079.4717607713571
 21
704.82697120856687
  0
LINE
  8
_1-0_
  6
CONTINUOUS
 62
    7
 10
1065.3296959335207
 20
718.969177617838
 11
1070.5059801404182
 21
699.650635182928
  0
LINE
  8
_1-0_
  6
CONTINUOUS
 62
    7
 10
1065.3296959335207
 20
718.969177617838
 11
1148.9004054701543
 21
574.21878947338007
  0
LINE
  8
_1-0_
  6
CONTINUOUS
 62
    7
 10
1148.9004054701543
 20
574.21878947338007
 11
1388.9004054701541
 21
574.21878947338007
  0
TEXT
  8
_1-0_
 62
    7
 10
1148.9004054701543
 20
574.2187894733803
 40
30
 41
0.8000000000000001
 50
0
  1
防臭インナーパッキン
  0
TEXT
  8
_0-7_枠細線
 62
    1
 10
982.19402530102013
 20
496.26877690938613
 40
50
 41
0.8
 50
0
  1
Ｃ部拡大図
  0
LINE
  8
_0-e_極細4
  6
CONTINUOUS
 62
    9
 10
601.60307017543175
 20
813.461722487869
 11
610.60307017543346
 21
813.461722487869
  0
LINE
  8
_0-e_極細4
  6
CONTINUOUS
 62
    9
 10
601.60307017543175
 20
814.96172248786809
 11
611.78467753067366
 21
814.96172248786809
  0
LINE
  8
_0-e_極細4
  6
CONTINUOUS
 62
    9
 10
601.60307017543175
 20
816.46172248786752
 11
610.60307017543346
 21
816.46172248786752
  0
LINE
  8
_0-e_極細4
  6
CONTINUOUS
 62
    9
 10
601.60307017543175
 20
817.96172248786843
 11
610.60307017543346
 21
817.96172248786843
  0
LINE
  8
_0-e_極細4
  6
CONTINUOUS
 62
    9
 10
601.56659409822737
 20
819.46172248786934
 11
610.67146282019371
 21
819.46172248786934
  0
LINE
  8
_0-e_極細4
  6
CONTINUOUS
 62
    9
 10
600.7665940982281
 20
820.96172248786718
 11
611.53467753067525
 21
820.96172248786718
  0
LINE
  8
_0-e_極細4
  6
CONTINUOUS
 62
    9
 10
599.96659409822678
 20
822.46172248786809
 11
610.60307017543346
 21
822.46172248786809
  0
LINE
  8
_0-e_極細4
  6
CONTINUOUS
 62
    9
 10
809.35307017543369
 20
813.461722487869
 11
818.35307017543357
 21
813.461722487869
  0
LINE
  8
_0-e_極細4
  6
CONTINUOUS
 62
    9
 10
808.17146282019553
 20
814.96172248786809
 11
818.35307017543357
 21
814.96172248786809
  0
LINE
  8
_0-e_極細4
  6
CONTINUOUS
 62
    9
 10
809.35307017543369
 20
816.46172248786752
 11
818.35307017543357
 21
816.46172248786752
  0
LINE
  8
_0-e_極細4
  6
CONTINUOUS
 62
    9
 10
809.35307017543369
 20
817.96172248786843
 11
818.35307017543357
 21
817.96172248786843
  0
LINE
  8
_0-e_極細4
  6
CONTINUOUS
 62
    9
 10
809.28467753067366
 20
819.46172248786934
 11
818.38954625264182
 21
819.46172248786934
  0
LINE
  8
_0-e_極細4
  6
CONTINUOUS
 62
    9
 10
808.42146282019371
 20
820.96172248786718
 11
819.18954625264109
 21
820.96172248786718
  0
LINE
  8
_0-e_極細4
  6
CONTINUOUS
 62
    9
 10
809.35307017543369
 20
822.46172248786809
 11
819.98954625264037
 21
822.46172248786809
  0
LINE
  8
_0-e_極細4
  6
CONTINUOUS
 62
    9
 10
601.25513210127087
 20
797.12805484310923
 11
601.25513210127087
 21
802.12805484310923
  0
LINE
  8
_0-e_極細4
  6
CONTINUOUS
 62
    9
 10
599.75513210127076
 20
797.12805484310923
 11
599.75513210127076
 21
802.12805484310923
  0
LINE
  8
_0-e_極細4
  6
CONTINUOUS
 62
    9
 10
598.25513210127065
 20
797.12805484310923
 11
598.25513210127065
 21
802.12805484310923
  0
LINE
  8
_0-e_極細4
  6
CONTINUOUS
 62
    9
 10
596.75513210126894
 20
797.12805484310923
 11
596.75513210126894
 21
832.06213898440365
  0
LINE
  8
_0-e_極細4
  6
CONTINUOUS
 62
    9
 10
595.25513210126883
 20
797.12805484310923
 11
595.25513210126883
 21
832.84708090461845
  0
LINE
  8
_0-e_極細4
  6
CONTINUOUS
 62
    9
 10
593.75513210127087
 20
797.12805484310923
 11
593.75513210127087
 21
832.87805484310923
  0
LINE
  8
_0-e_極細4
  6
CONTINUOUS
 62
    9
 10
592.25513210126906
 20
797.12805484310923
 11
592.25513210126906
 21
832.87805484310923
  0
LINE
  8
_0-e_極細4
  6
CONTINUOUS
 62
    9
 10
590.75513210127065
 20
797.12805484310923
 11
590.75513210127065
 21
833.02825325046979
  0
LINE
  8
_0-e_極細4
  6
CONTINUOUS
 62
    9
 10
589.25513210126894
 20
797.12805484310923
 11
589.25513210126894
 21
833.78160315863499
  0
LINE
  8
_0-e_極細4
  6
CONTINUOUS
 62
    9
 10
587.75513210126883
 20
798.10099291727238
 11
587.75513210126883
 21
836.08445307326167
  0
LINE
  8
_0-e_極細4
  6
CONTINUOUS
 62
    9
 10
586.25513210127087
 20
799.60099291727329
 11
586.25513210127087
 21
838.82492329110266
  0
LINE
  8
_0-e_極細4
  6
CONTINUOUS
 62
    9
 10
833.75513210127269
 20
799.65511676894675
 11
833.75513210127269
 21
838.85267177242952
  0
LINE
  8
_0-e_極細4
  6
CONTINUOUS
 62
    9
 10
832.25513210127076
 20
798.15511676894585
 11
832.25513210127076
 21
836.32792490172108
  0
LINE
  8
_0-e_極細4
  6
CONTINUOUS
 62
    9
 10
830.75513210127087
 20
797.12805484310923
 11
830.75513210127087
 21
833.82469084551178
  0
LINE
  8
_0-e_極細4
  6
CONTINUOUS
 62
    9
 10
829.25513210126894
 20
797.12805484310923
 11
829.25513210126894
 21
833.04342273260829
  0
LINE
  8
_0-e_極細4
  6
CONTINUOUS
 62
    9
 10
827.75513210127087
 20
797.12805484310923
 11
827.75513210127087
 21
832.87805484310923
  0
LINE
  8
_0-e_極細4
  6
CONTINUOUS
 62
    9
 10
826.25513210127269
 20
797.12805484310923
 11
826.25513210127269
 21
832.87805484310923
  0
LINE
  8
_0-e_極細4
  6
CONTINUOUS
 62
    9
 10
824.75513210126906
 20
797.12805484310923
 11
824.75513210126906
 21
832.85489344235941
  0
LINE
  8
_0-e_極細4
  6
CONTINUOUS
 62
    9
 10
823.25513210127087
 20
797.12805484310923
 11
823.25513210127087
 21
832.1173911523789
  0
LINE
  8
_0-e_極細4
  6
CONTINUOUS
 62
    9
 10
821.75513210126894
 20
797.12805484310923
 11
821.75513210126894
 21
802.12805484310923
  0
LINE
  8
_0-e_極細4
  6
CONTINUOUS
 62
    9
 10
820.25513210127087
 20
797.12805484310923
 11
820.25513210127087
 21
802.12805484310923
  0
LINE
  8
_0-e_極細4
  6
CONTINUOUS
 62
    9
 10
818.75513210127269
 20
797.12805484310923
 11
818.75513210127269
 21
802.12805484310923
  0
LINE
  8
_0-e_極細4
  6
CONTINUOUS
 62
    9
 10
817.25513210127076
 20
792.12805484310923
 11
817.25513210127076
 21
807.12805484310923
  0
LINE
  8
_0-e_極細4
  6
CONTINUOUS
 62
    9
 10
815.75513210127087
 20
792.12805484310923
 11
815.75513210127087
 21
792.75733649101949
  0
LINE
  8
_0-e_極細4
  6
CONTINUOUS
 62
    9
 10
815.75513210127087
 20
797.38000234310857
 11
815.75513210127087
 21
807.12805484310923
  0
LINE
  8
_0-e_極細4
  6
CONTINUOUS
 62
    9
 10
814.25513210126894
 20
797.38000234310857
 11
814.25513210126894
 21
807.12805484310923
  0
LINE
  8
_0-e_極細4
  6
CONTINUOUS
 62
    9
 10
812.75513210127087
 20
797.38000234310857
 11
812.75513210127087
 21
807.12805484310923
  0
LINE
  8
_0-e_極細4
  6
CONTINUOUS
 62
    9
 10
811.25513210127269
 20
797.38000234310857
 11
811.25513210127269
 21
807.12805484310923
  0
LINE
  8
_0-e_極細4
  6
CONTINUOUS
 62
    9
 10
608.75513210127087
 20
797.38000234310857
 11
608.75513210127087
 21
807.12805484310923
  0
LINE
  8
_0-e_極細4
  6
CONTINUOUS
 62
    9
 10
607.25513210127076
 20
797.38000234310857
 11
607.25513210127076
 21
807.12805484310923
  0
LINE
  8
_0-e_極細4
  6
CONTINUOUS
 62
    9
 10
605.75513210127065
 20
797.38000234310857
 11
605.75513210127065
 21
807.12805484310923
  0
LINE
  8
_0-e_極細4
  6
CONTINUOUS
 62
    9
 10
604.25513210126894
 20
792.12805484310923
 11
604.25513210126894
 21
792.64553932379113
  0
LINE
  8
_0-e_極細4
  6
CONTINUOUS
 62
    9
 10
604.25513210126894
 20
797.38000234310857
 11
604.25513210126894
 21
807.12805484310923
  0
LINE
  8
_0-e_極細4
  6
CONTINUOUS
 62
    9
 10
602.75513210126883
 20
792.12805484310923
 11
602.75513210126883
 21
807.12805484310923
  0
LINE
  8
_0-e_極細4
  6
CONTINUOUS
 62
    9
 10
634.25513210126894
 20
792.87805484310923
 11
634.25513210126894
 21
797.12805484310923
  0
LINE
  8
_0-e_極細4
  6
CONTINUOUS
 62
    9
 10
632.75513210127087
 20
792.87805484310923
 11
632.75513210127087
 21
797.12805484310923
  0
LINE
  8
_0-e_極細4
  6
CONTINUOUS
 62
    9
 10
631.25513210127247
 20
792.87805484310923
 11
631.25513210127247
 21
797.12805484310923
  0
LINE
  8
_0-e_極細4
  6
CONTINUOUS
 62
    9
 10
629.75513210127076
 20
792.87805484310923
 11
629.75513210127076
 21
797.12805484310923
  0
LINE
  8
_0-e_極細4
  6
CONTINUOUS
 62
    9
 10
628.25513210127269
 20
792.87805484310923
 11
628.25513210127269
 21
797.12805484310923
  0
LINE
  8
_0-e_極細4
  6
CONTINUOUS
 62
    9
 10
626.75513210126894
 20
792.87805484310923
 11
626.75513210126894
 21
797.12805484310923
  0
LINE
  8
_0-e_極細4
  6
CONTINUOUS
 62
    9
 10
625.25513210127087
 20
792.87805484310923
 11
625.25513210127087
 21
797.12805484310923
  0
LINE
  8
_0-e_極細4
  6
CONTINUOUS
 62
    9
 10
623.75513210127247
 20
792.87805484310923
 11
623.75513210127247
 21
797.12805484310923
  0
LINE
  8
_0-e_極細4
  6
CONTINUOUS
 62
    9
 10
796.25513210127269
 20
792.87805484310923
 11
796.25513210127269
 21
797.12805484310923
  0
LINE
  8
_0-e_極細4
  6
CONTINUOUS
 62
    9
 10
794.75513210127076
 20
792.87805484310923
 11
794.75513210127076
 21
797.12805484310923
  0
LINE
  8
_0-e_極細4
  6
CONTINUOUS
 62
    9
 10
793.25513210127087
 20
792.87805484310923
 11
793.25513210127087
 21
797.12805484310923
  0
LINE
  8
_0-e_極細4
  6
CONTINUOUS
 62
    9
 10
791.75513210126894
 20
792.87805484310923
 11
791.75513210126894
 21
797.12805484310923
  0
LINE
  8
_0-e_極細4
  6
CONTINUOUS
 62
    9
 10
790.25513210127087
 20
792.87805484310923
 11
790.25513210127087
 21
797.12805484310923
  0
LINE
  8
_0-e_極細4
  6
CONTINUOUS
 62
    9
 10
788.75513210127269
 20
792.87805484310923
 11
788.75513210127269
 21
797.12805484310923
  0
LINE
  8
_0-e_極細4
  6
CONTINUOUS
 62
    9
 10
787.25513210126906
 20
792.87805484310923
 11
787.25513210126906
 21
797.12805484310923
  0
LINE
  8
_0-e_極細4
  6
CONTINUOUS
 62
    9
 10
785.75513210127087
 20
792.87805484310923
 11
785.75513210127087
 21
797.12805484310923
  0
LINE
  8
_0-e_極細4
  6
CONTINUOUS
 62
    9
 10
640.25513210127076
 20
797.12805484310923
 11
640.25513210127076
 21
798.67352346009159
  0
LINE
  8
_0-e_極細4
  6
CONTINUOUS
 62
    9
 10
638.75513210127247
 20
797.12805484310923
 11
638.75513210127247
 21
800.70641479937296
  0
LINE
  8
_0-e_極細4
  6
CONTINUOUS
 62
    9
 10
637.25513210127076
 20
797.12805484310923
 11
637.25513210127076
 21
802.1914276482421
  0
LINE
  8
_0-e_極細4
  6
CONTINUOUS
 62
    9
 10
635.75513210127269
 20
797.12805484310923
 11
635.75513210127269
 21
803.32522348702423
  0
LINE
  8
_0-e_極細4
  6
CONTINUOUS
 62
    9
 10
634.25513210126894
 20
797.12805484310923
 11
634.25513210126894
 21
804.19737476331977
  0
LINE
  8
_0-e_極細4
  6
CONTINUOUS
 62
    9
 10
632.75513210127087
 20
797.12805484310923
 11
632.75513210127087
 21
804.85672190902153
  0
LINE
  8
_0-e_極細4
  6
CONTINUOUS
 62
    9
 10
631.25513210127247
 20
797.12805484310923
 11
631.25513210127247
 21
805.33229062621433
  0
LINE
  8
_0-e_極細4
  6
CONTINUOUS
 62
    9
 10
629.75513210126906
 20
797.12805484310923
 11
629.75513210126906
 21
805.64177628552955
  0
LINE
  8
_0-e_極細4
  6
CONTINUOUS
 62
    9
 10
628.25513210127269
 20
797.12805484310923
 11
628.25513210127269
 21
805.79547631318621
  0
LINE
  8
_0-e_極細4
  6
CONTINUOUS
 62
    9
 10
626.75513210126894
 20
797.12805484310923
 11
626.75513210126894
 21
805.79818589929857
  0
LINE
  8
_0-e_極細4
  6
CONTINUOUS
 62
    9
 10
625.25513210127087
 20
797.12805484310923
 11
625.25513210127087
 21
805.64998778200663
  0
LINE
  8
_0-e_極細4
  6
CONTINUOUS
 62
    9
 10
623.75513210127247
 20
797.12805484310923
 11
623.75513210127247
 21
805.34626537050099
  0
LINE
  8
_0-e_極細4
  6
CONTINUOUS
 62
    9
 10
622.25513210126906
 20
797.12805484310923
 11
622.25513210126906
 21
804.87694437413393
  0
LINE
  8
_0-e_極細4
  6
CONTINUOUS
 62
    9
 10
620.75513210127065
 20
797.12805484310923
 11
620.75513210127065
 21
804.22464801840181
  0
LINE
  8
_0-e_極細4
  6
CONTINUOUS
 62
    9
 10
619.25513210126894
 20
797.12805484310923
 11
619.25513210126894
 21
803.36086701892202
  0
LINE
  8
_0-e_極細4
  6
CONTINUOUS
 62
    9
 10
617.75513210127087
 20
797.12805484310923
 11
617.75513210127087
 21
801.91586067006358
  0
LINE
  8
_0-e_極細4
  6
CONTINUOUS
 62
    9
 10
616.25513210127247
 20
797.12805484310923
 11
616.25513210127247
 21
798.01655284362698
  0
ARC
  8
_0-e_極細4
  6
CONTINUOUS
 62
    9
 10
627.47807017543551
 20
790.81561734310856
 40
15
 50
0
 51
24.886947317075165
  0
LINE
  8
_0-e_極細4
  6
CONTINUOUS
 62
    9
 10
641.08516879375031
 20
797.12805484310923
 11
616.22807017543551
 21
797.12805484310923
  0
ARC
  8
_0-e_極細4
  6
CONTINUOUS
 62
    9
 10
627.47807017543551
 20
790.81561734310856
 40
15
 50
24.886947317075165
 51
124.8337076438425
  0
LINE
  8
_0-e_極細4
  6
CONTINUOUS
 62
    9
 10
616.22807017543551
 20
789.88000234311005
 11
616.22807017543551
 21
797.12805484310923
  0
ARC
  8
_0-e_極細4
  6
CONTINUOUS
 62
    9
 10
623.72807017543551
 20
797.38000234310857
 40
7.5
 50
129.97050058003313
 51
181.9250993127894
  0
LINE
  8
_0-e_極細4
  6
CONTINUOUS
 62
    9
 10
802.25513210127076
 20
797.12805484310923
 11
802.25513210127076
 21
801.84369190916516
  0
LINE
  8
_0-e_極細4
  6
CONTINUOUS
 62
    9
 10
800.75513210127087
 20
797.12805484310923
 11
800.75513210127087
 21
803.32522348702423
  0
LINE
  8
_0-e_極細4
  6
CONTINUOUS
 62
    9
 10
799.25513210126894
 20
797.12805484310923
 11
799.25513210126894
 21
804.19737476331977
  0
LINE
  8
_0-e_極細4
  6
CONTINUOUS
 62
    9
 10
797.75513210127087
 20
797.12805484310923
 11
797.75513210127087
 21
804.85672190902153
  0
LINE
  8
_0-e_極細4
  6
CONTINUOUS
 62
    9
 10
796.25513210127269
 20
797.12805484310923
 11
796.25513210127269
 21
805.33229062621285
  0
LINE
  8
_0-e_極細4
  6
CONTINUOUS
 62
    9
 10
794.75513210126906
 20
797.12805484310923
 11
794.75513210126906
 21
805.64177628552955
  0
LINE
  8
_0-e_極細4
  6
CONTINUOUS
 62
    9
 10
793.25513210127087
 20
797.12805484310923
 11
793.25513210127087
 21
805.79547631318621
  0
LINE
  8
_0-e_極細4
  6
CONTINUOUS
 62
    9
 10
791.75513210126894
 20
797.12805484310923
 11
791.75513210126894
 21
805.79818589929982
  0
LINE
  8
_0-e_極細4
  6
CONTINUOUS
 62
    9
 10
790.25513210127087
 20
797.12805484310923
 11
790.25513210127087
 21
805.64998778200663
  0
LINE
  8
_0-e_極細4
  6
CONTINUOUS
 62
    9
 10
788.75513210127269
 20
797.12805484310923
 11
788.75513210127269
 21
805.34626537050099
  0
LINE
  8
_0-e_極細4
  6
CONTINUOUS
 62
    9
 10
787.25513210126906
 20
797.12805484310923
 11
787.25513210126906
 21
804.87694437413541
  0
LINE
  8
_0-e_極細4
  6
CONTINUOUS
 62
    9
 10
785.75513210127087
 20
797.12805484310923
 11
785.75513210127087
 21
804.22464801840181
  0
LINE
  8
_0-e_極細4
  6
CONTINUOUS
 62
    9
 10
784.25513210126894
 20
797.12805484310923
 11
784.25513210126894
 21
803.36086701892202
  0
LINE
  8
_0-e_極細4
  6
CONTINUOUS
 62
    9
 10
782.75513210127087
 20
797.12805484310923
 11
782.75513210127087
 21
802.23772201807935
  0
LINE
  8
_0-e_極細4
  6
CONTINUOUS
 62
    9
 10
781.25513210127269
 20
797.12805484310923
 11
781.25513210127269
 21
800.76778600041689
  0
LINE
  8
_0-e_極細4
  6
CONTINUOUS
 62
    9
 10
779.75513210126906
 20
797.12805484310923
 11
779.75513210126906
 21
798.76085785306134
  0
LINE
  8
_0-e_極細4
  6
CONTINUOUS
 62
    9
 10
803.72807017543369
 20
789.88000234311005
 11
803.72807017543369
 21
797.12805484310923
  0
LINE
  8
_0-e_極細4
  6
CONTINUOUS
 62
    9
 10
778.87097155711501
 20
797.12805484310923
 11
803.72807017543369
 21
797.12805484310923
  0
ARC
  8
_0-e_極細4
  6
CONTINUOUS
 62
    9
 10
796.22807017543369
 20
797.38000234310857
 40
7.5
 50
358.07490068720898
 51
50.02949941996652
  0
ARC
  8
_0-e_極細4
  6
CONTINUOUS
 62
    9
 10
792.47807017543369
 20
790.81561734310856
 40
15
 50
55.166292356157491
 51
155.11305268293069
  0
ARC
  8
_0-e_極細4
  6
CONTINUOUS
 62
    9
 10
792.47807017543369
 20
790.81561734310856
 40
15
 50
155.11305268293069
 51
179.99999999999983
  0
LINE
  8
_0-e_極細4
  6
CONTINUOUS
 62
    9
 10
579.82833438871069
 20
835.961722487869
 11
585.03057017543347
 21
835.961722487869
  0
LINE
  8
_0-e_極細4
  6
CONTINUOUS
 62
    9
 10
567.72807017543357
 20
837.46172248786809
 11
585.03057017543347
 21
837.46172248786809
  0
LINE
  8
_0-e_極細4
  6
CONTINUOUS
 62
    9
 10
567.72807017543357
 20
838.961722487869
 11
585.03057017543347
 21
838.961722487869
  0
LINE
  8
_0-e_極細4
  6
CONTINUOUS
 62
    9
 10
567.72807017543357
 20
840.46172248786843
 11
575.54289430984511
 21
840.46172248786843
  0
LINE
  8
_0-e_極細4
  6
CONTINUOUS
 62
    9
 10
834.9255701754339
 20
835.961722487869
 11
840.12780596215464
 21
835.961722487869
  0
LINE
  8
_0-e_極細4
  6
CONTINUOUS
 62
    9
 10
834.9255701754339
 20
837.46172248786809
 11
852.22807017543732
 21
837.46172248786809
  0
LINE
  8
_0-e_極細4
  6
CONTINUOUS
 62
    9
 10
834.9255701754339
 20
838.961722487869
 11
852.22807017543732
 21
838.961722487869
  0
LINE
  8
_0-e_極細4
  6
CONTINUOUS
 62
    9
 10
844.41324604102022
 20
840.46172248786843
 11
852.22807017543732
 21
840.46172248786843
  0
LINE
  8
_0-e_極細4
  6
CONTINUOUS
 62
    9
 10
643.85830695155551
 20
491.61035304309905
 11
646.2650977258055
 21
494.01714381735337
  0
LINE
  8
_0-e_極細4
  6
CONTINUOUS
 62
    9
 10
641.18424945276661
 20
494.23959640321164
 11
646.34796180172646
 21
499.40330875217433
  0
LINE
  8
_0-e_極細4
  6
CONTINUOUS
 62
    9
 10
641.09731009442316
 20
499.45595790376819
 11
646.43082587764741
 21
504.78947368699238
  0
LINE
  8
_0-e_極細4
  6
CONTINUOUS
 62
    9
 10
641.01037073608143
 20
504.67231940432475
 11
646.51368995356836
 21
510.17563862181169
  0
LINE
  8
_0-e_極細4
  6
CONTINUOUS
 62
    9
 10
640.92343137773798
 20
509.88868090488131
 11
646.59655402948931
 21
515.56180355663264
  0
LINE
  8
_0-e_極細4
  6
CONTINUOUS
 62
    9
 10
640.83649201939454
 20
515.10504240543787
 11
646.67941810541026
 21
520.94796849145064
  0
LINE
  8
_0-e_極細4
  6
CONTINUOUS
 62
    9
 10
640.7495526610511
 20
520.32140390599443
 11
646.76228218132951
 21
526.33413342627
  0
LINE
  8
_0-e_極細4
  6
CONTINUOUS
 62
    9
 10
640.66261330270947
 20
525.53776540655099
 11
646.84514625725046
 21
531.72029836109095
  0
LINE
  8
_0-e_極細4
  6
CONTINUOUS
 62
    9
 10
613.93190008035901
 20
504.11035304309905
 11
614.35732441882124
 21
504.53577738155843
  0
LINE
  8
_0-e_極細4
  6
CONTINUOUS
 62
    9
 10
640.57567394436603
 20
530.75412690710755
 11
646.92801033317141
 21
537.10646329590895
  0
LINE
  8
_0-e_極細4
  6
CONTINUOUS
 62
    9
 10
608.62859922145981
 20
504.11035304310053
 11
614.41089311436201
 21
509.89264693600205
  0
LINE
  8
_0-e_極細4
  6
CONTINUOUS
 62
    9
 10
640.48873458602816
 20
535.97048840766411
 11
647.01087440909237
 21
542.49262823072831
  0
LINE
  8
_0-e_極細4
  6
CONTINUOUS
 62
    9
 10
607.16660920200241
 20
507.95166388254103
 11
614.46446180990847
 21
515.24951649044567
  0
LINE
  8
_0-e_極細4
  6
CONTINUOUS
 62
    9
 10
640.40179522768472
 20
541.18684990822067
 11
647.09373848501332
 21
547.87879316554927
  0
LINE
  8
_0-e_極細4
  6
CONTINUOUS
 62
    9
 10
607.08309265304365
 20
513.17144819248085
 11
614.51803050545459
 21
520.60638604488929
  0
LINE
  8
_0-e_極細4
  6
CONTINUOUS
 62
    9
 10
640.31485586934127
 20
546.40321140877722
 11
647.1766025609287
 21
553.26495810036727
  0
LINE
  8
_0-e_極細4
  6
CONTINUOUS
 62
    9
 10
606.99957610408455
 20
518.39123250242073
 11
614.57159920099571
 21
525.96325559933291
  0
LINE
  8
_0-e_極細4
  6
CONTINUOUS
 62
    9
 10
640.22791651099783
 20
551.61957290933378
 11
647.25946663684965
 21
558.65112303518663
  0
LINE
  8
_0-e_極細4
  6
CONTINUOUS
 62
    9
 10
606.91605955512591
 20
523.61101681236073
 11
614.62516789654183
 21
531.32012515377653
  0
LINE
  8
_0-e_極細4
  6
CONTINUOUS
 62
    9
 10
640.14097715265609
 20
556.83593440989034
 11
647.3423307127706
 21
564.0372879700061
  0
LINE
  8
_0-e_極細4
  6
CONTINUOUS
 62
    9
 10
606.83254300616511
 20
528.83080112230209
 11
614.67873659208465
 21
536.67699470822015
  0
LINE
  8
_0-e_極細4
  6
CONTINUOUS
 62
    9
 10
640.05403779431265
 20
562.0522959104469
 11
647.42519478868974
 21
569.42345290482558
  0
LINE
  8
_0-e_極細4
  6
CONTINUOUS
 62
    9
 10
606.74902645720806
 20
534.05058543224209
 11
614.73230528763111
 21
542.03386426266377
  0
LINE
  8
_0-e_極細4
  6
CONTINUOUS
 62
    9
 10
639.30879406806889
 20
566.61035304310053
 11
645.55879406806912
 21
572.86035304310053
  0
LINE
  8
_0-e_極細4
  6
CONTINUOUS
 62
    9
 10
606.66550990824726
 20
539.27036974218197
 11
614.78587398317723
 21
547.39073381710739
  0
LINE
  8
_0-e_極細4
  6
CONTINUOUS
 62
    9
 10
634.00549320916639
 20
566.61035304310053
 11
640.25549320916627
 21
572.86035304310053
  0
LINE
  8
_0-e_極細4
  6
CONTINUOUS
 62
    9
 10
606.58199335929021
 20
544.49015405212185
 11
614.83944267871834
 21
552.74760337155101
  0
LINE
  8
_0-e_極細4
  6
CONTINUOUS
 62
    9
 10
628.70219235026889
 20
566.61035304310053
 11
634.95219235026889
 21
572.86035304310053
  0
LINE
  8
_0-e_極細4
  6
CONTINUOUS
 62
    9
 10
606.49847681033157
 20
549.70993836206185
 11
614.89301137426446
 21
558.10447292599315
  0
LINE
  8
_0-e_極細4
  6
CONTINUOUS
 62
    9
 10
623.39889149136809
 20
566.61035304310053
 11
629.64889149136809
 21
572.86035304310053
  0
LINE
  8
_0-e_極細4
  6
CONTINUOUS
 62
    9
 10
606.41496026137077
 20
554.92972267200173
 11
614.94658006980728
 21
563.46134248043677
  0
LINE
  8
_0-e_極細4
  6
CONTINUOUS
 62
    9
 10
618.09559063247093
 20
566.61035304310053
 11
624.34559063247093
 21
572.86035304310053
  0
LINE
  8
_0-e_極細4
  6
CONTINUOUS
 62
    9
 10
606.33144371241201
 20
560.14950698194161
 11
619.04228977357343
 21
572.86035304310053
  0
LINE
  8
_0-e_極細4
  6
CONTINUOUS
 62
    9
 10
606.24792716345291
 20
565.36929129188161
 11
613.73898891467093
 21
572.86035304310053
  0
LINE
  8
_0-e_極細4
  6
CONTINUOUS
 62
    9
 10
602.24104571143675
 20
566.66571069876397
 11
608.49104571143675
 21
572.91571069876397
  0
LINE
  8
_0-e_極細4
  6
CONTINUOUS
 62
    9
 10
597.78560465326541
 20
567.51357049949115
 11
604.03560465326541
 21
573.76357049949115
  0
LINE
  8
_0-e_極細4
  6
CONTINUOUS
 62
    9
 10
594.06717379106703
 20
569.09844049619267
 11
600.31717379106703
 21
575.34844049619267
  0
LINE
  8
_0-e_極細4
  6
CONTINUOUS
 62
    9
 10
590.91728062958111
 20
571.25184819360607
 11
597.16728062958111
 21
577.50184819360607
  0
LINE
  8
_0-e_極細4
  6
CONTINUOUS
 62
    9
 10
588.27541728972756
 20
573.91328571265171
 11
594.52541728972756
 21
580.16328571265171
  0
LINE
  8
_0-e_極細4
  6
CONTINUOUS
 62
    9
 10
586.14268408558382
 20
577.08385336740798
 11
592.39268408558382
 21
583.33385336740798
  0
LINE
  8
_0-e_極細4
  6
CONTINUOUS
 62
    9
 10
584.58250752414301
 20
580.8269776648666
 11
590.83250752414301
 21
587.0769776648666
  0
LINE
  8
_0-e_極細4
  6
CONTINUOUS
 62
    9
 10
583.76989020315159
 20
585.31766120277416
 11
590.01989020315159
 21
591.56766120277416
  0
LINE
  8
_0-e_極細4
  6
CONTINUOUS
 62
    9
 10
583.72807017543346
 20
590.57914203395444
 11
589.97807017543346
 21
596.82914203395444
  0
LINE
  8
_0-e_極細4
  6
CONTINUOUS
 62
    9
 10
583.72807017543346
 20
595.88244289285308
 11
589.97807017543346
 21
602.13244289285308
  0
LINE
  8
_0-e_極細4
  6
CONTINUOUS
 62
    9
 10
583.72807017543346
 20
601.18574375175149
 11
589.97807017543346
 21
607.43574375175319
  0
LINE
  8
_0-e_極細4
  6
CONTINUOUS
 62
    9
 10
583.72807017543346
 20
606.48904461065149
 11
589.97807017543346
 21
612.73904461065149
  0
LINE
  8
_0-e_極細4
  6
CONTINUOUS
 62
    9
 10
583.72807017543346
 20
611.79234546955149
 11
589.97807017543346
 21
618.04234546955149
  0
LINE
  8
_0-e_極細4
  6
CONTINUOUS
 62
    9
 10
583.72807017543346
 20
617.0956463284499
 11
589.97807017543346
 21
623.3456463284499
  0
LINE
  8
_0-e_極細4
  6
CONTINUOUS
 62
    9
 10
583.72807017543346
 20
622.39894718734865
 11
589.97807017543346
 21
628.64894718734865
  0
LINE
  8
_0-e_極細4
  6
CONTINUOUS
 62
    9
 10
583.72807017543346
 20
627.70224804624866
 11
589.97807017543346
 21
633.95224804624877
  0
LINE
  8
_0-e_極細4
  6
CONTINUOUS
 62
    9
 10
583.72807017543346
 20
633.00554890514695
 11
589.97807017543346
 21
639.25554890514695
  0
LINE
  8
_0-e_極細4
  6
CONTINUOUS
 62
    9
 10
583.72807017543346
 20
638.30884976404695
 11
589.97807017543346
 21
644.55884976404707
  0
LINE
  8
_0-e_極細4
  6
CONTINUOUS
 62
    9
 10
583.72807017543346
 20
643.61215062294536
 11
589.97807017543346
 21
649.86215062294536
  0
LINE
  8
_0-e_極細4
  6
CONTINUOUS
 62
    9
 10
583.72807017543346
 20
648.91545148184423
 11
589.97807017543346
 21
655.16545148184423
  0
LINE
  8
_0-e_極細4
  6
CONTINUOUS
 62
    9
 10
583.72807017543346
 20
654.21875234074423
 11
589.97807017543346
 21
660.46875234074253
  0
LINE
  8
_0-e_極細4
  6
CONTINUOUS
 62
    9
 10
583.72807017543346
 20
659.52205319964082
 11
589.97807017543346
 21
665.77205319964253
  0
LINE
  8
_0-e_極細4
  6
CONTINUOUS
 62
    9
 10
583.72807017543346
 20
664.82535405854253
 11
589.97807017543346
 21
671.07535405854253
  0
LINE
  8
_0-e_極細4
  6
CONTINUOUS
 62
    9
 10
583.72807017543346
 20
670.12865491744083
 11
589.97807017543346
 21
676.37865491744083
  0
LINE
  8
_0-e_極細4
  6
CONTINUOUS
 62
    9
 10
583.72807017543346
 20
675.43195577633969
 11
589.97807017543346
 21
681.68195577633969
  0
LINE
  8
_0-e_極細4
  6
CONTINUOUS
 62
    9
 10
583.72807017543346
 20
680.73525663523799
 11
589.97807017543346
 21
686.98525663523969
  0
LINE
  8
_0-e_極細4
  6
CONTINUOUS
 62
    9
 10
583.72807017543346
 20
686.03855749413799
 11
589.97807017543346
 21
692.28855749413799
  0
LINE
  8
_0-e_極細4
  6
CONTINUOUS
 62
    9
 10
583.72807017543346
 20
691.34185835303799
 11
589.97807017543346
 21
697.59185835303799
  0
LINE
  8
_0-e_極細4
  6
CONTINUOUS
 62
    9
 10
583.72807017543346
 20
696.64515921193629
 11
589.97807017543346
 21
702.89515921193629
  0
LINE
  8
_0-e_極細4
  6
CONTINUOUS
 62
    9
 10
583.72807017543346
 20
701.94846007083515
 11
589.97807017543346
 21
708.19846007083515
  0
LINE
  8
_0-e_極細4
  6
CONTINUOUS
 62
    9
 10
583.72807017543346
 20
707.25176092973516
 11
589.97807017543346
 21
713.50176092973516
  0
LINE
  8
_0-e_極細4
  6
CONTINUOUS
 62
    9
 10
583.72807017543346
 20
712.55506178863345
 11
589.97807017543346
 21
718.80506178863345
  0
LINE
  8
_0-e_極細4
  6
CONTINUOUS
 62
    9
 10
583.72807017543346
 20
717.85836264753175
 11
589.97807017543346
 21
724.10836264753175
  0
LINE
  8
_0-e_極細4
  6
CONTINUOUS
 62
    9
 10
583.72807017543346
 20
723.16166350643175
 11
589.97807017543346
 21
729.41166350643175
  0
LINE
  8
_0-e_極細4
  6
CONTINUOUS
 62
    9
 10
583.72807017543346
 20
728.46496436533175
 11
589.97807017543346
 21
734.71496436533175
  0
LINE
  8
_0-e_極細4
  6
CONTINUOUS
 62
    9
 10
583.72807017543346
 20
733.76826522423062
 11
589.97807017543346
 21
740.01826522423062
  0
LINE
  8
_0-e_極細4
  6
CONTINUOUS
 62
    9
 10
583.72807017543346
 20
739.07156608312891
 11
589.97807017543346
 21
745.32156608312891
  0
LINE
  8
_0-e_極細4
  6
CONTINUOUS
 62
    9
 10
583.72807017543346
 20
744.37486694202892
 11
589.97807017543346
 21
750.62486694202892
  0
LINE
  8
_0-e_極細4
  6
CONTINUOUS
 62
    9
 10
583.72807017543346
 20
749.67816780092721
 11
589.97807017543346
 21
755.92816780092721
  0
LINE
  8
_0-e_極細4
  6
CONTINUOUS
 62
    9
 10
583.72807017543346
 20
754.98146865982721
 11
589.97807017543346
 21
761.23146865982721
  0
LINE
  8
_0-e_極細4
  6
CONTINUOUS
 62
    9
 10
583.72807017543346
 20
760.28476951872608
 11
589.97807017543346
 21
766.53476951872608
  0
LINE
  8
_0-e_極細4
  6
CONTINUOUS
 62
    9
 10
583.72807017543346
 20
765.58807037762438
 11
589.97807017543346
 21
771.83807037762438
  0
LINE
  8
_0-e_極細4
  6
CONTINUOUS
 62
    9
 10
583.72807017543346
 20
770.89137123652438
 11
589.97807017543346
 21
777.14137123652438
  0
LINE
  8
_0-e_極細4
  6
CONTINUOUS
 62
    9
 10
583.07020510067923
 20
775.53680702066856
 11
589.97807017543346
 21
782.4446720954229
  0
LINE
  8
_0-e_極細4
  6
CONTINUOUS
 62
    9
 10
581.24395198120715
 20
779.01385476009364
 11
589.97807017543346
 21
787.7479729543229
  0
LINE
  8
_0-e_極細4
  6
CONTINUOUS
 62
    9
 10
578.57492264311281
 20
781.64812628090078
 11
588.72807017543346
 21
791.80127381322166
  0
LINE
  8
_0-e_極細4
  6
CONTINUOUS
 62
    9
 10
577.47807017543346
 20
785.85457467211984
 11
588.72807017543346
 21
797.10457467211984
  0
LINE
  8
_0-e_極細4
  6
CONTINUOUS
 62
    9
 10
577.47807017543346
 20
791.15787553101984
 11
586.08815983147736
 21
799.76796518706453
  0
LINE
  8
_0-e_極細4
  6
CONTINUOUS
 62
    9
 10
577.47807017543346
 20
796.46117638991836
 11
585.03057017543347
 21
804.01367638991871
  0
LINE
  8
_0-e_極細4
  6
CONTINUOUS
 62
    9
 10
577.47807017543346
 20
801.76447724881837
 11
585.03057017543347
 21
809.3169772488169
  0
LINE
  8
_0-e_極細4
  6
CONTINUOUS
 62
    9
 10
572.77068691082434
 20
802.36039484310879
 11
585.03057017543347
 21
814.6202781077169
  0
LINE
  8
_0-e_極細4
  6
CONTINUOUS
 62
    9
 10
567.72807017543357
 20
802.62107896661621
 11
585.03057017543347
 21
819.92357896661542
  0
LINE
  8
_0-e_極細4
  6
CONTINUOUS
 62
    9
 10
567.72807017543357
 20
807.92437982551473
 11
585.03057017543347
 21
825.22687982551543
  0
LINE
  8
_0-e_極細4
  6
CONTINUOUS
 62
    9
 10
567.72807017543357
 20
813.22768068441474
 11
585.03057017543347
 21
830.53018068441418
  0
LINE
  8
_0-e_極細4
  6
CONTINUOUS
 62
    9
 10
567.72807017543357
 20
818.53098154331349
 11
584.6065016542417
 21
835.40941302212286
  0
LINE
  8
_0-e_極細4
  6
CONTINUOUS
 62
    9
 10
567.72807017543357
 20
823.83428240221167
 11
579.85269447325118
 21
835.9589067000303
  0
LINE
  8
_0-e_極細4
  6
CONTINUOUS
 62
    9
 10
567.72807017543357
 20
829.13758326111167
 11
575.09888729225906
 21
836.50840037793716
  0
LINE
  8
_0-e_極細4
  6
CONTINUOUS
 62
    9
 10
567.72807017543357
 20
834.4408841200102
 11
570.34508011126695
 21
837.05789405584437
  0
LINE
  8
_0-e_極細4
  6
CONTINUOUS
 62
    9
 10
645.55879406806912
 20
572.86035304310053
 11
647.47807017543539
 21
574.77962915046817
  0
LINE
  8
_0-e_極細4
  6
CONTINUOUS
 62
    9
 10
640.25549320916627
 20
572.86035304310053
 11
647.47807017543539
 21
580.08293000936669
  0
LINE
  8
_0-e_極細4
  6
CONTINUOUS
 62
    9
 10
634.95219235026889
 20
572.86035304310053
 11
647.47807017543539
 21
585.3862308682651
  0
LINE
  8
_0-e_極細4
  6
CONTINUOUS
 62
    9
 10
629.64889149136809
 20
572.86035304309905
 11
647.47807017543539
 21
590.6895317271651
  0
LINE
  8
_0-e_極細4
  6
CONTINUOUS
 62
    9
 10
624.34559063247093
 20
572.86035304309905
 11
647.47807017543539
 21
595.99283258606351
  0
LINE
  8
_0-e_極細4
  6
CONTINUOUS
 62
    9
 10
619.04228977357343
 20
572.86035304309905
 11
644.04228977357366
 21
597.86035304310053
  0
LINE
  8
_0-e_極細4
  6
CONTINUOUS
 62
    9
 10
613.73898891467093
 20
572.86035304310053
 11
638.88606783313116
 21
598.00743196155827
  0
LINE
  8
_0-e_極細4
  6
CONTINUOUS
 62
    9
 10
608.49104571143675
 20
572.91571069876397
 11
634.38109213439759
 21
598.80575712172549
  0
LINE
  8
_0-e_極細4
  6
CONTINUOUS
 62
    9
 10
604.03560465326541
 20
573.76357049949115
 11
630.40329379566003
 21
600.13125964188634
  0
LINE
  8
_0-e_極細4
  6
CONTINUOUS
 62
    9
 10
600.31717379106703
 20
575.34844049619267
 11
626.8500615103369
 21
601.88132821546196
  0
LINE
  8
_0-e_極細4
  6
CONTINUOUS
 62
    9
 10
597.16728062958111
 20
577.50184819360607
 11
623.66670023849849
 21
604.00126780252481
  0
LINE
  8
_0-e_極細4
  6
CONTINUOUS
 62
    9
 10
594.52541728972756
 20
580.16328571265171
 11
620.82537811714815
 21
606.46324654007321
  0
LINE
  8
_0-e_極細4
  6
CONTINUOUS
 62
    9
 10
592.39268408558382
 20
583.33385336740798
 11
618.31685571344337
 21
609.2580249952656
  0
LINE
  8
_0-e_極細4
  6
CONTINUOUS
 62
    9
 10
590.83250752414301
 20
587.0769776648666
 11
616.14807327888798
 21
612.3925434196085
  0
LINE
  8
_0-e_極細4
  6
CONTINUOUS
 62
    9
 10
590.01989020315159
 20
591.56766120277416
 11
614.34394804723888
 21
615.89171904685861
  0
LINE
  8
_0-e_極細4
  6
CONTINUOUS
 62
    9
 10
589.97807017543346
 20
596.82914203395444
 11
612.95459279447095
 21
619.80566465298898
  0
LINE
  8
_0-e_極細4
  6
CONTINUOUS
 62
    9
 10
589.97807017543346
 20
602.13244289285308
 11
612.07376507338472
 21
624.22813779080275
  0
LINE
  8
_0-e_極細4
  6
CONTINUOUS
 62
    9
 10
589.97807017543346
 20
607.43574375175319
 11
611.85307017543346
 21
629.31074375175149
  0
LINE
  8
_0-e_極細4
  6
CONTINUOUS
 62
    9
 10
589.97807017543346
 20
612.73904461065149
 11
611.85307017543346
 21
634.61404461065149
  0
LINE
  8
_0-e_極細4
  6
CONTINUOUS
 62
    9
 10
589.97807017543346
 20
618.04234546955149
 11
611.85307017543346
 21
639.91734546955149
  0
LINE
  8
_0-e_極細4
  6
CONTINUOUS
 62
    9
 10
589.97807017543346
 20
623.3456463284499
 11
611.85307017543346
 21
645.2206463284499
  0
LINE
  8
_0-e_極細4
  6
CONTINUOUS
 62
    9
 10
589.97807017543346
 20
628.64894718734865
 11
611.85307017543346
 21
650.52394718734877
  0
LINE
  8
_0-e_極細4
  6
CONTINUOUS
 62
    9
 10
589.97807017543346
 20
633.95224804624877
 11
611.85307017543346
 21
655.82724804624706
  0
LINE
  8
_0-e_極細4
  6
CONTINUOUS
 62
    9
 10
589.97807017543346
 20
639.25554890514695
 11
611.85307017543346
 21
661.13054890514707
  0
LINE
  8
_0-e_極細4
  6
CONTINUOUS
 62
    9
 10
589.97807017543346
 20
644.55884976404707
 11
611.85307017543346
 21
666.43384976404707
  0
LINE
  8
_0-e_極細4
  6
CONTINUOUS
 62
    9
 10
589.97807017543346
 20
649.86215062294536
 11
611.85307017543346
 21
671.73715062294536
  0
LINE
  8
_0-e_極細4
  6
CONTINUOUS
 62
    9
 10
589.97807017543346
 20
655.16545148184423
 11
611.85307017543346
 21
677.04045148184423
  0
LINE
  8
_0-e_極細4
  6
CONTINUOUS
 62
    9
 10
589.97807017543346
 20
660.46875234074253
 11
611.85307017543346
 21
682.34375234074253
  0
LINE
  8
_0-e_極細4
  6
CONTINUOUS
 62
    9
 10
589.97807017543346
 20
665.77205319964253
 11
611.85307017543346
 21
687.64705319964082
  0
LINE
  8
_0-e_極細4
  6
CONTINUOUS
 62
    9
 10
589.97807017543346
 20
671.07535405854253
 11
611.85307017543346
 21
692.95035405854253
  0
LINE
  8
_0-e_極細4
  6
CONTINUOUS
 62
    9
 10
589.97807017543346
 20
676.37865491744083
 11
611.85307017543346
 21
698.25365491744083
  0
LINE
  8
_0-e_極細4
  6
CONTINUOUS
 62
    9
 10
589.97807017543346
 20
681.68195577633969
 11
611.85307017543346
 21
703.55695577633969
  0
LINE
  8
_0-e_極細4
  6
CONTINUOUS
 62
    9
 10
589.97807017543346
 20
686.98525663523969
 11
611.85307017543346
 21
708.86025663523799
  0
LINE
  8
_0-e_極細4
  6
CONTINUOUS
 62
    9
 10
589.97807017543346
 20
692.28855749413799
 11
611.85307017543346
 21
714.16355749413799
  0
LINE
  8
_0-e_極細4
  6
CONTINUOUS
 62
    9
 10
589.97807017543346
 20
697.59185835303799
 11
610.07009051256523
 21
717.68387869016851
  0
LINE
  8
_0-e_極細4
  6
CONTINUOUS
 62
    9
 10
589.97807017543346
 20
702.89515921193629
 11
604.76678965366602
 21
717.68387869016851
  0
LINE
  8
_0-e_極細4
  6
CONTINUOUS
 62
    9
 10
589.97807017543346
 20
708.19846007083515
 11
599.46348879476682
 21
717.68387869016851
  0
LINE
  8
_0-e_極細4
  6
CONTINUOUS
 62
    9
 10
589.97807017543346
 20
713.50176092973516
 11
594.16018793586602
 21
717.68387869016851
  0
LINE
  8
_0-e_極細4
  6
CONTINUOUS
 62
    9
 10
589.97807017543346
 20
718.80506178863345
 11
590.23445943394313
 21
719.06145104714187
  0
LINE
  8
_0-e_極細4
  6
CONTINUOUS
 62
    9
 10
816.28483453716058
 20
573.88076602742194
 11
828.95765719110955
 21
586.5535886813725
  0
LINE
  8
_0-e_極細4
  6
CONTINUOUS
 62
    9
 10
809.96112069393916
 20
572.86035304310053
 11
829.97807017543369
 21
592.87730252459392
  0
LINE
  8
_0-e_極細4
  6
CONTINUOUS
 62
    9
 10
804.65781983504189
 20
572.86035304310053
 11
829.97807017543369
 21
598.18060338349392
  0
LINE
  8
_0-e_極細4
  6
CONTINUOUS
 62
    9
 10
799.35451897613916
 20
572.86035304310053
 11
829.97807017543369
 21
603.48390424239233
  0
LINE
  8
_0-e_極細4
  6
CONTINUOUS
 62
    9
 10
794.05121811724189
 20
572.86035304310053
 11
829.97807017543369
 21
608.78720510129233
  0
LINE
  8
_0-e_極細4
  6
CONTINUOUS
 62
    9
 10
788.74791725834086
 20
572.86035304310053
 11
829.97807017543369
 21
614.09050596019074
  0
LINE
  8
_0-e_極細4
  6
CONTINUOUS
 62
    9
 10
783.4446163994437
 20
572.86035304310053
 11
829.97807017543369
 21
619.39380681908949
  0
LINE
  8
_0-e_極細4
  6
CONTINUOUS
 62
    9
 10
778.14131554054643
 20
572.86035304310053
 11
829.97807017543369
 21
624.69710767798949
  0
LINE
  8
_0-e_極細4
  6
CONTINUOUS
 62
    9
 10
772.8380146816437
 20
572.86035304310053
 11
829.97807017543369
 21
630.00040853688779
  0
LINE
  8
_0-e_極細4
  6
CONTINUOUS
 62
    9
 10
772.47807017543369
 20
577.80370939578779
 11
829.97807017543369
 21
635.30370939578779
  0
LINE
  8
_0-e_極細4
  6
CONTINUOUS
 62
    9
 10
772.47807017543369
 20
583.10701025468632
 11
789.46704659280499
 21
600.09598667205728
  0
LINE
  8
_0-e_極細4
  6
CONTINUOUS
 62
    9
 10
805.86743654647421
 20
616.4963766257282
 11
829.97807017543369
 21
640.6070102546862
  0
LINE
  8
_0-e_極細4
  6
CONTINUOUS
 62
    9
 10
772.47807017543369
 20
588.41031111358484
 11
782.21064543094712
 21
598.14288636909941
  0
LINE
  8
_0-e_極細4
  6
CONTINUOUS
 62
    9
 10
807.8205368494348
 20
623.75277778758607
 11
829.97807017543369
 21
645.9103111135862
  0
LINE
  8
_0-e_極細4
  6
CONTINUOUS
 62
    9
 10
772.47807017543369
 20
593.71361197248484
 11
776.62481124605097
 21
597.86035304309894
  0
LINE
  8
_0-e_極細4
  6
CONTINUOUS
 62
    9
 10
808.10307017543369
 20
629.33861197248507
 11
829.97807017543369
 21
651.21361197248507
  0
LINE
  8
_0-e_極細4
  6
CONTINUOUS
 62
    9
 10
808.10307017543369
 20
634.64191283138325
 11
829.97807017543369
 21
656.51691283138337
  0
LINE
  8
_0-e_極細4
  6
CONTINUOUS
 62
    9
 10
808.10307017543369
 20
639.94521369028325
 11
829.97807017543369
 21
661.82021369028337
  0
LINE
  8
_0-e_極細4
  6
CONTINUOUS
 62
    9
 10
808.10307017543369
 20
645.24851454918166
 11
829.97807017543369
 21
667.12351454918166
  0
LINE
  8
_0-e_極細4
  6
CONTINUOUS
 62
    9
 10
808.10307017543369
 20
650.55181540808053
 11
829.97807017543369
 21
672.42681540808053
  0
LINE
  8
_0-e_極細4
  6
CONTINUOUS
 62
    9
 10
808.10307017543369
 20
655.85511626698053
 11
829.97807017543369
 21
677.73011626698053
  0
LINE
  8
_0-e_極細4
  6
CONTINUOUS
 62
    9
 10
808.10307017543369
 20
661.15841712587883
 11
829.97807017543369
 21
683.03341712587883
  0
LINE
  8
_0-e_極細4
  6
CONTINUOUS
 62
    9
 10
808.10307017543369
 20
666.46171798477883
 11
829.97807017543369
 21
688.33671798477883
  0
LINE
  8
_0-e_極細4
  6
CONTINUOUS
 62
    9
 10
808.10307017543369
 20
671.76501884367713
 11
829.97807017543369
 21
693.64001884367713
  0
LINE
  8
_0-e_極細4
  6
CONTINUOUS
 62
    9
 10
808.10307017543369
 20
677.06831970257713
 11
829.97807017543369
 21
698.94331970257599
  0
LINE
  8
_0-e_極細4
  6
CONTINUOUS
 62
    9
 10
808.10307017543369
 20
682.37162056147599
 11
829.97807017543369
 21
704.24662056147599
  0
LINE
  8
_0-e_極細4
  6
CONTINUOUS
 62
    9
 10
808.10307017543369
 20
687.67492142037429
 11
829.97807017543369
 21
709.54992142037429
  0
LINE
  8
_0-e_極細4
  6
CONTINUOUS
 62
    9
 10
808.10307017543369
 20
692.97822227927429
 11
829.97807017543369
 21
714.85322227927259
  0
LINE
  8
_0-e_極細4
  6
CONTINUOUS
 62
    9
 10
808.10307017543369
 20
698.28152313817259
 11
827.50542572742802
 21
717.68387869016851
  0
LINE
  8
_0-e_極細4
  6
CONTINUOUS
 62
    9
 10
829.97805813360003
 20
720.15651109634166
 11
829.97807017543369
 21
720.15652313817259
  0
LINE
  8
_0-e_極細4
  6
CONTINUOUS
 62
    9
 10
808.10307017543369
 20
703.58482399707145
 11
822.20212486853075
 21
717.68387869016851
  0
LINE
  8
_0-e_極細4
  6
CONTINUOUS
 62
    9
 10
808.10307017543369
 20
708.88812485597145
 11
816.89882400962972
 21
717.68387869016851
  0
LINE
  8
_0-e_極細4
  6
CONTINUOUS
 62
    9
 10
808.10307017543369
 20
714.19142571486975
 11
811.59552315073256
 21
717.68387869016851
  0
LINE
  8
_0-e_極細4
  6
CONTINUOUS
 62
    9
 10
810.15403185962555
 20
504.11035304310053
 11
812.76992445699238
 21
506.72624564046316
  0
LINE
  8
_0-e_極細4
  6
CONTINUOUS
 62
    9
 10
805.59562127271249
 20
504.85524331508577
 11
812.85615699128186
 21
512.11577903365367
  0
LINE
  8
_0-e_極細4
  6
CONTINUOUS
 62
    9
 10
805.54311334341605
 20
510.10603624468814
 11
812.94238952557339
 21
517.50531242684417
  0
LINE
  8
_0-e_極細4
  6
CONTINUOUS
 62
    9
 10
805.49060541412132
 20
515.35682917429176
 11
813.02862205986287
 21
522.89484582003467
  0
LINE
  8
_0-e_極細4
  6
CONTINUOUS
 62
    9
 10
776.44082842403282
 20
491.61035304309905
 11
778.76683698478178
 21
493.93636160384801
  0
LINE
  8
_0-e_極細4
  6
CONTINUOUS
 62
    9
 10
805.43809748482659
 20
520.60762210389407
 11
813.11485459415621
 21
528.2843792132237
  0
LINE
  8
_0-e_極細4
  6
CONTINUOUS
 62
    9
 10
773.68881952982179
 20
494.16164500779223
 11
778.85672344001637
 21
499.32954891798261
  0
LINE
  8
_0-e_極細4
  6
CONTINUOUS
 62
    9
 10
805.38558955553003
 20
525.85841503349775
 11
813.20108712844944
 21
533.67391260641421
  0
LINE
  8
_0-e_極細4
  6
CONTINUOUS
 62
    9
 10
773.60846648650681
 20
499.38459282337453
 11
778.94660989525096
 21
504.72273623211868
  0
LINE
  8
_0-e_極細4
  6
CONTINUOUS
 62
    9
 10
805.3330816262353
 20
531.10920796310006
 11
813.28731966273722
 21
539.06344599960471
  0
LINE
  8
_0-e_極細4
  6
CONTINUOUS
 62
    9
 10
773.52811344318809
 20
504.60754063895683
 11
779.03649635048737
 21
510.11592354625179
  0
LINE
  8
_0-e_極細4
  6
CONTINUOUS
 62
    9
 10
805.28057369694056
 20
536.36000089270374
 11
813.37355219703045
 21
544.45297939279521
  0
LINE
  8
_0-e_極細4
  6
CONTINUOUS
 62
    9
 10
773.44776039987323
 20
509.83048845453914
 11
779.12638280572196
 21
515.50911086038786
  0
LINE
  8
_0-e_極細4
  6
CONTINUOUS
 62
    9
 10
805.22806576764026
 20
541.61079382230605
 11
813.45978473131822
 21
549.84251278598572
  0
LINE
  8
_0-e_極細4
  6
CONTINUOUS
 62
    9
 10
773.36740735655826
 20
515.05343627012144
 11
779.21626926095655
 21
520.90229817452246
  0
LINE
  8
_0-e_極細4
  6
CONTINUOUS
 62
    9
 10
805.17555783834382
 20
546.86158675190973
 11
813.54601726561145
 21
555.23204617917463
  0
LINE
  8
_0-e_極細4
  6
CONTINUOUS
 62
    9
 10
773.28705431323954
 20
520.27638408570374
 11
779.30615571619114
 21
526.29548548865705
  0
LINE
  8
_0-e_極細4
  6
CONTINUOUS
 62
    9
 10
805.12304990904909
 20
552.11237968151204
 11
813.63224979990093
 21
560.62157957236514
  0
LINE
  8
_0-e_極細4
  6
CONTINUOUS
 62
    9
 10
819.97517968084708
 20
566.96450945331003
 11
835.87391376522305
 21
582.863243537686
  0
LINE
  8
_0-e_極細4
  6
CONTINUOUS
 62
    9
 10
773.20670126992286
 20
525.49933190128604
 11
779.39604217142744
 21
531.68867280279164
  0
LINE
  8
_0-e_極細4
  6
CONTINUOUS
 62
    9
 10
805.07054197975435
 20
557.36317261111571
 11
813.71848233419428
 21
566.01111296555564
  0
LINE
  8
_0-e_極細4
  6
CONTINUOUS
 62
    9
 10
814.31772241173735
 20
566.61035304310053
 11
836.22807017543369
 21
588.52070080679687
  0
LINE
  8
_0-e_極細4
  6
CONTINUOUS
 62
    9
 10
773.12634822660414
 20
530.72227971686834
 11
779.48592862666203
 21
537.08186011692624
  0
LINE
  8
_0-e_極細4
  6
CONTINUOUS
 62
    9
 10
805.0180340504578
 20
562.61396554071951
 11
816.28483453716058
 21
573.88076602742194
  0
LINE
  8
_0-e_極細4
  6
CONTINUOUS
 62
    9
 10
828.95765719110955
 20
586.5535886813725
 11
836.22807017543369
 21
593.82400166569528
  0
LINE
  8
_0-e_極細4
  6
CONTINUOUS
 62
    9
 10
773.04599518328928
 20
535.94522753245064
 11
779.57581508190219
 21
542.47504743106083
  0
LINE
  8
_0-e_極細4
  6
CONTINUOUS
 62
    9
 10
803.71112069393916
 20
566.61035304310053
 11
809.96112069393916
 21
572.86035304309905
  0
LINE
  8
_0-e_極細4
  6
CONTINUOUS
 62
    9
 10
829.97807017543369
 20
592.87730252459392
 11
836.22807017543369
 21
599.12730252459392
  0
LINE
  8
_0-e_極細4
  6
CONTINUOUS
 62
    9
 10
772.96564213997431
 20
541.16817534803295
 11
779.66570153713678
 21
547.86823474519542
  0
LINE
  8
_0-e_極細4
  6
CONTINUOUS
 62
    9
 10
798.40781983504189
 20
566.61035304310053
 11
804.65781983504189
 21
572.86035304309905
  0
LINE
  8
_0-e_極細4
  6
CONTINUOUS
 62
    9
 10
829.97807017543369
 20
598.18060338349392
 11
836.22807017543369
 21
604.43060338349392
  0
LINE
  8
_0-e_極細4
  6
CONTINUOUS
 62
    9
 10
772.88528909665558
 20
546.39112316361525
 11
779.75558799237137
 21
553.26142205933002
  0
LINE
  8
_0-e_極細4
  6
CONTINUOUS
 62
    9
 10
793.10451897613916
 20
566.61035304310053
 11
799.35451897613916
 21
572.86035304309905
  0
LINE
  8
_0-e_極細4
  6
CONTINUOUS
 62
    9
 10
829.97807017543369
 20
603.48390424239233
 11
836.22807017543369
 21
609.73390424239233
  0
LINE
  8
_0-e_極細4
  6
CONTINUOUS
 62
    9
 10
772.80493605334073
 20
551.61407097919755
 11
779.84547444760778
 21
558.65460937346461
  0
LINE
  8
_0-e_極細4
  6
CONTINUOUS
 62
    9
 10
787.80121811724189
 20
566.61035304310053
 11
794.05121811724189
 21
572.86035304310053
  0
LINE
  8
_0-e_極細4
  6
CONTINUOUS
 62
    9
 10
829.97807017543369
 20
608.78720510129233
 11
836.22807017543369
 21
615.03720510129233
  0
LINE
  8
_0-e_極細4
  6
CONTINUOUS
 62
    9
 10
772.72458301002575
 20
556.83701879477985
 11
779.93536090284238
 21
564.0477966875992
  0
LINE
  8
_0-e_極細4
  6
CONTINUOUS
 62
    9
 10
782.49791725834086
 20
566.61035304310053
 11
788.74791725834086
 21
572.86035304310053
  0
LINE
  8
_0-e_極細4
  6
CONTINUOUS
 62
    9
 10
829.97807017543369
 20
614.09050596019074
 11
836.22807017543369
 21
620.34050596019074
  0
LINE
  8
_0-e_極細4
  6
CONTINUOUS
 62
    9
 10
772.64422996670532
 20
562.05996661036215
 11
783.4446163994437
 21
572.86035304309905
  0
LINE
  8
_0-e_極細4
  6
CONTINUOUS
 62
    9
 10
829.97807017543369
 20
619.39380681908949
 11
836.22807017543369
 21
625.64380681908949
  0
LINE
  8
_0-e_極細4
  6
CONTINUOUS
 62
    9
 10
772.56387692339035
 20
567.28291442594605
 11
778.14131554054643
 21
572.86035304310053
  0
LINE
  8
_0-e_極細4
  6
CONTINUOUS
 62
    9
 10
829.97807017543369
 20
624.69710767798949
 11
836.22807017543369
 21
630.94710767798961
  0
LINE
  8
_0-e_極細4
  6
CONTINUOUS
 62
    9
 10
772.48352388007163
 20
572.50586224152835
 11
772.8380146816437
 21
572.86035304310053
  0
LINE
  8
_0-e_極細4
  6
CONTINUOUS
 62
    9
 10
829.97807017543369
 20
630.00040853688779
 11
836.22807017543369
 21
636.25040853688779
  0
LINE
  8
_0-e_極細4
  6
CONTINUOUS
 62
    9
 10
829.97807017543369
 20
635.30370939578779
 11
836.22807017543369
 21
641.55370939578791
  0
LINE
  8
_0-e_極細4
  6
CONTINUOUS
 62
    9
 10
829.97807017543369
 20
640.6070102546862
 11
836.22807017543369
 21
646.8570102546862
  0
LINE
  8
_0-e_極細4
  6
CONTINUOUS
 62
    9
 10
829.97807017543369
 20
645.9103111135862
 11
836.22807017543369
 21
652.16031111358507
  0
LINE
  8
_0-e_極細4
  6
CONTINUOUS
 62
    9
 10
829.97807017543369
 20
651.21361197248507
 11
836.22807017543369
 21
657.46361197248507
  0
LINE
  8
_0-e_極細4
  6
CONTINUOUS
 62
    9
 10
829.97807017543369
 20
656.51691283138337
 11
836.22807017543369
 21
662.76691283138337
  0
LINE
  8
_0-e_極細4
  6
CONTINUOUS
 62
    9
 10
829.97807017543369
 20
661.82021369028337
 11
836.22807017543369
 21
668.07021369028337
  0
LINE
  8
_0-e_極細4
  6
CONTINUOUS
 62
    9
 10
829.97807017543369
 20
667.12351454918166
 11
836.22807017543369
 21
673.37351454918166
  0
LINE
  8
_0-e_極細4
  6
CONTINUOUS
 62
    9
 10
829.97807017543369
 20
672.42681540808053
 11
836.22807017543369
 21
678.67681540808053
  0
LINE
  8
_0-e_極細4
  6
CONTINUOUS
 62
    9
 10
829.97807017543369
 20
677.73011626698053
 11
836.22807017543369
 21
683.98011626698053
  0
LINE
  8
_0-e_極細4
  6
CONTINUOUS
 62
    9
 10
829.97807017543369
 20
683.03341712587883
 11
836.22807017543369
 21
689.28341712587883
  0
LINE
  8
_0-e_極細4
  6
CONTINUOUS
 62
    9
 10
829.97807017543369
 20
688.33671798477883
 11
836.22807017543369
 21
694.58671798477883
  0
LINE
  8
_0-e_極細4
  6
CONTINUOUS
 62
    9
 10
829.97807017543369
 20
693.64001884367713
 11
836.22807017543369
 21
699.89001884367713
  0
LINE
  8
_0-e_極細4
  6
CONTINUOUS
 62
    9
 10
829.97807017543369
 20
698.94331970257599
 11
836.22807017543369
 21
705.19331970257599
  0
LINE
  8
_0-e_極細4
  6
CONTINUOUS
 62
    9
 10
829.97807017543369
 20
704.24662056147599
 11
836.22807017543369
 21
710.49662056147599
  0
LINE
  8
_0-e_極細4
  6
CONTINUOUS
 62
    9
 10
829.97807017543369
 20
709.54992142037429
 11
836.22807017543369
 21
715.79992142037429
  0
LINE
  8
_0-e_極細4
  6
CONTINUOUS
 62
    9
 10
829.97807017543369
 20
714.85322227927259
 11
836.22807017543369
 21
721.10322227927259
  0
LINE
  8
_0-e_極細4
  6
CONTINUOUS
 62
    9
 10
829.97807017543369
 20
720.15652313817259
 11
836.22807017543369
 21
726.40652313817259
  0
LINE
  8
_0-e_極細4
  6
CONTINUOUS
 62
    9
 10
829.97807017543369
 20
725.45982399707145
 11
836.22807017543369
 21
731.70982399707259
  0
LINE
  8
_0-e_極細4
  6
CONTINUOUS
 62
    9
 10
829.97807017543369
 20
730.76312485597145
 11
836.22807017543369
 21
737.01312485597145
  0
LINE
  8
_0-e_極細4
  6
CONTINUOUS
 62
    9
 10
829.97807017543369
 20
736.06642571486975
 11
836.22807017543369
 21
742.31642571486975
  0
LINE
  8
_0-e_極細4
  6
CONTINUOUS
 62
    9
 10
829.97807017543369
 20
741.36972657376975
 11
836.22807017543369
 21
747.61972657376975
  0
LINE
  8
_0-e_極細4
  6
CONTINUOUS
 62
    9
 10
829.97807017543369
 20
746.67302743266805
 11
836.22807017543369
 21
752.92302743266805
  0
LINE
  8
_0-e_極細4
  6
CONTINUOUS
 62
    9
 10
829.97807017543369
 20
751.97632829156805
 11
836.22807017543369
 21
758.22632829156805
  0
LINE
  8
_0-e_極細4
  6
CONTINUOUS
 62
    9
 10
829.97807017543369
 20
757.27962915046692
 11
836.22807017543369
 21
763.52962915046692
  0
LINE
  8
_0-e_極細4
  6
CONTINUOUS
 62
    9
 10
829.97807017543369
 20
762.58293000936521
 11
836.22807017543369
 21
768.83293000936521
  0
LINE
  8
_0-e_極細4
  6
CONTINUOUS
 62
    9
 10
829.97807017543369
 20
767.88623086826522
 11
836.58251892409157
 21
774.49067961692151
  0
LINE
  8
_0-e_極細4
  6
CONTINUOUS
 62
    9
 10
829.97807017543369
 20
773.18953172716363
 11
842.47807017543369
 21
785.68953172716374
  0
LINE
  8
_0-e_極細4
  6
CONTINUOUS
 62
    9
 10
829.97807017543369
 20
778.49283258606374
 11
842.47807017543369
 21
790.99283258606374
  0
LINE
  8
_0-e_極細4
  6
CONTINUOUS
 62
    9
 10
829.97807017543369
 20
783.79613344496249
 11
834.04233157357908
 21
787.86039484310879
  0
LINE
  8
_0-e_極細4
  6
CONTINUOUS
 62
    9
 10
834.35237583925868
 20
788.1704391087884
 11
842.47807017543369
 21
796.29613344496374
  0
LINE
  8
_0-e_極細4
  6
CONTINUOUS
 62
    9
 10
848.54233157357896
 20
802.36039484310879
 11
852.22807017543732
 21
806.04613344496283
  0
LINE
  8
_0-e_極細4
  6
CONTINUOUS
 62
    9
 10
831.22807017543369
 20
790.34943430386068
 11
842.47807017543369
 21
801.59943430386068
  0
LINE
  8
_0-e_極細4
  6
CONTINUOUS
 62
    9
 10
843.2390307146818
 20
802.36039484310879
 11
852.22807017543732
 21
811.34943430386159
  0
LINE
  8
_0-e_極細4
  6
CONTINUOUS
 62
    9
 10
831.22807017543369
 20
795.65273516276068
 11
852.22807017543732
 21
816.65273516275977
  0
LINE
  8
_0-e_極細4
  6
CONTINUOUS
 62
    9
 10
834.9255701754339
 20
804.65353602165908
 11
852.22807017543732
 21
821.95603602165977
  0
LINE
  8
_0-e_極細4
  6
CONTINUOUS
 62
    9
 10
834.9255701754339
 20
809.95683688055908
 11
852.22807017543732
 21
827.25933688055829
  0
LINE
  8
_0-e_極細4
  6
CONTINUOUS
 62
    9
 10
834.9255701754339
 20
815.2601377394576
 11
852.22807017543732
 21
832.5626377394583
  0
LINE
  8
_0-e_極細4
  6
CONTINUOUS
 62
    9
 10
834.9255701754339
 20
820.56343859835761
 11
851.65645306547435
 21
837.29432148839533
  0
LINE
  8
_0-e_極細4
  6
CONTINUOUS
 62
    9
 10
834.9255701754339
 20
825.86673945725636
 11
845.66002352055534
 21
836.6011928023778
  0
LINE
  8
_0-e_極細4
  6
CONTINUOUS
 62
    9
 10
834.9255701754339
 20
831.17004031615454
 11
839.66359397563622
 21
835.9080641163597
  0
LINE
  8
_0-e_極細4
  6
CENTER2
 62
    9
 10
709.97807017543369
 20
871.00092980715146
 11
709.97807017543369
 21
463.93153145727581
  0
LINE
  8
_0-e_極細4
  6
CONTINUOUS
 62
    9
 10
567.72807017543357
 20
843.34244737978554
 11
852.22807017543732
 21
843.34244737978554
  0
LINE
  8
_0-e_極細4
  6
CONTINUOUS
 62
    9
 10
852.22807017543732
 20
841.61039484310879
 11
852.22807017543732
 21
843.34244737978554
  0
LINE
  8
_0-e_極細4
  6
CONTINUOUS
 62
    9
 10
777.47807017543369
 20
787.86039484310879
 11
834.9255701754339
 21
787.86039484310879
  0
LINE
  8
_0-e_極細4
  6
CONTINUOUS
 62
    9
 10
805.60307017543369
 20
774.86039484310879
 11
777.47807017543369
 21
774.86039484310879
  0
LINE
  8
_0-e_極細4
  6
CONTINUOUS
 62
    9
 10
834.9255701754339
 20
840.87805484310923
 11
852.22807017543732
 21
843.34244737978554
  0
LINE
  8
_0-e_極細4
  6
CONTINUOUS
 62
    9
 10
777.47807017543369
 20
787.12123484310905
 11
777.47807017543369
 21
790.81561734310856
  0
LINE
  8
_0-e_極細4
  6
CONTINUOUS
 62
    9
 10
777.47807017543369
 20
789.86039484310879
 11
831.22807017543369
 21
789.86039484310879
  0
LINE
  8
_0-e_極細4
  6
CONTINUOUS
 62
    9
 10
818.72807017543369
 20
823.63000234310857
 11
818.72807017543369
 21
825.87805484310923
  0
LINE
  8
_0-e_極細4
  6
CONTINUOUS
 62
    9
 10
818.72807017543369
 20
823.63000234310857
 11
709.97807017543369
 21
823.63000234310857
  0
LINE
  8
_0-e_極細4
  6
CONTINUOUS
 62
    9
 10
818.72807017543369
 20
812.13000234310914
 11
709.97807017543369
 21
812.13000234310914
  0
LINE
  8
_0-e_極細4
  6
CONTINUOUS
 62
    9
 10
818.72807017543369
 20
808.38000234310914
 11
818.72807017543369
 21
812.13000234310914
  0
LINE
  8
_0-e_極細4
  6
CONTINUOUS
 62
    9
 10
809.35307017543369
 20
819.39332984310897
 11
809.35307017543369
 21
816.14332984310931
  0
LINE
  8
_0-e_極細4
  6
CONTINUOUS
 62
    9
 10
809.35307017543369
 20
813.64332984310931
 11
809.35307017543369
 21
812.39332984310931
  0
LINE
  8
_0-e_極細4
  6
CONTINUOUS
 62
    9
 10
818.35307017543357
 20
819.39332984310897
 11
818.35307017543357
 21
812.39332984310931
  0
LINE
  8
_0-e_極細4
  6
CONTINUOUS
 62
    9
 10
709.97807017543369
 20
812.39332984310931
 11
818.35307017543357
 21
812.39332984310931
  0
LINE
  8
_0-e_極細4
  6
CONTINUOUS
 62
    9
 10
709.97807017543369
 20
814.89332984310931
 11
808.10307017543369
 21
814.89332984310931
  0
LINE
  8
_0-e_極細4
  6
CONTINUOUS
 62
    9
 10
709.97807017543369
 20
820.64332984310897
 11
808.10307017543369
 21
820.64332984310897
  0
LINE
  8
_0-e_極細4
  6
CONTINUOUS
 62
    9
 10
808.10307017543369
 20
820.64332984310897
 11
809.35307017543369
 21
821.89332984310897
  0
LINE
  8
_0-e_極細4
  6
CONTINUOUS
 62
    9
 10
809.35307017543369
 20
819.39332984310897
 11
808.10307017543369
 21
820.64332984310897
  0
LINE
  8
_0-e_極細4
  6
CONTINUOUS
 62
    9
 10
809.35307017543369
 20
813.64332984310931
 11
808.10307017543369
 21
814.89332984310931
  0
LINE
  8
_0-e_極細4
  6
CONTINUOUS
 62
    9
 10
808.10307017543369
 20
814.89332984310931
 11
809.35307017543369
 21
816.14332984310931
  0
LINE
  8
_0-e_極細4
  6
CONTINUOUS
 62
    9
 10
818.35307017543357
 20
819.39332984310897
 11
820.35307017543732
 21
823.14332984310897
  0
LINE
  8
_0-e_極細4
  6
CONTINUOUS
 62
    9
 10
809.35307017543369
 20
823.14332984310897
 11
809.35307017543369
 21
821.89332984310897
  0
LINE
  8
_0-e_極細4
  6
CONTINUOUS
 62
    9
 10
709.97807017543369
 20
823.14332984310897
 11
820.35307017543732
 21
823.14332984310897
  0
LINE
  8
_0-e_極細4
  6
CONTINUOUS
 62
    9
 10
710.47807017543551
 20
825.87805484310923
 11
819.47807017543369
 21
825.87805484310923
  0
LINE
  8
_0-e_極細4
  6
CONTINUOUS
 62
    9
 10
710.47807017543551
 20
828.37805484310923
 11
817.97807017543551
 21
828.37805484310923
  0
ARC
  8
_0-e_極細4
  6
CONTINUOUS
 62
    9
 10
824.85307017543551
 20
838.37805484310923
 40
1.25
 50
24.054548999950878
 51
89.999999999999915
  0
ARC
  8
_0-e_極細4
  6
CONTINUOUS
 62
    9
 10
825.60307017543369
 20
835.12805484310957
 40
0.4999999999999715
 50
269.99999999999977
 51
359.99999999999966
  0
ARC
  8
_0-e_極細4
  6
CONTINUOUS
 62
    9
 10
824.85307017543551
 20
838.37805484310923
 40
1.25
 50
0
 51
24.054548999950878
  0
LINE
  8
_0-e_極細4
  6
CONTINUOUS
 62
    9
 10
820.72807017543369
 20
827.12805484310923
 11
820.72807017543369
 21
834.62805484310923
  0
LINE
  8
_0-e_極細4
  6
CONTINUOUS
 62
    9
 10
820.72807017543369
 20
834.62805484310923
 11
825.60307017543369
 21
834.62805484310923
  0
LINE
  8
_0-e_極細4
  6
CONTINUOUS
 62
    9
 10
709.97807017543369
 20
839.62805484310923
 11
824.85307017543551
 21
839.62805484310923
  0
LINE
  8
_0-e_極細4
  6
CONTINUOUS
 62
    9
 10
826.10307017543551
 20
835.12805484310957
 11
826.10307017543551
 21
838.37805484310923
  0
LINE
  8
_0-e_極細4
  6
CONTINUOUS
 62
    9
 10
796.94385267543498
 20
792.87805484310923
 11
796.94385267543498
 21
797.12805484310923
  0
LINE
  8
_0-e_極細4
  6
CONTINUOUS
 62
    9
 10
784.44385267543498
 20
792.87805484310923
 11
784.44385267543498
 21
797.12805484310923
  0
LINE
  8
_0-e_極細4
  6
CONTINUOUS
 62
    9
 10
784.44385267543498
 20
792.87805484310923
 11
796.94385267543498
 21
792.87805484310923
  0
LINE
  8
_0-e_極細4
  6
CONTINUOUS
 62
    9
 10
817.47807017543369
 20
797.12805484310923
 11
831.22807017543369
 21
797.12805484310923
  0
LINE
  8
_0-e_極細4
  6
CONTINUOUS
 62
    9
 10
815.40261017543173
 20
792.12805484310923
 11
817.47807017543369
 21
792.12805484310923
  0
LINE
  8
_0-e_極細4
  6
CONTINUOUS
 62
    9
 10
817.47807017543369
 20
803.87805484310957
 11
820.72807017543369
 21
803.87805484310957
  0
LINE
  8
_0-e_極細4
  6
CONTINUOUS
 62
    9
 10
817.47807017543369
 20
802.12805484310923
 11
822.47807017543369
 21
802.12805484310923
  0
LINE
  8
_0-e_極細4
  6
CONTINUOUS
 62
    9
 10
817.47807017543369
 20
792.12805484310923
 11
817.47807017543369
 21
807.12805484310923
  0
LINE
  8
_0-e_極細4
  6
CONTINUOUS
 62
    9
 10
834.9255701754339
 20
800.82555484310944
 11
831.22807017543369
 21
797.12805484310923
  0
LINE
  8
_0-e_極細4
  6
CONTINUOUS
 62
    9
 10
822.47807017543369
 20
802.12805484310923
 11
822.47807017543369
 21
830.25305484310923
  0
ARC
  8
_0-e_極細4
  6
CONTINUOUS
 62
    9
 10
825.10307017543369
 20
830.25305484310923
 40
2.625000000000028
 50
89.999999999999915
 51
179.99999999999983
  0
LINE
  8
_0-e_極細4
  6
CONTINUOUS
 62
    9
 10
828.08113017543678
 20
832.87805484310923
 11
825.10307017543369
 21
832.87805484310923
  0
ARC
  8
_0-e_極細4
  6
CONTINUOUS
 62
    9
 10
828.08113017543678
 20
837.12805484310923
 40
4.2499999999999716
 50
269.99999999999977
 51
356.64911199999773
  0
ARC
  8
_0-e_極細4
  6
CONTINUOUS
 62
    9
 10
828.08113017543678
 20
837.12805484310923
 40
2.5
 50
269.99999999999977
 51
356.64911199999341
  0
ARC
  8
_0-e_極細4
  6
CONTINUOUS
 62
    9
 10
834.9255701754339
 20
836.50305484310923
 40
4.3749999999999991
 50
89.999999999999915
 51
175.84900999998879
  0
ARC
  8
_0-e_極細4
  6
CONTINUOUS
 62
    9
 10
825.10307017543369
 20
830.25305484310923
 40
4.3749999999999991
 50
89.999999999999915
 51
179.99999999999983
  0
LINE
  8
_0-e_極細4
  6
CONTINUOUS
 62
    9
 10
826.22807017543369
 20
834.62805484310923
 11
826.22807017543369
 21
840.87805484310923
  0
LINE
  8
_0-e_極細4
  6
CONTINUOUS
 62
    9
 10
820.72807017543369
 20
803.87805484310957
 11
820.72807017543369
 21
830.25305484310923
  0
LINE
  8
_0-e_極細4
  6
CONTINUOUS
 62
    9
 10
828.08113017543678
 20
834.62805484310923
 11
825.10307017543369
 21
834.62805484310923
  0
LINE
  8
_0-e_極細4
  6
CONTINUOUS
 62
    9
 10
810.60307017543369
 20
807.12805484310923
 11
820.72807017543369
 21
807.12805484310923
  0
LINE
  8
_0-e_極細4
  6
CONTINUOUS
 62
    9
 10
709.97807017543369
 20
840.87805484310923
 11
834.9255701754339
 21
840.87805484310923
  0
ARC
  8
_0-e_極細4
  6
CONTINUOUS
 62
    9
 10
805.60307017543369
 20
772.36039484310993
 40
2.5
 50
89.999999999999915
 51
179.99999999999983
  0
ARC
  8
_0-e_極細4
  6
CONTINUOUS
 62
    9
 10
805.60307017543369
 20
772.36039484310993
 40
2.5
 50
0
 51
89.999999999999915
  0
LINE
  8
_0-e_極細4
  6
CONTINUOUS
 62
    9
 10
852.22807017543732
 20
837.36039484310879
 11
834.9255701754339
 21
835.36039484310879
  0
LINE
  8
_0-e_極細4
  6
CONTINUOUS
 62
    9
 10
834.9255701754339
 20
787.86039484310879
 11
831.22807017543369
 21
789.86039484310879
  0
LINE
  8
_0-e_極細4
  6
CONTINUOUS
 62
    9
 10
831.22807017543369
 20
789.86039484310879
 11
831.22807017543369
 21
797.12805484310923
  0
LINE
  8
_0-e_極細4
  6
CONTINUOUS
 62
    9
 10
852.22807017543732
 20
803.7484973431101
 11
852.22807017543732
 21
843.30683984310963
  0
LINE
  8
_0-e_極細4
  6
CONTINUOUS
 62
    9
 10
842.47807017543369
 20
802.36039484310879
 11
852.22807017543732
 21
802.36039484310879
  0
LINE
  8
_0-e_極細4
  6
CONTINUOUS
 62
    9
 10
852.22807017543732
 20
802.36039484310879
 11
852.22807017543732
 21
803.7484973431101
  0
ARC
  8
_0-e_極細4
  6
CONTINUOUS
 62
    9
 10
848.72807017543369
 20
771.53507734310881
 40
12.5
 50
119.99999999999989
 51
179.99999999999983
  0
LINE
  8
_0-e_極細4
  6
CONTINUOUS
 62
    9
 10
842.47807017543369
 20
782.36039484310879
 11
842.47807017543369
 21
802.36039484310879
  0
LINE
  8
_0-e_極細4
  6
CONTINUOUS
 62
    9
 10
834.9255701754339
 20
839.11039347748283
 11
852.22807017543732
 21
841.57478734310973
  0
LINE
  8
_0-e_極細4
  6
CONTINUOUS
 62
    9
 10
834.9255701754339
 20
800.82555484310944
 11
834.9255701754339
 21
839.12805484310923
  0
ARC
  8
_0-e_極細4
  6
CONTINUOUS
 62
    9
 10
834.9255701754339
 20
836.50305484310923
 40
2.625000000000028
 50
89.999999999999915
 51
175.84900999999894
  0
LINE
  8
_0-e_極細4
  6
CONTINUOUS
 62
    9
 10
811.22807017543369
 20
789.88000234311005
 11
803.72807017543369
 21
789.88000234311005
  0
ARC
  8
_0-e_極細4
  6
CONTINUOUS
 62
    9
 10
811.22807017543369
 20
794.88000234310857
 40
5
 50
269.99999999999977
 51
359.99999999999966
  0
LINE
  8
_0-e_極細4
  6
CONTINUOUS
 62
    9
 10
816.22807017543369
 20
794.88000234310857
 11
816.22807017543369
 21
797.38000234310857
  0
LINE
  8
_0-e_極細4
  6
CONTINUOUS
 62
    9
 10
816.22807017543369
 20
797.38000234310857
 11
810.60307017543369
 21
797.38000234310857
  0
LINE
  8
_0-e_極細4
  6
CONTINUOUS
 62
    9
 10
818.72807017543369
 20
808.38000234310914
 11
810.60307017543369
 21
808.38000234310914
  0
LINE
  8
_0-e_極細4
  6
CONTINUOUS
 62
    9
 10
810.60307017543369
 20
797.38000234310857
 11
810.60307017543369
 21
808.38000234310914
  0
LINE
  8
_0-e_極細4
  6
CONTINUOUS
 62
    9
 10
810.60307017543369
 20
808.38000234310914
 11
709.97807017543369
 21
808.38000234310914
  0
ARC
  8
_0-e_極細4
  6
CONTINUOUS
 62
    9
 10
778.10307017543369
 20
627.86035304310053
 40
25
 50
269.99999999999977
 51
359.99999999999966
  0
LINE
  8
_0-e_極細4
  6
CONTINUOUS
 62
    9
 10
709.97807017543369
 20
602.86035304310053
 11
778.10307017543369
 21
602.86035304310053
  0
LINE
  8
_0-e_極細4
  6
CONTINUOUS
 62
    9
 10
803.10307017543369
 20
627.86035304310053
 11
803.10307017543369
 21
772.36039484310993
  0
LINE
  8
_0-e_極細4
  6
CONTINUOUS
 62
    9
 10
808.10307017543369
 20
627.86035304310053
 11
808.10307017543369
 21
772.36039484310993
  0
LINE
  8
_0-e_極細4
  6
CONTINUOUS
 62
    9
 10
712.30565517543641
 20
597.86035304310053
 11
778.10307017543369
 21
597.86035304310053
  0
LINE
  8
_0-e_極細4
  6
CONTINUOUS
 62
    9
 10
709.97807017543369
 20
597.86035304310053
 11
712.30565517543641
 21
597.86035304310053
  0
LINE
  8
_0-e_極細4
  6
CONTINUOUS
 62
    9
 10
805.60307017543369
 20
504.11035304310053
 11
804.97807017543369
 21
566.61035304310053
  0
LINE
  8
_0-e_極細4
  6
CONTINUOUS
 62
    9
 10
829.97807017543369
 20
720.16427054309918
 11
829.97807017543369
 21
787.86039484310879
  0
ARC
  8
_0-e_極細4
  6
CONTINUOUS
 62
    9
 10
827.47807017543369
 20
720.16427054309918
 40
2.5
 50
277.18075599999378
 51
359.99999999999966
  0
ARC
  8
_0-e_極細4
  6
CONTINUOUS
 62
    9
 10
778.10307017543369
 20
627.86035304310053
 40
30
 50
269.99999999999977
 51
359.99999999999966
  0
LINE
  8
_0-e_極細4
  6
CONTINUOUS
 62
    9
 10
772.47807017543369
 20
572.86035304309905
 11
772.47807017543369
 21
597.86035304310053
  0
LINE
  8
_0-e_極細4
  6
CONTINUOUS
 62
    9
 10
778.10307017543369
 20
597.86035304310053
 11
772.47807017543369
 21
597.86035304310053
  0
LINE
  8
_0-e_極細4
  6
CONTINUOUS
 62
    9
 10
808.10307017543369
 20
627.86035304310053
 11
808.10307017543369
 21
695.36035304309894
  0
LINE
  8
_0-e_極細4
  6
CONTINUOUS
 62
    9
 10
772.48201767543492
 20
572.60367054309904
 11
772.47807017543369
 21
572.86035304309905
  0
LINE
  8
_0-e_極細4
  6
CONTINUOUS
 62
    9
 10
772.47807017543369
 20
572.86035304309905
 11
709.97807017543369
 21
572.86035304310053
  0
ARC
  8
_0-e_極細4
  6
CONTINUOUS
 62
    9
 10
809.97807017543369
 20
592.86035304310053
 40
20
 50
269.99999999999977
 51
359.99999999999966
  0
LINE
  8
_0-e_極細4
  6
CONTINUOUS
 62
    9
 10
779.97807017543369
 20
566.61035304310053
 11
804.97807017543369
 21
566.61035304310053
  0
LINE
  8
_0-e_極細4
  6
CONTINUOUS
 62
    9
 10
773.72807017543369
 20
491.61035304309905
 11
772.47807017543369
 21
572.86035304309905
  0
LINE
  8
_0-e_極細4
  6
CONTINUOUS
 62
    9
 10
829.97807017543369
 20
592.86035304310053
 11
829.97807017543369
 21
720.16427054309918
  0
LINE
  8
_0-e_極細4
  6
CONTINUOUS
 62
    9
 10
809.97807017543369
 20
572.86035304309905
 11
772.47807017543369
 21
572.86035304309905
  0
LINE
  8
_0-e_極細4
  6
CONTINUOUS
 62
    9
 10
778.93640350876581
 20
504.11035304310053
 11
779.97807017543369
 21
566.61035304310053
  0
ARC
  8
_0-e_極細4
  6
CONTINUOUS
 62
    9
 10
816.22807017543369
 20
586.61035304309905
 40
20
 50
269.99999999999977
 51
359.99999999999966
  0
LINE
  8
_0-e_極細4
  6
CONTINUOUS
 62
    9
 10
836.22807017543369
 20
586.61035304309905
 11
836.22807017543369
 21
771.53507734310881
  0
LINE
  8
_0-e_極細4
  6
CONTINUOUS
 62
    9
 10
812.72807017543187
 20
504.11035304310053
 11
813.72807017543369
 21
566.61035304310053
  0
LINE
  8
_0-e_極細4
  6
CONTINUOUS
 62
    9
 10
778.93640267543219
 20
504.11035304310053
 11
812.72807017543187
 21
504.11035304310053
  0
LINE
  8
_0-e_極細4
  6
CONTINUOUS
 62
    9
 10
774.97807017543369
 20
640.87996054309929
 11
709.97807017543369
 21
640.87996054309929
  0
ARC
  8
_0-e_極細4
  6
CONTINUOUS
 62
    9
 10
774.97807017543369
 20
643.37996054309929
 40
2.5
 50
269.99954163381682
 51
359.99999999999966
  0
LINE
  8
_0-e_極細4
  6
CONTINUOUS
 62
    9
 10
777.47807017543369
 20
643.37996054309929
 11
777.47807017543369
 21
790.81561734310856
  0
LINE
  8
_0-e_極細4
  6
CONTINUOUS
 62
    9
 10
827.79057018489425
 20
717.68387869016851
 11
808.10307017543369
 21
717.68387869016851
  0
LINE
  8
_0-e_極細4
  6
CONTINUOUS
 62
    9
 10
813.72807017543369
 20
566.61035304310053
 11
816.22807017543369
 21
566.61035304310053
  0
LINE
  8
_0-e_極細4
  6
CONTINUOUS
 62
    9
 10
709.97807017543369
 20
491.61035304309905
 11
778.72807017543369
 21
491.61035304309905
  0
LINE
  8
_0-e_極細4
  6
CONTINUOUS
 62
    9
 10
778.72807017543369
 20
491.61035304309905
 11
778.93640350876581
 21
504.11035304310053
  0
LINE
  8
_0-e_極細4
  6
CONTINUOUS
 62
    9
 10
567.72807017543357
 20
841.61039484310879
 11
567.72807017543357
 21
843.34244737978554
  0
LINE
  8
_0-e_極細4
  6
CONTINUOUS
 62
    9
 10
642.47807017543539
 20
787.86039484310879
 11
585.03057017543347
 21
787.86039484310879
  0
LINE
  8
_0-e_極細4
  6
CONTINUOUS
 62
    9
 10
614.35307017543551
 20
774.86039484310879
 11
642.47807017543539
 21
774.86039484310879
  0
LINE
  8
_0-e_極細4
  6
CONTINUOUS
 62
    9
 10
585.03057017543347
 20
840.87805484310923
 11
567.72807017543357
 21
843.34244737978554
  0
LINE
  8
_0-e_極細4
  6
CONTINUOUS
 62
    9
 10
642.47807017543539
 20
787.12123484310905
 11
642.47807017543539
 21
790.81561734310856
  0
LINE
  8
_0-e_極細4
  6
CONTINUOUS
 62
    9
 10
642.47807017543539
 20
789.86039484310879
 11
588.72807017543346
 21
789.86039484310879
  0
LINE
  8
_0-e_極細4
  6
CONTINUOUS
 62
    9
 10
601.22807017543346
 20
823.63000234310857
 11
601.22807017543346
 21
825.87805484310923
  0
LINE
  8
_0-e_極細4
  6
CONTINUOUS
 62
    9
 10
601.22807017543346
 20
823.63000234310857
 11
709.97807017543539
 21
823.63000234310857
  0
LINE
  8
_0-e_極細4
  6
CONTINUOUS
 62
    9
 10
601.22807017543346
 20
812.13000234310914
 11
709.97807017543539
 21
812.13000234310914
  0
LINE
  8
_0-e_極細4
  6
CONTINUOUS
 62
    9
 10
601.22807017543346
 20
808.38000234310914
 11
601.22807017543346
 21
812.13000234310914
  0
LINE
  8
_0-e_極細4
  6
CONTINUOUS
 62
    9
 10
610.60307017543346
 20
819.39332984310897
 11
610.60307017543346
 21
816.14332984310931
  0
LINE
  8
_0-e_極細4
  6
CONTINUOUS
 62
    9
 10
610.60307017543346
 20
813.64332984310931
 11
610.60307017543346
 21
812.39332984310931
  0
LINE
  8
_0-e_極細4
  6
CONTINUOUS
 62
    9
 10
601.60307017543175
 20
819.39332984310897
 11
601.60307017543175
 21
812.39332984310931
  0
LINE
  8
_0-e_極細4
  6
CONTINUOUS
 62
    9
 10
709.97807017543539
 20
812.39332984310931
 11
601.60307017543175
 21
812.39332984310931
  0
LINE
  8
_0-e_極細4
  6
CONTINUOUS
 62
    9
 10
709.97807017543539
 20
814.89332984310931
 11
611.85307017543346
 21
814.89332984310931
  0
LINE
  8
_0-e_極細4
  6
CONTINUOUS
 62
    9
 10
709.97807017543539
 20
820.64332984310897
 11
611.85307017543346
 21
820.64332984310897
  0
LINE
  8
_0-e_極細4
  6
CONTINUOUS
 62
    9
 10
611.85307017543346
 20
820.64332984310897
 11
610.60307017543346
 21
821.89332984310897
  0
LINE
  8
_0-e_極細4
  6
CONTINUOUS
 62
    9
 10
610.60307017543346
 20
819.39332984310897
 11
611.85307017543346
 21
820.64332984310897
  0
LINE
  8
_0-e_極細4
  6
CONTINUOUS
 62
    9
 10
610.60307017543346
 20
813.64332984310931
 11
611.85307017543346
 21
814.89332984310931
  0
LINE
  8
_0-e_極細4
  6
CONTINUOUS
 62
    9
 10
611.85307017543346
 20
814.89332984310931
 11
610.60307017543346
 21
816.14332984310931
  0
LINE
  8
_0-e_極細4
  6
CONTINUOUS
 62
    9
 10
601.60307017543175
 20
819.39332984310897
 11
599.60307017543357
 21
823.14332984310897
  0
LINE
  8
_0-e_極細4
  6
CONTINUOUS
 62
    9
 10
610.60307017543346
 20
823.14332984310897
 11
610.60307017543346
 21
821.89332984310897
  0
LINE
  8
_0-e_極細4
  6
CONTINUOUS
 62
    9
 10
709.97807017543539
 20
823.14332984310897
 11
599.60307017543357
 21
823.14332984310897
  0
LINE
  8
_0-e_極細4
  6
CONTINUOUS
 62
    9
 10
709.47807017543357
 20
825.87805484310923
 11
600.47807017543369
 21
825.87805484310923
  0
LINE
  8
_0-e_極細4
  6
CONTINUOUS
 62
    9
 10
709.47807017543357
 20
828.37805484310923
 11
601.97807017543164
 21
828.37805484310923
  0
ARC
  8
_0-e_極細4
  6
CONTINUOUS
 62
    9
 10
595.10307017543164
 20
838.37805484310923
 40
1.25
 50
89.999999999999915
 51
155.94545100001514
  0
ARC
  8
_0-e_極細4
  6
CONTINUOUS
 62
    9
 10
594.35307017543346
 20
835.12805484310957
 40
0.4999999999999715
 50
179.99999999999983
 51
269.99999999999977
  0
ARC
  8
_0-e_極細4
  6
CONTINUOUS
 62
    9
 10
595.10307017543164
 20
838.37805484310923
 40
1.25
 50
155.94545100001514
 51
179.99999999999983
  0
LINE
  8
_0-e_極細4
  6
CONTINUOUS
 62
    9
 10
599.22807017543369
 20
827.12805484310923
 11
599.22807017543369
 21
834.62805484310923
  0
LINE
  8
_0-e_極細4
  6
CONTINUOUS
 62
    9
 10
599.22807017543369
 20
834.62805484310923
 11
594.35307017543346
 21
834.62805484310923
  0
LINE
  8
_0-e_極細4
  6
CONTINUOUS
 62
    9
 10
709.97807017543369
 20
839.62805484310923
 11
595.10307017543164
 21
839.62805484310923
  0
LINE
  8
_0-e_極細4
  6
CONTINUOUS
 62
    9
 10
593.85307017543369
 20
835.12805484310957
 11
593.85307017543369
 21
838.37805484310923
  0
LINE
  8
_0-e_極細4
  6
CONTINUOUS
 62
    9
 10
623.01228767543421
 20
792.87805484310923
 11
623.01228767543421
 21
797.12805484310923
  0
LINE
  8
_0-e_極細4
  6
CONTINUOUS
 62
    9
 10
635.51228767543421
 20
792.87805484310923
 11
635.51228767543421
 21
797.12805484310923
  0
LINE
  8
_0-e_極細4
  6
CONTINUOUS
 62
    9
 10
635.51228767543421
 20
792.87805484310923
 11
623.01228767543421
 21
792.87805484310923
  0
LINE
  8
_0-e_極細4
  6
CONTINUOUS
 62
    9
 10
602.47807017543346
 20
797.12805484310923
 11
588.72807017543346
 21
797.12805484310923
  0
LINE
  8
_0-e_極細4
  6
CONTINUOUS
 62
    9
 10
604.55353017543359
 20
792.12805484310923
 11
602.47807017543346
 21
792.12805484310923
  0
LINE
  8
_0-e_極細4
  6
CONTINUOUS
 62
    9
 10
602.47807017543346
 20
803.87805484310957
 11
599.22807017543369
 21
803.87805484310957
  0
LINE
  8
_0-e_極細4
  6
CONTINUOUS
 62
    9
 10
602.47807017543346
 20
802.12805484310923
 11
597.47807017543346
 21
802.12805484310923
  0
LINE
  8
_0-e_極細4
  6
CONTINUOUS
 62
    9
 10
602.47807017543346
 20
792.12805484310923
 11
602.47807017543346
 21
807.12805484310923
  0
LINE
  8
_0-e_極細4
  6
CONTINUOUS
 62
    9
 10
585.03057017543347
 20
800.82555484310944
 11
588.72807017543346
 21
797.12805484310923
  0
LINE
  8
_0-e_極細4
  6
CONTINUOUS
 62
    9
 10
597.47807017543346
 20
802.12805484310923
 11
597.47807017543346
 21
830.25305484310923
  0
ARC
  8
_0-e_極細4
  6
CONTINUOUS
 62
    9
 10
594.85307017543369
 20
830.25305484310923
 40
2.625000000000028
 50
0
 51
89.999999999999915
  0
LINE
  8
_0-e_極細4
  6
CONTINUOUS
 62
    9
 10
591.87501017543241
 20
832.87805484310923
 11
594.85307017543369
 21
832.87805484310923
  0
ARC
  8
_0-e_極細4
  6
CONTINUOUS
 62
    9
 10
591.87501017543241
 20
837.12805484310923
 40
4.2499999999999716
 50
183.35088800000156
 51
269.99999999999977
  0
ARC
  8
_0-e_極細4
  6
CONTINUOUS
 62
    9
 10
591.87501017543241
 20
837.12805484310923
 40
2.5
 50
183.35088800000102
 51
269.99999999999977
  0
ARC
  8
_0-e_極細4
  6
CONTINUOUS
 62
    9
 10
585.03057017543347
 20
836.50305484310923
 40
4.3749999999999991
 50
4.1509900000094895
 51
89.999999999999901
  0
ARC
  8
_0-e_極細4
  6
CONTINUOUS
 62
    9
 10
594.85307017543369
 20
830.25305484310923
 40
4.3749999999999991
 50
0
 51
89.999999999999915
  0
LINE
  8
_0-e_極細4
  6
CONTINUOUS
 62
    9
 10
593.72807017543346
 20
834.62805484310923
 11
593.72807017543346
 21
840.87805484310923
  0
LINE
  8
_0-e_極細4
  6
CONTINUOUS
 62
    9
 10
599.22807017543369
 20
803.87805484310957
 11
599.22807017543369
 21
830.25305484310923
  0
LINE
  8
_0-e_極細4
  6
CONTINUOUS
 62
    9
 10
591.87501017543241
 20
834.62805484310923
 11
594.85307017543369
 21
834.62805484310923
  0
LINE
  8
_0-e_極細4
  6
CONTINUOUS
 62
    9
 10
609.35307017543346
 20
807.12805484310923
 11
599.22807017543369
 21
807.12805484310923
  0
LINE
  8
_0-e_極細4
  6
CONTINUOUS
 62
    9
 10
709.97807017543369
 20
840.87805484310923
 11
585.03057017543347
 21
840.87805484310923
  0
ARC
  8
_0-e_極細4
  6
CONTINUOUS
 62
    9
 10
614.35307017543551
 20
772.36039484310993
 40
2.5
 50
0
 51
89.999999999999915
  0
ARC
  8
_0-e_極細4
  6
CONTINUOUS
 62
    9
 10
614.35307017543551
 20
772.36039484310993
 40
2.5
 50
89.999999999999915
 51
179.99999999999983
  0
LINE
  8
_0-e_極細4
  6
CONTINUOUS
 62
    9
 10
567.72807017543357
 20
837.36039484310879
 11
585.03057017543347
 21
835.36039484310879
  0
LINE
  8
_0-e_極細4
  6
CONTINUOUS
 62
    9
 10
585.03057017543347
 20
787.86039484310879
 11
588.72807017543346
 21
789.86039484310879
  0
LINE
  8
_0-e_極細4
  6
CONTINUOUS
 62
    9
 10
588.72807017543346
 20
789.86039484310879
 11
588.72807017543346
 21
797.12805484310923
  0
LINE
  8
_0-e_極細4
  6
CONTINUOUS
 62
    9
 10
567.72807017543357
 20
803.7484973431101
 11
567.72807017543357
 21
843.30683984310963
  0
LINE
  8
_0-e_極細4
  6
CONTINUOUS
 62
    9
 10
577.47807017543346
 20
802.36039484310879
 11
567.72807017543357
 21
802.36039484310879
  0
LINE
  8
_0-e_極細4
  6
CONTINUOUS
 62
    9
 10
567.72807017543357
 20
802.36039484310879
 11
567.72807017543357
 21
803.7484973431101
  0
ARC
  8
_0-e_極細4
  6
CONTINUOUS
 62
    9
 10
571.22807017543346
 20
771.53507734310881
 40
12.5
 50
0
 51
60.000000000000107
  0
LINE
  8
_0-e_極細4
  6
CONTINUOUS
 62
    9
 10
577.47807017543346
 20
782.36039484310879
 11
577.47807017543346
 21
802.36039484310879
  0
LINE
  8
_0-e_極細4
  6
CONTINUOUS
 62
    9
 10
585.03057017543347
 20
839.11039347748283
 11
567.72807017543357
 21
841.57478734310973
  0
LINE
  8
_0-e_極細4
  6
CONTINUOUS
 62
    9
 10
585.03057017543347
 20
800.82555484310944
 11
585.03057017543347
 21
839.12805484310923
  0
ARC
  8
_0-e_極細4
  6
CONTINUOUS
 62
    9
 10
585.03057017543347
 20
836.50305484310923
 40
2.625000000000028
 50
4.1509899999981839
 51
89.999999999999915
  0
LINE
  8
_0-e_極細4
  6
CONTINUOUS
 62
    9
 10
608.72807017543346
 20
789.88000234311005
 11
616.22807017543551
 21
789.88000234311005
  0
ARC
  8
_0-e_極細4
  6
CONTINUOUS
 62
    9
 10
608.72807017543346
 20
794.88000234310857
 40
5
 50
179.99999999999983
 51
269.99999999999977
  0
LINE
  8
_0-e_極細4
  6
CONTINUOUS
 62
    9
 10
603.72807017543346
 20
794.88000234310857
 11
603.72807017543346
 21
797.38000234310857
  0
LINE
  8
_0-e_極細4
  6
CONTINUOUS
 62
    9
 10
603.72807017543346
 20
797.38000234310857
 11
609.35307017543346
 21
797.38000234310857
  0
LINE
  8
_0-e_極細4
  6
CONTINUOUS
 62
    9
 10
601.22807017543346
 20
808.38000234310914
 11
609.35307017543346
 21
808.38000234310914
  0
LINE
  8
_0-e_極細4
  6
CONTINUOUS
 62
    9
 10
609.35307017543346
 20
797.38000234310857
 11
609.35307017543346
 21
808.38000234310914
  0
LINE
  8
_0-e_極細4
  6
CONTINUOUS
 62
    9
 10
609.35307017543346
 20
808.38000234310914
 11
709.97807017543539
 21
808.38000234310914
  0
ARC
  8
_0-e_極細4
  6
CONTINUOUS
 62
    9
 10
641.85307017543539
 20
627.86035304310053
 40
25
 50
179.99999999999983
 51
269.99999999999977
  0
LINE
  8
_0-e_極細4
  6
CONTINUOUS
 62
    9
 10
709.97807017543539
 20
602.86035304310053
 11
641.85307017543539
 21
602.86035304310053
  0
LINE
  8
_0-e_極細4
  6
CONTINUOUS
 62
    9
 10
616.85307017543551
 20
627.86035304310053
 11
616.85307017543551
 21
772.36039484310993
  0
LINE
  8
_0-e_極細4
  6
CONTINUOUS
 62
    9
 10
611.85307017543346
 20
627.86035304310053
 11
611.85307017543346
 21
772.36039484310993
  0
LINE
  8
_0-e_極細4
  6
CONTINUOUS
 62
    9
 10
707.65048517543266
 20
597.86035304310053
 11
641.85307017543539
 21
597.86035304310053
  0
LINE
  8
_0-e_極細4
  6
CONTINUOUS
 62
    9
 10
709.97807017543539
 20
597.86035304310053
 11
707.65048517543266
 21
597.86035304310053
  0
LINE
  8
_0-e_極細4
  6
CONTINUOUS
 62
    9
 10
614.35307017543551
 20
504.11035304310053
 11
614.97807017543551
 21
566.61035304310053
  0
LINE
  8
_0-e_極細4
  6
CONTINUOUS
 62
    9
 10
589.97807017543346
 20
720.16427054309918
 11
589.97807017543346
 21
787.86039484310879
  0
ARC
  8
_0-e_極細4
  6
CONTINUOUS
 62
    9
 10
592.47807017543346
 20
720.16427054309918
 40
2.5
 50
179.99999999999983
 51
262.81924400000548
  0
ARC
  8
_0-e_極細4
  6
CONTINUOUS
 62
    9
 10
641.85307017543539
 20
627.86035304310053
 40
30
 50
179.99999999999983
 51
269.99999999999977
  0
LINE
  8
_0-e_極細4
  6
CONTINUOUS
 62
    9
 10
647.47807017543539
 20
572.86035304309905
 11
647.47807017543539
 21
597.86035304310053
  0
LINE
  8
_0-e_極細4
  6
CONTINUOUS
 62
    9
 10
641.85307017543539
 20
597.86035304310053
 11
647.47807017543539
 21
597.86035304310053
  0
LINE
  8
_0-e_極細4
  6
CONTINUOUS
 62
    9
 10
611.85307017543346
 20
627.86035304310053
 11
611.85307017543346
 21
695.36035304309894
  0
LINE
  8
_0-e_極細4
  6
CONTINUOUS
 62
    9
 10
647.47412267543427
 20
572.60367054309904
 11
647.47807017543539
 21
572.86035304309905
  0
LINE
  8
_0-e_極細4
  6
CONTINUOUS
 62
    9
 10
647.47807017543539
 20
572.86035304309905
 11
709.97807017543539
 21
572.86035304310053
  0
ARC
  8
_0-e_極細4
  6
CONTINUOUS
 62
    9
 10
609.97807017543346
 20
592.86035304310053
 40
20
 50
179.99999999999983
 51
269.99999999999977
  0
LINE
  8
_0-e_極細4
  6
CONTINUOUS
 62
    9
 10
639.97807017543551
 20
566.61035304310053
 11
614.97807017543551
 21
566.61035304310053
  0
LINE
  8
_0-e_極細4
  6
CONTINUOUS
 62
    9
 10
646.22807017543539
 20
491.61035304309905
 11
647.47807017543539
 21
572.86035304309905
  0
LINE
  8
_0-e_極細4
  6
CONTINUOUS
 62
    9
 10
589.97807017543346
 20
592.86035304310053
 11
589.97807017543346
 21
720.16427054309918
  0
LINE
  8
_0-e_極細4
  6
CONTINUOUS
 62
    9
 10
609.97807017543346
 20
572.86035304309905
 11
647.47807017543539
 21
572.86035304309905
  0
LINE
  8
_0-e_極細4
  6
CONTINUOUS
 62
    9
 10
641.01973684210338
 20
504.11035304310053
 11
639.97807017543551
 21
566.61035304310053
  0
ARC
  8
_0-e_極細4
  6
CONTINUOUS
 62
    9
 10
603.72807017543346
 20
586.61035304309905
 40
20
 50
179.99999999999983
 51
269.99999999999977
  0
LINE
  8
_0-e_極細4
  6
CONTINUOUS
 62
    9
 10
583.72807017543346
 20
586.61035304309905
 11
583.72807017543346
 21
771.53507734310881
  0
LINE
  8
_0-e_極細4
  6
CONTINUOUS
 62
    9
 10
607.22807017543551
 20
504.11035304310053
 11
606.22807017543346
 21
566.61035304310053
  0
LINE
  8
_0-e_極細4
  6
CONTINUOUS
 62
    9
 10
641.019737675437
 20
504.11035304310053
 11
607.22807017543551
 21
504.11035304310053
  0
LINE
  8
_0-e_極細4
  6
CONTINUOUS
 62
    9
 10
644.97807017543539
 20
640.87996054309929
 11
709.97807017543539
 21
640.87996054309929
  0
ARC
  8
_0-e_極細4
  6
CONTINUOUS
 62
    9
 10
644.97807017543539
 20
643.37996054309929
 40
2.5
 50
179.99999999999983
 51
270.0004583661825
  0
LINE
  8
_0-e_極細4
  6
CONTINUOUS
 62
    9
 10
642.47807017543539
 20
643.37996054309929
 11
642.47807017543539
 21
790.81561734310856
  0
LINE
  8
_0-e_極細4
  6
CONTINUOUS
 62
    9
 10
592.16557016597312
 20
717.68387869016851
 11
611.85307017543346
 21
717.68387869016851
  0
LINE
  8
_0-e_極細4
  6
CONTINUOUS
 62
    9
 10
606.22807017543346
 20
566.61035304310053
 11
603.72807017543346
 21
566.61035304310053
  0
LINE
  8
_0-e_極細4
  6
CONTINUOUS
 62
    9
 10
709.97807017543539
 20
491.61035304309905
 11
641.22807017543539
 21
491.61035304309905
  0
LINE
  8
_0-e_極細4
  6
CONTINUOUS
 62
    9
 10
641.22807017543539
 20
491.61035304309905
 11
641.01973684210338
 21
504.11035304310053
  0
LINE
  8
_0-e_極細4
  6
CONTINUOUS
 62
    9
 10
817.97807017543551
 20
825.87805484310923
 11
817.97807017543551
 21
828.37805484310923
  0
ARC
  8
_0-e_極細4
  6
CONTINUOUS
 62
    9
 10
819.47807017543369
 20
827.12805484310923
 40
1.25
 50
269.99999999999977
 51
359.99999999999966
  0
LINE
  8
_0-e_極細4
  6
CONTINUOUS
 62
    9
 10
601.97807017543164
 20
825.87805484310923
 11
601.97807017543164
 21
828.37805484310923
  0
ARC
  8
_0-e_極細4
  6
CONTINUOUS
 62
    9
 10
600.47807017543369
 20
827.12805484310923
 40
1.25
 50
179.99999999999983
 51
269.99999999999977
  0
CIRCLE
  8
_1-1_寸法4
  6
CONTINUOUS
 62
    7
 10
820.72807017543369
 20
817.98219555991966
 40
45.147944228592245
  0
LINE
  8
_1-1_寸法4
  6
CONTINUOUS
 62
    7
 10
652.46267371475756
 20
832.95898697274299
 11
637.39136204040801
 21
846.106441647113
  0
LINE
  8
_1-1_寸法4
  6
CONTINUOUS
 62
    7
 10
652.46267371475756
 20
832.95898697274299
 11
645.98426227360289
 21
851.88067255302667
  0
LINE
  8
_1-1_寸法4
  6
CONTINUOUS
 62
    7
 10
652.46267371475756
 20
832.95898697274299
 11
619.79554725290029
 21
881.57244964262259
  0
LINE
  8
_1-1_寸法4
  6
CONTINUOUS
 62
    7
 10
619.79554725290029
 20
881.57244964262259
 11
475.79554725290052
 21
881.57244964262259
  0
TEXT
  8
_1-1_寸法4
 62
    7
 10
475.79554725290023
 20
881.57244964262304
 40
30
 41
0.8000000000000001
 50
-0.0000000000001696
  1
ストレーナー
  0
TEXT
  8
_1-1_寸法4
 62
    7
 10
843.93925575138041
 20
856.70657718476889
 40
30
 41
0.8000000000000001
 50
0
  1
Ｃ部
  0
TEXT
  8
_0-7_枠細線
 62
    1
 10
590.3799452132389
 20
171.9072659057916
 40
50
 41
0.8
 50
0
  1
排水部詳細図
  0
LINE
  8
_1-1_寸法4
  6
CONTINUOUS
 62
    7
 10
641.22807017543539
 20
391.61035304309905
 11
778.72807017543369
 21
391.61035304309905
  0
TEXT
  8
_1-1_寸法4
 62
    7
 10
649.97807017543369
 20
391.61035304309905
 40
30
 41
1
 50
0
  1
VU50外接
  0
LINE
  8
_1-1_寸法4
  6
CONTINUOUS
 62
    7
 10
641.22807017543539
 20
471.61035304309905
 11
641.22807017543539
 21
381.61035304309905
  0
LINE
  8
_1-1_寸法4
  6
CONTINUOUS
 62
    7
 10
778.72807017543369
 20
471.61035304309905
 11
778.72807017543369
 21
381.61035304309905
  0
POINT
  8
_1-1_寸法4
 62
    7
 10
641.22807017543539
 20
391.61035304309905
  0
POINT
  8
_1-1_寸法4
 62
    7
 10
778.72807017543369
 20
391.61035304309905
  0
LINE
  8
_1-1_寸法4
  6
CONTINUOUS
 62
    7
 10
607.22807017543096
 20
251.61035304309905
 11
812.72807017543187
 21
251.61035304309905
  0
TEXT
  8
_1-1_寸法4
 62
    7
 10
649.97807017543266
 20
251.61035304309905
 40
30
 41
1
 50
0
  1
VU75外接
  0
LINE
  8
_1-1_寸法4
  6
CONTINUOUS
 62
    7
 10
607.22807017543516
 20
484.11035304310053
 11
607.22807017543062
 21
241.61035304309905
  0
LINE
  8
_1-1_寸法4
  6
CONTINUOUS
 62
    7
 10
812.72807017543187
 20
484.11035304310053
 11
812.72807017543187
 21
241.61035304309905
  0
POINT
  8
_1-1_寸法4
 62
    7
 10
607.22807017543096
 20
251.61035304309905
  0
POINT
  8
_1-1_寸法4
 62
    7
 10
812.72807017543187
 20
251.61035304309905
  0
LINE
  8
_1-1_寸法4
  6
CONTINUOUS
 62
    7
 10
614.35307017543266
 20
321.61035304309905
 11
805.60307017543096
 21
321.61035304309905
  0
TEXT
  8
_1-1_寸法4
 62
    7
 10
649.97807017543187
 20
321.61035304309905
 40
30
 41
1
 50
0
  1
VU65内接
  0
LINE
  8
_1-1_寸法4
  6
CONTINUOUS
 62
    7
 10
614.35307017543505
 20
484.11035304310053
 11
614.35307017543266
 21
311.61035304309905
  0
LINE
  8
_1-1_寸法4
  6
CONTINUOUS
 62
    7
 10
805.60307017543323
 20
484.11035304310053
 11
805.60307017543084
 21
311.61035304309905
  0
POINT
  8
_1-1_寸法4
 62
    7
 10
614.35307017543266
 20
321.61035304309905
  0
POINT
  8
_1-1_寸法4
 62
    7
 10
805.60307017543096
 20
321.61035304309905
  0
LINE
  8
_1-1_寸法4
  6
CONTINUOUS
 62
    7
 10
671.63694265469178
 20
702.50020111484491
 11
660.89400927050053
 21
685.63042392891793
  0
LINE
  8
_1-1_寸法4
  6
CONTINUOUS
 62
    7
 10
671.63694265469178
 20
702.50020111484491
 11
653.89840083985462
 21
693.26201220774453
  0
LINE
  8
_1-1_寸法4
  6
CONTINUOUS
 62
    7
 10
671.63694265469178
 20
702.50020111484491
 11
558.66860505700424
 21
598.94610123146867
  0
LINE
  8
_1-1_寸法4
  6
CONTINUOUS
 62
    7
 10
558.66860505700424
 20
598.94610123146867
 11
366.66860505700441
 21
598.94610123146867
  0
TEXT
  8
_1-1_寸法4
 62
    7
 10
366.66860505700441
 20
598.94610123146913
 40
30
 41
0.8000000000000001
 50
-0.0000000000001696
  1
防臭インナー１号
  0
LINE
  8
_1-1_寸法4
  6
CONTINUOUS
 62
    7
 10
597.15913586617171
 20
592.17392427729783
 11
588.51711636807727
 21
574.1374196548785
  0
LINE
  8
_1-1_寸法4
  6
CONTINUOUS
 62
    7
 10
597.15913586617171
 20
592.17392427729783
 11
580.65667512961181
 21
580.87486282785449
  0
LINE
  8
_1-1_寸法4
  6
CONTINUOUS
 62
    7
 10
597.15913586617171
 20
592.17392427729783
 11
558.66860505700424
 21
547.2677858661649
  0
LINE
  8
_1-1_寸法4
  6
CONTINUOUS
 62
    7
 10
558.66860505700424
 20
547.2677858661649
 11
414.66860505700436
 21
547.2677858661649
  0
TEXT
  8
_1-1_寸法4
 62
    7
 10
414.66860505700436
 20
547.26778586616535
 40
30
 41
0.8000000000000001
 50
-0.0000000000001979
  1
トラップ本体
  0
LINE
  8
_1-1_寸法4
  6
CONTINUOUS
 62
    7
 10
625.94503664946751
 20
742.19721634861673
 11
616.02248369404015
 21
724.83222447281275
  0
LINE
  8
_1-1_寸法4
  6
CONTINUOUS
 62
    7
 10
625.94503664946751
 20
742.19721634861673
 11
608.66935778176889
 21
732.11996872537384
  0
LINE
  8
_1-1_寸法4
  6
CONTINUOUS
 62
    7
 10
625.94503664946751
 20
742.19721634861673
 11
558.66860505700424
 21
674.31721736898407
  0
LINE
  8
_1-1_寸法4
  6
CONTINUOUS
 62
    7
 10
558.66860505700424
 20
674.31721736898407
 11
366.66860505700424
 21
674.31721736898407
  0
TEXT
  8
_1-1_寸法4
 62
    7
 10
366.66860505700441
 20
674.31721736898464
 40
30
 41
0.8000000000000001
 50
-0.0000000000001696
  1
防臭インナー２号
  0
TEXT
  8
_0-7_枠細線
 62
    1
 10
871.47932756144996
 20
179.05562202940672
 40
40
 41
0.5999999999999998
 50
0
  1
Ｓ＝１：４
  0
LINE
  8
_0-5_寸法線
  6
CONTINUOUS
 62
    7
 10
391.5964912280711
 20
1280.2107285393038
 11
426.59649122807082
 21
1280.2107285393038
  0
TEXT
  8
_0-5_寸法線
 62
    7
 10
394.09649122807082
 20
1280.2107285393038
 40
30
 41
1
 50
0
  1
Ｄ
  0
LINE
  8
_0-5_寸法線
  6
CONTINUOUS
 62
    7
 10
391.59649122807082
 20
1200.2107285393038
 11
391.5964912280711
 21
1290.2107285393038
  0
LINE
  8
_0-5_寸法線
  6
CONTINUOUS
 62
    7
 10
426.5964912280707
 20
1200.2107285393038
 11
426.59649122807082
 21
1290.2107285393038
  0
POINT
  8
_0-5_寸法線
 62
    7
 10
391.5964912280711
 20
1280.2107285393038
  0
POINT
  8
_0-5_寸法線
 62
    7
 10
426.59649122807082
 20
1280.2107285393038
  0
LINE
  8
_0-5_寸法線
  6
CONTINUOUS
 62
    7
 10
426.59649122807082
 20
1280.2107285393038
 11
1350.5964912280708
 21
1280.2107285393038
  0
TEXT
  8
_0-5_寸法線
 62
    7
 10
813.59649122807082
 20
1280.2107285393038
 40
30
 41
1
 50
0
  1
Ｆ＝Ｎ×Ｇ
  0
LINE
  8
_0-5_寸法線
  6
CONTINUOUS
 62
    7
 10
1485
 20
1050
 11
1485
 21
1050
  0
LINE
  8
_0-5_寸法線
  6
CONTINUOUS
 62
    7
 10
1350.5964912280706
 20
1200.2107285393038
 11
1350.5964912280708
 21
1290.2107285393038
  0
POINT
  8
_0-5_寸法線
 62
    7
 10
426.59649122807082
 20
1280.2107285393038
  0
POINT
  8
_0-5_寸法線
 62
    7
 10
1350.5964912280708
 20
1280.2107285393038
  0
LINE
  8
_0-5_寸法線
  6
CONTINUOUS
 62
    7
 10
1350.5964912280708
 20
1280.2107285393038
 11
1385.5964912280708
 21
1280.2107285393038
  0
TEXT
  8
_0-5_寸法線
 62
    7
 10
1353.0964912280708
 20
1280.2107285393038
 40
30
 41
1
 50
0
  1
Ｅ
  0
LINE
  8
_0-5_寸法線
  6
CONTINUOUS
 62
    7
 10
1485
 20
1050
 11
1485
 21
1050
  0
LINE
  8
_0-5_寸法線
  6
CONTINUOUS
 62
    7
 10
1385.5964912280706
 20
1200.2107285393038
 11
1385.5964912280708
 21
1290.2107285393038
  0
POINT
  8
_0-5_寸法線
 62
    7
 10
1350.5964912280708
 20
1280.2107285393038
  0
POINT
  8
_0-5_寸法線
 62
    7
 10
1385.5964912280708
 20
1280.2107285393038
  0
LINE
  8
_0-7_枠細線
  6
CONTINUOUS
 62
    9
 10
2139.2738468233365
 20
1402.4761792523234
 11
2139.2738468233365
 21
1152.4761792523241
  0
LINE
  8
_0-7_枠細線
  6
CONTINUOUS
 62
    9
 10
2239.2738468233342
 20
1402.4761792523234
 11
2239.2738468233342
 21
1152.4761792523241
  0
TEXT
  8
_0-7_枠細線
 62
    1
 10
2074.2738468233374
 20
1312.4761792523234
 40
30
 41
1
 50
0
  1
35
  0
TEXT
  8
_0-7_枠細線
 62
    1
 10
2174.2738468233365
 20
1312.4761792523234
 40
30
 41
1
 50
0
  1
35
  0
TEXT
  8
_0-7_枠細線
 62
    1
 10
2074.2738468233365
 20
1262.4761792523241
 40
30
 41
1
 50
0
  1
35
  0
TEXT
  8
_0-7_枠細線
 62
    1
 10
2174.2738468233351
 20
1262.4761792523241
 40
30
 41
1
 50
0
  1
35
  0
TEXT
  8
_0-7_枠細線
 62
    1
 10
2074.2738468233365
 20
1212.4761792523241
 40
30
 41
1
 50
0
  1
36
  0
TEXT
  8
_0-7_枠細線
 62
    1
 10
2174.2738468233351
 20
1212.4761792523241
 40
30
 41
1
 50
0
  1
36
  0
TEXT
  8
_0-7_枠細線
 62
    1
 10
2074.2738468233365
 20
1162.4761792523241
 40
30
 41
1
 50
0
  1
35
  0
TEXT
  8
_0-7_枠細線
 62
    1
 10
2174.2738468233351
 20
1162.4761792523241
 40
30
 41
1
 50
0
  1
35
  0
TEXT
  8
_0-7_枠細線
 62
    1
 10
2081.7738468233374
 20
1362.4761792523234
 40
30
 41
1
 50
0
  1
D
  0
TEXT
  8
_0-7_枠細線
 62
    1
 10
2181.7738468233365
 20
1362.4761792523234
 40
30
 41
1
 50
0
  1
E
  0
LINE
  8
_0-7_枠細線
  6
CONTINUOUS
 62
    9
 10
2339.2738468233329
 20
1402.4761792523234
 11
2339.2738468233329
 21
1152.4761792523241
  0
TEXT
  8
_0-7_枠細線
 62
    1
 10
2266.7738468233338
 20
1312.4761792523234
 40
30
 41
1
 50
0
  1
924
  0
TEXT
  8
_0-7_枠細線
 62
    1
 10
2259.2738468233342
 20
1262.4761792523241
 40
30
 41
1
 50
0
  1
1124
  0
TEXT
  8
_0-7_枠細線
 62
    1
 10
2259.2738468233342
 20
1212.4761792523241
 40
30
 41
1
 50
0
  1
1422
  0
TEXT
  8
_0-7_枠細線
 62
    1
 10
2259.2738468233342
 20
1162.4761792523241
 40
30
 41
1
 50
0
  1
1724
  0
TEXT
  8
_0-7_枠細線
 62
    1
 10
2281.7738468233342
 20
1362.4761792523234
 40
30
 41
1
 50
0
  1
F
  0
LINE
  8
_0-7_枠細線
  6
CONTINUOUS
 62
    9
 10
2439.273846823331
 20
1402.4761792523234
 11
2439.273846823331
 21
1152.4761792523241
  0
LINE
  8
_0-7_枠細線
  6
CONTINUOUS
 62
    9
 10
2539.2738468233297
 20
1402.4761792523234
 11
2539.2738468233297
 21
1152.4761792523241
  0
TEXT
  8
_0-7_枠細線
 62
    1
 10
2381.7738468233324
 20
1362.4761792523234
 40
30
 41
1
 50
0
  1
N
  0
TEXT
  8
_0-7_枠細線
 62
    1
 10
2381.7738468873331
 20
1312.4761792523234
 40
30
 41
1
 50
0
  1
2
  0
TEXT
  8
_0-7_枠細線
 62
    1
 10
2381.7738468233324
 20
1262.4761792523241
 40
30
 41
1
 50
0
  1
2
  0
TEXT
  8
_0-7_枠細線
 62
    1
 10
2381.7738468233324
 20
1212.4761792523241
 40
30
 41
1
 50
0
  1
3
  0
TEXT
  8
_0-7_枠細線
 62
    1
 10
2466.773846823331
 20
1312.4761792523234
 40
30
 41
1
 50
0
  1
462
  0
TEXT
  8
_0-7_枠細線
 62
    1
 10
2466.773846823331
 20
1262.4761792523241
 40
30
 41
1
 50
0
  1
562
  0
TEXT
  8
_0-7_枠細線
 62
    1
 10
2466.773846823331
 20
1212.4761792523241
 40
30
 41
1
 50
0
  1
474
  0
TEXT
  8
_0-7_枠細線
 62
    1
 10
2381.7738468233324
 20
1162.4761792523241
 40
30
 41
1
 50
0
  1
4
  0
TEXT
  8
_0-7_枠細線
 62
    1
 10
2466.773846823331
 20
1162.4761792523241
 40
30
 41
1
 50
0
  1
431
  0
TEXT
  8
_0-7_枠細線
 62
    1
 10
2481.773846823332
 20
1362.4761792523234
 40
30
 41
1
 50
0
  1
G
  0
ENDSEC
  0
EOF
