  0
SECTION
  2
HEADER
  9
$ACADVER
  1
AC1009
  9
$INSBASE
 10
0
 20
0
 30
0
  9
$EXTMIN
 10
0
 20
0
  9
$EXTMAX
 10
2970
 20
2100
  9
$LIMMIN
 10
0
 20
0
  9
$LIMMAX
 10
2970
 20
2100
  9
$LTSCALE
 40
10
  0
ENDSEC
  0
SECTION
  2
TABLES
  0
TABLE
  2
LTYPE
 70
     9
  0
LTYPE
  2
CONTINUOUS
 70
    64
  3
実線
 72
    65
 73
     0
 40
0.0
  0
LTYPE
  2
DASHED1
 70
    64
  3
--  --  --  --  --  --  --  --  
 72
    65
 73
     2
 40
2.5
 49
1.25
 49
-1.25
  0
LTYPE
  2
DASHED2
 70
    64
  3
----    ----    ----    ----    
 72
    65
 73
     2
 40
5.0
 49
2.5
 49
-2.5
  0
LTYPE
  2
DASHED3
 70
    64
  3
------  ------  ------  ------  
 72
    65
 73
     2
 40
5.0
 49
3.75
 49
-1.25
  0
LTYPE
  2
CENTER1
 70
    64
  3
----- - ----- - ----- - ----- - 
 72
    65
 73
     4
 40
10.0
 49
6.25
 49
-1.25
 49
1.25
 49
-1.25
  0
LTYPE
  2
CENTER2
 70
    64
  3
----------  --  ----------  --  
 72
    65
 73
     4
 40
20.0
 49
12.5
 49
-2.5
 49
2.5
 49
-2.5
  0
LTYPE
  2
PHANTOM1
 70
    64
  3
--- - - --- - - --- - - --- - - 
 72
    65
 73
     6
 40
10.0
 49
3.25
 49
-1.25
 49
1.25
 49
-1.25
 49
1.25
 49
-1.25
  0
LTYPE
  2
PHANTOM2
 70
    64
  3
--------  -  -  --------  -  -  
 72
    65
 73
     6
 40
20.0
 49
10.0
 49
-2.5
 49
1.25
 49
-2.5
 49
1.25
 49
-2.5
  0
LTYPE
  2
DOT
 70
    64
  3
-   -   -   -   -   -   -   -   
 72
    65
 73
     2
 40
2.5
 49
0.625
 49
-1.875
  0
LTYPE
  2
DUMMY
 70
    64
  3
ダミー
 72
    65
 73
     0
 40
0.0
  0
LTYPE
  2
RAND1
 70
    64
  3
ランダム線1
 72
    65
 73
     4
 40
10.0
 49
1.0
 49
-2.0
 49
3.0
 49
-4.0
  0
LTYPE
  2
RAND2
 70
    64
  3
ランダム線2
 72
    65
 73
     4
 40
14.0
 49
2.0
 49
-3.0
 49
4.0
 49
-5.0
  0
LTYPE
  2
RAND3
 70
    64
  3
ランダム線3
 72
    65
 73
     4
 40
18.0
 49
3.0
 49
-4.0
 49
5.0
 49
-6.0
  0
LTYPE
  2
RAND4
 70
    64
  3
ランダム線4
 72
    65
 73
     4
 40
22.0
 49
4.0
 49
-5.0
 49
6.0
 49
-7.0
  0
LTYPE
  2
RAND5
 70
    64
  3
ランダム線5
 72
    65
 73
     4
 40
26.0
 49
5.0
 49
-6.0
 49
7.0
 49
-8.0
  0
LTYPE
  2
LONG1
 70
    64
  3
----------  --  ----------  --  
 72
    65
 73
     4
 40
40.0
 49
32.5
 49
-2.5
 49
2.5
 49
-2.5
  0
LTYPE
  2
LONG2
 70
    64
  3
--------  -  -  --------  -  -  
 72
    65
 73
     6
 40
40.0
 49
30.0
 49
-2.5
 49
1.25
 49
-2.5
 49
1.25
 49
-2.5
  0
LTYPE
  2
LONG3
 70
    64
  3
+++++++++++++++..+++++++++++++++
 72
    65
 73
     2
 40
40.0
 49
37.5
 49
-2.5
  0
LTYPE
  2
LONG4
 70
    64
  3
+++++++++++++++..+++++++++++++++
 72
    65
 73
     2
 40
80.0
 49
75.0
 49
-5.0
  0
LTYPE
  2
LONG5
 70
    64
  3
----------  --  ----------  --  
 72
    65
 73
     4
 40
60.0
 49
37.5
 49
-7.5
 49
7.5
 49
-7.5
  0
LTYPE
  2
dashed
 70
   64
  3
-------   -------------   ------
 72
   65
 73
    2
 40
7.5
 49
6
 49
-1.5
  0
LTYPE
  2
dashed_spaced
 70
   64
  3
----        --------        ----
 72
   65
 73
    2
 40
12
 49
6
 49
-6
  0
LTYPE
  2
long_dashed_dotted
 70
   64
  3
------------- --- --------------
 72
   65
 73
    4
 40
15.25
 49
12
 49
-1.5
 49
0.25
 49
-1.5
  0
LTYPE
  2
long_dashed_double-dotted
 70
   64
  3
----------- --- --- ------------
 72
   65
 73
    6
 40
17
 49
12
 49
-1.5
 49
0.25
 49
-1.5
 49
0.25
 49
-1.5
  0
LTYPE
  2
long_dashed_triplicate-dotted
 70
   64
  3
--------- --- --- --- ----------
 72
   65
 73
    8
 40
18.75
 49
12
 49
-1.5
 49
0.25
 49
-1.5
 49
0.25
 49
-1.5
 49
0.25
 49
-1.5
  0
LTYPE
  2
dotted
 70
   64
  3
   -       -       -       -    
 72
   65
 73
    2
 40
1.75
 49
0.25
 49
-1.5
  0
LTYPE
  2
chain
 70
   64
  3
-------------- -- --------------
 72
   65
 73
    4
 40
18.5
 49
12
 49
-1.5
 49
3.5
 49
-1.5
  0
LTYPE
  2
chain_double_dash
 70
   64
  3
------------ -- -- -------------
 72
   65
 73
    6
 40
23.5
 49
12
 49
-1.5
 49
3.5
 49
-1.5
 49
3.5
 49
-1.5
  0
LTYPE
  2
dashed_dotted
 70
   64
  3
-----------     -     ----------
 72
   65
 73
    4
 40
9.25
 49
6
 49
-1.5
 49
0.25
 49
-1.5
  0
LTYPE
  2
double-dashed_dotted
 70
   64
  3
------   -----------   -   -----
 72
   65
 73
    6
 40
16.75
 49
6
 49
-1.5
 49
6
 49
-1.5
 49
0.25
 49
-1.5
  0
LTYPE
  2
dashed_double-dotted
 70
   64
  3
---------    -    -    ---------
 72
   65
 73
    6
 40
11
 49
6
 49
-1.5
 49
0.25
 49
-1.5
 49
0.25
 49
-1.5
  0
LTYPE
  2
double-dashed_double-dotted
 70
   64
  3
-----   ---------   -   -   ----
 72
   65
 73
    8
 40
18.5
 49
6
 49
-1.5
 49
6
 49
-1.5
 49
0.25
 49
-1.5
 49
0.25
 49
-1.5
  0
LTYPE
  2
dashed_triplicate-dotted
 70
   64
  3
-------    -    -    -    ------
 72
   65
 73
    8
 40
12.75
 49
6
 49
-1.5
 49
0.25
 49
-1.5
 49
0.25
 49
-1.5
 49
0.25
 49
-1.5
  0
LTYPE
  2
double-dashed_triplicate-dotted
 70
   64
  3
-----  ---------  -  -  -  -----
 72
   65
 73
   10
 40
20.25
 49
6
 49
-1.5
 49
6
 49
-1.5
 49
0.25
 49
-1.5
 49
0.25
 49
-1.5
 49
0.25
 49
-1.5
  0
LTYPE
  2
undefined
 70
   64
  3
--------------------------------
 72
   65
 73
    0
 40
0
  0
ENDTAB
  0
TABLE
  2
STYLE
  5
3
100
AcDbSymbolTable
 70
     1
  0
STYLE
  5
10
100
AcDbSymbolTableRecord
100
AcDbTextStyleTableRecord
  2
STANDARD
 70
     0
 40
0.0
 41
1.0
 50
0.0
 71
     0
 42
0.2
  3
txt
  4
bigfont.shx
  0
STYLE
  5
26
100
AcDbSymbolTableRecord
100
AcDbTextStyleTableRecord
  2
TATEGAKI
 70
    68
 40
0.0
 41
1.0
 50
0.0
 71
     0
 42
1.0
  3
txt
  4
bigfont.shx
  0
ENDTAB
  0
TABLE
  2
LAYER
 70
   13
  0
LAYER
  2
_0-0_計極細
 70
   64
 62
    7
  6
CONTINUOUS
  0
LAYER
  2
_0-1_計細線
 70
   64
 62
    7
  6
CONTINUOUS
  0
LAYER
  2
_0-5_寸法線
 70
   64
 62
    7
  6
CONTINUOUS
  0
LAYER
  2
_0-7_枠細線
 70
   64
 62
    7
  6
CONTINUOUS
  0
LAYER
  2
_0-8_枠中線
 70
   64
 62
    7
  6
CONTINUOUS
  0
LAYER
  2
_0-a_極細3
 70
   64
 62
    7
  6
CONTINUOUS
  0
LAYER
  2
_0-b_細線3
 70
   64
 62
    7
  6
CONTINUOUS
  0
LAYER
  2
_0-d_寸法3
 70
   64
 62
    7
  6
CONTINUOUS
  0
LAYER
  2
_0-e_極細4
 70
   64
 62
    7
  6
CONTINUOUS
  0
LAYER
  2
_0-f_
 70
   64
 62
    7
  6
CONTINUOUS
  0
LAYER
  2
_1-0_
 70
   64
 62
    7
  6
CONTINUOUS
  0
LAYER
  2
_1-1_寸法4
 70
   64
 62
    7
  6
CONTINUOUS
  0
LAYER
  2
ADD_LINE
 70
   64
 62
    7
  6
CONTINUOUS
  0
ENDTAB
  0
ENDSEC
  0
SECTION
  2
BLOCKS
  0
ENDSEC
  0
SECTION
  2
ENTITIES
  0
LINE
  8
_0-8_枠中線
  6
CONTINUOUS
 62
    9
 10
120
 20
120
 11
120
 21
1920
  0
LINE
  8
_0-8_枠中線
  6
CONTINUOUS
 62
    9
 10
120
 20
1920
 11
2850
 21
1920
  0
LINE
  8
_0-8_枠中線
  6
CONTINUOUS
 62
    9
 10
2850
 20
1920
 11
2850
 21
120
  0
LINE
  8
_0-8_枠中線
  6
CONTINUOUS
 62
    9
 10
2850
 20
120
 11
120
 21
120
  0
LINE
  8
_0-7_枠細線
  6
CONTINUOUS
 62
    9
 10
2370
 20
360
 11
2370
 21
200
  0
TEXT
  8
_0-7_枠細線
 62
    1
 10
1875
 20
195
 40
35
 41
1
 50
0
  1
備考
  7
TATEGAKI
  0
TEXT
  8
_0-7_枠細線
 62
    1
 10
1875
 20
275
 40
35
 41
1
 50
0
  1
品番
  7
TATEGAKI
  0
TEXT
  8
_0-7_枠細線
 62
    1
 10
1875
 20
355
 40
35
 41
1
 50
0
  1
品名
  7
TATEGAKI
  0
LINE
  8
_0-7_枠細線
  6
CONTINUOUS
 62
    9
 10
1900
 20
360
 11
1900
 21
120
  0
LINE
  8
_0-7_枠細線
  6
CONTINUOUS
 62
    9
 10
2490
 20
360
 11
2490
 21
120
  0
TEXT
  8
_0-7_枠細線
 62
    1
 10
2385
 20
320
 40
30
 41
1
 50
0
  1
縮　尺
  0
LINE
  8
_0-7_枠細線
  6
CONTINUOUS
 62
    9
 10
2370
 20
310
 11
2490
 21
310
  0
LINE
  8
_0-7_枠細線
  6
CONTINUOUS
 62
    9
 10
2490
 20
200
 11
1850
 21
200
  0
LINE
  8
_0-7_枠細線
  6
CONTINUOUS
 62
    9
 10
2850
 20
180
 11
2490
 21
180
  0
LINE
  8
_0-7_枠細線
  6
CONTINUOUS
 62
    9
 10
2490
 20
240
 11
2850
 21
240
  0
LINE
  8
_0-7_枠細線
  6
CONTINUOUS
 62
    9
 10
2850
 20
280
 11
2490
 21
280
  0
TEXT
  8
_0-7_枠細線
 62
    1
 10
2510
 20
295
 40
50
 41
0.8
 50
0
  1
株式会社シマブン
  0
TEXT
  8
_0-7_枠細線
 62
    1
 10
2505
 20
120
 40
30
 41
1
 50
0
  1
年月日
  0
TEXT
  8
_0-7_枠細線
 62
    1
 10
2505
 20
150
 40
30
 41
1
 50
0
  1
作　成
  0
TEXT
  8
_0-7_枠細線
 62
    1
 10
2512.5
 20
245
 40
30
 41
1
 50
0
  1
承 認
  0
LINE
  8
_0-7_枠細線
  6
CONTINUOUS
 62
    9
 10
2610
 20
280
 11
2610
 21
120
  0
TEXT
  8
_0-7_枠細線
 62
    1
 10
2632.5
 20
245
 40
30
 41
1
 50
0
  1
検 図
  0
LINE
  8
_0-7_枠細線
  6
CONTINUOUS
 62
    9
 10
2730
 20
280
 11
2730
 21
180
  0
TEXT
  8
_0-7_枠細線
 62
    1
 10
2752.5
 20
245
 40
30
 41
1
 50
0
  1
設 計
  0
LINE
  8
_0-7_枠細線
  6
CONTINUOUS
 62
    9
 10
2850
 20
1885
 11
1780
 21
1885
  0
TEXT
  8
_0-7_枠細線
 62
    1
 10
1790
 20
1890
 40
25
 41
1
 50
0
  1
記号
  0
TEXT
  8
_0-7_枠細線
 62
    1
 10
1993.75
 20
1890
 40
25
 41
1
 50
0
  1
訂　 正　 記　 事
  0
TEXT
  8
_0-7_枠細線
 62
    1
 10
2362.5
 20
1890
 40
25
 41
1
 50
0
  1
訂 正 年 月 日
  0
TEXT
  8
_0-7_枠細線
 62
    1
 10
2612.5
 20
1890
 40
25
 41
1
 50
0
  1
備　　　　　考
  0
LINE
  8
_0-7_枠細線
  6
CONTINUOUS
 62
    9
 10
2850
 20
1850
 11
1780
 21
1850
  0
LINE
  8
_0-8_枠中線
  6
CONTINUOUS
 62
    9
 10
1850
 20
360
 11
1850
 21
120
  0
LINE
  8
_0-8_枠中線
  6
CONTINUOUS
 62
    9
 10
2850
 20
360
 11
1850
 21
360
  0
LINE
  8
_0-7_枠細線
  6
CONTINUOUS
 62
    9
 10
2370
 20
280
 11
1850
 21
280
  0
LINE
  8
_0-7_枠細線
  6
CONTINUOUS
 62
    9
 10
2550
 20
1850
 11
2550
 21
1919.9999999999989
  0
LINE
  8
_0-7_枠細線
  6
CONTINUOUS
 62
    9
 10
2350
 20
1850
 11
2350
 21
1919.9999999999989
  0
LINE
  8
_0-7_枠細線
  6
CONTINUOUS
 62
    9
 10
1850
 20
1850
 11
1850
 21
1919.9999999999989
  0
LINE
  8
_0-7_枠細線
  6
CONTINUOUS
 62
    9
 10
1780
 20
1850
 11
1780
 21
1919.9999999999989
  0
TEXT
  8
_0-7_枠細線
 62
    1
 10
1913.4522417153994
 20
299.06069690229901
 40
40
 41
0.55
 50
0
  1
排水ユニット 屋内外樹脂グレーチング 深型
  0
TEXT
  8
_0-7_枠細線
 62
    1
 10
2510
 20
190
 40
40
 41
1
 50
0
  1
上田
  0
TEXT
  8
_0-7_枠細線
 62
    1
 10
2630
 20
190
 40
40
 41
1
 50
0
  1
中村
  0
TEXT
  8
_0-7_枠細線
 62
    1
 10
2750
 20
190
 40
40
 41
1
 50
0
  1
石井
  0
TEXT
  8
_0-7_枠細線
 62
    1
 10
2620
 20
135
 40
30
 41
0.6666666666666666
 50
0
  1
２０２３年１１月０１日
  0
TEXT
  8
_0-7_枠細線
 62
    1
 10
1917.1186917912062
 20
139.99999999999986
 40
40
 41
0.5999999999999998
 50
0
  1
品番・色については表参照のこと
  0
TEXT
  8
_0-7_枠細線
 62
    1
 10
2374
 20
235
 40
40
 41
0.7000000000000001
 50
0
  1
１：１０
  0
LINE
  8
_0-1_計細線
  6
CONTINUOUS
 62
    9
 10
391.59649122807082
 20
1450.2107285393038
 11
391.59649122807082
 21
1594.2107285393038
  0
LINE
  8
_0-1_計細線
  6
CONTINUOUS
 62
    9
 10
391.59649122807082
 20
1594.2107285393038
 11
1385.5964912280706
 21
1594.2107285393038
  0
LINE
  8
_0-1_計細線
  6
CONTINUOUS
 62
    9
 10
1385.5964912280706
 20
1594.2107285393038
 11
1385.5964912280706
 21
1450.2107285393038
  0
LINE
  8
_0-1_計細線
  6
CONTINUOUS
 62
    9
 10
1385.5964912280706
 20
1450.2107285393038
 11
391.59649122807082
 21
1450.2107285393038
  0
LINE
  8
_0-0_計極細
  6
CENTER1
 62
    9
 10
379.29649122807064
 20
1522.210728539304
 11
1407.5464912280713
 21
1522.210728539304
  0
ARC
  8
_0-0_計極細
  6
CONTINUOUS
 62
    9
 10
1179.1744593455487
 20
1551.2107285392176
 40
54.312365187078854
 50
327.72737804884298
 51
32.272621951156722
  0
ARC
  8
_0-0_計極細
  6
CONTINUOUS
 62
    9
 10
1271.0185231106007
 20
1493.210728539394
 40
54.312365187078854
 50
147.72737804884292
 51
212.27262195115645
  0
LINE
  8
_0-1_計細線
  6
CONTINUOUS
 62
    9
 10
405.09649122807332
 20
1568.8107285391311
 11
405.09649122807332
 21
1580.2107285391317
  0
LINE
  8
_0-1_計細線
  6
CONTINUOUS
 62
    9
 10
405.09649122807332
 20
1580.2107285391317
 11
1225.0964912280733
 21
1580.2107285391317
  0
LINE
  8
_0-0_計極細
  6
CONTINUOUS
 62
    9
 10
405.09649122807332
 20
1577.0107285391314
 11
1226.9676912117775
 21
1577.0107285391314
  0
LINE
  8
_0-0_計極細
  6
CONTINUOUS
 62
    9
 10
405.09649122807332
 20
1572.0107285391314
 11
1229.346094880163
 21
1572.0107285391314
  0
LINE
  8
_0-1_計細線
  6
CONTINUOUS
 62
    9
 10
405.09649122807332
 20
1568.8107285391311
 11
1230.5561001544766
 21
1568.8107285391311
  0
LINE
  8
_0-1_計細線
  6
CONTINUOUS
 62
    9
 10
405.09649122807332
 20
1551.3107285389169
 11
405.09649122807332
 21
1562.7107285389172
  0
LINE
  8
_0-1_計細線
  6
CONTINUOUS
 62
    9
 10
405.09649122807332
 20
1562.7107285389172
 11
1232.2553694001203
 21
1562.7107285389172
  0
LINE
  8
_0-0_計極細
  6
CONTINUOUS
 62
    9
 10
405.09649122807332
 20
1559.510728538917
 11
1232.8488760840623
 21
1559.510728538917
  0
LINE
  8
_0-0_計極細
  6
CONTINUOUS
 62
    9
 10
405.09649122807332
 20
1554.510728538917
 11
1233.3864784208108
 21
1554.510728538917
  0
LINE
  8
_0-1_計細線
  6
CONTINUOUS
 62
    9
 10
405.09649122807332
 20
1551.3107285389169
 11
1233.4867324724828
 21
1551.3107285389169
  0
LINE
  8
_0-1_計細線
  6
CONTINUOUS
 62
    9
 10
405.09649122807332
 20
1499.110728539463
 11
405.09649122807332
 21
1510.5107285394636
  0
LINE
  8
_0-1_計細線
  6
CONTINUOUS
 62
    9
 10
405.09649122807332
 20
1510.5107285394636
 11
1219.5350984749739
 21
1510.5107285394636
  0
LINE
  8
_0-0_計極細
  6
CONTINUOUS
 62
    9
 10
405.09649122807332
 20
1507.3107285394633
 11
1218.5683275703291
 21
1507.3107285394633
  0
LINE
  8
_0-0_計極細
  6
CONTINUOUS
 62
    9
 10
405.09649122807332
 20
1502.3107285394633
 11
1217.4739341009408
 21
1502.3107285394633
  0
LINE
  8
_0-1_計細線
  6
CONTINUOUS
 62
    9
 10
405.09649122807332
 20
1499.110728539463
 11
1217.0275700516495
 21
1499.110728539463
  0
LINE
  8
_0-1_計細線
  6
CONTINUOUS
 62
    9
 10
405.09649122807332
 20
1481.7107285387999
 11
405.09649122807332
 21
1493.1107285388007
  0
LINE
  8
_0-1_計細線
  6
CONTINUOUS
 62
    9
 10
405.09649122807332
 20
1493.1107285388007
 11
1216.7062499836679
 21
1493.1107285388007
  0
LINE
  8
_0-0_計極細
  6
CONTINUOUS
 62
    9
 10
405.09649122807332
 20
1489.9107285388002
 11
1216.8065040353922
 21
1489.9107285388002
  0
LINE
  8
_0-0_計極細
  6
CONTINUOUS
 62
    9
 10
405.09649122807332
 20
1484.9107285388002
 11
1217.3441063722248
 21
1484.9107285388002
  0
LINE
  8
_0-1_計細線
  6
CONTINUOUS
 62
    9
 10
405.09649122807332
 20
1481.7107285387999
 11
1217.9376130562223
 21
1481.7107285387999
  0
LINE
  8
_0-1_計細線
  6
CONTINUOUS
 62
    9
 10
405.09649122807332
 20
1464.2107285367526
 11
405.09649122807332
 21
1475.6107285367532
  0
LINE
  8
_0-1_計細線
  6
CONTINUOUS
 62
    9
 10
405.09649122807332
 20
1464.2107285367526
 11
1225.0964912280733
 21
1464.2107285367526
  0
LINE
  8
_0-1_計細線
  6
CONTINUOUS
 62
    9
 10
405.09649122807332
 20
1475.6107285367532
 11
1219.6368823026073
 21
1475.6107285367532
  0
LINE
  8
_0-0_計極細
  6
CONTINUOUS
 62
    9
 10
405.09649122807332
 20
1472.4107285367529
 11
1220.8468875771168
 21
1472.4107285367529
  0
LINE
  8
_0-0_計極細
  6
CONTINUOUS
 62
    9
 10
405.09649122807332
 20
1467.4107285367529
 11
1223.2252912458448
 21
1467.4107285367529
  0
LINE
  8
_0-1_計細線
  6
CONTINUOUS
 62
    9
 10
405.09649122807332
 20
1545.3107285414719
 11
1233.1654124047532
 21
1545.3107285414719
  0
LINE
  8
_0-0_計極細
  6
CONTINUOUS
 62
    9
 10
405.09649122807332
 20
1542.1107285414719
 11
1232.7190483556028
 21
1542.1107285414719
  0
LINE
  8
_0-0_計極細
  6
CONTINUOUS
 62
    9
 10
405.09649122807332
 20
1537.1107285414719
 11
1231.6246548864442
 21
1537.1107285414719
  0
LINE
  8
_0-1_計細線
  6
CONTINUOUS
 62
    9
 10
405.09649122807332
 20
1533.9107285414716
 11
405.09649122807332
 21
1545.3107285414719
  0
LINE
  8
_0-1_計細線
  6
CONTINUOUS
 62
    9
 10
405.09649122807332
 20
1533.9107285414716
 11
1230.6578839819558
 21
1533.9107285414716
  0
LINE
  8
_0-0_計極細
  6
CONTINUOUS
 62
    9
 10
405.09649122807332
 20
1524.7107285392642
 11
1226.5831401141277
 21
1524.7107285392642
  0
LINE
  8
_0-0_計極細
  6
CONTINUOUS
 62
    9
 10
405.09649122807332
 20
1519.7107285392642
 11
1223.6098423419739
 21
1519.7107285392642
  0
LINE
  8
_0-1_計細線
  6
CONTINUOUS
 62
    9
 10
405.09649122807332
 20
1516.5107285392639
 11
1221.9579176086227
 21
1516.5107285392639
  0
LINE
  8
_0-1_計細線
  6
CONTINUOUS
 62
    9
 10
405.09649122807332
 20
1527.9107285392647
 11
1228.2350648474862
 21
1527.9107285392647
  0
LINE
  8
_0-1_計細線
  6
CONTINUOUS
 62
    9
 10
405.09649122807332
 20
1516.5107285392639
 11
405.09649122807332
 21
1527.9107285392647
  0
LINE
  8
_0-1_計細線
  6
CONTINUOUS
 62
    9
 10
1488.5964912280706
 20
1594.2107285393038
 11
1488.5964912280706
 21
1450.2107285393038
  0
LINE
  8
_0-1_計細線
  6
CONTINUOUS
 62
    9
 10
1488.5964912280706
 20
1450.2107285393038
 11
1496.5964912280706
 21
1450.2107285393038
  0
LINE
  8
_0-1_計細線
  6
CONTINUOUS
 62
    9
 10
1496.5964912280706
 20
1450.2107285393038
 11
1496.5964912280706
 21
1594.2107285393038
  0
LINE
  8
_0-1_計細線
  6
CONTINUOUS
 62
    9
 10
1496.5964912280706
 20
1594.2107285393038
 11
1488.5964912280706
 21
1594.2107285393038
  0
LINE
  8
_0-1_計細線
  6
CONTINUOUS
 62
    9
 10
1576.5964912280708
 20
1461.2107285393042
 11
1611.5964912280708
 21
1461.2107285393042
  0
LINE
  8
_0-1_計細線
  6
CONTINUOUS
 62
    9
 10
1611.5964912280708
 20
1461.2107285393042
 11
1611.5964912280708
 21
1460.010728539304
  0
LINE
  8
_0-1_計細線
  6
CONTINUOUS
 62
    9
 10
1611.5964912280708
 20
1460.010728539304
 11
1576.5964912280708
 21
1460.010728539304
  0
LINE
  8
_0-1_計細線
  6
CONTINUOUS
 62
    9
 10
1576.5964912280708
 20
1460.010728539304
 11
1576.5964912280708
 21
1461.2107285393042
  0
LINE
  8
_0-1_計細線
  6
CONTINUOUS
 62
    9
 10
1578.596491228071
 20
1460.010728539304
 11
1578.596491228071
 21
1461.2107285393042
  0
LINE
  8
_0-1_計細線
  6
CONTINUOUS
 62
    9
 10
1588.596491228071
 20
1460.010728539304
 11
1588.596491228071
 21
1461.2107285393042
  0
LINE
  8
_0-1_計細線
  6
CONTINUOUS
 62
    9
 10
1590.5964912280708
 20
1460.010728539304
 11
1590.5964912280708
 21
1461.2107285393042
  0
LINE
  8
_0-1_計細線
  6
CONTINUOUS
 62
    9
 10
1592.596491228071
 20
1460.010728539304
 11
1592.596491228071
 21
1461.2107285393042
  0
LINE
  8
_0-1_計細線
  6
CONTINUOUS
 62
    9
 10
1594.596491228071
 20
1460.010728539304
 11
1594.596491228071
 21
1461.2107285393042
  0
LINE
  8
_0-1_計細線
  6
CONTINUOUS
 62
    9
 10
1608.596491228071
 20
1460.010728539304
 11
1608.596491228071
 21
1461.2107285393042
  0
LINE
  8
_0-1_計細線
  6
CONTINUOUS
 62
    9
 10
1576.5964912280708
 20
1584.4107285393036
 11
1611.5964912280708
 21
1584.4107285393036
  0
LINE
  8
_0-1_計細線
  6
CONTINUOUS
 62
    9
 10
1611.5964912280708
 20
1584.4107285393036
 11
1611.5964912280708
 21
1583.210728539304
  0
LINE
  8
_0-1_計細線
  6
CONTINUOUS
 62
    9
 10
1611.5964912280708
 20
1583.210728539304
 11
1576.5964912280708
 21
1583.210728539304
  0
LINE
  8
_0-1_計細線
  6
CONTINUOUS
 62
    9
 10
1576.5964912280708
 20
1583.210728539304
 11
1576.5964912280708
 21
1584.4107285393036
  0
LINE
  8
_0-1_計細線
  6
CONTINUOUS
 62
    9
 10
1578.596491228071
 20
1583.210728539304
 11
1578.596491228071
 21
1584.4107285393036
  0
LINE
  8
_0-1_計細線
  6
CONTINUOUS
 62
    9
 10
1588.596491228071
 20
1583.210728539304
 11
1588.596491228071
 21
1584.4107285393036
  0
LINE
  8
_0-1_計細線
  6
CONTINUOUS
 62
    9
 10
1590.5964912280708
 20
1583.210728539304
 11
1590.5964912280708
 21
1584.4107285393036
  0
LINE
  8
_0-1_計細線
  6
CONTINUOUS
 62
    9
 10
1592.596491228071
 20
1583.210728539304
 11
1592.596491228071
 21
1584.4107285393036
  0
LINE
  8
_0-1_計細線
  6
CONTINUOUS
 62
    9
 10
1594.596491228071
 20
1583.210728539304
 11
1594.596491228071
 21
1584.4107285393036
  0
LINE
  8
_0-1_計細線
  6
CONTINUOUS
 62
    9
 10
1608.596491228071
 20
1583.210728539304
 11
1608.596491228071
 21
1584.4107285393036
  0
LINE
  8
_0-1_計細線
  6
CONTINUOUS
 62
    9
 10
1588.596491228071
 20
1583.210728539304
 11
1588.596491228071
 21
1461.2107285393042
  0
LINE
  8
_0-1_計細線
  6
CONTINUOUS
 62
    9
 10
1496.5964912280708
 20
1583.210728539304
 11
1588.596491228071
 21
1583.210728539304
  0
LINE
  8
_0-1_計細線
  6
CONTINUOUS
 62
    9
 10
1588.596491228071
 20
1461.2107285393042
 11
1496.5964912280706
 21
1461.2107285393042
  0
LINE
  8
_0-0_計極細
  6
CENTER1
 62
    9
 10
1465.5884141363385
 20
1522.210728539304
 11
1616.1491885438986
 21
1522.210728539304
  0
ARC
  8
_0-1_計細線
  6
CONTINUOUS
 62
    9
 10
1344.2122499632692
 20
1536.4105334273095
 40
0.501740082747087
 50
330.00000000006594
 51
20.189990999972171
  0
ARC
  8
_0-1_計細線
  6
CONTINUOUS
 62
    9
 10
1344.2122499632692
 20
1508.0109236513001
 40
0.501740082747087
 50
339.81000900002709
 51
29.999999999933351
  0
LINE
  8
_0-1_計細線
  6
CONTINUOUS
 62
    9
 10
1306.9010564370683
 20
1524.468567943024
 11
1305.5974883416525
 21
1526.7264073467431
  0
LINE
  8
_0-1_計細線
  6
CONTINUOUS
 62
    9
 10
1306.9010564370683
 20
1524.468567943024
 11
1286.761165081321
 21
1559.3518796643307
  0
LINE
  8
_0-1_計細線
  6
CONTINUOUS
 62
    9
 10
1306.9010564370683
 20
1524.468567943024
 11
1309.508186606995
 21
1524.468567943024
  0
LINE
  8
_0-1_計細線
  6
CONTINUOUS
 62
    9
 10
1302.9903641926317
 20
1522.210728539304
 11
1282.8504728368816
 21
1557.0940402606129
  0
ARC
  8
_0-1_計細線
  6
CONTINUOUS
 62
    9
 10
1273.9927159780773
 20
1495.869268829244
 40
0.501740082747087
 50
219.81000899998574
 51
269.99999999999977
  0
LINE
  8
_0-1_計細線
  6
CONTINUOUS
 62
    9
 10
1306.9010564370683
 20
1519.9528891355849
 11
1286.761165081321
 21
1485.0695774142775
  0
LINE
  8
_0-1_計細線
  6
CONTINUOUS
 62
    9
 10
1302.9903641926317
 20
1522.210728539304
 11
1282.8504728368816
 21
1487.3274168179967
  0
ARC
  8
_0-1_計細線
  6
CONTINUOUS
 62
    9
 10
1305.5974883416525
 20
1522.210728539304
 40
46.4111412917104
 50
89.999999999999915
 51
269.99999999999977
  0
ARC
  8
_0-1_計細線
  6
CONTINUOUS
 62
    9
 10
1305.5974883416525
 20
1522.210728539304
 40
57.198598227560836
 50
89.999999999999915
 51
269.99999999999977
  0
CIRCLE
  8
_0-1_計細線
  6
CONTINUOUS
 62
    9
 10
1305.5974883416525
 20
1522.210728539304
 40
58.202084413960065
  0
LINE
  8
_0-1_計細線
  6
CONTINUOUS
 62
    9
 10
1306.9010564370683
 20
1524.468567943024
 11
1347.1808331276593
 21
1524.468567943024
  0
LINE
  8
_0-1_計細線
  6
CONTINUOUS
 62
    9
 10
1306.9010564370683
 20
1519.9528891355849
 11
1347.1808331276593
 21
1519.9528891355849
  0
ARC
  8
_0-1_計細線
  6
CONTINUOUS
 62
    9
 10
1305.5974883416525
 20
1522.210728539304
 40
46.4111412917104
 50
269.99999999999977
 51
89.999999999999545
  0
ARC
  8
_0-1_計細線
  6
CONTINUOUS
 62
    9
 10
1305.5974883416525
 20
1522.210728539304
 40
57.198598227560836
 50
269.99999999999977
 51
89.999999999999545
  0
ARC
  8
_0-1_計細線
  6
CONTINUOUS
 62
    9
 10
1305.5974883416525
 20
1522.210728539304
 40
41.644595453350377
 50
89.999999999999915
 51
116.89207624474167
  0
ARC
  8
_0-1_計細線
  6
CONTINUOUS
 62
    9
 10
1305.5974883416525
 20
1522.210728539304
 40
41.644595453350377
 50
123.1079186869396
 51
236.89208131305881
  0
ARC
  8
_0-1_計細線
  6
CONTINUOUS
 62
    9
 10
1305.5974883416525
 20
1522.210728539304
 40
41.644595453350377
 50
243.1079237552571
 51
269.99999999999977
  0
ARC
  8
_0-1_計細線
  6
CONTINUOUS
 62
    9
 10
1305.5974883416525
 20
1522.210728539304
 40
41.644595453350377
 50
269.99999999999977
 51
356.89207858909316
  0
ARC
  8
_0-1_計細線
  6
CONTINUOUS
 62
    9
 10
1305.5974883416525
 20
1522.210728539304
 40
41.644595453350377
 50
3.1079214109077626
 51
89.999999999999915
  0
ARC
  8
_0-0_計極細
  6
CONTINUOUS
 62
    9
 10
1305.5974883416525
 20
1522.210728539304
 40
50.153133796808191
 50
269.99999999999977
 51
89.999999999999545
  0
ARC
  8
_0-0_計極細
  6
CONTINUOUS
 62
    9
 10
1305.5974883416525
 20
1522.210728539304
 40
50.153133796808191
 50
89.999999999999915
 51
269.99999999999977
  0
ARC
  8
_0-0_計極細
  6
CONTINUOUS
 62
    9
 10
1291.9824872971456
 20
1493.1096863097125
 40
0.501740082747087
 50
149.99997568602743
 51
210.00002243784951
  0
ARC
  8
_0-0_計極細
  6
CONTINUOUS
 62
    9
 10
1305.8871721476019
 20
1516.1898234627176
 40
1.0034861863992508
 50
29.999999999951111
 51
149.99999999997101
  0
ARC
  8
_0-0_計極細
  6
CONTINUOUS
 62
    9
 10
1305.8871721476019
 20
1516.1898234627176
 40
1.0034861863992508
 50
29.999999999951111
 51
106.77865499997519
  0
ARC
  8
_0-0_計極細
  6
CONTINUOUS
 62
    9
 10
1300.2383951301808
 20
1519.4511490528373
 40
1.0034861863992508
 50
329.99999999996464
 51
89.999999999999545
  0
ARC
  8
_0-0_計極細
  6
CONTINUOUS
 62
    9
 10
1265.1022720416154
 20
1529.4894893383969
 40
0.501740082747087
 50
89.993779916899371
 51
169.80868012339329
  0
ARC
  8
_0-0_計極細
  6
CONTINUOUS
 62
    9
 10
1265.1007063361822
 20
1514.9389660056427
 40
0.501740082747087
 50
190.17882981053808
 51
269.99383436899353
  0
ARC
  8
_0-0_計極細
  6
CONTINUOUS
 62
    9
 10
1265.048974045576
 20
1524.973814935938
 40
1.0034861863992508
 50
176.10042624738495
 51
269.99385985771437
  0
ARC
  8
_0-0_計極細
  6
CONTINUOUS
 62
    9
 10
1305.5974883416525
 20
1522.210728539304
 40
37.630656728658437
 50
317.45760300000074
 51
327.3871079999999
  0
ARC
  8
_0-0_計極細
  6
CONTINUOUS
 62
    9
 10
1305.5974883416525
 20
1522.210728539304
 40
37.630656728658437
 50
32.612892000000336
 51
42.54239699999939
  0
LINE
  8
_0-0_計極細
  6
CONTINUOUS
 62
    9
 10
1340.7717061126405
 20
1502.9317904840784
 11
1331.8136168916399
 21
1518.4476628664399
  0
LINE
  8
_0-0_計極細
  6
CONTINUOUS
 62
    9
 10
1339.3648794951614
 20
1498.3440956310176
 11
1327.0338792502562
 21
1519.7020160837583
  0
LINE
  8
_0-0_計極細
  6
CONTINUOUS
 62
    9
 10
1334.7429437549299
 20
1494.3077109722001
 11
1320.8057406418407
 21
1518.4476628664399
  0
LINE
  8
_0-0_計極細
  6
CONTINUOUS
 62
    9
 10
1340.7717061126405
 20
1541.4896665945307
 11
1331.8136168916399
 21
1525.9737942121701
  0
LINE
  8
_0-0_計極細
  6
CONTINUOUS
 62
    9
 10
1339.3648794951614
 20
1546.0773614475909
 11
1327.0338792502562
 21
1524.7194409948499
  0
LINE
  8
_0-0_計極細
  6
CONTINUOUS
 62
    9
 10
1334.7429437549299
 20
1550.1137400855043
 11
1320.8057406418407
 21
1525.9737942121701
  0
LINE
  8
_0-0_計極細
  6
CONTINUOUS
 62
    9
 10
1303.5905219897595
 20
1495.1910921441324
 11
1303.5905219897595
 21
1503.1085040480764
  0
LINE
  8
_0-0_計極細
  6
CONTINUOUS
 62
    9
 10
1304.0922620725064
 20
1495.1585009849528
 11
1304.0922620725064
 21
1502.2394646720375
  0
ARC
  8
_0-0_計極細
  6
CONTINUOUS
 62
    9
 10
1305.5974883416525
 20
1522.210728539304
 40
37.630656728658437
 50
213.59599499999973
 51
225.50677599999941
  0
LINE
  8
_0-0_計極細
  6
CONTINUOUS
 62
    9
 10
1332.579825229876
 20
1491.0299603530343
 11
1316.026003000457
 21
1519.7020160837583
  0
LINE
  8
_0-0_計極細
  6
CONTINUOUS
 62
    9
 10
1327.391972579687
 20
1487.9737730197783
 11
1309.797864392041
 21
1518.4476628664399
  0
LINE
  8
_0-0_計極細
  6
CONTINUOUS
 62
    9
 10
1309.3829036141628
 20
1481.0339935358345
 11
1297.0519033692576
 21
1502.3919139885754
  0
LINE
  8
_0-0_計極細
  6
CONTINUOUS
 62
    9
 10
1315.189482532737
 20
1483.0185139536022
 11
1301.2522794196461
 21
1507.1584658478412
  0
LINE
  8
_0-0_計極細
  6
CONTINUOUS
 62
    9
 10
1319.1096637235764
 20
1483.2529559554764
 11
1302.5558414941588
 21
1511.9250177071067
  0
LINE
  8
_0-0_計極細
  6
CONTINUOUS
 62
    9
 10
1324.3503197112873
 20
1486.2176797197114
 11
1306.7562175445473
 21
1516.6915635454664
  0
LINE
  8
_0-0_計極細
  6
CONTINUOUS
 62
    9
 10
1273.9927159780773
 20
1495.3675287464969
 11
1287.2027503014485
 21
1495.3675287464969
  0
ARC
  8
_0-0_計極細
  6
CONTINUOUS
 62
    9
 10
1283.7265807554818
 20
1490.8518499390573
 40
1.0034861863992508
 50
329.99999999997061
 51
89.999999999999545
  0
ARC
  8
_0-0_計極細
  6
CONTINUOUS
 62
    9
 10
1305.5974883416525
 20
1522.210728539304
 40
37.630656728658437
 50
233.77152299999995
 51
236.31964599999873
  0
ARC
  8
_0-0_計極細
  6
CONTINUOUS
 62
    9
 10
1279.7456004651795
 20
1490.8518499390573
 40
1.0034861863992508
 50
89.999999999999915
 51
230.49822999999429
  0
LINE
  8
_0-0_計極細
  6
CONTINUOUS
 62
    9
 10
1279.7456004651795
 20
1491.8553301045515
 11
1283.7265807554818
 21
1491.8553301045515
  0
ARC
  8
_0-0_計極細
  6
CONTINUOUS
 62
    9
 10
1305.5974883416525
 20
1522.210728539304
 40
37.630656728658437
 50
272.6128920000001
 51
282.54239699999982
  0
ARC
  8
_0-0_計極細
  6
CONTINUOUS
 62
    9
 10
1309.8174263126343
 20
1481.2848665876604
 40
0.501740082747087
 50
210.00000000003024
 51
275.8870620000269
  0
LINE
  8
_0-0_計極細
  6
CONTINUOUS
 62
    9
 10
1304.7064305157483
 20
1482.1094897469511
 11
1295.7483412947477
 21
1497.6253681502167
  0
LINE
  8
_0-0_計極細
  6
CONTINUOUS
 62
    9
 10
1298.152982406044
 20
1481.418590889414
 11
1291.5479652443591
 21
1492.8588162909518
  0
ARC
  8
_0-0_計極細
  6
CONTINUOUS
 62
    9
 10
1305.5974883416525
 20
1522.210728539304
 40
37.630656728658437
 50
254.49322399999997
 51
266.40400500000044
  0
ARC
  8
_0-0_計極細
  6
CONTINUOUS
 62
    9
 10
1287.2027503014485
 20
1495.869268829244
 40
0.501740082747087
 50
269.99999999999977
 51
329.9999999999431
  0
ARC
  8
_0-0_計極細
  6
CONTINUOUS
 62
    9
 10
1291.3658509285065
 20
1484.1428938930355
 40
1.0034861863992508
 50
249.50177000008239
 51
29.999999999950756
  0
LINE
  8
_0-0_計極細
  6
CONTINUOUS
 62
    9
 10
1292.2348903045477
 20
1484.6446339757831
 11
1290.2444031698483
 21
1488.0922644316845
  0
ARC
  8
_0-0_計極細
  6
CONTINUOUS
 62
    9
 10
1294.8792958978036
 20
1497.1236220465651
 40
1.0034861863992508
 50
29.999999999977071
 51
150.00000000000995
  0
ARC
  8
_0-0_計極細
  6
CONTINUOUS
 62
    9
 10
1305.5974883416525
 20
1522.210728539304
 40
27.094072844634091
 50
244.78019200000111
 51
249.77896100000117
  0
ARC
  8
_0-0_計極細
  6
CONTINUOUS
 62
    9
 10
1305.5974883416525
 20
1522.210728539304
 40
37.630656728658437
 50
243.68035399999945
 51
246.22847699999903
  0
ARC
  8
_0-0_計極細
  6
CONTINUOUS
 62
    9
 10
1289.375357772904
 20
1487.5905243489397
 40
1.0034861863992508
 50
29.999999999990056
 51
150.00000000000995
  0
ARC
  8
_0-0_計極細
  6
CONTINUOUS
 62
    9
 10
1303.8373911397098
 20
1481.6077496642056
 40
1.0034861863992508
 50
267.51783600001954
 51
29.999999999989686
  0
ARC
  8
_0-0_計極細
  6
CONTINUOUS
 62
    9
 10
1298.5875051045155
 20
1481.6694639412399
 40
0.501740082747087
 50
210.00000000005619
 51
260.18999099994863
  0
ARC
  8
_0-0_計極細
  6
CONTINUOUS
 62
    9
 10
1305.5974883416525
 20
1522.210728539304
 40
27.094072844634091
 50
260.29098300000004
 51
275.37568200000089
  0
ARC
  8
_0-0_計極細
  6
CONTINUOUS
 62
    9
 10
1305.5974883416525
 20
1522.210728539304
 40
37.630656728658437
 50
288.07291800000053
 51
297.32522600000027
  0
ARC
  8
_0-0_計極細
  6
CONTINUOUS
 62
    9
 10
1305.5974883416525
 20
1522.210728539304
 40
27.094072844634091
 50
283.31934900000215
 51
296.28378000000021
  0
ARC
  8
_0-0_計極細
  6
CONTINUOUS
 62
    9
 10
1319.544180401143
 20
1483.5038290073023
 40
0.501740082747087
 50
210.00000000005619
 51
289.81487200001084
  0
ARC
  8
_0-0_計極細
  6
CONTINUOUS
 62
    9
 10
1314.3204371357924
 20
1482.5167738708558
 40
1.0034861863992508
 50
282.39403400005705
 51
29.999999999989686
  0
ARC
  8
_0-0_計極細
  6
CONTINUOUS
 62
    9
 10
1305.5974883416525
 20
1522.210728539304
 40
37.630656728658437
 50
302.67477399999979
 51
311.9270819999997
  0
ARC
  8
_0-0_計極細
  6
CONTINUOUS
 62
    9
 10
1328.2610119557253
 20
1488.475519123431
 40
1.0034861863992508
 50
210.00000000001219
 51
303.89344999999258
  0
ARC
  8
_0-0_計極細
  6
CONTINUOUS
 62
    9
 10
1332.1453025314031
 20
1490.7790873012084
 40
0.501740082747087
 50
310.18512800003361
 51
29.999999999933351
  0
ARC
  8
_0-0_計極細
  6
CONTINUOUS
 62
    9
 10
1323.4812803352488
 20
1485.7159336160587
 40
1.0034861863992508
 50
296.10655000000122
 51
30.000000000012179
  0
LINE
  8
_0-0_計極細
  6
CONTINUOUS
 62
    9
 10
1271.3143283965701
 20
1501.3884338230828
 11
1289.2305188803803
 21
1501.3884338230828
  0
ARC
  8
_0-0_計極細
  6
CONTINUOUS
 62
    9
 10
1283.7265807554818
 20
1553.5696071395523
 40
1.0034861863992508
 50
269.99999999999977
 51
30.000000000051159
  0
LINE
  8
_0-0_計極細
  6
CONTINUOUS
 62
    9
 10
1273.9927159780773
 20
1549.0539283321127
 11
1287.2027503014485
 21
1549.0539283321127
  0
LINE
  8
_0-0_計極細
  6
CONTINUOUS
 62
    9
 10
1271.3143283965701
 20
1543.0330232555261
 11
1289.2305188803803
 21
1543.0330232555261
  0
LINE
  8
_0-0_計極細
  6
CONTINUOUS
 62
    9
 10
1268.0446879365404
 20
1539.5208306344875
 11
1292.7066884263481
 21
1539.5208306344875
  0
LINE
  8
_0-0_計極細
  6
CONTINUOUS
 62
    9
 10
1266.8600447581966
 20
1533.4999255579021
 11
1294.7344570052815
 21
1533.4999255579021
  0
LINE
  8
_0-0_計極細
  6
CONTINUOUS
 62
    9
 10
1265.1029881133159
 20
1529.9877329368619
 11
1298.2106265512468
 21
1529.9877329368619
  0
LINE
  8
_0-0_計極細
  6
CONTINUOUS
 62
    9
 10
1265.0501787548897
 20
1523.9668278602765
 11
1300.2383951301808
 21
1523.9668278602765
  0
LINE
  8
_0-0_計極細
  6
CONTINUOUS
 62
    9
 10
1268.0446879365404
 20
1504.9006264441221
 11
1292.7066884263481
 21
1504.9006264441221
  0
LINE
  8
_0-0_計極細
  6
CONTINUOUS
 62
    9
 10
1266.8600447581966
 20
1510.9215315207077
 11
1294.7344570052815
 21
1510.9215315207077
  0
LINE
  8
_0-0_計極細
  6
CONTINUOUS
 62
    9
 10
1265.1029881133159
 20
1514.4337241417477
 11
1298.2106265512468
 21
1514.4337241417477
  0
LINE
  8
_0-0_計極細
  6
CONTINUOUS
 62
    9
 10
1265.0501787548897
 20
1520.4546292183315
 11
1300.2383951301808
 21
1520.4546292183315
  0
ARC
  8
_0-0_計極細
  6
CONTINUOUS
 62
    9
 10
1305.5974883416525
 20
1522.210728539304
 40
27.094072844634091
 50
140.2909829999995
 51
155.37568199999961
  0
ARC
  8
_0-0_計極細
  6
CONTINUOUS
 62
    9
 10
1305.5974883416525
 20
1522.210728539304
 40
37.630656728658437
 50
152.61289199999976
 51
162.54239699999948
  0
ARC
  8
_0-0_計極細
  6
CONTINUOUS
 62
    9
 10
1266.8600447581966
 20
1534.5034117443026
 40
1.0034861863992508
 50
162.39403400002894
 51
269.99999999999977
  0
ARC
  8
_0-0_計極細
  6
CONTINUOUS
 62
    9
 10
1271.3143283965701
 20
1500.3849476366822
 40
1.0034861863992508
 50
89.999999999999915
 51
212.48216399999936
  0
ARC
  8
_0-0_計極細
  6
CONTINUOUS
 62
    9
 10
1305.5974883416525
 20
1522.210728539304
 40
37.630656728658437
 50
168.07291799999925
 51
177.3252260000001
  0
ARC
  8
_0-0_計極細
  6
CONTINUOUS
 62
    9
 10
1305.5974883416525
 20
1522.210728539304
 40
37.630656728658437
 50
182.67477399999885
 51
191.9270819999997
  0
ARC
  8
_0-0_計極細
  6
CONTINUOUS
 62
    9
 10
1305.5974883416525
 20
1522.210728539304
 40
37.630656728658437
 50
197.45760299999952
 51
207.38710799999927
  0
ARC
  8
_0-0_計極細
  6
CONTINUOUS
 62
    9
 10
1265.0501787548897
 20
1519.4511490528382
 40
1.0034861863992508
 50
89.999999999999915
 51
183.89344999999844
  0
ARC
  8
_0-0_計極細
  6
CONTINUOUS
 62
    9
 10
1266.8600447581966
 20
1509.9180453343088
 40
1.0034861863992508
 50
89.999999999999915
 51
197.60596599999548
  0
ARC
  8
_0-0_計極細
  6
CONTINUOUS
 62
    9
 10
1268.0446879365404
 20
1505.4023665268683
 40
0.501740082747087
 50
204.11293800004927
 51
269.99999999999977
  0
ARC
  8
_0-0_計極細
  6
CONTINUOUS
 62
    9
 10
1305.5974883416525
 20
1522.210728539304
 40
27.094072844634091
 50
163.31934899999922
 51
176.2837799999995
  0
ARC
  8
_0-0_計極細
  6
CONTINUOUS
 62
    9
 10
1305.5974883416525
 20
1522.210728539304
 40
27.094072844634091
 50
183.71621999999917
 51
196.68065099999947
  0
ARC
  8
_0-0_計極細
  6
CONTINUOUS
 62
    9
 10
1305.5974883416525
 20
1522.210728539304
 40
27.094072844634091
 50
204.62431799999914
 51
219.70901699999865
  0
ARC
  8
_0-0_計極細
  6
CONTINUOUS
 62
    9
 10
1268.0446879365404
 20
1539.0190905517416
 40
0.501740082747087
 50
89.999999999999915
 51
155.88706199995036
  0
ARC
  8
_0-0_計極細
  6
CONTINUOUS
 62
    9
 10
1271.3143283965701
 20
1544.0365094419269
 40
1.0034861863992508
 50
147.51783600000024
 51
269.99999999999977
  0
ARC
  8
_0-0_計極細
  6
CONTINUOUS
 62
    9
 10
1305.5974883416525
 20
1522.210728539304
 40
37.630656728658437
 50
123.68035400000058
 51
126.22847699999969
  0
ARC
  8
_0-0_計極細
  6
CONTINUOUS
 62
    9
 10
1305.5974883416525
 20
1522.210728539304
 40
37.630656728658437
 50
134.49322399999971
 51
146.40400499999933
  0
ARC
  8
_0-0_計極細
  6
CONTINUOUS
 62
    9
 10
1273.9927159780773
 20
1548.5521882493663
 40
0.501740082747087
 50
89.999999999999915
 51
140.18999100005377
  0
ARC
  8
_0-0_計極細
  6
CONTINUOUS
 62
    9
 10
1279.7456004651795
 20
1553.5696071395523
 40
1.0034861863992508
 50
129.50177000000534
 51
269.99999999999977
  0
LINE
  8
_0-0_計極細
  6
CONTINUOUS
 62
    9
 10
1279.7456004651795
 20
1552.5661269740579
 11
1283.7265807554818
 21
1552.5661269740579
  0
ARC
  8
_0-0_計極細
  6
CONTINUOUS
 62
    9
 10
1305.5974883416525
 20
1522.210728539304
 40
37.630656728658437
 50
77.457603000000148
 51
87.387107999999586
  0
ARC
  8
_0-0_計極細
  6
CONTINUOUS
 62
    9
 10
1305.5974883416525
 20
1522.210728539304
 40
37.630656728658437
 50
77.457603000000148
 51
87.387107999999586
  0
ARC
  8
_0-0_計極細
  6
CONTINUOUS
 62
    9
 10
1310.6669097889867
 20
1518.9494029491866
 40
1.0034861863992508
 50
89.999999999999915
 51
209.9999999999732
  0
ARC
  8
_0-0_計極細
  6
CONTINUOUS
 62
    9
 10
1310.6669097889867
 20
1525.4720541294246
 40
1.0034861863992508
 50
150.00000000002643
 51
269.99999999999977
  0
ARC
  8
_0-0_計極細
  6
CONTINUOUS
 62
    9
 10
1309.8174263126343
 20
1563.1365904909467
 40
0.501740082747087
 50
84.112937999972772
 51
150.00000000001438
  0
LINE
  8
_0-0_計極細
  6
CONTINUOUS
 62
    9
 10
1315.189482532737
 20
1561.4029371040999
 11
1301.2522794196461
 21
1537.2629912307684
  0
LINE
  8
_0-0_計極細
  6
CONTINUOUS
 62
    9
 10
1319.1096637235764
 20
1561.1684951022289
 11
1302.5558414941588
 21
1532.4964393715029
  0
LINE
  8
_0-0_計極細
  6
CONTINUOUS
 62
    9
 10
1324.3503197112873
 20
1558.2037773588979
 11
1306.7562175445473
 21
1527.729893533143
  0
LINE
  8
_0-0_計極細
  6
CONTINUOUS
 62
    9
 10
1303.5905219897595
 20
1530.2025768927094
 11
1303.5905219897595
 21
1534.2885617675481
  0
LINE
  8
_0-0_計極細
  6
CONTINUOUS
 62
    9
 10
1304.0922620725064
 20
1529.3335375166705
 11
1304.0922620725064
 21
1535.1576071644911
  0
ARC
  8
_0-0_計極細
  6
CONTINUOUS
 62
    9
 10
1294.7344570052815
 20
1534.5034117443026
 40
1.0034861863992508
 50
269.99999999999977
 51
30.000000000012179
  0
LINE
  8
_0-0_計極細
  6
CONTINUOUS
 62
    9
 10
1307.1027146107999
 20
1528.3300513302729
 11
1307.1027146107999
 21
1540.3718614834424
  0
LINE
  8
_0-0_計極細
  6
CONTINUOUS
 62
    9
 10
1307.6044607144513
 20
1529.1990967272154
 11
1307.6044607144513
 21
1541.2409068803877
  0
ARC
  8
_0-0_計極細
  6
CONTINUOUS
 62
    9
 10
1294.7344570052815
 20
1509.9180453343088
 40
1.0034861863992508
 50
329.99999999996464
 51
89.999999999999545
  0
ARC
  8
_0-0_計極細
  6
CONTINUOUS
 62
    9
 10
1292.7066884263481
 20
1505.4023665268683
 40
0.501740082747087
 50
269.99999999999977
 51
329.9999999999431
  0
ARC
  8
_0-0_計極細
  6
CONTINUOUS
 62
    9
 10
1305.5974883416525
 20
1522.210728539304
 40
27.094072844634091
 50
230.22103899999954
 51
235.21980799999949
  0
ARC
  8
_0-0_計極細
  6
CONTINUOUS
 62
    9
 10
1289.2305188803803
 20
1500.3849476366822
 40
1.0034861863992508
 50
329.9999999999871
 51
89.999999999999545
  0
ARC
  8
_0-0_計極細
  6
CONTINUOUS
 62
    9
 10
1297.4864260677305
 20
1502.6427870404027
 40
0.501740082747087
 50
149.9999999999884
 51
210.00000000005619
  0
LINE
  8
_0-0_計極細
  6
CONTINUOUS
 62
    9
 10
1303.5905219897595
 20
1510.1328953110612
 11
1303.5905219897595
 21
1514.2188801859002
  0
LINE
  8
_0-0_計極細
  6
CONTINUOUS
 62
    9
 10
1304.0922620725064
 20
1509.2638499141165
 11
1304.0922620725064
 21
1515.0879195619384
  0
ARC
  8
_0-0_計極細
  6
CONTINUOUS
 62
    9
 10
1298.2106265512468
 20
1514.9354702453991
 40
0.501740082747087
 50
269.99999999999977
 51
330.00000000006594
  0
ARC
  8
_0-0_計極細
  6
CONTINUOUS
 62
    9
 10
1302.9903641926317
 20
1512.175884738027
 40
0.501740082747087
 50
150.00000000004732
 51
209.99999999990737
  0
ARC
  8
_0-0_計極細
  6
CONTINUOUS
 62
    9
 10
1300.3832340227018
 20
1506.6567257650941
 40
1.0034861863992508
 50
30.000000000012541
 51
149.99999999998747
  0
ARC
  8
_0-0_計極細
  6
CONTINUOUS
 62
    9
 10
1302.9903641926317
 20
1532.2455723405819
 40
0.501740082747087
 50
150.00000000004732
 51
209.99999999990737
  0
ARC
  8
_0-0_計極細
  6
CONTINUOUS
 62
    9
 10
1305.8871721476019
 20
1528.2316336158906
 40
1.0034861863992508
 50
210.00000000005113
 51
330.00000000002603
  0
ARC
  8
_0-0_計極細
  6
CONTINUOUS
 62
    9
 10
1298.2106265512468
 20
1529.4859868332092
 40
0.501740082747087
 50
29.999999999933703
 51
89.999999999999929
  0
ARC
  8
_0-0_計極細
  6
CONTINUOUS
 62
    9
 10
1300.2383951301808
 20
1524.9703080257711
 40
1.0034861863992508
 50
269.99999999999977
 51
29.999999999989686
  0
LINE
  8
_0-0_計極細
  6
CONTINUOUS
 62
    9
 10
1307.1027146107999
 20
1504.0495955951665
 11
1307.1027146107999
 21
1516.0914057483383
  0
LINE
  8
_0-0_計極細
  6
CONTINUOUS
 62
    9
 10
1307.6044607144513
 20
1503.1805501982235
 11
1307.6044607144513
 21
1515.2223603513935
  0
ARC
  8
_0-0_計極細
  6
CONTINUOUS
 62
    9
 10
1305.8871721476019
 20
1528.2316336158906
 40
1.0034861863992508
 50
253.22134500003193
 51
330.00000000002603
  0
LINE
  8
_0-0_計極細
  6
CONTINUOUS
 62
    9
 10
1304.7064305157483
 20
1562.3119613107538
 11
1295.7483412947477
 21
1546.7960889283927
  0
ARC
  8
_0-0_計極細
  6
CONTINUOUS
 62
    9
 10
1305.5974883416525
 20
1522.210728539304
 40
37.630656728658437
 50
93.595994999999121
 51
105.50677599999949
  0
LINE
  8
_0-0_計極細
  6
CONTINUOUS
 62
    9
 10
1298.152982406044
 20
1563.0028661891979
 11
1291.5479652443591
 21
1551.5626407876573
  0
LINE
  8
_0-0_計極細
  6
CONTINUOUS
 62
    9
 10
1309.3829036141628
 20
1563.3874635427737
 11
1297.0519033692576
 21
1542.0295430900321
  0
ARC
  8
_0-0_計極細
  6
CONTINUOUS
 62
    9
 10
1297.4864260677305
 20
1541.7786700382069
 40
0.501740082747087
 50
149.9999999999884
 51
210.00000000001123
  0
ARC
  8
_0-0_計極細
  6
CONTINUOUS
 62
    9
 10
1305.5974883416525
 20
1522.210728539304
 40
27.094072844634091
 50
110.2210389999981
 51
115.21980799999808
  0
ARC
  8
_0-0_計極細
  6
CONTINUOUS
 62
    9
 10
1294.8792958978036
 20
1547.2978350320457
 40
1.0034861863992508
 50
209.99999999998968
 51
330.00000000002257
  0
ARC
  8
_0-0_計極細
  6
CONTINUOUS
 62
    9
 10
1291.9824879428306
 20
1551.3117677358312
 40
0.501740082747087
 50
150.00000000002132
 51
209.99999999993332
  0
ARC
  8
_0-0_計極細
  6
CONTINUOUS
 62
    9
 10
1305.5974883416525
 20
1522.210728539304
 40
37.630656728658437
 50
113.77152300000034
 51
116.31964599999986
  0
ARC
  8
_0-0_計極細
  6
CONTINUOUS
 62
    9
 10
1291.3658509285065
 20
1560.2785631855738
 40
1.0034861863992508
 50
330.00000000004854
 51
110.49822999991692
  0
ARC
  8
_0-0_計極細
  6
CONTINUOUS
 62
    9
 10
1289.375357772904
 20
1556.8309327296693
 40
1.0034861863992508
 50
210.00000000001219
 51
329.9999999999871
  0
LINE
  8
_0-0_計極細
  6
CONTINUOUS
 62
    9
 10
1292.2348903045477
 20
1559.7768231028267
 11
1290.2444031698483
 21
1556.3291926469244
  0
ARC
  8
_0-0_計極細
  6
CONTINUOUS
 62
    9
 10
1305.5974883416525
 20
1522.210728539304
 40
27.094072844634091
 50
124.78019199999905
 51
129.7789609999995
  0
ARC
  8
_0-0_計極細
  6
CONTINUOUS
 62
    9
 10
1287.2027503014485
 20
1548.5521882493663
 40
0.501740082747087
 50
30.000000000011593
 51
89.999999999999915
  0
ARC
  8
_0-0_計極細
  6
CONTINUOUS
 62
    9
 10
1289.2305188803803
 20
1544.0365094419269
 40
1.0034861863992508
 50
269.99999999999977
 51
30.000000000012179
  0
ARC
  8
_0-0_計極細
  6
CONTINUOUS
 62
    9
 10
1292.7066884263481
 20
1539.0190905517416
 40
0.501740082747087
 50
30.000000000011593
 51
89.999999999999915
  0
LINE
  8
_0-0_計極細
  6
CONTINUOUS
 62
    9
 10
1304.0922620725064
 20
1542.1819924065721
 11
1304.0922620725064
 21
1549.2629560936571
  0
LINE
  8
_0-0_計極細
  6
CONTINUOUS
 62
    9
 10
1303.5905219897595
 20
1541.3129530305334
 11
1303.5905219897595
 21
1549.2303649344772
  0
ARC
  8
_0-0_計極細
  6
CONTINUOUS
 62
    9
 10
1303.8373911397098
 20
1562.8137074144072
 40
1.0034861863992508
 50
329.9999999999871
 51
92.482163999979747
  0
ARC
  8
_0-0_計極細
  6
CONTINUOUS
 62
    9
 10
1305.5974883416525
 20
1522.210728539304
 40
27.094072844634091
 50
84.624317999998866
 51
99.709016999999434
  0
ARC
  8
_0-0_計極細
  6
CONTINUOUS
 62
    9
 10
1298.5875051045155
 20
1562.7519931373727
 40
0.501740082747087
 50
99.810009000050982
 51
149.9999999999884
  0
ARC
  8
_0-0_計極細
  6
CONTINUOUS
 62
    9
 10
1300.3832340227018
 20
1537.7647313135142
 40
1.0034861863992508
 50
210.00000000001219
 51
329.9999999999871
  0
ARC
  8
_0-0_計極細
  6
CONTINUOUS
 62
    9
 10
1305.5974883416525
 20
1522.210728539304
 40
27.094072844634091
 50
84.624317999998866
 51
89.999999999999915
  0
ARC
  8
_0-0_計極細
  6
CONTINUOUS
 62
    9
 10
1305.5974883416525
 20
1522.210728539304
 40
27.094072844634091
 50
20.290983000001241
 51
35.375682000000126
  0
LINE
  8
_0-0_計極細
  6
CONTINUOUS
 62
    9
 10
1332.579825229876
 20
1553.3914967255769
 11
1316.026003000457
 21
1524.7194409948499
  0
LINE
  8
_0-0_計極細
  6
CONTINUOUS
 62
    9
 10
1327.391972579687
 20
1556.4476840588306
 11
1309.797864392041
 21
1525.9737942121701
  0
ARC
  8
_0-0_計極細
  6
CONTINUOUS
 62
    9
 10
1305.5974883416525
 20
1522.210728539304
 40
27.094072844634091
 50
303.71622000000229
 51
316.6806509999999
  0
ARC
  8
_0-0_計極細
  6
CONTINUOUS
 62
    9
 10
1321.6747800178789
 20
1518.9494029491866
 40
1.0034861863992508
 50
89.999999999999915
 51
210.00000000001216
  0
ARC
  8
_0-0_計極細
  6
CONTINUOUS
 62
    9
 10
1315.5914803019855
 20
1519.4511490528382
 40
0.501740082747087
 50
30.000000000056566
 51
89.999999999999915
  0
ARC
  8
_0-0_計極細
  6
CONTINUOUS
 62
    9
 10
1321.6747800178789
 20
1525.4720541294246
 40
1.0034861863992508
 50
149.99999999998747
 51
269.99999999999977
  0
ARC
  8
_0-0_計極細
  6
CONTINUOUS
 62
    9
 10
1315.5914803019855
 20
1524.9703080257711
 40
0.501740082747087
 50
269.99999999999977
 51
329.9999999999431
  0
ARC
  8
_0-0_計極細
  6
CONTINUOUS
 62
    9
 10
1305.5974883416525
 20
1522.210728539304
 40
27.094072844634091
 50
324.6243180000003
 51
339.70901700000019
  0
ARC
  8
_0-0_計極細
  6
CONTINUOUS
 62
    9
 10
1305.5974883416525
 20
1522.210728539304
 40
27.094072844634091
 50
350.22103899999968
 51
355.21980800000068
  0
ARC
  8
_0-0_計極細
  6
CONTINUOUS
 62
    9
 10
1305.5974883416525
 20
1522.210728539304
 40
27.094072844634091
 50
4.7801919999998796
 51
9.778961000000896
  0
ARC
  8
_0-0_計極細
  6
CONTINUOUS
 62
    9
 10
1332.6826562676783
 20
1518.9494029491866
 40
1.0034861863992508
 50
89.999999999999915
 51
210.00000000001216
  0
ARC
  8
_0-0_計極細
  6
CONTINUOUS
 62
    9
 10
1326.5993565517849
 20
1519.4511490528382
 40
0.501740082747087
 50
30.0000000000306
 51
89.999999999999915
  0
ARC
  8
_0-0_計極細
  6
CONTINUOUS
 62
    9
 10
1332.6826562676783
 20
1525.4720541294246
 40
1.0034861863992508
 50
149.99999999998747
 51
269.99999999999977
  0
ARC
  8
_0-0_計極細
  6
CONTINUOUS
 62
    9
 10
1326.5993565517849
 20
1524.9703080257711
 40
0.501740082747087
 50
269.99999999999977
 51
329.99999999996902
  0
ARC
  8
_0-0_計極細
  6
CONTINUOUS
 62
    9
 10
1305.5974883416525
 20
1522.210728539304
 40
27.094072844634091
 50
43.319349000000443
 51
56.283779999998394
  0
ARC
  8
_0-0_計極細
  6
CONTINUOUS
 62
    9
 10
1305.5974883416525
 20
1522.210728539304
 40
37.630656728658437
 50
62.674773999999701
 51
71.927081999999317
  0
ARC
  8
_0-0_計極細
  6
CONTINUOUS
 62
    9
 10
1305.5974883416525
 20
1522.210728539304
 40
27.094072844634091
 50
63.716219999999879
 51
76.680650999997951
  0
ARC
  8
_0-0_計極細
  6
CONTINUOUS
 62
    9
 10
1319.544180401143
 20
1560.9176280713066
 40
0.501740082747087
 50
70.185127999988836
 51
149.9999999999884
  0
ARC
  8
_0-0_計極細
  6
CONTINUOUS
 62
    9
 10
1314.3204371357924
 20
1561.9046832077538
 40
1.0034861863992508
 50
330.00000000000961
 51
77.605965999942228
  0
ARC
  8
_0-0_計極細
  6
CONTINUOUS
 62
    9
 10
1305.5974883416525
 20
1522.210728539304
 40
37.630656728658437
 50
48.072918000000854
 51
57.3252260000002
  0
ARC
  8
_0-0_計極細
  6
CONTINUOUS
 62
    9
 10
1328.2610119557253
 20
1555.9459379551788
 40
1.0034861863992508
 50
56.106549999992559
 51
150.00000000000995
  0
ARC
  8
_0-0_計極細
  6
CONTINUOUS
 62
    9
 10
1332.1453025314031
 20
1553.6423637564972
 40
0.501740082747087
 50
330.00000000006594
 51
49.814871999965682
  0
ARC
  8
_0-0_計極細
  6
CONTINUOUS
 62
    9
 10
1323.4812803352488
 20
1558.7055234625495
 40
1.0034861863992508
 50
329.9999999999871
 51
63.893449999998062
  0
ARC
  8
_0-0_計極細
  6
CONTINUOUS
 62
    9
 10
1335.6119891518731
 20
1494.8094570758528
 40
1.0034861863992508
 50
210.00000000001219
 51
317.60596600000804
  0
ARC
  8
_0-0_計極細
  6
CONTINUOUS
 62
    9
 10
1338.9303628175933
 20
1498.0932225791921
 40
0.501740082747087
 50
324.11293799996702
 51
29.99999999998526
  0
ARC
  8
_0-0_計極細
  6
CONTINUOUS
 62
    9
 10
1305.5974883416525
 20
1522.210728539304
 40
37.630656728658437
 50
14.493223999999607
 51
26.404005000000225
  0
LINE
  8
_0-0_計極細
  6
CONTINUOUS
 62
    9
 10
1344.6467726617407
 20
1536.1596663963892
 11
1338.0417555000558
 21
1524.7194409948499
  0
ARC
  8
_0-0_計極細
  6
CONTINUOUS
 62
    9
 10
1345.6810256730819
 20
1515.5017724932823
 40
1.0034861863992508
 50
209.99999999998968
 51
350.4982300000064
  0
ARC
  8
_0-0_計極細
  6
CONTINUOUS
 62
    9
 10
1345.6810256730819
 20
1528.9196845853276
 40
1.0034861863992508
 50
9.5017699999932326
 51
149.99999999998747
  0
ARC
  8
_0-0_計極細
  6
CONTINUOUS
 62
    9
 10
1305.5974883416525
 20
1522.210728539304
 40
37.630656728658437
 50
3.6803540000001314
 51
6.2284770000002974
  0
ARC
  8
_0-0_計極細
  6
CONTINUOUS
 62
    9
 10
1305.5974883416525
 20
1522.210728539304
 40
37.630656728658437
 50
353.77152300000074
 51
356.3196460000002
  0
ARC
  8
_0-0_計極細
  6
CONTINUOUS
 62
    9
 10
1305.5974883416525
 20
1522.210728539304
 40
37.630656728658437
 50
333.59599500000002
 51
345.50677600000074
  0
ARC
  8
_0-0_計極細
  6
CONTINUOUS
 62
    9
 10
1341.640751509585
 20
1503.4335305668253
 40
1.0034861863992508
 50
209.99999999998968
 51
332.48216400001218
  0
ARC
  8
_0-0_計極細
  6
CONTINUOUS
 62
    9
 10
1343.6905325174766
 20
1518.9494029491866
 40
1.0034861863992508
 50
89.999999999999915
 51
210.00000000001216
  0
ARC
  8
_0-0_計極細
  6
CONTINUOUS
 62
    9
 10
1337.6072328015832
 20
1519.4511490528382
 40
0.501740082747087
 50
29.999999999978677
 51
89.999999999999901
  0
LINE
  8
_0-0_計極細
  6
CONTINUOUS
 62
    9
 10
1344.811980276138
 20
1515.0000324105358
 11
1342.8214931414382
 21
1518.4476628664399
  0
LINE
  8
_0-0_計極細
  6
CONTINUOUS
 62
    9
 10
1344.6467726617407
 20
1508.2617906822213
 11
1338.0417555000558
 21
1519.7020160837583
  0
ARC
  8
_0-0_計極細
  6
CONTINUOUS
 62
    9
 10
1343.6905325174766
 20
1525.4720541294246
 40
1.0034861863992508
 50
149.99999999998747
 51
269.99999999999977
  0
ARC
  8
_0-0_計極細
  6
CONTINUOUS
 62
    9
 10
1337.6072328015832
 20
1524.9703080257711
 40
0.501740082747087
 50
269.99999999999977
 51
330.00000000002098
  0
LINE
  8
_0-0_計極細
  6
CONTINUOUS
 62
    9
 10
1344.811980276138
 20
1529.4214246680738
 11
1342.8214931414382
 21
1525.9737942121701
  0
ARC
  8
_0-0_計極細
  6
CONTINUOUS
 62
    9
 10
1335.6119891518731
 20
1549.6120000027565
 40
1.0034861863992508
 50
42.394033999991557
 51
149.99999999998747
  0
ARC
  8
_0-0_計極細
  6
CONTINUOUS
 62
    9
 10
1338.9303628175933
 20
1546.3282344994172
 40
0.501740082747087
 50
330.00000000001404
 51
35.887062000032259
  0
ARC
  8
_0-0_計極細
  6
CONTINUOUS
 62
    9
 10
1341.640751509585
 20
1540.9879265117843
 40
1.0034861863992508
 50
27.517836000010465
 51
149.99999999998747
  0
LINE
  8
_0-0_計極細
  6
CONTINUOUS
 62
    9
 10
1307.1027146107999
 20
1495.1584998475857
 11
1307.1027146107999
 21
1497.0252114976797
  0
LINE
  8
_0-0_計極細
  6
CONTINUOUS
 62
    9
 10
1307.6044607144513
 20
1495.1910903995142
 11
1307.6044607144513
 21
1496.1561614661214
  0
LINE
  8
_0-0_計極細
  6
CONTINUOUS
 62
    9
 10
1307.1027146107999
 20
1547.3962430535275
 11
1307.1027146107999
 21
1549.2629572310218
  0
LINE
  8
_0-0_計極細
  6
CONTINUOUS
 62
    9
 10
1307.6044607144513
 20
1548.2652928683299
 11
1307.6044607144513
 21
1549.2303666790935
  0
LINE
  8
_0-1_計細線
  6
CONTINUOUS
 62
    9
 10
1373.5964912280706
 20
1582.210728539304
 11
403.5964912280707
 21
1582.210728539304
  0
LINE
  8
_0-1_計細線
  6
CONTINUOUS
 62
    9
 10
403.5964912280707
 20
1582.210728539304
 11
403.5964912280707
 21
1462.210728539304
  0
LINE
  8
_0-1_計細線
  6
CONTINUOUS
 62
    9
 10
403.5964912280707
 20
1462.210728539304
 11
1373.5964912280706
 21
1462.210728539304
  0
LINE
  8
_0-1_計細線
  6
CONTINUOUS
 62
    9
 10
1373.5964912280706
 20
1462.210728539304
 11
1373.5964912280706
 21
1582.210728539304
  0
LINE
  8
_0-1_計細線
  6
CONTINUOUS
 62
    9
 10
1277.5964912280706
 20
1582.210728539304
 11
1277.5964912280706
 21
1580.2107285393038
  0
LINE
  8
_0-1_計細線
  6
CONTINUOUS
 62
    9
 10
1232.3612341322632
 20
1562.210728539304
 11
1251.3122199806085
 21
1562.210728539304
  0
LINE
  8
_0-1_計細線
  6
CONTINUOUS
 62
    9
 10
1277.5964912280706
 20
1580.2107285393038
 11
1265.4543556043395
 21
1568.0685929155729
  0
ARC
  8
_0-1_計細線
  6
CONTINUOUS
 62
    9
 10
1251.3122199806085
 20
1582.210728539304
 40
20
 50
269.99999999999977
 51
314.99999999999966
  0
LINE
  8
_0-1_計細線
  6
CONTINUOUS
 62
    9
 10
1333.5964912280706
 20
1582.210728539304
 11
1333.5964912280706
 21
1580.2107285393038
  0
LINE
  8
_0-1_計細線
  6
CONTINUOUS
 62
    9
 10
1333.5964912280706
 20
1580.2107285393038
 11
1345.7386268518012
 21
1568.0685929155729
  0
LINE
  8
_0-1_計細線
  6
CONTINUOUS
 62
    9
 10
1359.8807624755323
 20
1562.210728539304
 11
1373.5964912280706
 21
1562.210728539304
  0
ARC
  8
_0-1_計細線
  6
CONTINUOUS
 62
    9
 10
1359.8807624755323
 20
1582.210728539304
 40
20
 50
224.99999999999963
 51
269.99999999999977
  0
LINE
  8
_0-1_計細線
  6
CONTINUOUS
 62
    9
 10
1277.5964912280706
 20
1462.210728539304
 11
1277.5964912280706
 21
1464.2107285393038
  0
LINE
  8
_0-1_計細線
  6
CONTINUOUS
 62
    9
 10
1217.8317483238866
 20
1482.210728539304
 11
1251.3122199806085
 21
1482.210728539304
  0
LINE
  8
_0-1_計細線
  6
CONTINUOUS
 62
    9
 10
1277.5964912280706
 20
1464.2107285393038
 11
1265.4543556043395
 21
1476.3528641630344
  0
ARC
  8
_0-1_計細線
  6
CONTINUOUS
 62
    9
 10
1251.3122199806085
 20
1462.210728539304
 40
20
 50
44.999999999999076
 51
89.999999999999915
  0
LINE
  8
_0-1_計細線
  6
CONTINUOUS
 62
    9
 10
1333.5964912280706
 20
1462.210728539304
 11
1333.5964912280706
 21
1464.2107285393038
  0
LINE
  8
_0-1_計細線
  6
CONTINUOUS
 62
    9
 10
1333.5964912280706
 20
1464.2107285393038
 11
1345.7386268518012
 21
1476.3528641630344
  0
LINE
  8
_0-1_計細線
  6
CONTINUOUS
 62
    9
 10
1359.8807624755323
 20
1482.210728539304
 11
1373.5964912280706
 21
1482.210728539304
  0
ARC
  8
_0-1_計細線
  6
CONTINUOUS
 62
    9
 10
1359.8807624755323
 20
1462.210728539304
 40
20
 50
89.999999999999915
 51
135.00000000000091
  0
ARC
  8
_0-1_計細線
  6
CONTINUOUS
 62
    9
 10
1589.0964912280708
 20
1581.210728539304
 40
0.5
 50
179.99999999999983
 51
269.99999999999977
  0
LINE
  8
_0-1_計細線
  6
CONTINUOUS
 62
    9
 10
1589.0964912280708
 20
1580.710728539304
 11
1591.096491228071
 21
1580.710728539304
  0
ARC
  8
_0-1_計細線
  6
CONTINUOUS
 62
    9
 10
1589.0964912280708
 20
1463.210728539304
 40
0.5
 50
89.999999999999915
 51
179.99999999999983
  0
LINE
  8
_0-1_計細線
  6
CONTINUOUS
 62
    9
 10
1589.0964912280708
 20
1463.7107285393038
 11
1591.096491228071
 21
1463.7107285393038
  0
ARC
  8
_0-1_計細線
  6
CONTINUOUS
 62
    9
 10
1591.096491228071
 20
1579.2107285393038
 40
1.5000000000000002
 50
0
 51
89.999999999999915
  0
LINE
  8
_0-1_計細線
  6
CONTINUOUS
 62
    9
 10
1592.596491228071
 20
1465.2107285393038
 11
1592.596491228071
 21
1579.2107285393038
  0
ARC
  8
_0-1_計細線
  6
CONTINUOUS
 62
    9
 10
1591.096491228071
 20
1465.2107285393038
 40
1.5000000000000002
 50
269.99999999999977
 51
359.99999999999966
  0
LINE
  8
_0-0_計極細
  6
CENTER1
 62
    9
 10
1362.0964912280706
 20
1585.8614479655998
 11
1362.0964912280706
 21
1459.7107285411375
  0
LINE
  8
_0-0_計極細
  6
CENTER1
 62
    9
 10
415.09649122807059
 20
1585.8614479655998
 11
415.09649122807059
 21
1458.1844183438409
  0
LINE
  8
_0-0_計極細
  6
CONTINUOUS
 62
    9
 10
421.84649122807059
 20
1510.5107285394636
 11
421.84649122807059
 21
1516.5107285392639
  0
LINE
  8
_0-0_計極細
  6
CONTINUOUS
 62
    9
 10
421.84649122807059
 20
1527.9107285392647
 11
421.84649122807059
 21
1533.9107285414716
  0
LINE
  8
_0-0_計極細
  6
CONTINUOUS
 62
    9
 10
421.84649122807059
 20
1545.3107285414719
 11
421.84649122807059
 21
1551.3107285389169
  0
LINE
  8
_0-0_計極細
  6
CONTINUOUS
 62
    9
 10
421.84649122807059
 20
1493.1107285388007
 11
421.84649122807059
 21
1499.110728539463
  0
LINE
  8
_0-0_計極細
  6
CONTINUOUS
 62
    9
 10
421.84649122807059
 20
1562.7107285389172
 11
421.84649122807059
 21
1568.8107285391311
  0
LINE
  8
_0-0_計極細
  6
CONTINUOUS
 62
    9
 10
421.84649122807059
 20
1475.6107285367532
 11
421.84649122807059
 21
1481.7107285387999
  0
LINE
  8
_0-0_計極細
  6
CONTINUOUS
 62
    9
 10
408.34649122807065
 20
1510.5107285394636
 11
408.34649122807065
 21
1516.5107285392639
  0
LINE
  8
_0-0_計極細
  6
CONTINUOUS
 62
    9
 10
408.34649122807065
 20
1527.9107285392647
 11
408.34649122807065
 21
1533.9107285414716
  0
LINE
  8
_0-0_計極細
  6
CONTINUOUS
 62
    9
 10
408.34649122807065
 20
1545.3107285414719
 11
408.34649122807065
 21
1551.3107285389169
  0
LINE
  8
_0-0_計極細
  6
CONTINUOUS
 62
    9
 10
408.34649122807065
 20
1493.1107285388007
 11
408.34649122807065
 21
1499.110728539463
  0
LINE
  8
_0-0_計極細
  6
CONTINUOUS
 62
    9
 10
408.34649122807065
 20
1562.7107285389172
 11
408.34649122807065
 21
1568.8107285391311
  0
LINE
  8
_0-0_計極細
  6
CONTINUOUS
 62
    9
 10
408.34649122807065
 20
1475.6107285367532
 11
408.34649122807065
 21
1481.7107285387999
  0
LINE
  8
_0-0_計極細
  6
CENTER1
 62
    9
 10
512.09649122807059
 20
1585.8614479655998
 11
512.09649122807059
 21
1458.1844183438409
  0
LINE
  8
_0-0_計極細
  6
CONTINUOUS
 62
    9
 10
518.84649122807059
 20
1510.5107285394636
 11
518.84649122807059
 21
1516.5107285392639
  0
LINE
  8
_0-0_計極細
  6
CONTINUOUS
 62
    9
 10
518.84649122807059
 20
1527.9107285392647
 11
518.84649122807059
 21
1533.9107285414716
  0
LINE
  8
_0-0_計極細
  6
CONTINUOUS
 62
    9
 10
518.84649122807059
 20
1545.3107285414719
 11
518.84649122807059
 21
1551.3107285389169
  0
LINE
  8
_0-0_計極細
  6
CONTINUOUS
 62
    9
 10
518.84649122807059
 20
1493.1107285388007
 11
518.84649122807059
 21
1499.110728539463
  0
LINE
  8
_0-0_計極細
  6
CONTINUOUS
 62
    9
 10
518.84649122807059
 20
1562.7107285389172
 11
518.84649122807059
 21
1568.8107285391311
  0
LINE
  8
_0-0_計極細
  6
CONTINUOUS
 62
    9
 10
518.84649122807059
 20
1475.6107285367532
 11
518.84649122807059
 21
1481.7107285387999
  0
LINE
  8
_0-0_計極細
  6
CONTINUOUS
 62
    9
 10
505.34649122807053
 20
1510.5107285394636
 11
505.34649122807053
 21
1516.5107285392639
  0
LINE
  8
_0-0_計極細
  6
CONTINUOUS
 62
    9
 10
505.34649122807053
 20
1527.9107285392647
 11
505.34649122807053
 21
1533.9107285414716
  0
LINE
  8
_0-0_計極細
  6
CONTINUOUS
 62
    9
 10
505.34649122807053
 20
1545.3107285414719
 11
505.34649122807053
 21
1551.3107285389169
  0
LINE
  8
_0-0_計極細
  6
CONTINUOUS
 62
    9
 10
505.34649122807053
 20
1493.1107285388007
 11
505.34649122807053
 21
1499.110728539463
  0
LINE
  8
_0-0_計極細
  6
CONTINUOUS
 62
    9
 10
505.34649122807053
 20
1562.7107285389172
 11
505.34649122807053
 21
1568.8107285391311
  0
LINE
  8
_0-0_計極細
  6
CONTINUOUS
 62
    9
 10
505.34649122807053
 20
1475.6107285367532
 11
505.34649122807053
 21
1481.7107285387999
  0
LINE
  8
_0-0_計極細
  6
CENTER1
 62
    9
 10
609.09649122807059
 20
1585.8614479655998
 11
609.09649122807059
 21
1458.1844183438409
  0
LINE
  8
_0-0_計極細
  6
CONTINUOUS
 62
    9
 10
615.84649122807059
 20
1510.5107285394636
 11
615.84649122807059
 21
1516.5107285392639
  0
LINE
  8
_0-0_計極細
  6
CONTINUOUS
 62
    9
 10
615.84649122807059
 20
1527.9107285392647
 11
615.84649122807059
 21
1533.9107285414716
  0
LINE
  8
_0-0_計極細
  6
CONTINUOUS
 62
    9
 10
615.84649122807059
 20
1545.3107285414719
 11
615.84649122807059
 21
1551.3107285389169
  0
LINE
  8
_0-0_計極細
  6
CONTINUOUS
 62
    9
 10
615.84649122807059
 20
1493.1107285388007
 11
615.84649122807059
 21
1499.110728539463
  0
LINE
  8
_0-0_計極細
  6
CONTINUOUS
 62
    9
 10
615.84649122807059
 20
1562.7107285389172
 11
615.84649122807059
 21
1568.8107285391311
  0
LINE
  8
_0-0_計極細
  6
CONTINUOUS
 62
    9
 10
615.84649122807059
 20
1475.6107285367532
 11
615.84649122807059
 21
1481.7107285387999
  0
LINE
  8
_0-0_計極細
  6
CONTINUOUS
 62
    9
 10
602.3464912280707
 20
1510.5107285394636
 11
602.3464912280707
 21
1516.5107285392639
  0
LINE
  8
_0-0_計極細
  6
CONTINUOUS
 62
    9
 10
602.3464912280707
 20
1527.9107285392647
 11
602.3464912280707
 21
1533.9107285414716
  0
LINE
  8
_0-0_計極細
  6
CONTINUOUS
 62
    9
 10
602.3464912280707
 20
1545.3107285414719
 11
602.3464912280707
 21
1551.3107285389169
  0
LINE
  8
_0-0_計極細
  6
CONTINUOUS
 62
    9
 10
602.3464912280707
 20
1493.1107285388007
 11
602.3464912280707
 21
1499.110728539463
  0
LINE
  8
_0-0_計極細
  6
CONTINUOUS
 62
    9
 10
602.3464912280707
 20
1562.7107285389172
 11
602.3464912280707
 21
1568.8107285391311
  0
LINE
  8
_0-0_計極細
  6
CONTINUOUS
 62
    9
 10
602.3464912280707
 20
1475.6107285367532
 11
602.3464912280707
 21
1481.7107285387999
  0
LINE
  8
_0-0_計極細
  6
CENTER1
 62
    9
 10
706.09649122807059
 20
1585.8614479655998
 11
706.09649122807059
 21
1458.1844183438409
  0
LINE
  8
_0-0_計極細
  6
CONTINUOUS
 62
    9
 10
712.8464912280707
 20
1510.5107285394636
 11
712.8464912280707
 21
1516.5107285392639
  0
LINE
  8
_0-0_計極細
  6
CONTINUOUS
 62
    9
 10
712.8464912280707
 20
1527.9107285392647
 11
712.8464912280707
 21
1533.9107285414716
  0
LINE
  8
_0-0_計極細
  6
CONTINUOUS
 62
    9
 10
712.8464912280707
 20
1545.3107285414719
 11
712.8464912280707
 21
1551.3107285389169
  0
LINE
  8
_0-0_計極細
  6
CONTINUOUS
 62
    9
 10
712.8464912280707
 20
1493.1107285388007
 11
712.8464912280707
 21
1499.110728539463
  0
LINE
  8
_0-0_計極細
  6
CONTINUOUS
 62
    9
 10
712.8464912280707
 20
1562.7107285389172
 11
712.8464912280707
 21
1568.8107285391311
  0
LINE
  8
_0-0_計極細
  6
CONTINUOUS
 62
    9
 10
712.8464912280707
 20
1475.6107285367532
 11
712.8464912280707
 21
1481.7107285387999
  0
LINE
  8
_0-0_計極細
  6
CONTINUOUS
 62
    9
 10
699.34649122807059
 20
1510.5107285394636
 11
699.34649122807059
 21
1516.5107285392639
  0
LINE
  8
_0-0_計極細
  6
CONTINUOUS
 62
    9
 10
699.34649122807059
 20
1527.9107285392647
 11
699.34649122807059
 21
1533.9107285414716
  0
LINE
  8
_0-0_計極細
  6
CONTINUOUS
 62
    9
 10
699.34649122807059
 20
1545.3107285414719
 11
699.34649122807059
 21
1551.3107285389169
  0
LINE
  8
_0-0_計極細
  6
CONTINUOUS
 62
    9
 10
699.34649122807059
 20
1493.1107285388007
 11
699.34649122807059
 21
1499.110728539463
  0
LINE
  8
_0-0_計極細
  6
CONTINUOUS
 62
    9
 10
699.34649122807059
 20
1562.7107285389172
 11
699.34649122807059
 21
1568.8107285391311
  0
LINE
  8
_0-0_計極細
  6
CONTINUOUS
 62
    9
 10
699.34649122807059
 20
1475.6107285367532
 11
699.34649122807059
 21
1481.7107285387999
  0
LINE
  8
_0-0_計極細
  6
CENTER1
 62
    9
 10
803.09649122807059
 20
1585.8614479655998
 11
803.09649122807059
 21
1458.1844183438409
  0
LINE
  8
_0-0_計極細
  6
CONTINUOUS
 62
    9
 10
809.8464912280707
 20
1510.5107285394636
 11
809.8464912280707
 21
1516.5107285392639
  0
LINE
  8
_0-0_計極細
  6
CONTINUOUS
 62
    9
 10
809.8464912280707
 20
1527.9107285392647
 11
809.8464912280707
 21
1533.9107285414716
  0
LINE
  8
_0-0_計極細
  6
CONTINUOUS
 62
    9
 10
809.8464912280707
 20
1545.3107285414719
 11
809.8464912280707
 21
1551.3107285389169
  0
LINE
  8
_0-0_計極細
  6
CONTINUOUS
 62
    9
 10
809.8464912280707
 20
1493.1107285388007
 11
809.8464912280707
 21
1499.110728539463
  0
LINE
  8
_0-0_計極細
  6
CONTINUOUS
 62
    9
 10
809.8464912280707
 20
1562.7107285389172
 11
809.8464912280707
 21
1568.8107285391311
  0
LINE
  8
_0-0_計極細
  6
CONTINUOUS
 62
    9
 10
809.8464912280707
 20
1475.6107285367532
 11
809.8464912280707
 21
1481.7107285387999
  0
LINE
  8
_0-0_計極細
  6
CONTINUOUS
 62
    9
 10
796.34649122807059
 20
1510.5107285394636
 11
796.34649122807059
 21
1516.5107285392639
  0
LINE
  8
_0-0_計極細
  6
CONTINUOUS
 62
    9
 10
796.34649122807059
 20
1527.9107285392647
 11
796.34649122807059
 21
1533.9107285414716
  0
LINE
  8
_0-0_計極細
  6
CONTINUOUS
 62
    9
 10
796.34649122807059
 20
1545.3107285414719
 11
796.34649122807059
 21
1551.3107285389169
  0
LINE
  8
_0-0_計極細
  6
CONTINUOUS
 62
    9
 10
796.34649122807059
 20
1493.1107285388007
 11
796.34649122807059
 21
1499.110728539463
  0
LINE
  8
_0-0_計極細
  6
CONTINUOUS
 62
    9
 10
796.34649122807059
 20
1562.7107285389172
 11
796.34649122807059
 21
1568.8107285391311
  0
LINE
  8
_0-0_計極細
  6
CONTINUOUS
 62
    9
 10
796.34649122807059
 20
1475.6107285367532
 11
796.34649122807059
 21
1481.7107285387999
  0
LINE
  8
_0-0_計極細
  6
CENTER1
 62
    9
 10
900.09649122807059
 20
1585.8614479655998
 11
900.09649122807059
 21
1458.1844183438409
  0
LINE
  8
_0-0_計極細
  6
CONTINUOUS
 62
    9
 10
906.84649122807059
 20
1510.5107285394636
 11
906.84649122807059
 21
1516.5107285392639
  0
LINE
  8
_0-0_計極細
  6
CONTINUOUS
 62
    9
 10
906.84649122807059
 20
1527.9107285392647
 11
906.84649122807059
 21
1533.9107285414716
  0
LINE
  8
_0-0_計極細
  6
CONTINUOUS
 62
    9
 10
906.84649122807059
 20
1545.3107285414719
 11
906.84649122807059
 21
1551.3107285389169
  0
LINE
  8
_0-0_計極細
  6
CONTINUOUS
 62
    9
 10
906.84649122807059
 20
1493.1107285388007
 11
906.84649122807059
 21
1499.110728539463
  0
LINE
  8
_0-0_計極細
  6
CONTINUOUS
 62
    9
 10
906.84649122807059
 20
1562.7107285389172
 11
906.84649122807059
 21
1568.8107285391311
  0
LINE
  8
_0-0_計極細
  6
CONTINUOUS
 62
    9
 10
906.84649122807059
 20
1475.6107285367532
 11
906.84649122807059
 21
1481.7107285387999
  0
LINE
  8
_0-0_計極細
  6
CONTINUOUS
 62
    9
 10
893.34649122807059
 20
1510.5107285394636
 11
893.34649122807059
 21
1516.5107285392639
  0
LINE
  8
_0-0_計極細
  6
CONTINUOUS
 62
    9
 10
893.34649122807059
 20
1527.9107285392647
 11
893.34649122807059
 21
1533.9107285414716
  0
LINE
  8
_0-0_計極細
  6
CONTINUOUS
 62
    9
 10
893.34649122807059
 20
1545.3107285414719
 11
893.34649122807059
 21
1551.3107285389169
  0
LINE
  8
_0-0_計極細
  6
CONTINUOUS
 62
    9
 10
893.34649122807059
 20
1493.1107285388007
 11
893.34649122807059
 21
1499.110728539463
  0
LINE
  8
_0-0_計極細
  6
CONTINUOUS
 62
    9
 10
893.34649122807059
 20
1562.7107285389172
 11
893.34649122807059
 21
1568.8107285391311
  0
LINE
  8
_0-0_計極細
  6
CONTINUOUS
 62
    9
 10
893.34649122807059
 20
1475.6107285367532
 11
893.34649122807059
 21
1481.7107285387999
  0
LINE
  8
_0-0_計極細
  6
CENTER1
 62
    9
 10
974.0964912280707
 20
1585.8614479655998
 11
974.0964912280707
 21
1458.1844183438409
  0
LINE
  8
_0-0_計極細
  6
CONTINUOUS
 62
    9
 10
980.84649122807059
 20
1510.5107285394636
 11
980.84649122807059
 21
1516.5107285392639
  0
LINE
  8
_0-0_計極細
  6
CONTINUOUS
 62
    9
 10
980.84649122807059
 20
1527.9107285392647
 11
980.84649122807059
 21
1533.9107285414716
  0
LINE
  8
_0-0_計極細
  6
CONTINUOUS
 62
    9
 10
980.84649122807059
 20
1545.3107285414719
 11
980.84649122807059
 21
1551.3107285389169
  0
LINE
  8
_0-0_計極細
  6
CONTINUOUS
 62
    9
 10
980.84649122807059
 20
1493.1107285388007
 11
980.84649122807059
 21
1499.110728539463
  0
LINE
  8
_0-0_計極細
  6
CONTINUOUS
 62
    9
 10
980.84649122807059
 20
1562.7107285389172
 11
980.84649122807059
 21
1568.8107285391311
  0
LINE
  8
_0-0_計極細
  6
CONTINUOUS
 62
    9
 10
980.84649122807059
 20
1475.6107285367532
 11
980.84649122807059
 21
1481.7107285387999
  0
LINE
  8
_0-0_計極細
  6
CONTINUOUS
 62
    9
 10
967.3464912280707
 20
1510.5107285394636
 11
967.3464912280707
 21
1516.5107285392639
  0
LINE
  8
_0-0_計極細
  6
CONTINUOUS
 62
    9
 10
967.3464912280707
 20
1527.9107285392647
 11
967.3464912280707
 21
1533.9107285414716
  0
LINE
  8
_0-0_計極細
  6
CONTINUOUS
 62
    9
 10
967.3464912280707
 20
1545.3107285414719
 11
967.3464912280707
 21
1551.3107285389169
  0
LINE
  8
_0-0_計極細
  6
CONTINUOUS
 62
    9
 10
967.3464912280707
 20
1493.1107285388007
 11
967.3464912280707
 21
1499.110728539463
  0
LINE
  8
_0-0_計極細
  6
CONTINUOUS
 62
    9
 10
967.3464912280707
 20
1562.7107285389172
 11
967.3464912280707
 21
1568.8107285391311
  0
LINE
  8
_0-0_計極細
  6
CONTINUOUS
 62
    9
 10
967.3464912280707
 20
1475.6107285367532
 11
967.3464912280707
 21
1481.7107285387999
  0
LINE
  8
_0-0_計極細
  6
CENTER1
 62
    9
 10
1071.0964912280706
 20
1585.8614479655998
 11
1071.0964912280706
 21
1458.1844183438409
  0
LINE
  8
_0-0_計極細
  6
CONTINUOUS
 62
    9
 10
1077.8464912280706
 20
1510.5107285394636
 11
1077.8464912280706
 21
1516.5107285392639
  0
LINE
  8
_0-0_計極細
  6
CONTINUOUS
 62
    9
 10
1077.8464912280706
 20
1527.9107285392647
 11
1077.8464912280706
 21
1533.9107285414716
  0
LINE
  8
_0-0_計極細
  6
CONTINUOUS
 62
    9
 10
1077.8464912280706
 20
1545.3107285414719
 11
1077.8464912280706
 21
1551.3107285389169
  0
LINE
  8
_0-0_計極細
  6
CONTINUOUS
 62
    9
 10
1077.8464912280706
 20
1493.1107285388007
 11
1077.8464912280706
 21
1499.110728539463
  0
LINE
  8
_0-0_計極細
  6
CONTINUOUS
 62
    9
 10
1077.8464912280706
 20
1562.7107285389172
 11
1077.8464912280706
 21
1568.8107285391311
  0
LINE
  8
_0-0_計極細
  6
CONTINUOUS
 62
    9
 10
1077.8464912280706
 20
1475.6107285367532
 11
1077.8464912280706
 21
1481.7107285387999
  0
LINE
  8
_0-0_計極細
  6
CONTINUOUS
 62
    9
 10
1064.3464912280706
 20
1510.5107285394636
 11
1064.3464912280706
 21
1516.5107285392639
  0
LINE
  8
_0-0_計極細
  6
CONTINUOUS
 62
    9
 10
1064.3464912280706
 20
1527.9107285392647
 11
1064.3464912280706
 21
1533.9107285414716
  0
LINE
  8
_0-0_計極細
  6
CONTINUOUS
 62
    9
 10
1064.3464912280706
 20
1545.3107285414719
 11
1064.3464912280706
 21
1551.3107285389169
  0
LINE
  8
_0-0_計極細
  6
CONTINUOUS
 62
    9
 10
1064.3464912280706
 20
1493.1107285388007
 11
1064.3464912280706
 21
1499.110728539463
  0
LINE
  8
_0-0_計極細
  6
CONTINUOUS
 62
    9
 10
1064.3464912280706
 20
1562.7107285389172
 11
1064.3464912280706
 21
1568.8107285391311
  0
LINE
  8
_0-0_計極細
  6
CONTINUOUS
 62
    9
 10
1064.3464912280706
 20
1475.6107285367532
 11
1064.3464912280706
 21
1481.7107285387999
  0
LINE
  8
_0-0_計極細
  6
CENTER1
 62
    9
 10
1168.0964912280706
 20
1585.8614479655998
 11
1168.0964912280706
 21
1458.1844183438409
  0
LINE
  8
_0-0_計極細
  6
CONTINUOUS
 62
    9
 10
1174.8464912280706
 20
1510.5107285394636
 11
1174.8464912280706
 21
1516.5107285392639
  0
LINE
  8
_0-0_計極細
  6
CONTINUOUS
 62
    9
 10
1174.8464912280706
 20
1527.9107285392647
 11
1174.8464912280706
 21
1533.9107285414716
  0
LINE
  8
_0-0_計極細
  6
CONTINUOUS
 62
    9
 10
1174.8464912280706
 20
1545.3107285414719
 11
1174.8464912280706
 21
1551.3107285389169
  0
LINE
  8
_0-0_計極細
  6
CONTINUOUS
 62
    9
 10
1174.8464912280706
 20
1493.1107285388007
 11
1174.8464912280706
 21
1499.110728539463
  0
LINE
  8
_0-0_計極細
  6
CONTINUOUS
 62
    9
 10
1174.8464912280706
 20
1562.7107285389172
 11
1174.8464912280706
 21
1568.8107285391311
  0
LINE
  8
_0-0_計極細
  6
CONTINUOUS
 62
    9
 10
1174.8464912280706
 20
1475.6107285367532
 11
1174.8464912280706
 21
1481.7107285387999
  0
LINE
  8
_0-0_計極細
  6
CONTINUOUS
 62
    9
 10
1161.3464912280706
 20
1510.5107285394636
 11
1161.3464912280706
 21
1516.5107285392639
  0
LINE
  8
_0-0_計極細
  6
CONTINUOUS
 62
    9
 10
1161.3464912280706
 20
1527.9107285392647
 11
1161.3464912280706
 21
1533.9107285414716
  0
LINE
  8
_0-0_計極細
  6
CONTINUOUS
 62
    9
 10
1161.3464912280706
 20
1545.3107285414719
 11
1161.3464912280706
 21
1551.3107285389169
  0
LINE
  8
_0-0_計極細
  6
CONTINUOUS
 62
    9
 10
1161.3464912280706
 20
1493.1107285388007
 11
1161.3464912280706
 21
1499.110728539463
  0
LINE
  8
_0-0_計極細
  6
CONTINUOUS
 62
    9
 10
1161.3464912280706
 20
1562.7107285389172
 11
1161.3464912280706
 21
1568.8107285391311
  0
LINE
  8
_0-0_計極細
  6
CONTINUOUS
 62
    9
 10
1161.3464912280706
 20
1475.6107285367532
 11
1161.3464912280706
 21
1481.7107285387999
  0
LINE
  8
_0-0_計極細
  6
CENTER1
 62
    9
 10
1265.0964912280706
 20
1585.8614479655998
 11
1265.0964912280706
 21
1459.7107285411375
  0
LINE
  8
_0-5_寸法線
  6
CONTINUOUS
 62
    7
 10
221.59649122807082
 20
1594.2107285393038
 11
221.59649122807082
 21
1450.2107285393038
  0
TEXT
  8
_0-5_寸法線
 62
    7
 10
221.59649122807082
 20
1499.710728539304
 40
30
 41
1
 50
90
  1
144
  0
LINE
  8
_0-5_寸法線
  6
CONTINUOUS
 62
    7
 10
371.59649122807082
 20
1594.2107285393038
 11
211.59649122807082
 21
1594.2107285393038
  0
LINE
  8
_0-5_寸法線
  6
CONTINUOUS
 62
    7
 10
371.59649122807082
 20
1450.2107285393038
 11
211.59649122807082
 21
1450.2107285393038
  0
POINT
  8
_0-5_寸法線
 62
    7
 10
221.59649122807082
 20
1594.2107285393038
  0
POINT
  8
_0-5_寸法線
 62
    7
 10
221.59649122807082
 20
1450.2107285393038
  0
LINE
  8
_0-5_寸法線
  6
CONTINUOUS
 62
    7
 10
291.59649122807082
 20
1645.3846716734631
 11
291.59649122807082
 21
1582.210728539304
  0
TEXT
  8
_0-5_寸法線
 62
    7
 10
291.59649122807082
 20
1615.3846716734631
 40
30
 41
1
 50
90
  1
12
  0
LINE
  8
_0-5_寸法線
  6
CONTINUOUS
 62
    7
 10
1485
 20
1050
 11
1485
 21
1050
  0
LINE
  8
_0-5_寸法線
  6
CONTINUOUS
 62
    7
 10
371.59649122807082
 20
1582.210728539304
 11
281.59649122807082
 21
1582.210728539304
  0
POINT
  8
_0-5_寸法線
 62
    7
 10
291.59649122807082
 20
1594.2107285393038
  0
POINT
  8
_0-5_寸法線
 62
    7
 10
0
 20
0
  0
LINE
  8
_0-5_寸法線
  6
CONTINUOUS
 62
    7
 10
291.59649122807082
 20
1582.210728539304
 11
291.59649122807082
 21
1462.210728539304
  0
TEXT
  8
_0-5_寸法線
 62
    7
 10
291.59649122807082
 20
1499.710728539304
 40
30
 41
1
 50
90
  1
120
  0
LINE
  8
_0-5_寸法線
  6
CONTINUOUS
 62
    7
 10
1485
 20
1050
 11
1485
 21
1050
  0
LINE
  8
_0-5_寸法線
  6
CONTINUOUS
 62
    7
 10
371.59649122807082
 20
1462.210728539304
 11
281.59649122807082
 21
1462.210728539304
  0
POINT
  8
_0-5_寸法線
 62
    7
 10
291.59649122807082
 20
1582.210728539304
  0
POINT
  8
_0-5_寸法線
 62
    7
 10
291.59649122807082
 20
1462.210728539304
  0
LINE
  8
_0-5_寸法線
  6
CONTINUOUS
 62
    7
 10
291.59649122807082
 20
1462.210728539304
 11
291.59649122807093
 21
1395.9588299773156
  0
TEXT
  8
_0-5_寸法線
 62
    7
 10
291.59649122807082
 20
1395.9588299773156
 40
30
 41
1
 50
90
  1
12
  0
LINE
  8
_0-5_寸法線
  6
CONTINUOUS
 62
    7
 10
1485
 20
1050
 11
1485
 21
1050
  0
LINE
  8
_0-5_寸法線
  6
CONTINUOUS
 62
    7
 10
1485
 20
1050
 11
1485
 21
1050
  0
POINT
  8
_0-5_寸法線
 62
    7
 10
0
 20
0
  0
POINT
  8
_0-5_寸法線
 62
    7
 10
291.59649122807082
 20
1450.2107285393038
  0
LINE
  8
_0-5_寸法線
  6
CONTINUOUS
 62
    7
 10
391.59649122807082
 20
1834.2107285393038
 11
1385.5964912280715
 21
1834.2107285393038
  0
TEXT
  8
_0-5_寸法線
 62
    7
 10
873.59649122807116
 20
1834.2107285393038
 40
30
 41
1
 50
0
  1
Ｌ
  0
LINE
  8
_0-5_寸法線
  6
CONTINUOUS
 62
    7
 10
391.59649122807082
 20
1614.2107285393038
 11
391.59649122807082
 21
1844.2107285393038
  0
LINE
  8
_0-5_寸法線
  6
CONTINUOUS
 62
    7
 10
1385.5964912280706
 20
1614.2107285393038
 11
1385.5964912280715
 21
1844.2107285393038
  0
POINT
  8
_0-5_寸法線
 62
    7
 10
391.59649122807082
 20
1834.2107285393038
  0
POINT
  8
_0-5_寸法線
 62
    7
 10
1385.5964912280715
 20
1834.2107285393038
  0
LINE
  8
_0-5_寸法線
  6
CONTINUOUS
 62
    7
 10
335.71472629929048
 20
1764.2107285393038
 11
403.59649122807127
 21
1764.2107285393038
  0
TEXT
  8
_0-5_寸法線
 62
    7
 10
335.71472629929076
 20
1764.2107285393038
 40
30
 41
1
 50
0
  1
12
  0
LINE
  8
_0-5_寸法線
  6
CONTINUOUS
 62
    7
 10
1485
 20
1050
 11
1485
 21
1050
  0
LINE
  8
_0-5_寸法線
  6
CONTINUOUS
 62
    7
 10
403.5964912280707
 20
1614.2107285393038
 11
403.59649122807127
 21
1774.2107285393038
  0
POINT
  8
_0-5_寸法線
 62
    7
 10
391.59649122807082
 20
1764.2107285393038
  0
POINT
  8
_0-5_寸法線
 62
    7
 10
0
 20
0
  0
LINE
  8
_0-5_寸法線
  6
CONTINUOUS
 62
    7
 10
403.59649122807127
 20
1764.2107285393038
 11
1373.5964912280713
 21
1764.2107285393038
  0
TEXT
  8
_0-5_寸法線
 62
    7
 10
873.59649122807127
 20
1764.2107285393038
 40
30
 41
1
 50
0
  1
Ａ
  0
LINE
  8
_0-5_寸法線
  6
CONTINUOUS
 62
    7
 10
1485
 20
1050
 11
1485
 21
1050
  0
LINE
  8
_0-5_寸法線
  6
CONTINUOUS
 62
    7
 10
1373.5964912280706
 20
1614.2107285393038
 11
1373.5964912280713
 21
1774.2107285393038
  0
POINT
  8
_0-5_寸法線
 62
    7
 10
403.59649122807127
 20
1764.2107285393038
  0
POINT
  8
_0-5_寸法線
 62
    7
 10
1373.5964912280713
 20
1764.2107285393038
  0
LINE
  8
_0-5_寸法線
  6
CONTINUOUS
 62
    7
 10
1373.5964912280713
 20
1764.2107285393038
 11
1443.1134580394832
 21
1764.2107285393038
  0
TEXT
  8
_0-5_寸法線
 62
    7
 10
1413.1134580394832
 20
1764.2107285393038
 40
30
 41
1
 50
0
  1
12
  0
LINE
  8
_0-5_寸法線
  6
CONTINUOUS
 62
    7
 10
1485
 20
1050
 11
1485
 21
1050
  0
LINE
  8
_0-5_寸法線
  6
CONTINUOUS
 62
    7
 10
1485
 20
1050
 11
1485
 21
1050
  0
POINT
  8
_0-5_寸法線
 62
    7
 10
0
 20
0
  0
POINT
  8
_0-5_寸法線
 62
    7
 10
1385.5964912280715
 20
1764.2107285393038
  0
LINE
  8
_0-5_寸法線
  6
CONTINUOUS
 62
    7
 10
405.096491228074
 20
1694.2107285393038
 11
1372.0964912280713
 21
1694.2107285393038
  0
TEXT
  8
_0-5_寸法線
 62
    7
 10
873.59649122807252
 20
1694.2107285393038
 40
30
 41
1
 50
0
  1
Ｂ
  0
LINE
  8
_0-5_寸法線
  6
CONTINUOUS
 62
    7
 10
405.09649122807343
 20
1614.2107285393038
 11
405.09649122807417
 21
1704.2107285393038
  0
LINE
  8
_0-5_寸法線
  6
CONTINUOUS
 62
    7
 10
1372.096491228071
 20
1614.2107285393038
 11
1372.0964912280713
 21
1704.2107285393038
  0
POINT
  8
_0-5_寸法線
 62
    7
 10
405.096491228074
 20
1694.2107285393038
  0
POINT
  8
_0-5_寸法線
 62
    7
 10
1372.0964912280713
 20
1694.2107285393038
  0
LINE
  8
_0-5_寸法線
  6
CONTINUOUS
 62
    7
 10
1488.5964912280706
 20
1764.2107285393038
 11
1611.5964912280708
 21
1764.2107285393038
  0
TEXT
  8
_0-5_寸法線
 62
    7
 10
1527.5964912280708
 20
1764.2107285393031
 40
30
 41
1
 50
0
  1
123
  0
LINE
  8
_0-5_寸法線
  6
CONTINUOUS
 62
    7
 10
1488.5964912280706
 20
1614.2107285393035
 11
1488.5964912280706
 21
1774.2107285393038
  0
LINE
  8
_0-5_寸法線
  6
CONTINUOUS
 62
    7
 10
1611.5964912280708
 20
1604.4107285393036
 11
1611.5964912280708
 21
1774.2107285393038
  0
POINT
  8
_0-5_寸法線
 62
    7
 10
1488.5964912280706
 20
1764.2107285393038
  0
POINT
  8
_0-5_寸法線
 62
    7
 10
1611.5964912280708
 20
1764.2107285393038
  0
LINE
  8
_0-5_寸法線
  6
CONTINUOUS
 62
    7
 10
1488.5964912280706
 20
1694.2107285393038
 11
1588.5964912280706
 21
1694.2107285393038
  0
TEXT
  8
_0-5_寸法線
 62
    7
 10
1516.0964912280706
 20
1694.2107285393038
 40
30
 41
1
 50
0
  1
100
  0
LINE
  8
_0-5_寸法線
  6
CONTINUOUS
 62
    7
 10
1488.5964912280706
 20
1614.2107285393035
 11
1488.5964912280706
 21
1704.2107285393038
  0
LINE
  8
_0-5_寸法線
  6
CONTINUOUS
 62
    7
 10
1588.5964912280706
 20
1604.4107285393036
 11
1588.5964912280706
 21
1704.2107285393038
  0
POINT
  8
_0-5_寸法線
 62
    7
 10
1488.5964912280706
 20
1694.2107285393038
  0
POINT
  8
_0-5_寸法線
 62
    7
 10
1588.5964912280706
 20
1694.2107285393038
  0
LINE
  8
_0-5_寸法線
  6
CONTINUOUS
 62
    7
 10
1588.5964912280706
 20
1694.2107285393038
 11
1668.7129683598855
 21
1694.2107285393038
  0
TEXT
  8
_0-5_寸法線
 62
    7
 10
1638.7129683598855
 20
1694.2107285393038
 40
30
 41
1
 50
0
  1
23
  0
LINE
  8
_0-5_寸法線
  6
CONTINUOUS
 62
    7
 10
1485
 20
1050
 11
1485
 21
1050
  0
LINE
  8
_0-5_寸法線
  6
CONTINUOUS
 62
    7
 10
1611.5964912280708
 20
1604.4107285393036
 11
1611.5964912280708
 21
1704.2107285393038
  0
POINT
  8
_0-5_寸法線
 62
    7
 10
0
 20
0
  0
POINT
  8
_0-5_寸法線
 62
    7
 10
1611.5964912280708
 20
1694.2107285393038
  0
LINE
  8
_0-5_寸法線
  6
CONTINUOUS
 62
    7
 10
391.59649122806968
 20
1350.2107285393038
 11
1305.5964912280692
 21
1350.2107285393038
  0
TEXT
  8
_0-5_寸法線
 62
    7
 10
833.59649122806923
 20
1350.2107285393038
 40
30
 41
1
 50
0
  1
Ｃ
  0
LINE
  8
_0-5_寸法線
  6
CONTINUOUS
 62
    7
 10
391.59649122807053
 20
1430.2107285393038
 11
391.59649122806968
 21
1340.2107285393038
  0
LINE
  8
_0-5_寸法線
  6
CONTINUOUS
 62
    7
 10
1305.5964912280704
 20
1430.2107285393038
 11
1305.5964912280692
 21
1340.2107285393038
  0
POINT
  8
_0-5_寸法線
 62
    7
 10
391.59649122806968
 20
1350.2107285393038
  0
POINT
  8
_0-5_寸法線
 62
    7
 10
1305.5964912280692
 20
1350.2107285393038
  0
LINE
  8
_0-5_寸法線
  6
CONTINUOUS
 62
    7
 10
1305.5964912280692
 20
1350.2107285393038
 11
1385.5964912280695
 21
1350.2107285393038
  0
TEXT
  8
_0-5_寸法線
 62
    7
 10
1330.5964912280697
 20
1350.2107285393038
 40
30
 41
1
 50
0
  1
80
  0
LINE
  8
_0-5_寸法線
  6
CONTINUOUS
 62
    7
 10
1485
 20
1050
 11
1485
 21
1050
  0
LINE
  8
_0-5_寸法線
  6
CONTINUOUS
 62
    7
 10
1385.5964912280704
 20
1430.2107285393038
 11
1385.5964912280695
 21
1340.2107285393038
  0
POINT
  8
_0-5_寸法線
 62
    7
 10
1305.5964912280692
 20
1350.2107285393038
  0
POINT
  8
_0-5_寸法線
 62
    7
 10
1385.5964912280695
 20
1350.2107285393038
  0
LINE
  8
_0-1_計細線
  6
CONTINUOUS
 62
    9
 10
1305.5964912280706
 20
1080.2107285393038
 11
1230.5964909219192
 21
1080.2107285393038
  0
LINE
  8
_0-1_計細線
  6
CONTINUOUS
 62
    9
 10
391.59649122807082
 20
1172.2107285393038
 11
1305.5964912280706
 21
1172.2107285393038
  0
LINE
  8
_0-1_計細線
  6
CONTINUOUS
 62
    9
 10
1230.5964909219192
 20
1080.2107285393038
 11
896.62847060581782
 21
1088.2775889363957
  0
LINE
  8
_0-1_計細線
  6
CONTINUOUS
 62
    9
 10
880.82248007576436
 20
1088.6593761474071
 11
434.62847060581765
 21
1099.4370092303768
  0
LINE
  8
_0-1_計細線
  6
CONTINUOUS
 62
    9
 10
420.82248007576436
 20
1111.6310183941621
 11
418.82248007576436
 21
1109.6310183941621
  0
LINE
  8
_0-1_計細線
  6
CONTINUOUS
 62
    9
 10
418.82248007576436
 20
1099.6310183941621
 11
418.82248007576436
 21
1109.6310183941621
  0
LINE
  8
_0-1_計細線
  6
CONTINUOUS
 62
    9
 10
434.82247976960309
 20
1099.6310183941621
 11
434.82247976960309
 21
1109.6310183941621
  0
LINE
  8
_0-1_計細線
  6
CONTINUOUS
 62
    9
 10
420.82248007576436
 20
1095.6310183941623
 11
418.82248007576436
 21
1093.6310183941621
  0
LINE
  8
_0-1_計細線
  6
CONTINUOUS
 62
    9
 10
420.82248007576436
 20
1097.6310183941621
 11
420.82248007576436
 21
1095.6310183941623
  0
LINE
  8
_0-1_計細線
  6
CONTINUOUS
 62
    9
 10
418.82248007576436
 20
1099.6310183941621
 11
420.82248007576436
 21
1097.6310183941621
  0
LINE
  8
_0-1_計細線
  6
CONTINUOUS
 62
    9
 10
432.82247976960292
 20
1095.6310183941623
 11
434.82247976960309
 21
1093.6310183941621
  0
LINE
  8
_0-1_計細線
  6
CONTINUOUS
 62
    9
 10
432.82247976960292
 20
1097.6310183941621
 11
432.82247976960292
 21
1095.6310183941623
  0
LINE
  8
_0-1_計細線
  6
CONTINUOUS
 62
    9
 10
434.82247976960309
 20
1099.6310183941621
 11
432.82247976960292
 21
1097.6310183941621
  0
LINE
  8
_0-1_計細線
  6
CONTINUOUS
 62
    9
 10
418.82248007576436
 20
1093.6310183941621
 11
418.82248007576436
 21
1079.6310183941619
  0
ARC
  8
_0-1_計細線
  6
CONTINUOUS
 62
    9
 10
421.82248007576447
 20
1079.6310183941619
 40
3.0000000000000004
 50
179.99999999999983
 51
269.99999999999977
  0
LINE
  8
_0-1_計細線
  6
CONTINUOUS
 62
    9
 10
421.82248007576447
 20
1076.6310183941619
 11
431.82247976960298
 21
1076.6310183941619
  0
LINE
  8
_0-1_計細線
  6
CONTINUOUS
 62
    9
 10
434.82247976960309
 20
1093.6310183941621
 11
434.82247976960309
 21
1079.6310183941619
  0
ARC
  8
_0-1_計細線
  6
CONTINUOUS
 62
    9
 10
431.82247976960298
 20
1079.6310183941619
 40
3.0000000000000004
 50
269.99999999999977
 51
359.99999999999966
  0
LINE
  8
_0-1_計細線
  6
CONTINUOUS
 62
    9
 10
420.82248007576436
 20
1111.6310183941621
 11
432.82247976960292
 21
1111.6310183941621
  0
LINE
  8
_0-1_計細線
  6
CONTINUOUS
 62
    9
 10
434.82247976960309
 20
1109.6310183941621
 11
432.82247976960292
 21
1111.6310183941621
  0
LINE
  8
_0-0_計極細
  6
CENTER1
 62
    9
 10
426.59649122807053
 20
1115.2817378204579
 11
426.59649122807053
 21
1073.085101826812
  0
LINE
  8
_0-1_計細線
  6
CONTINUOUS
 62
    9
 10
882.82248007576436
 20
1100.4715981001807
 11
880.82248007576436
 21
1098.4715981001807
  0
LINE
  8
_0-1_計細線
  6
CONTINUOUS
 62
    9
 10
880.82248007576436
 20
1088.4715981001807
 11
880.82248007576436
 21
1098.4715981001807
  0
LINE
  8
_0-1_計細線
  6
CONTINUOUS
 62
    9
 10
896.82247976960298
 20
1088.4715981001807
 11
896.82247976960298
 21
1098.4715981001807
  0
LINE
  8
_0-1_計細線
  6
CONTINUOUS
 62
    9
 10
882.82248007576436
 20
1084.4715981001807
 11
880.82248007576436
 21
1082.4715981001807
  0
LINE
  8
_0-1_計細線
  6
CONTINUOUS
 62
    9
 10
882.82248007576436
 20
1086.4715981001809
 11
882.82248007576436
 21
1084.4715981001807
  0
LINE
  8
_0-1_計細線
  6
CONTINUOUS
 62
    9
 10
880.82248007576436
 20
1088.4715981001807
 11
882.82248007576436
 21
1086.4715981001809
  0
LINE
  8
_0-1_計細線
  6
CONTINUOUS
 62
    9
 10
894.82247976960309
 20
1084.4715981001807
 11
896.82247976960298
 21
1082.4715981001807
  0
LINE
  8
_0-1_計細線
  6
CONTINUOUS
 62
    9
 10
894.82247976960309
 20
1086.4715981001809
 11
894.82247976960309
 21
1084.4715981001807
  0
LINE
  8
_0-1_計細線
  6
CONTINUOUS
 62
    9
 10
896.82247976960298
 20
1088.4715981001807
 11
894.82247976960309
 21
1086.4715981001809
  0
LINE
  8
_0-1_計細線
  6
CONTINUOUS
 62
    9
 10
880.82248007576436
 20
1082.4715981001807
 11
880.82248007576436
 21
1068.4715981001807
  0
ARC
  8
_0-1_計細線
  6
CONTINUOUS
 62
    9
 10
883.82248007576436
 20
1068.4715981001807
 40
3.0000000000000004
 50
179.99999999999983
 51
269.99999999999977
  0
LINE
  8
_0-1_計細線
  6
CONTINUOUS
 62
    9
 10
883.82248007576436
 20
1065.4715981001807
 11
893.82247976960298
 21
1065.4715981001807
  0
LINE
  8
_0-1_計細線
  6
CONTINUOUS
 62
    9
 10
896.82247976960298
 20
1082.4715981001807
 11
896.82247976960298
 21
1068.4715981001807
  0
ARC
  8
_0-1_計細線
  6
CONTINUOUS
 62
    9
 10
893.82247976960298
 20
1068.4715981001807
 40
3.0000000000000004
 50
269.99999999999977
 51
359.99999999999966
  0
LINE
  8
_0-1_計細線
  6
CONTINUOUS
 62
    9
 10
882.82248007576436
 20
1100.4715981001807
 11
894.82247976960309
 21
1100.4715981001807
  0
LINE
  8
_0-1_計細線
  6
CONTINUOUS
 62
    9
 10
896.82247976960298
 20
1098.4715981001807
 11
894.82247976960309
 21
1100.4715981001807
  0
LINE
  8
_0-0_計極細
  6
CENTER1
 62
    9
 10
888.5964912280707
 20
1104.1223175264765
 11
888.5964912280707
 21
1061.9256815328308
  0
LINE
  8
_0-1_計細線
  6
CONTINUOUS
 62
    9
 10
1374.5964912280706
 20
1179.2107285393038
 11
1374.5964912280706
 21
1081.2107285393038
  0
ARC
  8
_0-1_計細線
  6
CONTINUOUS
 62
    9
 10
1374.5964912280706
 20
1179.2107285393038
 40
1
 50
89.999999999999915
 51
179.99999999999983
  0
LINE
  8
_0-1_計細線
  6
CONTINUOUS
 62
    9
 10
1384.5964912280706
 20
1180.2107285393038
 11
1374.5964912280706
 21
1180.2107285393038
  0
ARC
  8
_0-1_計細線
  6
CONTINUOUS
 62
    9
 10
1384.5964912280706
 20
1179.2107285393038
 40
1
 50
0
 51
89.999999999999915
  0
LINE
  8
_0-1_計細線
  6
CONTINUOUS
 62
    9
 10
1385.5964912280706
 20
1172.2107285393038
 11
1385.5964912280706
 21
1179.2107285393038
  0
LINE
  8
_0-1_計細線
  6
CONTINUOUS
 62
    9
 10
1384.5964912280706
 20
1172.2107285393038
 11
1385.5964912280706
 21
1172.2107285393038
  0
LINE
  8
_0-1_計細線
  6
CONTINUOUS
 62
    9
 10
1384.5964912280706
 20
1179.2107285393038
 11
1374.5964912280706
 21
1179.2107285393038
  0
LINE
  8
_0-1_計細線
  6
CONTINUOUS
 62
    9
 10
1384.5964912280706
 20
1172.2107285393038
 11
1384.5964912280706
 21
1179.2107285393038
  0
LINE
  8
_0-1_計細線
  6
CONTINUOUS
 62
    9
 10
1374.5964912280706
 20
1180.2107285393038
 11
392.59649122807076
 21
1180.2107285393038
  0
LINE
  8
_0-1_計細線
  6
CONTINUOUS
 62
    9
 10
391.59649122807082
 20
1172.2107285393038
 11
391.59649122807082
 21
1179.2107285393038
  0
ARC
  8
_0-1_計細線
  6
CONTINUOUS
 62
    9
 10
392.59649122807076
 20
1179.2107285393038
 40
1
 50
89.999999999999915
 51
179.99999999999983
  0
LINE
  8
_0-1_計細線
  6
CONTINUOUS
 62
    9
 10
418.82248007576436
 20
1099.8187964413885
 11
403.57234368203535
 21
1100.1871572239818
  0
LINE
  8
_0-1_計細線
  6
CONTINUOUS
 62
    9
 10
402.59649122807059
 20
1101.1868656294787
 11
402.59649122807059
 21
1172.2107285393038
  0
ARC
  8
_0-1_計細線
  6
CONTINUOUS
 62
    9
 10
403.5964912280707
 20
1101.1868656294787
 40
1
 50
179.99999999999983
 51
268.61631303213005
  0
LINE
  8
_0-0_計極細
  6
DASHED2
 62
    9
 10
1350.5964912280706
 20
1095.8614479655996
 11
1350.5964912280706
 21
1053.6648119719539
  0
LINE
  8
_0-1_計細線
  6
DASHED2
 62
    9
 10
1358.8224797696021
 20
1090.2107285393038
 11
1356.8224797696021
 21
1092.2107285393038
  0
LINE
  8
_0-1_計細線
  6
DASHED2
 62
    9
 10
1344.8224800757639
 20
1092.2107285393038
 11
1356.8224797696021
 21
1092.2107285393038
  0
ARC
  8
_0-1_計細線
  6
DASHED2
 62
    9
 10
1355.8224797696021
 20
1060.2107285393038
 40
3.0000000000000004
 50
269.99999999999977
 51
359.99999999999966
  0
LINE
  8
_0-1_計細線
  6
DASHED2
 62
    9
 10
1358.8224797696021
 20
1074.2107285393038
 11
1358.8224797696021
 21
1060.2107285393038
  0
LINE
  8
_0-1_計細線
  6
DASHED2
 62
    9
 10
1345.8224800757639
 20
1057.2107285393038
 11
1355.8224797696021
 21
1057.2107285393038
  0
ARC
  8
_0-1_計細線
  6
DASHED2
 62
    9
 10
1345.8224800757639
 20
1060.2107285393038
 40
3.0000000000000004
 50
179.99999999999983
 51
269.99999999999977
  0
LINE
  8
_0-1_計細線
  6
DASHED2
 62
    9
 10
1342.8224800757639
 20
1074.2107285393038
 11
1342.8224800757639
 21
1060.2107285393038
  0
LINE
  8
_0-1_計細線
  6
DASHED2
 62
    9
 10
1358.8224797696021
 20
1080.2107285393038
 11
1356.8224797696021
 21
1078.210728539304
  0
LINE
  8
_0-1_計細線
  6
DASHED2
 62
    9
 10
1356.8224797696021
 20
1078.210728539304
 11
1356.8224797696021
 21
1076.2107285393038
  0
LINE
  8
_0-1_計細線
  6
DASHED2
 62
    9
 10
1356.8224797696021
 20
1076.2107285393038
 11
1358.8224797696021
 21
1074.2107285393038
  0
LINE
  8
_0-1_計細線
  6
DASHED2
 62
    9
 10
1342.8224800757639
 20
1080.2107285393038
 11
1344.8224800757639
 21
1078.210728539304
  0
LINE
  8
_0-1_計細線
  6
DASHED2
 62
    9
 10
1344.8224800757639
 20
1078.210728539304
 11
1344.8224800757639
 21
1076.2107285393038
  0
LINE
  8
_0-1_計細線
  6
DASHED2
 62
    9
 10
1344.8224800757639
 20
1076.2107285393038
 11
1342.8224800757639
 21
1074.2107285393038
  0
LINE
  8
_0-1_計細線
  6
DASHED2
 62
    9
 10
1358.8224797696021
 20
1080.2107285393038
 11
1358.8224797696021
 21
1090.2107285393038
  0
LINE
  8
_0-1_計細線
  6
DASHED2
 62
    9
 10
1342.8224800757639
 20
1080.2107285393038
 11
1342.8224800757639
 21
1090.2107285393038
  0
LINE
  8
_0-1_計細線
  6
DASHED2
 62
    9
 10
1344.8224800757639
 20
1092.2107285393038
 11
1342.8224800757639
 21
1090.2107285393038
  0
LINE
  8
_0-1_計細線
  6
CONTINUOUS
 62
    9
 10
1305.5964912280706
 20
1160.2107285393038
 11
1372.0964912280706
 21
1160.2107285393038
  0
LINE
  8
_0-1_計細線
  6
CONTINUOUS
 62
    9
 10
1305.5964912280706
 20
1176.3107285393041
 11
1372.0964912280706
 21
1176.3107285393041
  0
LINE
  8
_0-1_計細線
  6
CONTINUOUS
 62
    9
 10
1372.0964912280706
 20
1180.2107285393038
 11
1372.0964912280706
 21
1160.2107285393038
  0
LINE
  8
_0-0_計極細
  6
CONTINUOUS
 62
    9
 10
1305.5964912280706
 20
1179.1107285393039
 11
1372.0964912280706
 21
1179.1107285393039
  0
ARC
  8
_0-1_計細線
  6
CONTINUOUS
 62
    9
 10
1364.5964912280704
 20
1079.7107285393038
 40
1.5000000000000002
 50
89.999999999999915
 51
179.99999999999983
  0
LINE
  8
_0-1_計細線
  6
CONTINUOUS
 62
    9
 10
1363.0964912280704
 20
1079.7107285393038
 11
1363.0964912280704
 21
1077.7107285393038
  0
ARC
  8
_0-1_計細線
  6
CONTINUOUS
 62
    9
 10
1362.5964912280706
 20
1077.7107285393038
 40
1.5000000000000002
 50
269.99999999999977
 51
359.99999999999966
  0
LINE
  8
_0-1_計細線
  6
CONTINUOUS
 62
    9
 10
1364.0964912280706
 20
1079.7107285393038
 11
1364.0964912280706
 21
1077.7107285393038
  0
LINE
  8
_0-1_計細線
  6
CONTINUOUS
 62
    9
 10
1362.5964912280706
 20
1076.2107285393038
 11
1356.5964912280706
 21
1076.2107285393038
  0
ARC
  8
_0-1_計細線
  6
CONTINUOUS
 62
    9
 10
1364.5964912280704
 20
1079.7107285393038
 40
0.5
 50
89.999999999999915
 51
179.99999999999983
  0
ARC
  8
_0-1_計細線
  6
CONTINUOUS
 62
    9
 10
1362.5964912280706
 20
1077.7107285393038
 40
0.5
 50
269.99999999999977
 51
359.99999999999966
  0
LINE
  8
_0-1_計細線
  6
CONTINUOUS
 62
    9
 10
1362.5964912280706
 20
1077.2107285393038
 11
1356.5964912280706
 21
1077.2107285393038
  0
LINE
  8
_0-1_計細線
  6
CONTINUOUS
 62
    9
 10
1356.5964912280706
 20
1077.2107285393038
 11
1356.5964912280706
 21
1076.2107285393038
  0
LINE
  8
_0-1_計細線
  6
CONTINUOUS
 62
    9
 10
1373.5964912280706
 20
1080.2107285393038
 11
1364.5964912280704
 21
1080.2107285393038
  0
ARC
  8
_0-1_計細線
  6
CONTINUOUS
 62
    9
 10
1373.5964912280706
 20
1081.2107285393038
 40
1
 50
269.99999999999977
 51
359.99999999999966
  0
LINE
  8
_0-1_計細線
  6
CONTINUOUS
 62
    9
 10
1373.5964912280706
 20
1081.2107285393038
 11
1364.5964912280704
 21
1081.2107285393038
  0
LINE
  8
_0-1_計細線
  6
CONTINUOUS
 62
    9
 10
1373.5964912280706
 20
1179.2107285393038
 11
1373.5964912280706
 21
1081.2107285393038
  0
LINE
  8
_0-5_寸法線
  6
CONTINUOUS
 62
    7
 10
426.59649122807053
 20
1076.6310183941619
 11
436.58627813122212
 21
1059.3046177976842
  0
LINE
  8
_0-5_寸法線
  6
CONTINUOUS
 62
    7
 10
426.59649122807053
 20
1076.6310183941619
 11
426.58470016635408
 21
1056.6310218698909
  0
LINE
  8
_0-5_寸法線
  6
CONTINUOUS
 62
    7
 10
426.59649122807053
 20
1076.6310183941619
 11
439.73704453274377
 21
1027.4739011903462
  0
LINE
  8
_0-5_寸法線
  6
CONTINUOUS
 62
    7
 10
439.73704453274377
 20
1027.4739011903462
 11
535.73704453274388
 21
1027.4739011903462
  0
TEXT
  8
_0-5_寸法線
 62
    7
 10
439.73704453274377
 20
1027.4739011903462
 40
30
 41
0.8000000000000001
 50
0
  1
アンカー
  0
LINE
  8
_0-0_計極細
  6
CENTER1
 62
    9
 10
1305.5964912280706
 20
1607.3040467531234
 11
1305.5964912280706
 21
918.15582726245168
  0
LINE
  8
_0-5_寸法線
  6
CONTINUOUS
 62
    7
 10
291.59649122807082
 20
1100.2107285393038
 11
291.59649122807082
 21
1180.2107285393038
  0
TEXT
  8
_0-5_寸法線
 62
    7
 10
291.59649122807082
 20
1125.2107285393038
 40
30
 41
1
 50
90
  1
80
  0
LINE
  8
_0-5_寸法線
  6
CONTINUOUS
 62
    7
 10
382.59649122807059
 20
1100.2107285393038
 11
281.59649122807082
 21
1100.2107285393038
  0
LINE
  8
_0-5_寸法線
  6
CONTINUOUS
 62
    7
 10
371.59649122807082
 20
1180.2107285393038
 11
281.59649122807082
 21
1180.2107285393038
  0
POINT
  8
_0-5_寸法線
 62
    7
 10
291.59649122807082
 20
1100.2107285393038
  0
POINT
  8
_0-5_寸法線
 62
    7
 10
291.59649122807082
 20
1180.2107285393038
  0
LINE
  8
_0-5_寸法線
  6
CONTINUOUS
 62
    7
 10
486.99590804408615
 20
1487.0330984314726
 11
496.99590803996261
 21
1469.7125903534034
  0
LINE
  8
_0-5_寸法線
  6
CONTINUOUS
 62
    7
 10
486.99590804408615
 20
1487.0330984314726
 11
486.99590803932466
 21
1467.0330984314726
  0
LINE
  8
_0-5_寸法線
  6
CONTINUOUS
 62
    7
 10
486.99590804408615
 20
1487.0330984314726
 11
512.49325033461696
 21
1391.8757214546204
  0
LINE
  8
_0-5_寸法線
  6
CONTINUOUS
 62
    7
 10
512.49325033461696
 20
1391.8757214546204
 11
800.4932503346173
 21
1391.8757214546204
  0
TEXT
  8
_0-5_寸法線
 62
    7
 10
512.49325033461696
 20
1391.8757214546204
 40
30
 41
0.8000000000000001
 50
0
  1
屋内外用樹脂グレーチング
  0
LINE
  8
_0-5_寸法線
  6
CONTINUOUS
 62
    7
 10
862.76220257900491
 20
1457.4927627523869
 11
872.76220258357796
 21
1440.1722546793383
  0
LINE
  8
_0-5_寸法線
  6
CONTINUOUS
 62
    7
 10
862.76220257900491
 20
1457.4927627523869
 11
862.76220258428555
 21
1437.4927627523869
  0
LINE
  8
_0-5_寸法線
  6
CONTINUOUS
 62
    7
 10
862.76220257900491
 20
1457.4927627523869
 11
880.34423582302963
 21
1391.8757214546204
  0
LINE
  8
_0-5_寸法線
  6
CONTINUOUS
 62
    7
 10
880.34423582302963
 20
1391.8757214546204
 11
1024.3442358230295
 21
1391.8757214546204
  0
TEXT
  8
_0-5_寸法線
 62
    7
 10
880.34423582302963
 20
1391.8757214546204
 40
30
 41
0.8000000000000001
 50
0
  1
排水ユニット
  0
LINE
  8
_0-5_寸法線
  6
CONTINUOUS
 62
    7
 10
1270.8426852723824
 20
1019.5952316482806
 11
1265.1120104929039
 21
1000.4338286053965
  0
LINE
  8
_0-5_寸法線
  6
CONTINUOUS
 62
    7
 10
1270.8426852723824
 20
1019.5952316482806
 11
1256.2990738110852
 21
1005.8663072307297
  0
LINE
  8
_0-5_寸法線
  6
CONTINUOUS
 62
    7
 10
1270.8426852723824
 20
1019.5952316482806
 11
1224.6384541812704
 21
944.6395822805647
  0
LINE
  8
_0-5_寸法線
  6
CONTINUOUS
 62
    7
 10
1224.6384541812704
 20
944.6395822805647
 11
960.63845418127039
 21
944.6395822805647
  0
TEXT
  8
_0-5_寸法線
 62
    7
 10
960.63845418127039
 20
944.6395822805647
 40
30
 41
0.7999999999999997
 50
0
  1
横引き排水トラップ一式
  0
LINE
  8
_0-5_寸法線
  6
CONTINUOUS
 62
    7
 10
1490.8209792280716
 20
991.21072853930389
 11
1490.8209792280707
 21
1080.2107285393038
  0
TEXT
  8
_0-5_寸法線
 62
    7
 10
1490.8209792280716
 20
1020.7107285393039
 40
30
 41
1
 50
90
  1
89
  0
LINE
  8
_0-5_寸法線
  6
CONTINUOUS
 62
    7
 10
1410.8209792280707
 20
991.21072853930389
 11
1500.8209792280716
 21
991.21072853930389
  0
LINE
  8
_0-5_寸法線
  6
CONTINUOUS
 62
    7
 10
1397.5964912280708
 20
1080.2107285393038
 11
1500.8209792280707
 21
1080.2107285393038
  0
POINT
  8
_0-5_寸法線
 62
    7
 10
1490.8209792280716
 20
991.21072853930389
  0
POINT
  8
_0-5_寸法線
 62
    7
 10
1490.8209792280707
 20
1080.2107285393038
  0
LINE
  8
_0-5_寸法線
  6
CONTINUOUS
 62
    7
 10
1490.8209792280716
 20
916.00336053930448
 11
1490.8209792280716
 21
1041.2107285393038
  0
TEXT
  8
_0-5_寸法線
 62
    7
 10
1490.8209792280716
 20
914.22114952119625
 40
30
 41
1
 50
90
  1
28
  0
LINE
  8
_0-5_寸法線
  6
CONTINUOUS
 62
    7
 10
1410.8209792280707
 20
966.00336053930448
 11
1500.8209792280716
 21
966.00336053930448
  0
LINE
  8
_0-5_寸法線
  6
CONTINUOUS
 62
    7
 10
1410.8209792280707
 20
991.21072853930389
 11
1500.8209792280716
 21
991.21072853930389
  0
POINT
  8
_0-5_寸法線
 62
    7
 10
1490.8209792280716
 20
966.00336053930448
  0
POINT
  8
_0-5_寸法線
 62
    7
 10
1490.8209792280716
 20
991.21072853930389
  0
LINE
  8
_0-5_寸法線
  6
CONTINUOUS
 62
    7
 10
1560.8209792280707
 20
966.00336053930448
 11
1560.8209792280707
 21
1019.8809125393043
  0
TEXT
  8
_0-5_寸法線
 62
    7
 10
1560.8209792280707
 20
955.44213653930399
 40
30
 41
1
 50
90
  1
VU-50
  0
LINE
  8
_0-5_寸法線
  6
CONTINUOUS
 62
    7
 10
1410.8209792280707
 20
966.00336053930448
 11
1570.8209792280707
 21
966.00336053930448
  0
LINE
  8
_0-5_寸法線
  6
CONTINUOUS
 62
    7
 10
1410.8209792280707
 20
1019.8809125393043
 11
1570.8209792280707
 21
1019.8809125393043
  0
POINT
  8
_0-5_寸法線
 62
    7
 10
1560.8209792280707
 20
966.00336053930448
  0
POINT
  8
_0-5_寸法線
 62
    7
 10
1560.8209792280707
 20
1019.8809125393043
  0
LINE
  8
_0-5_寸法線
  6
CONTINUOUS
 62
    7
 10
1630.8209792280707
 20
966.00336053930278
 11
1630.8209792280707
 21
1080.2107285393031
  0
TEXT
  8
_0-5_寸法線
 62
    7
 10
1630.8209792280707
 20
1000.6070445393027
 40
30
 41
1
 50
90
  1
117
  0
LINE
  8
_0-5_寸法線
  6
CONTINUOUS
 62
    7
 10
1410.8209792280707
 20
966.00336053930437
 11
1640.8209792280707
 21
966.00336053930266
  0
LINE
  8
_0-5_寸法線
  6
CONTINUOUS
 62
    7
 10
1397.5964912280708
 20
1080.2107285393038
 11
1640.8209792280707
 21
1080.2107285393031
  0
POINT
  8
_0-5_寸法線
 62
    7
 10
1630.8209792280707
 20
966.00336053930278
  0
POINT
  8
_0-5_寸法線
 62
    7
 10
1630.8209792280707
 20
1080.2107285393031
  0
LINE
  8
_0-5_寸法線
  6
CONTINUOUS
 62
    7
 10
1630.8209792280707
 20
1080.2107285393031
 11
1630.8209792280707
 21
1180.2107285393029
  0
TEXT
  8
_0-5_寸法線
 62
    7
 10
1630.8209792280707
 20
1107.7107285393029
 40
30
 41
1
 50
90
  1
100
  0
LINE
  8
_0-5_寸法線
  6
CONTINUOUS
 62
    7
 10
1397.5964912280708
 20
1080.2107285393038
 11
1640.8209792280707
 21
1080.2107285393031
  0
LINE
  8
_0-5_寸法線
  6
CONTINUOUS
 62
    7
 10
1405.5964912280708
 20
1180.2107285393038
 11
1640.8209792280707
 21
1180.2107285393029
  0
POINT
  8
_0-5_寸法線
 62
    7
 10
1630.8209792280707
 20
1080.2107285393031
  0
POINT
  8
_0-5_寸法線
 62
    7
 10
1630.8209792280707
 20
1180.2107285393029
  0
LINE
  8
_0-5_寸法線
  6
CONTINUOUS
 62
    7
 10
1700.8209792280707
 20
966.00336053930448
 11
1700.8209792280707
 21
1180.2107285393038
  0
TEXT
  8
_0-5_寸法線
 62
    7
 10
1700.8209792280707
 20
1050.6070445393041
 40
30
 41
1
 50
90
  1
217
  0
LINE
  8
_0-5_寸法線
  6
CONTINUOUS
 62
    7
 10
1410.8209792280707
 20
966.00336053930448
 11
1710.8209792280707
 21
966.00336053930448
  0
LINE
  8
_0-5_寸法線
  6
CONTINUOUS
 62
    7
 10
1405.5964912280708
 20
1180.2107285393038
 11
1710.8209792280707
 21
1180.2107285393038
  0
POINT
  8
_0-5_寸法線
 62
    7
 10
1700.8209792280707
 20
966.00336053930448
  0
POINT
  8
_0-5_寸法線
 62
    7
 10
1700.8209792280707
 20
1180.2107285393038
  0
LINE
  8
_0-5_寸法線
  6
CONTINUOUS
 62
    7
 10
1305.5964912280706
 20
865.1403013263415
 11
1355.0658752280672
 21
865.1403013263415
  0
TEXT
  8
_0-5_寸法線
 62
    7
 10
1315.3311832280688
 20
865.1403013263415
 40
30
 41
1
 50
0
  1
51
  0
LINE
  8
_0-5_寸法線
  6
CONTINUOUS
 62
    7
 10
1305.5964912280706
 20
945.12172853930394
 11
1305.5964912280706
 21
855.1403013263415
  0
LINE
  8
_0-5_寸法線
  6
CONTINUOUS
 62
    7
 10
1355.0658752280672
 20
945.12172853930394
 11
1355.0658752280672
 21
855.1403013263415
  0
POINT
  8
_0-5_寸法線
 62
    7
 10
1305.5964912280706
 20
865.1403013263415
  0
POINT
  8
_0-5_寸法線
 62
    7
 10
1355.0658752280672
 20
865.1403013263415
  0
LINE
  8
_0-5_寸法線
  6
CONTINUOUS
 62
    7
 10
1355.0658752280672
 20
865.1403013263415
 11
1390.8209792280707
 21
865.1403013263415
  0
TEXT
  8
_0-5_寸法線
 62
    7
 10
1357.9434272280716
 20
865.1403013263415
 40
30
 41
1
 50
0
  1
36
  0
LINE
  8
_0-5_寸法線
  6
CONTINUOUS
 62
    7
 10
1485
 20
1050
 11
1485
 21
1050
  0
LINE
  8
_0-5_寸法線
  6
CONTINUOUS
 62
    7
 10
1390.8209792280707
 20
946.00336053930448
 11
1390.8209792280707
 21
855.1403013263415
  0
POINT
  8
_0-5_寸法線
 62
    7
 10
1355.0658752280672
 20
865.1403013263415
  0
POINT
  8
_0-5_寸法線
 62
    7
 10
1390.8209792280707
 20
865.1403013263415
  0
LINE
  8
_0-5_寸法線
  6
CONTINUOUS
 62
    7
 10
1305.5964912280706
 20
795.1403013263415
 11
1390.8209792280707
 21
795.1403013263415
  0
TEXT
  8
_0-5_寸法線
 62
    7
 10
1333.2087352280676
 20
795.1403013263415
 40
30
 41
1
 50
0
  1
87
  0
LINE
  8
_0-5_寸法線
  6
CONTINUOUS
 62
    7
 10
1305.5964912280706
 20
945.12172853930394
 11
1305.5964912280706
 21
785.1403013263415
  0
LINE
  8
_0-5_寸法線
  6
CONTINUOUS
 62
    7
 10
1390.8209792280707
 20
945.12172853930394
 11
1390.8209792280707
 21
785.1403013263415
  0
POINT
  8
_0-5_寸法線
 62
    7
 10
1305.5964912280706
 20
795.1403013263415
  0
POINT
  8
_0-5_寸法線
 62
    7
 10
1390.8209792280707
 20
795.1403013263415
  0
ARC
  8
_0-1_計細線
  6
CONTINUOUS
 62
    9
 10
1248.5964912280708
 20
1077.7107285393038
 40
1.5000000000000002
 50
179.99999999999983
 51
269.99999999999977
  0
LINE
  8
_0-1_計細線
  6
CONTINUOUS
 62
    9
 10
1247.096491228071
 20
1079.7107285393038
 11
1247.096491228071
 21
1077.7107285393038
  0
ARC
  8
_0-1_計細線
  6
CONTINUOUS
 62
    9
 10
1246.5964912280708
 20
1079.7107285393038
 40
0.5
 50
0
 51
89.999999999999915
  0
LINE
  8
_0-0_計極細
  6
CONTINUOUS
 62
    9
 10
1345.3464912280701
 20
1071.0239045393043
 11
1345.3464912280701
 21
1070.5239045393043
  0
LINE
  8
_0-1_計細線
  6
CONTINUOUS
 62
    9
 10
1355.0658752280708
 20
1020.7811173263424
 11
1355.0658752280708
 21
1051.0079493263427
  0
LINE
  8
_0-1_計細線
  6
CONTINUOUS
 62
    9
 10
1355.0658752280708
 20
1020.7811173263424
 11
1390.8209792280707
 21
1019.8994853263418
  0
LINE
  8
_0-1_計細線
  6
CONTINUOUS
 62
    9
 10
1390.8209792280707
 20
966.02193332634204
 11
1390.8209792280707
 21
1019.8994853263418
  0
LINE
  8
_0-1_計細線
  6
CONTINUOUS
 62
    9
 10
1355.0658752280708
 20
965.1403013263415
 11
1390.8209792280707
 21
966.02193332634204
  0
LINE
  8
_0-1_計細線
  6
CONTINUOUS
 62
    9
 10
1263.963835228069
 20
965.1403013263415
 11
1355.0658752280708
 21
965.1403013263415
  0
ARC
  8
_0-1_計細線
  6
CONTINUOUS
 62
    9
 10
1263.963835228069
 20
972.97703732634261
 40
7.836736000000001
 50
179.99999999999983
 51
269.99999999999977
  0
LINE
  8
_0-1_計細線
  6
CONTINUOUS
 62
    9
 10
1256.1270992280679
 20
972.97703732634261
 11
1256.1270992280679
 21
1051.0079493263427
  0
LINE
  8
_0-1_計細線
  6
CONTINUOUS
 62
    9
 10
1305.5964912280706
 20
1055.2497093263419
 11
1253.6781232280682
 21
1055.2497093263419
  0
LINE
  8
_0-1_計細線
  6
CONTINUOUS
 62
    9
 10
1305.5964912280706
 20
1051.0079493263427
 11
1256.1270992280679
 21
1051.0079493263427
  0
ARC
  8
_0-1_計細線
  6
CONTINUOUS
 62
    9
 10
1251.2291392280695
 20
1051.0079493263427
 40
4.8979599999999994
 50
0
 51
59.999999999989242
  0
LINE
  8
_0-1_計細線
  6
CONTINUOUS
 62
    9
 10
1253.6781232280682
 20
1055.2497093263419
 11
1253.6781232280682
 21
1072.8823573263423
  0
LINE
  8
_0-1_計細線
  6
CONTINUOUS
 62
    9
 10
1305.5964912280706
 20
1072.8823573263423
 11
1249.8577152280686
 21
1072.8823573263423
  0
LINE
  8
_0-1_計細線
  6
CONTINUOUS
 62
    9
 10
1357.5148592280696
 20
1063.0864453263428
 11
1361.3352672280691
 21
1063.0864453263428
  0
ARC
  8
_0-1_計細線
  6
CONTINUOUS
 62
    9
 10
1359.9638352280692
 20
1051.0079493263427
 40
4.8979599999999994
 50
120.00000000001076
 51
179.99999999999983
  0
LINE
  8
_0-1_計細線
  6
CONTINUOUS
 62
    9
 10
1357.5148592280696
 20
1055.2497093263419
 11
1357.5148592280696
 21
1063.0864453263428
  0
LINE
  8
_0-0_計極細
  6
CONTINUOUS
 62
    9
 10
1353.1066912280678
 20
1058.1884853263427
 11
1353.1066912280678
 21
1061.0362213263422
  0
LINE
  8
_0-0_計極細
  6
CONTINUOUS
 62
    9
 10
1354.5555072280681
 20
1057.4048133263411
 11
1353.1066912280678
 21
1058.1884853263427
  0
LINE
  8
_0-0_計極細
  6
CONTINUOUS
 62
    9
 10
1305.5964912280706
 20
1057.4048133263411
 11
1330.0862752280682
 21
1057.4048133263411
  0
LINE
  8
_0-0_計極細
  6
CONTINUOUS
 62
    9
 10
1344.0454672280703
 20
995.4946053263418
 11
1344.0454672280703
 21
1021.9435813263415
  0
LINE
  8
_0-0_計極細
  6
CONTINUOUS
 62
    9
 10
1332.2903632280704
 20
983.73950132634207
 11
1330.0862832280675
 21
983.73950132634207
  0
ARC
  8
_0-0_計極細
  6
CONTINUOUS
 62
    9
 10
1332.2903632280704
 20
995.4946053263418
 40
11.755104000000001
 50
269.99999999999977
 51
359.99999999999966
  0
LINE
  8
_0-0_計極細
  6
CONTINUOUS
 62
    9
 10
1352.6168992280677
 20
1028.867021326342
 11
1352.6168992280677
 21
1057.4048133263411
  0
LINE
  8
_0-0_計極細
  6
CONTINUOUS
 62
    9
 10
1361.3352672280691
 20
1076.8007253263411
 11
1354.5555072280681
 21
1076.0170533263415
  0
LINE
  8
_0-0_計極細
  6
CONTINUOUS
 62
    9
 10
1305.5964912280706
 20
983.73950132634207
 11
1332.2903632280704
 21
983.73950132634207
  0
LINE
  8
_0-0_計極細
  6
CONTINUOUS
 62
    9
 10
1344.0454672280703
 20
995.4946053263418
 11
1344.0454672280703
 21
1051.3313413263411
  0
LINE
  8
_0-0_計極細
  6
CONTINUOUS
 62
    9
 10
1342.0862832280673
 20
995.4946053263418
 11
1342.0862832280673
 21
1051.3313413263411
  0
LINE
  8
_0-0_計極細
  6
CONTINUOUS
 62
    9
 10
1305.5964912280706
 20
985.69868532634132
 11
1332.2903632280704
 21
985.69868532634132
  0
ARC
  8
_0-0_計極細
  6
CONTINUOUS
 62
    9
 10
1332.2903632280704
 20
995.4946053263418
 40
9.7959199999999989
 50
269.99999999999977
 51
359.99999999999966
  0
ARC
  8
_0-0_計極細
  6
CONTINUOUS
 62
    9
 10
1343.0658752280706
 20
1051.3313413263411
 40
0.9795920000000001
 50
0
 51
89.999999999999915
  0
ARC
  8
_0-0_計極細
  6
CONTINUOUS
 62
    9
 10
1343.0658752280706
 20
1051.3313413263411
 40
0.9795920000000001
 50
89.999999999999915
 51
179.99999999999983
  0
LINE
  8
_0-0_計極細
  6
CONTINUOUS
 62
    9
 10
1343.0658752280706
 20
1052.3109333263426
 11
1332.0454672280666
 21
1052.3109333263426
  0
LINE
  8
_0-0_計極細
  6
CONTINUOUS
 62
    9
 10
1332.5912592280677
 20
1061.0362213263422
 11
1342.3295232280707
 21
1061.0362213263422
  0
LINE
  8
_0-0_計極細
  6
CONTINUOUS
 62
    9
 10
1305.5964912280706
 20
1078.1790773263426
 11
1354.5555072280681
 21
1078.1790773263426
  0
LINE
  8
_0-0_計極細
  6
CONTINUOUS
 62
    9
 10
1345.0250592280699
 20
1064.9545893263428
 11
1348.9924032280705
 21
1064.9545893263428
  0
LINE
  8
_0-0_計極細
  6
CONTINUOUS
 62
    9
 10
1351.8736032280706
 20
1075.7300933263421
 11
1350.70669122807
 21
1075.7300933263421
  0
LINE
  8
_0-0_計極細
  6
CONTINUOUS
 62
    9
 10
1348.9924032280705
 20
1063.681117326342
 11
1348.9924032280705
 21
1074.0158133263419
  0
ARC
  8
_0-0_計極細
  6
CONTINUOUS
 62
    9
 10
1350.70669122807
 20
1074.0158133263419
 40
1.7142880000000003
 50
89.999999999999915
 51
179.99999999999983
  0
ARC
  8
_0-0_計極細
  6
CONTINUOUS
 62
    9
 10
1354.5555072280681
 20
1076.4647893263416
 40
1.7142880000000003
 50
89.999999999999915
 51
175.84900999998229
  0
ARC
  8
_0-0_計極細
  6
CONTINUOUS
 62
    9
 10
1351.8736032280706
 20
1076.7096853263417
 40
0.9795920000000001
 50
269.99999999999977
 51
356.64911200001234
  0
LINE
  8
_0-0_計極細
  6
CONTINUOUS
 62
    9
 10
1354.6521952280693
 20
1077.5002133263413
 11
1361.3352672280691
 21
1078.4520853263427
  0
ARC
  8
_0-0_計極細
  6
CONTINUOUS
 62
    9
 10
1354.5555072280681
 20
1076.4647893263416
 40
1.0285679999999999
 50
89.999999999999915
 51
175.84900999995608
  0
ARC
  8
_0-0_計極細
  6
CONTINUOUS
 62
    9
 10
1351.8736032280706
 20
1076.7096853263417
 40
1.6653040000000003
 50
269.99999999999977
 51
356.64911200001285
  0
LINE
  8
_0-0_計極細
  6
CONTINUOUS
 62
    9
 10
1351.8736032280706
 20
1075.0443813263416
 11
1350.70669122807
 21
1075.0443813263416
  0
ARC
  8
_0-0_計極細
  6
CONTINUOUS
 62
    9
 10
1350.70669122807
 20
1074.0158133263419
 40
1.0285679999999999
 50
89.999999999999915
 51
179.99999999999983
  0
LINE
  8
_0-0_計極細
  6
CONTINUOUS
 62
    9
 10
1349.6781232280682
 20
1062.9954053263416
 11
1349.6781232280682
 21
1074.0158133263419
  0
LINE
  8
_0-0_計極細
  6
CONTINUOUS
 62
    9
 10
1354.5555072280681
 20
1062.4850373263423
 11
1354.5555072280681
 21
1077.4864453263424
  0
LINE
  8
_0-0_計極細
  6
CONTINUOUS
 62
    9
 10
1354.5555072280681
 20
1062.4850373263423
 11
1353.1066912280678
 21
1061.0362213263422
  0
LINE
  8
_0-0_計極細
  6
CONTINUOUS
 62
    9
 10
1347.7189392280688
 20
1059.0770373263429
 11
1347.7189392280688
 21
1064.9545893263428
  0
LINE
  8
_0-0_計極細
  6
CONTINUOUS
 62
    9
 10
1345.5148592280693
 20
1061.1349413263424
 11
1345.5148592280693
 21
1064.9545893263428
  0
LINE
  8
_0-0_計極細
  6
CONTINUOUS
 62
    9
 10
1347.7189392280688
 20
1062.9954053263416
 11
1349.6781232280682
 21
1062.9954053263416
  0
LINE
  8
_0-0_計極細
  6
CONTINUOUS
 62
    9
 10
1347.7189392280688
 20
1063.681117326342
 11
1348.9924032280705
 21
1063.681117326342
  0
LINE
  8
_0-0_計極細
  6
CONTINUOUS
 62
    9
 10
1346.9056992280694
 20
1059.0770373263429
 11
1347.7189392280688
 21
1059.0770373263429
  0
LINE
  8
_0-0_計極細
  6
CONTINUOUS
 62
    9
 10
1347.7189392280688
 20
1061.0362213263422
 11
1353.1066912280678
 21
1061.0362213263422
  0
LINE
  8
_0-0_計極細
  6
CONTINUOUS
 62
    9
 10
1334.7749152280685
 20
1059.3709173263421
 11
1339.6728752280706
 21
1059.3709173263421
  0
LINE
  8
_0-0_計極細
  6
CONTINUOUS
 62
    9
 10
1334.7749152280685
 20
1059.3709173263421
 11
1334.7749152280685
 21
1061.0362213263422
  0
LINE
  8
_0-0_計極細
  6
CONTINUOUS
 62
    9
 10
1339.6728752280706
 20
1059.3709173263421
 11
1339.6728752280706
 21
1061.0362213263422
  0
LINE
  8
_0-0_計極細
  6
CONTINUOUS
 62
    9
 10
1336.2443072280676
 20
1059.3709173263421
 11
1336.2443072280676
 21
1061.0362213263422
  0
LINE
  8
_0-0_計極細
  6
CONTINUOUS
 62
    9
 10
1348.9924032280705
 20
1075.7300933263421
 11
1350.9026112280683
 21
1075.7300933263421
  0
LINE
  8
_0-0_計極細
  6
CONTINUOUS
 62
    9
 10
1348.9924032280705
 20
1072.7913253263421
 11
1348.9924032280705
 21
1075.7300933263421
  0
LINE
  8
_0-0_計極細
  6
CONTINUOUS
 62
    9
 10
1347.9148592280708
 20
1072.3015253263427
 11
1347.9148592280708
 21
1073.2811173263424
  0
ARC
  8
_0-0_計極細
  6
CONTINUOUS
 62
    9
 10
1348.5026112280705
 20
1072.7913253263421
 40
0.489792
 50
269.99999999999977
 51
359.99999999999966
  0
LINE
  8
_0-0_計極細
  6
CONTINUOUS
 62
    9
 10
1305.7924032280698
 20
1073.2811173263424
 11
1347.9148592280708
 21
1073.2811173263424
  0
LINE
  8
_0-0_計極細
  6
CONTINUOUS
 62
    9
 10
1305.7924032280698
 20
1072.3015253263427
 11
1348.5026112280705
 21
1072.3015253263427
  0
LINE
  8
_0-0_計極細
  6
CONTINUOUS
 62
    9
 10
1305.5964912280706
 20
1071.2299573263415
 11
1348.8454672280695
 21
1071.2299573263415
  0
LINE
  8
_0-0_計極細
  6
CONTINUOUS
 62
    9
 10
1344.5352672280696
 20
1071.2299573263415
 11
1344.5352672280696
 21
1070.7401653263412
  0
LINE
  8
_0-0_計極細
  6
CONTINUOUS
 62
    9
 10
1348.0617952280681
 20
1069.7605733263415
 11
1348.8454672280695
 21
1071.2299573263415
  0
LINE
  8
_0-0_計極細
  6
CONTINUOUS
 62
    9
 10
1344.0454672280703
 20
1067.9973093263422
 11
1344.5352672280696
 21
1068.4871013263428
  0
LINE
  8
_0-0_計極細
  6
CONTINUOUS
 62
    9
 10
1344.5352672280696
 20
1067.5075093263411
 11
1344.0454672280703
 21
1067.9973093263422
  0
LINE
  8
_0-0_計極細
  6
CONTINUOUS
 62
    9
 10
1344.5352672280696
 20
1069.7605733263415
 11
1344.0454672280703
 21
1070.2503653263418
  0
LINE
  8
_0-0_計極細
  6
CONTINUOUS
 62
    9
 10
1344.0454672280703
 20
1070.2503653263418
 11
1344.5352672280696
 21
1070.7401653263412
  0
LINE
  8
_0-0_計極細
  6
CONTINUOUS
 62
    9
 10
1305.5964912280706
 20
1070.2503653263418
 11
1344.0454672280703
 21
1070.2503653263418
  0
LINE
  8
_0-0_計極細
  6
CONTINUOUS
 62
    9
 10
1305.5964912280706
 20
1067.9973093263422
 11
1344.0454672280703
 21
1067.9973093263422
  0
LINE
  8
_0-0_計極細
  6
CONTINUOUS
 62
    9
 10
1305.5964912280706
 20
1067.0177173263426
 11
1348.0617952280681
 21
1067.0177173263426
  0
LINE
  8
_0-0_計極細
  6
CONTINUOUS
 62
    9
 10
1348.0617952280681
 20
1069.7605733263415
 11
1348.0617952280681
 21
1067.0177173263426
  0
LINE
  8
_0-0_計極細
  6
CONTINUOUS
 62
    9
 10
1344.5352672280696
 20
1067.5075093263411
 11
1344.5352672280696
 21
1067.0177173263426
  0
LINE
  8
_0-0_計極細
  6
CONTINUOUS
 62
    9
 10
1344.5352672280696
 20
1069.7605733263415
 11
1344.5352672280696
 21
1068.4871013263428
  0
LINE
  8
_0-0_計極細
  6
CONTINUOUS
 62
    9
 10
1331.0658752280708
 20
1002.5553493263421
 11
1305.5964912280706
 21
1002.5553493263421
  0
ARC
  8
_0-0_計極細
  6
CONTINUOUS
 62
    9
 10
1331.0658752280708
 20
1003.5349413263418
 40
0.9795920000000001
 50
269.99999999999977
 51
359.99999999999966
  0
LINE
  8
_0-0_計極細
  6
CONTINUOUS
 62
    9
 10
1332.0454672280703
 20
1003.5349413263418
 11
1332.0454672280666
 21
1058.5627733263416
  0
ARC
  8
_0-0_計極細
  6
CONTINUOUS
 62
    9
 10
1337.9230192280684
 20
1058.5627733263416
 40
5.8775520000000006
 50
55.166293999992263
 51
179.99999999999983
  0
ARC
  8
_0-0_計極細
  6
CONTINUOUS
 62
    9
 10
1339.3924032280686
 20
1061.1349413263424
 40
2.9387760000000003
 50
0
 51
50.029502999978291
  0
LINE
  8
_0-0_計極細
  6
CONTINUOUS
 62
    9
 10
1342.3311792280674
 20
1058.1961653263415
 11
1342.3311792280674
 21
1061.1349413263424
  0
LINE
  8
_0-0_計極細
  6
CONTINUOUS
 62
    9
 10
1345.2699552280703
 20
1058.1961653263415
 11
1342.3311792280674
 21
1058.1961653263415
  0
ARC
  8
_0-0_計極細
  6
CONTINUOUS
 62
    9
 10
1345.2699552280703
 20
1060.1553493263425
 40
1.9591840000000003
 50
269.99999999999977
 51
359.99999999999966
  0
LINE
  8
_0-0_計極細
  6
CONTINUOUS
 62
    9
 10
1347.2291392280695
 20
1060.1553493263425
 11
1347.2291392280695
 21
1061.1349413263424
  0
LINE
  8
_0-0_計極細
  6
CONTINUOUS
 62
    9
 10
1347.2291392280695
 20
1061.1349413263424
 11
1345.0250592280699
 21
1061.1349413263424
  0
LINE
  8
_0-0_計極細
  6
CONTINUOUS
 62
    9
 10
1348.2087312280692
 20
1065.4451493263412
 11
1305.5964912280706
 21
1065.4451493263412
  0
LINE
  8
_0-0_計極細
  6
CONTINUOUS
 62
    9
 10
1348.2087312280692
 20
1065.4451493263412
 11
1348.2087312280692
 21
1066.9145333263414
  0
LINE
  8
_0-0_計極細
  6
CONTINUOUS
 62
    9
 10
1348.2087312280692
 20
1066.9145333263414
 11
1305.5964912280706
 21
1066.9145333263414
  0
LINE
  8
_0-0_計極細
  6
CONTINUOUS
 62
    9
 10
1348.2087312280692
 20
1071.4206533263412
 11
1305.5964912280706
 21
1071.4206533263412
  0
LINE
  8
_0-0_計極細
  6
CONTINUOUS
 62
    9
 10
1348.2087312280692
 20
1071.4206533263412
 11
1348.2087312280692
 21
1072.3015253263427
  0
LINE
  8
_0-0_計極細
  6
CONTINUOUS
 62
    9
 10
1345.0250592280699
 20
1061.1349413263424
 11
1345.0250592280699
 21
1065.4451493263412
  0
LINE
  8
_0-0_計極細
  6
CONTINUOUS
 62
    9
 10
1332.0454672280703
 20
1058.1884853263427
 11
1353.1066912280678
 21
1058.1884853263427
  0
LINE
  8
_0-0_計極細
  6
CONTINUOUS
 62
    9
 10
1332.0454672280666
 20
1057.4048133263411
 11
1354.5555072280681
 21
1057.4048133263411
  0
LINE
  8
_0-0_計極細
  6
CONTINUOUS
 62
    9
 10
1330.0862752280682
 20
1003.5349413263418
 11
1330.0862752280682
 21
1057.4048133263411
  0
ARC
  8
_0-0_計極細
  6
CONTINUOUS
 62
    9
 10
1331.0658672280679
 20
1003.5349413263418
 40
0.9795920000000001
 50
179.99999999999983
 51
269.99999999999977
  0
LINE
  8
_0-0_計極細
  6
CONTINUOUS
 62
    9
 10
1355.01757922807
 20
967.09889332634236
 11
1390.7726832280698
 21
967.98052532634097
  0
LINE
  8
_0-0_計極細
  6
CONTINUOUS
 62
    9
 10
1305.5964912280706
 20
967.09948532634257
 11
1355.0658752280708
 21
967.09948532634257
  0
LINE
  8
_0-0_計極細
  6
CONTINUOUS
 62
    9
 10
1344.1178432280706
 20
1019.0912933263415
 11
1390.7726832280698
 21
1017.940901326342
  0
LINE
  8
_0-0_計極細
  6
CONTINUOUS
 62
    9
 10
1352.6892752280676
 20
1028.867021326342
 11
1347.0566192280694
 21
1028.867021326342
  0
ARC
  8
_0-0_計極細
  6
CONTINUOUS
 62
    9
 10
1347.0566192280694
 20
1025.9282453263411
 40
2.9387760000000003
 50
89.999999999999915
 51
179.99999999999983
  0
LINE
  8
_0-0_計極細
  6
CONTINUOUS
 62
    9
 10
1332.0371712280703
 20
1003.4078133263417
 11
1332.0371872280684
 21
1003.4078213263427
  0
LINE
  8
_0-0_計極細
  6
CENTER1
 62
    9
 10
1281.2556720694065
 20
991.22930132634133
 11
1411.6070794768116
 21
991.22930132634133
  0
LINE
  8
_0-0_計極細
  6
CONTINUOUS
 62
    9
 10
1354.5555072280681
 20
1078.1790773263426
 11
1361.3352672280691
 21
1079.1447180303903
  0
LINE
  8
_0-0_計極細
  6
CONTINUOUS
 62
    9
 10
1305.5964912280706
 20
1079.1586693263423
 11
1361.3352672280691
 21
1079.1586693263423
  0
LINE
  8
_0-1_計細線
  6
CONTINUOUS
 62
    9
 10
1361.3352672280691
 20
1063.0864453263428
 11
1361.3352672280691
 21
1079.1586693263423
  0
LINE
  8
_0-1_計細線
  6
CONTINUOUS
 62
    9
 10
1248.5964912280708
 20
1076.2107285393038
 11
1305.5964912280704
 21
1076.2107285393038
  0
LINE
  8
_0-1_計細線
  6
CONTINUOUS
 62
    9
 10
1249.8577152280686
 20
1072.8823573263423
 11
1249.8577152280686
 21
1076.2107285393035
  0
LINE
  8
_0-7_枠細線
  6
CONTINUOUS
 62
    9
 10
1801.7738468233374
 20
1746.2261792523225
 11
1801.7738468233374
 21
1496.2261792523234
  0
LINE
  8
_0-7_枠細線
  6
CONTINUOUS
 62
    9
 10
1801.7738468233374
 20
1746.2261792523225
 11
2439.2738468233342
 21
1746.2261792523225
  0
LINE
  8
_0-7_枠細線
  6
CONTINUOUS
 62
    9
 10
1801.7738468233374
 20
1696.2261792523225
 11
2439.2738468233342
 21
1696.2261792523225
  0
LINE
  8
_0-7_枠細線
  6
CONTINUOUS
 62
    9
 10
1801.7738468233374
 20
1646.2261792523225
 11
2439.2738468233342
 21
1646.2261792523225
  0
LINE
  8
_0-7_枠細線
  6
CONTINUOUS
 62
    9
 10
1801.7738468233374
 20
1596.2261792523234
 11
2439.2738468233342
 21
1596.2261792523234
  0
LINE
  8
_0-7_枠細線
  6
CONTINUOUS
 62
    9
 10
1801.7738468233374
 20
1546.2261792523234
 11
2439.2738468233342
 21
1546.2261792523234
  0
LINE
  8
_0-7_枠細線
  6
CONTINUOUS
 62
    9
 10
1801.7738468233374
 20
1496.2261792523234
 11
2439.2738468233342
 21
1496.2261792523234
  0
LINE
  8
_0-7_枠細線
  6
CONTINUOUS
 62
    9
 10
2039.2738468233374
 20
1746.2261792523225
 11
2039.2738468233374
 21
1496.2261792523234
  0
LINE
  8
_0-7_枠細線
  6
CONTINUOUS
 62
    9
 10
2139.273846823336
 20
1746.2261792523225
 11
2139.273846823336
 21
1496.2261792523234
  0
LINE
  8
_0-7_枠細線
  6
CONTINUOUS
 62
    9
 10
2239.2738468233342
 20
1746.2261792523225
 11
2239.2738468233342
 21
1496.2261792523234
  0
LINE
  8
_0-7_枠細線
  6
CONTINUOUS
 62
    9
 10
2339.2738468233329
 20
1746.2261792523225
 11
2339.2738468233329
 21
1496.2261792523234
  0
LINE
  8
_0-7_枠細線
  6
CONTINUOUS
 62
    9
 10
2439.273846823332
 20
1746.2261792523225
 11
2439.273846823332
 21
1496.2261792523234
  0
TEXT
  8
_0-7_枠細線
 62
    1
 10
2059.2738468233374
 20
1606.2261792523234
 40
30
 41
1
 50
0
  1
1194
  0
TEXT
  8
_0-7_枠細線
 62
    1
 10
2059.2738468233374
 20
1556.2261792523234
 40
30
 41
1
 50
0
  1
1494
  0
TEXT
  8
_0-7_枠細線
 62
    1
 10
2159.2738468233351
 20
1606.2261792523234
 40
30
 41
1
 50
0
  1
1170
  0
TEXT
  8
_0-7_枠細線
 62
    1
 10
2159.2738468233351
 20
1556.2261792523234
 40
30
 41
1
 50
0
  1
1470
  0
TEXT
  8
_0-7_枠細線
 62
    1
 10
2259.2738468233338
 20
1606.2261792523234
 40
30
 41
1
 50
0
  1
1167
  0
TEXT
  8
_0-7_枠細線
 62
    1
 10
2244.2738468233338
 20
1556.2261792523234
 40
30
 41
1
 50
0
  1
733×2
  0
TEXT
  8
_0-7_枠細線
 62
    1
 10
2359.273846823332
 20
1606.2261792523234
 40
30
 41
1
 50
0
  1
1114
  0
TEXT
  8
_0-7_枠細線
 62
    1
 10
2359.273846823332
 20
1556.2261792523234
 40
30
 41
1
 50
0
  1
1414
  0
TEXT
  8
_0-7_枠細線
 62
    1
 10
2059.2738468233374
 20
1506.2261792523234
 40
30
 41
1
 50
0
  1
1794
  0
TEXT
  8
_0-7_枠細線
 62
    1
 10
2159.2738468233351
 20
1506.2261792523234
 40
30
 41
1
 50
0
  1
1770
  0
TEXT
  8
_0-7_枠細線
 62
    1
 10
2244.2738468233338
 20
1506.2261792523234
 40
30
 41
1
 50
0
  1
883×2
  0
TEXT
  8
_0-7_枠細線
 62
    1
 10
2359.273846823332
 20
1506.2261792523234
 40
30
 41
1
 50
0
  1
1714
  0
TEXT
  8
_0-7_枠細線
 62
    1
 10
1860.5238468233374
 20
1706.2261792523225
 40
30
 41
1
 50
0
  1
品　　番
  0
TEXT
  8
_0-7_枠細線
 62
    1
 10
2066.7738468233365
 20
1656.2261792523225
 40
30
 41
1
 50
0
  1
994
  0
TEXT
  8
_0-7_枠細線
 62
    1
 10
2166.7738468233351
 20
1656.2261792523227
 40
30
 41
1
 50
0
  1
970
  0
TEXT
  8
_0-7_枠細線
 62
    1
 10
2266.7738468873349
 20
1656.2261792523225
 40
30
 41
1
 50
0
  1
967
  0
TEXT
  8
_0-7_枠細線
 62
    1
 10
2366.7738468233329
 20
1656.2261792523225
 40
30
 41
1
 50
0
  1
914
  0
TEXT
  8
_0-7_枠細線
 62
    1
 10
2381.7738468233329
 20
1706.2261792523225
 40
30
 41
1
 50
0
  1
C
  0
TEXT
  8
_0-7_枠細線
 62
    1
 10
2281.7738468233338
 20
1706.2261792523225
 40
30
 41
1
 50
0
  1
B
  0
TEXT
  8
_0-7_枠細線
 62
    1
 10
2181.773846823336
 20
1706.2261792523225
 40
30
 41
1
 50
0
  1
A
  0
TEXT
  8
_0-7_枠細線
 62
    1
 10
2081.7738468233374
 20
1706.2261792523225
 40
30
 41
1
 50
0
  1
L
  0
LINE
  8
_0-7_枠細線
  6
CONTINUOUS
 62
    9
 10
1801.7738468233374
 20
1402.4761792523234
 11
1801.7738468233374
 21
1152.4761792523241
  0
LINE
  8
_0-7_枠細線
  6
CONTINUOUS
 62
    9
 10
2039.2738468233374
 20
1402.4761792523234
 11
2039.2738468233374
 21
1152.4761792523241
  0
TEXT
  8
_0-7_枠細線
 62
    1
 10
1860.5238468233374
 20
1362.4761792523234
 40
30
 41
1
 50
0
  1
品　　番
  0
LINE
  8
_0-7_枠細線
  6
CONTINUOUS
 62
    9
 10
1801.7738468233374
 20
1152.4761792523241
 11
2539.2738468233297
 21
1152.4761792523241
  0
LINE
  8
_0-7_枠細線
  6
CONTINUOUS
 62
    9
 10
1801.7738468233374
 20
1202.4761792523241
 11
2539.2738468233297
 21
1202.4761792523241
  0
LINE
  8
_0-7_枠細線
  6
CONTINUOUS
 62
    9
 10
1801.7738468233374
 20
1252.4761792523241
 11
2539.2738468233297
 21
1252.4761792523241
  0
LINE
  8
_0-7_枠細線
  6
CONTINUOUS
 62
    9
 10
1801.7738468233374
 20
1302.4761792523234
 11
2539.2738468233297
 21
1302.4761792523234
  0
LINE
  8
_0-7_枠細線
  6
CONTINUOUS
 62
    9
 10
1801.7738468233374
 20
1352.4761792523234
 11
2539.2738468233297
 21
1352.4761792523234
  0
LINE
  8
_0-7_枠細線
  6
CONTINUOUS
 62
    9
 10
1801.7738468233374
 20
1402.4761792523234
 11
2539.2738468233297
 21
1402.4761792523234
  0
TEXT
  8
_0-7_枠細線
 62
    1
 10
1812.2071801566713
 20
1112.205543983529
 40
30
 41
1
 50
0
  1
※○に色記号を付記
  0
TEXT
  8
_0-7_枠細線
 62
    1
 10
1804.0502154068236
 20
1756.2261792523225
 40
35
 41
1
 50
0
  1
品番寸法表
  0
TEXT
  8
_0-7_枠細線
 62
    1
 10
1804.0502154068236
 20
1412.4761792523234
 40
35
 41
1
 50
0
  1
アンカー位置寸法表
  0
TEXT
  8
_0-7_枠細線
 62
    1
 10
1917.1186917912062
 20
220
 40
40.000000000000014
 41
0.5999999999999998
 50
0
  1
ＨＮＦＹ－１５Ｌ１０００～１８００
  0
TEXT
  8
_0-7_枠細線
 62
    1
 10
1808.0238468233374
 20
1656.2261792523225
 40
30
 41
1
 50
0
  1
HNFY-15L1000-○
  0
TEXT
  8
_0-7_枠細線
 62
    1
 10
1808.0238468233374
 20
1606.2261792523225
 40
30
 41
1
 50
0
  1
HNFY-15L1200-○
  0
TEXT
  8
_0-7_枠細線
 62
    1
 10
1808.0238468233374
 20
1556.2261792523225
 40
30
 41
1
 50
0
  1
HNFY-15L1500-○
  0
TEXT
  8
_0-7_枠細線
 62
    1
 10
1808.0238468233374
 20
1506.2261792523223
 40
30
 41
1
 50
0
  1
HNFY-15L1800-○
  0
TEXT
  8
_0-7_枠細線
 62
    1
 10
1808.0238468233374
 20
1312.4761792523234
 40
30
 41
1
 50
0
  1
HNFY-15L1000-○
  0
TEXT
  8
_0-7_枠細線
 62
    1
 10
1808.0238468233374
 20
1262.4761792523232
 40
30
 41
1
 50
0
  1
HNFY-15L1200-○
  0
TEXT
  8
_0-7_枠細線
 62
    1
 10
1808.0238468233374
 20
1212.4761792523232
 40
30
 41
1
 50
0
  1
HNFY-15L1500-○
  0
TEXT
  8
_0-7_枠細線
 62
    1
 10
1808.0238468233374
 20
1162.4761792523232
 40
30
 41
1
 50
0
  1
HNFY-15L1800-○
  0
LINE
  8
_0-b_細線3
  6
CONTINUOUS
 62
    9
 10
2053.3764004408263
 20
486.63633123671889
 11
2453.3764004408258
 21
486.63633123671889
  0
LINE
  8
_0-b_細線3
  6
CONTINUOUS
 62
    9
 10
2456.7097337741593
 20
483.3029979033854
 11
2050.0430671074928
 21
483.3029979033854
  0
LINE
  8
_0-b_細線3
  6
CONTINUOUS
 62
    9
 10
2013.3764004408263
 20
789.96966457005237
 11
2013.3764004408263
 21
816.63633123671889
  0
LINE
  8
_0-b_細線3
  6
CONTINUOUS
 62
    9
 10
2013.3764004408263
 20
816.63633123671889
 11
2053.3764004408263
 21
816.63633123671889
  0
LINE
  8
_0-b_細線3
  6
CONTINUOUS
 62
    9
 10
2453.3764004408258
 20
816.63633123671889
 11
2493.3764004408258
 21
816.63633123671889
  0
LINE
  8
_0-b_細線3
  6
CONTINUOUS
 62
    9
 10
2493.3764004408258
 20
816.63633123671889
 11
2493.3764004408258
 21
789.96966457005237
  0
LINE
  8
_0-b_細線3
  6
CONTINUOUS
 62
    9
 10
2493.3764004408258
 20
789.96966457005237
 11
2490.0430671074923
 21
789.96966457005237
  0
LINE
  8
_0-b_細線3
  6
CONTINUOUS
 62
    9
 10
2490.0430671074923
 20
789.96966457005237
 11
2490.0430671074923
 21
813.3029979033854
  0
LINE
  8
_0-b_細線3
  6
CONTINUOUS
 62
    9
 10
2490.0430671074923
 20
813.3029979033854
 11
2456.7097337741593
 21
813.3029979033854
  0
LINE
  8
_0-b_細線3
  6
CONTINUOUS
 62
    9
 10
2050.0430671074928
 20
813.3029979033854
 11
2016.7097337741598
 21
813.3029979033854
  0
LINE
  8
_0-b_細線3
  6
CONTINUOUS
 62
    9
 10
2016.7097337741598
 20
813.3029979033854
 11
2016.7097337741598
 21
789.96966457005237
  0
LINE
  8
_0-b_細線3
  6
CONTINUOUS
 62
    9
 10
2016.7097337741598
 20
789.96966457005237
 11
2013.3764004408263
 21
789.96966457005237
  0
LINE
  8
_0-b_細線3
  6
CONTINUOUS
 62
    9
 10
2053.3764004408263
 20
816.63633123671889
 11
2053.3764004408263
 21
486.63633123671889
  0
LINE
  8
_0-b_細線3
  6
CONTINUOUS
 62
    9
 10
2453.3764004408258
 20
486.63633123671889
 11
2453.3764004408258
 21
816.63633123671889
  0
LINE
  8
_0-b_細線3
  6
CONTINUOUS
 62
    9
 10
2456.7097337741593
 20
813.3029979033854
 11
2456.7097337741593
 21
483.3029979033854
  0
LINE
  8
_0-b_細線3
  6
CONTINUOUS
 62
    9
 10
2050.0430671074928
 20
483.3029979033854
 11
2050.0430671074928
 21
813.3029979033854
  0
LINE
  8
_0-a_極細3
  6
CENTER1
 62
    9
 10
2253.3764004408263
 20
714.26467226581917
 11
2253.3764004408263
 21
841.16467226583177
  0
LINE
  8
_0-b_細線3
  6
CONTINUOUS
 62
    9
 10
2094.7097337693358
 20
739.96966457005169
 11
2083.3764004360023
 21
739.96966457005169
  0
LINE
  8
_0-b_細線3
  6
CONTINUOUS
 62
    9
 10
2118.3764004408254
 20
739.96966457005169
 11
2108.0430671038757
 21
739.96966457005169
  0
LINE
  8
_0-b_細線3
  6
CONTINUOUS
 62
    9
 10
2388.3764004408272
 20
739.96966457005169
 11
2398.7097337777768
 21
739.96966457005169
  0
LINE
  8
_0-b_細線3
  6
CONTINUOUS
 62
    9
 10
2120.0430671074923
 20
744.96966457005146
 11
2118.3764004408254
 21
746.63633123671855
  0
LINE
  8
_0-b_細線3
  6
CONTINUOUS
 62
    9
 10
2120.0430671074923
 20
741.63633123671775
 11
2120.0430671074923
 21
744.96966457005146
  0
LINE
  8
_0-b_細線3
  6
CONTINUOUS
 62
    9
 10
2118.3764004408254
 20
739.96966457005169
 11
2120.0430671074923
 21
741.63633123671775
  0
LINE
  8
_0-b_細線3
  6
CONTINUOUS
 62
    9
 10
2060.0430671074928
 20
739.96966457005169
 11
2118.3764004408254
 21
739.96966457005169
  0
LINE
  8
_0-b_細線3
  6
CONTINUOUS
 62
    9
 10
2055.0430671074919
 20
679.96966457005112
 11
2053.3764004408263
 21
681.63633123671798
  0
LINE
  8
_0-b_細線3
  6
CONTINUOUS
 62
    9
 10
2058.3764004408263
 20
679.96966457005112
 11
2055.0430671074919
 21
679.96966457005112
  0
LINE
  8
_0-b_細線3
  6
CONTINUOUS
 62
    9
 10
2060.0430671074928
 20
681.63633123671798
 11
2058.3764004408263
 21
679.96966457005112
  0
LINE
  8
_0-b_細線3
  6
CONTINUOUS
 62
    9
 10
2060.0430671074928
 20
739.96966457005169
 11
2060.0430671074928
 21
681.63633123671798
  0
LINE
  8
_0-b_細線3
  6
CONTINUOUS
 62
    9
 10
2053.3764004408263
 20
739.96966457005169
 11
2053.3764004408263
 21
681.63633123671798
  0
LINE
  8
_0-b_細線3
  6
CONTINUOUS
 62
    9
 10
2060.0430671074928
 20
746.63633123671855
 11
2118.3764004408254
 21
746.63633123671855
  0
ARC
  8
_0-b_細線3
  6
CONTINUOUS
 62
    9
 10
2060.0430671074928
 20
739.96966457005169
 40
6.6666666666666661
 50
89.999999999999915
 51
179.99999999999983
  0
LINE
  8
_0-b_細線3
  6
CONTINUOUS
 62
    9
 10
2386.7097337741602
 20
744.96966457005146
 11
2388.3764004408272
 21
746.63633123671855
  0
LINE
  8
_0-b_細線3
  6
CONTINUOUS
 62
    9
 10
2386.7097337741602
 20
741.63633123671775
 11
2386.7097337741602
 21
744.96966457005146
  0
LINE
  8
_0-b_細線3
  6
CONTINUOUS
 62
    9
 10
2388.3764004408272
 20
739.96966457005169
 11
2386.7097337741602
 21
741.63633123671775
  0
LINE
  8
_0-b_細線3
  6
CONTINUOUS
 62
    9
 10
2446.7097337741593
 20
739.96966457005169
 11
2388.3764004408272
 21
739.96966457005169
  0
LINE
  8
_0-b_細線3
  6
CONTINUOUS
 62
    9
 10
2451.7097337741602
 20
679.96966457005112
 11
2453.3764004408263
 21
681.63633123671798
  0
LINE
  8
_0-b_細線3
  6
CONTINUOUS
 62
    9
 10
2448.3764004408263
 20
679.96966457005112
 11
2451.7097337741602
 21
679.96966457005112
  0
LINE
  8
_0-b_細線3
  6
CONTINUOUS
 62
    9
 10
2446.7097337741593
 20
681.63633123671798
 11
2448.3764004408263
 21
679.96966457005112
  0
LINE
  8
_0-b_細線3
  6
CONTINUOUS
 62
    9
 10
2446.7097337741593
 20
739.96966457005169
 11
2446.7097337741593
 21
681.63633123671798
  0
LINE
  8
_0-b_細線3
  6
CONTINUOUS
 62
    9
 10
2446.7097337741593
 20
746.63633123671855
 11
2388.3764004408272
 21
746.63633123671855
  0
LINE
  8
_0-b_細線3
  6
CONTINUOUS
 62
    9
 10
2453.3764004408263
 20
739.96966457005169
 11
2453.3764004408263
 21
681.63633123671798
  0
ARC
  8
_0-b_細線3
  6
CONTINUOUS
 62
    9
 10
2446.7097337741593
 20
739.96966457005169
 40
6.6666666666666661
 50
0
 51
89.999999999999915
  0
LINE
  8
_0-d_寸法3
  6
CONTINUOUS
 62
    7
 10
2184.7199395066677
 20
804.2459422603356
 11
2184.7199395066677
 21
870.91260892700257
  0
TEXT
  8
_0-d_寸法3
 62
    7
 10
2184.7199395066677
 20
823.19712045304186
 40
30
 41
1
 50
90
  1
20
  0
LINE
  8
_0-d_寸法3
  6
CONTINUOUS
 62
    7
 10
2238.0555115496381
 20
759.49208343044904
 11
2177.059495075478
 21
810.67381835720107
  0
LINE
  8
_0-d_寸法3
  6
CONTINUOUS
 62
    7
 10
2238.0555115496381
 20
826.15875009711601
 11
2177.059495075478
 21
877.34048502386815
  0
POINT
  8
_0-d_寸法3
 62
    7
 10
2184.7199395066677
 20
804.2459422603356
  0
POINT
  8
_0-d_寸法3
 62
    7
 10
2184.7199395066677
 20
870.91260892700257
  0
LINE
  8
_0-d_寸法3
  6
CONTINUOUS
 62
    7
 10
2013.3764004408263
 20
1056.6363279000293
 11
2493.3764004408263
 21
1056.6363279000293
  0
TEXT
  8
_0-d_寸法3
 62
    7
 10
2230.8764004408272
 20
1056.6363279000293
 40
30
 41
1
 50
0
  1
144
  0
LINE
  8
_0-d_寸法3
  6
CONTINUOUS
 62
    7
 10
2013.3764004408263
 20
826.63633123671889
 11
2013.3764004408263
 21
1066.6363279000293
  0
LINE
  8
_0-d_寸法3
  6
CONTINUOUS
 62
    7
 10
2493.3764004408263
 20
826.63633123671889
 11
2493.3764004408263
 21
1066.6363279000293
  0
POINT
  8
_0-d_寸法3
 62
    7
 10
2013.3764004408263
 20
1056.6363279000293
  0
POINT
  8
_0-d_寸法3
 62
    7
 10
2493.3764004408263
 20
1056.6363279000293
  0
LINE
  8
_0-d_寸法3
  6
CONTINUOUS
 62
    7
 10
2013.3764004408263
 20
986.63632790002953
 11
2053.3764004408263
 21
986.63632790002953
  0
TEXT
  8
_0-d_寸法3
 62
    7
 10
2018.0722020326016
 20
986.63632790002953
 40
30
 41
1
 50
0
  1
12
  0
LINE
  8
_0-d_寸法3
  6
CONTINUOUS
 62
    7
 10
1485
 20
1050
 11
1485
 21
1050
  0
LINE
  8
_0-d_寸法3
  6
CONTINUOUS
 62
    7
 10
2053.3764004408263
 20
826.63633123671889
 11
2053.3764004408263
 21
996.63632790002953
  0
POINT
  8
_0-d_寸法3
 62
    7
 10
2013.3764004408263
 20
986.63632790002953
  0
POINT
  8
_0-d_寸法3
 62
    7
 10
2053.3764004408263
 20
986.63632790002953
  0
LINE
  8
_0-d_寸法3
  6
CONTINUOUS
 62
    7
 10
2053.3764004408263
 20
986.63632790002953
 11
2060.0430671063468
 21
986.63632790002953
  0
TEXT
  8
_0-d_寸法3
 62
    7
 10
2066.0610909214902
 20
956.63632790002953
 40
30
 41
1
 50
0
  1
2
  0
LINE
  8
_0-d_寸法3
  6
CONTINUOUS
 62
    7
 10
1485
 20
1050
 11
1485
 21
1050
  0
LINE
  8
_0-d_寸法3
  6
CONTINUOUS
 62
    7
 10
2060.0430671063468
 20
826.63633123671889
 11
2060.0430671063468
 21
996.63632790002953
  0
POINT
  8
_0-d_寸法3
 62
    7
 10
0
 20
0
  0
POINT
  8
_0-d_寸法3
 62
    7
 10
0
 20
0
  0
LINE
  8
_0-d_寸法3
  6
CONTINUOUS
 62
    7
 10
2060.0430671063468
 20
986.63632790002953
 11
2446.7097337735863
 21
986.63632790002953
  0
TEXT
  8
_0-d_寸法3
 62
    7
 10
2230.8764004408263
 20
986.63632790002953
 40
30
 41
1
 50
0
  1
116
  0
LINE
  8
_0-d_寸法3
  6
CONTINUOUS
 62
    7
 10
1485
 20
1050
 11
1485
 21
1050
  0
LINE
  8
_0-d_寸法3
  6
CONTINUOUS
 62
    7
 10
2446.7097337735863
 20
826.63633123671889
 11
2446.7097337735863
 21
996.63632790002953
  0
POINT
  8
_0-d_寸法3
 62
    7
 10
2060.0430671063468
 20
986.63632790002953
  0
POINT
  8
_0-d_寸法3
 62
    7
 10
2446.7097337735863
 20
986.63632790002953
  0
LINE
  8
_0-d_寸法3
  6
CONTINUOUS
 62
    7
 10
2446.7097337735863
 20
986.63632790002953
 11
2453.3764004408263
 21
986.63632790002953
  0
TEXT
  8
_0-d_寸法3
 62
    7
 10
2425.9722020326012
 20
956.63632790002953
 40
30
 41
1
 50
0
  1
2
  0
LINE
  8
_0-d_寸法3
  6
CONTINUOUS
 62
    7
 10
1485
 20
1050
 11
1485
 21
1050
  0
LINE
  8
_0-d_寸法3
  6
CONTINUOUS
 62
    7
 10
2453.3764004408258
 20
826.63633123671889
 11
2453.3764004408263
 21
996.63632790002953
  0
POINT
  8
_0-d_寸法3
 62
    7
 10
0
 20
0
  0
POINT
  8
_0-d_寸法3
 62
    7
 10
0
 20
0
  0
LINE
  8
_0-d_寸法3
  6
CONTINUOUS
 62
    7
 10
2453.3764004408263
 20
986.63632790002953
 11
2493.3764004408263
 21
986.63632790002953
  0
TEXT
  8
_0-d_寸法3
 62
    7
 10
2458.5759057363057
 20
986.63632790002953
 40
30
 41
1
 50
0
  1
12
  0
LINE
  8
_0-d_寸法3
  6
CONTINUOUS
 62
    7
 10
1485
 20
1050
 11
1485
 21
1050
  0
LINE
  8
_0-d_寸法3
  6
CONTINUOUS
 62
    7
 10
1485
 20
1050
 11
1485
 21
1050
  0
POINT
  8
_0-d_寸法3
 62
    7
 10
2453.3764004408263
 20
986.63632790002953
  0
POINT
  8
_0-d_寸法3
 62
    7
 10
2493.3764004408263
 20
986.63632790002953
  0
LINE
  8
_0-d_寸法3
  6
CONTINUOUS
 62
    7
 10
2593.3764004408258
 20
816.63633123671912
 11
2593.3764004408258
 21
789.9696645700526
  0
TEXT
  8
_0-d_寸法3
 62
    7
 10
2593.3764004408258
 20
795.80299790338609
 40
30
 41
1
 50
90
  1
8
  0
LINE
  8
_0-d_寸法3
  6
CONTINUOUS
 62
    7
 10
2513.3764004408263
 20
816.636331236719
 11
2603.3764004408258
 21
816.63633123671912
  0
LINE
  8
_0-d_寸法3
  6
CONTINUOUS
 62
    7
 10
2513.3764004408263
 20
789.96966457005237
 11
2603.3764004408258
 21
789.9696645700526
  0
POINT
  8
_0-d_寸法3
 62
    7
 10
2593.3764004408258
 20
816.63633123671912
  0
POINT
  8
_0-d_寸法3
 62
    7
 10
2593.3764004408258
 20
789.9696645700526
  0
LINE
  8
_0-d_寸法3
  6
CONTINUOUS
 62
    7
 10
1913.3764004408263
 20
483.30299790338597
 11
1913.3764004408263
 21
816.63633123671912
  0
TEXT
  8
_0-d_寸法3
 62
    7
 10
1913.3764004408263
 20
597.46966457005249
 40
30
 41
1
 50
90
  1
80～100
  0
LINE
  8
_0-d_寸法3
  6
CONTINUOUS
 62
    7
 10
2030.0430671074928
 20
483.30299790338552
 11
1903.3764004408263
 21
483.30299790338609
  0
LINE
  8
_0-d_寸法3
  6
CONTINUOUS
 62
    7
 10
1993.3764004408263
 20
816.636331236719
 11
1903.3764004408263
 21
816.63633123671912
  0
POINT
  8
_0-d_寸法3
 62
    7
 10
1913.3764004408263
 20
483.30299790338597
  0
POINT
  8
_0-d_寸法3
 62
    7
 10
1913.3764004408263
 20
816.63633123671912
  0
ARC
  8
_0-b_細線3
  6
CONTINUOUS
 62
    9
 10
2061.7097337730142
 20
801.96966457005271
 40
1.6666666666666665
 50
179.99999999999983
 51
269.99999999999977
  0
LINE
  8
_0-b_細線3
  6
CONTINUOUS
 62
    9
 10
2060.0430671063468
 20
806.63633123671855
 11
2060.0430671063468
 21
801.96966457005271
  0
ARC
  8
_0-b_細線3
  6
CONTINUOUS
 62
    9
 10
2096.3764004323225
 20
801.96966457005271
 40
1.6666666666666665
 50
269.99999999999977
 51
359.99999999999966
  0
LINE
  8
_0-b_細線3
  6
CONTINUOUS
 62
    9
 10
2098.0430670989886
 20
806.63633123671855
 11
2098.0430670989886
 21
801.96966457005271
  0
ARC
  8
_0-b_細線3
  6
CONTINUOUS
 62
    9
 10
2070.0430671063468
 20
796.96966457005271
 40
3.333333333333333
 50
0
 51
89.999999999999915
  0
LINE
  8
_0-b_細線3
  6
CONTINUOUS
 62
    9
 10
2070.0430671063468
 20
800.30299790338574
 11
2061.7097337730142
 21
800.30299790338574
  0
ARC
  8
_0-b_細線3
  6
CONTINUOUS
 62
    9
 10
2088.0430671063464
 20
796.96966457005271
 40
3.333333333333333
 50
89.999999999999915
 51
179.99999999999983
  0
LINE
  8
_0-b_細線3
  6
CONTINUOUS
 62
    9
 10
2088.0430670989886
 20
800.30299790338574
 11
2096.3764004323225
 21
800.30299790338574
  0
LINE
  8
_0-b_細線3
  6
CONTINUOUS
 62
    9
 10
2087.3764004360005
 20
813.30299790338529
 11
2070.7097337693349
 21
813.30299790338529
  0
LINE
  8
_0-b_細線3
  6
CONTINUOUS
 62
    9
 10
2073.3764004360005
 20
746.63633123671855
 11
2073.3764004396799
 21
796.96966457005271
  0
LINE
  8
_0-b_細線3
  6
CONTINUOUS
 62
    9
 10
2084.7097337693344
 20
746.63633123671855
 11
2084.7097337730147
 21
796.96966457005271
  0
LINE
  8
_0-b_細線3
  6
CONTINUOUS
 62
    9
 10
2084.7097337693344
 20
746.63633123671855
 11
2073.3764004360005
 21
746.63633123671855
  0
LINE
  8
_0-b_細線3
  6
CONTINUOUS
 62
    9
 10
2087.3764004360014
 20
813.30299790338529
 11
2096.8735254210383
 21
810.33514634453786
  0
LINE
  8
_0-b_細線3
  6
CONTINUOUS
 62
    9
 10
2098.0430670989886
 20
806.63633123671855
 11
2098.0430670989886
 21
808.74434638119521
  0
ARC
  8
_0-b_細線3
  6
CONTINUOUS
 62
    9
 10
2096.376400432322
 20
808.74434638119487
 40
1.6666666666666665
 50
0.000000000015633
 51
72.645975358110036
  0
LINE
  8
_0-b_細線3
  6
CONTINUOUS
 62
    9
 10
2070.709733769334
 20
813.30299790338529
 11
2061.212608784298
 21
810.3351463445382
  0
LINE
  8
_0-b_細線3
  6
CONTINUOUS
 62
    9
 10
2060.0430671063468
 20
806.63633123671855
 11
2060.0430671063468
 21
808.74434638119453
  0
ARC
  8
_0-b_細線3
  6
CONTINUOUS
 62
    9
 10
2061.7097337730133
 20
808.74434638119487
 40
1.6666666666666665
 50
107.35402464185547
 51
180.00000000000745
  0
ARC
  8
_0-b_細線3
  6
CONTINUOUS
 62
    9
 10
2060.0430671026688
 20
764.96966457005317
 40
0.6666666666666669
 50
179.99999999999983
 51
269.99999999999977
  0
ARC
  8
_0-b_細線3
  6
CONTINUOUS
 62
    9
 10
2085.2363337693341
 20
770.13584457005436
 40
25.859853333333334
 50
166.96197800000505
 51
193.03566999999961
  0
ARC
  8
_0-b_細線3
  6
CONTINUOUS
 62
    9
 10
2060.0430671026688
 20
786.96966457005396
 40
0.6666666666666669
 50
89.999999999999915
 51
179.99999999999983
  0
ARC
  8
_0-b_細線3
  6
CONTINUOUS
 62
    9
 10
2085.2363337693341
 20
781.80347790338601
 40
25.859853333333334
 50
166.96433000000002
 51
193.03802199999876
  0
LINE
  8
_0-b_細線3
  6
CONTINUOUS
 62
    9
 10
2059.3764004360009
 20
764.96966457005317
 11
2059.3764004360009
 21
786.96966457005396
  0
LINE
  8
_0-b_細線3
  6
CONTINUOUS
 62
    9
 10
2070.0430671026679
 20
787.63633123672003
 11
2060.0430671026688
 21
787.63633123672003
  0
LINE
  8
_0-b_細線3
  6
CONTINUOUS
 62
    9
 10
2070.0430671026679
 20
775.96966457005237
 11
2060.0431071026669
 21
775.96966457005237
  0
LINE
  8
_0-b_細線3
  6
CONTINUOUS
 62
    9
 10
2070.0430671026679
 20
764.30299790338711
 11
2060.0430671026688
 21
764.30299790338711
  0
ARC
  8
_0-b_細線3
  6
CONTINUOUS
 62
    9
 10
2070.7097337693367
 20
753.30299790338597
 40
0.6666666666666669
 50
179.99999999999983
 51
269.99999999999977
  0
ARC
  8
_0-b_細線3
  6
CONTINUOUS
 62
    9
 10
2070.7097337693367
 20
798.63633123671718
 40
0.6666666666666669
 50
89.999999999999915
 51
179.99999999999983
  0
LINE
  8
_0-b_細線3
  6
CONTINUOUS
 62
    9
 10
2072.4235432491923
 20
799.30299790338552
 11
2070.7097337693367
 21
799.30299790338552
  0
LINE
  8
_0-b_細線3
  6
CONTINUOUS
 62
    9
 10
2070.0430671026679
 20
774.3029979033862
 11
2070.0430671026679
 21
753.30299790338597
  0
LINE
  8
_0-b_細線3
  6
CONTINUOUS
 62
    9
 10
2070.0430671026679
 20
798.63633123671718
 11
2070.0430671026679
 21
774.3029979033862
  0
LINE
  8
_0-b_細線3
  6
CONTINUOUS
 62
    9
 10
2073.3764004364393
 20
752.63633123671877
 11
2070.7097337693367
 21
752.63633123671877
  0
ARC
  8
_0-b_細線3
  6
CONTINUOUS
 62
    9
 10
2120.0430671131721
 20
801.96966457005271
 40
1.6666666666666665
 50
179.99999999999983
 51
269.99999999999977
  0
LINE
  8
_0-b_細線3
  6
CONTINUOUS
 62
    9
 10
2118.3764004465042
 20
806.63633123671855
 11
2118.3764004465042
 21
801.96966457005271
  0
ARC
  8
_0-b_細線3
  6
CONTINUOUS
 62
    9
 10
2154.7097337724804
 20
801.96966457005271
 40
1.6666666666666665
 50
269.99999999999977
 51
359.99999999999966
  0
LINE
  8
_0-b_細線3
  6
CONTINUOUS
 62
    9
 10
2156.3764004391464
 20
806.63633123671855
 11
2156.3764004391464
 21
801.96966457005271
  0
ARC
  8
_0-b_細線3
  6
CONTINUOUS
 62
    9
 10
2128.3764004465042
 20
796.96966457005271
 40
3.333333333333333
 50
0
 51
89.999999999999915
  0
LINE
  8
_0-b_細線3
  6
CONTINUOUS
 62
    9
 10
2128.3764004465042
 20
800.30299790338574
 11
2120.0430671131721
 21
800.30299790338574
  0
ARC
  8
_0-b_細線3
  6
CONTINUOUS
 62
    9
 10
2146.3764004465042
 20
796.96966457005271
 40
3.333333333333333
 50
89.999999999999915
 51
179.99999999999983
  0
LINE
  8
_0-b_細線3
  6
CONTINUOUS
 62
    9
 10
2146.3764004391464
 20
800.30299790338574
 11
2154.7097337724804
 21
800.30299790338574
  0
LINE
  8
_0-b_細線3
  6
CONTINUOUS
 62
    9
 10
2145.7097337761584
 20
813.30299790338529
 11
2129.0430671094923
 21
813.30299790338529
  0
LINE
  8
_0-b_細線3
  6
CONTINUOUS
 62
    9
 10
2131.7097337761584
 20
746.63633123671855
 11
2131.7097337798377
 21
796.96966457005271
  0
LINE
  8
_0-b_細線3
  6
CONTINUOUS
 62
    9
 10
2143.0430671094923
 20
746.63633123671855
 11
2143.0430671131721
 21
796.96966457005271
  0
LINE
  8
_0-b_細線3
  6
CONTINUOUS
 62
    9
 10
2143.0430671094923
 20
746.63633123671855
 11
2131.7097337761584
 21
746.63633123671855
  0
LINE
  8
_0-b_細線3
  6
CONTINUOUS
 62
    9
 10
2145.7097337761593
 20
813.30299790338529
 11
2155.2068587611961
 21
810.33514634453786
  0
LINE
  8
_0-b_細線3
  6
CONTINUOUS
 62
    9
 10
2156.3764004391464
 20
806.63633123671855
 11
2156.3764004391464
 21
808.74434638119521
  0
ARC
  8
_0-b_細線3
  6
CONTINUOUS
 62
    9
 10
2154.7097337724799
 20
808.74434638119487
 40
1.6666666666666665
 50
0.000000000015633
 51
72.645975358110036
  0
LINE
  8
_0-b_細線3
  6
CONTINUOUS
 62
    9
 10
2129.0430671094914
 20
813.30299790338529
 11
2119.5459421244555
 21
810.3351463445382
  0
LINE
  8
_0-b_細線3
  6
CONTINUOUS
 62
    9
 10
2118.3764004465042
 20
806.63633123671855
 11
2118.3764004465042
 21
808.74434638119453
  0
ARC
  8
_0-b_細線3
  6
CONTINUOUS
 62
    9
 10
2120.0430671131712
 20
808.74434638119487
 40
1.6666666666666665
 50
107.3540246418704
 51
180.00000000000745
  0
ARC
  8
_0-b_細線3
  6
CONTINUOUS
 62
    9
 10
2088.0430671045083
 20
796.80299790338552
 40
3.333333333333333
 50
89.999999999999915
 51
179.99999999999983
  0
LINE
  8
_0-b_細線3
  6
CONTINUOUS
 62
    9
 10
2128.3764004428249
 20
800.13633123671866
 11
2088.0430671045083
 21
800.13633123671866
  0
ARC
  8
_0-b_細線3
  6
CONTINUOUS
 62
    9
 10
2128.3764004428249
 20
796.80299790338552
 40
3.333333333333333
 50
0
 51
89.999999999999915
  0
LINE
  8
_0-b_細線3
  6
CONTINUOUS
 62
    9
 10
2084.7097337711748
 20
796.80299790338552
 11
2084.7097337711748
 21
755.13633123671866
  0
ARC
  8
_0-b_細線3
  6
CONTINUOUS
 62
    9
 10
2088.0430671045083
 20
755.13633123671866
 40
3.333333333333333
 50
179.99999999999983
 51
269.99999999999977
  0
LINE
  8
_0-b_細線3
  6
CONTINUOUS
 62
    9
 10
2131.7097337761584
 20
755.13633123671866
 11
2131.7097337761584
 21
796.80299790338552
  0
LINE
  8
_0-b_細線3
  6
CONTINUOUS
 62
    9
 10
2087.3764004433583
 20
751.80299790338552
 11
2128.3764004428249
 21
751.80299790338552
  0
ARC
  8
_0-b_細線3
  6
CONTINUOUS
 62
    9
 10
2128.3764004428249
 20
755.13633123671866
 40
3.333333333333333
 50
269.99999999999977
 51
359.99999999999966
  0
ARC
  8
_0-b_細線3
  6
CONTINUOUS
 62
    9
 10
2178.0430671120444
 20
801.96966457005271
 40
1.6666666666666665
 50
179.99999999999983
 51
269.99999999999977
  0
LINE
  8
_0-b_細線3
  6
CONTINUOUS
 62
    9
 10
2176.3764004453765
 20
806.63633123671855
 11
2176.3764004453765
 21
801.96966457005271
  0
ARC
  8
_0-b_細線3
  6
CONTINUOUS
 62
    9
 10
2212.7097337713526
 20
801.96966457005271
 40
1.6666666666666665
 50
269.99999999999977
 51
359.99999999999966
  0
LINE
  8
_0-b_細線3
  6
CONTINUOUS
 62
    9
 10
2214.3764004380187
 20
806.63633123671855
 11
2214.3764004380187
 21
801.96966457005271
  0
ARC
  8
_0-b_細線3
  6
CONTINUOUS
 62
    9
 10
2186.3764004453765
 20
796.96966457005271
 40
3.333333333333333
 50
0
 51
89.999999999999915
  0
LINE
  8
_0-b_細線3
  6
CONTINUOUS
 62
    9
 10
2186.3764004453765
 20
800.30299790338574
 11
2178.0430671120444
 21
800.30299790338574
  0
ARC
  8
_0-b_細線3
  6
CONTINUOUS
 62
    9
 10
2204.3764004453765
 20
796.96966457005271
 40
3.333333333333333
 50
89.999999999999915
 51
179.99999999999983
  0
LINE
  8
_0-b_細線3
  6
CONTINUOUS
 62
    9
 10
2204.3764004380187
 20
800.30299790338574
 11
2212.7097337713526
 21
800.30299790338574
  0
LINE
  8
_0-b_細線3
  6
CONTINUOUS
 62
    9
 10
2203.7097337750306
 20
813.30299790338529
 11
2187.043067108365
 21
813.30299790338529
  0
LINE
  8
_0-b_細線3
  6
CONTINUOUS
 62
    9
 10
2189.7097337750306
 20
746.63633123671855
 11
2189.7097337787104
 21
796.96966457005271
  0
LINE
  8
_0-b_細線3
  6
CONTINUOUS
 62
    9
 10
2201.0430671083645
 20
746.63633123671855
 11
2201.0430671120448
 21
796.96966457005271
  0
LINE
  8
_0-b_細線3
  6
CONTINUOUS
 62
    9
 10
2201.0430671083645
 20
746.63633123671855
 11
2189.7097337750306
 21
746.63633123671855
  0
LINE
  8
_0-b_細線3
  6
CONTINUOUS
 62
    9
 10
2203.7097337750315
 20
813.30299790338529
 11
2213.2068587600684
 21
810.33514634453786
  0
LINE
  8
_0-b_細線3
  6
CONTINUOUS
 62
    9
 10
2214.3764004380187
 20
806.63633123671855
 11
2214.3764004380187
 21
808.74434638119521
  0
ARC
  8
_0-b_細線3
  6
CONTINUOUS
 62
    9
 10
2212.7097337713521
 20
808.74434638119487
 40
1.6666666666666665
 50
0.000000000015633
 51
72.645975358110036
  0
LINE
  8
_0-b_細線3
  6
CONTINUOUS
 62
    9
 10
2187.0430671083636
 20
813.30299790338529
 11
2177.5459421233281
 21
810.3351463445382
  0
LINE
  8
_0-b_細線3
  6
CONTINUOUS
 62
    9
 10
2176.3764004453765
 20
806.63633123671855
 11
2176.3764004453765
 21
808.74434638119453
  0
ARC
  8
_0-b_細線3
  6
CONTINUOUS
 62
    9
 10
2178.0430671120434
 20
808.74434638119487
 40
1.6666666666666665
 50
107.3540246418704
 51
180.00000000000745
  0
ARC
  8
_0-b_細線3
  6
CONTINUOUS
 62
    9
 10
2146.3764004446662
 20
796.80299790338552
 40
3.333333333333333
 50
89.999999999999915
 51
179.99999999999983
  0
LINE
  8
_0-b_細線3
  6
CONTINUOUS
 62
    9
 10
2186.3764004416971
 20
800.13633123671866
 11
2146.3764004446662
 21
800.13633123671866
  0
ARC
  8
_0-b_細線3
  6
CONTINUOUS
 62
    9
 10
2186.3764004416971
 20
796.80299790338552
 40
3.333333333333333
 50
0
 51
89.999999999999915
  0
LINE
  8
_0-b_細線3
  6
CONTINUOUS
 62
    9
 10
2143.0430671113322
 20
796.80299790338552
 11
2143.0430671113322
 21
755.13633123671866
  0
ARC
  8
_0-b_細線3
  6
CONTINUOUS
 62
    9
 10
2146.3764004446662
 20
755.13633123671866
 40
3.333333333333333
 50
179.99999999999983
 51
269.99999999999977
  0
LINE
  8
_0-b_細線3
  6
CONTINUOUS
 62
    9
 10
2189.7097337750306
 20
755.13633123671866
 11
2189.7097337750306
 21
796.80299790338552
  0
LINE
  8
_0-b_細線3
  6
CONTINUOUS
 62
    9
 10
2145.7097337835162
 20
751.80299790338552
 11
2186.3764004416971
 21
751.80299790338552
  0
ARC
  8
_0-b_細線3
  6
CONTINUOUS
 62
    9
 10
2186.3764004416971
 20
755.13633123671866
 40
3.333333333333333
 50
269.99999999999977
 51
359.99999999999966
  0
ARC
  8
_0-b_細線3
  6
CONTINUOUS
 62
    9
 10
2236.0430671111721
 20
801.96966457005271
 40
1.6666666666666665
 50
179.99999999999983
 51
269.99999999999977
  0
LINE
  8
_0-b_細線3
  6
CONTINUOUS
 62
    9
 10
2234.3764004445043
 20
806.63633123671855
 11
2234.3764004445043
 21
801.96966457005271
  0
ARC
  8
_0-b_細線3
  6
CONTINUOUS
 62
    9
 10
2270.7097337704799
 20
801.96966457005271
 40
1.6666666666666665
 50
269.99999999999977
 51
359.99999999999966
  0
LINE
  8
_0-b_細線3
  6
CONTINUOUS
 62
    9
 10
2272.3764004371465
 20
806.63633123671855
 11
2272.3764004371465
 21
801.96966457005271
  0
ARC
  8
_0-b_細線3
  6
CONTINUOUS
 62
    9
 10
2244.3764004445043
 20
796.96966457005271
 40
3.333333333333333
 50
0
 51
89.999999999999915
  0
LINE
  8
_0-b_細線3
  6
CONTINUOUS
 62
    9
 10
2244.3764004445043
 20
800.30299790338574
 11
2236.0430671111721
 21
800.30299790338574
  0
ARC
  8
_0-b_細線3
  6
CONTINUOUS
 62
    9
 10
2262.3764004445043
 20
796.96966457005271
 40
3.333333333333333
 50
89.999999999999915
 51
179.99999999999983
  0
LINE
  8
_0-b_細線3
  6
CONTINUOUS
 62
    9
 10
2262.3764004371465
 20
800.30299790338574
 11
2270.7097337704799
 21
800.30299790338574
  0
LINE
  8
_0-b_細線3
  6
CONTINUOUS
 62
    9
 10
2261.7097337741579
 20
813.30299790338529
 11
2245.0430671074923
 21
813.30299790338529
  0
LINE
  8
_0-b_細線3
  6
CONTINUOUS
 62
    9
 10
2247.7097337741584
 20
746.63633123671855
 11
2247.7097337778378
 21
796.96966457005271
  0
LINE
  8
_0-b_細線3
  6
CONTINUOUS
 62
    9
 10
2259.0430671074923
 20
746.63633123671855
 11
2259.0430671111721
 21
796.96966457005271
  0
LINE
  8
_0-b_細線3
  6
CONTINUOUS
 62
    9
 10
2259.0430671074923
 20
746.63633123671855
 11
2247.7097337741584
 21
746.63633123671855
  0
LINE
  8
_0-b_細線3
  6
CONTINUOUS
 62
    9
 10
2261.7097337741588
 20
813.30299790338529
 11
2271.2068587591957
 21
810.33514634453786
  0
LINE
  8
_0-b_細線3
  6
CONTINUOUS
 62
    9
 10
2272.3764004371465
 20
806.63633123671855
 11
2272.3764004371465
 21
808.74434638119521
  0
ARC
  8
_0-b_細線3
  6
CONTINUOUS
 62
    9
 10
2270.7097337704795
 20
808.74434638119487
 40
1.6666666666666665
 50
0.000000000015633
 51
72.645975358110036
  0
LINE
  8
_0-b_細線3
  6
CONTINUOUS
 62
    9
 10
2245.0430671074914
 20
813.30299790338529
 11
2235.5459421224555
 21
810.3351463445382
  0
LINE
  8
_0-b_細線3
  6
CONTINUOUS
 62
    9
 10
2234.3764004445043
 20
806.63633123671855
 11
2234.3764004445043
 21
808.74434638119453
  0
ARC
  8
_0-b_細線3
  6
CONTINUOUS
 62
    9
 10
2236.0430671111708
 20
808.74434638119487
 40
1.6666666666666665
 50
107.35402464185547
 51
180.00000000000745
  0
ARC
  8
_0-b_細線3
  6
CONTINUOUS
 62
    9
 10
2204.3764004435384
 20
796.80299790338552
 40
3.333333333333333
 50
89.999999999999915
 51
179.99999999999983
  0
LINE
  8
_0-b_細線3
  6
CONTINUOUS
 62
    9
 10
2244.3764004408245
 20
800.13633123671866
 11
2204.3764004435384
 21
800.13633123671866
  0
ARC
  8
_0-b_細線3
  6
CONTINUOUS
 62
    9
 10
2244.3764004408245
 20
796.80299790338552
 40
3.333333333333333
 50
0
 51
89.999999999999915
  0
LINE
  8
_0-b_細線3
  6
CONTINUOUS
 62
    9
 10
2201.0430671102049
 20
796.80299790338552
 11
2201.0430671102049
 21
755.13633123671866
  0
ARC
  8
_0-b_細線3
  6
CONTINUOUS
 62
    9
 10
2204.3764004435384
 20
755.13633123671866
 40
3.333333333333333
 50
179.99999999999983
 51
269.99999999999977
  0
LINE
  8
_0-b_細線3
  6
CONTINUOUS
 62
    9
 10
2247.7097337741584
 20
755.13633123671866
 11
2247.7097337741584
 21
796.80299790338552
  0
LINE
  8
_0-b_細線3
  6
CONTINUOUS
 62
    9
 10
2203.7097337823884
 20
751.80299790338552
 11
2244.3764004408245
 21
751.80299790338552
  0
ARC
  8
_0-b_細線3
  6
CONTINUOUS
 62
    9
 10
2244.3764004408245
 20
755.13633123671866
 40
3.333333333333333
 50
269.99999999999977
 51
359.99999999999966
  0
ARC
  8
_0-b_細線3
  6
CONTINUOUS
 62
    9
 10
2294.0430671123363
 20
801.96966457005271
 40
1.6666666666666665
 50
179.99999999999983
 51
269.99999999999977
  0
LINE
  8
_0-b_細線3
  6
CONTINUOUS
 62
    9
 10
2292.3764004456684
 20
806.63633123671855
 11
2292.3764004456684
 21
801.96966457005271
  0
ARC
  8
_0-b_細線3
  6
CONTINUOUS
 62
    9
 10
2328.7097337716446
 20
801.96966457005271
 40
1.6666666666666665
 50
269.99999999999977
 51
359.99999999999966
  0
LINE
  8
_0-b_細線3
  6
CONTINUOUS
 62
    9
 10
2330.3764004383106
 20
806.63633123671855
 11
2330.3764004383106
 21
801.96966457005271
  0
ARC
  8
_0-b_細線3
  6
CONTINUOUS
 62
    9
 10
2302.3764004456684
 20
796.96966457005271
 40
3.333333333333333
 50
0
 51
89.999999999999915
  0
LINE
  8
_0-b_細線3
  6
CONTINUOUS
 62
    9
 10
2302.3764004456684
 20
800.30299790338574
 11
2294.0430671123363
 21
800.30299790338574
  0
ARC
  8
_0-b_細線3
  6
CONTINUOUS
 62
    9
 10
2320.3764004456684
 20
796.96966457005271
 40
3.333333333333333
 50
89.999999999999915
 51
179.99999999999983
  0
LINE
  8
_0-b_細線3
  6
CONTINUOUS
 62
    9
 10
2320.3764004383106
 20
800.30299790338574
 11
2328.7097337716446
 21
800.30299790338574
  0
LINE
  8
_0-b_細線3
  6
CONTINUOUS
 62
    9
 10
2319.7097337753225
 20
813.30299790338529
 11
2303.0430671086565
 21
813.30299790338529
  0
LINE
  8
_0-b_細線3
  6
CONTINUOUS
 62
    9
 10
2305.7097337753225
 20
746.63633123671855
 11
2305.7097337790019
 21
796.96966457005271
  0
LINE
  8
_0-b_細線3
  6
CONTINUOUS
 62
    9
 10
2317.0430671086565
 20
746.63633123671855
 11
2317.0430671123363
 21
796.96966457005271
  0
LINE
  8
_0-b_細線3
  6
CONTINUOUS
 62
    9
 10
2317.0430671086565
 20
746.63633123671855
 11
2305.7097337753225
 21
746.63633123671855
  0
LINE
  8
_0-b_細線3
  6
CONTINUOUS
 62
    9
 10
2319.7097337753235
 20
813.30299790338529
 11
2329.2068587603603
 21
810.33514634453786
  0
LINE
  8
_0-b_細線3
  6
CONTINUOUS
 62
    9
 10
2330.3764004383106
 20
806.63633123671855
 11
2330.3764004383106
 21
808.74434638119521
  0
ARC
  8
_0-b_細線3
  6
CONTINUOUS
 62
    9
 10
2328.7097337716441
 20
808.74434638119487
 40
1.6666666666666665
 50
0.000000000015633
 51
72.645975358110036
  0
LINE
  8
_0-b_細線3
  6
CONTINUOUS
 62
    9
 10
2303.0430671086556
 20
813.30299790338529
 11
2293.5459421236196
 21
810.3351463445382
  0
LINE
  8
_0-b_細線3
  6
CONTINUOUS
 62
    9
 10
2292.3764004456684
 20
806.63633123671855
 11
2292.3764004456684
 21
808.74434638119453
  0
ARC
  8
_0-b_細線3
  6
CONTINUOUS
 62
    9
 10
2294.0430671123354
 20
808.74434638119487
 40
1.6666666666666665
 50
107.3540246418704
 51
180.00000000000745
  0
ARC
  8
_0-b_細線3
  6
CONTINUOUS
 62
    9
 10
2262.3764004426657
 20
796.80299790338552
 40
3.333333333333333
 50
89.999999999999915
 51
179.99999999999983
  0
LINE
  8
_0-b_細線3
  6
CONTINUOUS
 62
    9
 10
2302.3764004419891
 20
800.13633123671866
 11
2262.3764004426657
 21
800.13633123671866
  0
ARC
  8
_0-b_細線3
  6
CONTINUOUS
 62
    9
 10
2302.3764004419891
 20
796.80299790338552
 40
3.333333333333333
 50
0
 51
89.999999999999915
  0
LINE
  8
_0-b_細線3
  6
CONTINUOUS
 62
    9
 10
2259.0430671093322
 20
796.80299790338552
 11
2259.0430671093322
 21
755.13633123671866
  0
ARC
  8
_0-b_細線3
  6
CONTINUOUS
 62
    9
 10
2262.3764004426657
 20
755.13633123671866
 40
3.333333333333333
 50
179.99999999999983
 51
269.99999999999977
  0
LINE
  8
_0-b_細線3
  6
CONTINUOUS
 62
    9
 10
2305.7097337753225
 20
755.13633123671866
 11
2305.7097337753225
 21
796.80299790338552
  0
LINE
  8
_0-b_細線3
  6
CONTINUOUS
 62
    9
 10
2261.7097337815158
 20
751.80299790338552
 11
2302.3764004419891
 21
751.80299790338552
  0
ARC
  8
_0-b_細線3
  6
CONTINUOUS
 62
    9
 10
2302.3764004419891
 20
755.13633123671866
 40
3.333333333333333
 50
269.99999999999977
 51
359.99999999999966
  0
ARC
  8
_0-b_細線3
  6
CONTINUOUS
 62
    9
 10
2352.0430671135637
 20
801.96966457005271
 40
1.6666666666666665
 50
179.99999999999983
 51
269.99999999999977
  0
LINE
  8
_0-b_細線3
  6
CONTINUOUS
 62
    9
 10
2350.3764004468962
 20
806.63633123671855
 11
2350.3764004468962
 21
801.96966457005271
  0
ARC
  8
_0-b_細線3
  6
CONTINUOUS
 62
    9
 10
2386.7097337728719
 20
801.96966457005271
 40
1.6666666666666665
 50
269.99999999999977
 51
359.99999999999966
  0
LINE
  8
_0-b_細線3
  6
CONTINUOUS
 62
    9
 10
2388.376400439538
 20
806.63633123671855
 11
2388.376400439538
 21
801.96966457005271
  0
ARC
  8
_0-b_細線3
  6
CONTINUOUS
 62
    9
 10
2360.3764004468962
 20
796.96966457005271
 40
3.333333333333333
 50
0
 51
89.999999999999915
  0
LINE
  8
_0-b_細線3
  6
CONTINUOUS
 62
    9
 10
2360.3764004468962
 20
800.30299790338574
 11
2352.0430671135637
 21
800.30299790338574
  0
ARC
  8
_0-b_細線3
  6
CONTINUOUS
 62
    9
 10
2378.3764004468958
 20
796.96966457005271
 40
3.333333333333333
 50
89.999999999999915
 51
179.99999999999983
  0
LINE
  8
_0-b_細線3
  6
CONTINUOUS
 62
    9
 10
2378.376400439538
 20
800.30299790338574
 11
2386.7097337728719
 21
800.30299790338574
  0
LINE
  8
_0-b_細線3
  6
CONTINUOUS
 62
    9
 10
2377.7097337765499
 20
813.30299790338529
 11
2361.0430671098839
 21
813.30299790338529
  0
LINE
  8
_0-b_細線3
  6
CONTINUOUS
 62
    9
 10
2363.7097337765499
 20
746.63633123671855
 11
2363.7097337802293
 21
796.96966457005271
  0
LINE
  8
_0-b_細線3
  6
CONTINUOUS
 62
    9
 10
2375.0430671098843
 20
746.63633123671855
 11
2375.0430671135637
 21
796.96966457005271
  0
LINE
  8
_0-b_細線3
  6
CONTINUOUS
 62
    9
 10
2375.0430671098843
 20
746.63633123671855
 11
2363.7097337765499
 21
746.63633123671855
  0
LINE
  8
_0-b_細線3
  6
CONTINUOUS
 62
    9
 10
2377.7097337765504
 20
813.30299790338529
 11
2387.2068587615872
 21
810.33514634453786
  0
LINE
  8
_0-b_細線3
  6
CONTINUOUS
 62
    9
 10
2388.376400439538
 20
806.63633123671855
 11
2388.376400439538
 21
808.74434638119521
  0
ARC
  8
_0-b_細線3
  6
CONTINUOUS
 62
    9
 10
2386.7097337728719
 20
808.74434638119487
 40
1.6666666666666665
 50
0.000000000015633
 51
72.645975358124957
  0
LINE
  8
_0-b_細線3
  6
CONTINUOUS
 62
    9
 10
2361.0430671098834
 20
813.30299790338529
 11
2351.545942124847
 21
810.3351463445382
  0
LINE
  8
_0-b_細線3
  6
CONTINUOUS
 62
    9
 10
2350.3764004468962
 20
806.63633123671855
 11
2350.3764004468962
 21
808.74434638119453
  0
ARC
  8
_0-b_細線3
  6
CONTINUOUS
 62
    9
 10
2352.0430671135628
 20
808.74434638119487
 40
1.6666666666666665
 50
107.35402464185547
 51
180.00000000000745
  0
ARC
  8
_0-b_細線3
  6
CONTINUOUS
 62
    9
 10
2320.3764004438303
 20
796.80299790338552
 40
3.333333333333333
 50
89.999999999999915
 51
179.99999999999983
  0
LINE
  8
_0-b_細線3
  6
CONTINUOUS
 62
    9
 10
2360.3764004432164
 20
800.13633123671866
 11
2320.3764004438303
 21
800.13633123671866
  0
ARC
  8
_0-b_細線3
  6
CONTINUOUS
 62
    9
 10
2360.3764004432164
 20
796.80299790338552
 40
3.333333333333333
 50
0
 51
89.999999999999915
  0
LINE
  8
_0-b_細線3
  6
CONTINUOUS
 62
    9
 10
2317.0430671104964
 20
796.80299790338552
 11
2317.0430671104964
 21
755.13633123671866
  0
ARC
  8
_0-b_細線3
  6
CONTINUOUS
 62
    9
 10
2320.3764004438303
 20
755.13633123671866
 40
3.333333333333333
 50
179.99999999999983
 51
269.99999999999977
  0
LINE
  8
_0-b_細線3
  6
CONTINUOUS
 62
    9
 10
2363.7097337765499
 20
755.13633123671866
 11
2363.7097337765499
 21
796.80299790338552
  0
LINE
  8
_0-b_細線3
  6
CONTINUOUS
 62
    9
 10
2319.7097337826804
 20
751.80299790338552
 11
2360.3764004432164
 21
751.80299790338552
  0
ARC
  8
_0-b_細線3
  6
CONTINUOUS
 62
    9
 10
2360.3764004432164
 20
755.13633123671866
 40
3.333333333333333
 50
269.99999999999977
 51
359.99999999999966
  0
ARC
  8
_0-b_細線3
  6
CONTINUOUS
 62
    9
 10
2410.3764004537215
 20
801.96966457005271
 40
1.6666666666666665
 50
179.99999999999983
 51
269.99999999999977
  0
LINE
  8
_0-b_細線3
  6
CONTINUOUS
 62
    9
 10
2408.7097337870537
 20
806.63633123671855
 11
2408.7097337870537
 21
801.96966457005271
  0
ARC
  8
_0-b_細線3
  6
CONTINUOUS
 62
    9
 10
2445.0430671130293
 20
801.96966457005271
 40
1.6666666666666665
 50
269.99999999999977
 51
359.99999999999966
  0
LINE
  8
_0-b_細線3
  6
CONTINUOUS
 62
    9
 10
2446.7097337796959
 20
806.63633123671855
 11
2446.7097337796959
 21
801.96966457005271
  0
ARC
  8
_0-b_細線3
  6
CONTINUOUS
 62
    9
 10
2418.7097337870537
 20
796.96966457005271
 40
3.333333333333333
 50
0
 51
89.999999999999915
  0
LINE
  8
_0-b_細線3
  6
CONTINUOUS
 62
    9
 10
2418.7097337870537
 20
800.30299790338574
 11
2410.3764004537215
 21
800.30299790338574
  0
ARC
  8
_0-b_細線3
  6
CONTINUOUS
 62
    9
 10
2436.7097337870537
 20
796.96966457005271
 40
3.333333333333333
 50
89.999999999999915
 51
179.99999999999983
  0
LINE
  8
_0-b_細線3
  6
CONTINUOUS
 62
    9
 10
2436.7097337796959
 20
800.30299790338574
 11
2445.0430671130293
 21
800.30299790338574
  0
LINE
  8
_0-b_細線3
  6
CONTINUOUS
 62
    9
 10
2436.0430671167073
 20
813.30299790338529
 11
2419.3764004500417
 21
813.30299790338529
  0
LINE
  8
_0-b_細線3
  6
CONTINUOUS
 62
    9
 10
2422.0430671167078
 20
746.63633123671855
 11
2422.0430671203871
 21
796.96966457005271
  0
LINE
  8
_0-b_細線3
  6
CONTINUOUS
 62
    9
 10
2433.3764004500417
 20
746.63633123671855
 11
2433.3764004537215
 21
796.96966457005271
  0
LINE
  8
_0-b_細線3
  6
CONTINUOUS
 62
    9
 10
2433.3764004500417
 20
746.63633123671855
 11
2422.0430671167078
 21
746.63633123671855
  0
LINE
  8
_0-b_細線3
  6
CONTINUOUS
 62
    9
 10
2436.0430671167082
 20
813.30299790338529
 11
2445.5401921017451
 21
810.33514634453786
  0
LINE
  8
_0-b_細線3
  6
CONTINUOUS
 62
    9
 10
2446.7097337796959
 20
806.63633123671855
 11
2446.7097337796959
 21
808.74434638119521
  0
ARC
  8
_0-b_細線3
  6
CONTINUOUS
 62
    9
 10
2445.0430671130293
 20
808.74434638119487
 40
1.6666666666666665
 50
0.000000000015633
 51
72.645975358124957
  0
LINE
  8
_0-b_細線3
  6
CONTINUOUS
 62
    9
 10
2419.3764004500408
 20
813.30299790338529
 11
2409.8792754650049
 21
810.3351463445382
  0
LINE
  8
_0-b_細線3
  6
CONTINUOUS
 62
    9
 10
2408.7097337870537
 20
806.63633123671855
 11
2408.7097337870537
 21
808.74434638119453
  0
ARC
  8
_0-b_細線3
  6
CONTINUOUS
 62
    9
 10
2410.3764004537202
 20
808.74434638119487
 40
1.6666666666666665
 50
107.35402464185547
 51
180.00000000000745
  0
ARC
  8
_0-b_細線3
  6
CONTINUOUS
 62
    9
 10
2378.3764004450577
 20
796.80299790338552
 40
3.333333333333333
 50
89.999999999999915
 51
179.99999999999983
  0
LINE
  8
_0-b_細線3
  6
CONTINUOUS
 62
    9
 10
2418.7097337833738
 20
800.13633123671866
 11
2378.3764004450577
 21
800.13633123671866
  0
ARC
  8
_0-b_細線3
  6
CONTINUOUS
 62
    9
 10
2418.7097337833738
 20
796.80299790338552
 40
3.333333333333333
 50
0
 51
89.999999999999915
  0
LINE
  8
_0-b_細線3
  6
CONTINUOUS
 62
    9
 10
2375.0430671117242
 20
796.80299790338552
 11
2375.0430671117242
 21
755.13633123671866
  0
ARC
  8
_0-b_細線3
  6
CONTINUOUS
 62
    9
 10
2378.3764004450577
 20
755.13633123671866
 40
3.333333333333333
 50
179.99999999999983
 51
269.99999999999977
  0
LINE
  8
_0-b_細線3
  6
CONTINUOUS
 62
    9
 10
2422.0430671167078
 20
755.13633123671866
 11
2422.0430671167078
 21
796.80299790338552
  0
LINE
  8
_0-b_細線3
  6
CONTINUOUS
 62
    9
 10
2377.7097337839077
 20
751.80299790338552
 11
2418.7097337833738
 21
751.80299790338552
  0
ARC
  8
_0-b_細線3
  6
CONTINUOUS
 62
    9
 10
2418.7097337833738
 20
755.13633123671866
 40
3.333333333333333
 50
269.99999999999977
 51
359.99999999999966
  0
ARC
  8
_0-b_細線3
  6
CONTINUOUS
 62
    9
 10
2446.7097341660751
 20
764.96966457005317
 40
0.6666666666666669
 50
269.99999999999977
 51
359.99999999999966
  0
ARC
  8
_0-b_細線3
  6
CONTINUOUS
 62
    9
 10
2421.5164674994098
 20
770.13584457005436
 40
25.859853333333334
 50
346.96432999999968
 51
13.038021999994573
  0
ARC
  8
_0-b_細線3
  6
CONTINUOUS
 62
    9
 10
2446.7097341660751
 20
786.96966457005396
 40
0.6666666666666669
 50
0
 51
89.999999999999915
  0
ARC
  8
_0-b_細線3
  6
CONTINUOUS
 62
    9
 10
2421.5164674994098
 20
781.80347790338601
 40
25.859853333333334
 50
346.96197800000056
 51
13.035669999999625
  0
LINE
  8
_0-b_細線3
  6
CONTINUOUS
 62
    9
 10
2447.376400832743
 20
764.96966457005317
 11
2447.376400832743
 21
786.96966457005396
  0
LINE
  8
_0-b_細線3
  6
CONTINUOUS
 62
    9
 10
2436.7097341660765
 20
787.63633123672003
 11
2446.7097341660751
 21
787.63633123672003
  0
LINE
  8
_0-b_細線3
  6
CONTINUOUS
 62
    9
 10
2436.7097341660765
 20
775.96966457005237
 11
2446.709694166077
 21
775.96966457005237
  0
LINE
  8
_0-b_細線3
  6
CONTINUOUS
 62
    9
 10
2436.7097341660765
 20
764.30299790338711
 11
2446.7097341660751
 21
764.30299790338711
  0
ARC
  8
_0-b_細線3
  6
CONTINUOUS
 62
    9
 10
2436.0430674994077
 20
753.30299790338597
 40
0.6666666666666669
 50
269.99999999999977
 51
359.99999999999966
  0
ARC
  8
_0-b_細線3
  6
CONTINUOUS
 62
    9
 10
2436.0430674994077
 20
798.63633123671718
 40
0.6666666666666669
 50
0
 51
89.999999999999915
  0
LINE
  8
_0-b_細線3
  6
CONTINUOUS
 62
    9
 10
2434.3292580195516
 20
799.30299790338552
 11
2436.0430674994077
 21
799.30299790338552
  0
LINE
  8
_0-b_細線3
  6
CONTINUOUS
 62
    9
 10
2436.7097341660765
 20
774.3029979033862
 11
2436.7097341660765
 21
753.30299790338597
  0
LINE
  8
_0-b_細線3
  6
CONTINUOUS
 62
    9
 10
2436.7097341660765
 20
798.63633123671718
 11
2436.7097341660765
 21
774.3029979033862
  0
LINE
  8
_0-b_細線3
  6
CONTINUOUS
 62
    9
 10
2433.3764008323051
 20
752.63633123671877
 11
2436.0430674994077
 21
752.63633123671877
  0
LINE
  8
_0-a_極細3
  6
CENTER1
 62
    9
 10
2458.8666416626943
 20
775.96966457005237
 11
2045.4179714681529
 21
775.96966457005237
  0
LINE
  8
_0-d_寸法3
  6
CONTINUOUS
 62
    7
 10
2311.37640044199
 20
916.63633123671889
 11
2369.3764004432173
 21
916.63633123671889
  0
TEXT
  8
_0-d_寸法3
 62
    7
 10
2288.284044622706
 20
886.63633123671889
 40
30
 41
1
 50
0
  1
(17.4)
  0
LINE
  8
_0-d_寸法3
  6
CONTINUOUS
 62
    7
 10
2311.37640044199
 20
833.30299790338529
 11
2311.37640044199
 21
926.63633123671889
  0
LINE
  8
_0-d_寸法3
  6
CONTINUOUS
 62
    7
 10
2369.3764004432169
 20
833.30299790338529
 11
2369.3764004432173
 21
926.63633123671889
  0
POINT
  8
_0-d_寸法3
 62
    7
 10
2311.37640044199
 20
916.63633123671889
  0
POINT
  8
_0-d_寸法3
 62
    7
 10
2369.3764004432173
 20
916.63633123671889
  0
LINE
  8
_0-d_寸法3
  6
CONTINUOUS
 62
    7
 10
2369.3764004432173
 20
916.63633123671889
 11
2427.7097337833748
 21
916.63633123671889
  0
TEXT
  8
_0-d_寸法3
 62
    7
 10
2340.8555973078323
 20
916.63633123671866
 40
30
 41
1
 50
0
  1
(17.4)
  0
LINE
  8
_0-d_寸法3
  6
CONTINUOUS
 62
    7
 10
1485
 20
1050
 11
1485
 21
1050
  0
LINE
  8
_0-d_寸法3
  6
CONTINUOUS
 62
    7
 10
2427.7097337833743
 20
833.30299790338529
 11
2427.7097337833748
 21
926.63633123671889
  0
POINT
  8
_0-d_寸法3
 62
    7
 10
2369.3764004432173
 20
916.63633123671889
  0
POINT
  8
_0-d_寸法3
 62
    7
 10
2427.7097337833748
 20
916.63633123671889
  0
LINE
  8
_0-d_寸法3
  6
CONTINUOUS
 62
    7
 10
2055.9718494063745
 20
916.63633123671889
 11
2118.3764004465047
 21
916.63633123671889
  0
TEXT
  8
_0-d_寸法3
 62
    7
 10
2055.9718494063745
 20
886.63633123671889
 40
30
 41
1
 50
0
  1
(6)
  0
LINE
  8
_0-d_寸法3
  6
CONTINUOUS
 62
    7
 10
2098.0430670989904
 20
833.30299790338529
 11
2098.0430670989908
 21
926.63633123671889
  0
LINE
  8
_0-d_寸法3
  6
CONTINUOUS
 62
    7
 10
2118.3764004465042
 20
833.30299790338529
 11
2118.3764004465047
 21
926.63633123671889
  0
POINT
  8
_0-d_寸法3
 62
    7
 10
2098.0430670989908
 20
916.63633123671889
  0
POINT
  8
_0-d_寸法3
 62
    7
 10
0
 20
0
  0
LINE
  8
_0-d_寸法3
  6
CONTINUOUS
 62
    7
 10
2118.3764004465047
 20
916.63633123671889
 11
2156.3764004391487
 21
916.63633123671889
  0
TEXT
  8
_0-d_寸法3
 62
    7
 10
2099.8470075901264
 20
916.63633123671889
 40
30
 41
1
 50
0
  1
11.4
  0
LINE
  8
_0-d_寸法3
  6
CONTINUOUS
 62
    7
 10
1485
 20
1050
 11
1485
 21
1050
  0
LINE
  8
_0-d_寸法3
  6
CONTINUOUS
 62
    7
 10
2156.3764004391483
 20
833.30299790338529
 11
2156.3764004391487
 21
926.63633123671889
  0
POINT
  8
_0-d_寸法3
 62
    7
 10
2118.3764004465047
 20
916.63633123671889
  0
POINT
  8
_0-d_寸法3
 62
    7
 10
2156.3764004391487
 20
916.63633123671889
  0
LINE
  8
_0-d_寸法3
  6
CONTINUOUS
 62
    7
 10
2053.3764004408263
 20
639.96966457005169
 11
2120.0430671074923
 21
639.96966457005169
  0
TEXT
  8
_0-d_寸法3
 62
    7
 10
2071.7097337741588
 20
639.96966457005169
 40
30
 41
1
 50
0
  1
20
  0
LINE
  8
_0-d_寸法3
  6
CONTINUOUS
 62
    7
 10
2053.3764004408263
 20
659.96966457005112
 11
2053.3764004408263
 21
629.96966457005169
  0
LINE
  8
_0-d_寸法3
  6
CONTINUOUS
 62
    7
 10
2120.0430671074923
 20
719.96966457005169
 11
2120.0430671074923
 21
629.96966457005169
  0
POINT
  8
_0-d_寸法3
 62
    7
 10
2053.3764004408263
 20
639.96966457005169
  0
POINT
  8
_0-d_寸法3
 62
    7
 10
2120.0430671074923
 20
639.96966457005169
  0
LINE
  8
_0-d_寸法3
  6
CONTINUOUS
 62
    7
 10
2120.0430671074923
 20
639.96966457005169
 11
2386.7097337741593
 21
639.96966457005169
  0
TEXT
  8
_0-d_寸法3
 62
    7
 10
2238.3764004408258
 20
639.96966457005169
 40
30
 41
1
 50
0
  1
80
  0
LINE
  8
_0-d_寸法3
  6
CONTINUOUS
 62
    7
 10
1485
 20
1050
 11
1485
 21
1050
  0
LINE
  8
_0-d_寸法3
  6
CONTINUOUS
 62
    7
 10
2386.7097337741602
 20
719.96966457005169
 11
2386.7097337741593
 21
629.96966457005169
  0
POINT
  8
_0-d_寸法3
 62
    7
 10
2120.0430671074923
 20
639.96966457005169
  0
POINT
  8
_0-d_寸法3
 62
    7
 10
2386.7097337741593
 20
639.96966457005169
  0
LINE
  8
_0-d_寸法3
  6
CONTINUOUS
 62
    7
 10
2386.7097337741593
 20
639.96966457005169
 11
2453.3764004408258
 21
639.96966457005169
  0
TEXT
  8
_0-d_寸法3
 62
    7
 10
2405.0430671074923
 20
639.96966457005169
 40
30
 41
1
 50
0
  1
20
  0
LINE
  8
_0-d_寸法3
  6
CONTINUOUS
 62
    7
 10
1485
 20
1050
 11
1485
 21
1050
  0
LINE
  8
_0-d_寸法3
  6
CONTINUOUS
 62
    7
 10
2453.3764004408258
 20
659.96966457005112
 11
2453.3764004408258
 21
629.96966457005169
  0
POINT
  8
_0-d_寸法3
 62
    7
 10
2386.7097337741593
 20
639.96966457005169
  0
POINT
  8
_0-d_寸法3
 62
    7
 10
2453.3764004408258
 20
639.96966457005169
  0
TEXT
  8
_0-7_枠細線
 62
    1
 10
2153.3261728100856
 20
408.28927308473794
 40
50
 41
0.8
 50
0
  1
断面詳細図
  0
TEXT
  8
_0-7_枠細線
 62
    1
 10
2383.2241123084218
 20
413.242103273417
 40
40
 41
0.5999999999999998
 50
0
  1
Ｓ＝１：３
  0
TEXT
  8
_0-7_枠細線
 62
    1
 10
2611.2738468233329
 20
1656.2261792523223
 40
30
 41
0.8000000000000001
 50
0
  1
ブラック
  0
TEXT
  8
_0-7_枠細線
 62
    1
 10
2611.2738468233329
 20
1606.2261792523225
 40
30
 41
0.8000000000000001
 50
0
  1
ベージュ
  0
TEXT
  8
_0-7_枠細線
 62
    1
 10
2587.2738468233329
 20
1556.2261792523225
 40
30
 41
0.8000000000000001
 50
0
  1
ライトグレー
  0
TEXT
  8
_0-7_枠細線
 62
    1
 10
2587.2738468233329
 20
1506.2261792523225
 40
30
 41
0.8000000000000001
 50
0
  1
ダークグレー
  0
TEXT
  8
_0-7_枠細線
 62
    1
 10
2611.2738468233329
 20
1456.2261792523225
 40
30
 41
0.8000000000000001
 50
0
  1
ブラウン
  0
LINE
  8
_0-7_枠細線
  6
CONTINUOUS
 62
    9
 10
2579.2738468233329
 20
1746.2261792523225
 11
2579.2738468233329
 21
1446.2261792523232
  0
LINE
  8
_0-7_枠細線
  6
CONTINUOUS
 62
    9
 10
2499.273846823332
 20
1746.2261792523225
 11
2499.273846823332
 21
1446.2261792523225
  0
LINE
  8
_0-7_枠細線
  6
CONTINUOUS
 62
    9
 10
2739.2738468233324
 20
1746.2261792523225
 11
2739.2738468233324
 21
1446.2261792523225
  0
TEXT
  8
_0-7_枠細線
 62
    1
 10
2501.5502154068181
 20
1756.2261792523225
 40
35
 41
1
 50
0
  1
色記号表
  0
TEXT
  8
_0-7_枠細線
 62
    1
 10
2509.2738468233324
 20
1706.2261792523223
 40
30
 41
1
 50
0
  1
記号
  0
TEXT
  8
_0-7_枠細線
 62
    1
 10
2644.2738468233329
 20
1706.2261792523223
 40
30
 41
1
 50
0
  1
色
  0
TEXT
  8
_0-7_枠細線
 62
    1
 10
2524.2738468233324
 20
1656.2261792523223
 40
30
 41
1
 50
0
  1
Ｋ
  0
TEXT
  8
_0-7_枠細線
 62
    1
 10
2524.2738468233324
 20
1606.2261792523225
 40
30
 41
1
 50
0
  1
Ｂ
  0
TEXT
  8
_0-7_枠細線
 62
    1
 10
2524.2738468233324
 20
1556.2261792523225
 40
30
 41
1
 50
0
  1
Ｇ
  0
TEXT
  8
_0-7_枠細線
 62
    1
 10
2524.2738468233324
 20
1506.2261792523225
 40
30
 41
1
 50
0
  1
Ｄ
  0
TEXT
  8
_0-7_枠細線
 62
    1
 10
2524.2738468233324
 20
1456.2261792523225
 40
30
 41
1
 50
0
  1
Ｃ
  0
LINE
  8
_0-7_枠細線
  6
CONTINUOUS
 62
    9
 10
2499.273846823332
 20
1696.2261792523223
 11
2739.273846823332
 21
1696.2261792523223
  0
LINE
  8
_0-7_枠細線
  6
CONTINUOUS
 62
    9
 10
2499.273846823332
 20
1746.2261792523225
 11
2739.2738468233329
 21
1746.2261792523225
  0
LINE
  8
_0-7_枠細線
  6
CONTINUOUS
 62
    9
 10
2499.273846823332
 20
1646.2261792523225
 11
2739.2738468233329
 21
1646.2261792523225
  0
LINE
  8
_0-7_枠細線
  6
CONTINUOUS
 62
    9
 10
2499.273846823332
 20
1596.2261792523225
 11
2739.2738468233329
 21
1596.2261792523225
  0
LINE
  8
_0-7_枠細線
  6
CONTINUOUS
 62
    9
 10
2499.273846823332
 20
1496.2261792523225
 11
2739.2738468233329
 21
1496.2261792523225
  0
LINE
  8
_0-7_枠細線
  6
CONTINUOUS
 62
    9
 10
2499.273846823332
 20
1446.2261792523225
 11
2739.2738468233329
 21
1446.2261792523225
  0
LINE
  8
_0-7_枠細線
  6
CONTINUOUS
 62
    9
 10
2499.273846823332
 20
1546.2261792523225
 11
2739.2738468233329
 21
1546.2261792523225
  0
ARC
  8
_0-e_極細4
  6
CONTINUOUS
 62
    9
 10
568.57882191564272
 20
566.73051767608831
 40
1.25
 50
179.99999999999983
 51
269.99999999999977
  0
LINE
  8
_0-e_極細4
  6
CONTINUOUS
 62
    9
 10
570.07882191564318
 20
565.48051767608831
 11
570.07882191564318
 21
567.98051767608831
  0
ARC
  8
_0-e_極細4
  6
CONTINUOUS
 62
    9
 10
787.57882191564272
 20
566.73051767608831
 40
1.25
 50
269.99999999999977
 51
359.99999999999966
  0
LINE
  8
_0-e_極細4
  6
CONTINUOUS
 62
    9
 10
786.07882191564181
 20
565.48051767608831
 11
786.07882191564181
 21
567.98051767608831
  0
LINE
  8
_0-e_極細4
  6
CONTINUOUS
 62
    9
 10
610.57882191564499
 20
382.98242337607945
 11
610.57882191564499
 21
530.41808017608901
  0
ARC
  8
_0-e_極細4
  6
CONTINUOUS
 62
    9
 10
613.07882191564318
 20
382.98242337607945
 40
2.5
 50
179.99999999999983
 51
270.00045836622417
  0
LINE
  8
_0-e_極細4
  6
CONTINUOUS
 62
    9
 10
613.07882191564318
 20
380.4824233760786
 11
678.07882191564499
 21
380.4824233760786
  0
LINE
  8
_0-e_極細4
  6
CONTINUOUS
 62
    9
 10
579.95382191564499
 20
367.46281587607911
 11
579.95382191564499
 21
434.96281587607911
  0
LINE
  8
_0-e_極細4
  6
CONTINUOUS
 62
    9
 10
609.95382191564499
 20
337.46281587607911
 11
615.57882191564499
 21
337.46281587607911
  0
ARC
  8
_0-e_極細4
  6
CONTINUOUS
 62
    9
 10
609.95382191564499
 20
367.46281587607911
 40
30.000000000000004
 50
179.99999999999983
 51
269.99999999999977
  0
LINE
  8
_0-e_極細4
  6
CONTINUOUS
 62
    9
 10
558.07882191564227
 20
459.76673337607855
 11
558.07882191564227
 21
527.46285767608833
  0
LINE
  8
_0-e_極細4
  6
CONTINUOUS
 62
    9
 10
678.07882191564499
 20
337.46281587607911
 11
675.75123691564227
 21
337.46281587607911
  0
LINE
  8
_0-e_極細4
  6
CONTINUOUS
 62
    9
 10
675.75123691564227
 20
337.46281587607911
 11
609.95382191564499
 21
337.46281587607911
  0
LINE
  8
_0-e_極細4
  6
CONTINUOUS
 62
    9
 10
579.95382191564499
 20
367.46281587607911
 11
579.95382191564499
 21
511.96285767608811
  0
LINE
  8
_0-e_極細4
  6
CONTINUOUS
 62
    9
 10
584.95382191564499
 20
367.46281587607911
 11
584.95382191564499
 21
511.96285767608811
  0
LINE
  8
_0-e_極細4
  6
CONTINUOUS
 62
    9
 10
678.07882191564499
 20
342.46281587607911
 11
609.95382191564499
 21
342.46281587607911
  0
ARC
  8
_0-e_極細4
  6
CONTINUOUS
 62
    9
 10
609.95382191564499
 20
367.46281587607911
 40
25
 50
179.99999999999983
 51
269.99999999999977
  0
LINE
  8
_0-e_極細4
  6
CONTINUOUS
 62
    9
 10
577.4538219156409
 20
547.98246517608823
 11
678.07882191564499
 21
547.98246517608823
  0
LINE
  8
_0-e_極細4
  6
CONTINUOUS
 62
    9
 10
577.4538219156409
 20
536.98246517608766
 11
577.4538219156409
 21
547.98246517608823
  0
LINE
  8
_0-e_極細4
  6
CONTINUOUS
 62
    9
 10
569.32882191564318
 20
547.98246517608823
 11
577.4538219156409
 21
547.98246517608823
  0
LINE
  8
_0-e_極細4
  6
CONTINUOUS
 62
    9
 10
571.82882191564318
 20
536.98246517608766
 11
577.4538219156409
 21
536.98246517608766
  0
LINE
  8
_0-e_極細4
  6
CONTINUOUS
 62
    9
 10
571.82882191564318
 20
534.48246517608766
 11
571.82882191564318
 21
536.98246517608766
  0
ARC
  8
_0-e_極細4
  6
CONTINUOUS
 62
    9
 10
576.82882191564318
 20
534.48246517608766
 40
5
 50
179.99999999999983
 51
269.99999999999977
  0
LINE
  8
_0-e_極細4
  6
CONTINUOUS
 62
    9
 10
576.82882191564318
 20
529.48246517608857
 11
584.32882191564499
 21
529.48246517608857
  0
ARC
  8
_0-e_極細4
  6
CONTINUOUS
 62
    9
 10
553.1313219156425
 20
576.10551767608831
 40
2.6250000000000284
 50
4.1509900000073658
 51
89.999999999999915
  0
LINE
  8
_0-e_極細4
  6
CONTINUOUS
 62
    9
 10
553.1313219156425
 20
540.42801767608796
 11
553.1313219156425
 21
578.7305176760882
  0
LINE
  8
_0-e_極細4
  6
CONTINUOUS
 62
    9
 10
553.1313219156425
 20
578.71285631046112
 11
535.82882191564181
 21
581.1772501760878
  0
LINE
  8
_0-e_極細4
  6
CONTINUOUS
 62
    9
 10
545.57882191564227
 20
521.96285767608811
 11
545.57882191564227
 21
541.96285767608776
  0
ARC
  8
_0-e_極細4
  6
CONTINUOUS
 62
    9
 10
539.32882191564227
 20
511.13754017608733
 40
12.5
 50
0
 51
60.000000000000107
  0
LINE
  8
_0-e_極細4
  6
CONTINUOUS
 62
    9
 10
535.82882191564181
 20
541.96285767608776
 11
535.82882191564181
 21
543.35096017608839
  0
LINE
  8
_0-e_極細4
  6
CONTINUOUS
 62
    9
 10
545.57882191564227
 20
541.96285767608776
 11
535.82882191564181
 21
541.96285767608776
  0
LINE
  8
_0-e_極細4
  6
CONTINUOUS
 62
    9
 10
535.82882191564181
 20
543.35096017608839
 11
535.82882191564181
 21
582.90930267608792
  0
LINE
  8
_0-e_極細4
  6
CONTINUOUS
 62
    9
 10
556.82882191564227
 20
529.46285767608833
 11
556.82882191564227
 21
536.73051767608831
  0
LINE
  8
_0-e_極細4
  6
CONTINUOUS
 62
    9
 10
553.1313219156425
 20
527.46285767608833
 11
556.82882191564227
 21
529.46285767608833
  0
LINE
  8
_0-e_極細4
  6
CONTINUOUS
 62
    9
 10
535.82882191564181
 20
576.96285767608833
 11
553.1313219156425
 21
574.96285767608788
  0
ARC
  8
_0-e_極細4
  6
CONTINUOUS
 62
    9
 10
582.45382191564499
 20
511.96285767608811
 40
2.5
 50
89.999999999999915
 51
179.99999999999983
  0
ARC
  8
_0-e_極細4
  6
CONTINUOUS
 62
    9
 10
582.45382191564499
 20
511.96285767608811
 40
2.5
 50
0
 51
89.999999999999915
  0
LINE
  8
_0-e_極細4
  6
CONTINUOUS
 62
    9
 10
678.07882191564318
 20
580.48051767608831
 11
553.1313219156425
 21
580.48051767608831
  0
LINE
  8
_0-e_極細4
  6
CONTINUOUS
 62
    9
 10
577.4538219156409
 20
546.73051767608831
 11
567.32882191564272
 21
546.73051767608831
  0
LINE
  8
_0-e_極細4
  6
CONTINUOUS
 62
    9
 10
559.9757619156419
 20
574.23051767608831
 11
562.95382191564272
 21
574.23051767608831
  0
LINE
  8
_0-e_極細4
  6
CONTINUOUS
 62
    9
 10
567.32882191564272
 20
543.48051767608786
 11
567.32882191564272
 21
569.85551767608831
  0
LINE
  8
_0-e_極細4
  6
CONTINUOUS
 62
    9
 10
561.8288219156409
 20
574.23051767608831
 11
561.8288219156409
 21
580.48051767608831
  0
ARC
  8
_0-e_極細4
  6
CONTINUOUS
 62
    9
 10
562.95382191564272
 20
569.85551767608831
 40
4.375
 50
0
 51
89.999999999999915
  0
ARC
  8
_0-e_極細4
  6
CONTINUOUS
 62
    9
 10
553.1313219156425
 20
576.10551767608831
 40
4.375
 50
4.1509899999971784
 51
89.999999999999915
  0
ARC
  8
_0-e_極細4
  6
CONTINUOUS
 62
    9
 10
559.9757619156419
 20
576.73051767608831
 40
2.5
 50
183.35088799999062
 51
269.99999999999977
  0
ARC
  8
_0-e_極細4
  6
CONTINUOUS
 62
    9
 10
559.9757619156419
 20
576.73051767608831
 40
4.2499999999999716
 50
183.35088800000156
 51
269.99999999999977
  0
LINE
  8
_0-e_極細4
  6
CONTINUOUS
 62
    9
 10
559.9757619156419
 20
572.4805176760882
 11
562.95382191564272
 21
572.4805176760882
  0
ARC
  8
_0-e_極細4
  6
CONTINUOUS
 62
    9
 10
562.95382191564272
 20
569.85551767608831
 40
2.6250000000000284
 50
0
 51
89.999999999999915
  0
LINE
  8
_0-e_極細4
  6
CONTINUOUS
 62
    9
 10
565.57882191564318
 20
541.73051767608831
 11
565.5788219156409
 21
569.85551767608831
  0
LINE
  8
_0-e_極細4
  6
CONTINUOUS
 62
    9
 10
553.1313219156425
 20
540.42801767608796
 11
556.82882191564227
 21
536.73051767608831
  0
LINE
  8
_0-e_極細4
  6
CONTINUOUS
 62
    9
 10
570.57882191564318
 20
531.73051767608774
 11
570.57882191564318
 21
546.73051767608831
  0
LINE
  8
_0-e_極細4
  6
CONTINUOUS
 62
    9
 10
570.57882191564318
 20
541.73051767608831
 11
565.57882191564318
 21
541.73051767608831
  0
LINE
  8
_0-e_極細4
  6
CONTINUOUS
 62
    9
 10
570.57882191564318
 20
543.48051767608786
 11
567.32882191564272
 21
543.48051767608786
  0
LINE
  8
_0-e_極細4
  6
CONTINUOUS
 62
    9
 10
572.65428191564183
 20
531.73051767608774
 11
570.57882191564318
 21
531.73051767608774
  0
LINE
  8
_0-e_極細4
  6
CONTINUOUS
 62
    9
 10
570.57882191564318
 20
536.73051767608831
 11
556.82882191564227
 21
536.73051767608831
  0
LINE
  8
_0-e_極細4
  6
CONTINUOUS
 62
    9
 10
603.6130394156437
 20
532.48051767608786
 11
591.1130394156437
 21
532.48051767608786
  0
LINE
  8
_0-e_極細4
  6
CONTINUOUS
 62
    9
 10
603.6130394156437
 20
532.48051767608786
 11
603.6130394156437
 21
536.73051767608831
  0
LINE
  8
_0-e_極細4
  6
CONTINUOUS
 62
    9
 10
591.1130394156437
 20
532.48051767608786
 11
591.1130394156437
 21
536.73051767608831
  0
LINE
  8
_0-e_極細4
  6
CONTINUOUS
 62
    9
 10
561.95382191564318
 20
574.73051767608786
 11
561.95382191564318
 21
577.98051767608831
  0
LINE
  8
_0-e_極細4
  6
CONTINUOUS
 62
    9
 10
678.07882191564318
 20
579.23051767608831
 11
563.20382191564318
 21
579.23051767608831
  0
LINE
  8
_0-e_極細4
  6
CONTINUOUS
 62
    9
 10
567.32882191564272
 20
574.23051767608831
 11
562.4538219156409
 21
574.23051767608831
  0
LINE
  8
_0-e_極細4
  6
CONTINUOUS
 62
    9
 10
567.32882191564272
 20
566.73051767608831
 11
567.32882191564272
 21
574.23051767608831
  0
ARC
  8
_0-e_極細4
  6
CONTINUOUS
 62
    9
 10
563.20382191564318
 20
577.98051767608831
 40
1.25
 50
155.94545100003009
 51
179.99999999999983
  0
ARC
  8
_0-e_極細4
  6
CONTINUOUS
 62
    9
 10
562.4538219156409
 20
574.73051767608786
 40
0.4999999999999716
 50
179.99999999999983
 51
269.99999999999977
  0
ARC
  8
_0-e_極細4
  6
CONTINUOUS
 62
    9
 10
563.20382191564318
 20
577.98051767608831
 40
1.25
 50
89.999999999999915
 51
155.94545100003009
  0
LINE
  8
_0-e_極細4
  6
CONTINUOUS
 62
    9
 10
677.57882191564318
 20
567.98051767608831
 11
570.07882191564318
 21
567.98051767608831
  0
LINE
  8
_0-e_極細4
  6
CONTINUOUS
 62
    9
 10
677.57882191564318
 20
565.48051767608831
 11
568.57882191564272
 21
565.48051767608831
  0
LINE
  8
_0-e_極細4
  6
CONTINUOUS
 62
    9
 10
678.07882191564499
 20
562.74579267608806
 11
567.70382191564181
 21
562.74579267608806
  0
LINE
  8
_0-e_極細4
  6
CONTINUOUS
 62
    9
 10
578.70382191564318
 20
562.74579267608806
 11
578.70382191564318
 21
561.49579267608806
  0
LINE
  8
_0-e_極細4
  6
CONTINUOUS
 62
    9
 10
569.70382191564227
 20
558.99579267608806
 11
567.70382191564181
 21
562.74579267608806
  0
LINE
  8
_0-e_極細4
  6
CONTINUOUS
 62
    9
 10
579.95382191564499
 20
554.49579267608885
 11
578.70382191564318
 21
555.74579267608885
  0
LINE
  8
_0-e_極細4
  6
CONTINUOUS
 62
    9
 10
578.70382191564318
 20
553.2457926760876
 11
579.95382191564499
 21
554.49579267608885
  0
LINE
  8
_0-e_極細4
  6
CONTINUOUS
 62
    9
 10
578.70382191564318
 20
558.99579267608806
 11
579.95382191564499
 21
560.24579267608806
  0
LINE
  8
_0-e_極細4
  6
CONTINUOUS
 62
    9
 10
579.95382191564499
 20
560.24579267608806
 11
578.70382191564318
 21
561.49579267608806
  0
LINE
  8
_0-e_極細4
  6
CONTINUOUS
 62
    9
 10
678.07882191564499
 20
560.24579267608806
 11
579.95382191564499
 21
560.24579267608806
  0
LINE
  8
_0-e_極細4
  6
CONTINUOUS
 62
    9
 10
678.07882191564499
 20
554.49579267608885
 11
579.95382191564499
 21
554.49579267608885
  0
LINE
  8
_0-e_極細4
  6
CONTINUOUS
 62
    9
 10
678.07882191564499
 20
551.99579267608885
 11
569.70382191564227
 21
551.99579267608885
  0
LINE
  8
_0-e_極細4
  6
CONTINUOUS
 62
    9
 10
569.70382191564227
 20
558.99579267608806
 11
569.70382191564227
 21
551.99579267608885
  0
LINE
  8
_0-e_極細4
  6
CONTINUOUS
 62
    9
 10
578.70382191564318
 20
553.2457926760876
 11
578.70382191564318
 21
551.99579267608885
  0
LINE
  8
_0-e_極細4
  6
CONTINUOUS
 62
    9
 10
578.70382191564318
 20
558.99579267608806
 11
578.70382191564318
 21
555.74579267608885
  0
LINE
  8
_0-e_極細4
  6
CONTINUOUS
 62
    9
 10
569.32882191564318
 20
547.98246517608823
 11
569.32882191564318
 21
551.73246517608823
  0
LINE
  8
_0-e_極細4
  6
CONTINUOUS
 62
    9
 10
569.32882191564318
 20
551.73246517608823
 11
678.07882191564499
 21
551.73246517608823
  0
LINE
  8
_0-e_極細4
  6
CONTINUOUS
 62
    9
 10
569.32882191564318
 20
563.23246517608811
 11
678.07882191564499
 21
563.23246517608811
  0
LINE
  8
_0-e_極細4
  6
CONTINUOUS
 62
    9
 10
569.32882191564318
 20
563.23246517608811
 11
569.32882191564318
 21
565.48051767608831
  0
LINE
  8
_0-e_極細4
  6
CONTINUOUS
 62
    9
 10
610.57882191564499
 20
529.46285767608833
 11
556.82882191564227
 21
529.46285767608833
  0
LINE
  8
_0-e_極細4
  6
CONTINUOUS
 62
    9
 10
610.57882191564499
 20
526.72369767608802
 11
610.57882191564499
 21
530.41808017608901
  0
LINE
  8
_0-e_極細4
  6
CONTINUOUS
 62
    9
 10
553.1313219156425
 20
580.48051767608831
 11
535.82882191564181
 21
582.9449102127636
  0
LINE
  8
_0-e_極細4
  6
CONTINUOUS
 62
    9
 10
582.45382191564499
 20
514.46285767608811
 11
610.57882191564499
 21
514.46285767608811
  0
LINE
  8
_0-e_極細4
  6
CONTINUOUS
 62
    9
 10
610.57882191564499
 20
527.46285767608833
 11
553.1313219156425
 21
527.46285767608833
  0
LINE
  8
_0-e_極細4
  6
CONTINUOUS
 62
    9
 10
535.82882191564181
 20
581.21285767608788
 11
535.82882191564181
 21
582.9449102127636
  0
LINE
  8
_0-e_極細4
  6
CONTINUOUS
 62
    9
 10
795.89132192510328
 20
457.28634152314805
 11
776.20382191563999
 21
457.28634152314805
  0
LINE
  8
_0-e_極細4
  6
CONTINUOUS
 62
    9
 10
745.57882191564318
 20
382.98242337607945
 11
745.57882191564318
 21
530.41808017608901
  0
ARC
  8
_0-e_極細4
  6
CONTINUOUS
 62
    9
 10
743.07882191564318
 20
382.98242337607945
 40
2.5
 50
269.99954163375423
 51
359.99999999999966
  0
LINE
  8
_0-e_極細4
  6
CONTINUOUS
 62
    9
 10
743.07882191564318
 20
380.4824233760786
 11
678.07882191564318
 21
380.4824233760786
  0
LINE
  8
_0-e_極細4
  6
CONTINUOUS
 62
    9
 10
776.20382191563999
 20
367.46281587607911
 11
776.20382191563999
 21
434.96281587607911
  0
LINE
  8
_0-e_極細4
  6
CONTINUOUS
 62
    9
 10
746.20382191563999
 20
337.46281587607911
 11
740.57882191564045
 21
337.46281587607911
  0
ARC
  8
_0-e_極細4
  6
CONTINUOUS
 62
    9
 10
746.20382191563999
 20
367.46281587607911
 40
30.000000000000004
 50
269.99999999999977
 51
359.99999999999966
  0
LINE
  8
_0-e_極細4
  6
CONTINUOUS
 62
    9
 10
678.07882191564318
 20
337.46281587607911
 11
680.40640691564317
 21
337.46281587607911
  0
LINE
  8
_0-e_極細4
  6
CONTINUOUS
 62
    9
 10
680.40640691564317
 20
337.46281587607911
 11
746.20382191563999
 21
337.46281587607911
  0
LINE
  8
_0-e_極細4
  6
CONTINUOUS
 62
    9
 10
776.20382191563999
 20
367.46281587607911
 11
776.20382191563999
 21
511.96285767608811
  0
LINE
  8
_0-e_極細4
  6
CONTINUOUS
 62
    9
 10
771.20382191564318
 20
367.46281587607911
 11
771.20382191564318
 21
511.96285767608811
  0
LINE
  8
_0-e_極細4
  6
CONTINUOUS
 62
    9
 10
678.07882191564318
 20
342.46281587607911
 11
746.20382191563999
 21
342.46281587607911
  0
ARC
  8
_0-e_極細4
  6
CONTINUOUS
 62
    9
 10
746.20382191563999
 20
367.46281587607911
 40
25
 50
269.99999999999977
 51
359.99999999999966
  0
LINE
  8
_0-e_極細4
  6
CONTINUOUS
 62
    9
 10
778.70382191564318
 20
547.98246517608823
 11
678.07882191564318
 21
547.98246517608823
  0
LINE
  8
_0-e_極細4
  6
CONTINUOUS
 62
    9
 10
778.70382191564318
 20
536.98246517608766
 11
778.70382191564318
 21
547.98246517608823
  0
LINE
  8
_0-e_極細4
  6
CONTINUOUS
 62
    9
 10
786.82882191564318
 20
547.98246517608823
 11
778.70382191564318
 21
547.98246517608823
  0
LINE
  8
_0-e_極細4
  6
CONTINUOUS
 62
    9
 10
784.32882191564318
 20
536.98246517608766
 11
778.70382191564318
 21
536.98246517608766
  0
LINE
  8
_0-e_極細4
  6
CONTINUOUS
 62
    9
 10
784.32882191564318
 20
534.48246517608766
 11
784.32882191564318
 21
536.98246517608766
  0
ARC
  8
_0-e_極細4
  6
CONTINUOUS
 62
    9
 10
779.32882191564318
 20
534.48246517608766
 40
5
 50
269.99999999999977
 51
359.99999999999966
  0
LINE
  8
_0-e_極細4
  6
CONTINUOUS
 62
    9
 10
779.32882191564318
 20
529.48246517608857
 11
771.82882191564318
 21
529.48246517608857
  0
ARC
  8
_0-e_極細4
  6
CONTINUOUS
 62
    9
 10
803.02632191564294
 20
576.10551767608831
 40
2.6250000000000284
 50
89.999999999999915
 51
175.84900999999337
  0
LINE
  8
_0-e_極細4
  6
CONTINUOUS
 62
    9
 10
803.02632191564294
 20
540.42801767608796
 11
803.02632191564294
 21
578.7305176760882
  0
LINE
  8
_0-e_極細4
  6
CONTINUOUS
 62
    9
 10
803.02632191564294
 20
578.71285631046112
 11
820.32882191564227
 21
581.1772501760878
  0
LINE
  8
_0-e_極細4
  6
CONTINUOUS
 62
    9
 10
810.57882191563988
 20
521.96285767608811
 11
810.57882191563988
 21
541.96285767608776
  0
ARC
  8
_0-e_極細4
  6
CONTINUOUS
 62
    9
 10
816.82882191563988
 20
511.13754017608733
 40
12.5
 50
119.99999999999989
 51
179.99999999999983
  0
LINE
  8
_0-e_極細4
  6
CONTINUOUS
 62
    9
 10
820.32882191564227
 20
541.96285767608776
 11
820.32882191564227
 21
543.35096017608839
  0
LINE
  8
_0-e_極細4
  6
CONTINUOUS
 62
    9
 10
810.57882191563988
 20
541.96285767608776
 11
820.32882191564227
 21
541.96285767608776
  0
LINE
  8
_0-e_極細4
  6
CONTINUOUS
 62
    9
 10
820.32882191564227
 20
543.35096017608839
 11
820.32882191564227
 21
582.90930267608792
  0
LINE
  8
_0-e_極細4
  6
CONTINUOUS
 62
    9
 10
799.32882191564318
 20
529.46285767608833
 11
799.32882191564318
 21
536.73051767608831
  0
LINE
  8
_0-e_極細4
  6
CONTINUOUS
 62
    9
 10
803.02632191564294
 20
527.46285767608833
 11
799.32882191564318
 21
529.46285767608833
  0
LINE
  8
_0-e_極細4
  6
CONTINUOUS
 62
    9
 10
820.32882191564227
 20
576.96285767608833
 11
803.02632191564294
 21
574.96285767608788
  0
ARC
  8
_0-e_極細4
  6
CONTINUOUS
 62
    9
 10
773.70382191564318
 20
511.96285767608811
 40
2.5
 50
0
 51
89.999999999999915
  0
ARC
  8
_0-e_極細4
  6
CONTINUOUS
 62
    9
 10
773.70382191564318
 20
511.96285767608811
 40
2.5
 50
89.999999999999915
 51
179.99999999999983
  0
LINE
  8
_0-e_極細4
  6
CONTINUOUS
 62
    9
 10
678.07882191564318
 20
580.48051767608831
 11
803.02632191564294
 21
580.48051767608831
  0
LINE
  8
_0-e_極細4
  6
CONTINUOUS
 62
    9
 10
778.70382191564318
 20
546.73051767608831
 11
788.82882191564272
 21
546.73051767608831
  0
LINE
  8
_0-e_極細4
  6
CONTINUOUS
 62
    9
 10
796.18188191564172
 20
574.23051767608831
 11
793.20382191564272
 21
574.23051767608831
  0
LINE
  8
_0-e_極細4
  6
CONTINUOUS
 62
    9
 10
788.82882191564272
 20
543.48051767608786
 11
788.82882191564272
 21
569.85551767608831
  0
LINE
  8
_0-e_極細4
  6
CONTINUOUS
 62
    9
 10
794.32882191564318
 20
574.23051767608831
 11
794.32882191564318
 21
580.48051767608831
  0
ARC
  8
_0-e_極細4
  6
CONTINUOUS
 62
    9
 10
793.20382191564272
 20
569.85551767608831
 40
4.375
 50
89.999999999999915
 51
179.99999999999983
  0
ARC
  8
_0-e_極細4
  6
CONTINUOUS
 62
    9
 10
803.02632191564294
 20
576.10551767608831
 40
4.375
 50
89.999999999999915
 51
175.84901000000326
  0
ARC
  8
_0-e_極細4
  6
CONTINUOUS
 62
    9
 10
796.18188191564172
 20
576.73051767608831
 40
2.5
 50
269.99999999999977
 51
356.64911200000989
  0
ARC
  8
_0-e_極細4
  6
CONTINUOUS
 62
    9
 10
796.18188191564172
 20
576.73051767608831
 40
4.2499999999999716
 50
269.99999999999977
 51
356.64911199999881
  0
LINE
  8
_0-e_極細4
  6
CONTINUOUS
 62
    9
 10
796.18188191564172
 20
572.4805176760882
 11
793.20382191564272
 21
572.4805176760882
  0
ARC
  8
_0-e_極細4
  6
CONTINUOUS
 62
    9
 10
793.20382191564272
 20
569.85551767608831
 40
2.6250000000000284
 50
89.999999999999915
 51
179.99999999999983
  0
LINE
  8
_0-e_極細4
  6
CONTINUOUS
 62
    9
 10
790.57882191564318
 20
541.73051767608831
 11
790.57882191564318
 21
569.85551767608831
  0
LINE
  8
_0-e_極細4
  6
CONTINUOUS
 62
    9
 10
803.02632191564294
 20
540.42801767608796
 11
799.32882191564318
 21
536.73051767608831
  0
LINE
  8
_0-e_極細4
  6
CONTINUOUS
 62
    9
 10
785.57882191563999
 20
531.73051767608774
 11
785.57882191563999
 21
546.73051767608831
  0
LINE
  8
_0-e_極細4
  6
CONTINUOUS
 62
    9
 10
785.57882191563999
 20
541.73051767608831
 11
790.57882191564318
 21
541.73051767608831
  0
LINE
  8
_0-e_極細4
  6
CONTINUOUS
 62
    9
 10
785.57882191563999
 20
543.48051767608786
 11
788.82882191564272
 21
543.48051767608786
  0
LINE
  8
_0-e_極細4
  6
CONTINUOUS
 62
    9
 10
783.50336191564224
 20
531.73051767608774
 11
785.57882191563999
 21
531.73051767608774
  0
LINE
  8
_0-e_極細4
  6
CONTINUOUS
 62
    9
 10
785.57882191563999
 20
536.73051767608831
 11
799.32882191564318
 21
536.73051767608831
  0
LINE
  8
_0-e_極細4
  6
CONTINUOUS
 62
    9
 10
752.54460441564129
 20
532.48051767608786
 11
765.04460441564129
 21
532.48051767608786
  0
LINE
  8
_0-e_極細4
  6
CONTINUOUS
 62
    9
 10
752.54460441564129
 20
532.48051767608786
 11
752.54460441564129
 21
536.73051767608831
  0
LINE
  8
_0-e_極細4
  6
CONTINUOUS
 62
    9
 10
765.04460441564129
 20
532.48051767608786
 11
765.04460441564129
 21
536.73051767608831
  0
LINE
  8
_0-e_極細4
  6
CONTINUOUS
 62
    9
 10
794.20382191564181
 20
574.73051767608786
 11
794.20382191564181
 21
577.98051767608831
  0
LINE
  8
_0-e_極細4
  6
CONTINUOUS
 62
    9
 10
678.07882191564318
 20
579.23051767608831
 11
792.95382191564181
 21
579.23051767608831
  0
LINE
  8
_0-e_極細4
  6
CONTINUOUS
 62
    9
 10
788.82882191564272
 20
574.23051767608831
 11
793.70382191564318
 21
574.23051767608831
  0
LINE
  8
_0-e_極細4
  6
CONTINUOUS
 62
    9
 10
788.82882191564272
 20
566.73051767608831
 11
788.82882191564272
 21
574.23051767608831
  0
ARC
  8
_0-e_極細4
  6
CONTINUOUS
 62
    9
 10
792.95382191564181
 20
577.98051767608831
 40
1.25
 50
0
 51
24.054548999995404
  0
ARC
  8
_0-e_極細4
  6
CONTINUOUS
 62
    9
 10
793.70382191564318
 20
574.73051767608786
 40
0.4999999999999716
 50
269.99999999999977
 51
359.99999999999966
  0
ARC
  8
_0-e_極細4
  6
CONTINUOUS
 62
    9
 10
792.95382191564181
 20
577.98051767608831
 40
1.25
 50
24.054548999995404
 51
89.999999999999901
  0
LINE
  8
_0-e_極細4
  6
CONTINUOUS
 62
    9
 10
678.57882191564272
 20
567.98051767608831
 11
786.07882191564181
 21
567.98051767608831
  0
LINE
  8
_0-e_極細4
  6
CONTINUOUS
 62
    9
 10
678.57882191564272
 20
565.48051767608831
 11
787.57882191564272
 21
565.48051767608831
  0
LINE
  8
_0-e_極細4
  6
CONTINUOUS
 62
    9
 10
678.07882191564318
 20
562.74579267608806
 11
788.45382191564227
 21
562.74579267608806
  0
LINE
  8
_0-e_極細4
  6
CONTINUOUS
 62
    9
 10
777.45382191564318
 20
562.74579267608806
 11
777.45382191564318
 21
561.49579267608806
  0
LINE
  8
_0-e_極細4
  6
CONTINUOUS
 62
    9
 10
786.45382191564318
 20
558.99579267608806
 11
788.45382191564227
 21
562.74579267608806
  0
LINE
  8
_0-e_極細4
  6
CONTINUOUS
 62
    9
 10
776.20382191563999
 20
554.49579267608885
 11
777.45382191564318
 21
555.74579267608885
  0
LINE
  8
_0-e_極細4
  6
CONTINUOUS
 62
    9
 10
777.45382191564318
 20
553.2457926760876
 11
776.20382191563999
 21
554.49579267608885
  0
LINE
  8
_0-e_極細4
  6
CONTINUOUS
 62
    9
 10
777.45382191564318
 20
558.99579267608806
 11
776.20382191563999
 21
560.24579267608806
  0
LINE
  8
_0-e_極細4
  6
CONTINUOUS
 62
    9
 10
776.20382191563999
 20
560.24579267608806
 11
777.45382191564318
 21
561.49579267608806
  0
LINE
  8
_0-e_極細4
  6
CONTINUOUS
 62
    9
 10
678.07882191564318
 20
560.24579267608806
 11
776.20382191563999
 21
560.24579267608806
  0
LINE
  8
_0-e_極細4
  6
CONTINUOUS
 62
    9
 10
678.07882191564318
 20
554.49579267608885
 11
776.20382191563999
 21
554.49579267608885
  0
LINE
  8
_0-e_極細4
  6
CONTINUOUS
 62
    9
 10
678.07882191564318
 20
551.99579267608885
 11
786.45382191564318
 21
551.99579267608885
  0
LINE
  8
_0-e_極細4
  6
CONTINUOUS
 62
    9
 10
786.45382191564318
 20
558.99579267608806
 11
786.45382191564318
 21
551.99579267608885
  0
LINE
  8
_0-e_極細4
  6
CONTINUOUS
 62
    9
 10
777.45382191564318
 20
553.2457926760876
 11
777.45382191564318
 21
551.99579267608885
  0
LINE
  8
_0-e_極細4
  6
CONTINUOUS
 62
    9
 10
777.45382191564318
 20
558.99579267608806
 11
777.45382191564318
 21
555.74579267608885
  0
LINE
  8
_0-e_極細4
  6
CONTINUOUS
 62
    9
 10
786.82882191564318
 20
547.98246517608823
 11
786.82882191564318
 21
551.73246517608823
  0
LINE
  8
_0-e_極細4
  6
CONTINUOUS
 62
    9
 10
786.82882191564318
 20
551.73246517608823
 11
678.07882191564318
 21
551.73246517608823
  0
LINE
  8
_0-e_極細4
  6
CONTINUOUS
 62
    9
 10
786.82882191564318
 20
563.23246517608811
 11
678.07882191564318
 21
563.23246517608811
  0
LINE
  8
_0-e_極細4
  6
CONTINUOUS
 62
    9
 10
786.82882191564318
 20
563.23246517608811
 11
786.82882191564318
 21
565.48051767608831
  0
LINE
  8
_0-e_極細4
  6
CONTINUOUS
 62
    9
 10
745.57882191564318
 20
529.46285767608833
 11
799.32882191564318
 21
529.46285767608833
  0
LINE
  8
_0-e_極細4
  6
CONTINUOUS
 62
    9
 10
745.57882191564318
 20
526.72369767608802
 11
745.57882191564318
 21
530.41808017608901
  0
LINE
  8
_0-e_極細4
  6
CONTINUOUS
 62
    9
 10
803.02632191564294
 20
580.48051767608831
 11
820.32882191564227
 21
582.9449102127636
  0
LINE
  8
_0-e_極細4
  6
CONTINUOUS
 62
    9
 10
773.70382191564318
 20
514.46285767608811
 11
745.57882191564318
 21
514.46285767608811
  0
LINE
  8
_0-e_極細4
  6
CONTINUOUS
 62
    9
 10
745.57882191564318
 20
527.46285767608833
 11
803.02632191564294
 21
527.46285767608833
  0
LINE
  8
_0-e_極細4
  6
CONTINUOUS
 62
    9
 10
820.32882191564227
 20
581.21285767608788
 11
820.32882191564227
 21
582.9449102127636
  0
LINE
  8
_0-e_極細4
  6
CONTINUOUS
 62
    9
 10
535.82882191564181
 20
582.9449102127636
 11
820.32882191564227
 21
582.9449102127636
  0
LINE
  8
_0-e_極細4
  6
CONTINUOUS
 62
    9
 10
803.02632191564294
 20
575.56418532084751
 11
808.22855770236515
 21
575.56418532084751
  0
LINE
  8
_0-e_極細4
  6
CONTINUOUS
 62
    9
 10
803.02632191564294
 20
577.06418532084717
 11
820.32882191564227
 21
577.06418532084717
  0
LINE
  8
_0-e_極細4
  6
CONTINUOUS
 62
    9
 10
803.02632191564294
 20
578.56418532084706
 11
820.32882191564227
 21
578.56418532084706
  0
LINE
  8
_0-e_極細4
  6
CONTINUOUS
 62
    9
 10
812.5139977812297
 20
580.06418532084797
 11
820.32882191564227
 21
580.06418532084797
  0
LINE
  8
_0-e_極細4
  6
CONTINUOUS
 62
    9
 10
547.92908612891893
 20
575.56418532084751
 11
553.1313219156425
 21
575.56418532084751
  0
LINE
  8
_0-e_極細4
  6
CONTINUOUS
 62
    9
 10
535.82882191564181
 20
577.06418532084717
 11
553.1313219156425
 21
577.06418532084717
  0
LINE
  8
_0-e_極細4
  6
CONTINUOUS
 62
    9
 10
535.82882191564181
 20
578.56418532084706
 11
553.1313219156425
 21
578.56418532084706
  0
LINE
  8
_0-e_極細4
  6
CONTINUOUS
 62
    9
 10
535.82882191564181
 20
580.06418532084797
 11
543.64364605005471
 21
580.06418532084797
  0
ARC
  8
_0-e_極細4
  6
CONTINUOUS
 62
    9
 10
760.57882191564318
 20
530.41808017608901
 40
15.000000000000002
 50
155.11305268293435
 51
179.99999999999983
  0
ARC
  8
_0-e_極細4
  6
CONTINUOUS
 62
    9
 10
760.57882191564318
 20
530.41808017608901
 40
15.000000000000002
 50
55.166292356155694
 51
155.11305268293435
  0
ARC
  8
_0-e_極細4
  6
CONTINUOUS
 62
    9
 10
764.32882191564318
 20
536.98246517608766
 40
7.5000000000000009
 50
358.07490068720915
 51
50.029499419969213
  0
LINE
  8
_0-e_極細4
  6
CONTINUOUS
 62
    9
 10
746.97172329732552
 20
536.73051767608831
 11
771.82882191564318
 21
536.73051767608831
  0
LINE
  8
_0-e_極細4
  6
CONTINUOUS
 62
    9
 10
771.82882191564318
 20
529.48246517608857
 11
771.82882191564318
 21
536.73051767608831
  0
LINE
  8
_0-e_極細4
  6
CONTINUOUS
 62
    9
 10
770.35588384148036
 20
536.73051767608831
 11
770.35588384148036
 21
541.4461547421455
  0
LINE
  8
_0-e_極細4
  6
CONTINUOUS
 62
    9
 10
768.85588384147718
 20
536.73051767608831
 11
768.85588384147718
 21
542.92768632000195
  0
LINE
  8
_0-e_極細4
  6
CONTINUOUS
 62
    9
 10
767.35588384147945
 20
536.73051767608831
 11
767.35588384147945
 21
543.79983759629886
  0
LINE
  8
_0-e_極細4
  6
CONTINUOUS
 62
    9
 10
765.85588384147991
 20
536.73051767608831
 11
765.85588384147991
 21
544.45918474200062
  0
LINE
  8
_0-e_極細4
  6
CONTINUOUS
 62
    9
 10
764.355883841479
 20
536.73051767608831
 11
764.355883841479
 21
544.93475345919239
  0
LINE
  8
_0-e_極細4
  6
CONTINUOUS
 62
    9
 10
762.85588384147809
 20
536.73051767608831
 11
762.85588384147809
 21
545.24423911850806
  0
LINE
  8
_0-e_極細4
  6
CONTINUOUS
 62
    9
 10
761.35588384147718
 20
536.73051767608831
 11
761.35588384147718
 21
545.39793914616655
  0
LINE
  8
_0-e_極細4
  6
CONTINUOUS
 62
    9
 10
759.85588384147945
 20
536.73051767608831
 11
759.85588384147945
 21
545.40064873227811
  0
LINE
  8
_0-e_極細4
  6
CONTINUOUS
 62
    9
 10
758.35588384147991
 20
536.73051767608831
 11
758.35588384147991
 21
545.25245061498572
  0
LINE
  8
_0-e_極細4
  6
CONTINUOUS
 62
    9
 10
756.855883841479
 20
536.73051767608831
 11
756.855883841479
 21
544.94872820348053
  0
LINE
  8
_0-e_極細4
  6
CONTINUOUS
 62
    9
 10
755.35588384147809
 20
536.73051767608831
 11
755.35588384147809
 21
544.47940720711449
  0
LINE
  8
_0-e_極細4
  6
CONTINUOUS
 62
    9
 10
753.85588384147718
 20
536.73051767608831
 11
753.85588384147718
 21
543.82711085138214
  0
LINE
  8
_0-e_極細4
  6
CONTINUOUS
 62
    9
 10
752.35588384147945
 20
536.73051767608831
 11
752.35588384147945
 21
542.96332985190111
  0
LINE
  8
_0-e_極細4
  6
CONTINUOUS
 62
    9
 10
750.85588384147991
 20
536.73051767608831
 11
750.85588384147991
 21
541.84018485105969
  0
LINE
  8
_0-e_極細4
  6
CONTINUOUS
 62
    9
 10
749.355883841479
 20
536.73051767608831
 11
749.355883841479
 21
540.37024883339598
  0
LINE
  8
_0-e_極細4
  6
CONTINUOUS
 62
    9
 10
747.85588384147809
 20
536.73051767608831
 11
747.85588384147809
 21
538.36332068604167
  0
ARC
  8
_0-e_極細4
  6
CONTINUOUS
 62
    9
 10
591.82882191564499
 20
536.98246517608766
 40
7.5000000000000009
 50
129.97050058004911
 51
181.92509931278963
  0
LINE
  8
_0-e_極細4
  6
CONTINUOUS
 62
    9
 10
584.32882191564499
 20
529.48246517608857
 11
584.32882191564499
 21
536.73051767608831
  0
ARC
  8
_0-e_極細4
  6
CONTINUOUS
 62
    9
 10
595.57882191564499
 20
530.41808017608901
 40
15.000000000000002
 50
24.886947317068586
 51
124.83370764385428
  0
LINE
  8
_0-e_極細4
  6
CONTINUOUS
 62
    9
 10
609.18592053396083
 20
536.73051767608831
 11
584.32882191564499
 21
536.73051767608831
  0
ARC
  8
_0-e_極細4
  6
CONTINUOUS
 62
    9
 10
595.57882191564499
 20
530.41808017608901
 40
15.000000000000002
 50
0
 51
24.886947317068586
  0
LINE
  8
_0-e_極細4
  6
CONTINUOUS
 62
    9
 10
608.35588384148036
 20
536.73051767608831
 11
608.35588384148036
 21
538.27598629307192
  0
LINE
  8
_0-e_極細4
  6
CONTINUOUS
 62
    9
 10
606.85588384147991
 20
536.73051767608831
 11
606.85588384147991
 21
540.30887763235205
  0
LINE
  8
_0-e_極細4
  6
CONTINUOUS
 62
    9
 10
605.355883841479
 20
536.73051767608831
 11
605.355883841479
 21
541.79389048122039
  0
LINE
  8
_0-e_極細4
  6
CONTINUOUS
 62
    9
 10
603.85588384148036
 20
536.73051767608831
 11
603.85588384148036
 21
542.92768632000252
  0
LINE
  8
_0-e_極細4
  6
CONTINUOUS
 62
    9
 10
602.35588384147945
 20
536.73051767608831
 11
602.35588384147945
 21
543.79983759630011
  0
LINE
  8
_0-e_極細4
  6
CONTINUOUS
 62
    9
 10
600.85588384148036
 20
536.73051767608831
 11
600.85588384148036
 21
544.45918474200062
  0
LINE
  8
_0-e_極細4
  6
CONTINUOUS
 62
    9
 10
599.35588384147991
 20
536.73051767608831
 11
599.35588384147991
 21
544.93475345919239
  0
LINE
  8
_0-e_極細4
  6
CONTINUOUS
 62
    9
 10
597.85588384147854
 20
536.73051767608831
 11
597.85588384147854
 21
545.24423911850852
  0
LINE
  8
_0-e_極細4
  6
CONTINUOUS
 62
    9
 10
596.35588384148036
 20
536.73051767608831
 11
596.35588384148036
 21
545.39793914616655
  0
LINE
  8
_0-e_極細4
  6
CONTINUOUS
 62
    9
 10
594.85588384147945
 20
536.73051767608831
 11
594.85588384147945
 21
545.40064873227755
  0
LINE
  8
_0-e_極細4
  6
CONTINUOUS
 62
    9
 10
593.35588384148036
 20
536.73051767608831
 11
593.35588384148036
 21
545.25245061498572
  0
LINE
  8
_0-e_極細4
  6
CONTINUOUS
 62
    9
 10
591.85588384147945
 20
536.73051767608831
 11
591.85588384147945
 21
544.94872820348053
  0
LINE
  8
_0-e_極細4
  6
CONTINUOUS
 62
    9
 10
590.35588384147854
 20
536.73051767608831
 11
590.35588384147854
 21
544.47940720711449
  0
LINE
  8
_0-e_極細4
  6
CONTINUOUS
 62
    9
 10
588.85588384147809
 20
536.73051767608831
 11
588.85588384147809
 21
543.82711085138214
  0
LINE
  8
_0-e_極細4
  6
CONTINUOUS
 62
    9
 10
587.35588384147945
 20
536.73051767608831
 11
587.35588384147945
 21
542.96332985190111
  0
LINE
  8
_0-e_極細4
  6
CONTINUOUS
 62
    9
 10
585.85588384148036
 20
536.73051767608831
 11
585.85588384148036
 21
541.51832350304267
  0
LINE
  8
_0-e_極細4
  6
CONTINUOUS
 62
    9
 10
584.35588384147945
 20
536.73051767608831
 11
584.35588384147945
 21
537.61901567660732
  0
LINE
  8
_0-e_極細4
  6
CONTINUOUS
 62
    9
 10
764.355883841479
 20
532.48051767608786
 11
764.355883841479
 21
536.73051767608831
  0
LINE
  8
_0-e_極細4
  6
CONTINUOUS
 62
    9
 10
762.85588384148036
 20
532.48051767608786
 11
762.85588384148036
 21
536.73051767608831
  0
LINE
  8
_0-e_極細4
  6
CONTINUOUS
 62
    9
 10
761.35588384147718
 20
532.48051767608786
 11
761.35588384147718
 21
536.73051767608831
  0
LINE
  8
_0-e_極細4
  6
CONTINUOUS
 62
    9
 10
759.85588384147945
 20
532.48051767608786
 11
759.85588384147945
 21
536.73051767608831
  0
LINE
  8
_0-e_極細4
  6
CONTINUOUS
 62
    9
 10
758.35588384147991
 20
532.48051767608786
 11
758.35588384147991
 21
536.73051767608831
  0
LINE
  8
_0-e_極細4
  6
CONTINUOUS
 62
    9
 10
756.855883841479
 20
532.48051767608786
 11
756.855883841479
 21
536.73051767608831
  0
LINE
  8
_0-e_極細4
  6
CONTINUOUS
 62
    9
 10
755.35588384147809
 20
532.48051767608786
 11
755.35588384147809
 21
536.73051767608831
  0
LINE
  8
_0-e_極細4
  6
CONTINUOUS
 62
    9
 10
753.85588384147718
 20
532.48051767608786
 11
753.85588384147718
 21
536.73051767608831
  0
LINE
  8
_0-e_極細4
  6
CONTINUOUS
 62
    9
 10
602.35588384147945
 20
532.48051767608786
 11
602.35588384147945
 21
536.73051767608831
  0
LINE
  8
_0-e_極細4
  6
CONTINUOUS
 62
    9
 10
600.85588384148036
 20
532.48051767608786
 11
600.85588384148036
 21
536.73051767608831
  0
LINE
  8
_0-e_極細4
  6
CONTINUOUS
 62
    9
 10
599.35588384147991
 20
532.48051767608786
 11
599.35588384147991
 21
536.73051767608831
  0
LINE
  8
_0-e_極細4
  6
CONTINUOUS
 62
    9
 10
597.855883841479
 20
532.48051767608786
 11
597.855883841479
 21
536.73051767608831
  0
LINE
  8
_0-e_極細4
  6
CONTINUOUS
 62
    9
 10
596.35588384148036
 20
532.48051767608786
 11
596.35588384148036
 21
536.73051767608831
  0
LINE
  8
_0-e_極細4
  6
CONTINUOUS
 62
    9
 10
594.85588384147945
 20
532.48051767608786
 11
594.85588384147945
 21
536.73051767608831
  0
LINE
  8
_0-e_極細4
  6
CONTINUOUS
 62
    9
 10
593.35588384148036
 20
532.48051767608786
 11
593.35588384148036
 21
536.73051767608831
  0
LINE
  8
_0-e_極細4
  6
CONTINUOUS
 62
    9
 10
591.85588384147991
 20
532.48051767608786
 11
591.85588384147991
 21
536.73051767608831
  0
LINE
  8
_0-e_極細4
  6
CONTINUOUS
 62
    9
 10
576.85588384147991
 20
536.98246517608766
 11
576.85588384147991
 21
546.73051767608831
  0
LINE
  8
_0-e_極細4
  6
CONTINUOUS
 62
    9
 10
575.355883841479
 20
536.98246517608766
 11
575.355883841479
 21
546.73051767608831
  0
LINE
  8
_0-e_極細4
  6
CONTINUOUS
 62
    9
 10
573.85588384147809
 20
536.98246517608766
 11
573.85588384147809
 21
546.73051767608831
  0
LINE
  8
_0-e_極細4
  6
CONTINUOUS
 62
    9
 10
572.35588384147945
 20
531.73051767608774
 11
572.35588384147945
 21
532.24800215676942
  0
LINE
  8
_0-e_極細4
  6
CONTINUOUS
 62
    9
 10
572.35588384147945
 20
536.98246517608766
 11
572.35588384147945
 21
546.73051767608831
  0
LINE
  8
_0-e_極細4
  6
CONTINUOUS
 62
    9
 10
570.85588384148036
 20
531.73051767608774
 11
570.85588384148036
 21
546.73051767608831
  0
LINE
  8
_0-e_極細4
  6
CONTINUOUS
 62
    9
 10
785.35588384148036
 20
531.73051767608774
 11
785.35588384148036
 21
546.73051767608831
  0
LINE
  8
_0-e_極細4
  6
CONTINUOUS
 62
    9
 10
783.85588384147718
 20
531.73051767608774
 11
783.85588384147718
 21
532.35979932399687
  0
LINE
  8
_0-e_極細4
  6
CONTINUOUS
 62
    9
 10
783.85588384147718
 20
536.98246517608766
 11
783.85588384147718
 21
546.73051767608831
  0
LINE
  8
_0-e_極細4
  6
CONTINUOUS
 62
    9
 10
782.35588384147945
 20
536.98246517608766
 11
782.35588384147945
 21
546.73051767608831
  0
LINE
  8
_0-e_極細4
  6
CONTINUOUS
 62
    9
 10
780.85588384147991
 20
536.98246517608766
 11
780.85588384147991
 21
546.73051767608831
  0
LINE
  8
_0-e_極細4
  6
CONTINUOUS
 62
    9
 10
779.355883841479
 20
536.98246517608766
 11
779.355883841479
 21
546.73051767608831
  0
LINE
  8
_0-e_極細4
  6
CONTINUOUS
 62
    9
 10
801.855883841479
 20
539.25757960192584
 11
801.855883841479
 21
578.45513460540906
  0
LINE
  8
_0-e_極細4
  6
CONTINUOUS
 62
    9
 10
800.35588384148036
 20
537.75757960192584
 11
800.35588384148036
 21
575.93038773469959
  0
LINE
  8
_0-e_極細4
  6
CONTINUOUS
 62
    9
 10
798.85588384147718
 20
536.73051767608831
 11
798.85588384147718
 21
573.42715367849087
  0
LINE
  8
_0-e_極細4
  6
CONTINUOUS
 62
    9
 10
797.35588384147945
 20
536.73051767608831
 11
797.35588384147945
 21
572.64588556558783
  0
LINE
  8
_0-e_極細4
  6
CONTINUOUS
 62
    9
 10
795.85588384147991
 20
536.73051767608831
 11
795.85588384147991
 21
572.4805176760882
  0
LINE
  8
_0-e_極細4
  6
CONTINUOUS
 62
    9
 10
794.355883841479
 20
536.73051767608831
 11
794.355883841479
 21
572.4805176760882
  0
LINE
  8
_0-e_極細4
  6
CONTINUOUS
 62
    9
 10
792.85588384148036
 20
536.73051767608831
 11
792.85588384148036
 21
572.45735627533793
  0
LINE
  8
_0-e_極細4
  6
CONTINUOUS
 62
    9
 10
791.35588384147718
 20
536.73051767608831
 11
791.35588384147718
 21
571.71985398535742
  0
LINE
  8
_0-e_極細4
  6
CONTINUOUS
 62
    9
 10
789.85588384147945
 20
536.73051767608831
 11
789.85588384147945
 21
541.73051767608831
  0
LINE
  8
_0-e_極細4
  6
CONTINUOUS
 62
    9
 10
788.35588384147991
 20
536.73051767608831
 11
788.35588384147991
 21
541.73051767608831
  0
LINE
  8
_0-e_極細4
  6
CONTINUOUS
 62
    9
 10
786.855883841479
 20
536.73051767608831
 11
786.855883841479
 21
541.73051767608831
  0
LINE
  8
_0-e_極細4
  6
CONTINUOUS
 62
    9
 10
569.35588384147991
 20
536.73051767608831
 11
569.35588384147991
 21
541.73051767608831
  0
LINE
  8
_0-e_極細4
  6
CONTINUOUS
 62
    9
 10
567.855883841479
 20
536.73051767608831
 11
567.855883841479
 21
541.73051767608831
  0
LINE
  8
_0-e_極細4
  6
CONTINUOUS
 62
    9
 10
566.35588384147809
 20
536.73051767608831
 11
566.35588384147809
 21
541.73051767608831
  0
LINE
  8
_0-e_極細4
  6
CONTINUOUS
 62
    9
 10
564.85588384147945
 20
536.73051767608831
 11
564.85588384147945
 21
571.66460181738194
  0
LINE
  8
_0-e_極細4
  6
CONTINUOUS
 62
    9
 10
563.35588384148036
 20
536.73051767608831
 11
563.35588384148036
 21
572.44954373759799
  0
LINE
  8
_0-e_極細4
  6
CONTINUOUS
 62
    9
 10
561.85588384147991
 20
536.73051767608831
 11
561.85588384147991
 21
572.4805176760882
  0
LINE
  8
_0-e_極細4
  6
CONTINUOUS
 62
    9
 10
560.35588384147854
 20
536.73051767608831
 11
560.35588384147854
 21
572.4805176760882
  0
LINE
  8
_0-e_極細4
  6
CONTINUOUS
 62
    9
 10
558.85588384147809
 20
536.73051767608831
 11
558.85588384147809
 21
572.63071608344933
  0
LINE
  8
_0-e_極細4
  6
CONTINUOUS
 62
    9
 10
557.35588384147854
 20
536.73051767608831
 11
557.35588384147854
 21
573.38406599161408
  0
LINE
  8
_0-e_極細4
  6
CONTINUOUS
 62
    9
 10
555.85588384148036
 20
537.70345575025146
 11
555.85588384148036
 21
575.68691590624076
  0
LINE
  8
_0-e_極細4
  6
CONTINUOUS
 62
    9
 10
554.35588384147945
 20
539.20345575025158
 11
554.35588384147945
 21
578.427386124083
  0
LINE
  8
_0-e_極細4
  6
CONTINUOUS
 62
    9
 10
777.45382191564318
 20
553.06418532084751
 11
786.45382191564318
 21
553.06418532084751
  0
LINE
  8
_0-e_極細4
  6
CONTINUOUS
 62
    9
 10
776.27221456040047
 20
554.56418532084717
 11
786.45382191564318
 21
554.56418532084717
  0
LINE
  8
_0-e_極細4
  6
CONTINUOUS
 62
    9
 10
777.45382191564318
 20
556.06418532084706
 11
786.45382191564318
 21
556.06418532084706
  0
LINE
  8
_0-e_極細4
  6
CONTINUOUS
 62
    9
 10
777.45382191564318
 20
557.56418532084797
 11
786.45382191564318
 21
557.56418532084797
  0
LINE
  8
_0-e_極細4
  6
CONTINUOUS
 62
    9
 10
777.3854292708827
 20
559.06418532084706
 11
786.49029799284676
 21
559.06418532084706
  0
LINE
  8
_0-e_極細4
  6
CONTINUOUS
 62
    9
 10
776.52221456040274
 20
560.56418532084751
 11
787.2902979928474
 21
560.56418532084751
  0
LINE
  8
_0-e_極細4
  6
CONTINUOUS
 62
    9
 10
777.45382191564318
 20
562.06418532084717
 11
788.09029799284667
 21
562.06418532084717
  0
LINE
  8
_0-e_極細4
  6
CONTINUOUS
 62
    9
 10
569.70382191564227
 20
553.06418532084751
 11
578.70382191564318
 21
553.06418532084751
  0
LINE
  8
_0-e_極細4
  6
CONTINUOUS
 62
    9
 10
569.70382191564227
 20
554.56418532084717
 11
579.88542927088315
 21
554.56418532084717
  0
LINE
  8
_0-e_極細4
  6
CONTINUOUS
 62
    9
 10
569.70382191564227
 20
556.06418532084706
 11
578.70382191564318
 21
556.06418532084706
  0
LINE
  8
_0-e_極細4
  6
CONTINUOUS
 62
    9
 10
569.70382191564227
 20
557.56418532084797
 11
578.70382191564318
 21
557.56418532084797
  0
LINE
  8
_0-e_極細4
  6
CONTINUOUS
 62
    9
 10
569.66734583843686
 20
559.06418532084706
 11
578.77221456040229
 21
559.06418532084706
  0
LINE
  8
_0-e_極細4
  6
CONTINUOUS
 62
    9
 10
568.86734583843759
 20
560.56418532084751
 11
579.6354292708827
 21
560.56418532084751
  0
LINE
  8
_0-e_極細4
  6
CONTINUOUS
 62
    9
 10
568.06734583843831
 20
562.06418532084717
 11
578.70382191564318
 21
562.06418532084717
  0
CIRCLE
  8
_1-1_寸法4
  6
CONTINUOUS
 62
    7
 10
788.82882191564272
 20
557.58465839289875
 40
50
  0
LINE
  8
_0-e_極細4
  6
CONTINUOUS
 62
    9
 10
804.65534191564325
 20
297.09749767608469
 11
894.04310191564286
 21
299.30157767608603
  0
LINE
  8
_0-e_極細4
  6
CONTINUOUS
 62
    9
 10
894.04310191564286
 20
299.30157767608603
 11
894.04310191564286
 21
433.99545767608515
  0
LINE
  8
_0-e_極細4
  6
CONTINUOUS
 62
    9
 10
804.32882191563999
 20
436.20758884776421
 11
894.04310191564286
 21
433.99545767608515
  0
LINE
  8
_0-e_極細4
  6
CONTINUOUS
 62
    9
 10
804.32882191563999
 20
436.20758884776421
 11
804.32882191563999
 21
511.13754017608733
  0
LINE
  8
_0-e_極細4
  6
CONTINUOUS
 62
    9
 10
551.82882191564227
 20
317.09749767608469
 11
551.82882191564227
 21
511.13754017608733
  0
LINE
  8
_0-e_極細4
  6
CONTINUOUS
 62
    9
 10
571.82882191564318
 20
297.09749767608469
 11
804.65534191564325
 21
297.09749767608469
  0
ARC
  8
_0-e_極細4
  6
CONTINUOUS
 62
    9
 10
571.82882191564318
 20
317.09749767608469
 40
20
 50
179.99999999999983
 51
269.99999999999977
  0
LINE
  8
_0-e_極細4
  6
CONTINUOUS
 62
    9
 10
573.07882191564318
 20
301.99545767608868
 11
804.65534191564325
 21
301.99545767608868
  0
LINE
  8
_0-e_極細4
  6
CONTINUOUS
 62
    9
 10
558.07882191564227
 20
316.99545767608868
 11
558.07882191564227
 21
459.76673337607855
  0
ARC
  8
_0-e_極細4
  6
CONTINUOUS
 62
    9
 10
573.07882191564318
 20
316.99545767608868
 40
15.000000000000002
 50
179.99999999999983
 51
269.99999999999977
  0
LINE
  8
_0-e_極細4
  6
CENTER2
 62
    9
 10
678.07882191564318
 20
610.60339264013044
 11
678.07882191564318
 21
248.38498843846835
  0
LINE
  8
_0-e_極細4
  6
CONTINUOUS
 62
    9
 10
798.07882191564318
 20
459.76673337607855
 11
798.07882191564318
 21
527.46285767608833
  0
ARC
  8
_0-e_極細4
  6
CONTINUOUS
 62
    9
 10
795.57882191564318
 20
459.76673337607855
 40
2.5
 50
277.18075599998338
 51
359.99999999999966
  0
LINE
  8
_0-e_極細4
  6
CONTINUOUS
 62
    9
 10
673.72805361593805
 20
297.09749767608469
 11
678.07882191564318
 21
301.44826597578913
  0
LINE
  8
_0-e_極細4
  6
CONTINUOUS
 62
    9
 10
668.42475275703987
 20
297.09749767608469
 11
673.32271275704102
 21
301.99545767608697
  0
LINE
  8
_0-e_極細4
  6
CONTINUOUS
 62
    9
 10
663.12145189813987
 20
297.09749767608469
 11
668.01941189814283
 21
301.99545767608868
  0
LINE
  8
_0-e_極細4
  6
CONTINUOUS
 62
    9
 10
657.81815103923986
 20
297.09749767608469
 11
662.71611103924329
 21
301.99545767608868
  0
LINE
  8
_0-e_極細4
  6
CONTINUOUS
 62
    9
 10
652.51485018034032
 20
297.09749767608469
 11
657.41281018034329
 21
301.99545767608868
  0
LINE
  8
_0-e_極細4
  6
CONTINUOUS
 62
    9
 10
647.21154932144259
 20
297.09749767608469
 11
652.10950932144738
 21
301.99545767608868
  0
LINE
  8
_0-e_極細4
  6
CONTINUOUS
 62
    9
 10
641.90824846254441
 20
297.09749767608469
 11
646.80620846254556
 21
301.99545767608868
  0
LINE
  8
_0-e_極細4
  6
CONTINUOUS
 62
    9
 10
636.6049476036444
 20
297.09749767608469
 11
641.50290760364737
 21
301.99545767608868
  0
LINE
  8
_0-e_極細4
  6
CONTINUOUS
 62
    9
 10
631.3016467447444
 20
297.09749767608469
 11
636.19960674474783
 21
301.99545767608868
  0
LINE
  8
_0-e_極細4
  6
CONTINUOUS
 62
    9
 10
625.99834588584486
 20
297.09749767608469
 11
630.89630588584782
 21
301.99545767608868
  0
LINE
  8
_0-e_極細4
  6
CONTINUOUS
 62
    9
 10
620.69504502694713
 20
297.09749767608469
 11
625.59300502695191
 21
301.99545767608868
  0
LINE
  8
_0-e_極細4
  6
CONTINUOUS
 62
    9
 10
615.39174416804894
 20
297.09749767608469
 11
620.28970416805009
 21
301.99545767608868
  0
LINE
  8
_0-e_極細4
  6
CONTINUOUS
 62
    9
 10
610.08844330914894
 20
297.09749767608469
 11
614.98640330915191
 21
301.99545767608868
  0
LINE
  8
_0-e_極細4
  6
CONTINUOUS
 62
    9
 10
604.78514245024894
 20
297.09749767608469
 11
609.68310245025236
 21
301.99545767608868
  0
LINE
  8
_0-e_極細4
  6
CONTINUOUS
 62
    9
 10
599.48184159134939
 20
297.09749767608469
 11
604.37980159135236
 21
301.99545767608868
  0
LINE
  8
_0-e_極細4
  6
CONTINUOUS
 62
    9
 10
594.17854073245167
 20
297.09749767608469
 11
599.07650073245645
 21
301.99545767608868
  0
LINE
  8
_0-e_極細4
  6
CONTINUOUS
 62
    9
 10
588.87523987355348
 20
297.09749767608469
 11
593.77319987355463
 21
301.99545767608868
  0
LINE
  8
_0-e_極細4
  6
CONTINUOUS
 62
    9
 10
583.57193901465348
 20
297.09749767608469
 11
588.46989901465645
 21
301.99545767608868
  0
LINE
  8
_0-e_極細4
  6
CONTINUOUS
 62
    9
 10
578.26863815575348
 20
297.09749767608469
 11
583.1665981557569
 21
301.99545767608868
  0
LINE
  8
_0-e_極細4
  6
CONTINUOUS
 62
    9
 10
572.96533729685393
 20
297.09749767608469
 11
577.8632972968569
 21
301.99545767608868
  0
LINE
  8
_0-e_極細4
  6
CONTINUOUS
 62
    9
 10
568.02675478621336
 20
297.46221602434105
 11
572.56867397853853
 21
302.0041352166686
  0
LINE
  8
_0-e_極細4
  6
CONTINUOUS
 62
    9
 10
563.96822239494099
 20
298.70698449196908
 11
568.10524554450535
 21
302.84400764153389
  0
LINE
  8
_0-e_極細4
  6
CONTINUOUS
 62
    9
 10
560.54354458976673
 20
300.58560754569442
 11
564.58792911942169
 21
304.62999207534847
  0
LINE
  8
_0-e_極細4
  6
CONTINUOUS
 62
    9
 10
557.64839424651223
 20
302.99375806133895
 11
561.78194003887279
 21
307.12730385369952
  0
LINE
  8
_0-e_極細4
  6
CONTINUOUS
 62
    9
 10
555.25488242082088
 20
305.90354709454584
 11
559.6544802284086
 21
310.30314490213482
  0
LINE
  8
_0-e_極細4
  6
CONTINUOUS
 62
    9
 10
553.39264267697104
 20
309.34460820959657
 11
558.32687346885291
 21
314.27883900147788
  0
LINE
  8
_0-e_極細4
  6
CONTINUOUS
 62
    9
 10
552.16902626801607
 20
313.42429265954024
 11
558.07882191564227
 21
319.33408830716712
  0
LINE
  8
_0-e_極細4
  6
CONTINUOUS
 62
    9
 10
551.82882191564227
 20
318.38738916606644
 11
558.07882191564227
 21
324.63738916606644
  0
LINE
  8
_0-e_極細4
  6
CONTINUOUS
 62
    9
 10
551.82882191564227
 20
323.69069002496542
 11
558.07882191564227
 21
329.94069002496542
  0
LINE
  8
_0-e_極細4
  6
CONTINUOUS
 62
    9
 10
551.82882191564227
 20
328.99399088386446
 11
558.07882191564227
 21
335.24399088386446
  0
LINE
  8
_0-e_極細4
  6
CONTINUOUS
 62
    9
 10
551.82882191564227
 20
334.2972917427636
 11
558.07882191564227
 21
340.5472917427636
  0
LINE
  8
_0-e_極細4
  6
CONTINUOUS
 62
    9
 10
551.82882191564227
 20
339.60059260166275
 11
558.07882191564227
 21
345.85059260166275
  0
LINE
  8
_0-e_極細4
  6
CONTINUOUS
 62
    9
 10
551.82882191564227
 20
344.9038934605619
 11
558.07882191564227
 21
351.1538934605619
  0
LINE
  8
_0-e_極細4
  6
CONTINUOUS
 62
    9
 10
551.82882191564227
 20
350.20719431946088
 11
558.07882191564227
 21
356.45719431946088
  0
LINE
  8
_0-e_極細4
  6
CONTINUOUS
 62
    9
 10
551.82882191564227
 20
355.51049517835992
 11
558.07882191564227
 21
361.76049517835992
  0
LINE
  8
_0-e_極細4
  6
CONTINUOUS
 62
    9
 10
551.82882191564227
 20
360.81379603725907
 11
558.07882191564227
 21
367.06379603725907
  0
LINE
  8
_0-e_極細4
  6
CONTINUOUS
 62
    9
 10
551.82882191564227
 20
366.11709689615822
 11
558.07882191564227
 21
372.36709689615822
  0
LINE
  8
_0-e_極細4
  6
CONTINUOUS
 62
    9
 10
551.82882191564227
 20
371.42039775505737
 11
558.07882191564227
 21
377.67039775505737
  0
LINE
  8
_0-e_極細4
  6
CONTINUOUS
 62
    9
 10
551.82882191564227
 20
376.72369861395634
 11
558.07882191564227
 21
382.97369861395634
  0
LINE
  8
_0-e_極細4
  6
CONTINUOUS
 62
    9
 10
551.82882191564227
 20
382.02699947285538
 11
558.07882191564227
 21
388.27699947285538
  0
LINE
  8
_0-e_極細4
  6
CONTINUOUS
 62
    9
 10
551.82882191564227
 20
387.33030033175453
 11
558.07882191564227
 21
393.58030033175453
  0
LINE
  8
_0-e_極細4
  6
CONTINUOUS
 62
    9
 10
551.82882191564227
 20
392.63360119065368
 11
558.07882191564227
 21
398.88360119065368
  0
LINE
  8
_0-e_極細4
  6
CONTINUOUS
 62
    9
 10
551.82882191564227
 20
397.93690204955283
 11
558.07882191564227
 21
404.18690204955283
  0
LINE
  8
_0-e_極細4
  6
CONTINUOUS
 62
    9
 10
551.82882191564227
 20
403.24020290845169
 11
558.07882191564227
 21
409.49020290845169
  0
LINE
  8
_0-e_極細4
  6
CONTINUOUS
 62
    9
 10
551.82882191564227
 20
408.54350376735084
 11
558.07882191564227
 21
414.79350376735084
  0
LINE
  8
_0-e_極細4
  6
CONTINUOUS
 62
    9
 10
551.82882191564227
 20
413.84680462624999
 11
558.07882191564227
 21
420.09680462624999
  0
LINE
  8
_0-e_極細4
  6
CONTINUOUS
 62
    9
 10
551.82882191564227
 20
419.15010548514914
 11
558.07882191564227
 21
425.40010548514914
  0
LINE
  8
_0-e_極細4
  6
CONTINUOUS
 62
    9
 10
551.82882191564227
 20
424.45340634404829
 11
558.07882191564227
 21
430.70340634404829
  0
LINE
  8
_0-e_極細4
  6
CONTINUOUS
 62
    9
 10
551.82882191564227
 20
429.75670720294721
 11
558.07882191564227
 21
436.00670720294721
  0
LINE
  8
_0-e_極細4
  6
CONTINUOUS
 62
    9
 10
551.82882191564227
 20
435.0600080618463
 11
558.07882191564227
 21
441.31000806184636
  0
LINE
  8
_0-e_極細4
  6
CONTINUOUS
 62
    9
 10
551.82882191564227
 20
440.36330892074545
 11
558.07882191564227
 21
446.61330892074545
  0
LINE
  8
_0-e_極細4
  6
CONTINUOUS
 62
    9
 10
551.82882191564227
 20
445.6666097796446
 11
558.07882191564227
 21
451.91660977964455
  0
LINE
  8
_0-e_極細4
  6
CONTINUOUS
 62
    9
 10
551.82882191564227
 20
450.96991063854375
 11
558.07882191564227
 21
457.21991063854375
  0
LINE
  8
_0-e_極細4
  6
CONTINUOUS
 62
    9
 10
551.82882191564227
 20
456.27321149744267
 11
558.07882191564227
 21
462.52321149744267
  0
LINE
  8
_0-e_極細4
  6
CONTINUOUS
 62
    9
 10
551.82882191564227
 20
461.57651235634182
 11
558.07882191564227
 21
467.82651235634182
  0
LINE
  8
_0-e_極細4
  6
CONTINUOUS
 62
    9
 10
551.82882191564227
 20
466.87981321524086
 11
558.07882191564227
 21
473.12981321524086
  0
LINE
  8
_0-e_極細4
  6
CONTINUOUS
 62
    9
 10
551.82882191564227
 20
472.18311407413989
 11
558.07882191564227
 21
478.43311407413989
  0
LINE
  8
_0-e_極細4
  6
CONTINUOUS
 62
    9
 10
551.82882191564227
 20
477.48641493303921
 11
558.07882191564227
 21
483.73641493303921
  0
LINE
  8
_0-e_極細4
  6
CONTINUOUS
 62
    9
 10
551.82882191564227
 20
482.78971579193808
 11
558.07882191564227
 21
489.03971579193808
  0
LINE
  8
_0-e_極細4
  6
CONTINUOUS
 62
    9
 10
551.82882191564227
 20
488.09301665083728
 11
558.07882191564227
 21
494.34301665083728
  0
LINE
  8
_0-e_極細4
  6
CONTINUOUS
 62
    9
 10
551.82882191564227
 20
493.39631750973632
 11
558.07882191564227
 21
499.64631750973632
  0
LINE
  8
_0-e_極細4
  6
CONTINUOUS
 62
    9
 10
551.82882191564227
 20
498.69961836863536
 11
558.07882191564227
 21
504.94961836863536
  0
LINE
  8
_0-e_極細4
  6
CONTINUOUS
 62
    9
 10
551.82882191564227
 20
504.00291922753468
 11
558.07882191564227
 21
510.25291922753468
  0
LINE
  8
_0-e_極細4
  6
CONTINUOUS
 62
    9
 10
551.82882191564227
 20
509.30622008643383
 11
558.07882191564227
 21
515.55622008643377
  0
LINE
  8
_0-e_極細4
  6
CONTINUOUS
 62
    9
 10
551.44208920478673
 20
514.22278823447448
 11
558.07882191564227
 21
520.85952094533172
  0
LINE
  8
_0-e_極細4
  6
CONTINUOUS
 62
    9
 10
549.83158724148166
 20
517.91558713007043
 11
558.07882191564227
 21
526.16282180423173
  0
LINE
  8
_0-e_極細4
  6
CONTINUOUS
 62
    9
 10
547.34305379260491
 20
520.73035454009414
 11
554.07555692860001
 21
527.46285767608833
  0
LINE
  8
_0-e_極細4
  6
CONTINUOUS
 62
    9
 10
555.18805768024208
 20
528.57535842773132
 11
556.82882191564227
 21
530.21612266313105
  0
LINE
  8
_0-e_極細4
  6
CONTINUOUS
 62
    9
 10
545.57882191564227
 20
524.26942352203014
 11
556.82882191564227
 21
535.51942352203002
  0
LINE
  8
_0-e_極細4
  6
CONTINUOUS
 62
    9
 10
545.57882191564227
 20
529.57272438092923
 11
554.78271856322249
 21
538.77662102850854
  0
LINE
  8
_0-e_極細4
  6
CONTINUOUS
 62
    9
 10
545.57882191564227
 20
534.87602523982821
 11
553.1313219156425
 21
542.4285252398281
  0
LINE
  8
_0-e_極細4
  6
CONTINUOUS
 62
    9
 10
545.57882191564227
 20
540.1793260987273
 11
553.1313219156425
 21
547.73182609872708
  0
LINE
  8
_0-e_極細4
  6
CONTINUOUS
 62
    9
 10
542.05905263410409
 20
541.96285767608833
 11
553.1313219156425
 21
553.03512695762583
  0
LINE
  8
_0-e_極細4
  6
CONTINUOUS
 62
    9
 10
536.75575177520682
 20
541.96285767608776
 11
553.1313219156425
 21
558.33842781652584
  0
LINE
  8
_0-e_極細4
  6
CONTINUOUS
 62
    9
 10
535.82882191564181
 20
546.33922867542412
 11
553.1313219156425
 21
563.64172867542482
  0
LINE
  8
_0-e_極細4
  6
CONTINUOUS
 62
    9
 10
535.82882191564181
 20
551.64252953432413
 11
553.1313219156425
 21
568.94502953432357
  0
LINE
  8
_0-e_極細4
  6
CONTINUOUS
 62
    9
 10
535.82882191564181
 20
556.94583039322231
 11
553.1313219156425
 21
574.24833039322255
  0
LINE
  8
_0-e_極細4
  6
CONTINUOUS
 62
    9
 10
535.82882191564181
 20
562.24913125212186
 11
549.01800732948527
 21
575.4383166659635
  0
LINE
  8
_0-e_極細4
  6
CONTINUOUS
 62
    9
 10
535.82882191564181
 20
567.55243211102061
 11
544.26420014849396
 21
575.98781034387036
  0
LINE
  8
_0-e_極細4
  6
CONTINUOUS
 62
    9
 10
535.82882191564181
 20
572.85573296991959
 11
539.51039296749991
 21
576.53730402177735
  0
LINE
  8
_0-e_極細4
  6
CONTINUOUS
 62
    9
 10
804.53460191564341
 20
301.99397767608787
 11
894.04310191564286
 21
304.20103482440055
  0
LINE
  8
_0-e_極細4
  6
CONTINUOUS
 62
    9
 10
776.20382191563999
 20
432.00164328943748
 11
894.04310191564286
 21
429.09602052880416
  0
LINE
  8
_0-e_極細4
  6
CONTINUOUS
 62
    9
 10
893.35038823303989
 20
299.28449707832283
 11
894.04310191564286
 21
299.97721076092444
  0
LINE
  8
_0-e_極細4
  6
CONTINUOUS
 62
    9
 10
887.91301527077189
 20
299.15042497495278
 11
892.93633499877274
 21
304.17374470295567
  0
LINE
  8
_0-e_極細4
  6
CONTINUOUS
 62
    9
 10
882.47564230850253
 20
299.0163528715841
 11
887.49896203650474
 21
304.03967259958563
  0
LINE
  8
_0-e_極細4
  6
CONTINUOUS
 62
    9
 10
877.03826934623316
 20
298.88228076821406
 11
882.06158907423537
 21
303.90560049621695
  0
LINE
  8
_0-e_極細4
  6
CONTINUOUS
 62
    9
 10
871.6008963839638
 20
298.74820866484538
 11
876.62421611196919
 21
303.7715283928469
  0
LINE
  8
_0-e_極細4
  6
CONTINUOUS
 62
    9
 10
866.16352342169762
 20
298.61413656147533
 11
871.18684314969983
 21
303.63745628947822
  0
LINE
  8
_0-e_極細4
  6
CONTINUOUS
 62
    9
 10
860.72615045942825
 20
298.48006445810597
 11
865.74947018743183
 21
303.50338418610988
  0
LINE
  8
_0-e_極細4
  6
CONTINUOUS
 62
    9
 10
855.28877749715889
 20
298.34599235473661
 11
860.31209722516235
 21
303.3693120827395
  0
LINE
  8
_0-e_極細4
  6
CONTINUOUS
 62
    9
 10
849.85140453489078
 20
298.21192025136725
 11
854.87472426289298
 21
303.23523997937116
  0
LINE
  8
_0-e_極細4
  6
CONTINUOUS
 62
    9
 10
844.41403157262141
 20
298.07784814799788
 11
849.43735130062691
 21
303.10116787600077
  0
LINE
  8
_0-e_極細4
  6
CONTINUOUS
 62
    9
 10
838.97665861035205
 20
297.94377604462852
 11
843.99997833835755
 21
302.96709577263243
  0
LINE
  8
_0-e_極細4
  6
CONTINUOUS
 62
    9
 10
833.53928564808598
 20
297.80970394125916
 11
838.56260537608944
 21
302.83302366926307
  0
LINE
  8
_0-e_極細4
  6
CONTINUOUS
 62
    9
 10
828.10191268581787
 20
297.6756318378898
 11
833.12523241382007
 21
302.69895156589371
  0
LINE
  8
_0-e_極細4
  6
CONTINUOUS
 62
    9
 10
822.6645397235485
 20
297.54155973451941
 11
827.687859451554
 21
302.5648794625252
  0
LINE
  8
_0-e_極細4
  6
CONTINUOUS
 62
    9
 10
817.22716676127914
 20
297.40748763115005
 11
822.25048648928589
 21
302.43080735915498
  0
LINE
  8
_0-e_極細4
  6
CONTINUOUS
 62
    9
 10
811.78979379900977
 20
297.27341552778068
 11
816.81311352701653
 21
302.29673525578647
  0
LINE
  8
_0-e_極細4
  6
CONTINUOUS
 62
    9
 10
806.35242083674279
 20
297.13934342441132
 11
811.37574056474944
 21
302.16266315241711
  0
LINE
  8
_0-e_極細4
  6
CONTINUOUS
 62
    9
 10
801.00727422951672
 20
297.09749767608469
 11
805.93836760248018
 21
302.02859104904775
  0
LINE
  8
_0-e_極細4
  6
CONTINUOUS
 62
    9
 10
795.70397337061672
 20
297.09749767608469
 11
800.60193337061969
 21
301.99545767608697
  0
LINE
  8
_0-e_極細4
  6
CONTINUOUS
 62
    9
 10
790.40067251171899
 20
297.09749767608469
 11
795.29863251171969
 21
301.99545767608697
  0
LINE
  8
_0-e_極細4
  6
CONTINUOUS
 62
    9
 10
785.0973716528199
 20
297.09749767608469
 11
789.99533165282287
 21
301.99545767608697
  0
LINE
  8
_0-e_極細4
  6
CONTINUOUS
 62
    9
 10
779.7940707939199
 20
297.09749767608469
 11
784.69203079392423
 21
301.99545767608697
  0
LINE
  8
_0-e_極細4
  6
CONTINUOUS
 62
    9
 10
774.49076993502126
 20
297.09749767608469
 11
779.38872993502423
 21
301.99545767608697
  0
LINE
  8
_0-e_極細4
  6
CONTINUOUS
 62
    9
 10
769.18746907612126
 20
297.09749767608469
 11
774.08542907612423
 21
301.99545767608868
  0
LINE
  8
_0-e_極細4
  6
CONTINUOUS
 62
    9
 10
763.88416821722353
 20
297.09749767608469
 11
768.78212821722423
 21
301.99545767608697
  0
LINE
  8
_0-e_極細4
  6
CONTINUOUS
 62
    9
 10
758.58086735832444
 20
297.09749767608469
 11
763.47882735832741
 21
301.99545767608697
  0
LINE
  8
_0-e_極細4
  6
CONTINUOUS
 62
    9
 10
753.27756649942444
 20
297.09749767608469
 11
758.17552649942877
 21
301.99545767608868
  0
LINE
  8
_0-e_極細4
  6
CONTINUOUS
 62
    9
 10
747.9742656405258
 20
297.09749767608469
 11
752.8722256405274
 21
301.99545767608697
  0
LINE
  8
_0-e_極細4
  6
CONTINUOUS
 62
    9
 10
742.67096478162625
 20
297.09749767608469
 11
747.56892478162877
 21
301.99545767608697
  0
LINE
  8
_0-e_極細4
  6
CONTINUOUS
 62
    9
 10
737.36766392272773
 20
297.09749767608469
 11
742.26562392272922
 21
301.99545767608868
  0
LINE
  8
_0-e_極細4
  6
CONTINUOUS
 62
    9
 10
732.06436306382898
 20
297.09749767608469
 11
736.96232306383195
 21
301.99545767608697
  0
LINE
  8
_0-e_極細4
  6
CONTINUOUS
 62
    9
 10
726.76106220492898
 20
297.09749767608469
 11
731.65902220493376
 21
301.99545767608697
  0
LINE
  8
_0-e_極細4
  6
CONTINUOUS
 62
    9
 10
721.45776134603079
 20
297.09749767608469
 11
726.35572134603376
 21
301.99545767608697
  0
LINE
  8
_0-e_極細4
  6
CONTINUOUS
 62
    9
 10
716.15446048713079
 20
297.09749767608469
 11
721.05242048713376
 21
301.99545767608697
  0
LINE
  8
_0-e_極細4
  6
CONTINUOUS
 62
    9
 10
710.85115962823227
 20
297.09749767608469
 11
715.74911962823376
 21
301.99545767608868
  0
LINE
  8
_0-e_極細4
  6
CONTINUOUS
 62
    9
 10
705.54785876933079
 20
297.09749767608469
 11
710.44581876933523
 21
301.99545767608697
  0
LINE
  8
_0-e_極細4
  6
CONTINUOUS
 62
    9
 10
700.24455791043351
 20
297.09749767608469
 11
705.1425179104383
 21
301.99545767608697
  0
LINE
  8
_0-e_極細4
  6
CONTINUOUS
 62
    9
 10
694.94125705153533
 20
297.09749767608469
 11
699.8392170515383
 21
301.99545767608868
  0
LINE
  8
_0-e_極細4
  6
CONTINUOUS
 62
    9
 10
689.63795619263533
 20
297.09749767608469
 11
694.5359161926383
 21
301.99545767608868
  0
LINE
  8
_0-e_極細4
  6
CONTINUOUS
 62
    9
 10
684.33465533373533
 20
297.09749767608469
 11
689.23261533373875
 21
301.99545767608697
  0
LINE
  8
_0-e_極細4
  6
CONTINUOUS
 62
    9
 10
679.03135447483578
 20
297.09749767608469
 11
683.92931447483875
 21
301.99545767608868
  0
LINE
  8
_0-e_極細4
  6
CONTINUOUS
 62
    9
 10
678.07882191564318
 20
301.44826597578913
 11
678.62601361594284
 21
301.99545767608868
  0
LINE
  8
_0-e_極細4
  6
CONTINUOUS
 62
    9
 10
890.66274146923456
 20
429.17937178699447
 11
894.04310191564286
 21
432.55973223340277
  0
LINE
  8
_0-e_極細4
  6
CONTINUOUS
 62
    9
 10
885.48706000734251
 20
429.30699118400241
 11
890.26859642381419
 21
434.08852760047409
  0
LINE
  8
_0-e_極細4
  6
CONTINUOUS
 62
    9
 10
880.31137854545045
 20
429.43461058101036
 11
885.09291500521863
 21
434.21614704077683
  0
LINE
  8
_0-e_極細4
  6
CONTINUOUS
 62
    9
 10
875.13569708356158
 20
429.56222997801831
 11
879.91723358662171
 21
434.34376648107929
  0
LINE
  8
_0-e_極細4
  6
CONTINUOUS
 62
    9
 10
869.96001562166953
 20
429.68984937502626
 11
874.74155216802615
 21
434.47138592138117
  0
LINE
  8
_0-e_極細4
  6
CONTINUOUS
 62
    9
 10
864.78433415977884
 20
429.81746877203506
 11
869.5658707494274
 21
434.59900536168453
  0
LINE
  8
_0-e_極細4
  6
CONTINUOUS
 62
    9
 10
859.60865269788667
 20
429.945088169043
 11
864.39018933083184
 21
434.72662480198721
  0
LINE
  8
_0-e_極細4
  6
CONTINUOUS
 62
    9
 10
854.43297123599461
 20
430.07270756605095
 11
859.21450791223492
 21
434.85424424228995
  0
LINE
  8
_0-e_極細4
  6
CONTINUOUS
 62
    9
 10
849.25728977410586
 20
430.2003269630589
 11
854.03882649363936
 21
434.9818636825924
  0
LINE
  8
_0-e_極細4
  6
CONTINUOUS
 62
    9
 10
844.0816083122138
 20
430.32794636006685
 11
848.8631450750438
 21
435.10948312289514
  0
LINE
  8
_0-e_極細4
  6
CONTINUOUS
 62
    9
 10
838.905926850323
 20
430.45556575707479
 11
843.68746365644495
 21
435.23710256319765
  0
LINE
  8
_0-e_極細4
  6
CONTINUOUS
 62
    9
 10
833.73024538843094
 20
430.58318515408274
 11
838.51178223784939
 21
435.36472200350033
  0
LINE
  8
_0-e_極細4
  6
CONTINUOUS
 62
    9
 10
828.55456392654219
 20
430.71080455109069
 11
833.33610081925383
 21
435.49234144380307
  0
LINE
  8
_0-e_極細4
  6
CONTINUOUS
 62
    9
 10
823.37888246465013
 20
430.83842394809864
 11
828.16041940065702
 21
435.61996088410552
  0
LINE
  8
_0-e_極細4
  6
CONTINUOUS
 62
    9
 10
818.20320100275808
 20
430.96604334510658
 11
822.98473798206146
 21
435.74758032440911
  0
LINE
  8
_0-e_極細4
  6
CONTINUOUS
 62
    9
 10
813.02751954086727
 20
431.09366274211453
 11
817.8090565634626
 21
435.87519976471077
  0
LINE
  8
_0-e_極細4
  6
CONTINUOUS
 62
    9
 10
807.85183807897522
 20
431.22128213912339
 11
812.63337514486705
 21
436.00281920501345
  0
LINE
  8
_0-e_極細4
  6
CONTINUOUS
 62
    9
 10
802.67615661708555
 20
431.34890153613043
 11
807.45769372627024
 21
436.13043864531619
  0
LINE
  8
_0-e_極細4
  6
CONTINUOUS
 62
    9
 10
797.50047515519441
 20
431.47652093313928
 11
804.32882191563999
 21
438.3048676935872
  0
LINE
  8
_0-e_極細4
  6
CONTINUOUS
 62
    9
 10
792.32479369330235
 20
431.60414033014723
 11
804.32882191563999
 21
443.60816855248629
  0
LINE
  8
_0-e_極細4
  6
CONTINUOUS
 62
    9
 10
787.14911223141166
 20
431.73175972715518
 11
804.32882191563999
 21
448.91146941138538
  0
LINE
  8
_0-e_極細4
  6
CONTINUOUS
 62
    9
 10
781.97343076951961
 20
431.85937912416313
 11
804.32882191563999
 21
454.21477027028459
  0
LINE
  8
_0-e_極細4
  6
CONTINUOUS
 62
    9
 10
776.79774930762983
 20
431.98699852117107
 11
804.32882191563999
 21
459.51807112918351
  0
LINE
  8
_0-e_極細4
  6
CONTINUOUS
 62
    9
 10
776.20382191563999
 20
436.69637198808266
 11
804.32882191563999
 21
464.82137198808266
  0
LINE
  8
_0-e_極細4
  6
CONTINUOUS
 62
    9
 10
776.20382191563999
 20
441.99967284698175
 11
791.49049059180948
 21
457.28634152314805
  0
LINE
  8
_0-e_極細4
  6
CONTINUOUS
 62
    9
 10
798.07882191564318
 20
463.8746728469817
 11
804.32882191563999
 21
470.1246728469817
  0
LINE
  8
_0-e_極細4
  6
CONTINUOUS
 62
    9
 10
776.20382191563999
 20
447.30297370588085
 11
786.1871897329072
 21
457.28634152314805
  0
LINE
  8
_0-e_極細4
  6
CONTINUOUS
 62
    9
 10
798.07882191564318
 20
469.17797370588073
 11
804.32882191563999
 21
475.42797370588073
  0
LINE
  8
_0-e_極細4
  6
CONTINUOUS
 62
    9
 10
776.20382191563999
 20
452.60627456478005
 11
780.88388887401038
 21
457.28634152314805
  0
LINE
  8
_0-e_極細4
  6
CONTINUOUS
 62
    9
 10
798.07882191564318
 20
474.48127456478005
 11
804.32882191563999
 21
480.73127456478005
  0
LINE
  8
_0-e_極細4
  6
CONTINUOUS
 62
    9
 10
798.07882191564318
 20
479.78457542368005
 11
804.32882191563999
 21
486.03457542367892
  0
LINE
  8
_0-e_極細4
  6
CONTINUOUS
 62
    9
 10
798.07882191564318
 20
485.08787628257812
 11
804.32882191563999
 21
491.33787628257812
  0
LINE
  8
_0-e_極細4
  6
CONTINUOUS
 62
    9
 10
798.07882191564318
 20
490.39117714147716
 11
804.32882191563999
 21
496.64117714147716
  0
LINE
  8
_0-e_極細4
  6
CONTINUOUS
 62
    9
 10
798.07882191564318
 20
495.69447800037619
 11
804.32882191563999
 21
501.94447800037619
  0
LINE
  8
_0-e_極細4
  6
CONTINUOUS
 62
    9
 10
798.07882191564318
 20
500.99777885927551
 11
804.32882191563999
 21
507.24777885927551
  0
LINE
  8
_0-e_極細4
  6
CONTINUOUS
 62
    9
 10
798.07882191564318
 20
506.30107971817552
 11
800.82209316786953
 21
509.04435097040118
  0
LINE
  8
_0-e_極細4
  6
CONTINUOUS
 62
    9
 10
800.82209316786953
 20
509.04435097040118
 11
804.41968070157395
 21
512.64193850410857
  0
LINE
  8
_0-e_極細4
  6
CONTINUOUS
 62
    9
 10
798.07882191564318
 20
511.60438057707358
 11
810.57882191563988
 21
524.10438057707358
  0
LINE
  8
_0-e_極細4
  6
CONTINUOUS
 62
    9
 10
798.07882191564318
 20
516.90768143597256
 11
810.57882191563988
 21
529.40768143597256
  0
LINE
  8
_0-e_極細4
  6
CONTINUOUS
 62
    9
 10
798.07882191564318
 20
522.21098229487166
 11
810.57882191563988
 21
534.71098229487188
  0
LINE
  8
_0-e_極細4
  6
CONTINUOUS
 62
    9
 10
817.83069729685633
 20
541.96285767608833
 11
820.32882191564352
 21
544.46098229487222
  0
LINE
  8
_0-e_極細4
  6
CONTINUOUS
 62
    9
 10
799.78217501722406
 20
529.21763625535311
 11
810.57882191563988
 21
540.01428315377086
  0
LINE
  8
_0-e_極細4
  6
CONTINUOUS
 62
    9
 10
812.52739643795962
 20
541.96285767608776
 11
820.32882191564352
 21
549.76428315377098
  0
LINE
  8
_0-e_極細4
  6
CONTINUOUS
 62
    9
 10
799.32882191564318
 20
534.06758401267086
 11
820.32882191564352
 21
555.06758401267041
  0
LINE
  8
_0-e_極細4
  6
CONTINUOUS
 62
    9
 10
803.02632191564294
 20
543.06838487156926
 11
820.32882191564352
 21
560.37088487156996
  0
LINE
  8
_0-e_極細4
  6
CONTINUOUS
 62
    9
 10
803.02632191564294
 20
548.37168573046927
 11
820.32882191564352
 21
565.67418573046871
  0
LINE
  8
_0-e_極細4
  6
CONTINUOUS
 62
    9
 10
803.02632191564294
 20
553.67498658936802
 11
820.32882191564352
 21
570.97748658936769
  0
LINE
  8
_0-e_極細4
  6
CONTINUOUS
 62
    9
 10
803.02632191564294
 20
558.978287448267
 11
820.32882191564352
 21
576.28078744826644
  0
LINE
  8
_0-e_極細4
  6
CONTINUOUS
 62
    9
 10
803.02632191564294
 20
564.28158830716575
 11
815.10360753928364
 21
576.35887393080782
  0
LINE
  8
_0-e_極細4
  6
CONTINUOUS
 62
    9
 10
803.02632191564294
 20
569.58488916606473
 11
809.10717799436736
 21
575.66574524478926
  0
LINE
  8
_0-e_極細4
  6
CONTINUOUS
 62
    9
 10
803.02632191564294
 20
574.88819002496348
 11
803.11074844944983
 21
574.97261655877071
  0
LINE
  8
_1-1_寸法4
  6
CONTINUOUS
 62
    7
 10
639.73769439490138
 20
442.10266394782451
 11
627.70816610429483
 21
426.12485279906281
  0
LINE
  8
_1-1_寸法4
  6
CONTINUOUS
 62
    7
 10
639.73769439490138
 20
442.10266394782451
 11
621.33091172531158
 21
434.28023774142991
  0
LINE
  8
_1-1_寸法4
  6
CONTINUOUS
 62
    7
 10
639.73769439490138
 20
442.10266394782451
 11
526.76935679721578
 21
353.76497900438551
  0
LINE
  8
_1-1_寸法4
  6
CONTINUOUS
 62
    7
 10
526.76935679721578
 20
353.76497900438551
 11
334.76935679721305
 21
353.76497900438551
  0
TEXT
  8
_1-1_寸法4
 62
    7
 10
334.76935679721305
 20
353.76497900438608
 40
30
 41
0.8000000000000001
 50
-0.0000000000001696
  1
防臭インナー１号
  0
LINE
  8
_1-1_寸法4
  6
CONTINUOUS
 62
    7
 10
565.25988760638143
 20
331.77638711027737
 11
553.12481082003478
 21
315.87859130741617
  0
LINE
  8
_1-1_寸法4
  6
CONTINUOUS
 62
    7
 10
565.25988760638143
 20
331.77638711027737
 11
546.80170493109983
 21
324.07603047399533
  0
LINE
  8
_1-1_寸法4
  6
CONTINUOUS
 62
    7
 10
565.25988760638143
 20
331.77638711027737
 11
526.76935679721578
 21
302.08666363908219
  0
LINE
  8
_1-1_寸法4
  6
CONTINUOUS
 62
    7
 10
526.76935679721578
 20
302.08666363908219
 11
382.76935679721578
 21
302.08666363908219
  0
TEXT
  8
_1-1_寸法4
 62
    7
 10
382.76935679721589
 20
302.08666363908264
 40
30
 41
0.8000000000000001
 50
-0.0000000000001696
  1
トラップ本体
  0
LINE
  8
_1-1_寸法4
  6
CONTINUOUS
 62
    7
 10
594.04578838967495
 20
481.79967918159525
 11
582.02444251294889
 21
465.81571085980102
  0
LINE
  8
_1-1_寸法4
  6
CONTINUOUS
 62
    7
 10
594.04578838967495
 20
481.79967918159525
 11
575.64301331185391
 21
473.96782949999874
  0
LINE
  8
_1-1_寸法4
  6
CONTINUOUS
 62
    7
 10
594.04578838967495
 20
481.79967918159525
 11
526.76935679721578
 21
429.13609514190142
  0
LINE
  8
_1-1_寸法4
  6
CONTINUOUS
 62
    7
 10
526.76935679721578
 20
429.13609514190142
 11
334.76935679721305
 21
429.13609514190142
  0
TEXT
  8
_1-1_寸法4
 62
    7
 10
334.76935679721305
 20
429.13609514190199
 40
30
 41
0.8000000000000001
 50
-0.0000000000001696
  1
防臭インナー２号
  0
LINE
  8
_1-1_寸法4
  6
CONTINUOUS
 62
    7
 10
620.56342545496705
 20
572.56144980572105
 11
605.4921137806175
 21
585.70890448009118
  0
LINE
  8
_1-1_寸法4
  6
CONTINUOUS
 62
    7
 10
620.56342545496705
 20
572.56144980572105
 11
614.0850140138125
 21
591.48313538600473
  0
LINE
  8
_1-1_寸法4
  6
CONTINUOUS
 62
    7
 10
620.56342545496705
 20
572.56144980572105
 11
587.89629899311024
 21
621.17491247560088
  0
LINE
  8
_1-1_寸法4
  6
CONTINUOUS
 62
    7
 10
587.89629899311024
 20
621.17491247560088
 11
443.89629899311018
 21
621.17491247560088
  0
TEXT
  8
_1-1_寸法4
 62
    7
 10
443.89629899311018
 20
621.17491247560122
 40
30
 41
0.8000000000000001
 50
-0.0000000000001696
  1
ストレーナー
  0
TEXT
  8
_1-1_寸法4
 62
    7
 10
812.04000749159161
 20
604.07165643533494
 40
30
 41
0.8000000000000001
 50
0
  1
Ｃ部
  0
TEXT
  8
_0-7_枠細線
 62
    1
 10
558.48069695345089
 20
181.49681351678865
 40
50
 41
0.8
 50
0
  1
排水部詳細図
  0
TEXT
  8
_0-7_枠細線
 62
    1
 10
834.620629923759
 20
188.64516964040362
 40
40
 41
0.5999999999999998
 50
0
  1
Ｓ＝１：４
  0
LINE
  8
_0-f_
  6
CONTINUOUS
 62
    9
 10
981.58756628581443
 20
710.82416497735505
 11
1005.587563885814
 21
710.82416497735505
  0
LINE
  8
_0-f_
  6
CONTINUOUS
 62
    9
 10
981.58756628581443
 20
712.15749817735525
 11
1005.587563885814
 21
712.15749817735525
  0
LINE
  8
_0-f_
  6
CONTINUOUS
 62
    9
 10
981.37272141990206
 20
713.49083137735545
 11
1005.587563885814
 21
713.49083137735545
  0
LINE
  8
_0-f_
  6
CONTINUOUS
 62
    9
 10
980.03938821990187
 20
714.82416457735565
 11
1005.587563885814
 21
714.82416457735565
  0
LINE
  8
_0-f_
  6
CONTINUOUS
 62
    9
 10
978.70605501990576
 20
716.15749777735584
 11
1005.587563885814
 21
716.15749777735584
  0
LINE
  8
_0-f_
  6
CONTINUOUS
 62
    9
 10
979.13574475172027
 20
717.49083097735604
 11
1005.587563885814
 21
717.49083097735604
  0
LINE
  8
_0-f_
  6
CONTINUOUS
 62
    9
 10
980.46907795172046
 20
718.82416417735624
 11
1005.587563885814
 21
718.82416417735624
  0
LINE
  8
_0-f_
  6
CONTINUOUS
 62
    9
 10
981.58756628581443
 20
720.15749737735644
 11
1005.587563885814
 21
720.15749737735644
  0
LINE
  8
_0-f_
  6
CONTINUOUS
 62
    9
 10
981.58756628581443
 20
721.49083057735663
 11
1005.587563885814
 21
721.49083057735663
  0
LINE
  8
_0-f_
  6
CONTINUOUS
 62
    9
 10
981.58756628581443
 20
722.82416377735683
 11
1005.587563885814
 21
722.82416377735683
  0
LINE
  8
_0-f_
  6
CONTINUOUS
 62
    9
 10
981.58756628581443
 20
724.15749697735566
 11
1005.587563885814
 21
724.15749697735566
  0
LINE
  8
_0-f_
  6
CONTINUOUS
 62
    9
 10
981.58756628581443
 20
725.49083017735586
 11
1005.587563885814
 21
725.49083017735586
  0
LINE
  8
_0-f_
  6
CONTINUOUS
 62
    9
 10
981.58756628581443
 20
726.82416337735606
 11
1005.587563885814
 21
726.82416337735606
  0
LINE
  8
_0-f_
  6
CONTINUOUS
 62
    9
 10
981.58756628581443
 20
728.15749657735626
 11
1005.587563885814
 21
728.15749657735626
  0
LINE
  8
_0-f_
  6
CONTINUOUS
 62
    9
 10
980.70605481990196
 20
729.49082977735645
 11
1006.0577033342996
 21
729.49082977735645
  0
LINE
  8
_0-f_
  6
CONTINUOUS
 62
    9
 10
979.37272161990177
 20
730.82416297735665
 11
1006.7688143742997
 21
730.82416297735665
  0
LINE
  8
_0-f_
  6
CONTINUOUS
 62
    9
 10
978.46907815172381
 20
732.15749617735685
 11
1007.4799254142994
 21
732.15749617735685
  0
LINE
  8
_0-f_
  6
CONTINUOUS
 62
    9
 10
979.802411351724
 20
733.49082937735704
 11
1008.1910364542999
 21
733.49082937735704
  0
LINE
  8
_0-f_
  6
CONTINUOUS
 62
    9
 10
981.1357445517242
 20
734.82416257735724
 11
1008.9021474943
 21
734.82416257735724
  0
LINE
  8
_0-f_
  6
CONTINUOUS
 62
    9
 10
981.58756628581443
 20
736.15749577735744
 11
1009.6132585342997
 21
736.15749577735744
  0
LINE
  8
_0-f_
  6
CONTINUOUS
 62
    9
 10
981.58756628581443
 20
737.49082897735764
 11
1010.3243695743002
 21
737.49082897735764
  0
LINE
  8
_0-f_
  6
CONTINUOUS
 62
    9
 10
1048.9746741415763
 20
678.28903793794882
 11
1048.9746741415763
 21
781.18866362911604
  0
LINE
  8
_0-f_
  6
CONTINUOUS
 62
    9
 10
1047.6413409415761
 20
676.95570473794862
 11
1047.6413409415761
 21
780.90025331218499
  0
LINE
  8
_0-f_
  6
CONTINUOUS
 62
    9
 10
1046.3080077415759
 20
675.62237153794842
 11
1046.3080077415759
 21
780.31299827586508
  0
LINE
  8
_0-f_
  6
CONTINUOUS
 62
    9
 10
1044.9746745415757
 20
674.28903833794823
 11
1044.9746745415757
 21
779.32447651837538
  0
LINE
  8
_0-f_
  6
CONTINUOUS
 62
    9
 10
1043.6413413415755
 20
672.95570513794803
 11
1043.6413413415755
 21
777.59767151875599
  0
LINE
  8
_0-f_
  6
CONTINUOUS
 62
    9
 10
1042.3080081415753
 20
671.6223719379492
 11
1042.3080081415753
 21
772.40068810486696
  0
LINE
  8
_0-f_
  6
CONTINUOUS
 62
    9
 10
1040.9746749415751
 20
670.28903873794764
 11
1040.9746749415751
 21
769.63895297312718
  0
LINE
  8
_0-f_
  6
CONTINUOUS
 62
    9
 10
1039.6413417415749
 20
669.23525758218727
 11
1039.6413417415749
 21
767.98767221021774
  0
LINE
  8
_0-f_
  6
CONTINUOUS
 62
    9
 10
1038.3080085415747
 20
669.23525758218727
 11
1038.3080085415747
 21
766.81950186764209
  0
LINE
  8
_0-f_
  6
CONTINUOUS
 62
    9
 10
1036.9746753415745
 20
669.23525758218727
 11
1036.9746753415745
 21
765.96261613383763
  0
LINE
  8
_0-f_
  6
CONTINUOUS
 62
    9
 10
1035.6413421415743
 20
669.23525758218727
 11
1035.6413421415743
 21
765.34097090946307
  0
LINE
  8
_0-f_
  6
CONTINUOUS
 62
    9
 10
1034.3080089415741
 20
669.23525758218727
 11
1034.3080089415741
 21
764.91456487278754
  0
LINE
  8
_0-f_
  6
CONTINUOUS
 62
    9
 10
1032.9746757415739
 20
669.23525758218727
 11
1032.9746757415739
 21
764.66115745357672
  0
LINE
  8
_0-f_
  6
CONTINUOUS
 62
    9
 10
1031.6413425415737
 20
669.23525758218727
 11
1031.6413425415737
 21
764.56913765660931
  0
LINE
  8
_0-f_
  6
CONTINUOUS
 62
    9
 10
1030.3080093415736
 20
669.23525758218727
 11
1030.3080093415736
 21
764.56858138218752
  0
LINE
  8
_0-f_
  6
CONTINUOUS
 62
    9
 10
1028.9746761415734
 20
669.23525758218727
 11
1028.9746761415734
 21
764.56858138218752
  0
LINE
  8
_0-f_
  6
CONTINUOUS
 62
    9
 10
1027.6413429415732
 20
669.23525758218727
 11
1027.6413429415732
 21
764.56858138218752
  0
LINE
  8
_0-f_
  6
CONTINUOUS
 62
    9
 10
1026.308009741573
 20
669.23525758218727
 11
1026.308009741573
 21
764.56858138218752
  0
LINE
  8
_0-f_
  6
CONTINUOUS
 62
    9
 10
1024.9746765415728
 20
669.23525758218727
 11
1024.9746765415728
 21
764.56858138218752
  0
LINE
  8
_0-f_
  6
CONTINUOUS
 62
    9
 10
1023.6413433415726
 20
669.23525758218727
 11
1023.6413433415726
 21
764.56858138218752
  0
LINE
  8
_0-f_
  6
CONTINUOUS
 62
    9
 10
1022.3080101415742
 20
669.23525758218727
 11
1022.3080101415742
 21
764.45064115066327
  0
LINE
  8
_0-f_
  6
CONTINUOUS
 62
    9
 10
1020.974676941574
 20
669.23525758218727
 11
1020.974676941574
 21
764.06264255488111
  0
LINE
  8
_0-f_
  6
CONTINUOUS
 62
    9
 10
1019.6413437415756
 20
669.23525758218727
 11
1019.6413437415756
 21
763.35022120786664
  0
LINE
  8
_0-f_
  6
CONTINUOUS
 62
    9
 10
1018.3080105415754
 20
669.23525758218727
 11
1018.3080105415754
 21
762.16492037388377
  0
LINE
  8
_0-f_
  6
CONTINUOUS
 62
    9
 10
1016.9746773415752
 20
669.23525758218727
 11
1016.9746773415752
 21
759.86417472013511
  0
LINE
  8
_0-f_
  6
CONTINUOUS
 62
    9
 10
1015.641344141575
 20
669.23525758218727
 11
1015.641344141575
 21
682.56858958218584
  0
LINE
  8
_0-f_
  6
CONTINUOUS
 62
    9
 10
1014.3080109415748
 20
669.23525758218727
 11
1014.3080109415748
 21
682.56858958218584
  0
LINE
  8
_0-f_
  6
CONTINUOUS
 62
    9
 10
1012.9746777415746
 20
669.23525758218727
 11
1012.9746777415746
 21
682.56858958218584
  0
LINE
  8
_0-f_
  6
CONTINUOUS
 62
    9
 10
1011.6413445415744
 20
669.23525758218727
 11
1011.6413445415744
 21
682.56858958218584
  0
LINE
  8
_0-f_
  6
CONTINUOUS
 62
    9
 10
1010.3080113415742
 20
669.23525758218727
 11
1010.3080113415742
 21
682.56858958218584
  0
LINE
  8
_0-f_
  6
CONTINUOUS
 62
    9
 10
1008.974678141574
 20
669.23525758218727
 11
1008.974678141574
 21
682.56858958218584
  0
LINE
  8
_0-f_
  6
CONTINUOUS
 62
    9
 10
1007.6413449415738
 20
669.23525758218727
 11
1007.6413449415738
 21
682.56858958218584
  0
LINE
  8
_0-f_
  6
CONTINUOUS
 62
    9
 10
1006.3080117415736
 20
669.23525758218727
 11
1006.3080117415736
 21
682.56858958218584
  0
LINE
  8
_0-f_
  6
CONTINUOUS
 62
    9
 10
1004.9746785415734
 20
669.23525758218727
 11
1004.9746785415734
 21
682.56858958218584
  0
LINE
  8
_0-f_
  6
CONTINUOUS
 62
    9
 10
1003.6413453415732
 20
669.23525758218727
 11
1003.6413453415732
 21
682.56858958218584
  0
LINE
  8
_0-f_
  6
CONTINUOUS
 62
    9
 10
1002.308012141575
 20
655.90192558218644
 11
1002.308012141575
 21
695.90192158218645
  0
LINE
  8
_0-f_
  6
CONTINUOUS
 62
    9
 10
1000.9746789415748
 20
655.90192558218644
 11
1000.9746789415748
 21
695.90192158218645
  0
LINE
  8
_0-f_
  6
CONTINUOUS
 62
    9
 10
999.64134574157458
 20
655.90192558218644
 11
999.64134574157458
 21
660.52446714671635
  0
LINE
  8
_0-f_
  6
CONTINUOUS
 62
    9
 10
999.64134574157458
 20
669.90711751500169
 11
999.64134574157458
 21
695.90192158218645
  0
LINE
  8
_0-f_
  6
CONTINUOUS
 62
    9
 10
998.30801254157439
 20
655.90192558218644
 11
998.30801254157439
 21
656.8836543601775
  0
LINE
  8
_0-f_
  6
CONTINUOUS
 62
    9
 10
998.30801254157439
 20
669.90711751500169
 11
998.30801254157439
 21
695.90192158218645
  0
LINE
  8
_0-f_
  6
CONTINUOUS
 62
    9
 10
996.97467934157419
 20
669.90711751500169
 11
996.97467934157419
 21
695.90192158218645
  0
LINE
  8
_0-f_
  6
CONTINUOUS
 62
    9
 10
995.6413461415741
 20
669.90711751500169
 11
995.6413461415741
 21
695.90192158218645
  0
LINE
  8
_0-f_
  6
CONTINUOUS
 62
    9
 10
994.30801294157391
 20
669.90711751500169
 11
994.30801294157391
 21
695.90192158218645
  0
LINE
  8
_0-f_
  6
CONTINUOUS
 62
    9
 10
992.97467974157371
 20
669.90711751500169
 11
992.97467974157371
 21
695.90192158218645
  0
LINE
  8
_0-f_
  6
CONTINUOUS
 62
    9
 10
991.64134654157351
 20
669.90711751500169
 11
991.64134654157351
 21
695.90192158218645
  0
LINE
  8
_0-f_
  6
CONTINUOUS
 62
    9
 10
990.30801334157331
 20
669.90711751500169
 11
990.30801334157331
 21
695.90192158218645
  0
LINE
  8
_0-f_
  6
CONTINUOUS
 62
    9
 10
988.97468014157312
 20
669.90711751500169
 11
988.97468014157312
 21
695.90192158218645
  0
LINE
  8
_0-f_
  6
CONTINUOUS
 62
    9
 10
987.64134694157656
 20
669.90711751500169
 11
987.64134694157656
 21
695.90192158218645
  0
LINE
  8
_0-f_
  6
CONTINUOUS
 62
    9
 10
986.30801374157636
 20
669.90711751500169
 11
986.30801374157636
 21
695.90192158218645
  0
LINE
  8
_0-f_
  6
CONTINUOUS
 62
    9
 10
984.97468054157616
 20
669.90711751500169
 11
984.97468054157616
 21
695.90192158218645
  0
LINE
  8
_0-f_
  6
CONTINUOUS
 62
    9
 10
966.58756778581289
 20
649.90711951500191
 11
966.58756778581289
 21
669.23525758218727
  0
ARC
  8
_0-f_
  6
CONTINUOUS
 62
    9
 10
946.58756978581368
 20
669.90711751500169
 40
19.999997999999991
 50
358.07490068720386
 51
50.029499419962953
  0
LINE
  8
_0-f_
  6
CONTINUOUS
 62
    9
 10
1049.7808927998119
 20
772.15749217735538
 11
1058.1668792432754
 21
772.15749217735538
  0
LINE
  8
_0-f_
  6
CONTINUOUS
 62
    9
 10
1049.7808927998119
 20
773.49082537735558
 11
1069.7018780897758
 21
773.49082537735558
  0
LINE
  8
_0-f_
  6
CONTINUOUS
 62
    9
 10
1049.7808927998119
 20
774.82415857735577
 11
1081.2368769362763
 21
774.82415857735577
  0
LINE
  8
_0-f_
  6
CONTINUOUS
 62
    9
 10
1049.7808927998119
 20
776.15749177735597
 11
1092.7718757827774
 21
776.15749177735597
  0
LINE
  8
_0-f_
  6
CONTINUOUS
 62
    9
 10
1049.7808927998119
 20
777.49082497735617
 11
1095.9208881858144
 21
777.49082497735617
  0
LINE
  8
_0-f_
  6
CONTINUOUS
 62
    9
 10
1049.7808927998119
 20
778.82415817735637
 11
1095.9208881858144
 21
778.82415817735637
  0
LINE
  8
_0-f_
  6
CONTINUOUS
 62
    9
 10
1049.7808927998119
 20
780.15749137735656
 11
1095.9208881858144
 21
780.15749137735656
  0
LINE
  8
_0-f_
  6
CONTINUOUS
 62
    9
 10
1051.9059739905731
 20
781.49082457735676
 11
1095.9208881858144
 21
781.49082457735676
  0
LINE
  8
_0-f_
  6
CONTINUOUS
 62
    9
 10
1061.2673013395704
 20
782.82415777735696
 11
1095.9208881858144
 21
782.82415777735696
  0
LINE
  8
_0-f_
  6
CONTINUOUS
 62
    9
 10
1070.6286286885713
 20
784.15749097735716
 11
1095.9208881858144
 21
784.15749097735716
  0
LINE
  8
_0-f_
  6
CONTINUOUS
 62
    9
 10
1079.9899560375686
 20
785.49082417735735
 11
1095.9208881858144
 21
785.49082417735735
  0
LINE
  8
_0-f_
  6
CONTINUOUS
 62
    9
 10
1089.351283386572
 20
786.82415737735596
 11
1095.9208881858144
 21
786.82415737735596
  0
LINE
  8
_0-f_
  6
CONTINUOUS
 62
    9
 10
1095.9208881858144
 20
787.85481905356369
 11
1095.9208881858144
 21
792.47362535615071
  0
LINE
  8
_0-f_
  6
CONTINUOUS
 62
    9
 10
1049.7808927998119
 20
785.90191258218749
 11
1095.9208881858144
 21
792.47362535615071
  0
LINE
  8
_0-f_
  6
CONTINUOUS
 62
    9
 10
1006.5875637858132
 20
739.90711051500159
 11
1006.5875637858132
 21
745.90191658218646
  0
LINE
  8
_0-f_
  6
CONTINUOUS
 62
    9
 10
1006.5875637858132
 20
699.24044791500012
 11
1006.5875637858132
 21
709.24044691499989
  0
LINE
  8
_0-f_
  6
CONTINUOUS
 62
    9
 10
981.58756628581443
 20
728.60931831144728
 11
981.58756628581443
 21
719.94265251144736
  0
LINE
  8
_0-f_
  6
CONTINUOUS
 62
    9
 10
981.58756628581443
 20
713.27598651144638
 11
981.58756628581443
 21
709.94265351144588
  0
LINE
  8
_0-f_
  6
CONTINUOUS
 62
    9
 10
1005.587563885814
 20
728.60931831144728
 11
1005.587563885814
 21
709.94265351144588
  0
LINE
  8
_0-f_
  6
CONTINUOUS
 62
    9
 10
978.25423328581394
 20
731.94265131144778
 11
981.58756628581443
 21
735.27598431144656
  0
LINE
  8
_0-f_
  6
CONTINUOUS
 62
    9
 10
981.58756628581443
 20
728.60931831144728
 11
978.25423328581394
 21
731.94265131144778
  0
LINE
  8
_0-f_
  6
CONTINUOUS
 62
    9
 10
981.58756628581443
 20
713.27598651144638
 11
978.25423328581394
 21
716.60931951144687
  0
LINE
  8
_0-f_
  6
CONTINUOUS
 62
    9
 10
978.25423328581394
 20
716.60931951144687
 11
981.58756628581443
 21
719.94265251144736
  0
LINE
  8
_0-f_
  6
CONTINUOUS
 62
    9
 10
1005.587563885814
 20
728.60931831144728
 11
1010.9208966858148
 21
738.60931731144558
  0
LINE
  8
_0-f_
  6
CONTINUOUS
 62
    9
 10
981.58756628581443
 20
738.60931731144558
 11
981.58756628581443
 21
735.27598431144656
  0
ARC
  8
_0-f_
  6
CONTINUOUS
 62
    9
 10
1022.920895485813
 20
779.23524658218651
 40
3.3333330000000001
 50
24.054548999992022
 51
89.999999999999915
  0
ARC
  8
_0-f_
  6
CONTINUOUS
 62
    9
 10
1024.9208952858132
 20
770.5685807821867
 40
1.3333331999999241
 50
269.99999999999977
 51
359.99999999999966
  0
ARC
  8
_0-f_
  6
CONTINUOUS
 62
    9
 10
1022.920895485813
 20
779.23524658218651
 40
3.3333330000000001
 50
0
 51
24.054548999992022
  0
LINE
  8
_0-f_
  6
CONTINUOUS
 62
    9
 10
1011.920896585814
 20
749.23524958218695
 11
1011.920896585816
 21
769.23524758218832
  0
LINE
  8
_0-f_
  6
CONTINUOUS
 62
    9
 10
1011.920896585816
 20
769.23524758218832
 11
1024.9208952858132
 21
769.23524758218832
  0
LINE
  8
_0-f_
  6
CONTINUOUS
 62
    9
 10
1026.2542284858134
 20
770.5685807821867
 11
1026.2542284858134
 21
779.23524658218651
  0
LINE
  8
_0-f_
  6
CONTINUOUS
 62
    9
 10
1003.2542307858147
 20
669.23525758218727
 11
1039.9208937858107
 21
669.23525758218727
  0
LINE
  8
_0-f_
  6
CONTINUOUS
 62
    9
 10
997.71967133926933
 20
655.90192558218644
 11
1003.2542307858147
 21
655.90192558218644
  0
LINE
  8
_0-f_
  6
CONTINUOUS
 62
    9
 10
1003.2542307858147
 20
687.23525578218653
 11
1011.920896585814
 21
687.23525578218653
  0
LINE
  8
_0-f_
  6
CONTINUOUS
 62
    9
 10
1003.2542307858147
 20
682.56858958218584
 11
1016.5875627858129
 21
682.56858958218584
  0
LINE
  8
_0-f_
  6
CONTINUOUS
 62
    9
 10
1003.2542307858147
 20
655.90192558218644
 11
1003.2542307858147
 21
695.90192158218645
  0
LINE
  8
_0-f_
  6
CONTINUOUS
 62
    9
 10
1049.7808927998119
 20
679.09525659618578
 11
1039.9208937858107
 21
669.23525758218727
  0
LINE
  8
_0-f_
  6
CONTINUOUS
 62
    9
 10
1016.5875627858129
 20
682.56858958218584
 11
1016.5875627858147
 21
757.56858208218648
  0
ARC
  8
_0-f_
  6
CONTINUOUS
 62
    9
 10
1023.5875620858131
 20
757.56858208218648
 40
6.9999993000000762
 50
89.999999999999915
 51
179.99999999999983
  0
LINE
  8
_0-f_
  6
CONTINUOUS
 62
    9
 10
1031.5290546249976
 20
764.56858138218752
 11
1023.5875620858131
 21
764.56858138218752
  0
ARC
  8
_0-f_
  6
CONTINUOUS
 62
    9
 10
1031.5290546249976
 20
775.90191358218601
 40
11.333332199999919
 50
269.99999999999977
 51
356.64911200000029
  0
ARC
  8
_0-f_
  6
CONTINUOUS
 62
    9
 10
1031.5290546249976
 20
775.90191358218601
 40
6.6666660000000002
 50
269.99999999999977
 51
356.64911200000734
  0
ARC
  8
_0-f_
  6
CONTINUOUS
 62
    9
 10
1049.7808927998119
 20
774.23524708218724
 40
11.666665500000002
 50
89.999999999999915
 51
175.84901000000195
  0
ARC
  8
_0-f_
  6
CONTINUOUS
 62
    9
 10
1023.5875620858131
 20
757.56858208218648
 40
11.666665500000002
 50
89.999999999999915
 51
179.99999999999983
  0
LINE
  8
_0-f_
  6
CONTINUOUS
 62
    9
 10
1026.5875617858126
 20
769.23524758218832
 11
1026.5875617858126
 21
785.90191258218749
  0
LINE
  8
_0-f_
  6
CONTINUOUS
 62
    9
 10
1011.920896585814
 20
687.23525578218653
 11
1011.920896585814
 21
757.56858208218648
  0
LINE
  8
_0-f_
  6
CONTINUOUS
 62
    9
 10
1031.5290546249976
 20
769.23524758218832
 11
1023.5875620858131
 21
769.23524758218832
  0
LINE
  8
_0-f_
  6
CONTINUOUS
 62
    9
 10
984.92089928581493
 20
695.90192158218645
 11
1011.920896585814
 21
695.90192158218645
  0
LINE
  8
_0-f_
  6
CONTINUOUS
 62
    9
 10
1095.9208881858144
 20
776.52148685356337
 11
1049.7808927998119
 21
771.18815405356258
  0
LINE
  8
_0-f_
  6
CONTINUOUS
 62
    9
 10
1049.7808927998119
 20
644.52150005356327
 11
1039.9208937858107
 21
649.85483285356293
  0
LINE
  8
_0-f_
  6
CONTINUOUS
 62
    9
 10
1039.9208937858107
 20
649.85483285356293
 11
1039.9208937858107
 21
669.23525758218727
  0
LINE
  8
_0-f_
  6
CONTINUOUS
 62
    9
 10
1095.9208881858144
 20
686.88976915006822
 11
1095.9208881858144
 21
792.37867193451109
  0
LINE
  8
_0-f_
  6
CONTINUOUS
 62
    9
 10
1069.9208907858135
 20
683.18816285356309
 11
1095.9208881858144
 21
683.18816285356309
  0
LINE
  8
_0-f_
  6
CONTINUOUS
 62
    9
 10
1095.9208881858144
 20
683.18816285356309
 11
1095.9208881858144
 21
686.88976915006822
  0
LINE
  8
_0-f_
  6
CONTINUOUS
 62
    9
 10
1069.9208907858135
 20
629.85483485356269
 11
1069.9208907858135
 21
683.18816285356309
  0
LINE
  8
_0-f_
  6
CONTINUOUS
 62
    9
 10
1049.7808927998119
 20
781.188149411891
 11
1095.9208881858144
 21
787.75986572972454
  0
LINE
  8
_0-f_
  6
CONTINUOUS
 62
    9
 10
1049.7808927998119
 20
679.09525659618578
 11
1049.7808927998119
 21
781.2352463821868
  0
ARC
  8
_0-f_
  6
CONTINUOUS
 62
    9
 10
1049.7808927998119
 20
774.23524708218724
 40
6.9999993000000762
 50
89.999999999999915
 51
175.84901000000636
  0
LINE
  8
_0-f_
  6
CONTINUOUS
 62
    9
 10
986.58756578581233
 20
649.90711951500191
 11
966.58756778581289
 21
649.90711951500191
  0
ARC
  8
_0-f_
  6
CONTINUOUS
 62
    9
 10
986.58756578581233
 20
663.2404515150007
 40
13.333332
 50
269.99999999999977
 51
359.99999999999966
  0
LINE
  8
_0-f_
  6
CONTINUOUS
 62
    9
 10
999.92089778581419
 20
663.2404515150007
 11
999.92089778581419
 21
669.90711751500169
  0
LINE
  8
_0-f_
  6
CONTINUOUS
 62
    9
 10
999.92089778581419
 20
669.90711751500169
 11
984.92089928581493
 21
669.90711751500169
  0
LINE
  8
_0-f_
  6
CONTINUOUS
 62
    9
 10
1006.5875637858132
 20
699.24044791500012
 11
984.92089928581493
 21
699.24044791500012
  0
LINE
  8
_0-f_
  6
CONTINUOUS
 62
    9
 10
984.92089928581493
 20
669.90711751500169
 11
984.92089928581493
 21
699.24044791500148
  0
LINE
  8
_0-f_
  6
CONTINUOUS
 62
    9
 10
1004.5875639858149
 20
745.90191658218646
 11
1004.5875639858149
 21
752.56858258218745
  0
ARC
  8
_0-f_
  6
CONTINUOUS
 62
    9
 10
1008.5875635858135
 20
749.23524958218695
 40
3.3333330000000001
 50
269.99999999999977
 51
359.99999999999966
  0
ARC
  8
_0-f_
  6
CONTINUOUS
 62
    9
 10
1086.587555785813
 20
600.98732440698097
 40
33.333330000000004
 50
119.99999999999849
 51
161.1397892339005
  0
LINE
  8
_0-f_
  6
CONTINUOUS
 62
    9
 10
1036.587560785814
 20
606.75610654127252
 11
1036.587560785814
 21
644.52150005356327
  0
LINE
  8
_0-f_
  6
CONTINUOUS
 62
    9
 10
1067.2824356591971
 20
628.16126828316203
 11
1069.9208907858135
 21
630.79972340977849
  0
LINE
  8
_0-f_
  6
CONTINUOUS
 62
    9
 10
1036.587560785814
 20
606.89448288278902
 11
1069.9208907858135
 21
640.22781288278804
  0
LINE
  8
_0-f_
  6
CONTINUOUS
 62
    9
 10
1036.587560785814
 20
611.6085276192938
 11
1069.9208907858135
 21
644.94185761929441
  0
LINE
  8
_0-f_
  6
CONTINUOUS
 62
    9
 10
1036.587560785814
 20
616.32257235580016
 11
1069.9208907858135
 21
649.65590235580078
  0
LINE
  8
_0-f_
  6
CONTINUOUS
 62
    9
 10
1036.587560785814
 20
621.03661709230653
 11
1069.9208907858135
 21
654.36994709230714
  0
LINE
  8
_0-f_
  6
CONTINUOUS
 62
    9
 10
1036.587560785814
 20
625.75066182881289
 11
1069.9208907858135
 21
659.08399182881237
  0
LINE
  8
_0-f_
  6
CONTINUOUS
 62
    9
 10
1094.0250618105661
 20
683.18816285356309
 11
1095.9208881858144
 21
685.08398922881281
  0
LINE
  8
_0-f_
  6
CONTINUOUS
 62
    9
 10
1036.587560785814
 20
630.46470656531812
 11
1069.9208907858135
 21
663.79803656531874
  0
LINE
  8
_0-f_
  6
CONTINUOUS
 62
    9
 10
1089.3110170740581
 20
683.18816285356309
 11
1095.9208881858144
 21
689.79803396531918
  0
LINE
  8
_0-f_
  6
CONTINUOUS
 62
    9
 10
1036.587560785814
 20
635.17875130182449
 11
1045.9303095375506
 21
644.52150005356327
  0
LINE
  8
_0-f_
  6
CONTINUOUS
 62
    9
 10
1047.2819842237348
 20
645.87317473974451
 11
1069.9208907858135
 21
668.51208130182511
  0
LINE
  8
_0-f_
  6
CONTINUOUS
 62
    9
 10
1084.5969723375533
 20
683.18816285356309
 11
1095.9208881858144
 21
694.51207870182418
  0
LINE
  8
_0-f_
  6
CONTINUOUS
 62
    9
 10
1036.587560785814
 20
639.89279603832927
 11
1041.2162648010451
 21
644.52150005356327
  0
LINE
  8
_0-f_
  6
CONTINUOUS
 62
    9
 10
1044.2227160511609
 20
647.52795130367861
 11
1069.9208907858135
 21
673.22612603832954
  0
LINE
  8
_0-f_
  6
CONTINUOUS
 62
    9
 10
1079.8829276010454
 20
683.18816285356309
 11
1095.9208881858144
 21
699.22612343833055
  0
LINE
  8
_0-f_
  6
CONTINUOUS
 62
    9
 10
1041.1634478785886
 20
649.18272786761247
 11
1069.9208907858135
 21
677.94017077483591
  0
LINE
  8
_0-f_
  6
CONTINUOUS
 62
    9
 10
1075.1688828645406
 20
683.18816285356309
 11
1095.9208881858144
 21
703.94016817483691
  0
LINE
  8
_0-f_
  6
CONTINUOUS
 62
    9
 10
1039.9208937858145
 20
652.6542185113409
 11
1069.9208907858135
 21
682.65421551134079
  0
LINE
  8
_0-f_
  6
CONTINUOUS
 62
    9
 10
1070.4548381280345
 20
683.18816285356309
 11
1095.9208881858144
 21
708.65421291134157
  0
LINE
  8
_0-f_
  6
CONTINUOUS
 62
    9
 10
1039.9208937858145
 20
657.36826324784727
 11
1095.9208881858144
 21
713.36825764784624
  0
LINE
  8
_0-f_
  6
CONTINUOUS
 62
    9
 10
1039.9208937858145
 20
662.0823079843525
 11
1095.9208881858144
 21
718.0823023843526
  0
LINE
  8
_0-f_
  6
CONTINUOUS
 62
    9
 10
1039.9208937858145
 20
666.79635272085886
 11
1095.9208881858144
 21
722.79634712085897
  0
LINE
  8
_0-f_
  6
CONTINUOUS
 62
    9
 10
1049.7808927998155
 20
681.37039647136532
 11
1095.9208881858144
 21
727.51039185736533
  0
LINE
  8
_0-f_
  6
CONTINUOUS
 62
    9
 10
1049.7808927998155
 20
686.0844412078701
 11
1095.9208881858144
 21
732.22443659387056
  0
LINE
  8
_0-f_
  6
CONTINUOUS
 62
    9
 10
1049.7808927998119
 20
690.79848594437647
 11
1095.9208881858144
 21
736.93848133037693
  0
LINE
  8
_0-f_
  6
CONTINUOUS
 62
    9
 10
1049.7808927998119
 20
695.51253068088283
 11
1095.9208881858144
 21
741.65252606688171
  0
LINE
  8
_0-f_
  6
CONTINUOUS
 62
    9
 10
1049.7808927998155
 20
700.2265754173892
 11
1095.9208881858144
 21
746.36657080338807
  0
LINE
  8
_0-f_
  6
CONTINUOUS
 62
    9
 10
1049.7808927998155
 20
704.94062015389443
 11
1095.9208881858144
 21
751.08061553989444
  0
LINE
  8
_0-f_
  6
CONTINUOUS
 62
    9
 10
1049.7808927998155
 20
709.6546648904008
 11
1095.9208881858144
 21
755.79466027639955
  0
LINE
  8
_0-f_
  6
CONTINUOUS
 62
    9
 10
1049.7808927998155
 20
714.36870962690716
 11
1095.9208881858144
 21
760.50870501290592
  0
LINE
  8
_0-f_
  6
CONTINUOUS
 62
    9
 10
1049.7808927998155
 20
719.0827543634116
 11
1095.9208881858144
 21
765.22274974941058
  0
LINE
  8
_0-f_
  6
CONTINUOUS
 62
    9
 10
1049.7808927998155
 20
723.79679909991796
 11
1095.9208881858144
 21
769.93679448591706
  0
LINE
  8
_0-f_
  6
CONTINUOUS
 62
    9
 10
1049.7808927998119
 20
728.51084383642285
 11
1095.9208881858144
 21
774.65083922242343
  0
LINE
  8
_0-f_
  6
CONTINUOUS
 62
    9
 10
1049.7808927998119
 20
733.22488857292922
 11
1092.7058659073898
 21
776.14986168050507
  0
LINE
  8
_0-f_
  6
CONTINUOUS
 62
    9
 10
1049.7808927998119
 20
737.93893330943422
 11
1087.3757068449229
 21
775.5337473545444
  0
LINE
  8
_0-f_
  6
CONTINUOUS
 62
    9
 10
1049.7808927998119
 20
742.65297804594059
 11
1082.0455477824578
 21
774.91763302858362
  0
LINE
  8
_0-f_
  6
CONTINUOUS
 62
    9
 10
1049.7808927998119
 20
747.36702278244695
 11
1076.7153887199891
 21
774.30151870262284
  0
LINE
  8
_0-f_
  6
CONTINUOUS
 62
    9
 10
1049.7808927998119
 20
752.08106751895332
 11
1071.385229657524
 21
773.68540437666184
  0
LINE
  8
_0-f_
  6
CONTINUOUS
 62
    9
 10
1049.7808927998119
 20
756.79511225545843
 11
1066.055070595057
 21
773.0692900507006
  0
LINE
  8
_0-f_
  6
CONTINUOUS
 62
    9
 10
1049.7808927998119
 20
761.50915699196264
 11
1060.7249115325919
 21
772.45317572474164
  0
LINE
  8
_0-f_
  6
CONTINUOUS
 62
    9
 10
1049.7808927998119
 20
766.22320172846901
 11
1055.3947524701232
 21
771.83706139878041
  0
LINE
  8
_0-f_
  6
CONTINUOUS
 62
    9
 10
1049.7808927998119
 20
770.93724646497549
 11
1050.0645934076581
 21
771.22094707281963
  0
LINE
  8
_0-f_
  6
CONTINUOUS
 62
    9
 10
1042.4165526163085
 20
608.00942997677896
 11
1069.9208907858135
 21
635.51376814628327
  0
LINE
  8
_0-f_
  6
CONTINUOUS
 62
    9
 10
1048.8647581285966
 20
609.743590752562
 11
1059.4136119096306
 21
620.29244453359513
  0
LINE
  8
_0-f_
  6
CONTINUOUS
 62
    9
 10
922.21281270138206
 20
644.52150005356327
 11
1049.7808927998119
 21
644.52150005356327
  0
LINE
  8
_0-f_
  6
CONTINUOUS
 62
    9
 10
917.56627300699438
 20
649.85483285356293
 11
1039.9208937858107
 21
649.85483285356293
  0
LINE
  8
_0-f_
  6
CONTINUOUS
 62
    9
 10
904.48211027029527
 20
669.23525758218727
 11
966.58756778581289
 21
669.23525758218727
  0
LINE
  8
_0-f_
  6
CONTINUOUS
 62
    9
 10
906.97478144450179
 20
792.47362535615071
 11
1095.9208881858144
 21
792.47362535615071
  0
LINE
  8
_0-f_
  6
CONTINUOUS
 62
    9
 10
903.30234169775031
 20
785.90191258218749
 11
1049.7808927998119
 21
785.90191258218749
  0
LINE
  8
_0-f_
  6
CONTINUOUS
 62
    9
 10
901.63321463249122
 20
782.568579582187
 11
1022.920895485813
 21
782.568579582187
  0
LINE
  8
_0-f_
  6
CONTINUOUS
 62
    9
 10
891.64238676882451
 20
752.56858258218745
 11
1004.5875639858149
 21
752.56858258218745
  0
LINE
  8
_0-f_
  6
CONTINUOUS
 62
    9
 10
890.52206172662954
 20
745.90191658218646
 11
1008.5875635858135
 21
745.90191658218646
  0
LINE
  8
_0-f_
  6
CONTINUOUS
 62
    9
 10
1006.5875637858132
 20
739.90711051500159
 11
889.82998227938515
 21
739.90711051500159
  0
LINE
  8
_0-f_
  6
CONTINUOUS
 62
    9
 10
889.71891436660007
 20
738.60931731144706
 11
1010.9208966858148
 21
738.60931731144558
  0
LINE
  8
_0-f_
  6
CONTINUOUS
 62
    9
 10
889.36374492656239
 20
731.94265131144778
 11
978.25423328581394
 21
731.94265131144778
  0
LINE
  8
_0-f_
  6
CONTINUOUS
 62
    9
 10
889.90879691489681
 20
716.60931951144687
 11
978.25423328581394
 21
716.60931951144687
  0
LINE
  8
_0-f_
  6
CONTINUOUS
 62
    9
 10
890.74284306859045
 20
709.94265351144588
 11
1005.587563885814
 21
709.94265351144588
  0
LINE
  8
_0-f_
  6
CONTINUOUS
 62
    9
 10
1006.5875637858132
 20
709.24044691499989
 11
890.85213072392787
 21
709.24044691499989
  0
LINE
  8
_0-f_
  6
CONTINUOUS
 62
    9
 10
984.92089928581493
 20
699.24044791500148
 11
892.86222831382292
 21
699.24044791500148
  0
LINE
  8
_0-f_
  6
CONTINUOUS
 62
    9
 10
947.64135094157427
 20
657.90192538218673
 11
947.64135094157427
 21
669.23525758218727
  0
LINE
  8
_0-f_
  6
CONTINUOUS
 62
    9
 10
946.30801774157408
 20
657.90192538218673
 11
946.30801774157408
 21
669.23525758218727
  0
LINE
  8
_0-f_
  6
CONTINUOUS
 62
    9
 10
944.97468454157388
 20
657.90192538218673
 11
944.97468454157388
 21
669.23525758218727
  0
LINE
  8
_0-f_
  6
CONTINUOUS
 62
    9
 10
943.64135134157368
 20
657.90192538218673
 11
943.64135134157368
 21
669.23525758218727
  0
LINE
  8
_0-f_
  6
CONTINUOUS
 62
    9
 10
942.30801814157348
 20
657.90192538218673
 11
942.30801814157348
 21
669.23525758218727
  0
LINE
  8
_0-f_
  6
CONTINUOUS
 62
    9
 10
940.97468494157329
 20
657.90192538218673
 11
940.97468494157329
 21
669.23525758218727
  0
LINE
  8
_0-f_
  6
CONTINUOUS
 62
    9
 10
939.64135174157309
 20
657.90192538218673
 11
939.64135174157309
 21
669.23525758218727
  0
LINE
  8
_0-f_
  6
CONTINUOUS
 62
    9
 10
938.30801854157289
 20
657.90192538218673
 11
938.30801854157289
 21
669.23525758218727
  0
LINE
  8
_0-f_
  6
CONTINUOUS
 62
    9
 10
936.97468534157269
 20
657.90192538218673
 11
936.97468534157269
 21
669.23525758218727
  0
LINE
  8
_0-f_
  6
CONTINUOUS
 62
    9
 10
935.6413521415725
 20
657.90192538218673
 11
935.6413521415725
 21
669.23525758218727
  0
LINE
  8
_0-f_
  6
CONTINUOUS
 62
    9
 10
934.30801894157355
 20
657.90192538218673
 11
934.30801894157355
 21
669.23525758218727
  0
LINE
  8
_0-f_
  6
CONTINUOUS
 62
    9
 10
932.9746857415721
 20
657.90192538218673
 11
932.9746857415721
 21
669.23525758218727
  0
LINE
  8
_0-f_
  6
CONTINUOUS
 62
    9
 10
931.64135254157316
 20
657.90192538218673
 11
931.64135254157316
 21
669.23525758218727
  0
LINE
  8
_0-f_
  6
CONTINUOUS
 62
    9
 10
930.30801934157296
 20
657.90192538218673
 11
930.30801934157296
 21
669.23525758218727
  0
LINE
  8
_0-f_
  6
CONTINUOUS
 62
    9
 10
928.97468614157276
 20
657.90192538218673
 11
928.97468614157276
 21
669.23525758218727
  0
LINE
  8
_0-f_
  6
CONTINUOUS
 62
    9
 10
927.64135294157256
 20
657.90192538218673
 11
927.64135294157256
 21
669.23525758218727
  0
LINE
  8
_0-f_
  6
CONTINUOUS
 62
    9
 10
926.30801974157237
 20
657.90192538218673
 11
926.30801974157237
 21
669.23525758218727
  0
LINE
  8
_0-f_
  6
CONTINUOUS
 62
    9
 10
924.97468654157217
 20
657.90192538218673
 11
924.97468654157217
 21
669.23525758218727
  0
LINE
  8
_0-f_
  6
CONTINUOUS
 62
    9
 10
923.64135334157606
 20
657.90192538218673
 11
923.64135334157606
 21
669.23525758218727
  0
LINE
  8
_0-f_
  6
CONTINUOUS
 62
    9
 10
922.30802014157587
 20
657.90192538218673
 11
922.30802014157587
 21
669.23525758218727
  0
LINE
  8
_0-f_
  6
CONTINUOUS
 62
    9
 10
920.97468694157567
 20
657.90192538218673
 11
920.97468694157567
 21
669.23525758218727
  0
LINE
  8
_0-f_
  6
CONTINUOUS
 62
    9
 10
919.64135374157547
 20
657.90192538218673
 11
919.64135374157547
 21
669.23525758218727
  0
LINE
  8
_0-f_
  6
CONTINUOUS
 62
    9
 10
918.30802054157527
 20
657.90192538218673
 11
918.30802054157527
 21
669.23525758218727
  0
LINE
  8
_0-f_
  6
CONTINUOUS
 62
    9
 10
916.97468734157508
 20
657.90192538218673
 11
916.97468734157508
 21
669.23525758218727
  0
LINE
  8
_0-f_
  6
CONTINUOUS
 62
    9
 10
915.64135414157488
 20
657.90192538218673
 11
915.64135414157488
 21
669.23525758218727
  0
LINE
  8
_0-f_
  6
CONTINUOUS
 62
    9
 10
948.49632292827107
 20
657.90192538218673
 11
948.49632292827107
 21
669.23525758218727
  0
LINE
  8
_0-f_
  6
CONTINUOUS
 62
    9
 10
915.16299292826989
 20
657.90192538218673
 11
915.16299292826989
 21
669.23525758218727
  0
LINE
  8
_0-f_
  6
CONTINUOUS
 62
    9
 10
915.16299292826989
 20
657.90192538218673
 11
948.49632292827107
 21
657.90192538218673
  0
ARC
  8
_0-f_
  6
CONTINUOUS
 62
    9
 10
936.5875707858122
 20
652.40209259883716
 40
39.999995999999982
 50
55.166292356154187
 51
148.68484545272852
  0
LINE
  8
_0-f_
  6
CONTINUOUS
 62
    9
 10
966.50114321183355
 20
669.23525758218727
 11
966.50114321183355
 21
671.76440408594249
  0
LINE
  8
_0-f_
  6
CONTINUOUS
 62
    9
 10
964.50114321183162
 20
669.23525758218727
 11
964.50114321183162
 21
678.80114962145637
  0
LINE
  8
_0-f_
  6
CONTINUOUS
 62
    9
 10
962.50114321183344
 20
669.23525758218727
 11
962.50114321183344
 21
682.02149330637997
  0
LINE
  8
_0-f_
  6
CONTINUOUS
 62
    9
 10
960.50114321183173
 20
669.23525758218727
 11
960.50114321183173
 21
684.27417687030459
  0
LINE
  8
_0-f_
  6
CONTINUOUS
 62
    9
 10
958.50114321183355
 20
669.23525758218727
 11
958.50114321183355
 21
685.8654310983012
  0
LINE
  8
_0-f_
  6
CONTINUOUS
 62
    9
 10
956.50114321183355
 20
669.23525758218727
 11
956.50114321183355
 21
687.09285957268332
  0
LINE
  8
_0-f_
  6
CONTINUOUS
 62
    9
 10
954.50114321183162
 20
669.23525758218727
 11
954.50114321183162
 21
688.16665051498819
  0
LINE
  8
_0-f_
  6
CONTINUOUS
 62
    9
 10
952.50114321183344
 20
669.23525758218727
 11
952.50114321183344
 21
689.10029272693566
  0
LINE
  8
_0-f_
  6
CONTINUOUS
 62
    9
 10
950.50114321182991
 20
669.23525758218727
 11
950.50114321182991
 21
689.90425496777095
  0
LINE
  8
_0-f_
  6
CONTINUOUS
 62
    9
 10
948.50114321183173
 20
669.23525758218727
 11
948.50114321183173
 21
690.58672919590424
  0
LINE
  8
_0-f_
  6
CONTINUOUS
 62
    9
 10
946.50114321183173
 20
669.23525758218727
 11
946.50114321183173
 21
691.15413463218158
  0
LINE
  8
_0-f_
  6
CONTINUOUS
 62
    9
 10
944.50114321183162
 20
669.23525758218727
 11
944.50114321183162
 21
691.61146713424944
  0
LINE
  8
_0-f_
  6
CONTINUOUS
 62
    9
 10
942.50114321183344
 20
669.23525758218727
 11
942.50114321183344
 21
691.96254432985586
  0
LINE
  8
_0-f_
  6
CONTINUOUS
 62
    9
 10
940.50114321182991
 20
669.23525758218727
 11
940.50114321182991
 21
692.21017759254607
  0
LINE
  8
_0-f_
  6
CONTINUOUS
 62
    9
 10
938.50114321183173
 20
669.23525758218727
 11
938.50114321183173
 21
692.35629038292939
  0
LINE
  8
_0-f_
  6
CONTINUOUS
 62
    9
 10
936.50114321183173
 20
669.23525758218727
 11
936.50114321183173
 21
692.40199522714886
  0
LINE
  8
_0-f_
  6
CONTINUOUS
 62
    9
 10
934.50114321183162
 20
669.23525758218727
 11
934.50114321183162
 21
692.34763678061665
  0
LINE
  8
_0-f_
  6
CONTINUOUS
 62
    9
 10
932.50114321182991
 20
669.23525758218727
 11
932.50114321182991
 21
692.19280495338933
  0
LINE
  8
_0-f_
  6
CONTINUOUS
 62
    9
 10
930.50114321182991
 20
669.23525758218727
 11
930.50114321182991
 21
691.93631928138007
  0
LINE
  8
_0-f_
  6
CONTINUOUS
 62
    9
 10
928.50114321183173
 20
669.23525758218727
 11
928.50114321183173
 21
691.57618313187652
  0
LINE
  8
_0-f_
  6
CONTINUOUS
 62
    9
 10
926.5011432118298
 20
669.23525758218727
 11
926.5011432118298
 21
691.1095035015943
  0
LINE
  8
_0-f_
  6
CONTINUOUS
 62
    9
 10
924.50114321183162
 20
669.23525758218727
 11
924.50114321183162
 21
690.53236860752736
  0
LINE
  8
_0-f_
  6
CONTINUOUS
 62
    9
 10
922.50114321182934
 20
669.23525758218727
 11
922.50114321182934
 21
689.83967048794455
  0
LINE
  8
_0-f_
  6
CONTINUOUS
 62
    9
 10
920.50114321182991
 20
669.23525758218727
 11
920.50114321182991
 21
689.02485229696833
  0
LINE
  8
_0-f_
  6
CONTINUOUS
 62
    9
 10
918.50114321183173
 20
669.23525758218727
 11
918.50114321183173
 21
688.07954791183658
  0
LINE
  8
_0-f_
  6
CONTINUOUS
 62
    9
 10
916.5011432118298
 20
669.23525758218727
 11
916.5011432118298
 21
686.99306117901995
  0
LINE
  8
_0-f_
  6
CONTINUOUS
 62
    9
 10
914.50114321183162
 20
669.23525758218727
 11
914.50114321183162
 21
685.75159629858047
  0
LINE
  8
_0-f_
  6
CONTINUOUS
 62
    9
 10
912.50114321182991
 20
669.23525758218727
 11
912.50114321182991
 21
684.33708417114428
  0
LINE
  8
_0-f_
  6
CONTINUOUS
 62
    9
 10
910.50114321182991
 20
669.23525758218727
 11
910.50114321182991
 21
682.72531763225686
  0
LINE
  8
_0-f_
  6
CONTINUOUS
 62
    9
 10
908.50114321183173
 20
669.23525758218727
 11
908.50114321183173
 21
680.88282759868366
  0
LINE
  8
_0-f_
  6
CONTINUOUS
 62
    9
 10
906.5011432118298
 20
669.23525758218727
 11
906.5011432118298
 21
678.76127611873255
  0
LINE
  8
_0-f_
  6
CONTINUOUS
 62
    9
 10
904.50114321183162
 20
669.23525758218727
 11
904.50114321183162
 21
676.28641476924042
  0
LINE
  8
_0-f_
  6
CONTINUOUS
 62
    9
 10
902.50114321182991
 20
673.01932044093462
 11
902.50114321182991
 21
673.33329264192287
  0
CIRCLE
  8
_1-0_
  6
CONTINUOUS
 62
    7
 10
1013.4220954764603
 20
728.67618431679364
 40
124.10134627709829
  0
LINE
  8
_1-0_
  6
CONTINUOUS
 62
    7
 10
1082.6315307235998
 20
779.861627663288
 11
1090.7953618474451
 21
798.1195536512347
  0
LINE
  8
_1-0_
  6
CONTINUOUS
 62
    7
 10
1082.6315307235998
 20
779.861627663288
 11
1098.8305788630291
 21
791.59153982734324
  0
LINE
  8
_1-0_
  6
CONTINUOUS
 62
    7
 10
1082.6315307235998
 20
779.861627663288
 11
1123.5474062482122
 21
830.22425680166907
  0
LINE
  8
_1-0_
  6
CONTINUOUS
 62
    7
 10
1123.5474062482122
 20
830.22425680166907
 11
1219.5474062482117
 21
830.22425680166907
  0
TEXT
  8
_1-0_
 62
    7
 10
1123.5474062482122
 20
830.22425680166918
 40
30
 41
0.8000000000000001
 50
0
  1
パッキン
  0
LINE
  8
_1-0_
  6
CONTINUOUS
 62
    7
 10
1081.2575360113021
 20
692.68975315405203
 11
1095.4003277955085
 21
678.54827372124203
  0
LINE
  8
_1-0_
  6
CONTINUOUS
 62
    7
 10
1081.2575360113021
 20
692.68975315405203
 11
1086.4348132604537
 21
673.37147682604029
  0
LINE
  8
_1-0_
  6
CONTINUOUS
 62
    7
 10
1081.2575360113021
 20
692.68975315405203
 11
1118.6036620485354
 21
628.01129607084147
  0
LINE
  8
_1-0_
  6
CONTINUOUS
 62
    7
 10
1118.6036620485354
 20
628.01129607084147
 11
1286.6036620485352
 21
628.01129607084147
  0
TEXT
  8
_1-0_
 62
    7
 10
1118.6036620485354
 20
628.01129607084169
 40
30
 41
0.8000000000000001
 50
0
  1
ロックフランジ
  0
LINE
  8
_1-0_
  6
CONTINUOUS
 62
    7
 10
996.55776610896112
 20
718.969177617838
 11
1010.6998309467974
 21
704.82697120856687
  0
LINE
  8
_1-0_
  6
CONTINUOUS
 62
    7
 10
996.55776610896112
 20
718.969177617838
 11
1001.7340503158584
 21
699.650635182928
  0
LINE
  8
_1-0_
  6
CONTINUOUS
 62
    7
 10
996.55776610896112
 20
718.969177617838
 11
1080.1284756455946
 21
574.21878947338007
  0
LINE
  8
_1-0_
  6
CONTINUOUS
 62
    7
 10
1080.1284756455946
 20
574.21878947338007
 11
1320.1284756455946
 21
574.21878947338007
  0
TEXT
  8
_1-0_
 62
    7
 10
1080.1284756455946
 20
574.2187894733803
 40
30
 41
0.8000000000000001
 50
0
  1
防臭インナーパッキン
  0
TEXT
  8
_0-7_枠細線
 62
    1
 10
913.42209547646053
 20
496.26877690938613
 40
50
 41
0.8
 50
0
  1
Ｃ部拡大図
  0
LINE
  8
_0-7_枠細線
  6
CONTINUOUS
 62
    9
 10
2139.2738468233365
 20
1402.4761792523234
 11
2139.2738468233365
 21
1152.4761792523241
  0
LINE
  8
_0-7_枠細線
  6
CONTINUOUS
 62
    9
 10
2239.2738468233342
 20
1402.4761792523234
 11
2239.2738468233342
 21
1152.4761792523241
  0
TEXT
  8
_0-7_枠細線
 62
    1
 10
2074.2738468233374
 20
1312.4761792523234
 40
30
 41
1
 50
0
  1
35
  0
TEXT
  8
_0-7_枠細線
 62
    1
 10
2174.2738468233365
 20
1312.4761792523234
 40
30
 41
1
 50
0
  1
35
  0
TEXT
  8
_0-7_枠細線
 62
    1
 10
2074.2738468233365
 20
1262.4761792523241
 40
30
 41
1
 50
0
  1
35
  0
TEXT
  8
_0-7_枠細線
 62
    1
 10
2174.2738468233351
 20
1262.4761792523241
 40
30
 41
1
 50
0
  1
35
  0
TEXT
  8
_0-7_枠細線
 62
    1
 10
2074.2738468233365
 20
1212.4761792523241
 40
30
 41
1
 50
0
  1
36
  0
TEXT
  8
_0-7_枠細線
 62
    1
 10
2174.2738468233351
 20
1212.4761792523241
 40
30
 41
1
 50
0
  1
36
  0
TEXT
  8
_0-7_枠細線
 62
    1
 10
2074.2738468233365
 20
1162.4761792523241
 40
30
 41
1
 50
0
  1
35
  0
TEXT
  8
_0-7_枠細線
 62
    1
 10
2174.2738468233351
 20
1162.4761792523241
 40
30
 41
1
 50
0
  1
35
  0
TEXT
  8
_0-7_枠細線
 62
    1
 10
2081.7738468233374
 20
1362.4761792523234
 40
30
 41
1
 50
0
  1
D
  0
TEXT
  8
_0-7_枠細線
 62
    1
 10
2181.7738468233365
 20
1362.4761792523234
 40
30
 41
1
 50
0
  1
E
  0
LINE
  8
_0-7_枠細線
  6
CONTINUOUS
 62
    9
 10
2339.2738468233329
 20
1402.4761792523234
 11
2339.2738468233329
 21
1152.4761792523241
  0
TEXT
  8
_0-7_枠細線
 62
    1
 10
2266.7738468233338
 20
1312.4761792523234
 40
30
 41
1
 50
0
  1
924
  0
TEXT
  8
_0-7_枠細線
 62
    1
 10
2259.2738468233342
 20
1262.4761792523241
 40
30
 41
1
 50
0
  1
1124
  0
TEXT
  8
_0-7_枠細線
 62
    1
 10
2259.2738468233342
 20
1212.4761792523241
 40
30
 41
1
 50
0
  1
1422
  0
TEXT
  8
_0-7_枠細線
 62
    1
 10
2259.2738468233342
 20
1162.4761792523241
 40
30
 41
1
 50
0
  1
1724
  0
TEXT
  8
_0-7_枠細線
 62
    1
 10
2281.7738468233342
 20
1362.4761792523234
 40
30
 41
1
 50
0
  1
F
  0
LINE
  8
_0-7_枠細線
  6
CONTINUOUS
 62
    9
 10
2439.273846823331
 20
1402.4761792523234
 11
2439.273846823331
 21
1152.4761792523241
  0
LINE
  8
_0-7_枠細線
  6
CONTINUOUS
 62
    9
 10
2539.2738468233297
 20
1402.4761792523234
 11
2539.2738468233297
 21
1152.4761792523241
  0
TEXT
  8
_0-7_枠細線
 62
    1
 10
2381.7738468233324
 20
1362.4761792523234
 40
30
 41
1
 50
0
  1
N
  0
TEXT
  8
_0-7_枠細線
 62
    1
 10
2381.7738468873331
 20
1312.4761792523234
 40
30
 41
1
 50
0
  1
2
  0
TEXT
  8
_0-7_枠細線
 62
    1
 10
2381.7738468233324
 20
1262.4761792523241
 40
30
 41
1
 50
0
  1
2
  0
TEXT
  8
_0-7_枠細線
 62
    1
 10
2381.7738468233324
 20
1212.4761792523241
 40
30
 41
1
 50
0
  1
3
  0
TEXT
  8
_0-7_枠細線
 62
    1
 10
2466.773846823331
 20
1312.4761792523234
 40
30
 41
1
 50
0
  1
462
  0
TEXT
  8
_0-7_枠細線
 62
    1
 10
2466.773846823331
 20
1262.4761792523241
 40
30
 41
1
 50
0
  1
562
  0
TEXT
  8
_0-7_枠細線
 62
    1
 10
2466.773846823331
 20
1212.4761792523241
 40
30
 41
1
 50
0
  1
474
  0
TEXT
  8
_0-7_枠細線
 62
    1
 10
2381.7738468233324
 20
1162.4761792523241
 40
30
 41
1
 50
0
  1
4
  0
TEXT
  8
_0-7_枠細線
 62
    1
 10
2466.773846823331
 20
1162.4761792523241
 40
30
 41
1
 50
0
  1
431
  0
TEXT
  8
_0-7_枠細線
 62
    1
 10
2481.773846823332
 20
1362.4761792523234
 40
30
 41
1
 50
0
  1
G
  0
LINE
  8
_0-5_寸法線
  6
CONTINUOUS
 62
    7
 10
391.5964912280711
 20
1280.2107285393038
 11
426.59649122807082
 21
1280.2107285393038
  0
TEXT
  8
_0-5_寸法線
 62
    7
 10
394.09649122807082
 20
1280.2107285393038
 40
30
 41
1
 50
0
  1
Ｄ
  0
LINE
  8
_0-5_寸法線
  6
CONTINUOUS
 62
    7
 10
391.59649122807082
 20
1200.2107285393038
 11
391.5964912280711
 21
1290.2107285393038
  0
LINE
  8
_0-5_寸法線
  6
CONTINUOUS
 62
    7
 10
426.5964912280707
 20
1200.2107285393038
 11
426.59649122807082
 21
1290.2107285393038
  0
POINT
  8
_0-5_寸法線
 62
    7
 10
391.5964912280711
 20
1280.2107285393038
  0
POINT
  8
_0-5_寸法線
 62
    7
 10
426.59649122807082
 20
1280.2107285393038
  0
LINE
  8
_0-5_寸法線
  6
CONTINUOUS
 62
    7
 10
426.59649122807082
 20
1280.2107285393038
 11
1350.5964912280708
 21
1280.2107285393038
  0
TEXT
  8
_0-5_寸法線
 62
    7
 10
813.59649122807082
 20
1280.2107285393038
 40
30
 41
1
 50
0
  1
Ｆ＝Ｎ×Ｇ
  0
LINE
  8
_0-5_寸法線
  6
CONTINUOUS
 62
    7
 10
1485
 20
1050
 11
1485
 21
1050
  0
LINE
  8
_0-5_寸法線
  6
CONTINUOUS
 62
    7
 10
1350.5964912280706
 20
1200.2107285393038
 11
1350.5964912280708
 21
1290.2107285393038
  0
POINT
  8
_0-5_寸法線
 62
    7
 10
426.59649122807082
 20
1280.2107285393038
  0
POINT
  8
_0-5_寸法線
 62
    7
 10
1350.5964912280708
 20
1280.2107285393038
  0
LINE
  8
_0-5_寸法線
  6
CONTINUOUS
 62
    7
 10
1350.5964912280708
 20
1280.2107285393038
 11
1385.5964912280708
 21
1280.2107285393038
  0
TEXT
  8
_0-5_寸法線
 62
    7
 10
1353.0964912280708
 20
1280.2107285393038
 40
30
 41
1
 50
0
  1
Ｅ
  0
LINE
  8
_0-5_寸法線
  6
CONTINUOUS
 62
    7
 10
1485
 20
1050
 11
1485
 21
1050
  0
LINE
  8
_0-5_寸法線
  6
CONTINUOUS
 62
    7
 10
1385.5964912280706
 20
1200.2107285393038
 11
1385.5964912280708
 21
1290.2107285393038
  0
POINT
  8
_0-5_寸法線
 62
    7
 10
1350.5964912280708
 20
1280.2107285393038
  0
POINT
  8
_0-5_寸法線
 62
    7
 10
1385.5964912280708
 20
1280.2107285393038
  0
ENDSEC
  0
EOF
