  0
SECTION
  2
HEADER
  9
$ACADVER
  1
AC1009
  9
$INSBASE
 10
0
 20
0
 30
0
  9
$EXTMIN
 10
0
 20
0
  9
$EXTMAX
 10
1485
 20
1050
  9
$LIMMIN
 10
0
 20
0
  9
$LIMMAX
 10
1485
 20
1050
  9
$LTSCALE
 40
5
  0
ENDSEC
  0
SECTION
  2
TABLES
  0
TABLE
  2
LTYPE
 70
     9
  0
LTYPE
  2
CONTINUOUS
 70
    64
  3
実線
 72
    65
 73
     0
 40
0.0
  0
LTYPE
  2
DASHED1
 70
    64
  3
--  --  --  --  --  --  --  --  
 72
    65
 73
     2
 40
2.5
 49
1.25
 49
-1.25
  0
LTYPE
  2
DASHED2
 70
    64
  3
----    ----    ----    ----    
 72
    65
 73
     2
 40
5.0
 49
2.5
 49
-2.5
  0
LTYPE
  2
DASHED3
 70
    64
  3
------  ------  ------  ------  
 72
    65
 73
     2
 40
5.0
 49
3.75
 49
-1.25
  0
LTYPE
  2
CENTER1
 70
    64
  3
----- - ----- - ----- - ----- - 
 72
    65
 73
     4
 40
10.0
 49
6.25
 49
-1.25
 49
1.25
 49
-1.25
  0
LTYPE
  2
CENTER2
 70
    64
  3
----------  --  ----------  --  
 72
    65
 73
     4
 40
20.0
 49
12.5
 49
-2.5
 49
2.5
 49
-2.5
  0
LTYPE
  2
PHANTOM1
 70
    64
  3
--- - - --- - - --- - - --- - - 
 72
    65
 73
     6
 40
10.0
 49
3.25
 49
-1.25
 49
1.25
 49
-1.25
 49
1.25
 49
-1.25
  0
LTYPE
  2
PHANTOM2
 70
    64
  3
--------  -  -  --------  -  -  
 72
    65
 73
     6
 40
20.0
 49
10.0
 49
-2.5
 49
1.25
 49
-2.5
 49
1.25
 49
-2.5
  0
LTYPE
  2
DOT
 70
    64
  3
-   -   -   -   -   -   -   -   
 72
    65
 73
     2
 40
2.5
 49
0.625
 49
-1.875
  0
LTYPE
  2
DUMMY
 70
    64
  3
ダミー
 72
    65
 73
     0
 40
0.0
  0
LTYPE
  2
RAND1
 70
    64
  3
ランダム線1
 72
    65
 73
     4
 40
10.0
 49
1.0
 49
-2.0
 49
3.0
 49
-4.0
  0
LTYPE
  2
RAND2
 70
    64
  3
ランダム線2
 72
    65
 73
     4
 40
14.0
 49
2.0
 49
-3.0
 49
4.0
 49
-5.0
  0
LTYPE
  2
RAND3
 70
    64
  3
ランダム線3
 72
    65
 73
     4
 40
18.0
 49
3.0
 49
-4.0
 49
5.0
 49
-6.0
  0
LTYPE
  2
RAND4
 70
    64
  3
ランダム線4
 72
    65
 73
     4
 40
22.0
 49
4.0
 49
-5.0
 49
6.0
 49
-7.0
  0
LTYPE
  2
RAND5
 70
    64
  3
ランダム線5
 72
    65
 73
     4
 40
26.0
 49
5.0
 49
-6.0
 49
7.0
 49
-8.0
  0
LTYPE
  2
LONG1
 70
    64
  3
----------  --  ----------  --  
 72
    65
 73
     4
 40
40.0
 49
32.5
 49
-2.5
 49
2.5
 49
-2.5
  0
LTYPE
  2
LONG2
 70
    64
  3
--------  -  -  --------  -  -  
 72
    65
 73
     6
 40
40.0
 49
30.0
 49
-2.5
 49
1.25
 49
-2.5
 49
1.25
 49
-2.5
  0
LTYPE
  2
LONG3
 70
    64
  3
+++++++++++++++..+++++++++++++++
 72
    65
 73
     2
 40
40.0
 49
37.5
 49
-2.5
  0
LTYPE
  2
LONG4
 70
    64
  3
+++++++++++++++..+++++++++++++++
 72
    65
 73
     2
 40
80.0
 49
75.0
 49
-5.0
  0
LTYPE
  2
LONG5
 70
    64
  3
----------  --  ----------  --  
 72
    65
 73
     4
 40
60.0
 49
37.5
 49
-7.5
 49
7.5
 49
-7.5
  0
LTYPE
  2
dashed
 70
   64
  3
-------   -------------   ------
 72
   65
 73
    2
 40
7.5
 49
6
 49
-1.5
  0
LTYPE
  2
dashed_spaced
 70
   64
  3
----        --------        ----
 72
   65
 73
    2
 40
12
 49
6
 49
-6
  0
LTYPE
  2
long_dashed_dotted
 70
   64
  3
------------- --- --------------
 72
   65
 73
    4
 40
15.25
 49
12
 49
-1.5
 49
0.25
 49
-1.5
  0
LTYPE
  2
long_dashed_double-dotted
 70
   64
  3
----------- --- --- ------------
 72
   65
 73
    6
 40
17
 49
12
 49
-1.5
 49
0.25
 49
-1.5
 49
0.25
 49
-1.5
  0
LTYPE
  2
long_dashed_triplicate-dotted
 70
   64
  3
--------- --- --- --- ----------
 72
   65
 73
    8
 40
18.75
 49
12
 49
-1.5
 49
0.25
 49
-1.5
 49
0.25
 49
-1.5
 49
0.25
 49
-1.5
  0
LTYPE
  2
dotted
 70
   64
  3
   -       -       -       -    
 72
   65
 73
    2
 40
1.75
 49
0.25
 49
-1.5
  0
LTYPE
  2
chain
 70
   64
  3
-------------- -- --------------
 72
   65
 73
    4
 40
18.5
 49
12
 49
-1.5
 49
3.5
 49
-1.5
  0
LTYPE
  2
chain_double_dash
 70
   64
  3
------------ -- -- -------------
 72
   65
 73
    6
 40
23.5
 49
12
 49
-1.5
 49
3.5
 49
-1.5
 49
3.5
 49
-1.5
  0
LTYPE
  2
dashed_dotted
 70
   64
  3
-----------     -     ----------
 72
   65
 73
    4
 40
9.25
 49
6
 49
-1.5
 49
0.25
 49
-1.5
  0
LTYPE
  2
double-dashed_dotted
 70
   64
  3
------   -----------   -   -----
 72
   65
 73
    6
 40
16.75
 49
6
 49
-1.5
 49
6
 49
-1.5
 49
0.25
 49
-1.5
  0
LTYPE
  2
dashed_double-dotted
 70
   64
  3
---------    -    -    ---------
 72
   65
 73
    6
 40
11
 49
6
 49
-1.5
 49
0.25
 49
-1.5
 49
0.25
 49
-1.5
  0
LTYPE
  2
double-dashed_double-dotted
 70
   64
  3
-----   ---------   -   -   ----
 72
   65
 73
    8
 40
18.5
 49
6
 49
-1.5
 49
6
 49
-1.5
 49
0.25
 49
-1.5
 49
0.25
 49
-1.5
  0
LTYPE
  2
dashed_triplicate-dotted
 70
   64
  3
-------    -    -    -    ------
 72
   65
 73
    8
 40
12.75
 49
6
 49
-1.5
 49
0.25
 49
-1.5
 49
0.25
 49
-1.5
 49
0.25
 49
-1.5
  0
LTYPE
  2
double-dashed_triplicate-dotted
 70
   64
  3
-----  ---------  -  -  -  -----
 72
   65
 73
   10
 40
20.25
 49
6
 49
-1.5
 49
6
 49
-1.5
 49
0.25
 49
-1.5
 49
0.25
 49
-1.5
 49
0.25
 49
-1.5
  0
LTYPE
  2
undefined
 70
   64
  3
--------------------------------
 72
   65
 73
    0
 40
0
  0
ENDTAB
  0
TABLE
  2
STYLE
  5
3
100
AcDbSymbolTable
 70
     1
  0
STYLE
  5
10
100
AcDbSymbolTableRecord
100
AcDbTextStyleTableRecord
  2
STANDARD
 70
     0
 40
0.0
 41
1.0
 50
0.0
 71
     0
 42
0.2
  3
txt
  4
bigfont.shx
  0
STYLE
  5
26
100
AcDbSymbolTableRecord
100
AcDbTextStyleTableRecord
  2
TATEGAKI
 70
    68
 40
0.0
 41
1.0
 50
0.0
 71
     0
 42
1.0
  3
txt
  4
bigfont.shx
  0
ENDTAB
  0
TABLE
  2
LAYER
 70
   10
  0
LAYER
  2
_0-0_計極細
 70
   64
 62
    7
  6
CONTINUOUS
  0
LAYER
  2
_0-1_計細線
 70
   64
 62
    7
  6
CONTINUOUS
  0
LAYER
  2
_0-5_寸法線
 70
   64
 62
    7
  6
CONTINUOUS
  0
LAYER
  2
_0-7_枠細線
 70
   64
 62
    7
  6
CONTINUOUS
  0
LAYER
  2
_0-8_枠中線
 70
   64
 62
    7
  6
CONTINUOUS
  0
LAYER
  2
_0-9_枠極太
 70
   64
 62
    7
  6
CONTINUOUS
  0
LAYER
  2
_0-a_極細3
 70
   64
 62
    7
  6
CONTINUOUS
  0
LAYER
  2
_0-b_細線3
 70
   64
 62
    7
  6
CONTINUOUS
  0
LAYER
  2
_0-d_寸法3
 70
   64
 62
    7
  6
CONTINUOUS
  0
LAYER
  2
ADD_LINE
 70
   64
 62
    7
  6
CONTINUOUS
  0
ENDTAB
  0
ENDSEC
  0
SECTION
  2
BLOCKS
  0
ENDSEC
  0
SECTION
  2
ENTITIES
  0
LINE
  8
_0-7_枠細線
  6
CONTINUOUS
 62
    5
 10
1185
 20
180
 11
1185
 21
100
  0
TEXT
  8
_0-7_枠細線
 62
    5
 10
937.5
 20
97.5
 40
17.5
 41
1
 50
0
  1
備考
  7
TATEGAKI
  0
TEXT
  8
_0-7_枠細線
 62
    5
 10
937.5
 20
137.5
 40
17.5
 41
1
 50
0
  1
品番
  7
TATEGAKI
  0
TEXT
  8
_0-7_枠細線
 62
    5
 10
937.5
 20
177.5
 40
17.5
 41
1
 50
0
  1
品名
  7
TATEGAKI
  0
LINE
  8
_0-7_枠細線
  6
CONTINUOUS
 62
    5
 10
1185
 20
140
 11
925
 21
140
  0
LINE
  8
_0-7_枠細線
  6
CONTINUOUS
 62
    5
 10
950
 20
180
 11
950
 21
60
  0
LINE
  8
_0-8_枠中線
  6
CONTINUOUS
 62
    5
 10
1425
 20
180
 11
925
 21
180
  0
LINE
  8
_0-8_枠中線
  6
CONTINUOUS
 62
    5
 10
925
 20
180
 11
925
 21
60
  0
LINE
  8
_0-7_枠細線
  6
CONTINUOUS
 62
    5
 10
1245
 20
180
 11
1245
 21
60
  0
TEXT
  8
_0-7_枠細線
 62
    5
 10
1192.5
 20
160
 40
15
 41
1
 50
0
  1
縮　尺
  0
LINE
  8
_0-7_枠細線
  6
CONTINUOUS
 62
    5
 10
1185
 20
155
 11
1245
 21
155
  0
LINE
  8
_0-7_枠細線
  6
CONTINUOUS
 62
    5
 10
1245
 20
100
 11
925
 21
100
  0
LINE
  8
_0-7_枠細線
  6
CONTINUOUS
 62
    5
 10
1425
 20
90
 11
1245
 21
90
  0
LINE
  8
_0-7_枠細線
  6
CONTINUOUS
 62
    5
 10
1245
 20
120
 11
1425
 21
120
  0
LINE
  8
_0-7_枠細線
  6
CONTINUOUS
 62
    5
 10
1425
 20
140
 11
1245
 21
140
  0
TEXT
  8
_0-7_枠細線
 62
    5
 10
1255
 20
147.5
 40
25
 41
0.8
 50
0
  1
株式会社シマブン
  0
TEXT
  8
_0-7_枠細線
 62
    5
 10
1252.5
 20
60
 40
15
 41
1
 50
0
  1
年月日
  0
TEXT
  8
_0-7_枠細線
 62
    5
 10
1252.5
 20
75
 40
15
 41
1
 50
0
  1
作　成
  0
TEXT
  8
_0-7_枠細線
 62
    5
 10
1256.25
 20
122.5
 40
15
 41
1
 50
0
  1
承 認
  0
LINE
  8
_0-7_枠細線
  6
CONTINUOUS
 62
    5
 10
1305
 20
140
 11
1305
 21
60
  0
TEXT
  8
_0-7_枠細線
 62
    5
 10
1316.25
 20
122.5
 40
15
 41
1
 50
0
  1
検 図
  0
LINE
  8
_0-7_枠細線
  6
CONTINUOUS
 62
    5
 10
1365
 20
140
 11
1365
 21
90
  0
TEXT
  8
_0-7_枠細線
 62
    5
 10
1375
 20
95
 40
20
 41
1
 50
0
  1
藤戸
  0
TEXT
  8
_0-7_枠細線
 62
    5
 10
1376.25
 20
122.5
 40
15
 41
1
 50
0
  1
設 計
  0
TEXT
  8
_0-7_枠細線
 62
    5
 10
1255
 20
95
 40
20
 41
1
 50
0
  1
隠塚
  0
TEXT
  8
_0-7_枠細線
 62
    5
 10
1315
 20
95
 40
20
 41
1
 50
0
  1
渋田
  0
TEXT
  8
_0-7_枠細線
 62
    5
 10
1193.9999999999998
 20
117.5
 40
20
 41
0.7000000000000001
 50
0
  1
１：５
  0
TEXT
  8
_0-7_枠細線
 62
    5
 10
960.5
 20
69.999999999999858
 40
20
 41
0.5999999999999998
 50
0
  1
品番・色については表参照のこと
  0
TEXT
  8
_0-7_枠細線
 62
    5
 10
1309.9999999999998
 20
67.499999999999929
 40
15.000000000000009
 41
0.6666666666666665
 50
0
  1
２０１０年０３月０１日
  0
TEXT
  8
_0-7_枠細線
 62
    5
 10
1128.5
 20
141.25
 40
20.000000000000007
 41
0.5999999999999998
 50
0
  1
集水マス
  0
LINE
  8
_0-7_枠細線
  6
CONTINUOUS
 62
    5
 10
1425
 20
942.5
 11
890
 21
942.5
  0
TEXT
  8
_0-7_枠細線
 62
    5
 10
895
 20
945
 40
12.5
 41
1
 50
0
  1
記号
  0
TEXT
  8
_0-7_枠細線
 62
    5
 10
996.875
 20
945
 40
12.5
 41
1
 50
0
  1
訂　 正　 記　 事
  0
TEXT
  8
_0-7_枠細線
 62
    5
 10
1181.25
 20
945
 40
12.5
 41
1
 50
0
  1
訂 正 年 月 日
  0
TEXT
  8
_0-7_枠細線
 62
    5
 10
1306.25
 20
945
 40
12.5
 41
1
 50
0
  1
備　　　　　考
  0
LINE
  8
_0-7_枠細線
  6
CONTINUOUS
 62
    5
 10
1425
 20
925
 11
890
 21
925
  0
TEXT
  8
_0-7_枠細線
 62
    5
 10
938.85037037037023
 20
927.5
 40
12.5
 41
1
 50
0
  1
品番・色記号変更
  0
TEXT
  8
_0-7_枠細線
 62
    5
 10
1180
 20
927.5
 40
12.5
 41
0.7199999999999999
 50
0
  1
２０１３．０３．１３
  0
LINE
  8
_0-7_枠細線
  6
CONTINUOUS
 62
    5
 10
1425
 20
907.5
 11
890
 21
907.5
  0
LINE
  8
_0-7_枠細線
  6
CONTINUOUS
 62
    5
 10
1425
 20
890
 11
890
 21
890
  0
TEXT
  8
_0-7_枠細線
 62
    5
 10
938.85037037037023
 20
910
 40
12.5
 41
1
 50
0
  1
クロスバーピッチ変更
  0
TEXT
  8
_0-7_枠細線
 62
    5
 10
938.85037037037023
 20
892.5
 40
12.5
 41
1
 50
0
  1
取外具形状変更
  0
TEXT
  8
_0-7_枠細線
 62
    5
 10
1180
 20
910
 40
12.5
 41
0.7199999999999999
 50
0
  1
２０１５．１１．２０
  0
LINE
  8
_0-7_枠細線
  6
CONTINUOUS
 62
    5
 10
915
 20
908.94233397174685
 11
907.5
 21
923.94233397174685
  0
LINE
  8
_0-7_枠細線
  6
CONTINUOUS
 62
    5
 10
900
 20
908.94233397174685
 11
915
 21
908.94233397174685
  0
LINE
  8
_0-7_枠細線
  6
CONTINUOUS
 62
    5
 10
907.5
 20
923.94233397174685
 11
900
 21
908.94233397174685
  0
TEXT
  8
_0-7_枠細線
 62
    5
 10
902.36515126814822
 20
908.63533172636664
 40
12.5
 41
0.8
 50
0
  1
１
  0
TEXT
  8
_0-7_枠細線
 62
    5
 10
902.36515126814822
 20
891.13533172636664
 40
12.5
 41
0.8
 50
0
  1
２
  0
LINE
  8
_0-7_枠細線
  6
CONTINUOUS
 62
    5
 10
1425
 20
872.5
 11
890
 21
872.5
  0
LINE
  8
_0-7_枠細線
  6
CONTINUOUS
 62
    5
 10
907.5
 20
906.44233397174685
 11
900
 21
891.44233397174685
  0
LINE
  8
_0-7_枠細線
  6
CONTINUOUS
 62
    5
 10
900
 20
891.44233397174685
 11
915
 21
891.44233397174685
  0
LINE
  8
_0-7_枠細線
  6
CONTINUOUS
 62
    5
 10
915
 20
891.44233397174685
 11
907.5
 21
906.44233397174685
  0
TEXT
  8
_0-7_枠細線
 62
    5
 10
902.36515126814822
 20
873.39465008156549
 40
12.5
 41
0.8
 50
0
  1
３
  0
TEXT
  8
_0-7_枠細線
 62
    5
 10
1180
 20
875
 40
12.5
 41
0.7199999999999999
 50
0
  1
２０１７．０４．０１
  0
LINE
  8
_0-7_枠細線
  6
CONTINUOUS
 62
    5
 10
915
 20
856.44233397174685
 11
907.5
 21
871.44233397174685
  0
LINE
  8
_0-7_枠細線
  6
CONTINUOUS
 62
    5
 10
900
 20
856.44233397174685
 11
915
 21
856.44233397174685
  0
LINE
  8
_0-7_枠細線
  6
CONTINUOUS
 62
    5
 10
907.5
 20
871.44233397174685
 11
900
 21
856.44233397174685
  0
TEXT
  8
_0-7_枠細線
 62
    5
 10
1180
 20
857.5
 40
12.5
 41
0.7199999999999999
 50
0
  1
２０１７．０４．０１
  0
TEXT
  8
_0-7_枠細線
 62
    5
 10
938.85037037037023
 20
857.5
 40
12.5
 41
1
 50
0
  1
ブラウン色（Ｃ）追加
  0
LINE
  8
_0-7_枠細線
  6
CONTINUOUS
 62
    5
 10
1425
 20
855
 11
890
 21
855
  0
LINE
  8
_0-7_枠細線
  6
CONTINUOUS
 62
    5
 10
907.5
 20
888.94233397174685
 11
900
 21
873.94233397174685
  0
LINE
  8
_0-7_枠細線
  6
CONTINUOUS
 62
    5
 10
900
 20
873.94233397174685
 11
915
 21
873.94233397174685
  0
LINE
  8
_0-7_枠細線
  6
CONTINUOUS
 62
    5
 10
915
 20
873.94233397174685
 11
907.5
 21
888.94233397174685
  0
TEXT
  8
_0-7_枠細線
 62
    5
 10
902.36515126814822
 20
855.49351400689704
 40
12.5
 41
0.8
 50
0
  1
４
  0
TEXT
  8
_0-7_枠細線
 62
    5
 10
938.85037037037023
 20
875
 40
12.5
 41
1
 50
0
  1
取外具形状変更
  0
TEXT
  8
_0-7_枠細線
 62
    5
 10
1180
 20
892.5
 40
12.5
 41
0.7199999999999999
 50
0
  1
２０１５．１１．２０
  0
LINE
  8
_0-9_枠極太
  6
CONTINUOUS
 62
    5
 10
60
 20
60
 11
60
 21
960
  0
LINE
  8
_0-9_枠極太
  6
CONTINUOUS
 62
    5
 10
60
 20
960
 11
1425
 21
960
  0
LINE
  8
_0-9_枠極太
  6
CONTINUOUS
 62
    5
 10
1425
 20
960
 11
1425
 21
60
  0
LINE
  8
_0-9_枠極太
  6
CONTINUOUS
 62
    5
 10
1425
 20
60
 11
60
 21
60
  0
LINE
  8
_0-7_枠細線
  6
CONTINUOUS
 62
    5
 10
915
 20
838.94233397174685
 11
907.5
 21
853.94233397174685
  0
LINE
  8
_0-7_枠細線
  6
CONTINUOUS
 62
    5
 10
900
 20
838.94233397174685
 11
915
 21
838.94233397174685
  0
LINE
  8
_0-7_枠細線
  6
CONTINUOUS
 62
    5
 10
907.5
 20
853.94233397174685
 11
900
 21
838.94233397174685
  0
LINE
  8
_0-7_枠細線
  6
CONTINUOUS
 62
    5
 10
1425
 20
837.5
 11
890
 21
837.5
  0
TEXT
  8
_0-7_枠細線
 62
    5
 10
1180
 20
840
 40
12.5
 41
0.7199999999999999
 50
0
  1
２０１９．０９．０１
  0
TEXT
  8
_0-7_枠細線
 62
    5
 10
902.36515126814822
 20
837.99351400689704
 40
12.5
 41
0.8
 50
0
  1
５
  0
TEXT
  8
_0-7_枠細線
 62
    5
 10
938.85037037037023
 20
840
 40
12.5
 41
1
 50
0
  1
アンカー材質･厚み変更
  0
LINE
  8
_0-7_枠細線
  6
CONTINUOUS
 62
    5
 10
1275
 20
837.5
 11
1275
 21
959.99999999999909
  0
LINE
  8
_0-7_枠細線
  6
CONTINUOUS
 62
    5
 10
1175
 20
837.5
 11
1175
 21
959.99999999999909
  0
LINE
  8
_0-7_枠細線
  6
CONTINUOUS
 62
    5
 10
925
 20
837.5
 11
925
 21
959.99999999999909
  0
LINE
  8
_0-7_枠細線
  6
CONTINUOUS
 62
    5
 10
890
 20
837.5
 11
890
 21
959.99999999999909
  0
TEXT
  8
_0-7_枠細線
 62
    5
 10
960.5
 20
158.74999999999994
 40
20.000000000000007
 41
0.5999999999999998
 50
0
  1
セーフティグレーチングＨ２５タイプ
  0
TEXT
  8
_0-7_枠細線
 62
    5
 10
960.5
 20
109.99999999999993
 40
20.000000000000007
 41
0.5999999999999998
 50
0
  1
ＧＲＳ－２５Ｋ３５０
  0
LINE
  8
_0-7_枠細線
  6
CONTINUOUS
 62
    5
 10
924.99999999999989
 20
323.73000000000059
 11
1225.0000000000005
 21
323.73000000000059
  0
LINE
  8
_0-7_枠細線
  6
CONTINUOUS
 62
    5
 10
924.99999999999989
 20
348.73000000000047
 11
1225.0000000000005
 21
348.73000000000047
  0
LINE
  8
_0-7_枠細線
  6
CONTINUOUS
 62
    5
 10
924.99999999999989
 20
373.73000000000047
 11
1225.0000000000005
 21
373.73000000000047
  0
LINE
  8
_0-7_枠細線
  6
CONTINUOUS
 62
    5
 10
924.99999999999989
 20
398.73000000000076
 11
1225.0000000000005
 21
398.73000000000076
  0
TEXT
  8
_0-7_枠細線
 62
    5
 10
1048.0000000000005
 20
403.73000000000076
 40
15.000000000000002
 41
0.5999999999999999
 50
0
  1
ライトグレー
  0
LINE
  8
_0-7_枠細線
  6
CONTINUOUS
 62
    5
 10
924.99999999999989
 20
423.73000000000047
 11
1225.0000000000005
 21
423.73000000000047
  0
TEXT
  8
_0-7_枠細線
 62
    5
 10
1057.0000000000005
 20
428.73000000000047
 40
15.000000000000002
 41
0.5999999999999999
 50
0
  1
ベージュ
  0
LINE
  8
_0-7_枠細線
  6
CONTINUOUS
 62
    5
 10
924.99999999999989
 20
448.73000000000047
 11
1225.0000000000005
 21
448.73000000000047
  0
TEXT
  8
_0-7_枠細線
 62
    5
 10
1069.0000000000005
 20
453.73000000000047
 40
15.000000000000002
 41
0.8
 50
0
  1
色
  0
TEXT
  8
_0-7_枠細線
 62
    5
 10
951.00000000000045
 20
453.73000000000047
 40
15.000000000000002
 41
0.8
 50
0
  1
品　　番
  0
TEXT
  8
_0-7_枠細線
 62
    5
 10
1151.0000000000009
 20
453.73000000000047
 40
15.000000000000002
 41
0.8
 50
0
  1
備　　考
  0
LINE
  8
_0-7_枠細線
  6
CONTINUOUS
 62
    5
 10
924.99999999999989
 20
473.73000000000047
 11
1225.0000000000005
 21
473.73000000000047
  0
TEXT
  8
_0-7_枠細線
 62
    5
 10
1013.75
 20
478.73000000000047
 40
17.5
 41
1
 50
0
  1
品番表
  0
LINE
  8
_0-7_枠細線
  6
CONTINUOUS
 62
    5
 10
924.99999999999989
 20
248.73000000000033
 11
1225.0000000000005
 21
248.73000000000033
  0
LINE
  8
_0-7_枠細線
  6
CONTINUOUS
 62
    5
 10
924.99999999999989
 20
273.73000000000059
 11
1225.0000000000005
 21
273.73000000000059
  0
LINE
  8
_0-7_枠細線
  6
CONTINUOUS
 62
    5
 10
924.99999999999989
 20
298.7300000000007
 11
1225.0000000000005
 21
298.7300000000007
  0
TEXT
  8
_0-7_枠細線
 62
    5
 10
1057.0000000000009
 20
378.7300000000007
 40
15.000000000000002
 41
0.5999999999999999
 50
0
  1
ホワイト
  0
TEXT
  8
_0-7_枠細線
 62
    5
 10
1061.5000000000005
 20
353.73000000000047
 40
15.000000000000002
 41
0.5999999999999999
 50
0
  1
ピンク
  0
TEXT
  8
_0-7_枠細線
 62
    5
 10
1061.5000000000005
 20
328.73000000000047
 40
15.000000000000002
 41
0.5999999999999999
 50
0
  1
ブルー
  0
TEXT
  8
_0-7_枠細線
 62
    5
 10
1048
 20
303.73000000000059
 40
15.000000000000002
 41
0.5999999999999999
 50
0
  1
ダークグレー
  0
TEXT
  8
_0-7_枠細線
 62
    5
 10
1061.5000000000005
 20
278.7300000000007
 40
15.000000000000002
 41
0.5999999999999999
 50
0
  1
ウッド
  0
LINE
  8
_0-7_枠細線
  6
CONTINUOUS
 62
    5
 10
924.99999999999989
 20
223.73000000000002
 11
1225.0000000000005
 21
223.73000000000002
  0
TEXT
  8
_0-7_枠細線
 62
    5
 10
1057.0000000000009
 20
228.73000000000008
 40
15.000000000000002
 41
0.5999999999999999
 50
0
  1
ブラック
  0
LINE
  8
_0-7_枠細線
  6
CONTINUOUS
 62
    5
 10
1225.0000000000005
 20
473.73000000000047
 11
1225.0000000000005
 21
223.73000000000002
  0
LINE
  8
_0-7_枠細線
  6
CONTINUOUS
 62
    5
 10
1125
 20
473.73000000000047
 11
1125
 21
223.73000000000002
  0
LINE
  8
_0-7_枠細線
  6
CONTINUOUS
 62
    5
 10
1025.0000000000005
 20
473.73000000000047
 11
1025.0000000000005
 21
223.73000000000002
  0
LINE
  8
_0-7_枠細線
  6
CONTINUOUS
 62
    5
 10
924.99999999999989
 20
473.73000000000047
 11
924.99999999999989
 21
223.73000000000002
  0
TEXT
  8
_0-7_枠細線
 62
    5
 10
1057.0000000000005
 20
253.73000000000033
 40
15.000000000000002
 41
0.5999999999999999
 50
0
  1
ブラウン
  0
LINE
  8
_0-7_枠細線
  6
CONTINUOUS
 62
    5
 10
918.52762466555521
 20
254.30604122127349
 11
911.02762466555521
 21
269.30604122127352
  0
LINE
  8
_0-7_枠細線
  6
CONTINUOUS
 62
    5
 10
903.52762466555521
 20
254.30604122127349
 11
918.52762466555521
 21
254.30604122127349
  0
LINE
  8
_0-7_枠細線
  6
CONTINUOUS
 62
    5
 10
911.02762466555521
 20
269.30604122127352
 11
903.52762466555521
 21
254.30604122127349
  0
TEXT
  8
_0-7_枠細線
 62
    5
 10
905.89277593370343
 20
253.3572212564236
 40
12.5
 41
0.8
 50
0
  1
４
  0
LINE
  8
_0-7_枠細線
  6
CONTINUOUS
 62
    5
 10
1270.7300000000005
 20
393.73000000000059
 11
1270.7300000000005
 21
473.7300000000007
  0
TEXT
  8
_0-7_枠細線
 62
    5
 10
1293.2300000000007
 20
451.2300000000007
 40
15.000000000000002
 41
1
 50
0
  1
耐荷重
  0
TEXT
  8
_0-7_枠細線
 62
    5
 10
1285.7300000000007
 20
421.23000000000059
 40
15.000000000000002
 41
1
 50
0
  1
3.5kN/㎡
  0
TEXT
  8
_0-7_枠細線
 62
    5
 10
1278.2300000000005
 20
401.23000000000059
 40
15.000000000000002
 41
1
 50
0
  1
（歩道用）
  0
LINE
  8
_0-7_枠細線
  6
CONTINUOUS
 62
    5
 10
1360.7300000000007
 20
393.73000000000059
 11
1360.7300000000007
 21
473.7300000000007
  0
LINE
  8
_0-7_枠細線
  6
CONTINUOUS
 62
    5
 10
1270.7300000000005
 20
393.73000000000059
 11
1360.7300000000007
 21
393.73000000000059
  0
LINE
  8
_0-7_枠細線
  6
CONTINUOUS
 62
    5
 10
1270.7300000000005
 20
443.7300000000007
 11
1360.7300000000007
 21
443.7300000000007
  0
LINE
  8
_0-7_枠細線
  6
CONTINUOUS
 62
    5
 10
1270.7300000000005
 20
473.7300000000007
 11
1360.7300000000007
 21
473.7300000000007
  0
LINE
  8
_0-d_寸法3
  6
CONTINUOUS
 62
    7
 10
421.96868846780541
 20
229.09093285812048
 11
421.96868846780541
 21
270.75759952478705
  0
LINE
  8
_0-d_寸法3
  6
CONTINUOUS
 62
    7
 10
421.96868846780541
 20
265.75759952478705
 11
431.62794673069607
 21
268.34578997581224
  0
LINE
  8
_0-d_寸法3
  6
CONTINUOUS
 62
    7
 10
421.96868846780541
 20
265.75759952478705
 11
431.62794673069607
 21
263.16940907376187
  0
LINE
  8
_0-d_寸法3
  6
CONTINUOUS
 62
    7
 10
450.96868846840835
 20
229.09093285812048
 11
450.96868846840835
 21
270.75759952478705
  0
LINE
  8
_0-d_寸法3
  6
CONTINUOUS
 62
    7
 10
450.96868846840835
 20
265.75759952478705
 11
441.30943020551763
 21
263.16940907376187
  0
LINE
  8
_0-d_寸法3
  6
CONTINUOUS
 62
    7
 10
450.96868846840835
 20
265.75759952478705
 11
441.30943020551769
 21
268.34578997581229
  0
LINE
  8
_0-d_寸法3
  6
CONTINUOUS
 62
    7
 10
421.96868846780541
 20
265.75759952478705
 11
450.96868846840835
 21
265.75759952478705
  0
TEXT
  8
_0-d_寸法3
 62
    7
 10
410.42251055816399
 20
250.75759952478705
 40
15
 41
1
 50
0
  1
(17.4)
  0
LINE
  8
_0-d_寸法3
  6
CONTINUOUS
 62
    7
 10
450.96868846840835
 20
265.75759952478705
 11
460.62794673129901
 21
268.34578997581218
  0
LINE
  8
_0-d_寸法3
  6
CONTINUOUS
 62
    7
 10
450.96868846840835
 20
265.75759952478705
 11
460.62794673129901
 21
263.16940907376181
  0
LINE
  8
_0-d_寸法3
  6
CONTINUOUS
 62
    7
 10
479.96868846901134
 20
229.09093285812048
 11
479.96868846901134
 21
270.75759952478705
  0
LINE
  8
_0-d_寸法3
  6
CONTINUOUS
 62
    7
 10
479.96868846901134
 20
265.75759952478705
 11
470.30943020612062
 21
263.16940907376187
  0
LINE
  8
_0-d_寸法3
  6
CONTINUOUS
 62
    7
 10
479.96868846901134
 20
265.75759952478705
 11
470.30943020612074
 21
268.34578997581229
  0
LINE
  8
_0-d_寸法3
  6
CONTINUOUS
 62
    7
 10
450.96868846840835
 20
265.75759952478705
 11
479.96868846901134
 21
265.75759952478705
  0
TEXT
  8
_0-d_寸法3
 62
    7
 10
447.48917722483071
 20
265.75759952478705
 40
15
 41
1
 50
0
  1
(17.4)
  0
LINE
  8
_0-d_寸法3
  6
CONTINUOUS
 62
    7
 10
373.4686884644434
 20
225.75759952478705
 11
373.4686884644434
 21
270.75759952478705
  0
LINE
  8
_0-d_寸法3
  6
CONTINUOUS
 62
    7
 10
373.4686884644434
 20
265.75759952478705
 11
363.80943020155263
 21
263.16940907376187
  0
LINE
  8
_0-d_寸法3
  6
CONTINUOUS
 62
    7
 10
373.4686884644434
 20
265.75759952478705
 11
363.80943020155269
 21
268.34578997581229
  0
LINE
  8
_0-d_寸法3
  6
CONTINUOUS
 62
    7
 10
383.46868846872491
 20
225.75759952478705
 11
383.46868846872491
 21
270.75759952478705
  0
LINE
  8
_0-d_寸法3
  6
CONTINUOUS
 62
    7
 10
349.09473278127643
 20
265.75759952478705
 11
383.46868846872491
 21
265.75759952478705
  0
TEXT
  8
_0-d_寸法3
 62
    7
 10
349.09473278127643
 20
250.75759952478705
 40
15
 41
1
 50
0
  1
(6)
  0
LINE
  8
_0-d_寸法3
  6
CONTINUOUS
 62
    7
 10
383.46868846872491
 20
265.75759952478705
 11
393.12794673161557
 21
268.34578997581224
  0
LINE
  8
_0-d_寸法3
  6
CONTINUOUS
 62
    7
 10
383.46868846872491
 20
265.75759952478705
 11
393.12794673161557
 21
263.16940907376187
  0
LINE
  8
_0-d_寸法3
  6
CONTINUOUS
 62
    7
 10
402.46868846504589
 20
225.75759952478705
 11
402.46868846504589
 21
270.75759952478705
  0
LINE
  8
_0-d_寸法3
  6
CONTINUOUS
 62
    7
 10
402.46868846504589
 20
265.75759952478705
 11
392.80943020215517
 21
263.16940907376187
  0
LINE
  8
_0-d_寸法3
  6
CONTINUOUS
 62
    7
 10
402.46868846504589
 20
265.75759952478705
 11
392.80943020215523
 21
268.34578997581229
  0
LINE
  8
_0-d_寸法3
  6
CONTINUOUS
 62
    7
 10
383.46868846872491
 20
265.75759952478705
 11
402.46868846504589
 21
265.75759952478705
  0
TEXT
  8
_0-d_寸法3
 62
    7
 10
374.20399204053535
 20
265.75759952478705
 40
15
 41
1
 50
0
  1
11.4
  0
ARC
  8
_0-a_極細3
  6
CONTINUOUS
 62
    7
 10
510.79809179354157
 20
207.57765036643551
 40
17.558839598481345
 50
150.03871396148173
 51
205.23810402387875
  0
ARC
  8
_0-a_極細3
  6
CONTINUOUS
 62
    7
 10
479.03261660364342
 20
192.60414115380485
 40
17.558839598481345
 50
330.03871396148202
 51
25.238104023878119
  0
ARC
  8
_0-a_極細3
  6
CONTINUOUS
 62
    7
 10
365.87827635520762
 20
207.57765036643551
 40
17.558839598481345
 50
150.03871396148173
 51
205.23810402387869
  0
ARC
  8
_0-a_極細3
  6
CONTINUOUS
 62
    7
 10
334.11280116530946
 20
192.60414115380485
 40
17.558839598481345
 50
330.03871396148202
 51
25.238104023878119
  0
ARC
  8
_0-b_細線3
  6
CONTINUOUS
 62
    7
 10
414.13535513631126
 20
215.75759952478705
 40
1.666666666666667
 50
89.999999999999915
 51
179.99999999999983
  0
ARC
  8
_0-b_細線3
  6
CONTINUOUS
 62
    7
 10
414.9152704551903
 20
219.09093285812048
 40
1.666666666666667
 50
269.99999999999977
 51
330.00000000000279
  0
ARC
  8
_0-b_細線3
  6
CONTINUOUS
 62
    7
 10
417.80202180113832
 20
217.42426619145405
 40
1.666666666666667
 50
89.999999999999915
 51
150.00000000000134
  0
LINE
  8
_0-b_細線3
  6
CONTINUOUS
 62
    7
 10
414.13535513631126
 20
217.42426619145405
 11
414.9152704551903
 21
217.42426619145405
  0
ARC
  8
_0-b_細線3
  6
CONTINUOUS
 62
    7
 10
429.80202179929933
 20
215.75759952478705
 40
1.666666666666667
 50
0
 51
89.999999999999915
  0
ARC
  8
_0-b_細線3
  6
CONTINUOUS
 62
    7
 10
429.02210648041995
 20
219.09093285812048
 40
1.666666666666667
 50
210.00000000000236
 51
269.99999999999977
  0
ARC
  8
_0-b_細線3
  6
CONTINUOUS
 62
    7
 10
426.13535513447181
 20
217.42426619145405
 40
1.666666666666667
 50
29.999999999991843
 51
89.999999999986329
  0
LINE
  8
_0-b_細線3
  6
CONTINUOUS
 62
    7
 10
429.80202179929933
 20
217.42426619145405
 11
429.02210648041995
 21
217.42426619145405
  0
ARC
  8
_0-b_細線3
  6
CONTINUOUS
 62
    7
 10
413.30202180297783
 20
213.424266191454
 40
0.8333333333333334
 50
179.99999999999983
 51
269.99999999999977
  0
LINE
  8
_0-b_細線3
  6
CONTINUOUS
 62
    7
 10
412.46868846964441
 20
215.75759952478705
 11
412.46868846964441
 21
213.424266191454
  0
ARC
  8
_0-b_細線3
  6
CONTINUOUS
 62
    7
 10
430.63535513263241
 20
213.424266191454
 40
0.8333333333333334
 50
269.99999999999977
 51
359.99999999999966
  0
LINE
  8
_0-b_細線3
  6
CONTINUOUS
 62
    7
 10
431.46868846596584
 20
215.75759952478705
 11
431.46868846596584
 21
213.424266191454
  0
ARC
  8
_0-b_細線3
  6
CONTINUOUS
 62
    7
 10
417.46868846964441
 20
210.924266191454
 40
1.666666666666667
 50
0
 51
89.999999999999915
  0
LINE
  8
_0-b_細線3
  6
CONTINUOUS
 62
    7
 10
417.46868846964441
 20
212.59093285812057
 11
413.30202180297783
 21
212.59093285812057
  0
ARC
  8
_0-b_細線3
  6
CONTINUOUS
 62
    7
 10
426.46868846964475
 20
210.924266191454
 40
1.666666666666667
 50
89.999999999999915
 51
179.99999999999983
  0
LINE
  8
_0-b_細線3
  6
CONTINUOUS
 62
    7
 10
426.46868846596584
 20
212.59093285812057
 11
430.63535513263241
 21
212.59093285812057
  0
LINE
  8
_0-b_細線3
  6
CONTINUOUS
 62
    7
 10
426.13535513447181
 20
219.09093285812048
 11
417.80202180113832
 21
219.09093285812048
  0
LINE
  8
_0-b_細線3
  6
CONTINUOUS
 62
    7
 10
419.13535513447181
 20
177.42426619145405
 11
419.13535513631126
 21
210.924266191454
  0
LINE
  8
_0-b_細線3
  6
CONTINUOUS
 62
    7
 10
424.80202180113844
 20
177.42426619145405
 11
424.80202180297823
 21
210.924266191454
  0
LINE
  8
_0-b_細線3
  6
CONTINUOUS
 62
    7
 10
424.80202180113844
 20
177.42426619145405
 11
419.13535513447181
 21
177.42426619145405
  0
ARC
  8
_0-b_細線3
  6
CONTINUOUS
 62
    7
 10
443.13535513691426
 20
215.75759952478705
 40
1.666666666666667
 50
89.999999999999915
 51
179.99999999999983
  0
ARC
  8
_0-b_細線3
  6
CONTINUOUS
 62
    7
 10
443.91527045579318
 20
219.09093285812048
 40
1.666666666666667
 50
269.99999999999977
 51
329.9999999999979
  0
ARC
  8
_0-b_細線3
  6
CONTINUOUS
 62
    7
 10
446.80202180174126
 20
217.42426619145405
 40
1.666666666666667
 50
89.999999999999915
 51
150.00000000000819
  0
LINE
  8
_0-b_細線3
  6
CONTINUOUS
 62
    7
 10
443.13535513691426
 20
217.42426619145405
 11
443.91527045579318
 21
217.42426619145405
  0
ARC
  8
_0-b_細線3
  6
CONTINUOUS
 62
    7
 10
458.80202179990226
 20
215.75759952478705
 40
1.666666666666667
 50
0
 51
89.999999999999915
  0
ARC
  8
_0-b_細線3
  6
CONTINUOUS
 62
    7
 10
458.02210648102294
 20
219.09093285812048
 40
1.666666666666667
 50
209.99999999999451
 51
269.99999999999977
  0
ARC
  8
_0-b_細線3
  6
CONTINUOUS
 62
    7
 10
455.13535513507486
 20
217.42426619145405
 40
1.666666666666667
 50
29.999999999998682
 51
89.999999999999915
  0
LINE
  8
_0-b_細線3
  6
CONTINUOUS
 62
    7
 10
458.80202179990226
 20
217.42426619145405
 11
458.02210648102294
 21
217.42426619145405
  0
ARC
  8
_0-b_細線3
  6
CONTINUOUS
 62
    7
 10
442.30202180358128
 20
213.424266191454
 40
0.8333333333333334
 50
179.99999999999983
 51
269.99999999999977
  0
LINE
  8
_0-b_細線3
  6
CONTINUOUS
 62
    7
 10
441.46868847024729
 20
215.75759952478705
 11
441.46868847024729
 21
213.424266191454
  0
ARC
  8
_0-b_細線3
  6
CONTINUOUS
 62
    7
 10
459.63535513323535
 20
213.424266191454
 40
0.8333333333333334
 50
269.99999999999977
 51
359.99999999999966
  0
LINE
  8
_0-b_細線3
  6
CONTINUOUS
 62
    7
 10
460.46868846656884
 20
215.75759952478705
 11
460.46868846656884
 21
213.424266191454
  0
ARC
  8
_0-b_細線3
  6
CONTINUOUS
 62
    7
 10
446.46868847024734
 20
210.924266191454
 40
1.666666666666667
 50
0
 51
89.999999999999915
  0
LINE
  8
_0-b_細線3
  6
CONTINUOUS
 62
    7
 10
446.46868847024734
 20
212.59093285812057
 11
442.30202180358128
 21
212.59093285812057
  0
ARC
  8
_0-b_細線3
  6
CONTINUOUS
 62
    7
 10
455.46868847024774
 20
210.924266191454
 40
1.666666666666667
 50
89.999999999999915
 51
179.99999999999983
  0
LINE
  8
_0-b_細線3
  6
CONTINUOUS
 62
    7
 10
455.46868846656884
 20
212.59093285812057
 11
459.63535513323535
 21
212.59093285812057
  0
LINE
  8
_0-b_細線3
  6
CONTINUOUS
 62
    7
 10
455.13535513507486
 20
219.09093285812048
 11
446.80202180174126
 21
219.09093285812048
  0
LINE
  8
_0-b_細線3
  6
CONTINUOUS
 62
    7
 10
448.1353551350748
 20
177.42426619145405
 11
448.13535513691426
 21
210.924266191454
  0
LINE
  8
_0-b_細線3
  6
CONTINUOUS
 62
    7
 10
453.80202180174138
 20
177.42426619145405
 11
453.80202180358117
 21
210.924266191454
  0
LINE
  8
_0-b_細線3
  6
CONTINUOUS
 62
    7
 10
453.80202180174138
 20
177.42426619145405
 11
448.1353551350748
 21
177.42426619145405
  0
ARC
  8
_0-b_細線3
  6
CONTINUOUS
 62
    7
 10
472.13535513751737
 20
215.75759952478705
 40
1.666666666666667
 50
89.999999999999915
 51
179.99999999999983
  0
ARC
  8
_0-b_細線3
  6
CONTINUOUS
 62
    7
 10
472.91527045639623
 20
219.09093285812048
 40
1.666666666666667
 50
269.99999999999977
 51
329.99999999999693
  0
ARC
  8
_0-b_細線3
  6
CONTINUOUS
 62
    7
 10
475.80202180234437
 20
217.42426619145405
 40
1.666666666666667
 50
89.999999999999915
 51
150.00000000000915
  0
LINE
  8
_0-b_細線3
  6
CONTINUOUS
 62
    7
 10
472.13535513751737
 20
217.42426619145405
 11
472.91527045639623
 21
217.42426619145405
  0
ARC
  8
_0-b_細線3
  6
CONTINUOUS
 62
    7
 10
487.80202180050537
 20
215.75759952478705
 40
1.666666666666667
 50
0
 51
89.999999999999915
  0
ARC
  8
_0-b_細線3
  6
CONTINUOUS
 62
    7
 10
487.02210648162605
 20
219.09093285812048
 40
1.666666666666667
 50
210.00000000000236
 51
269.99999999999977
  0
ARC
  8
_0-b_細線3
  6
CONTINUOUS
 62
    7
 10
484.13535513567786
 20
217.42426619145405
 40
1.666666666666667
 50
29.999999999990862
 51
89.999999999984354
  0
LINE
  8
_0-b_細線3
  6
CONTINUOUS
 62
    7
 10
487.80202180050537
 20
217.42426619145405
 11
487.02210648162605
 21
217.42426619145405
  0
ARC
  8
_0-b_細線3
  6
CONTINUOUS
 62
    7
 10
471.30202180418388
 20
213.424266191454
 40
0.8333333333333334
 50
179.99999999999983
 51
269.99999999999977
  0
LINE
  8
_0-b_細線3
  6
CONTINUOUS
 62
    7
 10
470.46868847085034
 20
215.75759952478705
 11
470.46868847085034
 21
213.424266191454
  0
ARC
  8
_0-b_細線3
  6
CONTINUOUS
 62
    7
 10
488.63535513383846
 20
213.424266191454
 40
0.8333333333333334
 50
269.99999999999977
 51
359.99999999999966
  0
LINE
  8
_0-b_細線3
  6
CONTINUOUS
 62
    7
 10
489.46868846717194
 20
215.75759952478705
 11
489.46868846717194
 21
213.424266191454
  0
ARC
  8
_0-b_細線3
  6
CONTINUOUS
 62
    7
 10
475.46868847085034
 20
210.924266191454
 40
1.666666666666667
 50
0
 51
89.999999999999915
  0
LINE
  8
_0-b_細線3
  6
CONTINUOUS
 62
    7
 10
475.46868847085034
 20
212.59093285812057
 11
471.30202180418388
 21
212.59093285812057
  0
ARC
  8
_0-b_細線3
  6
CONTINUOUS
 62
    7
 10
484.46868847085034
 20
210.924266191454
 40
1.666666666666667
 50
89.999999999999915
 51
179.99999999999983
  0
LINE
  8
_0-b_細線3
  6
CONTINUOUS
 62
    7
 10
484.46868846717143
 20
212.59093285812057
 11
488.63535513383846
 21
212.59093285812057
  0
LINE
  8
_0-b_細線3
  6
CONTINUOUS
 62
    7
 10
484.13535513567786
 20
219.09093285812048
 11
475.80202180234437
 21
219.09093285812048
  0
LINE
  8
_0-b_細線3
  6
CONTINUOUS
 62
    7
 10
477.13535513567791
 20
177.42426619145405
 11
477.13535513751737
 21
210.924266191454
  0
LINE
  8
_0-b_細線3
  6
CONTINUOUS
 62
    7
 10
482.80202180234437
 20
177.42426619145405
 11
482.80202180418428
 21
210.924266191454
  0
LINE
  8
_0-b_細線3
  6
CONTINUOUS
 62
    7
 10
482.80202180234437
 20
177.42426619145405
 11
477.13535513567791
 21
177.42426619145405
  0
ARC
  8
_0-b_細線3
  6
CONTINUOUS
 62
    7
 10
356.13535513478831
 20
215.75759952478705
 40
1.666666666666667
 50
89.999999999999915
 51
179.99999999999983
  0
ARC
  8
_0-b_細線3
  6
CONTINUOUS
 62
    7
 10
356.91527045366729
 20
219.09093285812048
 40
1.666666666666667
 50
269.99999999999977
 51
330.00000000000375
  0
ARC
  8
_0-b_細線3
  6
CONTINUOUS
 62
    7
 10
359.80202179961537
 20
217.42426619145405
 40
1.666666666666667
 50
89.999999999999915
 51
150.0000000000023
  0
LINE
  8
_0-b_細線3
  6
CONTINUOUS
 62
    7
 10
356.13535513478831
 20
217.42426619145405
 11
356.91527045366729
 21
217.42426619145405
  0
ARC
  8
_0-b_細線3
  6
CONTINUOUS
 62
    7
 10
371.80202179777638
 20
215.75759952478705
 40
1.666666666666667
 50
0
 51
89.999999999999915
  0
ARC
  8
_0-b_細線3
  6
CONTINUOUS
 62
    7
 10
371.02210647889751
 20
219.09093285812048
 40
1.666666666666667
 50
209.99999999999451
 51
269.99999999999977
  0
ARC
  8
_0-b_細線3
  6
CONTINUOUS
 62
    7
 10
368.13535513294886
 20
217.42426619145405
 40
1.666666666666667
 50
29.999999999990862
 51
89.999999999986315
  0
LINE
  8
_0-b_細線3
  6
CONTINUOUS
 62
    7
 10
371.80202179777638
 20
217.42426619145405
 11
371.02210647889751
 21
217.42426619145405
  0
ARC
  8
_0-b_細線3
  6
CONTINUOUS
 62
    7
 10
355.30202180145528
 20
213.424266191454
 40
0.8333333333333334
 50
179.99999999999983
 51
269.99999999999977
  0
LINE
  8
_0-b_細線3
  6
CONTINUOUS
 62
    7
 10
354.4686884681214
 20
215.75759952478705
 11
354.4686884681214
 21
213.424266191454
  0
ARC
  8
_0-b_細線3
  6
CONTINUOUS
 62
    7
 10
372.63535513110946
 20
213.424266191454
 40
0.8333333333333334
 50
269.99999999999977
 51
359.99999999999966
  0
LINE
  8
_0-b_細線3
  6
CONTINUOUS
 62
    7
 10
373.4686884644434
 20
215.75759952478705
 11
373.4686884644434
 21
213.424266191454
  0
ARC
  8
_0-b_細線3
  6
CONTINUOUS
 62
    7
 10
359.4686884681214
 20
210.924266191454
 40
1.666666666666667
 50
0
 51
89.999999999999915
  0
LINE
  8
_0-b_細線3
  6
CONTINUOUS
 62
    7
 10
359.4686884681214
 20
212.59093285812057
 11
355.30202180145528
 21
212.59093285812057
  0
ARC
  8
_0-b_細線3
  6
CONTINUOUS
 62
    7
 10
368.4686884681218
 20
210.924266191454
 40
1.666666666666667
 50
89.999999999999915
 51
179.99999999999983
  0
LINE
  8
_0-b_細線3
  6
CONTINUOUS
 62
    7
 10
368.46868846444289
 20
212.59093285812057
 11
372.63535513110946
 21
212.59093285812057
  0
LINE
  8
_0-b_細線3
  6
CONTINUOUS
 62
    7
 10
368.13535513294886
 20
219.09093285812048
 11
359.80202179961537
 21
219.09093285812048
  0
LINE
  8
_0-b_細線3
  6
CONTINUOUS
 62
    7
 10
361.13535513294937
 20
177.42426619145405
 11
361.13535513478831
 21
210.924266191454
  0
LINE
  8
_0-b_細線3
  6
CONTINUOUS
 62
    7
 10
366.80202179961543
 20
177.42426619145405
 11
366.80202180145528
 21
210.924266191454
  0
LINE
  8
_0-b_細線3
  6
CONTINUOUS
 62
    7
 10
366.80202179961543
 20
177.42426619145405
 11
361.13535513294937
 21
177.42426619145405
  0
ARC
  8
_0-b_細線3
  6
CONTINUOUS
 62
    7
 10
385.13535513539131
 20
215.75759952478705
 40
1.666666666666667
 50
89.999999999999915
 51
179.99999999999983
  0
ARC
  8
_0-b_細線3
  6
CONTINUOUS
 62
    7
 10
385.9152704542708
 20
219.09093285812048
 40
1.666666666666667
 50
269.99999999999977
 51
329.99999999998812
  0
ARC
  8
_0-b_細線3
  6
CONTINUOUS
 62
    7
 10
388.80202180021848
 20
217.42426619145405
 40
1.666666666666667
 50
89.999999999999915
 51
150.00000000001012
  0
LINE
  8
_0-b_細線3
  6
CONTINUOUS
 62
    7
 10
385.13535513539131
 20
217.42426619145405
 11
385.9152704542708
 21
217.42426619145405
  0
ARC
  8
_0-b_細線3
  6
CONTINUOUS
 62
    7
 10
400.80202179837949
 20
215.75759952478705
 40
1.666666666666667
 50
0
 51
89.999999999999915
  0
ARC
  8
_0-b_細線3
  6
CONTINUOUS
 62
    7
 10
400.0221064795
 20
219.09093285812048
 40
1.666666666666667
 50
210.00000000000333
 51
269.99999999999977
  0
ARC
  8
_0-b_細線3
  6
CONTINUOUS
 62
    7
 10
397.13535513355231
 20
217.42426619145405
 40
1.666666666666667
 50
29.999999999997708
 51
89.999999999999901
  0
LINE
  8
_0-b_細線3
  6
CONTINUOUS
 62
    7
 10
400.80202179837949
 20
217.42426619145405
 11
400.0221064795
 21
217.42426619145405
  0
ARC
  8
_0-b_細線3
  6
CONTINUOUS
 62
    7
 10
384.30202180205833
 20
213.424266191454
 40
0.8333333333333334
 50
179.99999999999983
 51
269.99999999999977
  0
LINE
  8
_0-b_細線3
  6
CONTINUOUS
 62
    7
 10
383.46868846872491
 20
215.75759952478705
 11
383.46868846872491
 21
213.424266191454
  0
ARC
  8
_0-b_細線3
  6
CONTINUOUS
 62
    7
 10
401.6353551317124
 20
213.424266191454
 40
0.8333333333333334
 50
269.99999999999977
 51
359.99999999999966
  0
LINE
  8
_0-b_細線3
  6
CONTINUOUS
 62
    7
 10
402.46868846504589
 20
215.75759952478705
 11
402.46868846504589
 21
213.424266191454
  0
ARC
  8
_0-b_細線3
  6
CONTINUOUS
 62
    7
 10
388.46868846872491
 20
210.924266191454
 40
1.666666666666667
 50
0
 51
89.999999999999915
  0
LINE
  8
_0-b_細線3
  6
CONTINUOUS
 62
    7
 10
388.46868846872491
 20
212.59093285812057
 11
384.30202180205833
 21
212.59093285812057
  0
ARC
  8
_0-b_細線3
  6
CONTINUOUS
 62
    7
 10
397.46868846872479
 20
210.924266191454
 40
1.666666666666667
 50
89.999999999999915
 51
179.99999999999983
  0
LINE
  8
_0-b_細線3
  6
CONTINUOUS
 62
    7
 10
397.46868846504589
 20
212.59093285812057
 11
401.6353551317124
 21
212.59093285812057
  0
LINE
  8
_0-b_細線3
  6
CONTINUOUS
 62
    7
 10
397.13535513355231
 20
219.09093285812048
 11
388.80202180021848
 21
219.09093285812048
  0
LINE
  8
_0-b_細線3
  6
CONTINUOUS
 62
    7
 10
390.13535513355185
 20
177.42426619145405
 11
390.13535513539131
 21
210.924266191454
  0
LINE
  8
_0-b_細線3
  6
CONTINUOUS
 62
    7
 10
395.80202180021894
 20
177.42426619145405
 11
395.80202180205839
 21
210.924266191454
  0
LINE
  8
_0-b_細線3
  6
CONTINUOUS
 62
    7
 10
395.80202180021894
 20
177.42426619145405
 11
390.13535513355185
 21
177.42426619145405
  0
LINE
  8
_0-d_寸法3
  6
CONTINUOUS
 62
    7
 10
488.16020891221734
 20
183.16003055496452
 11
523.51255063790279
 21
207.91400672465528
  0
LINE
  8
_0-d_寸法3
  6
CONTINUOUS
 62
    7
 10
519.41679041645784
 20
205.0461245429
 11
516.82859996543266
 21
214.70538280579069
  0
LINE
  8
_0-d_寸法3
  6
CONTINUOUS
 62
    7
 10
519.41679041645784
 20
205.0461245429
 11
522.00498086748303
 21
214.70538280579069
  0
LINE
  8
_0-d_寸法3
  6
CONTINUOUS
 62
    7
 10
488.16020891221734
 20
224.82669722163098
 11
523.51255063790279
 21
249.58067339132182
  0
LINE
  8
_0-d_寸法3
  6
CONTINUOUS
 62
    7
 10
519.41679041645784
 20
246.71279120956655
 11
522.00498086748303
 21
237.05353294667589
  0
LINE
  8
_0-d_寸法3
  6
CONTINUOUS
 62
    7
 10
519.41679041645784
 20
246.71279120956655
 11
516.82859996543255
 21
237.05353294667589
  0
LINE
  8
_0-d_寸法3
  6
CONTINUOUS
 62
    7
 10
519.41679041645784
 20
205.0461245429
 11
519.41679041645784
 21
246.71279120956655
  0
TEXT
  8
_0-d_寸法3
 62
    7
 10
519.41679041645784
 20
218.3794578762344
 40
15
 41
1
 50
90
  1
25
  0
LINE
  8
_0-a_極細3
  6
CENTER1
 62
    7
 10
500.76745545810127
 20
200.42426619145374
 11
338.18891283017541
 21
200.42426619145374
  0
LINE
  8
_0-b_細線3
  6
CONTINUOUS
 62
    7
 10
424.80202180205828
 20
189.5909328581206
 11
448.13535513539171
 21
189.5909328581206
  0
LINE
  8
_0-b_細線3
  6
CONTINUOUS
 62
    7
 10
453.80202180266133
 20
189.5909328581206
 11
477.13535513599481
 21
189.5909328581206
  0
LINE
  8
_0-b_細線3
  6
CONTINUOUS
 62
    7
 10
366.80202180053533
 20
189.5909328581206
 11
390.13535513386893
 21
189.5909328581206
  0
LINE
  8
_0-b_細線3
  6
CONTINUOUS
 62
    7
 10
395.80202180113878
 20
189.5909328581206
 11
419.13535513447181
 21
189.5909328581206
  0
LINE
  8
_0-b_細線3
  6
CONTINUOUS
 62
    7
 10
424.80202180205828
 20
211.25759952478731
 11
448.13535513539171
 21
211.25759952478731
  0
LINE
  8
_0-b_細線3
  6
CONTINUOUS
 62
    7
 10
453.80202180266133
 20
211.25759952478731
 11
477.13535513599481
 21
211.25759952478731
  0
LINE
  8
_0-b_細線3
  6
CONTINUOUS
 62
    7
 10
366.80202180053533
 20
211.25759952478731
 11
390.13535513386893
 21
211.25759952478731
  0
LINE
  8
_0-b_細線3
  6
CONTINUOUS
 62
    7
 10
395.80202180113878
 20
211.25759952478731
 11
419.13535513447181
 21
211.25759952478731
  0
LINE
  8
_0-b_細線3
  6
CONTINUOUS
 62
    7
 10
482.80202180326432
 20
211.25759952478731
 11
493.56111819406442
 21
211.25759952478731
  0
LINE
  8
_0-b_細線3
  6
CONTINUOUS
 62
    7
 10
482.80202180326432
 20
189.5909328581206
 11
496.26959020312057
 21
189.5909328581206
  0
LINE
  8
_0-b_細線3
  6
CONTINUOUS
 62
    7
 10
348.64130275573046
 20
211.25759952478731
 11
361.13535513326582
 21
211.25759952478731
  0
LINE
  8
_0-b_細線3
  6
CONTINUOUS
 62
    7
 10
351.34977476478662
 20
189.5909328581206
 11
361.13535513326582
 21
189.5909328581206
  0
TEXT
  8
_0-7_枠細線
 62
    5
 10
382.23535513355148
 20
128.5404661036894
 40
25.000000000000004
 41
0.8
 50
0
  1
断面詳細
  0
TEXT
  8
_0-7_枠細線
 62
    5
 10
487.18432488271958
 20
131.49990592400917
 40
20
 41
0.6
 50
0
  1
Ｓ＝１：３
  0
LINE
  8
_0-1_計細線
  6
CONTINUOUS
 62
    3
 10
630.65569731883693
 20
733.58920897572625
 11
276.65569731883647
 21
733.58920897572625
  0
LINE
  8
_0-1_計細線
  6
CONTINUOUS
 62
    3
 10
276.65569731883647
 20
379.58920897572466
 11
630.65569731883693
 21
379.58920897572466
  0
LINE
  8
_0-1_計細線
  6
CONTINUOUS
 62
    3
 10
630.65569731883693
 20
379.58920897572466
 11
630.65569731883693
 21
733.58920897572625
  0
LINE
  8
_0-1_計細線
  6
CONTINUOUS
 62
    3
 10
276.65569731883647
 20
733.58920897572625
 11
276.65569731883647
 21
379.58920897572466
  0
LINE
  8
_0-5_寸法線
  6
CONTINUOUS
 62
    7
 10
263.65569731883653
 20
731.58920897572625
 11
218.65569731883653
 21
731.58920897572625
  0
LINE
  8
_0-5_寸法線
  6
CONTINUOUS
 62
    7
 10
223.65569731883653
 20
731.58920897572625
 11
226.24388776986166
 21
721.92995071283565
  0
LINE
  8
_0-5_寸法線
  6
CONTINUOUS
 62
    7
 10
223.65569731883653
 20
731.58920897572625
 11
221.06750686781126
 21
721.92995071283565
  0
LINE
  8
_0-5_寸法線
  6
CONTINUOUS
 62
    7
 10
263.65569731883653
 20
381.58920897572523
 11
218.65569731883653
 21
381.58920897572511
  0
LINE
  8
_0-5_寸法線
  6
CONTINUOUS
 62
    7
 10
223.65569731883653
 20
381.58920897572511
 11
221.06750686781126
 21
391.24846723861583
  0
LINE
  8
_0-5_寸法線
  6
CONTINUOUS
 62
    7
 10
223.65569731883653
 20
381.58920897572511
 11
226.24388776986166
 21
391.24846723861583
  0
LINE
  8
_0-5_寸法線
  6
CONTINUOUS
 62
    7
 10
223.65569731883653
 20
731.58920897572625
 11
223.65569731883653
 21
381.58920897572511
  0
TEXT
  8
_0-5_寸法線
 62
    7
 10
223.65569731883647
 20
545.3392089757258
 40
15
 41
1
 50
89.999999999999815
  1
350
  0
LINE
  8
_0-5_寸法線
  6
CONTINUOUS
 62
    7
 10
263.65569731883653
 20
376.58920897572466
 11
148.65569731883659
 21
376.589208975725
  0
LINE
  8
_0-5_寸法線
  6
CONTINUOUS
 62
    7
 10
153.65569731883659
 20
376.589208975725
 11
151.0675068678114
 21
386.24846723861566
  0
LINE
  8
_0-5_寸法線
  6
CONTINUOUS
 62
    7
 10
153.65569731883659
 20
376.589208975725
 11
156.2438877698618
 21
386.24846723861566
  0
LINE
  8
_0-5_寸法線
  6
CONTINUOUS
 62
    7
 10
263.65569731883693
 20
736.58920897572671
 11
148.65569731883659
 21
736.58920897572716
  0
LINE
  8
_0-5_寸法線
  6
CONTINUOUS
 62
    7
 10
153.65569731883659
 20
736.58920897572716
 11
156.2438877698618
 21
726.92995071283644
  0
LINE
  8
_0-5_寸法線
  6
CONTINUOUS
 62
    7
 10
153.65569731883659
 20
736.58920897572716
 11
151.0675068678114
 21
726.92995071283644
  0
LINE
  8
_0-5_寸法線
  6
CONTINUOUS
 62
    7
 10
153.65569731883659
 20
376.589208975725
 11
153.65569731883659
 21
736.58920897572716
  0
TEXT
  8
_0-5_寸法線
 62
    7
 10
153.65569731883647
 20
545.33920897572602
 40
15
 41
1
 50
89.999999999999815
  1
360
  0
LINE
  8
_0-5_寸法線
  6
CONTINUOUS
 62
    7
 10
188.65569731883653
 20
376.58920897572494
 11
191.24388776986166
 21
366.92995071283417
  0
LINE
  8
_0-5_寸法線
  6
CONTINUOUS
 62
    7
 10
188.65569731883653
 20
376.58920897572494
 11
186.06750686781126
 21
366.92995071283428
  0
LINE
  8
_0-5_寸法線
  6
CONTINUOUS
 62
    7
 10
263.65569731883653
 20
379.58920897572466
 11
183.65569731883653
 21
379.58920897572489
  0
LINE
  8
_0-5_寸法線
  6
CONTINUOUS
 62
    7
 10
188.65569731883653
 20
351.58920897572494
 11
188.65569731883653
 21
379.58920897572489
  0
TEXT
  8
_0-5_寸法線
 62
    7
 10
188.65569731883653
 20
354.94256714685486
 40
15
 41
1
 50
90
  1
3
  0
LINE
  8
_0-5_寸法線
  6
CONTINUOUS
 62
    7
 10
188.65569731883653
 20
379.58920897572489
 11
186.06750686781126
 21
389.24846723861555
  0
LINE
  8
_0-5_寸法線
  6
CONTINUOUS
 62
    7
 10
188.65569731883653
 20
379.58920897572489
 11
191.24388776986166
 21
389.24846723861555
  0
LINE
  8
_0-5_寸法線
  6
CONTINUOUS
 62
    7
 10
263.65569731883693
 20
733.58920897572671
 11
183.65569731883653
 21
733.58920897572705
  0
LINE
  8
_0-5_寸法線
  6
CONTINUOUS
 62
    7
 10
188.65569731883653
 20
733.58920897572705
 11
191.24388776986166
 21
723.92995071283622
  0
LINE
  8
_0-5_寸法線
  6
CONTINUOUS
 62
    7
 10
188.65569731883653
 20
733.58920897572705
 11
186.06750686781126
 21
723.92995071283622
  0
LINE
  8
_0-5_寸法線
  6
CONTINUOUS
 62
    7
 10
188.65569731883653
 20
379.58920897572489
 11
188.65569731883653
 21
733.58920897572705
  0
TEXT
  8
_0-5_寸法線
 62
    7
 10
188.65569731883647
 20
545.3392089757258
 40
15
 41
1
 50
89.999999999999815
  1
354
  0
LINE
  8
_0-5_寸法線
  6
CONTINUOUS
 62
    7
 10
188.65569731883653
 20
736.58920897572693
 11
186.06750686781126
 21
746.24846723861765
  0
LINE
  8
_0-5_寸法線
  6
CONTINUOUS
 62
    7
 10
188.65569731883653
 20
736.58920897572693
 11
191.24388776986166
 21
746.24846723861765
  0
LINE
  8
_0-5_寸法線
  6
CONTINUOUS
 62
    7
 10
188.65569731883653
 20
733.58920897572705
 11
188.65569731883653
 21
761.58920897572693
  0
TEXT
  8
_0-5_寸法線
 62
    7
 10
188.65569731883653
 20
750.85497590597856
 40
15
 41
1
 50
90
  1
3
  0
LINE
  8
_0-1_計細線
  6
CONTINUOUS
 62
    3
 10
273.65569731883653
 20
376.58920897572466
 11
273.65569731883653
 21
736.58920897572625
  0
LINE
  8
_0-1_計細線
  6
CONTINUOUS
 62
    3
 10
273.65569731883653
 20
736.58920897572625
 11
633.65569731883693
 21
736.58920897572625
  0
LINE
  8
_0-1_計細線
  6
CONTINUOUS
 62
    3
 10
633.65569731883693
 20
736.58920897572625
 11
633.65569731883693
 21
376.58920897572466
  0
LINE
  8
_0-1_計細線
  6
CONTINUOUS
 62
    3
 10
633.65569731883693
 20
376.58920897572466
 11
273.65569731883653
 21
376.58920897572466
  0
LINE
  8
_0-0_計極細
  6
CONTINUOUS
 62
    2
 10
376.15569731883647
 20
550.88920897572098
 11
376.15569731883647
 21
545.28920897572107
  0
LINE
  8
_0-0_計極細
  6
CONTINUOUS
 62
    2
 10
389.15569731883647
 20
550.88920897572098
 11
389.15569731883647
 21
545.28920897572107
  0
LINE
  8
_0-0_計極細
  6
CONTINUOUS
 62
    2
 10
376.15569731883647
 20
584.88920897572234
 11
376.15569731883647
 21
579.28920897572243
  0
LINE
  8
_0-0_計極細
  6
CONTINUOUS
 62
    2
 10
389.15569731883647
 20
584.88920897572234
 11
389.15569731883647
 21
579.28920897572243
  0
LINE
  8
_0-0_計極細
  6
CONTINUOUS
 62
    2
 10
376.15569731883647
 20
601.88920897572325
 11
376.15569731883647
 21
596.28920897572289
  0
LINE
  8
_0-0_計極細
  6
CONTINUOUS
 62
    2
 10
389.15569731883647
 20
601.88920897572325
 11
389.15569731883647
 21
596.28920897572289
  0
LINE
  8
_0-0_計極細
  6
CONTINUOUS
 62
    2
 10
376.15569731883647
 20
618.8892089757237
 11
376.15569731883647
 21
613.2892089757238
  0
LINE
  8
_0-0_計極細
  6
CONTINUOUS
 62
    2
 10
389.15569731883647
 20
618.8892089757237
 11
389.15569731883647
 21
613.2892089757238
  0
LINE
  8
_0-0_計極細
  6
CONTINUOUS
 62
    2
 10
376.15569731883647
 20
635.8892089757228
 11
376.15569731883647
 21
630.28920897572289
  0
LINE
  8
_0-0_計極細
  6
CONTINUOUS
 62
    2
 10
389.15569731883647
 20
635.8892089757228
 11
389.15569731883647
 21
630.28920897572289
  0
LINE
  8
_0-0_計極細
  6
CONTINUOUS
 62
    2
 10
376.15569731883647
 20
652.889208975722
 11
376.15569731883647
 21
647.28920897572198
  0
LINE
  8
_0-0_計極細
  6
CONTINUOUS
 62
    2
 10
389.15569731883647
 20
652.889208975722
 11
389.15569731883647
 21
647.28920897572198
  0
LINE
  8
_0-0_計極細
  6
CONTINUOUS
 62
    2
 10
376.15569731883647
 20
669.88920897572098
 11
376.15569731883647
 21
664.28920897572107
  0
LINE
  8
_0-0_計極細
  6
CONTINUOUS
 62
    2
 10
389.15569731883647
 20
669.88920897572098
 11
389.15569731883647
 21
664.28920897572107
  0
LINE
  8
_0-0_計極細
  6
CONTINUOUS
 62
    2
 10
376.15569731883647
 20
686.88920897572007
 11
376.15569731883647
 21
681.28920897572016
  0
LINE
  8
_0-0_計極細
  6
CONTINUOUS
 62
    2
 10
389.15569731883647
 20
686.88920897572007
 11
389.15569731883647
 21
681.28920897572016
  0
LINE
  8
_0-0_計極細
  6
CONTINUOUS
 62
    2
 10
376.15569731883647
 20
703.58920897572307
 11
376.15569731883647
 21
698.28920897572334
  0
LINE
  8
_0-0_計極細
  6
CONTINUOUS
 62
    2
 10
389.15569731883647
 20
703.58920897572307
 11
389.15569731883647
 21
698.28920897572334
  0
LINE
  8
_0-0_計極細
  6
CONTINUOUS
 62
    2
 10
376.15569731883647
 20
720.18920897572218
 11
376.15569731883647
 21
714.98920897572236
  0
LINE
  8
_0-0_計極細
  6
CONTINUOUS
 62
    2
 10
389.15569731883647
 20
720.18920897572218
 11
389.15569731883647
 21
714.98920897572236
  0
LINE
  8
_0-0_計極細
  6
CONTINUOUS
 62
    2
 10
376.15569731883647
 20
528.28920897572016
 11
376.15569731883647
 21
533.88920897572007
  0
LINE
  8
_0-0_計極細
  6
CONTINUOUS
 62
    2
 10
389.15569731883647
 20
528.28920897572016
 11
389.15569731883647
 21
533.88920897572007
  0
LINE
  8
_0-0_計極細
  6
CONTINUOUS
 62
    2
 10
376.15569731883647
 20
511.2892089757193
 11
376.15569731883647
 21
516.88920897571961
  0
LINE
  8
_0-0_計極細
  6
CONTINUOUS
 62
    2
 10
389.15569731883647
 20
511.2892089757193
 11
389.15569731883647
 21
516.88920897571961
  0
LINE
  8
_0-0_計極細
  6
CONTINUOUS
 62
    2
 10
376.15569731883647
 20
494.28920897571885
 11
376.15569731883647
 21
499.8892089757187
  0
LINE
  8
_0-0_計極細
  6
CONTINUOUS
 62
    2
 10
389.15569731883647
 20
494.28920897571885
 11
389.15569731883647
 21
499.8892089757187
  0
LINE
  8
_0-0_計極細
  6
CONTINUOUS
 62
    2
 10
376.15569731883647
 20
477.28920897571976
 11
376.15569731883647
 21
482.88920897571961
  0
LINE
  8
_0-0_計極細
  6
CONTINUOUS
 62
    2
 10
389.15569731883647
 20
477.28920897571976
 11
389.15569731883647
 21
482.88920897571961
  0
LINE
  8
_0-0_計極細
  6
CONTINUOUS
 62
    2
 10
376.15569731883647
 20
460.28920897572061
 11
376.15569731883647
 21
465.88920897572052
  0
LINE
  8
_0-0_計極細
  6
CONTINUOUS
 62
    2
 10
389.15569731883647
 20
460.28920897572061
 11
389.15569731883647
 21
465.88920897572052
  0
LINE
  8
_0-0_計極細
  6
CONTINUOUS
 62
    2
 10
376.15569731883647
 20
443.28920897572152
 11
376.15569731883647
 21
448.88920897572149
  0
LINE
  8
_0-0_計極細
  6
CONTINUOUS
 62
    2
 10
389.15569731883647
 20
443.28920897572152
 11
389.15569731883647
 21
448.88920897572149
  0
LINE
  8
_0-0_計極細
  6
CONTINUOUS
 62
    2
 10
376.15569731883647
 20
426.28920897572243
 11
376.15569731883647
 21
431.8892089757224
  0
LINE
  8
_0-0_計極細
  6
CONTINUOUS
 62
    2
 10
389.15569731883647
 20
426.28920897572243
 11
389.15569731883647
 21
431.8892089757224
  0
LINE
  8
_0-0_計極細
  6
CONTINUOUS
 62
    2
 10
376.15569731883647
 20
409.58920897571943
 11
376.15569731883647
 21
414.88920897571916
  0
LINE
  8
_0-0_計極細
  6
CONTINUOUS
 62
    2
 10
389.15569731883647
 20
409.58920897571943
 11
389.15569731883647
 21
414.88920897571916
  0
LINE
  8
_0-0_計極細
  6
CONTINUOUS
 62
    2
 10
376.15569731883647
 20
392.98920897572043
 11
376.15569731883647
 21
398.18920897572025
  0
LINE
  8
_0-0_計極細
  6
CONTINUOUS
 62
    2
 10
389.15569731883647
 20
392.98920897572043
 11
389.15569731883647
 21
398.18920897572025
  0
LINE
  8
_0-0_計極細
  6
CENTER1
 62
    2
 10
382.65569731883653
 20
740.339928400188
 11
382.65569731883653
 21
374.03138523470898
  0
LINE
  8
_0-1_計細線
  6
CONTINUOUS
 62
    3
 10
337.65569731883602
 20
562.73920897572179
 11
396.65569731883608
 21
562.73920897572179
  0
LINE
  8
_0-1_計細線
  6
CONTINUOUS
 62
    3
 10
396.65569731883608
 20
567.43920897572161
 11
337.65569731883602
 21
567.43920897572161
  0
LINE
  8
_0-1_計細線
  6
CONTINUOUS
 62
    3
 10
337.65569731883602
 20
567.43920897572161
 11
337.65569731883602
 21
562.73920897572179
  0
LINE
  8
_0-1_計細線
  6
CONTINUOUS
 62
    3
 10
386.65569731883608
 20
567.43920897572161
 11
386.65569731883608
 21
562.73920897572179
  0
LINE
  8
_0-1_計細線
  6
CONTINUOUS
 62
    3
 10
394.65569731883602
 20
567.43920897572161
 11
394.65569731883602
 21
562.73920897572179
  0
LINE
  8
_0-1_計細線
  6
CONTINUOUS
 62
    3
 10
396.65569731883608
 20
567.43920897572161
 11
396.65569731883608
 21
562.73920897572179
  0
LINE
  8
_0-1_計細線
  6
CONTINUOUS
 62
    3
 10
392.65569731883602
 20
567.43920897572161
 11
392.65569731883602
 21
562.73920897572179
  0
LINE
  8
_0-1_計細線
  6
CONTINUOUS
 62
    3
 10
390.65569731883608
 20
567.43920897572161
 11
390.65569731883608
 21
562.73920897572179
  0
LINE
  8
_0-1_計細線
  6
CONTINUOUS
 62
    3
 10
388.65569731883602
 20
567.43920897572161
 11
388.65569731883602
 21
562.73920897572179
  0
LINE
  8
_0-0_計極細
  6
CONTINUOUS
 62
    2
 10
376.15569731883647
 20
567.88920897572189
 11
376.15569731883647
 21
567.43920897572161
  0
LINE
  8
_0-0_計極細
  6
CONTINUOUS
 62
    2
 10
376.15569731883647
 20
562.73920897572179
 11
376.15569731883647
 21
562.28920897572152
  0
LINE
  8
_0-0_計極細
  6
CONTINUOUS
 62
    2
 10
389.15569731883647
 20
567.88920897572189
 11
389.15569731883647
 21
567.43920897572161
  0
LINE
  8
_0-0_計極細
  6
CONTINUOUS
 62
    2
 10
389.15569731883647
 20
562.73920897572179
 11
389.15569731883647
 21
562.28920897572152
  0
LINE
  8
_0-0_計極細
  6
CONTINUOUS
 62
    2
 10
473.15569731883647
 20
550.88920897572098
 11
473.15569731883647
 21
545.28920897572107
  0
LINE
  8
_0-0_計極細
  6
CONTINUOUS
 62
    2
 10
486.15569731883653
 20
550.88920897572098
 11
486.15569731883653
 21
545.28920897572107
  0
LINE
  8
_0-0_計極細
  6
CONTINUOUS
 62
    2
 10
473.15569731883647
 20
567.88920897572189
 11
473.15569731883647
 21
562.28920897572152
  0
LINE
  8
_0-0_計極細
  6
CONTINUOUS
 62
    2
 10
486.15569731883653
 20
567.88920897572189
 11
486.15569731883653
 21
562.28920897572152
  0
LINE
  8
_0-0_計極細
  6
CONTINUOUS
 62
    2
 10
473.15569731883647
 20
584.88920897572234
 11
473.15569731883647
 21
579.28920897572243
  0
LINE
  8
_0-0_計極細
  6
CONTINUOUS
 62
    2
 10
486.15569731883653
 20
584.88920897572234
 11
486.15569731883653
 21
579.28920897572243
  0
LINE
  8
_0-0_計極細
  6
CONTINUOUS
 62
    2
 10
473.15569731883647
 20
601.88920897572325
 11
473.15569731883647
 21
596.28920897572289
  0
LINE
  8
_0-0_計極細
  6
CONTINUOUS
 62
    2
 10
486.15569731883653
 20
601.88920897572325
 11
486.15569731883653
 21
596.28920897572289
  0
LINE
  8
_0-0_計極細
  6
CONTINUOUS
 62
    2
 10
473.15569731883647
 20
618.8892089757237
 11
473.15569731883647
 21
613.2892089757238
  0
LINE
  8
_0-0_計極細
  6
CONTINUOUS
 62
    2
 10
486.15569731883653
 20
618.8892089757237
 11
486.15569731883653
 21
613.2892089757238
  0
LINE
  8
_0-0_計極細
  6
CONTINUOUS
 62
    2
 10
473.15569731883647
 20
635.8892089757228
 11
473.15569731883647
 21
630.28920897572289
  0
LINE
  8
_0-0_計極細
  6
CONTINUOUS
 62
    2
 10
486.15569731883653
 20
635.8892089757228
 11
486.15569731883653
 21
630.28920897572289
  0
LINE
  8
_0-0_計極細
  6
CONTINUOUS
 62
    2
 10
473.15569731883647
 20
652.889208975722
 11
473.15569731883647
 21
647.28920897572198
  0
LINE
  8
_0-0_計極細
  6
CONTINUOUS
 62
    2
 10
486.15569731883653
 20
652.889208975722
 11
486.15569731883653
 21
647.28920897572198
  0
LINE
  8
_0-0_計極細
  6
CONTINUOUS
 62
    2
 10
473.15569731883647
 20
669.88920897572098
 11
473.15569731883647
 21
664.28920897572107
  0
LINE
  8
_0-0_計極細
  6
CONTINUOUS
 62
    2
 10
486.15569731883653
 20
669.88920897572098
 11
486.15569731883653
 21
664.28920897572107
  0
LINE
  8
_0-0_計極細
  6
CONTINUOUS
 62
    2
 10
473.15569731883647
 20
686.88920897572007
 11
473.15569731883647
 21
681.28920897572016
  0
LINE
  8
_0-0_計極細
  6
CONTINUOUS
 62
    2
 10
486.15569731883653
 20
686.88920897572007
 11
486.15569731883653
 21
681.28920897572016
  0
LINE
  8
_0-0_計極細
  6
CONTINUOUS
 62
    2
 10
473.15569731883647
 20
703.58920897572307
 11
473.15569731883647
 21
698.28920897572334
  0
LINE
  8
_0-0_計極細
  6
CONTINUOUS
 62
    2
 10
486.15569731883653
 20
703.58920897572307
 11
486.15569731883653
 21
698.28920897572334
  0
LINE
  8
_0-0_計極細
  6
CONTINUOUS
 62
    2
 10
473.15569731883647
 20
720.18920897572218
 11
473.15569731883647
 21
714.98920897572236
  0
LINE
  8
_0-0_計極細
  6
CONTINUOUS
 62
    2
 10
486.15569731883653
 20
720.18920897572218
 11
486.15569731883653
 21
714.98920897572236
  0
LINE
  8
_0-0_計極細
  6
CONTINUOUS
 62
    2
 10
473.15569731883647
 20
528.28920897572016
 11
473.15569731883647
 21
533.88920897572007
  0
LINE
  8
_0-0_計極細
  6
CONTINUOUS
 62
    2
 10
486.15569731883653
 20
528.28920897572016
 11
486.15569731883653
 21
533.88920897572007
  0
LINE
  8
_0-0_計極細
  6
CONTINUOUS
 62
    2
 10
473.15569731883647
 20
511.2892089757193
 11
473.15569731883647
 21
516.88920897571961
  0
LINE
  8
_0-0_計極細
  6
CONTINUOUS
 62
    2
 10
486.15569731883653
 20
511.2892089757193
 11
486.15569731883653
 21
516.88920897571961
  0
LINE
  8
_0-0_計極細
  6
CONTINUOUS
 62
    2
 10
473.15569731883647
 20
494.28920897571885
 11
473.15569731883647
 21
499.8892089757187
  0
LINE
  8
_0-0_計極細
  6
CONTINUOUS
 62
    2
 10
486.15569731883653
 20
494.28920897571885
 11
486.15569731883653
 21
499.8892089757187
  0
LINE
  8
_0-0_計極細
  6
CONTINUOUS
 62
    2
 10
473.15569731883647
 20
477.28920897571976
 11
473.15569731883647
 21
482.88920897571961
  0
LINE
  8
_0-0_計極細
  6
CONTINUOUS
 62
    2
 10
486.15569731883653
 20
477.28920897571976
 11
486.15569731883653
 21
482.88920897571961
  0
LINE
  8
_0-0_計極細
  6
CONTINUOUS
 62
    2
 10
473.15569731883647
 20
460.28920897572061
 11
473.15569731883647
 21
465.88920897572052
  0
LINE
  8
_0-0_計極細
  6
CONTINUOUS
 62
    2
 10
486.15569731883653
 20
460.28920897572061
 11
486.15569731883653
 21
465.88920897572052
  0
LINE
  8
_0-0_計極細
  6
CONTINUOUS
 62
    2
 10
473.15569731883647
 20
443.28920897572152
 11
473.15569731883647
 21
448.88920897572149
  0
LINE
  8
_0-0_計極細
  6
CONTINUOUS
 62
    2
 10
486.15569731883653
 20
443.28920897572152
 11
486.15569731883653
 21
448.88920897572149
  0
LINE
  8
_0-0_計極細
  6
CONTINUOUS
 62
    2
 10
473.15569731883647
 20
426.28920897572243
 11
473.15569731883647
 21
431.8892089757224
  0
LINE
  8
_0-0_計極細
  6
CONTINUOUS
 62
    2
 10
486.15569731883653
 20
426.28920897572243
 11
486.15569731883653
 21
431.8892089757224
  0
LINE
  8
_0-0_計極細
  6
CONTINUOUS
 62
    2
 10
473.15569731883647
 20
409.58920897571943
 11
473.15569731883647
 21
414.88920897571916
  0
LINE
  8
_0-0_計極細
  6
CONTINUOUS
 62
    2
 10
486.15569731883653
 20
409.58920897571943
 11
486.15569731883653
 21
414.88920897571916
  0
LINE
  8
_0-0_計極細
  6
CONTINUOUS
 62
    2
 10
473.15569731883647
 20
392.98920897572043
 11
473.15569731883647
 21
398.18920897572025
  0
LINE
  8
_0-0_計極細
  6
CONTINUOUS
 62
    2
 10
486.15569731883653
 20
392.98920897572043
 11
486.15569731883653
 21
398.18920897572025
  0
LINE
  8
_0-0_計極細
  6
CENTER1
 62
    2
 10
479.65569731883647
 20
740.339928400188
 11
479.65569731883647
 21
374.03138523470898
  0
LINE
  8
_0-0_計極細
  6
CONTINUOUS
 62
    2
 10
518.15569731883647
 20
550.88920897572098
 11
518.15569731883647
 21
545.28920897572107
  0
LINE
  8
_0-0_計極細
  6
CONTINUOUS
 62
    2
 10
531.15569731883647
 20
550.88920897572098
 11
531.15569731883647
 21
545.28920897572107
  0
LINE
  8
_0-0_計極細
  6
CONTINUOUS
 62
    2
 10
518.15569731883647
 20
567.88920897572189
 11
518.15569731883647
 21
562.28920897572152
  0
LINE
  8
_0-0_計極細
  6
CONTINUOUS
 62
    2
 10
531.15569731883647
 20
567.88920897572189
 11
531.15569731883647
 21
562.28920897572152
  0
LINE
  8
_0-0_計極細
  6
CONTINUOUS
 62
    2
 10
518.15569731883647
 20
584.88920897572234
 11
518.15569731883647
 21
579.28920897572243
  0
LINE
  8
_0-0_計極細
  6
CONTINUOUS
 62
    2
 10
531.15569731883647
 20
584.88920897572234
 11
531.15569731883647
 21
579.28920897572243
  0
LINE
  8
_0-0_計極細
  6
CONTINUOUS
 62
    2
 10
518.15569731883647
 20
601.88920897572325
 11
518.15569731883647
 21
596.28920897572289
  0
LINE
  8
_0-0_計極細
  6
CONTINUOUS
 62
    2
 10
531.15569731883647
 20
601.88920897572325
 11
531.15569731883647
 21
596.28920897572289
  0
LINE
  8
_0-0_計極細
  6
CONTINUOUS
 62
    2
 10
518.15569731883647
 20
618.8892089757237
 11
518.15569731883647
 21
613.2892089757238
  0
LINE
  8
_0-0_計極細
  6
CONTINUOUS
 62
    2
 10
531.15569731883647
 20
618.8892089757237
 11
531.15569731883647
 21
613.2892089757238
  0
LINE
  8
_0-0_計極細
  6
CONTINUOUS
 62
    2
 10
518.15569731883647
 20
635.8892089757228
 11
518.15569731883647
 21
630.28920897572289
  0
LINE
  8
_0-0_計極細
  6
CONTINUOUS
 62
    2
 10
531.15569731883647
 20
635.8892089757228
 11
531.15569731883647
 21
630.28920897572289
  0
LINE
  8
_0-0_計極細
  6
CONTINUOUS
 62
    2
 10
518.15569731883647
 20
652.889208975722
 11
518.15569731883647
 21
647.28920897572198
  0
LINE
  8
_0-0_計極細
  6
CONTINUOUS
 62
    2
 10
531.15569731883647
 20
652.889208975722
 11
531.15569731883647
 21
647.28920897572198
  0
LINE
  8
_0-0_計極細
  6
CONTINUOUS
 62
    2
 10
518.15569731883647
 20
669.88920897572098
 11
518.15569731883647
 21
664.28920897572107
  0
LINE
  8
_0-0_計極細
  6
CONTINUOUS
 62
    2
 10
531.15569731883647
 20
669.88920897572098
 11
531.15569731883647
 21
664.28920897572107
  0
LINE
  8
_0-0_計極細
  6
CONTINUOUS
 62
    2
 10
518.15569731883647
 20
686.88920897572007
 11
518.15569731883647
 21
681.28920897572016
  0
LINE
  8
_0-0_計極細
  6
CONTINUOUS
 62
    2
 10
531.15569731883647
 20
686.88920897572007
 11
531.15569731883647
 21
681.28920897572016
  0
LINE
  8
_0-0_計極細
  6
CONTINUOUS
 62
    2
 10
518.15569731883647
 20
703.58920897572307
 11
518.15569731883647
 21
698.28920897572334
  0
LINE
  8
_0-0_計極細
  6
CONTINUOUS
 62
    2
 10
531.15569731883647
 20
703.58920897572307
 11
531.15569731883647
 21
698.28920897572334
  0
LINE
  8
_0-0_計極細
  6
CONTINUOUS
 62
    2
 10
518.15569731883647
 20
720.18920897572218
 11
518.15569731883647
 21
714.98920897572236
  0
LINE
  8
_0-0_計極細
  6
CONTINUOUS
 62
    2
 10
531.15569731883647
 20
720.18920897572218
 11
531.15569731883647
 21
714.98920897572236
  0
LINE
  8
_0-0_計極細
  6
CONTINUOUS
 62
    2
 10
518.15569731883647
 20
528.28920897572016
 11
518.15569731883647
 21
533.88920897572007
  0
LINE
  8
_0-0_計極細
  6
CONTINUOUS
 62
    2
 10
531.15569731883647
 20
528.28920897572016
 11
531.15569731883647
 21
533.88920897572007
  0
LINE
  8
_0-0_計極細
  6
CONTINUOUS
 62
    2
 10
518.15569731883647
 20
511.2892089757193
 11
518.15569731883647
 21
516.88920897571961
  0
LINE
  8
_0-0_計極細
  6
CONTINUOUS
 62
    2
 10
531.15569731883647
 20
511.2892089757193
 11
531.15569731883647
 21
516.88920897571961
  0
LINE
  8
_0-0_計極細
  6
CONTINUOUS
 62
    2
 10
518.15569731883647
 20
494.28920897571885
 11
518.15569731883647
 21
499.8892089757187
  0
LINE
  8
_0-0_計極細
  6
CONTINUOUS
 62
    2
 10
531.15569731883647
 20
494.28920897571885
 11
531.15569731883647
 21
499.8892089757187
  0
LINE
  8
_0-0_計極細
  6
CONTINUOUS
 62
    2
 10
518.15569731883647
 20
477.28920897571976
 11
518.15569731883647
 21
482.88920897571961
  0
LINE
  8
_0-0_計極細
  6
CONTINUOUS
 62
    2
 10
531.15569731883647
 20
477.28920897571976
 11
531.15569731883647
 21
482.88920897571961
  0
LINE
  8
_0-0_計極細
  6
CONTINUOUS
 62
    2
 10
518.15569731883647
 20
460.28920897572061
 11
518.15569731883647
 21
465.88920897572052
  0
LINE
  8
_0-0_計極細
  6
CONTINUOUS
 62
    2
 10
531.15569731883647
 20
460.28920897572061
 11
531.15569731883647
 21
465.88920897572052
  0
LINE
  8
_0-0_計極細
  6
CONTINUOUS
 62
    2
 10
518.15569731883647
 20
443.28920897572152
 11
518.15569731883647
 21
448.88920897572149
  0
LINE
  8
_0-0_計極細
  6
CONTINUOUS
 62
    2
 10
531.15569731883647
 20
443.28920897572152
 11
531.15569731883647
 21
448.88920897572149
  0
LINE
  8
_0-0_計極細
  6
CONTINUOUS
 62
    2
 10
518.15569731883647
 20
426.28920897572243
 11
518.15569731883647
 21
431.8892089757224
  0
LINE
  8
_0-0_計極細
  6
CONTINUOUS
 62
    2
 10
531.15569731883647
 20
426.28920897572243
 11
531.15569731883647
 21
431.8892089757224
  0
LINE
  8
_0-0_計極細
  6
CONTINUOUS
 62
    2
 10
518.15569731883647
 20
409.58920897571943
 11
518.15569731883647
 21
414.88920897571916
  0
LINE
  8
_0-0_計極細
  6
CONTINUOUS
 62
    2
 10
531.15569731883647
 20
409.58920897571943
 11
531.15569731883647
 21
414.88920897571916
  0
LINE
  8
_0-0_計極細
  6
CONTINUOUS
 62
    2
 10
518.15569731883647
 20
392.98920897572043
 11
518.15569731883647
 21
398.18920897572025
  0
LINE
  8
_0-0_計極細
  6
CONTINUOUS
 62
    2
 10
531.15569731883647
 20
392.98920897572043
 11
531.15569731883647
 21
398.18920897572025
  0
LINE
  8
_0-0_計極細
  6
CENTER1
 62
    2
 10
524.65569731883647
 20
740.339928400188
 11
524.65569731883647
 21
374.03138523470898
  0
LINE
  8
_0-1_計細線
  6
CONTINUOUS
 62
    3
 10
278.65569731883653
 20
533.88920897572507
 11
628.65569731883647
 21
533.88920897572507
  0
LINE
  8
_0-1_計細線
  6
CONTINUOUS
 62
    3
 10
278.65569731883653
 20
545.28920897572561
 11
628.65569731883647
 21
545.28920897572561
  0
LINE
  8
_0-1_計細線
  6
CONTINUOUS
 62
    3
 10
278.65569731883653
 20
533.88920897572507
 11
278.65569731883653
 21
545.28920897572561
  0
LINE
  8
_0-1_計細線
  6
CONTINUOUS
 62
    3
 10
628.65569731883647
 20
533.88920897572507
 11
628.65569731883647
 21
545.28920897572561
  0
LINE
  8
_0-0_計極細
  6
CONTINUOUS
 62
    2
 10
278.65569731883653
 20
542.08920897572534
 11
628.65569731883647
 21
542.08920897572534
  0
LINE
  8
_0-0_計極細
  6
CONTINUOUS
 62
    2
 10
278.65569731883653
 20
537.08920897572534
 11
628.65569731883647
 21
537.08920897572534
  0
LINE
  8
_0-1_計細線
  6
CONTINUOUS
 62
    3
 10
278.65569731883653
 20
630.28920897572289
 11
628.65569731883647
 21
630.28920897572289
  0
LINE
  8
_0-1_計細線
  6
CONTINUOUS
 62
    3
 10
278.65569731883653
 20
618.88920897572234
 11
628.65569731883647
 21
618.88920897572234
  0
LINE
  8
_0-1_計細線
  6
CONTINUOUS
 62
    3
 10
278.65569731883653
 20
630.28920897572289
 11
278.65569731883653
 21
618.88920897572234
  0
LINE
  8
_0-1_計細線
  6
CONTINUOUS
 62
    3
 10
628.65569731883647
 20
630.28920897572289
 11
628.65569731883647
 21
618.88920897572234
  0
LINE
  8
_0-0_計極細
  6
CONTINUOUS
 62
    2
 10
278.65569731883653
 20
622.08920897572261
 11
628.65569731883647
 21
622.08920897572261
  0
LINE
  8
_0-0_計極細
  6
CONTINUOUS
 62
    2
 10
278.65569731883653
 20
627.08920897572261
 11
628.65569731883647
 21
627.08920897572261
  0
LINE
  8
_0-1_計細線
  6
CONTINUOUS
 62
    3
 10
278.65569731883653
 20
596.28920897572289
 11
628.65569731883647
 21
596.28920897572289
  0
LINE
  8
_0-1_計細線
  6
CONTINUOUS
 62
    3
 10
278.65569731883653
 20
584.88920897572234
 11
628.65569731883647
 21
584.88920897572234
  0
LINE
  8
_0-1_計細線
  6
CONTINUOUS
 62
    3
 10
278.65569731883653
 20
596.28920897572289
 11
278.65569731883653
 21
584.88920897572234
  0
LINE
  8
_0-1_計細線
  6
CONTINUOUS
 62
    3
 10
628.65569731883647
 20
596.28920897572289
 11
628.65569731883647
 21
584.88920897572234
  0
LINE
  8
_0-0_計極細
  6
CONTINUOUS
 62
    2
 10
278.65569731883653
 20
588.08920897572261
 11
628.65569731883647
 21
588.08920897572261
  0
LINE
  8
_0-0_計極細
  6
CONTINUOUS
 62
    2
 10
278.65569731883653
 20
593.08920897572261
 11
628.65569731883647
 21
593.08920897572261
  0
LINE
  8
_0-1_計細線
  6
CONTINUOUS
 62
    3
 10
278.65569731883653
 20
613.2892089757238
 11
628.65569731883647
 21
613.2892089757238
  0
LINE
  8
_0-1_計細線
  6
CONTINUOUS
 62
    3
 10
278.65569731883653
 20
601.88920897572325
 11
628.65569731883647
 21
601.88920897572325
  0
LINE
  8
_0-1_計細線
  6
CONTINUOUS
 62
    3
 10
278.65569731883653
 20
613.2892089757238
 11
278.65569731883653
 21
601.88920897572325
  0
LINE
  8
_0-1_計細線
  6
CONTINUOUS
 62
    3
 10
628.65569731883647
 20
613.2892089757238
 11
628.65569731883647
 21
601.88920897572325
  0
LINE
  8
_0-0_計極細
  6
CONTINUOUS
 62
    2
 10
278.65569731883653
 20
605.08920897572352
 11
628.65569731883647
 21
605.08920897572352
  0
LINE
  8
_0-0_計極細
  6
CONTINUOUS
 62
    2
 10
278.65569731883653
 20
610.08920897572352
 11
628.65569731883647
 21
610.08920897572352
  0
LINE
  8
_0-1_計細線
  6
CONTINUOUS
 62
    3
 10
278.65569731883653
 20
698.28920897572334
 11
628.65569731883647
 21
698.28920897572334
  0
LINE
  8
_0-1_計細線
  6
CONTINUOUS
 62
    3
 10
278.65569731883653
 20
686.88920897572291
 11
628.65569731883647
 21
686.88920897572291
  0
LINE
  8
_0-1_計細線
  6
CONTINUOUS
 62
    3
 10
278.65569731883653
 20
698.28920897572334
 11
278.65569731883653
 21
686.88920897572291
  0
LINE
  8
_0-1_計細線
  6
CONTINUOUS
 62
    3
 10
628.65569731883647
 20
698.28920897572334
 11
628.65569731883647
 21
686.88920897572291
  0
LINE
  8
_0-0_計極細
  6
CONTINUOUS
 62
    2
 10
278.65569731883653
 20
690.08920897572352
 11
628.65569731883647
 21
690.08920897572352
  0
LINE
  8
_0-0_計極細
  6
CONTINUOUS
 62
    2
 10
278.65569731883653
 20
695.08920897572352
 11
628.65569731883647
 21
695.08920897572352
  0
LINE
  8
_0-1_計細線
  6
CONTINUOUS
 62
    3
 10
278.65569731883653
 20
647.28920897572198
 11
628.65569731883647
 21
647.28920897572198
  0
LINE
  8
_0-1_計細線
  6
CONTINUOUS
 62
    3
 10
278.65569731883653
 20
635.88920897572143
 11
628.65569731883647
 21
635.88920897572143
  0
LINE
  8
_0-1_計細線
  6
CONTINUOUS
 62
    3
 10
278.65569731883653
 20
647.28920897572198
 11
278.65569731883653
 21
635.88920897572143
  0
LINE
  8
_0-1_計細線
  6
CONTINUOUS
 62
    3
 10
628.65569731883647
 20
647.28920897572198
 11
628.65569731883647
 21
635.88920897572143
  0
LINE
  8
_0-0_計極細
  6
CONTINUOUS
 62
    2
 10
278.65569731883653
 20
639.0892089757217
 11
628.65569731883647
 21
639.0892089757217
  0
LINE
  8
_0-0_計極細
  6
CONTINUOUS
 62
    2
 10
278.65569731883653
 20
644.0892089757217
 11
628.65569731883647
 21
644.0892089757217
  0
LINE
  8
_0-1_計細線
  6
CONTINUOUS
 62
    3
 10
278.65569731883653
 20
664.28920897572107
 11
628.65569731883647
 21
664.28920897572107
  0
LINE
  8
_0-1_計細線
  6
CONTINUOUS
 62
    3
 10
278.65569731883653
 20
652.88920897572052
 11
628.65569731883647
 21
652.88920897572052
  0
LINE
  8
_0-1_計細線
  6
CONTINUOUS
 62
    3
 10
278.65569731883653
 20
664.28920897572107
 11
278.65569731883653
 21
652.88920897572052
  0
LINE
  8
_0-1_計細線
  6
CONTINUOUS
 62
    3
 10
628.65569731883647
 20
664.28920897572107
 11
628.65569731883647
 21
652.88920897572052
  0
LINE
  8
_0-0_計極細
  6
CONTINUOUS
 62
    2
 10
278.65569731883653
 20
656.08920897572079
 11
628.65569731883647
 21
656.08920897572079
  0
LINE
  8
_0-0_計極細
  6
CONTINUOUS
 62
    2
 10
278.65569731883653
 20
661.08920897572079
 11
628.65569731883647
 21
661.08920897572079
  0
LINE
  8
_0-1_計細線
  6
CONTINUOUS
 62
    3
 10
278.65569731883653
 20
681.28920897572016
 11
628.65569731883647
 21
681.28920897572016
  0
LINE
  8
_0-1_計細線
  6
CONTINUOUS
 62
    3
 10
278.65569731883653
 20
669.88920897571961
 11
628.65569731883647
 21
669.88920897571961
  0
LINE
  8
_0-1_計細線
  6
CONTINUOUS
 62
    3
 10
278.65569731883653
 20
681.28920897572016
 11
278.65569731883653
 21
669.88920897571961
  0
LINE
  8
_0-1_計細線
  6
CONTINUOUS
 62
    3
 10
628.65569731883647
 20
681.28920897572016
 11
628.65569731883647
 21
669.88920897571961
  0
LINE
  8
_0-0_計極細
  6
CONTINUOUS
 62
    2
 10
278.65569731883653
 20
673.08920897571988
 11
628.65569731883647
 21
673.08920897571988
  0
LINE
  8
_0-0_計極細
  6
CONTINUOUS
 62
    2
 10
278.65569731883653
 20
678.08920897571988
 11
628.65569731883647
 21
678.08920897571988
  0
LINE
  8
_0-0_計極細
  6
CENTER2
 62
    2
 10
262.76709778181726
 20
556.58920897572125
 11
644.70043111519476
 21
556.58920897572125
  0
LINE
  8
_0-1_計細線
  6
CONTINUOUS
 62
    3
 10
278.65569731883653
 20
714.98920897572236
 11
628.65569731883647
 21
714.98920897572236
  0
LINE
  8
_0-1_計細線
  6
CONTINUOUS
 62
    3
 10
278.65569731883653
 20
703.5892089757217
 11
628.65569731883647
 21
703.5892089757217
  0
LINE
  8
_0-1_計細線
  6
CONTINUOUS
 62
    3
 10
278.65569731883653
 20
714.98920897572236
 11
278.65569731883653
 21
703.5892089757217
  0
LINE
  8
_0-1_計細線
  6
CONTINUOUS
 62
    3
 10
628.65569731883647
 20
714.98920897572236
 11
628.65569731883647
 21
703.5892089757217
  0
LINE
  8
_0-0_計極細
  6
CONTINUOUS
 62
    2
 10
278.65569731883653
 20
706.78920897572198
 11
628.65569731883647
 21
706.78920897572198
  0
LINE
  8
_0-0_計極細
  6
CONTINUOUS
 62
    2
 10
278.65569731883653
 20
711.78920897572198
 11
628.65569731883647
 21
711.78920897572198
  0
LINE
  8
_0-1_計細線
  6
CONTINUOUS
 62
    3
 10
278.65569731883653
 20
731.58920897572625
 11
628.65569731883647
 21
731.58920897572625
  0
LINE
  8
_0-1_計細線
  6
CONTINUOUS
 62
    3
 10
278.65569731883653
 20
720.18920897572571
 11
628.65569731883647
 21
720.18920897572571
  0
LINE
  8
_0-1_計細線
  6
CONTINUOUS
 62
    3
 10
278.65569731883653
 20
731.58920897572625
 11
278.65569731883653
 21
720.18920897572571
  0
LINE
  8
_0-1_計細線
  6
CONTINUOUS
 62
    3
 10
628.65569731883647
 20
731.58920897572625
 11
628.65569731883647
 21
720.18920897572571
  0
LINE
  8
_0-0_計極細
  6
CONTINUOUS
 62
    2
 10
278.65569731883653
 20
723.38920897572609
 11
628.65569731883647
 21
723.38920897572609
  0
LINE
  8
_0-0_計極細
  6
CONTINUOUS
 62
    2
 10
278.65569731883653
 20
728.38920897572609
 11
628.65569731883647
 21
728.38920897572609
  0
LINE
  8
_0-1_計細線
  6
CONTINUOUS
 62
    3
 10
278.65569731883653
 20
482.88920897571961
 11
628.65569731883647
 21
482.88920897571961
  0
LINE
  8
_0-1_計細線
  6
CONTINUOUS
 62
    3
 10
278.65569731883653
 20
494.28920897572021
 11
628.65569731883647
 21
494.28920897572021
  0
LINE
  8
_0-1_計細線
  6
CONTINUOUS
 62
    3
 10
278.65569731883653
 20
482.88920897571961
 11
278.65569731883653
 21
494.28920897572021
  0
LINE
  8
_0-1_計細線
  6
CONTINUOUS
 62
    3
 10
628.65569731883647
 20
482.88920897571961
 11
628.65569731883647
 21
494.28920897572021
  0
LINE
  8
_0-0_計極細
  6
CONTINUOUS
 62
    2
 10
278.65569731883653
 20
491.08920897571988
 11
628.65569731883647
 21
491.08920897571988
  0
LINE
  8
_0-0_計極細
  6
CONTINUOUS
 62
    2
 10
278.65569731883653
 20
486.08920897571988
 11
628.65569731883647
 21
486.08920897571988
  0
LINE
  8
_0-1_計細線
  6
CONTINUOUS
 62
    3
 10
278.65569731883653
 20
516.88920897571961
 11
628.65569731883647
 21
516.88920897571961
  0
LINE
  8
_0-1_計細線
  6
CONTINUOUS
 62
    3
 10
278.65569731883653
 20
528.28920897572016
 11
628.65569731883647
 21
528.28920897572016
  0
LINE
  8
_0-1_計細線
  6
CONTINUOUS
 62
    3
 10
278.65569731883653
 20
516.88920897571961
 11
278.65569731883653
 21
528.28920897572016
  0
LINE
  8
_0-1_計細線
  6
CONTINUOUS
 62
    3
 10
628.65569731883647
 20
516.88920897571961
 11
628.65569731883647
 21
528.28920897572016
  0
LINE
  8
_0-0_計極細
  6
CONTINUOUS
 62
    2
 10
278.65569731883653
 20
525.08920897571988
 11
628.65569731883647
 21
525.08920897571988
  0
LINE
  8
_0-0_計極細
  6
CONTINUOUS
 62
    2
 10
278.65569731883653
 20
520.08920897571988
 11
628.65569731883647
 21
520.08920897571988
  0
LINE
  8
_0-1_計細線
  6
CONTINUOUS
 62
    3
 10
278.65569731883653
 20
499.8892089757187
 11
628.65569731883647
 21
499.8892089757187
  0
LINE
  8
_0-1_計細線
  6
CONTINUOUS
 62
    3
 10
278.65569731883653
 20
511.2892089757193
 11
628.65569731883647
 21
511.2892089757193
  0
LINE
  8
_0-1_計細線
  6
CONTINUOUS
 62
    3
 10
278.65569731883653
 20
499.8892089757187
 11
278.65569731883653
 21
511.2892089757193
  0
LINE
  8
_0-1_計細線
  6
CONTINUOUS
 62
    3
 10
628.65569731883647
 20
499.8892089757187
 11
628.65569731883647
 21
511.2892089757193
  0
LINE
  8
_0-0_計極細
  6
CONTINUOUS
 62
    2
 10
278.65569731883653
 20
508.08920897571903
 11
628.65569731883647
 21
508.08920897571903
  0
LINE
  8
_0-0_計極細
  6
CONTINUOUS
 62
    2
 10
278.65569731883653
 20
503.08920897571903
 11
628.65569731883647
 21
503.08920897571903
  0
LINE
  8
_0-1_計細線
  6
CONTINUOUS
 62
    3
 10
278.65569731883653
 20
414.88920897571916
 11
628.65569731883647
 21
414.88920897571916
  0
LINE
  8
_0-1_計細線
  6
CONTINUOUS
 62
    3
 10
278.65569731883653
 20
426.2892089757197
 11
628.65569731883647
 21
426.2892089757197
  0
LINE
  8
_0-1_計細線
  6
CONTINUOUS
 62
    3
 10
278.65569731883653
 20
414.88920897571916
 11
278.65569731883653
 21
426.2892089757197
  0
LINE
  8
_0-1_計細線
  6
CONTINUOUS
 62
    3
 10
628.65569731883647
 20
414.88920897571916
 11
628.65569731883647
 21
426.2892089757197
  0
LINE
  8
_0-0_計極細
  6
CONTINUOUS
 62
    2
 10
278.65569731883653
 20
423.08920897571903
 11
628.65569731883647
 21
423.08920897571903
  0
LINE
  8
_0-0_計極細
  6
CONTINUOUS
 62
    2
 10
278.65569731883653
 20
418.08920897571903
 11
628.65569731883647
 21
418.08920897571903
  0
LINE
  8
_0-1_計細線
  6
CONTINUOUS
 62
    3
 10
278.65569731883653
 20
465.88920897572052
 11
628.65569731883647
 21
465.88920897572052
  0
LINE
  8
_0-1_計細線
  6
CONTINUOUS
 62
    3
 10
278.65569731883653
 20
477.28920897572107
 11
628.65569731883647
 21
477.28920897572107
  0
LINE
  8
_0-1_計細線
  6
CONTINUOUS
 62
    3
 10
278.65569731883653
 20
465.88920897572052
 11
278.65569731883653
 21
477.28920897572107
  0
LINE
  8
_0-1_計細線
  6
CONTINUOUS
 62
    3
 10
628.65569731883647
 20
465.88920897572052
 11
628.65569731883647
 21
477.28920897572107
  0
LINE
  8
_0-0_計極細
  6
CONTINUOUS
 62
    2
 10
278.65569731883653
 20
474.08920897572079
 11
628.65569731883647
 21
474.08920897572079
  0
LINE
  8
_0-0_計極細
  6
CONTINUOUS
 62
    2
 10
278.65569731883653
 20
469.08920897572079
 11
628.65569731883647
 21
469.08920897572079
  0
LINE
  8
_0-1_計細線
  6
CONTINUOUS
 62
    3
 10
278.65569731883653
 20
448.88920897572149
 11
628.65569731883647
 21
448.88920897572149
  0
LINE
  8
_0-1_計細線
  6
CONTINUOUS
 62
    3
 10
278.65569731883653
 20
460.28920897572198
 11
628.65569731883647
 21
460.28920897572198
  0
LINE
  8
_0-1_計細線
  6
CONTINUOUS
 62
    3
 10
278.65569731883653
 20
448.88920897572149
 11
278.65569731883653
 21
460.28920897572198
  0
LINE
  8
_0-1_計細線
  6
CONTINUOUS
 62
    3
 10
628.65569731883647
 20
448.88920897572149
 11
628.65569731883647
 21
460.28920897572198
  0
LINE
  8
_0-0_計極細
  6
CONTINUOUS
 62
    2
 10
278.65569731883653
 20
457.0892089757217
 11
628.65569731883647
 21
457.0892089757217
  0
LINE
  8
_0-0_計極細
  6
CONTINUOUS
 62
    2
 10
278.65569731883653
 20
452.0892089757217
 11
628.65569731883647
 21
452.0892089757217
  0
LINE
  8
_0-1_計細線
  6
CONTINUOUS
 62
    3
 10
278.65569731883653
 20
431.8892089757224
 11
628.65569731883647
 21
431.8892089757224
  0
LINE
  8
_0-1_計細線
  6
CONTINUOUS
 62
    3
 10
278.65569731883653
 20
443.28920897572289
 11
628.65569731883647
 21
443.28920897572289
  0
LINE
  8
_0-1_計細線
  6
CONTINUOUS
 62
    3
 10
278.65569731883653
 20
431.8892089757224
 11
278.65569731883653
 21
443.28920897572289
  0
LINE
  8
_0-1_計細線
  6
CONTINUOUS
 62
    3
 10
628.65569731883647
 20
431.8892089757224
 11
628.65569731883647
 21
443.28920897572289
  0
LINE
  8
_0-0_計極細
  6
CONTINUOUS
 62
    2
 10
278.65569731883653
 20
440.08920897572267
 11
628.65569731883647
 21
440.08920897572267
  0
LINE
  8
_0-0_計極細
  6
CONTINUOUS
 62
    2
 10
278.65569731883653
 20
435.08920897572267
 11
628.65569731883647
 21
435.08920897572267
  0
LINE
  8
_0-1_計細線
  6
CONTINUOUS
 62
    3
 10
278.65569731883653
 20
398.18920897572025
 11
628.65569731883647
 21
398.18920897572025
  0
LINE
  8
_0-1_計細線
  6
CONTINUOUS
 62
    3
 10
278.65569731883653
 20
409.58920897572085
 11
628.65569731883647
 21
409.58920897572085
  0
LINE
  8
_0-1_計細線
  6
CONTINUOUS
 62
    3
 10
278.65569731883653
 20
398.18920897572025
 11
278.65569731883653
 21
409.58920897572085
  0
LINE
  8
_0-1_計細線
  6
CONTINUOUS
 62
    3
 10
628.65569731883647
 20
398.18920897572025
 11
628.65569731883647
 21
409.58920897572085
  0
LINE
  8
_0-0_計極細
  6
CONTINUOUS
 62
    2
 10
278.65569731883653
 20
406.38920897572058
 11
628.65569731883647
 21
406.38920897572058
  0
LINE
  8
_0-0_計極細
  6
CONTINUOUS
 62
    2
 10
278.65569731883653
 20
401.38920897572058
 11
628.65569731883647
 21
401.38920897572058
  0
LINE
  8
_0-1_計細線
  6
CONTINUOUS
 62
    3
 10
278.65569731883653
 20
381.58920897571625
 11
628.65569731883647
 21
381.58920897571625
  0
LINE
  8
_0-1_計細線
  6
CONTINUOUS
 62
    3
 10
278.65569731883653
 20
392.98920897571685
 11
628.65569731883647
 21
392.98920897571685
  0
LINE
  8
_0-1_計細線
  6
CONTINUOUS
 62
    3
 10
278.65569731883653
 20
381.58920897571625
 11
278.65569731883653
 21
392.98920897571685
  0
LINE
  8
_0-1_計細線
  6
CONTINUOUS
 62
    3
 10
628.65569731883647
 20
381.58920897571625
 11
628.65569731883647
 21
392.98920897571685
  0
LINE
  8
_0-0_計極細
  6
CONTINUOUS
 62
    2
 10
278.65569731883653
 20
389.78920897571652
 11
628.65569731883647
 21
389.78920897571652
  0
LINE
  8
_0-0_計極細
  6
CONTINUOUS
 62
    2
 10
278.65569731883653
 20
384.78920897571652
 11
628.65569731883647
 21
384.78920897571652
  0
LINE
  8
_0-1_計細線
  6
CONTINUOUS
 62
    3
 10
278.65569731883653
 20
550.88920897572098
 11
628.65569731883647
 21
550.88920897572098
  0
LINE
  8
_0-1_計細線
  6
CONTINUOUS
 62
    3
 10
628.65569731883647
 20
562.28920897572152
 11
628.65569731883647
 21
550.88920897572098
  0
LINE
  8
_0-0_計極細
  6
CONTINUOUS
 62
    2
 10
278.65569731883653
 20
554.08920897572125
 11
628.65569731883647
 21
554.08920897572125
  0
LINE
  8
_0-0_計極細
  6
CONTINUOUS
 62
    2
 10
278.65569731883653
 20
559.08920897572125
 11
628.65569731883647
 21
559.08920897572125
  0
LINE
  8
_0-1_計細線
  6
CONTINUOUS
 62
    3
 10
278.65569731883653
 20
562.28920897572152
 11
278.65569731883653
 21
550.88920897572098
  0
LINE
  8
_0-1_計細線
  6
CONTINUOUS
 62
    3
 10
278.65569731883653
 20
562.28920897572152
 11
628.65569731883647
 21
562.28920897572152
  0
LINE
  8
_0-1_計細線
  6
CONTINUOUS
 62
    3
 10
278.65569731883653
 20
579.28920897572243
 11
628.65569731883647
 21
579.28920897572243
  0
LINE
  8
_0-1_計細線
  6
CONTINUOUS
 62
    3
 10
628.65569731883647
 20
579.28920897572243
 11
628.65569731883647
 21
567.88920897572189
  0
LINE
  8
_0-0_計極細
  6
CONTINUOUS
 62
    2
 10
278.65569731883653
 20
571.08920897572216
 11
628.65569731883647
 21
571.08920897572216
  0
LINE
  8
_0-0_計極細
  6
CONTINUOUS
 62
    2
 10
278.65569731883653
 20
576.08920897572216
 11
628.65569731883647
 21
576.08920897572216
  0
LINE
  8
_0-1_計細線
  6
CONTINUOUS
 62
    3
 10
278.65569731883653
 20
567.88920897572189
 11
628.65569731883647
 21
567.88920897572189
  0
LINE
  8
_0-1_計細線
  6
CONTINUOUS
 62
    3
 10
278.65569731883653
 20
579.28920897572243
 11
278.65569731883653
 21
567.88920897572189
  0
LINE
  8
_0-0_計極細
  6
CONTINUOUS
 62
    2
 10
615.15569731883647
 20
550.88920897572098
 11
615.15569731883647
 21
545.28920897572107
  0
LINE
  8
_0-0_計極細
  6
CONTINUOUS
 62
    2
 10
628.15569731883647
 20
550.88920897572098
 11
628.15569731883647
 21
545.28920897572107
  0
LINE
  8
_0-0_計極細
  6
CONTINUOUS
 62
    2
 10
615.15569731883647
 20
567.88920897572189
 11
615.15569731883647
 21
562.28920897572152
  0
LINE
  8
_0-0_計極細
  6
CONTINUOUS
 62
    2
 10
628.15569731883647
 20
567.88920897572189
 11
628.15569731883647
 21
562.28920897572152
  0
LINE
  8
_0-0_計極細
  6
CONTINUOUS
 62
    2
 10
615.15569731883647
 20
584.88920897572234
 11
615.15569731883647
 21
579.28920897572243
  0
LINE
  8
_0-0_計極細
  6
CONTINUOUS
 62
    2
 10
628.15569731883647
 20
584.88920897572234
 11
628.15569731883647
 21
579.28920897572243
  0
LINE
  8
_0-0_計極細
  6
CONTINUOUS
 62
    2
 10
615.15569731883647
 20
601.88920897572325
 11
615.15569731883647
 21
596.28920897572289
  0
LINE
  8
_0-0_計極細
  6
CONTINUOUS
 62
    2
 10
628.15569731883647
 20
601.88920897572325
 11
628.15569731883647
 21
596.28920897572289
  0
LINE
  8
_0-0_計極細
  6
CONTINUOUS
 62
    2
 10
615.15569731883647
 20
618.8892089757237
 11
615.15569731883647
 21
613.2892089757238
  0
LINE
  8
_0-0_計極細
  6
CONTINUOUS
 62
    2
 10
628.15569731883647
 20
618.8892089757237
 11
628.15569731883647
 21
613.2892089757238
  0
LINE
  8
_0-0_計極細
  6
CONTINUOUS
 62
    2
 10
615.15569731883647
 20
635.8892089757228
 11
615.15569731883647
 21
630.28920897572289
  0
LINE
  8
_0-0_計極細
  6
CONTINUOUS
 62
    2
 10
628.15569731883647
 20
635.8892089757228
 11
628.15569731883647
 21
630.28920897572289
  0
LINE
  8
_0-0_計極細
  6
CONTINUOUS
 62
    2
 10
615.15569731883647
 20
652.889208975722
 11
615.15569731883647
 21
647.28920897572198
  0
LINE
  8
_0-0_計極細
  6
CONTINUOUS
 62
    2
 10
628.15569731883647
 20
652.889208975722
 11
628.15569731883647
 21
647.28920897572198
  0
LINE
  8
_0-0_計極細
  6
CONTINUOUS
 62
    2
 10
615.15569731883647
 20
669.88920897572098
 11
615.15569731883647
 21
664.28920897572107
  0
LINE
  8
_0-0_計極細
  6
CONTINUOUS
 62
    2
 10
628.15569731883647
 20
669.88920897572098
 11
628.15569731883647
 21
664.28920897572107
  0
LINE
  8
_0-0_計極細
  6
CONTINUOUS
 62
    2
 10
615.15569731883647
 20
686.88920897572007
 11
615.15569731883647
 21
681.28920897572016
  0
LINE
  8
_0-0_計極細
  6
CONTINUOUS
 62
    2
 10
628.15569731883647
 20
686.88920897572007
 11
628.15569731883647
 21
681.28920897572016
  0
LINE
  8
_0-0_計極細
  6
CONTINUOUS
 62
    2
 10
615.15569731883647
 20
703.58920897572307
 11
615.15569731883647
 21
698.28920897572334
  0
LINE
  8
_0-0_計極細
  6
CONTINUOUS
 62
    2
 10
628.15569731883647
 20
703.58920897572307
 11
628.15569731883647
 21
698.28920897572334
  0
LINE
  8
_0-0_計極細
  6
CONTINUOUS
 62
    2
 10
615.15569731883647
 20
720.18920897572218
 11
615.15569731883647
 21
714.98920897572236
  0
LINE
  8
_0-0_計極細
  6
CONTINUOUS
 62
    2
 10
628.15569731883647
 20
720.18920897572218
 11
628.15569731883647
 21
714.98920897572236
  0
LINE
  8
_0-0_計極細
  6
CONTINUOUS
 62
    2
 10
615.15569731883647
 20
528.28920897572016
 11
615.15569731883647
 21
533.88920897572007
  0
LINE
  8
_0-0_計極細
  6
CONTINUOUS
 62
    2
 10
628.15569731883647
 20
528.28920897572016
 11
628.15569731883647
 21
533.88920897572007
  0
LINE
  8
_0-0_計極細
  6
CONTINUOUS
 62
    2
 10
615.15569731883647
 20
511.2892089757193
 11
615.15569731883647
 21
516.88920897571961
  0
LINE
  8
_0-0_計極細
  6
CONTINUOUS
 62
    2
 10
628.15569731883647
 20
511.2892089757193
 11
628.15569731883647
 21
516.88920897571961
  0
LINE
  8
_0-0_計極細
  6
CONTINUOUS
 62
    2
 10
615.15569731883647
 20
494.28920897571885
 11
615.15569731883647
 21
499.8892089757187
  0
LINE
  8
_0-0_計極細
  6
CONTINUOUS
 62
    2
 10
628.15569731883647
 20
494.28920897571885
 11
628.15569731883647
 21
499.8892089757187
  0
LINE
  8
_0-0_計極細
  6
CONTINUOUS
 62
    2
 10
615.15569731883647
 20
477.28920897571976
 11
615.15569731883647
 21
482.88920897571961
  0
LINE
  8
_0-0_計極細
  6
CONTINUOUS
 62
    2
 10
628.15569731883647
 20
477.28920897571976
 11
628.15569731883647
 21
482.88920897571961
  0
LINE
  8
_0-0_計極細
  6
CONTINUOUS
 62
    2
 10
615.15569731883647
 20
460.28920897572061
 11
615.15569731883647
 21
465.88920897572052
  0
LINE
  8
_0-0_計極細
  6
CONTINUOUS
 62
    2
 10
628.15569731883647
 20
460.28920897572061
 11
628.15569731883647
 21
465.88920897572052
  0
LINE
  8
_0-0_計極細
  6
CONTINUOUS
 62
    2
 10
615.15569731883647
 20
443.28920897572152
 11
615.15569731883647
 21
448.88920897572149
  0
LINE
  8
_0-0_計極細
  6
CONTINUOUS
 62
    2
 10
628.15569731883647
 20
443.28920897572152
 11
628.15569731883647
 21
448.88920897572149
  0
LINE
  8
_0-0_計極細
  6
CONTINUOUS
 62
    2
 10
615.15569731883647
 20
426.28920897572243
 11
615.15569731883647
 21
431.8892089757224
  0
LINE
  8
_0-0_計極細
  6
CONTINUOUS
 62
    2
 10
628.15569731883647
 20
426.28920897572243
 11
628.15569731883647
 21
431.8892089757224
  0
LINE
  8
_0-0_計極細
  6
CONTINUOUS
 62
    2
 10
615.15569731883647
 20
409.58920897571943
 11
615.15569731883647
 21
414.88920897571916
  0
LINE
  8
_0-0_計極細
  6
CONTINUOUS
 62
    2
 10
628.15569731883647
 20
409.58920897571943
 11
628.15569731883647
 21
414.88920897571916
  0
LINE
  8
_0-0_計極細
  6
CONTINUOUS
 62
    2
 10
615.15569731883647
 20
392.98920897572043
 11
615.15569731883647
 21
398.18920897572025
  0
LINE
  8
_0-0_計極細
  6
CONTINUOUS
 62
    2
 10
628.15569731883647
 20
392.98920897572043
 11
628.15569731883647
 21
398.18920897572025
  0
LINE
  8
_0-0_計極細
  6
CENTER1
 62
    2
 10
621.65569731883647
 20
740.339928400188
 11
621.65569731883647
 21
374.03138523470898
  0
LINE
  8
_0-0_計極細
  6
CONTINUOUS
 62
    2
 10
279.15569731883693
 20
550.88920897572098
 11
279.15569731883693
 21
545.28920897572107
  0
LINE
  8
_0-0_計極細
  6
CONTINUOUS
 62
    2
 10
292.15569731883693
 20
550.88920897572098
 11
292.15569731883693
 21
545.28920897572107
  0
LINE
  8
_0-0_計極細
  6
CONTINUOUS
 62
    2
 10
279.15569731883693
 20
567.88920897572189
 11
279.15569731883693
 21
562.28920897572152
  0
LINE
  8
_0-0_計極細
  6
CONTINUOUS
 62
    2
 10
292.15569731883693
 20
567.88920897572189
 11
292.15569731883693
 21
562.28920897572152
  0
LINE
  8
_0-0_計極細
  6
CONTINUOUS
 62
    2
 10
279.15569731883693
 20
584.88920897572234
 11
279.15569731883693
 21
579.28920897572243
  0
LINE
  8
_0-0_計極細
  6
CONTINUOUS
 62
    2
 10
292.15569731883693
 20
584.88920897572234
 11
292.15569731883693
 21
579.28920897572243
  0
LINE
  8
_0-0_計極細
  6
CONTINUOUS
 62
    2
 10
279.15569731883693
 20
601.88920897572325
 11
279.15569731883693
 21
596.28920897572289
  0
LINE
  8
_0-0_計極細
  6
CONTINUOUS
 62
    2
 10
292.15569731883693
 20
601.88920897572325
 11
292.15569731883693
 21
596.28920897572289
  0
LINE
  8
_0-0_計極細
  6
CONTINUOUS
 62
    2
 10
279.15569731883693
 20
618.8892089757237
 11
279.15569731883693
 21
613.2892089757238
  0
LINE
  8
_0-0_計極細
  6
CONTINUOUS
 62
    2
 10
292.15569731883693
 20
618.8892089757237
 11
292.15569731883693
 21
613.2892089757238
  0
LINE
  8
_0-0_計極細
  6
CONTINUOUS
 62
    2
 10
279.15569731883693
 20
635.8892089757228
 11
279.15569731883693
 21
630.28920897572289
  0
LINE
  8
_0-0_計極細
  6
CONTINUOUS
 62
    2
 10
292.15569731883693
 20
635.8892089757228
 11
292.15569731883693
 21
630.28920897572289
  0
LINE
  8
_0-0_計極細
  6
CONTINUOUS
 62
    2
 10
279.15569731883693
 20
652.889208975722
 11
279.15569731883693
 21
647.28920897572198
  0
LINE
  8
_0-0_計極細
  6
CONTINUOUS
 62
    2
 10
292.15569731883693
 20
652.889208975722
 11
292.15569731883693
 21
647.28920897572198
  0
LINE
  8
_0-0_計極細
  6
CONTINUOUS
 62
    2
 10
279.15569731883693
 20
669.88920897572098
 11
279.15569731883693
 21
664.28920897572107
  0
LINE
  8
_0-0_計極細
  6
CONTINUOUS
 62
    2
 10
292.15569731883693
 20
669.88920897572098
 11
292.15569731883693
 21
664.28920897572107
  0
LINE
  8
_0-0_計極細
  6
CONTINUOUS
 62
    2
 10
279.15569731883693
 20
686.88920897572007
 11
279.15569731883693
 21
681.28920897572016
  0
LINE
  8
_0-0_計極細
  6
CONTINUOUS
 62
    2
 10
292.15569731883693
 20
686.88920897572007
 11
292.15569731883693
 21
681.28920897572016
  0
LINE
  8
_0-0_計極細
  6
CONTINUOUS
 62
    2
 10
279.15569731883693
 20
703.58920897572307
 11
279.15569731883693
 21
698.28920897572334
  0
LINE
  8
_0-0_計極細
  6
CONTINUOUS
 62
    2
 10
292.15569731883693
 20
703.58920897572307
 11
292.15569731883693
 21
698.28920897572334
  0
LINE
  8
_0-0_計極細
  6
CONTINUOUS
 62
    2
 10
279.15569731883693
 20
720.18920897572218
 11
279.15569731883693
 21
714.98920897572236
  0
LINE
  8
_0-0_計極細
  6
CONTINUOUS
 62
    2
 10
292.15569731883693
 20
720.18920897572218
 11
292.15569731883693
 21
714.98920897572236
  0
LINE
  8
_0-0_計極細
  6
CONTINUOUS
 62
    2
 10
279.15569731883693
 20
528.28920897572016
 11
279.15569731883693
 21
533.88920897572007
  0
LINE
  8
_0-0_計極細
  6
CONTINUOUS
 62
    2
 10
292.15569731883693
 20
528.28920897572016
 11
292.15569731883693
 21
533.88920897572007
  0
LINE
  8
_0-0_計極細
  6
CONTINUOUS
 62
    2
 10
279.15569731883693
 20
511.2892089757193
 11
279.15569731883693
 21
516.88920897571961
  0
LINE
  8
_0-0_計極細
  6
CONTINUOUS
 62
    2
 10
292.15569731883693
 20
511.2892089757193
 11
292.15569731883693
 21
516.88920897571961
  0
LINE
  8
_0-0_計極細
  6
CONTINUOUS
 62
    2
 10
279.15569731883693
 20
494.28920897571885
 11
279.15569731883693
 21
499.8892089757187
  0
LINE
  8
_0-0_計極細
  6
CONTINUOUS
 62
    2
 10
292.15569731883693
 20
494.28920897571885
 11
292.15569731883693
 21
499.8892089757187
  0
LINE
  8
_0-0_計極細
  6
CONTINUOUS
 62
    2
 10
279.15569731883693
 20
477.28920897571976
 11
279.15569731883693
 21
482.88920897571961
  0
LINE
  8
_0-0_計極細
  6
CONTINUOUS
 62
    2
 10
292.15569731883693
 20
477.28920897571976
 11
292.15569731883693
 21
482.88920897571961
  0
LINE
  8
_0-0_計極細
  6
CONTINUOUS
 62
    2
 10
279.15569731883693
 20
460.28920897572061
 11
279.15569731883693
 21
465.88920897572052
  0
LINE
  8
_0-0_計極細
  6
CONTINUOUS
 62
    2
 10
292.15569731883693
 20
460.28920897572061
 11
292.15569731883693
 21
465.88920897572052
  0
LINE
  8
_0-0_計極細
  6
CONTINUOUS
 62
    2
 10
279.15569731883693
 20
443.28920897572152
 11
279.15569731883693
 21
448.88920897572149
  0
LINE
  8
_0-0_計極細
  6
CONTINUOUS
 62
    2
 10
292.15569731883693
 20
443.28920897572152
 11
292.15569731883693
 21
448.88920897572149
  0
LINE
  8
_0-0_計極細
  6
CONTINUOUS
 62
    2
 10
279.15569731883693
 20
426.28920897572243
 11
279.15569731883693
 21
431.8892089757224
  0
LINE
  8
_0-0_計極細
  6
CONTINUOUS
 62
    2
 10
292.15569731883693
 20
426.28920897572243
 11
292.15569731883693
 21
431.8892089757224
  0
LINE
  8
_0-0_計極細
  6
CONTINUOUS
 62
    2
 10
279.15569731883693
 20
409.58920897571943
 11
279.15569731883693
 21
414.88920897571916
  0
LINE
  8
_0-0_計極細
  6
CONTINUOUS
 62
    2
 10
292.15569731883693
 20
409.58920897571943
 11
292.15569731883693
 21
414.88920897571916
  0
LINE
  8
_0-0_計極細
  6
CONTINUOUS
 62
    2
 10
279.15569731883693
 20
392.98920897572043
 11
279.15569731883693
 21
398.18920897572025
  0
LINE
  8
_0-0_計極細
  6
CONTINUOUS
 62
    2
 10
292.15569731883693
 20
392.98920897572043
 11
292.15569731883693
 21
398.18920897572025
  0
LINE
  8
_0-0_計極細
  6
CENTER1
 62
    2
 10
285.65569731883699
 20
740.339928400188
 11
285.65569731883699
 21
374.03138523470898
  0
LINE
  8
_0-5_寸法線
  6
CONTINUOUS
 62
    7
 10
278.65569731883653
 20
746.58920897572625
 11
278.65569731883653
 21
791.58920897572625
  0
LINE
  8
_0-5_寸法線
  6
CONTINUOUS
 62
    7
 10
278.65569731883653
 20
786.58920897572625
 11
288.31495558172719
 21
789.17739942675155
  0
LINE
  8
_0-5_寸法線
  6
CONTINUOUS
 62
    7
 10
278.65569731883653
 20
786.58920897572625
 11
288.31495558172719
 21
784.00101852470118
  0
LINE
  8
_0-5_寸法線
  6
CONTINUOUS
 62
    7
 10
285.65569731883647
 20
746.58920897572625
 11
285.65569731883647
 21
791.58920897572625
  0
LINE
  8
_0-5_寸法線
  6
CONTINUOUS
 62
    7
 10
285.65569731883647
 20
786.58920897572625
 11
275.99643905594576
 21
784.00101852470118
  0
LINE
  8
_0-5_寸法線
  6
CONTINUOUS
 62
    7
 10
285.65569731883647
 20
786.58920897572625
 11
275.99643905594581
 21
789.17739942675155
  0
LINE
  8
_0-5_寸法線
  6
CONTINUOUS
 62
    7
 10
278.65569731883653
 20
786.58920897572625
 11
285.65569731883647
 21
786.58920897572625
  0
TEXT
  8
_0-5_寸法線
 62
    7
 10
278.40569731883647
 20
786.58920897572625
 40
15
 41
1
 50
0
  1
7
  0
LINE
  8
_0-5_寸法線
  6
CONTINUOUS
 62
    7
 10
285.65569731883647
 20
786.58920897572625
 11
295.31495558172719
 21
789.17739942675155
  0
LINE
  8
_0-5_寸法線
  6
CONTINUOUS
 62
    7
 10
285.65569731883647
 20
786.58920897572625
 11
295.31495558172713
 21
784.00101852470107
  0
LINE
  8
_0-5_寸法線
  6
CONTINUOUS
 62
    7
 10
479.65569731883647
 20
746.58920897572625
 11
479.65569731883647
 21
791.58920897572625
  0
LINE
  8
_0-5_寸法線
  6
CONTINUOUS
 62
    7
 10
479.65569731883647
 20
786.58920897572625
 11
469.99643905594581
 21
784.00101852470118
  0
LINE
  8
_0-5_寸法線
  6
CONTINUOUS
 62
    7
 10
479.65569731883647
 20
786.58920897572625
 11
469.99643905594581
 21
789.17739942675155
  0
LINE
  8
_0-5_寸法線
  6
CONTINUOUS
 62
    7
 10
285.65569731883647
 20
786.58920897572625
 11
479.65569731883647
 21
786.58920897572625
  0
TEXT
  8
_0-5_寸法線
 62
    7
 10
352.65569731883647
 20
786.58920897572625
 40
15
 41
1
 50
0
  1
2@97=194
  0
LINE
  8
_0-5_寸法線
  6
CONTINUOUS
 62
    7
 10
479.65569731883647
 20
786.58920897572625
 11
489.31495558172719
 21
789.17739942675155
  0
LINE
  8
_0-5_寸法線
  6
CONTINUOUS
 62
    7
 10
479.65569731883647
 20
786.58920897572625
 11
489.31495558172713
 21
784.00101852470107
  0
LINE
  8
_0-5_寸法線
  6
CONTINUOUS
 62
    7
 10
524.65569731883636
 20
746.58920897572625
 11
524.65569731883636
 21
791.58920897572625
  0
LINE
  8
_0-5_寸法線
  6
CONTINUOUS
 62
    7
 10
524.65569731883636
 20
786.58920897572625
 11
514.99643905594564
 21
784.00101852470118
  0
LINE
  8
_0-5_寸法線
  6
CONTINUOUS
 62
    7
 10
524.65569731883636
 20
786.58920897572625
 11
514.99643905594564
 21
789.17739942675155
  0
LINE
  8
_0-5_寸法線
  6
CONTINUOUS
 62
    7
 10
479.65569731883647
 20
786.58920897572625
 11
524.65569731883636
 21
786.58920897572625
  0
TEXT
  8
_0-5_寸法線
 62
    7
 10
494.65569731883647
 20
786.58920897572625
 40
15
 41
1
 50
0
  1
45
  0
LINE
  8
_0-5_寸法線
  6
CONTINUOUS
 62
    7
 10
524.65569731883636
 20
786.58920897572625
 11
534.31495558172719
 21
789.17739942675155
  0
LINE
  8
_0-5_寸法線
  6
CONTINUOUS
 62
    7
 10
524.65569731883636
 20
786.58920897572625
 11
534.31495558172719
 21
784.00101852470107
  0
LINE
  8
_0-5_寸法線
  6
CONTINUOUS
 62
    7
 10
621.65569731883647
 20
746.58920897572625
 11
621.65569731883647
 21
791.58920897572625
  0
LINE
  8
_0-5_寸法線
  6
CONTINUOUS
 62
    7
 10
621.65569731883647
 20
786.58920897572625
 11
611.99643905594576
 21
784.00101852470118
  0
LINE
  8
_0-5_寸法線
  6
CONTINUOUS
 62
    7
 10
621.65569731883647
 20
786.58920897572625
 11
611.99643905594576
 21
789.17739942675155
  0
LINE
  8
_0-5_寸法線
  6
CONTINUOUS
 62
    7
 10
524.65569731883636
 20
786.58920897572625
 11
621.65569731883647
 21
786.58920897572625
  0
TEXT
  8
_0-5_寸法線
 62
    7
 10
565.65569731883647
 20
786.58920897572625
 40
15
 41
1
 50
0
  1
97
  0
LINE
  8
_0-5_寸法線
  6
CONTINUOUS
 62
    7
 10
621.65569731883647
 20
786.58920897572625
 11
631.31495558172719
 21
789.17739942675155
  0
LINE
  8
_0-5_寸法線
  6
CONTINUOUS
 62
    7
 10
621.65569731883647
 20
786.58920897572625
 11
631.31495558172719
 21
784.00101852470107
  0
LINE
  8
_0-5_寸法線
  6
CONTINUOUS
 62
    7
 10
628.65569731883647
 20
746.58920897572625
 11
628.65569731883647
 21
791.58920897572625
  0
LINE
  8
_0-5_寸法線
  6
CONTINUOUS
 62
    7
 10
628.65569731883647
 20
786.58920897572625
 11
618.99643905594576
 21
784.00101852470118
  0
LINE
  8
_0-5_寸法線
  6
CONTINUOUS
 62
    7
 10
628.65569731883647
 20
786.58920897572625
 11
618.99643905594576
 21
789.17739942675155
  0
LINE
  8
_0-5_寸法線
  6
CONTINUOUS
 62
    7
 10
621.65569731883647
 20
786.58920897572625
 11
628.65569731883647
 21
786.58920897572625
  0
TEXT
  8
_0-5_寸法線
 62
    7
 10
621.40569731883647
 20
786.58920897572625
 40
15
 41
1
 50
0
  1
7
  0
LINE
  8
_0-5_寸法線
  6
CONTINUOUS
 62
    7
 10
609.17213667523333
 20
573.26080866499296
 11
616.24320448709886
 21
580.33187647685838
  0
LINE
  8
_0-5_寸法線
  6
CONTINUOUS
 62
    7
 10
609.17213667523333
 20
573.26080866499296
 11
618.83139493812405
 21
575.84899911601815
  0
LINE
  8
_0-5_寸法線
  6
CONTINUOUS
 62
    7
 10
609.17213667523333
 20
573.26080866499296
 11
673.97213667523363
 21
610.67310610848062
  0
LINE
  8
_0-5_寸法線
  6
CONTINUOUS
 62
    7
 10
673.97213667523363
 20
610.67310610848062
 11
805.97213667523374
 21
610.67310610848062
  0
TEXT
  8
_0-5_寸法線
 62
    7
 10
673.97213667523363
 20
610.67310610848062
 40
15
 41
0.8000000000000001
 50
0
  1
セーフティグレーチング
  0
LINE
  8
_0-5_寸法線
  6
CONTINUOUS
 62
    7
 10
631.85547000856661
 20
509.76622229029726
 11
638.92653782043215
 21
516.83729010216268
  0
LINE
  8
_0-5_寸法線
  6
CONTINUOUS
 62
    7
 10
631.85547000856661
 20
509.76622229029726
 11
641.51472827145744
 21
512.35441274132245
  0
LINE
  8
_0-5_寸法線
  6
CONTINUOUS
 62
    7
 10
631.85547000856661
 20
509.76622229029726
 11
673.25547000856682
 21
533.66852343474784
  0
LINE
  8
_0-5_寸法線
  6
CONTINUOUS
 62
    7
 10
673.25547000856682
 20
533.66852343474784
 11
781.25547000856682
 21
533.66852343474784
  0
TEXT
  8
_0-5_寸法線
 62
    7
 10
673.25547000856682
 20
533.66852343474784
 40
15
 41
0.8000000000000001
 50
0
  1
ＳＵＳアングル受枠
  0
LINE
  8
_0-5_寸法線
  6
CONTINUOUS
 62
    7
 10
365.2192768276995
 20
565.10857232525836
 11
357.23993328000449
 21
571.13601594157342
  0
LINE
  8
_0-5_寸法線
  6
CONTINUOUS
 62
    7
 10
365.2192768276995
 20
565.10857232525836
 11
361.32268441802967
 21
574.31816339071304
  0
LINE
  8
_0-5_寸法線
  6
CONTINUOUS
 62
    7
 10
365.2192768276995
 20
565.10857232525836
 11
188.60025233113197
 21
791.71388675065259
  0
LINE
  8
_0-5_寸法線
  6
CONTINUOUS
 62
    7
 10
188.60025233113197
 20
791.71388675065259
 11
128.60025233113197
 21
791.71388675065259
  0
TEXT
  8
_0-5_寸法線
 62
    7
 10
128.60025233113197
 20
791.71388675065259
 40
15
 41
0.8000000000000001
 50
0
  1
取　外　具
  0
TEXT
  8
_0-5_寸法線
 62
    7
 10
125.37993517995254
 20
775.05535812452479
 40
15
 41
0.8000000000000001
 50
0
  1
(標準付属)
  0
TEXT
  8
_0-7_枠細線
 62
    5
 10
128.57308261542343
 20
808.99401188643594
 40
12.5
 41
0.8
 50
0
  1
２
  0
LINE
  8
_0-7_枠細線
  6
CONTINUOUS
 62
    5
 10
141.20793134727535
 20
809.30101413181649
 11
133.70793134727535
 21
824.30101413181649
  0
LINE
  8
_0-7_枠細線
  6
CONTINUOUS
 62
    5
 10
126.20793134727535
 20
809.30101413181649
 11
141.20793134727535
 21
809.30101413181649
  0
LINE
  8
_0-7_枠細線
  6
CONTINUOUS
 62
    5
 10
133.70793134727535
 20
824.30101413181649
 11
126.20793134727535
 21
809.30101413181649
  0
TEXT
  8
_0-7_枠細線
 62
    5
 10
147.46497644329963
 20
808.70086916436992
 40
12.5
 41
0.8
 50
0
  1
３
  0
LINE
  8
_0-7_枠細線
  6
CONTINUOUS
 62
    5
 10
152.59982517515155
 20
824.24855305455128
 11
145.09982517515155
 21
809.24855305455128
  0
LINE
  8
_0-7_枠細線
  6
CONTINUOUS
 62
    5
 10
145.09982517515155
 20
809.24855305455128
 11
160.09982517515155
 21
809.24855305455128
  0
LINE
  8
_0-7_枠細線
  6
CONTINUOUS
 62
    5
 10
160.09982517515155
 20
809.24855305455128
 11
152.59982517515155
 21
824.24855305455128
  0
TEXT
  8
_0-5_寸法線
 62
    7
 10
673.25547000856682
 20
518.66852343474784
 40
15
 41
0.8000000000000001
 50
0
  1
ＧＳＬ－２５
  0
LINE
  8
_0-7_枠細線
  6
CONTINUOUS
 62
    5
 10
644.76076114108071
 20
805.9117362139275
 11
637.26076114108059
 21
790.9117362139275
  0
LINE
  8
_0-7_枠細線
  6
CONTINUOUS
 62
    5
 10
637.26076114108059
 20
790.9117362139275
 11
652.26076114108071
 21
790.9117362139275
  0
LINE
  8
_0-7_枠細線
  6
CONTINUOUS
 62
    5
 10
652.26076114108071
 20
790.9117362139275
 11
644.76076114108071
 21
805.9117362139275
  0
TEXT
  8
_0-7_枠細線
 62
    5
 10
642.1259124092287
 20
790.36405232374614
 40
12.5
 41
0.8
 50
0
  1
1
  0
TEXT
  8
_0-7_枠細線
 62
    5
 10
930.00000000000045
 20
428.73000000000047
 40
15.000000000000002
 41
0.5
 50
0
  1
ＧＲＳ－２５Ｋ３５０－Ｂ
  0
TEXT
  8
_0-7_枠細線
 62
    5
 10
930.00000000000045
 20
403.73000000000047
 40
15.000000000000002
 41
0.5
 50
0
  1
ＧＲＳ－２５Ｋ３５０－Ｇ
  0
TEXT
  8
_0-7_枠細線
 62
    5
 10
930.00000000000045
 20
378.7300000000007
 40
15.000000000000002
 41
0.5
 50
0
  1
ＧＲＳ－２５Ｋ３５０－Ｓ
  0
TEXT
  8
_0-7_枠細線
 62
    5
 10
930.00000000000045
 20
353.73000000000047
 40
15.000000000000002
 41
0.5
 50
0
  1
ＧＲＳ－２５Ｋ３５０－Ｐ
  0
TEXT
  8
_0-7_枠細線
 62
    5
 10
930.00000000000045
 20
328.73000000000047
 40
15.000000000000002
 41
0.5
 50
0
  1
ＧＲＳ－２５Ｋ３５０－Ａ
  0
TEXT
  8
_0-7_枠細線
 62
    5
 10
930.00000000000045
 20
303.73000000000059
 40
15.000000000000002
 41
0.5
 50
0
  1
ＧＲＳ－２５Ｋ３５０－Ｄ
  0
TEXT
  8
_0-7_枠細線
 62
    5
 10
930.00000000000045
 20
278.7300000000007
 40
15.000000000000002
 41
0.5
 50
0
  1
ＧＲＳ－２５Ｋ３５０－Ｍ
  0
TEXT
  8
_0-7_枠細線
 62
    5
 10
930.00000000000045
 20
253.73000000000036
 40
15.000000000000002
 41
0.5
 50
0
  1
ＧＲＳ－２５Ｋ３５０－Ｃ
  0
TEXT
  8
_0-7_枠細線
 62
    5
 10
930.00000000000045
 20
228.73000000000008
 40
15.000000000000002
 41
0.5
 50
0
  1
ＧＲＳ－２５Ｋ３５０－Ｋ
  0
LINE
  8
_0-0_計極細
  6
CENTER1
 62
    2
 10
1105.6648721636482
 20
650.34792704236861
 11
1105.6648721636482
 21
688.41792704237241
  0
LINE
  8
_0-1_計細線
  6
CONTINUOUS
 62
    3
 10
1116.5148721643811
 20
662.35920573263104
 11
1120.9648721642
 21
662.35920573263104
  0
LINE
  8
_0-1_計細線
  6
CONTINUOUS
 62
    3
 10
1107.3648721638015
 20
662.35920573263104
 11
1111.8148721643806
 21
662.35920573263104
  0
LINE
  8
_0-1_計細線
  6
CONTINUOUS
 62
    3
 10
1107.3648721647664
 20
675.3592057326307
 11
1111.8148721643806
 21
675.3592057326307
  0
LINE
  8
_0-1_計細線
  6
CONTINUOUS
 62
    3
 10
1116.5148721643811
 20
675.3592057326307
 11
1120.9648721642002
 21
675.3592057326307
  0
LINE
  8
_0-1_計細線
  6
CONTINUOUS
 62
    3
 10
1278.1616199764371
 20
668.85920573263093
 11
1281.1661359764369
 21
668.85920573263093
  0
LINE
  8
_0-1_計細線
  6
CONTINUOUS
 62
    3
 10
1278.1616199764371
 20
665.35920573263138
 11
1281.1661479764368
 21
665.35920573263138
  0
ARC
  8
_0-1_計細線
  6
CONTINUOUS
 62
    3
 10
1281.1661479764368
 20
665.5592057326312
 40
0.2000000000000001
 50
269.99999999999977
 51
359.99999999999966
  0
ARC
  8
_0-1_計細線
  6
CONTINUOUS
 62
    3
 10
1273.608167976437
 20
667.10905973263152
 40
7.7579560000000019
 50
346.96432999999968
 51
13.038021999994573
  0
ARC
  8
_0-1_計細線
  6
CONTINUOUS
 62
    3
 10
1281.1661479764368
 20
672.15920573263134
 40
0.2000000000000001
 50
0
 51
89.999999999999915
  0
ARC
  8
_0-1_計細線
  6
CONTINUOUS
 62
    3
 10
1273.608167976437
 20
670.60934973263102
 40
7.7579560000000019
 50
346.96197799999976
 51
13.035669999999625
  0
LINE
  8
_0-1_計細線
  6
CONTINUOUS
 62
    3
 10
1278.1616199764371
 20
672.35920573263115
 11
1281.1661479764368
 21
672.35920573263115
  0
LINE
  8
_0-1_計細線
  6
CONTINUOUS
 62
    3
 10
1281.3661479764369
 20
665.5592057326312
 11
1281.3661479764369
 21
672.15920573263134
  0
ARC
  8
_0-1_計細線
  6
CONTINUOUS
 62
    3
 10
1277.9616199764366
 20
662.5592057326312
 40
0.2000000000000001
 50
269.99999999999977
 51
359.99999999999966
  0
LINE
  8
_0-1_計細線
  6
CONTINUOUS
 62
    3
 10
1276.6648719764364
 20
662.35920573263104
 11
1277.9616199764366
 21
662.35920573263104
  0
ARC
  8
_0-1_計細線
  6
CONTINUOUS
 62
    3
 10
1277.9616199764366
 20
675.15920573263088
 40
0.2000000000000001
 50
0
 51
89.999999999999915
  0
LINE
  8
_0-1_計細線
  6
CONTINUOUS
 62
    3
 10
1276.6648719764364
 20
675.35920573263115
 11
1277.9616199764366
 21
675.35920573263115
  0
LINE
  8
_0-1_計細線
  6
CONTINUOUS
 62
    3
 10
1278.1616199764371
 20
668.35920573263093
 11
1278.1616199764371
 21
662.5592057326312
  0
LINE
  8
_0-1_計細線
  6
CONTINUOUS
 62
    3
 10
1278.1616199764371
 20
675.15920573263088
 11
1278.1616199764371
 21
668.35920573263093
  0
LINE
  8
_0-1_計細線
  6
CONTINUOUS
 62
    3
 10
933.16812435085922
 20
668.85920573263093
 11
930.16360835085936
 21
668.85920573263093
  0
LINE
  8
_0-1_計細線
  6
CONTINUOUS
 62
    3
 10
933.16812435085922
 20
665.35920573263138
 11
930.16359635085973
 21
665.35920573263138
  0
ARC
  8
_0-1_計細線
  6
CONTINUOUS
 62
    3
 10
930.16359635085973
 20
665.5592057326312
 40
0.2000000000000001
 50
179.99999999999983
 51
269.99999999999977
  0
ARC
  8
_0-1_計細線
  6
CONTINUOUS
 62
    3
 10
937.72157635085932
 20
667.10905973263152
 40
7.7579560000000019
 50
166.96197800000505
 51
193.03566999999961
  0
ARC
  8
_0-1_計細線
  6
CONTINUOUS
 62
    3
 10
930.16359635085973
 20
672.15920573263134
 40
0.2000000000000001
 50
89.999999999999915
 51
179.99999999999983
  0
ARC
  8
_0-1_計細線
  6
CONTINUOUS
 62
    3
 10
937.72157635085932
 20
670.60934973263102
 40
7.7579560000000019
 50
166.96433000000002
 51
193.0380219999995
  0
LINE
  8
_0-1_計細線
  6
CONTINUOUS
 62
    3
 10
933.16812435085922
 20
672.35920573263115
 11
930.16359635085973
 21
672.35920573263115
  0
LINE
  8
_0-1_計細線
  6
CONTINUOUS
 62
    3
 10
929.96359635085946
 20
665.5592057326312
 11
929.96359635085946
 21
672.15920573263134
  0
ARC
  8
_0-1_計細線
  6
CONTINUOUS
 62
    3
 10
933.36812435085972
 20
662.5592057326312
 40
0.2000000000000001
 50
179.99999999999983
 51
269.99999999999977
  0
LINE
  8
_0-1_計細線
  6
CONTINUOUS
 62
    3
 10
934.6648723508597
 20
662.35920573263104
 11
933.36812435085972
 21
662.35920573263104
  0
ARC
  8
_0-1_計細線
  6
CONTINUOUS
 62
    3
 10
933.36812435085972
 20
675.15920573263088
 40
0.2000000000000001
 50
89.999999999999915
 51
179.99999999999983
  0
LINE
  8
_0-1_計細線
  6
CONTINUOUS
 62
    3
 10
934.6648723508597
 20
675.35920573263115
 11
933.36812435085972
 21
675.35920573263115
  0
LINE
  8
_0-1_計細線
  6
CONTINUOUS
 62
    3
 10
933.16812435085922
 20
668.35920573263093
 11
933.16812435085922
 21
662.5592057326312
  0
LINE
  8
_0-1_計細線
  6
CONTINUOUS
 62
    3
 10
933.16812435085922
 20
675.15920573263088
 11
933.16812435085922
 21
668.35920573263093
  0
LINE
  8
_0-1_計細線
  6
CONTINUOUS
 62
    3
 10
951.26487235247896
 20
675.3592057326307
 11
938.06487235247903
 21
675.3592057326307
  0
LINE
  8
_0-1_計細線
  6
CONTINUOUS
 62
    3
 10
951.26487235247851
 20
662.35920573263104
 11
938.06487235247903
 21
662.35920573263104
  0
LINE
  8
_0-1_計細線
  6
CONTINUOUS
 62
    3
 10
967.96487235265067
 20
675.3592057326307
 11
954.66487235265049
 21
675.3592057326307
  0
LINE
  8
_0-1_計細線
  6
CONTINUOUS
 62
    3
 10
967.96487235265067
 20
662.35920573263104
 11
954.66487235265049
 21
662.35920573263104
  0
LINE
  8
_0-1_計細線
  6
CONTINUOUS
 62
    3
 10
984.96487235266898
 20
675.3592057326307
 11
971.36487235266884
 21
675.3592057326307
  0
LINE
  8
_0-1_計細線
  6
CONTINUOUS
 62
    3
 10
1001.9648723528406
 20
675.3592057326307
 11
988.36487235284039
 21
675.3592057326307
  0
LINE
  8
_0-1_計細線
  6
CONTINUOUS
 62
    3
 10
1018.9648723530124
 20
675.3592057326307
 11
1005.3648723530123
 21
675.3592057326307
  0
LINE
  8
_0-1_計細線
  6
CONTINUOUS
 62
    3
 10
1035.9648723531841
 20
675.3592057326307
 11
1022.364872353184
 21
675.3592057326307
  0
LINE
  8
_0-1_計細線
  6
CONTINUOUS
 62
    3
 10
984.96487235266841
 20
662.35920573263104
 11
971.36487235266827
 21
662.35920573263104
  0
LINE
  8
_0-1_計細線
  6
CONTINUOUS
 62
    3
 10
1001.9648723528404
 20
662.35920573263104
 11
988.36487235284039
 21
662.35920573263104
  0
LINE
  8
_0-1_計細線
  6
CONTINUOUS
 62
    3
 10
1018.9648723530124
 20
662.35920573263104
 11
1005.3648723530123
 21
662.35920573263104
  0
LINE
  8
_0-1_計細線
  6
CONTINUOUS
 62
    3
 10
1035.9648723531843
 20
662.35920573263104
 11
1022.3648723531842
 21
662.35920573263104
  0
LINE
  8
_0-1_計細線
  6
CONTINUOUS
 62
    3
 10
1260.0648721661623
 20
675.3592057326307
 11
1273.2648721661624
 21
675.3592057326307
  0
LINE
  8
_0-1_計細線
  6
CONTINUOUS
 62
    3
 10
1260.0648721661623
 20
662.35920573263104
 11
1273.2648721661626
 21
662.35920573263104
  0
LINE
  8
_0-1_計細線
  6
CONTINUOUS
 62
    3
 10
1243.3648721659906
 20
675.3592057326307
 11
1256.6648721659908
 21
675.3592057326307
  0
LINE
  8
_0-1_計細線
  6
CONTINUOUS
 62
    3
 10
1243.3648721659906
 20
662.35920573263104
 11
1256.6648721659908
 21
662.35920573263104
  0
LINE
  8
_0-1_計細線
  6
CONTINUOUS
 62
    3
 10
1226.3648721659724
 20
675.3592057326307
 11
1239.9648721659723
 21
675.3592057326307
  0
LINE
  8
_0-1_計細線
  6
CONTINUOUS
 62
    3
 10
1209.3648721658005
 20
675.3592057326307
 11
1222.9648721658007
 21
675.3592057326307
  0
LINE
  8
_0-1_計細線
  6
CONTINUOUS
 62
    3
 10
1192.3648721656289
 20
675.3592057326307
 11
1205.964872165629
 21
675.3592057326307
  0
LINE
  8
_0-1_計細線
  6
CONTINUOUS
 62
    3
 10
1039.3648721631143
 20
675.3592057326307
 11
1052.9648721631143
 21
675.3592057326307
  0
LINE
  8
_0-1_計細線
  6
CONTINUOUS
 62
    3
 10
1175.3648721654572
 20
675.3592057326307
 11
1188.9648721654573
 21
675.3592057326307
  0
LINE
  8
_0-1_計細線
  6
CONTINUOUS
 62
    3
 10
1158.3648721650952
 20
675.3592057326307
 11
1171.9648721650951
 21
675.3592057326307
  0
LINE
  8
_0-1_計細線
  6
CONTINUOUS
 62
    3
 10
1056.3648721631146
 20
675.3592057326307
 11
1069.9648721631147
 21
675.3592057326307
  0
LINE
  8
_0-1_計細線
  6
CONTINUOUS
 62
    3
 10
1073.3648721634768
 20
675.3592057326307
 11
1086.9648721634762
 21
675.3592057326307
  0
LINE
  8
_0-1_計細線
  6
CONTINUOUS
 62
    3
 10
1090.3648721638383
 20
675.3592057326307
 11
1103.964872163838
 21
675.3592057326307
  0
LINE
  8
_0-1_計細線
  6
CONTINUOUS
 62
    3
 10
1124.3648721645616
 20
675.3592057326307
 11
1137.9648721645617
 21
675.3592057326307
  0
LINE
  8
_0-1_計細線
  6
CONTINUOUS
 62
    3
 10
1141.3648721649238
 20
675.3592057326307
 11
1154.9648721649235
 21
675.3592057326307
  0
LINE
  8
_0-1_計細線
  6
CONTINUOUS
 62
    3
 10
1226.3648721659724
 20
662.35920573263104
 11
1239.9648721659726
 21
662.35920573263104
  0
LINE
  8
_0-1_計細線
  6
CONTINUOUS
 62
    3
 10
1209.364872165801
 20
662.35920573263104
 11
1222.9648721658007
 21
662.35920573263104
  0
LINE
  8
_0-1_計細線
  6
CONTINUOUS
 62
    3
 10
1192.3648721656289
 20
662.35920573263104
 11
1205.9648721656288
 21
662.35920573263104
  0
LINE
  8
_0-1_計細線
  6
CONTINUOUS
 62
    3
 10
1039.3648721631143
 20
662.35920573263104
 11
1052.9648721631143
 21
662.35920573263104
  0
LINE
  8
_0-1_計細線
  6
CONTINUOUS
 62
    3
 10
1175.3648721654567
 20
662.35920573263104
 11
1188.9648721654569
 21
662.35920573263104
  0
LINE
  8
_0-1_計細線
  6
CONTINUOUS
 62
    3
 10
1158.3648721650952
 20
662.35920573263104
 11
1171.9648721650954
 21
662.35920573263104
  0
LINE
  8
_0-1_計細線
  6
CONTINUOUS
 62
    3
 10
1056.3648721631143
 20
662.35920573263104
 11
1069.9648721631145
 21
662.35920573263104
  0
LINE
  8
_0-1_計細線
  6
CONTINUOUS
 62
    3
 10
1073.3648721634763
 20
662.35920573263104
 11
1086.9648721634762
 21
662.35920573263104
  0
LINE
  8
_0-1_計細線
  6
CONTINUOUS
 62
    3
 10
1090.3648721638383
 20
662.35920573263104
 11
1103.964872163838
 21
662.35920573263104
  0
LINE
  8
_0-1_計細線
  6
CONTINUOUS
 62
    3
 10
1124.3648721645616
 20
662.35920573263104
 11
1137.9648721645615
 21
662.35920573263104
  0
LINE
  8
_0-1_計細線
  6
CONTINUOUS
 62
    3
 10
1141.3648721649236
 20
662.35920573263104
 11
1154.9648721649237
 21
662.35920573263104
  0
LINE
  8
_0-0_計極細
  6
CENTER1
 62
    2
 10
1287.9787110411041
 20
668.85920573263093
 11
922.65340239912894
 21
668.85920573263093
  0
CIRCLE
  8
_0-0_計極細
  6
CONTINUOUS
 62
    2
 10
907.77279361951685
 20
668.29406357622577
 40
1.0953188836088352
  0
LINE
  8
_0-0_計極細
  6
CONTINUOUS
 62
    2
 10
915.36368035706937
 20
673.05942472996139
 11
920.66487216364817
 21
678.36061653653996
  0
LINE
  8
_0-0_計極細
  6
CONTINUOUS
 62
    2
 10
902.63575828688533
 20
673.05942472113475
 11
909.63575829938861
 21
680.05942473363791
  0
LINE
  8
_0-0_計極細
  6
CONTINUOUS
 62
    2
 10
889.90783621670016
 20
673.05942471230787
 11
896.90783623803009
 21
680.05942473363802
  0
LINE
  8
_0-0_計極細
  6
CONTINUOUS
 62
    2
 10
877.17991414651578
 20
673.059424703481
 11
884.17991417667224
 21
680.05942473363802
  0
LINE
  8
_0-0_計極細
  6
CONTINUOUS
 62
    2
 10
867.15822387657909
 20
675.76565649490249
 11
871.45199211531451
 21
680.05942473363791
  0
LINE
  8
_0-0_計極細
  6
DASHED2
 62
    2
 10
908.9997193219773
 20
673.05942472554784
 11
915.99971933006736
 21
680.05942473363802
  0
LINE
  8
_0-0_計極細
  6
DASHED2
 62
    2
 10
896.27179725179292
 20
673.0594247167212
 11
903.27179726870918
 21
680.05942473363802
  0
LINE
  8
_0-0_計極細
  6
DASHED2
 62
    2
 10
883.5438751816082
 20
673.05942470789455
 11
890.54387520735133
 21
680.05942473363802
  0
LINE
  8
_0-0_計極細
  6
DASHED2
 62
    2
 10
870.81595311142325
 20
673.0594246990679
 11
877.81595314599326
 21
680.05942473363802
  0
LINE
  8
_0-0_計極細
  6
CONTINUOUS
 62
    2
 10
925.54601800983255
 20
673.0594247336378
 11
925.66487216364806
 21
673.17827888745342
  0
LINE
  8
_0-0_計極細
  6
CONTINUOUS
 62
    2
 10
923.00043359756103
 20
673.0594247336378
 11
925.66487216364817
 21
675.72386329972483
  0
LINE
  8
_0-0_計極細
  6
CONTINUOUS
 62
    2
 10
920.66487216364817
 20
673.26944771199646
 11
925.66487216364817
 21
678.26944771199646
  0
LINE
  8
_0-0_計極細
  6
CONTINUOUS
 62
    2
 10
920.66487216364817
 20
675.8150321242681
 11
924.90926477301741
 21
680.05942473363802
  0
LINE
  8
_0-0_計極細
  6
CONTINUOUS
 62
    2
 10
920.66487216364817
 20
678.36061653653996
 11
922.36368036074623
 21
680.05942473363802
  0
LINE
  8
_0-0_計極細
  6
CONTINUOUS
 62
    2
 10
925.66487216364817
 20
678.69084461028274
 11
924.296292040293
 21
680.05942473363802
  0
LINE
  8
_0-0_計極細
  6
CONTINUOUS
 62
    2
 10
925.66487216364817
 20
676.14526019801087
 11
921.75070762802147
 21
680.05942473363802
  0
LINE
  8
_0-0_計極細
  6
CONTINUOUS
 62
    2
 10
920.66487216364817
 20
678.59967578573969
 11
925.66487216364817
 21
673.59967578573946
  0
LINE
  8
_0-0_計極細
  6
CONTINUOUS
 62
    2
 10
920.66487216364817
 20
676.05409137346783
 11
923.65953880347831
 21
673.0594247336378
  0
LINE
  8
_0-0_計極細
  6
CONTINUOUS
 62
    2
 10
920.66487216364817
 20
673.50850696119653
 11
921.11395439120668
 21
673.0594247336378
  0
LINE
  8
_0-0_計極細
  6
CONTINUOUS
 62
    2
 10
925.66487216364817
 20
679.55942473363757
 11
925.66487216364817
 21
680.05942473363802
  0
LINE
  8
_0-0_計極細
  6
CONTINUOUS
 62
    2
 10
925.66487216364817
 20
680.05942473363802
 11
920.66487216364817
 21
680.05942473363802
  0
LINE
  8
_0-0_計極細
  6
CONTINUOUS
 62
    2
 10
925.66487216364817
 20
673.0594247336378
 11
867.15822387657909
 21
673.0594247336378
  0
LINE
  8
_0-0_計極細
  6
CONTINUOUS
 62
    2
 10
920.66487216364817
 20
680.05942473363802
 11
867.15822387657909
 21
680.05942473363802
  0
LINE
  8
_0-0_計極細
  6
CONTINUOUS
 62
    2
 10
920.66487216364817
 20
680.05942473363802
 11
920.66487216364817
 21
673.0594247336378
  0
CIRCLE
  8
_0-0_計極細
  6
CONTINUOUS
 62
    2
 10
871.97949629623008
 20
666.0807302428932
 40
1.0953188836088352
  0
CIRCLE
  8
_0-0_計極細
  6
CONTINUOUS
 62
    2
 10
884.09774402087749
 20
665.54516547437845
 40
1.0953188836088352
  0
CIRCLE
  8
_0-0_計極細
  6
CONTINUOUS
 62
    2
 10
899.07501584173883
 20
669.96813765030038
 40
0.3318518518518431
  0
CIRCLE
  8
_0-0_計極細
  6
CONTINUOUS
 62
    2
 10
921.04834917507173
 20
661.32813765030039
 40
0.3318518518518431
  0
CIRCLE
  8
_0-0_計極細
  6
CONTINUOUS
 62
    2
 10
917.63501584173832
 20
671.03480431696698
 40
0.3318518518518431
  0
CIRCLE
  8
_0-0_計極細
  6
CONTINUOUS
 62
    2
 10
902.70168250840538
 20
665.06147098363385
 40
0.3318518518518431
  0
CIRCLE
  8
_0-0_計極細
  6
CONTINUOUS
 62
    2
 10
877.89575658247963
 20
662.18147098363374
 40
0.3318518518518431
  0
LINE
  8
_0-0_計極細
  6
CONTINUOUS
 62
    2
 10
1331.7383554038302
 20
673.0594247336378
 11
1338.7383550277568
 21
680.05942435756447
  0
LINE
  8
_0-0_計極細
  6
CONTINUOUS
 62
    2
 10
1319.0104333424722
 20
673.0594247336378
 11
1326.0104330659681
 21
680.05942445713345
  0
LINE
  8
_0-0_計極細
  6
CONTINUOUS
 62
    2
 10
1306.2825112811142
 20
673.0594247336378
 11
1313.2825111041791
 21
680.05942455670265
  0
LINE
  8
_0-0_計極細
  6
CONTINUOUS
 62
    2
 10
1293.5545892197567
 20
673.0594247336378
 11
1300.5545891423908
 21
680.05942465627186
  0
LINE
  8
_0-0_計極細
  6
DASHED2
 62
    2
 10
1338.1023164345092
 20
673.0594247336378
 11
1344.171520450717
 21
679.1286287498458
  0
LINE
  8
_0-0_計極細
  6
DASHED2
 62
    2
 10
1325.3743943731511
 20
673.0594247336378
 11
1332.3743940468623
 21
680.05942440734907
  0
LINE
  8
_0-0_計極細
  6
DASHED2
 62
    2
 10
1312.6464723117931
 20
673.0594247336378
 11
1319.6464720850736
 21
680.05942450691794
  0
LINE
  8
_0-0_計極細
  6
DASHED2
 62
    2
 10
1299.9185502504356
 20
673.0594247336378
 11
1306.9185501232844
 21
680.05942460648714
  0
LINE
  8
_0-0_計極細
  6
DASHED2
 62
    2
 10
1290.6648721636484
 20
676.53366870820855
 11
1294.1906281614961
 21
680.05942470605635
  0
LINE
  8
_0-0_計極細
  6
CONTINUOUS
 62
    2
 10
1290.6648721636484
 20
675.26087650207262
 11
1288.4634203952132
 21
673.0594247336378
  0
LINE
  8
_0-0_計極細
  6
CONTINUOUS
 62
    2
 10
1290.6648721636484
 20
677.80646091434392
 11
1285.9178359829421
 21
673.0594247336378
  0
LINE
  8
_0-0_計極細
  6
CONTINUOUS
 62
    2
 10
1285.6648721636484
 20
675.35204532661612
 11
1290.3722515706702
 21
680.05942473363802
  0
LINE
  8
_0-0_計極細
  6
CONTINUOUS
 62
    2
 10
1285.6648721636484
 20
677.89762973888742
 11
1287.8266671583988
 21
680.05942473363791
  0
LINE
  8
_0-0_計極細
  6
CONTINUOUS
 62
    2
 10
1290.6648721636484
 20
679.1538314079346
 11
1289.759278837945
 21
680.05942473363802
  0
LINE
  8
_0-0_計極細
  6
CONTINUOUS
 62
    2
 10
1290.6648721636484
 20
676.60824699566308
 11
1287.2136944256736
 21
680.05942473363802
  0
LINE
  8
_0-0_計極細
  6
CONTINUOUS
 62
    2
 10
1290.6648721636484
 20
674.06266258339156
 11
1285.6648721636484
 21
679.06266258339156
  0
LINE
  8
_0-0_計極細
  6
CONTINUOUS
 62
    2
 10
1289.1225256011303
 20
673.0594247336378
 11
1285.6648721636484
 21
676.51707817111992
  0
LINE
  8
_0-0_計極細
  6
CONTINUOUS
 62
    2
 10
1286.5769411888587
 20
673.0594247336378
 11
1285.6648721636484
 21
673.97149375884806
  0
LINE
  8
_0-0_計極細
  6
CONTINUOUS
 62
    2
 10
1285.6648721636484
 20
679.55942473363757
 11
1285.6648721636484
 21
680.05942473363802
  0
LINE
  8
_0-0_計極細
  6
CONTINUOUS
 62
    2
 10
1285.6648721636484
 20
680.05942473363802
 11
1290.6648721636484
 21
680.05942473363802
  0
LINE
  8
_0-0_計極細
  6
CONTINUOUS
 62
    2
 10
1285.6648721636484
 20
673.0594247336378
 11
1344.171520450717
 21
673.0594247336378
  0
LINE
  8
_0-0_計極細
  6
CONTINUOUS
 62
    2
 10
1290.6648721636484
 20
680.05942473363802
 11
1344.171520450717
 21
680.05942473363802
  0
LINE
  8
_0-0_計極細
  6
CONTINUOUS
 62
    2
 10
1290.6648721636484
 20
680.05942473363802
 11
1290.6648721636484
 21
673.0594247336378
  0
CIRCLE
  8
_0-0_計極細
  6
CONTINUOUS
 62
    2
 10
1297.6616825084036
 20
671.77869320585614
 40
0.3318518518518431
  0
CIRCLE
  8
_0-0_計極細
  6
CONTINUOUS
 62
    2
 10
1328.8616825084034
 20
671.21869320585597
 40
0.3318518518518431
  0
CIRCLE
  8
_0-0_計極細
  6
CONTINUOUS
 62
    2
 10
1333.6616825084034
 20
666.4407302428931
 40
1.0953188836088352
  0
CIRCLE
  8
_0-0_計極細
  6
CONTINUOUS
 62
    2
 10
1320.4616825084033
 20
661.53869320585613
 40
0.3318518518518431
  0
LINE
  8
_0-1_計細線
  6
CONTINUOUS
 62
    3
 10
1116.5148721643811
 20
680.25944699243837
 11
1116.5148721643811
 21
655.25944699243837
  0
LINE
  8
_0-1_計細線
  6
CONTINUOUS
 62
    3
 10
1111.8148721643806
 20
655.25944699243837
 11
1111.8148721643806
 21
680.25944699243837
  0
LINE
  8
_0-1_計細線
  6
CONTINUOUS
 62
    3
 10
1116.5148721643811
 20
655.25944699243837
 11
1111.8148721643806
 21
655.25944699243837
  0
LINE
  8
_0-1_計細線
  6
CONTINUOUS
 62
    3
 10
1111.8148721643806
 20
680.25944699243837
 11
1116.5148721643811
 21
680.25944699243837
  0
LINE
  8
_0-1_計細線
  6
DASHED2
 62
    3
 10
1111.8148721643806
 20
663.25944699243814
 11
1116.5148721643811
 21
663.25944699243814
  0
LINE
  8
_0-1_計細線
  6
DASHED2
 62
    3
 10
1111.8148721643806
 20
677.25944699243837
 11
1116.5148721643811
 21
677.25944699243837
  0
ARC
  8
_0-1_計細線
  6
CONTINUOUS
 62
    3
 10
1100.9648721647513
 20
678.05920573263097
 40
1.0000000000000004
 50
89.999999999999915
 51
179.99999999999983
  0
ARC
  8
_0-1_計細線
  6
CONTINUOUS
 62
    3
 10
1101.4328213560791
 20
680.05920573263052
 40
1.0000000000000004
 50
269.99999999999977
 51
330.00000000002012
  0
ARC
  8
_0-1_計細線
  6
CONTINUOUS
 62
    3
 10
1103.1648721636484
 20
679.05920573263074
 40
1.0000000000000004
 50
89.999999999999915
 51
150.00000000000273
  0
LINE
  8
_0-1_計細線
  6
CONTINUOUS
 62
    3
 10
1100.9648721647513
 20
679.05920573263074
 11
1101.4328213560791
 21
679.05920573263074
  0
ARC
  8
_0-1_計細線
  6
CONTINUOUS
 62
    3
 10
1110.364872162545
 20
678.05920573263097
 40
1.0000000000000004
 50
0
 51
89.999999999999915
  0
ARC
  8
_0-1_計細線
  6
CONTINUOUS
 62
    3
 10
1109.896922971217
 20
680.05920573263052
 40
1.0000000000000004
 50
209.99999999998565
 51
269.99999999999977
  0
ARC
  8
_0-1_計細線
  6
CONTINUOUS
 62
    3
 10
1108.1648721636479
 20
679.05920573263074
 40
1.0000000000000004
 50
29.999999999997289
 51
89.999999999999929
  0
LINE
  8
_0-1_計細線
  6
CONTINUOUS
 62
    3
 10
1110.364872162545
 20
679.05920573263074
 11
1109.896922971217
 21
679.05920573263074
  0
ARC
  8
_0-1_計細線
  6
CONTINUOUS
 62
    3
 10
1100.4648721647518
 20
676.65920573263111
 40
0.5000000000000002
 50
179.99999999999983
 51
269.99999999999977
  0
LINE
  8
_0-1_計細線
  6
CONTINUOUS
 62
    3
 10
1099.9648721647518
 20
678.05920573263097
 11
1099.9648721647518
 21
676.65920573263111
  0
ARC
  8
_0-1_計細線
  6
CONTINUOUS
 62
    3
 10
1110.8648721625445
 20
676.65920573263111
 40
0.5000000000000002
 50
269.99999999999977
 51
359.99999999999966
  0
LINE
  8
_0-1_計細線
  6
CONTINUOUS
 62
    3
 10
1111.3648721625448
 20
678.05920573263097
 11
1111.3648721625448
 21
676.65920573263111
  0
ARC
  8
_0-1_計細線
  6
CONTINUOUS
 62
    3
 10
1102.9648721647518
 20
675.15920573263111
 40
1.0000000000000004
 50
0
 51
89.999999999999915
  0
LINE
  8
_0-1_計細線
  6
CONTINUOUS
 62
    3
 10
1102.9648721647518
 20
676.15920573263065
 11
1100.4648721647518
 21
676.15920573263065
  0
ARC
  8
_0-1_計細線
  6
CONTINUOUS
 62
    3
 10
1108.3648721647519
 20
675.15920573263111
 40
1.0000000000000004
 50
89.999999999999915
 51
179.99999999999983
  0
LINE
  8
_0-1_計細線
  6
CONTINUOUS
 62
    3
 10
1108.3648721625445
 20
676.15920573263065
 11
1110.8648721625445
 21
676.15920573263065
  0
LINE
  8
_0-1_計細線
  6
CONTINUOUS
 62
    3
 10
1108.1648721636479
 20
680.05920573263052
 11
1103.1648721636484
 21
680.05920573263052
  0
LINE
  8
_0-1_計細線
  6
CONTINUOUS
 62
    3
 10
1103.9648721636481
 20
655.05920573263143
 11
1103.9648721647513
 21
675.15920573263111
  0
LINE
  8
_0-1_計細線
  6
CONTINUOUS
 62
    3
 10
1107.364872163648
 20
655.05920573263143
 11
1107.3648721647517
 21
675.15920573263111
  0
LINE
  8
_0-1_計細線
  6
CONTINUOUS
 62
    3
 10
1107.364872163648
 20
655.05920573263143
 11
1103.9648721636481
 21
655.05920573263143
  0
ARC
  8
_0-1_計細線
  6
CONTINUOUS
 62
    3
 10
941.06487235141219
 20
678.05920573263097
 40
1.0000000000000004
 50
0
 51
89.999999999999915
  0
ARC
  8
_0-1_計細線
  6
CONTINUOUS
 62
    3
 10
940.59692316008409
 20
680.05920573263052
 40
1.0000000000000004
 50
209.99999999998889
 51
269.99999999999977
  0
ARC
  8
_0-1_計細線
  6
CONTINUOUS
 62
    3
 10
938.86487235251548
 20
679.05920573263074
 40
1.0000000000000004
 50
30.000000000007059
 51
89.999999999999929
  0
LINE
  8
_0-1_計細線
  6
CONTINUOUS
 62
    3
 10
941.06487235141219
 20
679.05920573263074
 11
940.59692316008409
 21
679.05920573263074
  0
ARC
  8
_0-1_計細線
  6
CONTINUOUS
 62
    3
 10
931.66487235361865
 20
678.05920573263097
 40
1.0000000000000004
 50
89.999999999999915
 51
179.99999999999983
  0
ARC
  8
_0-1_計細線
  6
CONTINUOUS
 62
    3
 10
932.13282154494664
 20
680.05920573263052
 40
1.0000000000000004
 50
269.99999999999977
 51
330.00000000001035
  0
ARC
  8
_0-1_計細線
  6
CONTINUOUS
 62
    3
 10
933.86487235251548
 20
679.05920573263074
 40
1.0000000000000004
 50
90.00000000001954
 51
150.00000000000273
  0
LINE
  8
_0-1_計細線
  6
CONTINUOUS
 62
    3
 10
931.66487235361865
 20
679.05920573263074
 11
932.13282154494664
 21
679.05920573263074
  0
ARC
  8
_0-1_計細線
  6
CONTINUOUS
 62
    3
 10
941.56487235141185
 20
676.65920573263111
 40
0.5000000000000002
 50
269.99999999999977
 51
359.99999999999966
  0
LINE
  8
_0-1_計細線
  6
CONTINUOUS
 62
    3
 10
942.06487235141162
 20
678.05920573263097
 11
942.06487235141162
 21
676.65920573263111
  0
ARC
  8
_0-1_計細線
  6
CONTINUOUS
 62
    3
 10
931.16487235361888
 20
676.65920573263111
 40
0.5000000000000002
 50
179.99999999999983
 51
269.99999999999977
  0
LINE
  8
_0-1_計細線
  6
CONTINUOUS
 62
    3
 10
930.6648723536191
 20
678.05920573263097
 11
930.6648723536191
 21
676.65920573263111
  0
ARC
  8
_0-1_計細線
  6
CONTINUOUS
 62
    3
 10
939.06487235141174
 20
675.15920573263111
 40
1.0000000000000004
 50
89.999999999999915
 51
179.99999999999983
  0
LINE
  8
_0-1_計細線
  6
CONTINUOUS
 62
    3
 10
939.06487235141174
 20
676.15920573263065
 11
941.56487235141185
 21
676.15920573263065
  0
ARC
  8
_0-1_計細線
  6
CONTINUOUS
 62
    3
 10
933.66487235141165
 20
675.15920573263111
 40
1.0000000000000004
 50
0
 51
89.999999999999915
  0
LINE
  8
_0-1_計細線
  6
CONTINUOUS
 62
    3
 10
933.66487235361899
 20
676.15920573263065
 11
931.16487235361888
 21
676.15920573263065
  0
LINE
  8
_0-1_計細線
  6
CONTINUOUS
 62
    3
 10
933.86487235251548
 20
680.05920573263052
 11
938.86487235251548
 21
680.05920573263052
  0
LINE
  8
_0-1_計細線
  6
CONTINUOUS
 62
    3
 10
938.06487235251552
 20
655.05920573263143
 11
938.06487235141174
 21
675.15920573263111
  0
LINE
  8
_0-1_計細線
  6
CONTINUOUS
 62
    3
 10
934.6648723525152
 20
655.05920573263143
 11
934.6648723514113
 21
675.15920573263111
  0
LINE
  8
_0-1_計細線
  6
CONTINUOUS
 62
    3
 10
934.6648723525152
 20
655.05920573263143
 11
938.06487235251552
 21
655.05920573263143
  0
ARC
  8
_0-1_計細線
  6
CONTINUOUS
 62
    3
 10
957.66487235173713
 20
678.05920573263097
 40
1.0000000000000004
 50
0
 51
89.999999999999915
  0
ARC
  8
_0-1_計細線
  6
CONTINUOUS
 62
    3
 10
957.19692316040948
 20
680.05920573263052
 40
1.0000000000000004
 50
209.99999999998889
 51
269.99999999999977
  0
ARC
  8
_0-1_計細線
  6
CONTINUOUS
 62
    3
 10
955.46487235284076
 20
679.05920573263074
 40
1.0000000000000004
 50
30.000000000000544
 51
89.999999999999929
  0
LINE
  8
_0-1_計細線
  6
CONTINUOUS
 62
    3
 10
957.66487235173713
 20
679.05920573263074
 11
957.19692316040948
 21
679.05920573263074
  0
ARC
  8
_0-1_計細線
  6
CONTINUOUS
 62
    3
 10
948.26487235394416
 20
678.05920573263097
 40
1.0000000000000004
 50
89.999999999999915
 51
179.99999999999983
  0
ARC
  8
_0-1_計細線
  6
CONTINUOUS
 62
    3
 10
948.73282154527203
 20
680.05920573263052
 40
1.0000000000000004
 50
269.99999999999977
 51
330.00000000001364
  0
ARC
  8
_0-1_計細線
  6
CONTINUOUS
 62
    3
 10
950.46487235284076
 20
679.05920573263074
 40
1.0000000000000004
 50
90.000000000013031
 51
149.99999999999622
  0
LINE
  8
_0-1_計細線
  6
CONTINUOUS
 62
    3
 10
948.26487235394416
 20
679.05920573263074
 11
948.73282154527203
 21
679.05920573263074
  0
ARC
  8
_0-1_計細線
  6
CONTINUOUS
 62
    3
 10
958.16487235173724
 20
676.65920573263111
 40
0.5000000000000002
 50
269.99999999999977
 51
359.99999999999966
  0
LINE
  8
_0-1_計細線
  6
CONTINUOUS
 62
    3
 10
958.66487235173713
 20
678.05920573263097
 11
958.66487235173713
 21
676.65920573263111
  0
ARC
  8
_0-1_計細線
  6
CONTINUOUS
 62
    3
 10
947.76487235394427
 20
676.65920573263111
 40
0.5000000000000002
 50
179.99999999999983
 51
269.99999999999977
  0
LINE
  8
_0-1_計細線
  6
CONTINUOUS
 62
    3
 10
947.26487235394438
 20
678.05920573263097
 11
947.26487235394438
 21
676.65920573263111
  0
ARC
  8
_0-1_計細線
  6
CONTINUOUS
 62
    3
 10
955.66487235173713
 20
675.15920573263111
 40
1.0000000000000004
 50
89.999999999999915
 51
179.99999999999983
  0
LINE
  8
_0-1_計細線
  6
CONTINUOUS
 62
    3
 10
955.66487235173713
 20
676.15920573263065
 11
958.16487235173724
 21
676.15920573263065
  0
ARC
  8
_0-1_計細線
  6
CONTINUOUS
 62
    3
 10
950.26487235173704
 20
675.15920573263111
 40
1.0000000000000004
 50
0
 51
89.999999999999915
  0
LINE
  8
_0-1_計細線
  6
CONTINUOUS
 62
    3
 10
950.26487235394438
 20
676.15920573263065
 11
947.76487235394427
 21
676.15920573263065
  0
LINE
  8
_0-1_計細線
  6
CONTINUOUS
 62
    3
 10
950.46487235284076
 20
680.05920573263052
 11
955.46487235284076
 21
680.05920573263052
  0
LINE
  8
_0-1_計細線
  6
CONTINUOUS
 62
    3
 10
954.66487235284092
 20
655.05920573263143
 11
954.66487235173713
 21
675.15920573263111
  0
LINE
  8
_0-1_計細線
  6
CONTINUOUS
 62
    3
 10
951.26487235284071
 20
655.05920573263143
 11
951.26487235173727
 21
675.15920573263111
  0
LINE
  8
_0-1_計細線
  6
CONTINUOUS
 62
    3
 10
951.26487235284071
 20
655.05920573263143
 11
954.66487235284092
 21
655.05920573263143
  0
ARC
  8
_0-1_計細線
  6
CONTINUOUS
 62
    3
 10
974.36487235175537
 20
678.05920573263097
 40
1.0000000000000004
 50
0
 51
89.999999999999915
  0
ARC
  8
_0-1_計細線
  6
CONTINUOUS
 62
    3
 10
973.89692316042772
 20
680.05920573263052
 40
1.0000000000000004
 50
209.99999999999542
 51
269.99999999999977
  0
ARC
  8
_0-1_計細線
  6
CONTINUOUS
 62
    3
 10
972.16487235285911
 20
679.05920573263074
 40
1.0000000000000004
 50
30.000000000000544
 51
89.999999999999929
  0
LINE
  8
_0-1_計細線
  6
CONTINUOUS
 62
    3
 10
974.36487235175537
 20
679.05920573263074
 11
973.89692316042772
 21
679.05920573263074
  0
ARC
  8
_0-1_計細線
  6
CONTINUOUS
 62
    3
 10
964.96487235396239
 20
678.05920573263097
 40
1.0000000000000004
 50
89.999999999999915
 51
179.99999999999983
  0
ARC
  8
_0-1_計細線
  6
CONTINUOUS
 62
    3
 10
965.43282154528981
 20
680.05920573263052
 40
1.0000000000000004
 50
269.99999999999977
 51
330.00000000001364
  0
ARC
  8
_0-1_計細線
  6
CONTINUOUS
 62
    3
 10
967.16487235285865
 20
679.05920573263074
 40
1.0000000000000004
 50
89.999999999999915
 51
149.99999999999946
  0
LINE
  8
_0-1_計細線
  6
CONTINUOUS
 62
    3
 10
964.96487235396239
 20
679.05920573263074
 11
965.43282154528981
 21
679.05920573263074
  0
ARC
  8
_0-1_計細線
  6
CONTINUOUS
 62
    3
 10
974.86487235175503
 20
676.65920573263111
 40
0.5000000000000002
 50
269.99999999999977
 51
359.99999999999966
  0
LINE
  8
_0-1_計細線
  6
CONTINUOUS
 62
    3
 10
975.36487235175514
 20
678.05920573263097
 11
975.36487235175514
 21
676.65920573263111
  0
ARC
  8
_0-1_計細線
  6
CONTINUOUS
 62
    3
 10
964.46487235396262
 20
676.65920573263111
 40
0.5000000000000002
 50
179.99999999999983
 51
269.99999999999977
  0
LINE
  8
_0-1_計細線
  6
CONTINUOUS
 62
    3
 10
963.96487235396216
 20
678.05920573263097
 11
963.96487235396216
 21
676.65920573263111
  0
ARC
  8
_0-1_計細線
  6
CONTINUOUS
 62
    3
 10
972.36487235175514
 20
675.15920573263111
 40
1.0000000000000004
 50
89.999999999999915
 51
179.99999999999983
  0
LINE
  8
_0-1_計細線
  6
CONTINUOUS
 62
    3
 10
972.36487235175514
 20
676.15920573263065
 11
974.86487235175503
 21
676.15920573263065
  0
ARC
  8
_0-1_計細線
  6
CONTINUOUS
 62
    3
 10
966.96487235175528
 20
675.15920573263111
 40
1.0000000000000004
 50
0
 51
89.999999999999915
  0
LINE
  8
_0-1_計細線
  6
CONTINUOUS
 62
    3
 10
966.96487235396273
 20
676.15920573263065
 11
964.46487235396262
 21
676.15920573263065
  0
LINE
  8
_0-1_計細線
  6
CONTINUOUS
 62
    3
 10
967.16487235285865
 20
680.05920573263052
 11
972.16487235285911
 21
680.05920573263052
  0
LINE
  8
_0-1_計細線
  6
CONTINUOUS
 62
    3
 10
971.3648723528587
 20
655.05920573263143
 11
971.36487235175537
 21
675.15920573263111
  0
LINE
  8
_0-1_計細線
  6
CONTINUOUS
 62
    3
 10
967.96487235285883
 20
655.05920573263143
 11
967.96487235175505
 21
675.15920573263111
  0
LINE
  8
_0-1_計細線
  6
CONTINUOUS
 62
    3
 10
967.96487235285883
 20
655.05920573263143
 11
971.3648723528587
 21
655.05920573263143
  0
ARC
  8
_0-1_計細線
  6
CONTINUOUS
 62
    3
 10
991.36487235192703
 20
678.05920573263097
 40
1.0000000000000004
 50
0
 51
89.999999999999915
  0
ARC
  8
_0-1_計細線
  6
CONTINUOUS
 62
    3
 10
990.89692316059973
 20
680.05920573263052
 40
1.0000000000000004
 50
209.99999999998889
 51
269.99999999999977
  0
ARC
  8
_0-1_計細線
  6
CONTINUOUS
 62
    3
 10
989.16487235303066
 20
679.05920573263074
 40
1.0000000000000004
 50
29.999999999997289
 51
89.999999999999929
  0
LINE
  8
_0-1_計細線
  6
CONTINUOUS
 62
    3
 10
991.36487235192703
 20
679.05920573263074
 11
990.89692316059973
 21
679.05920573263074
  0
ARC
  8
_0-1_計細線
  6
CONTINUOUS
 62
    3
 10
981.96487235413417
 20
678.05920573263097
 40
1.0000000000000004
 50
89.999999999999915
 51
179.99999999999983
  0
ARC
  8
_0-1_計細線
  6
CONTINUOUS
 62
    3
 10
982.43282154546182
 20
680.05920573263052
 40
1.0000000000000004
 50
269.99999999999977
 51
330.00000000000387
  0
ARC
  8
_0-1_計細線
  6
CONTINUOUS
 62
    3
 10
984.16487235303089
 20
679.05920573263074
 40
1.0000000000000004
 50
90.000000000032571
 51
150.00000000001575
  0
LINE
  8
_0-1_計細線
  6
CONTINUOUS
 62
    3
 10
981.96487235413417
 20
679.05920573263074
 11
982.43282154546182
 21
679.05920573263074
  0
ARC
  8
_0-1_計細線
  6
CONTINUOUS
 62
    3
 10
991.86487235192681
 20
676.65920573263111
 40
0.5000000000000002
 50
269.99999999999977
 51
359.99999999999966
  0
LINE
  8
_0-1_計細線
  6
CONTINUOUS
 62
    3
 10
992.36487235192726
 20
678.05920573263097
 11
992.36487235192726
 21
676.65920573263111
  0
ARC
  8
_0-1_計細線
  6
CONTINUOUS
 62
    3
 10
981.46487235413417
 20
676.65920573263111
 40
0.5000000000000002
 50
179.99999999999983
 51
269.99999999999977
  0
LINE
  8
_0-1_計細線
  6
CONTINUOUS
 62
    3
 10
980.96487235413406
 20
678.05920573263097
 11
980.96487235413406
 21
676.65920573263111
  0
ARC
  8
_0-1_計細線
  6
CONTINUOUS
 62
    3
 10
989.36487235192715
 20
675.15920573263111
 40
1.0000000000000004
 50
89.999999999999915
 51
179.99999999999983
  0
LINE
  8
_0-1_計細線
  6
CONTINUOUS
 62
    3
 10
989.36487235192715
 20
676.15920573263065
 11
991.86487235192681
 21
676.15920573263065
  0
ARC
  8
_0-1_計細線
  6
CONTINUOUS
 62
    3
 10
983.96487235192717
 20
675.15920573263111
 40
1.0000000000000004
 50
0
 51
89.999999999999915
  0
LINE
  8
_0-1_計細線
  6
CONTINUOUS
 62
    3
 10
983.96487235413417
 20
676.15920573263065
 11
981.46487235413417
 21
676.15920573263065
  0
LINE
  8
_0-1_計細線
  6
CONTINUOUS
 62
    3
 10
984.16487235303089
 20
680.05920573263052
 11
989.16487235303066
 21
680.05920573263052
  0
LINE
  8
_0-1_計細線
  6
CONTINUOUS
 62
    3
 10
988.36487235303071
 20
655.05920573263143
 11
988.36487235192692
 21
675.15920573263111
  0
LINE
  8
_0-1_計細線
  6
CONTINUOUS
 62
    3
 10
984.96487235303084
 20
655.05920573263143
 11
984.96487235192672
 21
675.15920573263111
  0
LINE
  8
_0-1_計細線
  6
CONTINUOUS
 62
    3
 10
984.96487235303084
 20
655.05920573263143
 11
988.36487235303071
 21
655.05920573263143
  0
ARC
  8
_0-1_計細線
  6
CONTINUOUS
 62
    3
 10
1008.3648723520987
 20
678.05920573263097
 40
1.0000000000000004
 50
0
 51
89.999999999999915
  0
ARC
  8
_0-1_計細線
  6
CONTINUOUS
 62
    3
 10
1007.8969231607711
 20
680.05920573263052
 40
1.0000000000000004
 50
209.99999999998889
 51
269.99999999999977
  0
ARC
  8
_0-1_計細線
  6
CONTINUOUS
 62
    3
 10
1006.1648723532026
 20
679.05920573263074
 40
1.0000000000000004
 50
30.000000000007059
 51
89.999999999999929
  0
LINE
  8
_0-1_計細線
  6
CONTINUOUS
 62
    3
 10
1008.3648723520987
 20
679.05920573263074
 11
1007.8969231607711
 21
679.05920573263074
  0
ARC
  8
_0-1_計細線
  6
CONTINUOUS
 62
    3
 10
998.96487235430584
 20
678.05920573263097
 40
1.0000000000000004
 50
89.999999999999915
 51
179.99999999999983
  0
ARC
  8
_0-1_計細線
  6
CONTINUOUS
 62
    3
 10
999.43282154563371
 20
680.05920573263052
 40
1.0000000000000004
 50
269.99999999999977
 51
330.00000000000387
  0
ARC
  8
_0-1_計細線
  6
CONTINUOUS
 62
    3
 10
1001.1648723532023
 20
679.05920573263074
 40
1.0000000000000004
 50
90.000000000013031
 51
149.99999999999946
  0
LINE
  8
_0-1_計細線
  6
CONTINUOUS
 62
    3
 10
998.96487235430584
 20
679.05920573263074
 11
999.43282154563371
 21
679.05920573263074
  0
ARC
  8
_0-1_計細線
  6
CONTINUOUS
 62
    3
 10
1008.8648723520987
 20
676.65920573263111
 40
0.5000000000000002
 50
269.99999999999977
 51
359.99999999999966
  0
LINE
  8
_0-1_計細線
  6
CONTINUOUS
 62
    3
 10
1009.3648723520987
 20
678.05920573263097
 11
1009.3648723520987
 21
676.65920573263111
  0
ARC
  8
_0-1_計細線
  6
CONTINUOUS
 62
    3
 10
998.46487235430573
 20
676.65920573263111
 40
0.5000000000000002
 50
179.99999999999983
 51
269.99999999999977
  0
LINE
  8
_0-1_計細線
  6
CONTINUOUS
 62
    3
 10
997.96487235430607
 20
678.05920573263097
 11
997.96487235430607
 21
676.65920573263111
  0
ARC
  8
_0-1_計細線
  6
CONTINUOUS
 62
    3
 10
1006.3648723520988
 20
675.15920573263111
 40
1.0000000000000004
 50
89.999999999999915
 51
179.99999999999983
  0
LINE
  8
_0-1_計細線
  6
CONTINUOUS
 62
    3
 10
1006.3648723520988
 20
676.15920573263065
 11
1008.8648723520987
 21
676.15920573263065
  0
ARC
  8
_0-1_計細線
  6
CONTINUOUS
 62
    3
 10
1000.9648723520986
 20
675.15920573263111
 40
1.0000000000000004
 50
0
 51
89.999999999999915
  0
LINE
  8
_0-1_計細線
  6
CONTINUOUS
 62
    3
 10
1000.9648723543063
 20
676.15920573263065
 11
998.46487235430573
 21
676.15920573263065
  0
LINE
  8
_0-1_計細線
  6
CONTINUOUS
 62
    3
 10
1001.1648723532023
 20
680.05920573263052
 11
1006.1648723532026
 21
680.05920573263052
  0
LINE
  8
_0-1_計細線
  6
CONTINUOUS
 62
    3
 10
1005.3648723532026
 20
655.05920573263143
 11
1005.3648723520987
 21
675.15920573263111
  0
LINE
  8
_0-1_計細線
  6
CONTINUOUS
 62
    3
 10
1001.9648723532022
 20
655.05920573263143
 11
1001.9648723520986
 21
675.15920573263111
  0
LINE
  8
_0-1_計細線
  6
CONTINUOUS
 62
    3
 10
1001.9648723532022
 20
655.05920573263143
 11
1005.3648723532026
 21
655.05920573263143
  0
ARC
  8
_0-1_計細線
  6
CONTINUOUS
 62
    3
 10
1025.3648723522704
 20
678.05920573263097
 40
1.0000000000000004
 50
0
 51
89.999999999999915
  0
ARC
  8
_0-1_計細線
  6
CONTINUOUS
 62
    3
 10
1024.8969231609431
 20
680.05920573263052
 40
1.0000000000000004
 50
209.99999999998565
 51
269.99999999999977
  0
ARC
  8
_0-1_計細線
  6
CONTINUOUS
 62
    3
 10
1023.1648723533742
 20
679.05920573263074
 40
1.0000000000000004
 50
30.000000000000544
 51
89.999999999999929
  0
LINE
  8
_0-1_計細線
  6
CONTINUOUS
 62
    3
 10
1025.3648723522704
 20
679.05920573263074
 11
1024.8969231609431
 21
679.05920573263074
  0
ARC
  8
_0-1_計細線
  6
CONTINUOUS
 62
    3
 10
1015.964872354478
 20
678.05920573263097
 40
1.0000000000000004
 50
89.999999999999915
 51
179.99999999999983
  0
ARC
  8
_0-1_計細線
  6
CONTINUOUS
 62
    3
 10
1016.4328215458055
 20
680.05920573263052
 40
1.0000000000000004
 50
269.99999999999977
 51
330.00000000001364
  0
ARC
  8
_0-1_計細線
  6
CONTINUOUS
 62
    3
 10
1018.1648723533743
 20
679.05920573263074
 40
1.0000000000000004
 50
89.999999999999915
 51
149.99999999999946
  0
LINE
  8
_0-1_計細線
  6
CONTINUOUS
 62
    3
 10
1015.964872354478
 20
679.05920573263074
 11
1016.4328215458055
 21
679.05920573263074
  0
ARC
  8
_0-1_計細線
  6
CONTINUOUS
 62
    3
 10
1025.8648723522706
 20
676.65920573263111
 40
0.5000000000000002
 50
269.99999999999977
 51
359.99999999999966
  0
LINE
  8
_0-1_計細線
  6
CONTINUOUS
 62
    3
 10
1026.3648723522706
 20
678.05920573263097
 11
1026.3648723522706
 21
676.65920573263111
  0
ARC
  8
_0-1_計細線
  6
CONTINUOUS
 62
    3
 10
1015.4648723544778
 20
676.65920573263111
 40
0.5000000000000002
 50
179.99999999999983
 51
269.99999999999977
  0
LINE
  8
_0-1_計細線
  6
CONTINUOUS
 62
    3
 10
1014.9648723544778
 20
678.05920573263097
 11
1014.9648723544778
 21
676.65920573263111
  0
ARC
  8
_0-1_計細線
  6
CONTINUOUS
 62
    3
 10
1023.3648723522707
 20
675.15920573263111
 40
1.0000000000000004
 50
89.999999999999915
 51
179.99999999999983
  0
LINE
  8
_0-1_計細線
  6
CONTINUOUS
 62
    3
 10
1023.3648723522707
 20
676.15920573263065
 11
1025.8648723522706
 21
676.15920573263065
  0
ARC
  8
_0-1_計細線
  6
CONTINUOUS
 62
    3
 10
1017.9648723522706
 20
675.15920573263111
 40
1.0000000000000004
 50
0
 51
89.999999999999915
  0
LINE
  8
_0-1_計細線
  6
CONTINUOUS
 62
    3
 10
1017.9648723544778
 20
676.15920573263065
 11
1015.4648723544778
 21
676.15920573263065
  0
LINE
  8
_0-1_計細線
  6
CONTINUOUS
 62
    3
 10
1018.1648723533743
 20
680.05920573263052
 11
1023.1648723533742
 21
680.05920573263052
  0
LINE
  8
_0-1_計細線
  6
CONTINUOUS
 62
    3
 10
1022.3648723533744
 20
655.05920573263143
 11
1022.3648723522706
 21
675.15920573263111
  0
LINE
  8
_0-1_計細線
  6
CONTINUOUS
 62
    3
 10
1018.9648723533742
 20
655.05920573263143
 11
1018.9648723522703
 21
675.15920573263111
  0
LINE
  8
_0-1_計細線
  6
CONTINUOUS
 62
    3
 10
1018.9648723533742
 20
655.05920573263143
 11
1022.3648723533744
 21
655.05920573263143
  0
ARC
  8
_0-1_計細線
  6
CONTINUOUS
 62
    3
 10
1270.2648721672294
 20
678.05920573263097
 40
1.0000000000000004
 50
89.999999999999915
 51
179.99999999999983
  0
ARC
  8
_0-1_計細線
  6
CONTINUOUS
 62
    3
 10
1270.732821358557
 20
680.05920573263052
 40
1.0000000000000004
 50
269.99999999999977
 51
330.00000000001364
  0
ARC
  8
_0-1_計細線
  6
CONTINUOUS
 62
    3
 10
1272.4648721661256
 20
679.05920573263074
 40
1.0000000000000004
 50
89.999999999999915
 51
149.99999999998971
  0
LINE
  8
_0-1_計細線
  6
CONTINUOUS
 62
    3
 10
1270.2648721672294
 20
679.05920573263074
 11
1270.732821358557
 21
679.05920573263074
  0
ARC
  8
_0-1_計細線
  6
CONTINUOUS
 62
    3
 10
1279.6648721650222
 20
678.05920573263097
 40
1.0000000000000004
 50
0
 51
89.999999999999915
  0
ARC
  8
_0-1_計細線
  6
CONTINUOUS
 62
    3
 10
1279.1969229736947
 20
680.05920573263052
 40
1.0000000000000004
 50
209.99999999998565
 51
269.99999999999977
  0
ARC
  8
_0-1_計細線
  6
CONTINUOUS
 62
    3
 10
1277.464872166126
 20
679.05920573263074
 40
1.0000000000000004
 50
30.000000000003801
 51
89.999999999986969
  0
LINE
  8
_0-1_計細線
  6
CONTINUOUS
 62
    3
 10
1279.6648721650222
 20
679.05920573263074
 11
1279.1969229736947
 21
679.05920573263074
  0
ARC
  8
_0-1_計細線
  6
CONTINUOUS
 62
    3
 10
1269.7648721672292
 20
676.65920573263111
 40
0.5000000000000002
 50
179.99999999999983
 51
269.99999999999977
  0
LINE
  8
_0-1_計細線
  6
CONTINUOUS
 62
    3
 10
1269.2648721672294
 20
678.05920573263097
 11
1269.2648721672294
 21
676.65920573263111
  0
ARC
  8
_0-1_計細線
  6
CONTINUOUS
 62
    3
 10
1280.1648721650224
 20
676.65920573263111
 40
0.5000000000000002
 50
269.99999999999977
 51
359.99999999999966
  0
LINE
  8
_0-1_計細線
  6
CONTINUOUS
 62
    3
 10
1280.6648721650222
 20
678.05920573263097
 11
1280.6648721650222
 21
676.65920573263111
  0
ARC
  8
_0-1_計細線
  6
CONTINUOUS
 62
    3
 10
1272.2648721672294
 20
675.15920573263111
 40
1.0000000000000004
 50
0
 51
89.999999999999915
  0
LINE
  8
_0-1_計細線
  6
CONTINUOUS
 62
    3
 10
1272.2648721672294
 20
676.15920573263065
 11
1269.7648721672292
 21
676.15920573263065
  0
ARC
  8
_0-1_計細線
  6
CONTINUOUS
 62
    3
 10
1277.6648721672295
 20
675.15920573263111
 40
1.0000000000000004
 50
89.999999999999915
 51
179.99999999999983
  0
LINE
  8
_0-1_計細線
  6
CONTINUOUS
 62
    3
 10
1277.6648721650222
 20
676.15920573263065
 11
1280.1648721650224
 21
676.15920573263065
  0
LINE
  8
_0-1_計細線
  6
CONTINUOUS
 62
    3
 10
1277.464872166126
 20
680.05920573263052
 11
1272.4648721661256
 21
680.05920573263052
  0
LINE
  8
_0-1_計細線
  6
CONTINUOUS
 62
    3
 10
1273.2648721661258
 20
655.05920573263143
 11
1273.2648721672294
 21
675.15920573263111
  0
LINE
  8
_0-1_計細線
  6
CONTINUOUS
 62
    3
 10
1276.6648721661259
 20
655.05920573263143
 11
1276.6648721672295
 21
675.15920573263111
  0
LINE
  8
_0-1_計細線
  6
CONTINUOUS
 62
    3
 10
1276.6648721661259
 20
655.05920573263143
 11
1273.2648721661258
 21
655.05920573263143
  0
ARC
  8
_0-1_計細線
  6
CONTINUOUS
 62
    3
 10
1253.6648721669039
 20
678.05920573263097
 40
1.0000000000000004
 50
89.999999999999915
 51
179.99999999999983
  0
ARC
  8
_0-1_計細線
  6
CONTINUOUS
 62
    3
 10
1254.1328213582319
 20
680.05920573263052
 40
1.0000000000000004
 50
269.99999999999977
 51
330.00000000000711
  0
ARC
  8
_0-1_計細線
  6
CONTINUOUS
 62
    3
 10
1255.8648721658005
 20
679.05920573263074
 40
1.0000000000000004
 50
89.999999999999915
 51
150.00000000000273
  0
LINE
  8
_0-1_計細線
  6
CONTINUOUS
 62
    3
 10
1253.6648721669039
 20
679.05920573263074
 11
1254.1328213582319
 21
679.05920573263074
  0
ARC
  8
_0-1_計細線
  6
CONTINUOUS
 62
    3
 10
1263.0648721646971
 20
678.05920573263097
 40
1.0000000000000004
 50
0
 51
89.999999999999915
  0
ARC
  8
_0-1_計細線
  6
CONTINUOUS
 62
    3
 10
1262.5969229733691
 20
680.05920573263052
 40
1.0000000000000004
 50
209.99999999999216
 51
269.99999999999977
  0
ARC
  8
_0-1_計細線
  6
CONTINUOUS
 62
    3
 10
1260.8648721658003
 20
679.05920573263074
 40
1.0000000000000004
 50
29.999999999997289
 51
89.999999999986969
  0
LINE
  8
_0-1_計細線
  6
CONTINUOUS
 62
    3
 10
1263.0648721646971
 20
679.05920573263074
 11
1262.5969229733691
 21
679.05920573263074
  0
ARC
  8
_0-1_計細線
  6
CONTINUOUS
 62
    3
 10
1253.1648721669039
 20
676.65920573263111
 40
0.5000000000000002
 50
179.99999999999983
 51
269.99999999999977
  0
LINE
  8
_0-1_計細線
  6
CONTINUOUS
 62
    3
 10
1252.6648721669042
 20
678.05920573263097
 11
1252.6648721669042
 21
676.65920573263111
  0
ARC
  8
_0-1_計細線
  6
CONTINUOUS
 62
    3
 10
1263.5648721646971
 20
676.65920573263111
 40
0.5000000000000002
 50
269.99999999999977
 51
359.99999999999966
  0
LINE
  8
_0-1_計細線
  6
CONTINUOUS
 62
    3
 10
1264.0648721646969
 20
678.05920573263097
 11
1264.0648721646969
 21
676.65920573263111
  0
ARC
  8
_0-1_計細線
  6
CONTINUOUS
 62
    3
 10
1255.6648721669042
 20
675.15920573263111
 40
1.0000000000000004
 50
0
 51
89.999999999999915
  0
LINE
  8
_0-1_計細線
  6
CONTINUOUS
 62
    3
 10
1255.6648721669042
 20
676.15920573263065
 11
1253.1648721669039
 21
676.15920573263065
  0
ARC
  8
_0-1_計細線
  6
CONTINUOUS
 62
    3
 10
1261.064872166904
 20
675.15920573263111
 40
1.0000000000000004
 50
89.999999999999915
 51
179.99999999999983
  0
LINE
  8
_0-1_計細線
  6
CONTINUOUS
 62
    3
 10
1261.0648721646967
 20
676.15920573263065
 11
1263.5648721646971
 21
676.15920573263065
  0
LINE
  8
_0-1_計細線
  6
CONTINUOUS
 62
    3
 10
1260.8648721658003
 20
680.05920573263052
 11
1255.8648721658005
 21
680.05920573263052
  0
LINE
  8
_0-1_計細線
  6
CONTINUOUS
 62
    3
 10
1256.6648721658003
 20
655.05920573263143
 11
1256.6648721669039
 21
675.15920573263111
  0
LINE
  8
_0-1_計細線
  6
CONTINUOUS
 62
    3
 10
1260.0648721658008
 20
655.05920573263143
 11
1260.0648721669043
 21
675.15920573263111
  0
LINE
  8
_0-1_計細線
  6
CONTINUOUS
 62
    3
 10
1260.0648721658008
 20
655.05920573263143
 11
1256.6648721658003
 21
655.05920573263143
  0
ARC
  8
_0-1_計細線
  6
CONTINUOUS
 62
    3
 10
1236.9648721668859
 20
678.05920573263097
 40
1.0000000000000004
 50
89.999999999999915
 51
179.99999999999983
  0
ARC
  8
_0-1_計細線
  6
CONTINUOUS
 62
    3
 10
1237.4328213582132
 20
680.05920573263052
 40
1.0000000000000004
 50
269.99999999999977
 51
330.00000000001364
  0
ARC
  8
_0-1_計細線
  6
CONTINUOUS
 62
    3
 10
1239.1648721657821
 20
679.05920573263074
 40
1.0000000000000004
 50
89.999999999999915
 51
149.99999999999622
  0
LINE
  8
_0-1_計細線
  6
CONTINUOUS
 62
    3
 10
1236.9648721668859
 20
679.05920573263074
 11
1237.4328213582132
 21
679.05920573263074
  0
ARC
  8
_0-1_計細線
  6
CONTINUOUS
 62
    3
 10
1246.3648721646789
 20
678.05920573263097
 40
1.0000000000000004
 50
0
 51
89.999999999999915
  0
ARC
  8
_0-1_計細線
  6
CONTINUOUS
 62
    3
 10
1245.8969229733516
 20
680.05920573263052
 40
1.0000000000000004
 50
209.99999999998565
 51
269.99999999999977
  0
ARC
  8
_0-1_計細線
  6
CONTINUOUS
 62
    3
 10
1244.1648721657825
 20
679.05920573263074
 40
1.0000000000000004
 50
30.000000000003801
 51
89.999999999999929
  0
LINE
  8
_0-1_計細線
  6
CONTINUOUS
 62
    3
 10
1246.3648721646789
 20
679.05920573263074
 11
1245.8969229733516
 21
679.05920573263074
  0
ARC
  8
_0-1_計細線
  6
CONTINUOUS
 62
    3
 10
1236.4648721668864
 20
676.65920573263111
 40
0.5000000000000002
 50
179.99999999999983
 51
269.99999999999977
  0
LINE
  8
_0-1_計細線
  6
CONTINUOUS
 62
    3
 10
1235.9648721668859
 20
678.05920573263097
 11
1235.9648721668859
 21
676.65920573263111
  0
ARC
  8
_0-1_計細線
  6
CONTINUOUS
 62
    3
 10
1246.8648721646789
 20
676.65920573263111
 40
0.5000000000000002
 50
269.99999999999977
 51
359.99999999999966
  0
LINE
  8
_0-1_計細線
  6
CONTINUOUS
 62
    3
 10
1247.3648721646789
 20
678.05920573263097
 11
1247.3648721646789
 21
676.65920573263111
  0
ARC
  8
_0-1_計細線
  6
CONTINUOUS
 62
    3
 10
1238.9648721668859
 20
675.15920573263111
 40
1.0000000000000004
 50
0
 51
89.999999999999915
  0
LINE
  8
_0-1_計細線
  6
CONTINUOUS
 62
    3
 10
1238.9648721668859
 20
676.15920573263065
 11
1236.4648721668864
 21
676.15920573263065
  0
ARC
  8
_0-1_計細線
  6
CONTINUOUS
 62
    3
 10
1244.364872166886
 20
675.15920573263111
 40
1.0000000000000004
 50
89.999999999999915
 51
179.99999999999983
  0
LINE
  8
_0-1_計細線
  6
CONTINUOUS
 62
    3
 10
1244.3648721646784
 20
676.15920573263065
 11
1246.8648721646789
 21
676.15920573263065
  0
LINE
  8
_0-1_計細線
  6
CONTINUOUS
 62
    3
 10
1244.1648721657825
 20
680.05920573263052
 11
1239.1648721657821
 21
680.05920573263052
  0
LINE
  8
_0-1_計細線
  6
CONTINUOUS
 62
    3
 10
1239.9648721657827
 20
655.05920573263143
 11
1239.9648721668859
 21
675.15920573263111
  0
LINE
  8
_0-1_計細線
  6
CONTINUOUS
 62
    3
 10
1243.3648721657821
 20
655.05920573263143
 11
1243.364872166886
 21
675.15920573263111
  0
LINE
  8
_0-1_計細線
  6
CONTINUOUS
 62
    3
 10
1243.3648721657821
 20
655.05920573263143
 11
1239.9648721657827
 21
655.05920573263143
  0
ARC
  8
_0-1_計細線
  6
CONTINUOUS
 62
    3
 10
1219.9648721667143
 20
678.05920573263097
 40
1.0000000000000004
 50
89.999999999999915
 51
179.99999999999983
  0
ARC
  8
_0-1_計細線
  6
CONTINUOUS
 62
    3
 10
1220.4328213580416
 20
680.05920573263052
 40
1.0000000000000004
 50
269.99999999999977
 51
330.00000000000711
  0
ARC
  8
_0-1_計細線
  6
CONTINUOUS
 62
    3
 10
1222.1648721656104
 20
679.05920573263074
 40
1.0000000000000004
 50
89.999999999999915
 51
150.00000000000273
  0
LINE
  8
_0-1_計細線
  6
CONTINUOUS
 62
    3
 10
1219.9648721667143
 20
679.05920573263074
 11
1220.4328213580416
 21
679.05920573263074
  0
ARC
  8
_0-1_計細線
  6
CONTINUOUS
 62
    3
 10
1229.364872164507
 20
678.05920573263097
 40
1.0000000000000004
 50
0
 51
89.999999999999915
  0
ARC
  8
_0-1_計細線
  6
CONTINUOUS
 62
    3
 10
1228.8969229731795
 20
680.05920573263052
 40
1.0000000000000004
 50
209.99999999998565
 51
269.99999999999977
  0
ARC
  8
_0-1_計細線
  6
CONTINUOUS
 62
    3
 10
1227.1648721656102
 20
679.05920573263074
 40
1.0000000000000004
 50
29.999999999990774
 51
89.99999999996092
  0
LINE
  8
_0-1_計細線
  6
CONTINUOUS
 62
    3
 10
1229.364872164507
 20
679.05920573263074
 11
1228.8969229731795
 21
679.05920573263074
  0
ARC
  8
_0-1_計細線
  6
CONTINUOUS
 62
    3
 10
1219.464872166714
 20
676.65920573263111
 40
0.5000000000000002
 50
179.99999999999983
 51
269.99999999999977
  0
LINE
  8
_0-1_計細線
  6
CONTINUOUS
 62
    3
 10
1218.964872166714
 20
678.05920573263097
 11
1218.964872166714
 21
676.65920573263111
  0
ARC
  8
_0-1_計細線
  6
CONTINUOUS
 62
    3
 10
1229.8648721645072
 20
676.65920573263111
 40
0.5000000000000002
 50
269.99999999999977
 51
359.99999999999966
  0
LINE
  8
_0-1_計細線
  6
CONTINUOUS
 62
    3
 10
1230.3648721645072
 20
678.05920573263097
 11
1230.3648721645072
 21
676.65920573263111
  0
ARC
  8
_0-1_計細線
  6
CONTINUOUS
 62
    3
 10
1221.964872166714
 20
675.15920573263111
 40
1.0000000000000004
 50
0
 51
89.999999999999915
  0
LINE
  8
_0-1_計細線
  6
CONTINUOUS
 62
    3
 10
1221.964872166714
 20
676.15920573263065
 11
1219.464872166714
 21
676.15920573263065
  0
ARC
  8
_0-1_計細線
  6
CONTINUOUS
 62
    3
 10
1227.3648721667139
 20
675.15920573263111
 40
1.0000000000000004
 50
89.999999999999915
 51
179.99999999999983
  0
LINE
  8
_0-1_計細線
  6
CONTINUOUS
 62
    3
 10
1227.3648721645066
 20
676.15920573263065
 11
1229.8648721645072
 21
676.15920573263065
  0
LINE
  8
_0-1_計細線
  6
CONTINUOUS
 62
    3
 10
1227.1648721656102
 20
680.05920573263052
 11
1222.1648721656104
 21
680.05920573263052
  0
LINE
  8
_0-1_計細線
  6
CONTINUOUS
 62
    3
 10
1222.9648721656106
 20
655.05920573263143
 11
1222.9648721667145
 21
675.15920573263111
  0
LINE
  8
_0-1_計細線
  6
CONTINUOUS
 62
    3
 10
1226.3648721656104
 20
655.05920573263143
 11
1226.3648721667143
 21
675.15920573263111
  0
LINE
  8
_0-1_計細線
  6
CONTINUOUS
 62
    3
 10
1226.3648721656104
 20
655.05920573263143
 11
1222.9648721656106
 21
655.05920573263143
  0
ARC
  8
_0-1_計細線
  6
CONTINUOUS
 62
    3
 10
1202.9648721665424
 20
678.05920573263097
 40
1.0000000000000004
 50
89.999999999999915
 51
179.99999999999983
  0
ARC
  8
_0-1_計細線
  6
CONTINUOUS
 62
    3
 10
1203.4328213578699
 20
680.05920573263052
 40
1.0000000000000004
 50
269.99999999999977
 51
330.00000000000711
  0
ARC
  8
_0-1_計細線
  6
CONTINUOUS
 62
    3
 10
1205.1648721654387
 20
679.05920573263074
 40
1.0000000000000004
 50
89.999999999999915
 51
150.00000000000273
  0
LINE
  8
_0-1_計細線
  6
CONTINUOUS
 62
    3
 10
1202.9648721665424
 20
679.05920573263074
 11
1203.4328213578699
 21
679.05920573263074
  0
ARC
  8
_0-1_計細線
  6
CONTINUOUS
 62
    3
 10
1212.3648721643353
 20
678.05920573263097
 40
1.0000000000000004
 50
0
 51
89.999999999999915
  0
ARC
  8
_0-1_計細線
  6
CONTINUOUS
 62
    3
 10
1211.8969229730073
 20
680.05920573263052
 40
1.0000000000000004
 50
209.99999999999216
 51
269.99999999999977
  0
ARC
  8
_0-1_計細線
  6
CONTINUOUS
 62
    3
 10
1210.1648721654387
 20
679.05920573263074
 40
1.0000000000000004
 50
30.000000000003801
 51
89.999999999986969
  0
LINE
  8
_0-1_計細線
  6
CONTINUOUS
 62
    3
 10
1212.3648721643353
 20
679.05920573263074
 11
1211.8969229730073
 21
679.05920573263074
  0
ARC
  8
_0-1_計細線
  6
CONTINUOUS
 62
    3
 10
1202.4648721665421
 20
676.65920573263111
 40
0.5000000000000002
 50
179.99999999999983
 51
269.99999999999977
  0
LINE
  8
_0-1_計細線
  6
CONTINUOUS
 62
    3
 10
1201.9648721665426
 20
678.05920573263097
 11
1201.9648721665426
 21
676.65920573263111
  0
ARC
  8
_0-1_計細線
  6
CONTINUOUS
 62
    3
 10
1212.8648721643353
 20
676.65920573263111
 40
0.5000000000000002
 50
269.99999999999977
 51
359.99999999999966
  0
LINE
  8
_0-1_計細線
  6
CONTINUOUS
 62
    3
 10
1213.3648721643349
 20
678.05920573263097
 11
1213.3648721643349
 21
676.65920573263111
  0
ARC
  8
_0-1_計細線
  6
CONTINUOUS
 62
    3
 10
1204.9648721665424
 20
675.15920573263111
 40
1.0000000000000004
 50
0
 51
89.999999999999915
  0
LINE
  8
_0-1_計細線
  6
CONTINUOUS
 62
    3
 10
1204.9648721665424
 20
676.15920573263065
 11
1202.4648721665421
 21
676.15920573263065
  0
ARC
  8
_0-1_計細線
  6
CONTINUOUS
 62
    3
 10
1210.3648721665422
 20
675.15920573263111
 40
1.0000000000000004
 50
89.999999999999915
 51
179.99999999999983
  0
LINE
  8
_0-1_計細線
  6
CONTINUOUS
 62
    3
 10
1210.3648721643349
 20
676.15920573263065
 11
1212.8648721643353
 21
676.15920573263065
  0
LINE
  8
_0-1_計細線
  6
CONTINUOUS
 62
    3
 10
1210.1648721654387
 20
680.05920573263052
 11
1205.1648721654387
 21
680.05920573263052
  0
LINE
  8
_0-1_計細線
  6
CONTINUOUS
 62
    3
 10
1205.9648721654385
 20
655.05920573263143
 11
1205.9648721665424
 21
675.15920573263111
  0
LINE
  8
_0-1_計細線
  6
CONTINUOUS
 62
    3
 10
1209.3648721654388
 20
655.05920573263143
 11
1209.3648721665427
 21
675.15920573263111
  0
LINE
  8
_0-1_計細線
  6
CONTINUOUS
 62
    3
 10
1209.3648721654388
 20
655.05920573263143
 11
1205.9648721654385
 21
655.05920573263143
  0
ARC
  8
_0-1_計細線
  6
CONTINUOUS
 62
    3
 10
1032.9648721636663
 20
678.05920573263097
 40
1.0000000000000004
 50
89.999999999999915
 51
179.99999999999983
  0
ARC
  8
_0-1_計細線
  6
CONTINUOUS
 62
    3
 10
1033.4328213549936
 20
680.05920573263052
 40
1.0000000000000004
 50
269.99999999999977
 51
330.00000000000711
  0
ARC
  8
_0-1_計細線
  6
CONTINUOUS
 62
    3
 10
1035.1648721625625
 20
679.05920573263074
 40
1.0000000000000004
 50
89.999999999999915
 51
150.00000000000273
  0
LINE
  8
_0-1_計細線
  6
CONTINUOUS
 62
    3
 10
1032.9648721636663
 20
679.05920573263074
 11
1033.4328213549936
 21
679.05920573263074
  0
ARC
  8
_0-1_計細線
  6
CONTINUOUS
 62
    3
 10
1042.3648721614591
 20
678.05920573263097
 40
1.0000000000000004
 50
0
 51
89.999999999999915
  0
ARC
  8
_0-1_計細線
  6
CONTINUOUS
 62
    3
 10
1041.8969229701318
 20
680.05920573263052
 40
1.0000000000000004
 50
209.9999999999726
 51
269.99999999999977
  0
ARC
  8
_0-1_計細線
  6
CONTINUOUS
 62
    3
 10
1040.1648721625625
 20
679.05920573263074
 40
1.0000000000000004
 50
30.000000000003801
 51
89.999999999973952
  0
LINE
  8
_0-1_計細線
  6
CONTINUOUS
 62
    3
 10
1042.3648721614591
 20
679.05920573263074
 11
1041.8969229701318
 21
679.05920573263074
  0
ARC
  8
_0-1_計細線
  6
CONTINUOUS
 62
    3
 10
1032.4648721636663
 20
676.65920573263111
 40
0.5000000000000002
 50
179.99999999999983
 51
269.99999999999977
  0
LINE
  8
_0-1_計細線
  6
CONTINUOUS
 62
    3
 10
1031.9648721636663
 20
678.05920573263097
 11
1031.9648721636663
 21
676.65920573263111
  0
ARC
  8
_0-1_計細線
  6
CONTINUOUS
 62
    3
 10
1042.8648721614591
 20
676.65920573263111
 40
0.5000000000000002
 50
269.99999999999977
 51
359.99999999999966
  0
LINE
  8
_0-1_計細線
  6
CONTINUOUS
 62
    3
 10
1043.3648721614595
 20
678.05920573263097
 11
1043.3648721614595
 21
676.65920573263111
  0
ARC
  8
_0-1_計細線
  6
CONTINUOUS
 62
    3
 10
1034.9648721636661
 20
675.15920573263111
 40
1.0000000000000004
 50
0
 51
89.999999999999915
  0
LINE
  8
_0-1_計細線
  6
CONTINUOUS
 62
    3
 10
1034.9648721636661
 20
676.15920573263065
 11
1032.4648721636663
 21
676.15920573263065
  0
ARC
  8
_0-1_計細線
  6
CONTINUOUS
 62
    3
 10
1040.364872163666
 20
675.15920573263111
 40
1.0000000000000004
 50
89.999999999999915
 51
179.99999999999983
  0
LINE
  8
_0-1_計細線
  6
CONTINUOUS
 62
    3
 10
1040.3648721614586
 20
676.15920573263065
 11
1042.8648721614591
 21
676.15920573263065
  0
LINE
  8
_0-1_計細線
  6
CONTINUOUS
 62
    3
 10
1040.1648721625625
 20
680.05920573263052
 11
1035.1648721625625
 21
680.05920573263052
  0
LINE
  8
_0-1_計細線
  6
CONTINUOUS
 62
    3
 10
1035.9648721625629
 20
655.05920573263143
 11
1035.9648721636659
 21
675.15920573263111
  0
LINE
  8
_0-1_計細線
  6
CONTINUOUS
 62
    3
 10
1039.3648721625625
 20
655.05920573263143
 11
1039.3648721636664
 21
675.15920573263111
  0
LINE
  8
_0-1_計細線
  6
CONTINUOUS
 62
    3
 10
1039.3648721625625
 20
655.05920573263143
 11
1035.9648721625629
 21
655.05920573263143
  0
ARC
  8
_0-1_計細線
  6
CONTINUOUS
 62
    3
 10
1185.9648721663707
 20
678.05920573263097
 40
1.0000000000000004
 50
89.999999999999915
 51
179.99999999999983
  0
ARC
  8
_0-1_計細線
  6
CONTINUOUS
 62
    3
 10
1186.432821357698
 20
680.05920573263052
 40
1.0000000000000004
 50
269.99999999999977
 51
330.00000000001364
  0
ARC
  8
_0-1_計細線
  6
CONTINUOUS
 62
    3
 10
1188.1648721652671
 20
679.05920573263074
 40
1.0000000000000004
 50
89.999999999999915
 51
150.00000000000273
  0
LINE
  8
_0-1_計細線
  6
CONTINUOUS
 62
    3
 10
1185.9648721663707
 20
679.05920573263074
 11
1186.432821357698
 21
679.05920573263074
  0
ARC
  8
_0-1_計細線
  6
CONTINUOUS
 62
    3
 10
1195.3648721641637
 20
678.05920573263097
 40
1.0000000000000004
 50
0
 51
89.999999999999915
  0
ARC
  8
_0-1_計細線
  6
CONTINUOUS
 62
    3
 10
1194.8969229728357
 20
680.05920573263052
 40
1.0000000000000004
 50
209.99999999998565
 51
269.99999999999977
  0
ARC
  8
_0-1_計細線
  6
CONTINUOUS
 62
    3
 10
1193.1648721652668
 20
679.05920573263074
 40
1.0000000000000004
 50
30.000000000003801
 51
89.999999999986969
  0
LINE
  8
_0-1_計細線
  6
CONTINUOUS
 62
    3
 10
1195.3648721641637
 20
679.05920573263074
 11
1194.8969229728357
 21
679.05920573263074
  0
ARC
  8
_0-1_計細線
  6
CONTINUOUS
 62
    3
 10
1185.4648721663705
 20
676.65920573263111
 40
0.5000000000000002
 50
179.99999999999983
 51
269.99999999999977
  0
LINE
  8
_0-1_計細線
  6
CONTINUOUS
 62
    3
 10
1184.9648721663705
 20
678.05920573263097
 11
1184.9648721663705
 21
676.65920573263111
  0
ARC
  8
_0-1_計細線
  6
CONTINUOUS
 62
    3
 10
1195.8648721641634
 20
676.65920573263111
 40
0.5000000000000002
 50
269.99999999999977
 51
359.99999999999966
  0
LINE
  8
_0-1_計細線
  6
CONTINUOUS
 62
    3
 10
1196.3648721641632
 20
678.05920573263097
 11
1196.3648721641632
 21
676.65920573263111
  0
ARC
  8
_0-1_計細線
  6
CONTINUOUS
 62
    3
 10
1187.9648721663705
 20
675.15920573263111
 40
1.0000000000000004
 50
0
 51
89.999999999999915
  0
LINE
  8
_0-1_計細線
  6
CONTINUOUS
 62
    3
 10
1187.9648721663705
 20
676.15920573263065
 11
1185.4648721663705
 21
676.15920573263065
  0
ARC
  8
_0-1_計細線
  6
CONTINUOUS
 62
    3
 10
1193.3648721663708
 20
675.15920573263111
 40
1.0000000000000004
 50
89.999999999999915
 51
179.99999999999983
  0
LINE
  8
_0-1_計細線
  6
CONTINUOUS
 62
    3
 10
1193.3648721641632
 20
676.15920573263065
 11
1195.8648721641634
 21
676.15920573263065
  0
LINE
  8
_0-1_計細線
  6
CONTINUOUS
 62
    3
 10
1193.1648721652668
 20
680.05920573263052
 11
1188.1648721652671
 21
680.05920573263052
  0
LINE
  8
_0-1_計細線
  6
CONTINUOUS
 62
    3
 10
1188.9648721652668
 20
655.05920573263143
 11
1188.9648721663705
 21
675.15920573263111
  0
LINE
  8
_0-1_計細線
  6
CONTINUOUS
 62
    3
 10
1192.3648721652669
 20
655.05920573263143
 11
1192.3648721663706
 21
675.15920573263111
  0
LINE
  8
_0-1_計細線
  6
CONTINUOUS
 62
    3
 10
1192.3648721652669
 20
655.05920573263143
 11
1188.9648721652668
 21
655.05920573263143
  0
ARC
  8
_0-1_計細線
  6
CONTINUOUS
 62
    3
 10
1168.9648721660087
 20
678.05920573263097
 40
1.0000000000000004
 50
89.999999999999915
 51
179.99999999999983
  0
ARC
  8
_0-1_計細線
  6
CONTINUOUS
 62
    3
 10
1169.432821357336
 20
680.05920573263052
 40
1.0000000000000004
 50
269.99999999999977
 51
330.00000000000711
  0
ARC
  8
_0-1_計細線
  6
CONTINUOUS
 62
    3
 10
1171.1648721649049
 20
679.05920573263074
 40
1.0000000000000004
 50
89.999999999999915
 51
150.00000000000273
  0
LINE
  8
_0-1_計細線
  6
CONTINUOUS
 62
    3
 10
1168.9648721660087
 20
679.05920573263074
 11
1169.432821357336
 21
679.05920573263074
  0
ARC
  8
_0-1_計細線
  6
CONTINUOUS
 62
    3
 10
1178.3648721638015
 20
678.05920573263097
 40
1.0000000000000004
 50
0
 51
89.999999999999915
  0
ARC
  8
_0-1_計細線
  6
CONTINUOUS
 62
    3
 10
1177.8969229724744
 20
680.05920573263052
 40
1.0000000000000004
 50
209.99999999998565
 51
269.99999999999977
  0
ARC
  8
_0-1_計細線
  6
CONTINUOUS
 62
    3
 10
1176.1648721649051
 20
679.05920573263074
 40
1.0000000000000004
 50
29.999999999997289
 51
89.999999999999929
  0
LINE
  8
_0-1_計細線
  6
CONTINUOUS
 62
    3
 10
1178.3648721638015
 20
679.05920573263074
 11
1177.8969229724744
 21
679.05920573263074
  0
ARC
  8
_0-1_計細線
  6
CONTINUOUS
 62
    3
 10
1168.4648721660092
 20
676.65920573263111
 40
0.5000000000000002
 50
179.99999999999983
 51
269.99999999999977
  0
LINE
  8
_0-1_計細線
  6
CONTINUOUS
 62
    3
 10
1167.9648721660085
 20
678.05920573263097
 11
1167.9648721660085
 21
676.65920573263111
  0
ARC
  8
_0-1_計細線
  6
CONTINUOUS
 62
    3
 10
1178.8648721638017
 20
676.65920573263111
 40
0.5000000000000002
 50
269.99999999999977
 51
359.99999999999966
  0
LINE
  8
_0-1_計細線
  6
CONTINUOUS
 62
    3
 10
1179.3648721638017
 20
678.05920573263097
 11
1179.3648721638017
 21
676.65920573263111
  0
ARC
  8
_0-1_計細線
  6
CONTINUOUS
 62
    3
 10
1170.9648721660085
 20
675.15920573263111
 40
1.0000000000000004
 50
0
 51
89.999999999999915
  0
LINE
  8
_0-1_計細線
  6
CONTINUOUS
 62
    3
 10
1170.9648721660085
 20
676.15920573263065
 11
1168.4648721660092
 21
676.15920573263065
  0
ARC
  8
_0-1_計細線
  6
CONTINUOUS
 62
    3
 10
1176.364872166009
 20
675.15920573263111
 40
1.0000000000000004
 50
89.999999999999915
 51
179.99999999999983
  0
LINE
  8
_0-1_計細線
  6
CONTINUOUS
 62
    3
 10
1176.3648721638017
 20
676.15920573263065
 11
1178.8648721638017
 21
676.15920573263065
  0
LINE
  8
_0-1_計細線
  6
CONTINUOUS
 62
    3
 10
1176.1648721649051
 20
680.05920573263052
 11
1171.1648721649049
 21
680.05920573263052
  0
LINE
  8
_0-1_計細線
  6
CONTINUOUS
 62
    3
 10
1171.9648721649055
 20
655.05920573263143
 11
1171.9648721660089
 21
675.15920573263111
  0
LINE
  8
_0-1_計細線
  6
CONTINUOUS
 62
    3
 10
1175.3648721649054
 20
655.05920573263143
 11
1175.364872166009
 21
675.15920573263111
  0
LINE
  8
_0-1_計細線
  6
CONTINUOUS
 62
    3
 10
1175.3648721649054
 20
655.05920573263143
 11
1171.9648721649055
 21
655.05920573263143
  0
ARC
  8
_0-1_計細線
  6
CONTINUOUS
 62
    3
 10
1049.9648721636661
 20
678.05920573263097
 40
1.0000000000000004
 50
89.999999999999915
 51
179.99999999999983
  0
ARC
  8
_0-1_計細線
  6
CONTINUOUS
 62
    3
 10
1050.4328213549938
 20
680.05920573263052
 40
1.0000000000000004
 50
269.99999999999977
 51
330.00000000001364
  0
ARC
  8
_0-1_計細線
  6
CONTINUOUS
 62
    3
 10
1052.1648721625629
 20
679.05920573263074
 40
1.0000000000000004
 50
89.999999999999915
 51
150.00000000000273
  0
LINE
  8
_0-1_計細線
  6
CONTINUOUS
 62
    3
 10
1049.9648721636661
 20
679.05920573263074
 11
1050.4328213549938
 21
679.05920573263074
  0
ARC
  8
_0-1_計細線
  6
CONTINUOUS
 62
    3
 10
1059.3648721614591
 20
678.05920573263097
 40
1.0000000000000004
 50
0
 51
89.999999999999915
  0
ARC
  8
_0-1_計細線
  6
CONTINUOUS
 62
    3
 10
1058.8969229701315
 20
680.05920573263052
 40
1.0000000000000004
 50
209.99999999998565
 51
269.99999999999977
  0
ARC
  8
_0-1_計細線
  6
CONTINUOUS
 62
    3
 10
1057.1648721625627
 20
679.05920573263074
 40
1.0000000000000004
 50
30.000000000003801
 51
89.999999999999929
  0
LINE
  8
_0-1_計細線
  6
CONTINUOUS
 62
    3
 10
1059.3648721614591
 20
679.05920573263074
 11
1058.8969229701315
 21
679.05920573263074
  0
ARC
  8
_0-1_計細線
  6
CONTINUOUS
 62
    3
 10
1049.4648721636663
 20
676.65920573263111
 40
0.5000000000000002
 50
179.99999999999983
 51
269.99999999999977
  0
LINE
  8
_0-1_計細線
  6
CONTINUOUS
 62
    3
 10
1048.9648721636663
 20
678.05920573263097
 11
1048.9648721636663
 21
676.65920573263111
  0
ARC
  8
_0-1_計細線
  6
CONTINUOUS
 62
    3
 10
1059.8648721614593
 20
676.65920573263111
 40
0.5000000000000002
 50
269.99999999999977
 51
359.99999999999966
  0
LINE
  8
_0-1_計細線
  6
CONTINUOUS
 62
    3
 10
1060.3648721614595
 20
678.05920573263097
 11
1060.3648721614595
 21
676.65920573263111
  0
ARC
  8
_0-1_計細線
  6
CONTINUOUS
 62
    3
 10
1051.9648721636663
 20
675.15920573263111
 40
1.0000000000000004
 50
0
 51
89.999999999999915
  0
LINE
  8
_0-1_計細線
  6
CONTINUOUS
 62
    3
 10
1051.9648721636663
 20
676.15920573263065
 11
1049.4648721636663
 21
676.15920573263065
  0
ARC
  8
_0-1_計細線
  6
CONTINUOUS
 62
    3
 10
1057.3648721636662
 20
675.15920573263111
 40
1.0000000000000004
 50
89.999999999999915
 51
179.99999999999983
  0
LINE
  8
_0-1_計細線
  6
CONTINUOUS
 62
    3
 10
1057.3648721614591
 20
676.15920573263065
 11
1059.8648721614593
 21
676.15920573263065
  0
LINE
  8
_0-1_計細線
  6
CONTINUOUS
 62
    3
 10
1057.1648721625627
 20
680.05920573263052
 11
1052.1648721625629
 21
680.05920573263052
  0
LINE
  8
_0-1_計細線
  6
CONTINUOUS
 62
    3
 10
1052.9648721625626
 20
655.05920573263143
 11
1052.9648721636661
 21
675.15920573263111
  0
LINE
  8
_0-1_計細線
  6
CONTINUOUS
 62
    3
 10
1056.3648721625627
 20
655.05920573263143
 11
1056.3648721636664
 21
675.15920573263111
  0
LINE
  8
_0-1_計細線
  6
CONTINUOUS
 62
    3
 10
1056.3648721625627
 20
655.05920573263143
 11
1052.9648721625626
 21
655.05920573263143
  0
ARC
  8
_0-1_計細線
  6
CONTINUOUS
 62
    3
 10
1066.9648721640283
 20
678.05920573263097
 40
1.0000000000000004
 50
89.999999999999915
 51
179.99999999999983
  0
ARC
  8
_0-1_計細線
  6
CONTINUOUS
 62
    3
 10
1067.4328213553556
 20
680.05920573263052
 40
1.0000000000000004
 50
269.99999999999977
 51
330.00000000000711
  0
ARC
  8
_0-1_計細線
  6
CONTINUOUS
 62
    3
 10
1069.1648721629249
 20
679.05920573263074
 40
1.0000000000000004
 50
89.999999999999915
 51
150.00000000001575
  0
LINE
  8
_0-1_計細線
  6
CONTINUOUS
 62
    3
 10
1066.9648721640283
 20
679.05920573263074
 11
1067.4328213553556
 21
679.05920573263074
  0
ARC
  8
_0-1_計細線
  6
CONTINUOUS
 62
    3
 10
1076.3648721618208
 20
678.05920573263097
 40
1.0000000000000004
 50
0
 51
89.999999999999915
  0
ARC
  8
_0-1_計細線
  6
CONTINUOUS
 62
    3
 10
1075.8969229704931
 20
680.05920573263052
 40
1.0000000000000004
 50
209.99999999999216
 51
269.99999999999977
  0
ARC
  8
_0-1_計細線
  6
CONTINUOUS
 62
    3
 10
1074.1648721629249
 20
679.05920573263074
 40
1.0000000000000004
 50
30.000000000016829
 51
89.999999999999929
  0
LINE
  8
_0-1_計細線
  6
CONTINUOUS
 62
    3
 10
1076.3648721618208
 20
679.05920573263074
 11
1075.8969229704931
 21
679.05920573263074
  0
ARC
  8
_0-1_計細線
  6
CONTINUOUS
 62
    3
 10
1066.4648721640283
 20
676.65920573263111
 40
0.5000000000000002
 50
179.99999999999983
 51
269.99999999999977
  0
LINE
  8
_0-1_計細線
  6
CONTINUOUS
 62
    3
 10
1065.9648721640281
 20
678.05920573263097
 11
1065.9648721640281
 21
676.65920573263111
  0
ARC
  8
_0-1_計細線
  6
CONTINUOUS
 62
    3
 10
1076.864872161821
 20
676.65920573263111
 40
0.5000000000000002
 50
269.99999999999977
 51
359.99999999999966
  0
LINE
  8
_0-1_計細線
  6
CONTINUOUS
 62
    3
 10
1077.3648721618206
 20
678.05920573263097
 11
1077.3648721618206
 21
676.65920573263111
  0
ARC
  8
_0-1_計細線
  6
CONTINUOUS
 62
    3
 10
1068.9648721640283
 20
675.15920573263111
 40
1.0000000000000004
 50
0
 51
89.999999999999915
  0
LINE
  8
_0-1_計細線
  6
CONTINUOUS
 62
    3
 10
1068.9648721640283
 20
676.15920573263065
 11
1066.4648721640283
 21
676.15920573263065
  0
ARC
  8
_0-1_計細線
  6
CONTINUOUS
 62
    3
 10
1074.3648721640279
 20
675.15920573263111
 40
1.0000000000000004
 50
89.999999999999915
 51
179.99999999999983
  0
LINE
  8
_0-1_計細線
  6
CONTINUOUS
 62
    3
 10
1074.364872161821
 20
676.15920573263065
 11
1076.864872161821
 21
676.15920573263065
  0
LINE
  8
_0-1_計細線
  6
CONTINUOUS
 62
    3
 10
1074.1648721629249
 20
680.05920573263052
 11
1069.1648721629249
 21
680.05920573263052
  0
LINE
  8
_0-1_計細線
  6
CONTINUOUS
 62
    3
 10
1069.9648721629242
 20
655.05920573263143
 11
1069.9648721640283
 21
675.15920573263111
  0
LINE
  8
_0-1_計細線
  6
CONTINUOUS
 62
    3
 10
1073.3648721629245
 20
655.05920573263143
 11
1073.3648721640282
 21
675.15920573263111
  0
LINE
  8
_0-1_計細線
  6
CONTINUOUS
 62
    3
 10
1073.3648721629245
 20
655.05920573263143
 11
1069.9648721629242
 21
655.05920573263143
  0
ARC
  8
_0-1_計細線
  6
CONTINUOUS
 62
    3
 10
1083.9648721643898
 20
678.05920573263097
 40
1.0000000000000004
 50
89.999999999999915
 51
179.99999999999983
  0
ARC
  8
_0-1_計細線
  6
CONTINUOUS
 62
    3
 10
1084.4328213557178
 20
680.05920573263052
 40
1.0000000000000004
 50
269.99999999999977
 51
330.00000000001364
  0
ARC
  8
_0-1_計細線
  6
CONTINUOUS
 62
    3
 10
1086.1648721632866
 20
679.05920573263074
 40
1.0000000000000004
 50
89.999999999999915
 51
149.99999999999622
  0
LINE
  8
_0-1_計細線
  6
CONTINUOUS
 62
    3
 10
1083.9648721643898
 20
679.05920573263074
 11
1084.4328213557178
 21
679.05920573263074
  0
ARC
  8
_0-1_計細線
  6
CONTINUOUS
 62
    3
 10
1093.3648721621826
 20
678.05920573263097
 40
1.0000000000000004
 50
0
 51
89.999999999999915
  0
ARC
  8
_0-1_計細線
  6
CONTINUOUS
 62
    3
 10
1092.8969229708555
 20
680.05920573263052
 40
1.0000000000000004
 50
209.99999999998565
 51
269.99999999999977
  0
ARC
  8
_0-1_計細線
  6
CONTINUOUS
 62
    3
 10
1091.1648721632864
 20
679.05920573263074
 40
1.0000000000000004
 50
29.999999999997289
 51
89.999999999973952
  0
LINE
  8
_0-1_計細線
  6
CONTINUOUS
 62
    3
 10
1093.3648721621826
 20
679.05920573263074
 11
1092.8969229708555
 21
679.05920573263074
  0
ARC
  8
_0-1_計細線
  6
CONTINUOUS
 62
    3
 10
1083.4648721643903
 20
676.65920573263111
 40
0.5000000000000002
 50
179.99999999999983
 51
269.99999999999977
  0
LINE
  8
_0-1_計細線
  6
CONTINUOUS
 62
    3
 10
1082.9648721643903
 20
678.05920573263097
 11
1082.9648721643903
 21
676.65920573263111
  0
ARC
  8
_0-1_計細線
  6
CONTINUOUS
 62
    3
 10
1093.864872162183
 20
676.65920573263111
 40
0.5000000000000002
 50
269.99999999999977
 51
359.99999999999966
  0
LINE
  8
_0-1_計細線
  6
CONTINUOUS
 62
    3
 10
1094.364872162183
 20
678.05920573263097
 11
1094.364872162183
 21
676.65920573263111
  0
ARC
  8
_0-1_計細線
  6
CONTINUOUS
 62
    3
 10
1085.9648721643903
 20
675.15920573263111
 40
1.0000000000000004
 50
0
 51
89.999999999999915
  0
LINE
  8
_0-1_計細線
  6
CONTINUOUS
 62
    3
 10
1085.9648721643903
 20
676.15920573263065
 11
1083.4648721643903
 21
676.15920573263065
  0
ARC
  8
_0-1_計細線
  6
CONTINUOUS
 62
    3
 10
1091.3648721643904
 20
675.15920573263111
 40
1.0000000000000004
 50
89.999999999999915
 51
179.99999999999983
  0
LINE
  8
_0-1_計細線
  6
CONTINUOUS
 62
    3
 10
1091.364872162183
 20
676.15920573263065
 11
1093.864872162183
 21
676.15920573263065
  0
LINE
  8
_0-1_計細線
  6
CONTINUOUS
 62
    3
 10
1091.1648721632864
 20
680.05920573263052
 11
1086.1648721632866
 21
680.05920573263052
  0
LINE
  8
_0-1_計細線
  6
CONTINUOUS
 62
    3
 10
1086.9648721632866
 20
655.05920573263143
 11
1086.9648721643898
 21
675.15920573263111
  0
LINE
  8
_0-1_計細線
  6
CONTINUOUS
 62
    3
 10
1090.3648721632867
 20
655.05920573263143
 11
1090.3648721643899
 21
675.15920573263111
  0
LINE
  8
_0-1_計細線
  6
CONTINUOUS
 62
    3
 10
1090.3648721632867
 20
655.05920573263143
 11
1086.9648721632866
 21
655.05920573263143
  0
ARC
  8
_0-1_計細線
  6
CONTINUOUS
 62
    3
 10
1117.9648721651138
 20
678.05920573263097
 40
1.0000000000000004
 50
89.999999999999915
 51
179.99999999999983
  0
ARC
  8
_0-1_計細線
  6
CONTINUOUS
 62
    3
 10
1118.4328213564409
 20
680.05920573263052
 40
1.0000000000000004
 50
269.99999999999977
 51
330.00000000001364
  0
ARC
  8
_0-1_計細線
  6
CONTINUOUS
 62
    3
 10
1120.1648721640101
 20
679.05920573263074
 40
1.0000000000000004
 50
89.999999999999915
 51
150.00000000000924
  0
LINE
  8
_0-1_計細線
  6
CONTINUOUS
 62
    3
 10
1117.9648721651138
 20
679.05920573263074
 11
1118.4328213564409
 21
679.05920573263074
  0
ARC
  8
_0-1_計細線
  6
CONTINUOUS
 62
    3
 10
1127.3648721629065
 20
678.05920573263097
 40
1.0000000000000004
 50
0
 51
89.999999999999915
  0
ARC
  8
_0-1_計細線
  6
CONTINUOUS
 62
    3
 10
1126.8969229715785
 20
680.05920573263052
 40
1.0000000000000004
 50
209.99999999999216
 51
269.99999999999977
  0
ARC
  8
_0-1_計細線
  6
CONTINUOUS
 62
    3
 10
1125.1648721640097
 20
679.05920573263074
 40
1.0000000000000004
 50
29.999999999997289
 51
89.99999999996092
  0
LINE
  8
_0-1_計細線
  6
CONTINUOUS
 62
    3
 10
1127.3648721629065
 20
679.05920573263074
 11
1126.8969229715785
 21
679.05920573263074
  0
ARC
  8
_0-1_計細線
  6
CONTINUOUS
 62
    3
 10
1117.4648721651133
 20
676.65920573263111
 40
0.5000000000000002
 50
179.99999999999983
 51
269.99999999999977
  0
LINE
  8
_0-1_計細線
  6
CONTINUOUS
 62
    3
 10
1116.9648721651133
 20
678.05920573263097
 11
1116.9648721651133
 21
676.65920573263111
  0
ARC
  8
_0-1_計細線
  6
CONTINUOUS
 62
    3
 10
1127.8648721629063
 20
676.65920573263111
 40
0.5000000000000002
 50
269.99999999999977
 51
359.99999999999966
  0
LINE
  8
_0-1_計細線
  6
CONTINUOUS
 62
    3
 10
1128.3648721629061
 20
678.05920573263097
 11
1128.3648721629061
 21
676.65920573263111
  0
ARC
  8
_0-1_計細線
  6
CONTINUOUS
 62
    3
 10
1119.9648721651135
 20
675.15920573263111
 40
1.0000000000000004
 50
0
 51
89.999999999999915
  0
LINE
  8
_0-1_計細線
  6
CONTINUOUS
 62
    3
 10
1119.9648721651135
 20
676.15920573263065
 11
1117.4648721651133
 21
676.15920573263065
  0
ARC
  8
_0-1_計細線
  6
CONTINUOUS
 62
    3
 10
1125.3648721651134
 20
675.15920573263111
 40
1.0000000000000004
 50
89.999999999999915
 51
179.99999999999983
  0
LINE
  8
_0-1_計細線
  6
CONTINUOUS
 62
    3
 10
1125.3648721629061
 20
676.15920573263065
 11
1127.8648721629063
 21
676.15920573263065
  0
LINE
  8
_0-1_計細線
  6
CONTINUOUS
 62
    3
 10
1125.1648721640097
 20
680.05920573263052
 11
1120.1648721640101
 21
680.05920573263052
  0
LINE
  8
_0-1_計細線
  6
CONTINUOUS
 62
    3
 10
1120.9648721640096
 20
655.05920573263143
 11
1120.9648721651138
 21
675.15920573263111
  0
LINE
  8
_0-1_計細線
  6
CONTINUOUS
 62
    3
 10
1124.36487216401
 20
655.05920573263143
 11
1124.3648721651136
 21
675.15920573263111
  0
LINE
  8
_0-1_計細線
  6
CONTINUOUS
 62
    3
 10
1124.36487216401
 20
655.05920573263143
 11
1120.9648721640096
 21
655.05920573263143
  0
ARC
  8
_0-1_計細線
  6
CONTINUOUS
 62
    3
 10
1134.9648721654753
 20
678.05920573263097
 40
1.0000000000000004
 50
89.999999999999915
 51
179.99999999999983
  0
ARC
  8
_0-1_計細線
  6
CONTINUOUS
 62
    3
 10
1135.4328213568028
 20
680.05920573263052
 40
1.0000000000000004
 50
269.99999999999977
 51
330.00000000001364
  0
ARC
  8
_0-1_計細線
  6
CONTINUOUS
 62
    3
 10
1137.1648721643714
 20
679.05920573263074
 40
1.0000000000000004
 50
89.999999999999915
 51
149.99999999999622
  0
LINE
  8
_0-1_計細線
  6
CONTINUOUS
 62
    3
 10
1134.9648721654753
 20
679.05920573263074
 11
1135.4328213568028
 21
679.05920573263074
  0
ARC
  8
_0-1_計細線
  6
CONTINUOUS
 62
    3
 10
1144.364872163268
 20
678.05920573263097
 40
1.0000000000000004
 50
0
 51
89.999999999999915
  0
ARC
  8
_0-1_計細線
  6
CONTINUOUS
 62
    3
 10
1143.8969229719407
 20
680.05920573263052
 40
1.0000000000000004
 50
209.9999999999726
 51
269.99999999999977
  0
ARC
  8
_0-1_計細線
  6
CONTINUOUS
 62
    3
 10
1142.1648721643719
 20
679.05920573263074
 40
1.0000000000000004
 50
30.000000000016829
 51
89.999999999999929
  0
LINE
  8
_0-1_計細線
  6
CONTINUOUS
 62
    3
 10
1144.364872163268
 20
679.05920573263074
 11
1143.8969229719407
 21
679.05920573263074
  0
ARC
  8
_0-1_計細線
  6
CONTINUOUS
 62
    3
 10
1134.4648721654755
 20
676.65920573263111
 40
0.5000000000000002
 50
179.99999999999983
 51
269.99999999999977
  0
LINE
  8
_0-1_計細線
  6
CONTINUOUS
 62
    3
 10
1133.9648721654751
 20
678.05920573263097
 11
1133.9648721654751
 21
676.65920573263111
  0
ARC
  8
_0-1_計細線
  6
CONTINUOUS
 62
    3
 10
1144.864872163268
 20
676.65920573263111
 40
0.5000000000000002
 50
269.99999999999977
 51
359.99999999999966
  0
LINE
  8
_0-1_計細線
  6
CONTINUOUS
 62
    3
 10
1145.3648721632683
 20
678.05920573263097
 11
1145.3648721632683
 21
676.65920573263111
  0
ARC
  8
_0-1_計細線
  6
CONTINUOUS
 62
    3
 10
1136.9648721654751
 20
675.15920573263111
 40
1.0000000000000004
 50
0
 51
89.999999999999915
  0
LINE
  8
_0-1_計細線
  6
CONTINUOUS
 62
    3
 10
1136.9648721654751
 20
676.15920573263065
 11
1134.4648721654755
 21
676.15920573263065
  0
ARC
  8
_0-1_計細線
  6
CONTINUOUS
 62
    3
 10
1142.3648721654758
 20
675.15920573263111
 40
1.0000000000000004
 50
89.999999999999915
 51
179.99999999999983
  0
LINE
  8
_0-1_計細線
  6
CONTINUOUS
 62
    3
 10
1142.3648721632683
 20
676.15920573263065
 11
1144.864872163268
 21
676.15920573263065
  0
LINE
  8
_0-1_計細線
  6
CONTINUOUS
 62
    3
 10
1142.1648721643719
 20
680.05920573263052
 11
1137.1648721643714
 21
680.05920573263052
  0
LINE
  8
_0-1_計細線
  6
CONTINUOUS
 62
    3
 10
1137.9648721643719
 20
655.05920573263143
 11
1137.9648721654753
 21
675.15920573263111
  0
LINE
  8
_0-1_計細線
  6
CONTINUOUS
 62
    3
 10
1141.3648721643717
 20
655.05920573263143
 11
1141.3648721654754
 21
675.15920573263111
  0
LINE
  8
_0-1_計細線
  6
CONTINUOUS
 62
    3
 10
1141.3648721643717
 20
655.05920573263143
 11
1137.9648721643719
 21
655.05920573263143
  0
ARC
  8
_0-1_計細線
  6
CONTINUOUS
 62
    3
 10
1151.9648721658368
 20
678.05920573263097
 40
1.0000000000000004
 50
89.999999999999915
 51
179.99999999999983
  0
ARC
  8
_0-1_計細線
  6
CONTINUOUS
 62
    3
 10
1152.4328213571648
 20
680.05920573263052
 40
1.0000000000000004
 50
269.99999999999977
 51
330.00000000001364
  0
ARC
  8
_0-1_計細線
  6
CONTINUOUS
 62
    3
 10
1154.1648721647332
 20
679.05920573263074
 40
1.0000000000000004
 50
89.999999999999915
 51
149.9999999999832
  0
LINE
  8
_0-1_計細線
  6
CONTINUOUS
 62
    3
 10
1151.9648721658368
 20
679.05920573263074
 11
1152.4328213571648
 21
679.05920573263074
  0
ARC
  8
_0-1_計細線
  6
CONTINUOUS
 62
    3
 10
1161.3648721636298
 20
678.05920573263097
 40
1.0000000000000004
 50
0
 51
89.999999999999915
  0
ARC
  8
_0-1_計細線
  6
CONTINUOUS
 62
    3
 10
1160.8969229723023
 20
680.05920573263052
 40
1.0000000000000004
 50
209.99999999999216
 51
269.99999999999977
  0
ARC
  8
_0-1_計細線
  6
CONTINUOUS
 62
    3
 10
1159.1648721647334
 20
679.05920573263074
 40
1.0000000000000004
 50
29.999999999997289
 51
89.999999999999929
  0
LINE
  8
_0-1_計細線
  6
CONTINUOUS
 62
    3
 10
1161.3648721636298
 20
679.05920573263074
 11
1160.8969229723023
 21
679.05920573263074
  0
ARC
  8
_0-1_計細線
  6
CONTINUOUS
 62
    3
 10
1151.4648721658371
 20
676.65920573263111
 40
0.5000000000000002
 50
179.99999999999983
 51
269.99999999999977
  0
LINE
  8
_0-1_計細線
  6
CONTINUOUS
 62
    3
 10
1150.9648721658373
 20
678.05920573263097
 11
1150.9648721658373
 21
676.65920573263111
  0
ARC
  8
_0-1_計細線
  6
CONTINUOUS
 62
    3
 10
1161.86487216363
 20
676.65920573263111
 40
0.5000000000000002
 50
269.99999999999977
 51
359.99999999999966
  0
LINE
  8
_0-1_計細線
  6
CONTINUOUS
 62
    3
 10
1162.3648721636303
 20
678.05920573263097
 11
1162.3648721636303
 21
676.65920573263111
  0
ARC
  8
_0-1_計細線
  6
CONTINUOUS
 62
    3
 10
1153.9648721658373
 20
675.15920573263111
 40
1.0000000000000004
 50
0
 51
89.999999999999915
  0
LINE
  8
_0-1_計細線
  6
CONTINUOUS
 62
    3
 10
1153.9648721658373
 20
676.15920573263065
 11
1151.4648721658371
 21
676.15920573263065
  0
ARC
  8
_0-1_計細線
  6
CONTINUOUS
 62
    3
 10
1159.3648721658374
 20
675.15920573263111
 40
1.0000000000000004
 50
89.999999999999915
 51
179.99999999999983
  0
LINE
  8
_0-1_計細線
  6
CONTINUOUS
 62
    3
 10
1159.36487216363
 20
676.15920573263065
 11
1161.86487216363
 21
676.15920573263065
  0
LINE
  8
_0-1_計細線
  6
CONTINUOUS
 62
    3
 10
1159.1648721647334
 20
680.05920573263052
 11
1154.1648721647332
 21
680.05920573263052
  0
LINE
  8
_0-1_計細線
  6
CONTINUOUS
 62
    3
 10
1154.9648721647336
 20
655.05920573263143
 11
1154.9648721658373
 21
675.15920573263111
  0
LINE
  8
_0-1_計細線
  6
CONTINUOUS
 62
    3
 10
1158.3648721647337
 20
655.05920573263143
 11
1158.3648721658371
 21
675.15920573263111
  0
LINE
  8
_0-1_計細線
  6
CONTINUOUS
 62
    3
 10
1158.3648721647337
 20
655.05920573263143
 11
1154.9648721647336
 21
655.05920573263143
  0
ARC
  8
_0-1_計細線
  6
CONTINUOUS
 62
    3
 10
928.66487216364806
 20
655.05942473363802
 40
3.0000000000000004
 50
179.99999999999983
 51
269.99999999999977
  0
LINE
  8
_0-1_計細線
  6
CONTINUOUS
 62
    3
 10
925.66487216364817
 20
655.05942473363802
 11
925.66487216364817
 21
679.55942473363757
  0
LINE
  8
_0-1_計細線
  6
CONTINUOUS
 62
    3
 10
928.66487216364806
 20
652.05942473363802
 11
955.16487216364817
 21
652.05942473363802
  0
LINE
  8
_0-1_計細線
  6
CONTINUOUS
 62
    3
 10
955.66487216364817
 20
652.55942473363848
 11
955.16487216364817
 21
652.05942473363802
  0
LINE
  8
_0-1_計細線
  6
CONTINUOUS
 62
    3
 10
955.66487216364817
 20
654.55942473363837
 11
955.66487216364817
 21
652.55942473363848
  0
LINE
  8
_0-1_計細線
  6
CONTINUOUS
 62
    3
 10
955.16487216364817
 20
655.05942473363802
 11
955.66487216364817
 21
654.55942473363837
  0
LINE
  8
_0-1_計細線
  6
CONTINUOUS
 62
    3
 10
928.66487216364806
 20
655.05942473363802
 11
955.16487216364817
 21
655.05942473363802
  0
LINE
  8
_0-1_計細線
  6
CONTINUOUS
 62
    3
 10
926.16487216364806
 20
680.05942473363802
 11
925.66487216364817
 21
679.55942473363757
  0
LINE
  8
_0-1_計細線
  6
CONTINUOUS
 62
    3
 10
928.16487216364817
 20
680.05942473363802
 11
926.16487216364806
 21
680.05942473363802
  0
LINE
  8
_0-1_計細線
  6
CONTINUOUS
 62
    3
 10
928.66487216364806
 20
679.55942473363757
 11
928.16487216364817
 21
680.05942473363802
  0
LINE
  8
_0-1_計細線
  6
CONTINUOUS
 62
    3
 10
928.66487216364806
 20
655.05942473363802
 11
928.66487216364806
 21
679.55942473363757
  0
ARC
  8
_0-1_計細線
  6
CONTINUOUS
 62
    3
 10
1282.6648721636482
 20
655.05942473363802
 40
3.0000000000000004
 50
269.99999999999977
 51
359.99999999999966
  0
LINE
  8
_0-1_計細線
  6
CONTINUOUS
 62
    3
 10
1285.6648721636484
 20
655.05942473363802
 11
1285.6648721636484
 21
679.55942473363757
  0
LINE
  8
_0-1_計細線
  6
CONTINUOUS
 62
    3
 10
1282.6648721636482
 20
652.05942473363802
 11
1256.1648721636477
 21
652.05942473363802
  0
LINE
  8
_0-1_計細線
  6
CONTINUOUS
 62
    3
 10
1255.6648721636479
 20
652.55942473363848
 11
1256.1648721636477
 21
652.05942473363802
  0
LINE
  8
_0-1_計細線
  6
CONTINUOUS
 62
    3
 10
1255.6648721636479
 20
654.55942473363837
 11
1255.6648721636479
 21
652.55942473363848
  0
LINE
  8
_0-1_計細線
  6
CONTINUOUS
 62
    3
 10
1256.1648721636477
 20
655.05942473363802
 11
1255.6648721636479
 21
654.55942473363837
  0
LINE
  8
_0-1_計細線
  6
CONTINUOUS
 62
    3
 10
1282.6648721636482
 20
655.05942473363802
 11
1256.1648721636477
 21
655.05942473363802
  0
LINE
  8
_0-1_計細線
  6
CONTINUOUS
 62
    3
 10
1285.1648721636484
 20
680.05942473363802
 11
1285.6648721636484
 21
679.55942473363757
  0
LINE
  8
_0-1_計細線
  6
CONTINUOUS
 62
    3
 10
1283.1648721636484
 20
680.05942473363802
 11
1285.1648721636484
 21
680.05942473363802
  0
LINE
  8
_0-1_計細線
  6
CONTINUOUS
 62
    3
 10
1282.6648721636482
 20
679.55942473363757
 11
1283.1648721636484
 21
680.05942473363802
  0
LINE
  8
_0-1_計細線
  6
CONTINUOUS
 62
    3
 10
1282.6648721636482
 20
655.05942473363802
 11
1282.6648721636482
 21
679.55942473363757
  0
LINE
  8
_0-0_計極細
  6
CENTER1
 62
    2
 10
906.16487216364806
 20
602.09338056296633
 11
906.16487216364806
 21
636.07619364139327
  0
LINE
  8
_0-0_計極細
  6
CONTINUOUS
 62
    2
 10
901.66487216364794
 20
633.51076154262773
 11
901.66487216364794
 21
607.05942473363802
  0
LINE
  8
_0-0_計極細
  6
CONTINUOUS
 62
    2
 10
910.66487216364817
 20
633.51076154262773
 11
901.66487216364794
 21
633.51076154262773
  0
LINE
  8
_0-0_計極細
  6
CONTINUOUS
 62
    2
 10
910.66487216364817
 20
607.05942473363802
 11
910.66487216364817
 21
633.51076154262773
  0
LINE
  8
_0-0_計極細
  6
CENTER1
 62
    2
 10
894.96848055119585
 20
625.13488420065892
 11
933.38709284073502
 21
639.11811549167987
  0
LINE
  8
_0-0_計極細
  6
CONTINUOUS
 62
    2
 10
899.48083123135689
 20
621.98844543114001
 11
932.55543812556562
 21
634.0266178506879
  0
LINE
  8
_0-0_計極細
  6
CONTINUOUS
 62
    2
 10
896.40264994142581
 20
630.44567901821347
 11
929.47725683563499
 21
642.48385143776113
  0
LINE
  8
_0-0_計極細
  6
CONTINUOUS
 62
    2
 10
929.47725683563499
 20
642.48385143776113
 11
932.55543812556562
 21
634.0266178506879
  0
LINE
  8
_0-0_計極細
  6
CONTINUOUS
 62
    2
 10
899.48083123135689
 20
621.98844543114001
 11
896.40264994142581
 21
630.44567901821347
  0
CIRCLE
  8
_0-0_計極細
  6
CONTINUOUS
 62
    2
 10
944.31501584173577
 20
631.00073024289395
 40
1.0953188836088352
  0
CIRCLE
  8
_0-0_計極細
  6
CONTINUOUS
 62
    2
 10
951.73723806396083
 20
596.04782836373283
 40
0.3318518518518431
  0
CIRCLE
  8
_0-0_計極細
  6
CONTINUOUS
 62
    2
 10
950.93723806396054
 20
609.64147098363469
 40
0.3318518518518431
  0
CIRCLE
  8
_0-0_計極細
  6
CONTINUOUS
 62
    2
 10
951.53241167507076
 20
642.46739690956065
 40
1.0953188836088352
  0
LINE
  8
_0-0_計極細
  6
CONTINUOUS
 62
    2
 10
955.66487216364817
 20
652.05942473363802
 11
955.66487216364817
 21
591.3144645567711
  0
LINE
  8
_0-0_計極細
  6
CONTINUOUS
 62
    2
 10
955.16487216364817
 20
652.05942473363802
 11
955.66487216364817
 21
652.05942473363802
  0
CIRCLE
  8
_0-0_計極細
  6
CONTINUOUS
 62
    2
 10
944.64834917507119
 20
598.86739690956119
 40
1.0953188836088352
  0
CIRCLE
  8
_0-0_計極細
  6
CONTINUOUS
 62
    2
 10
941.76834917507131
 20
610.06739690956078
 40
1.0953188836088352
  0
CIRCLE
  8
_0-0_計極細
  6
CONTINUOUS
 62
    2
 10
920.18168250840517
 20
612.22739690956064
 40
1.0953188836088352
  0
CIRCLE
  8
_0-0_計極細
  6
CONTINUOUS
 62
    2
 10
888.2616825084051
 20
619.90739690956048
 40
1.0953188836088352
  0
CIRCLE
  8
_0-0_計極細
  6
CONTINUOUS
 62
    2
 10
900.02168250840543
 20
642.70739690956043
 40
1.0953188836088352
  0
CIRCLE
  8
_0-0_計極細
  6
CONTINUOUS
 62
    2
 10
913.46168250840515
 20
636.6273969095605
 40
1.0953188836088352
  0
CIRCLE
  8
_0-0_計極細
  6
CONTINUOUS
 62
    2
 10
915.15501584173853
 20
656.38739690956004
 40
1.0953188836088352
  0
CIRCLE
  8
_0-0_計極細
  6
CONTINUOUS
 62
    2
 10
927.32834917507205
 20
643.19702653919012
 40
0.3318518518518431
  0
CIRCLE
  8
_0-0_計極細
  6
CONTINUOUS
 62
    2
 10
948.47501584173813
 20
625.3570265391902
 40
0.3318518518518431
  0
CIRCLE
  8
_0-0_計極細
  6
CONTINUOUS
 62
    2
 10
948.15501584173842
 20
636.13035987252329
 40
0.3318518518518431
  0
CIRCLE
  8
_0-0_計極細
  6
CONTINUOUS
 62
    2
 10
939.08834917507181
 20
642.10369320585642
 40
0.3318518518518431
  0
CIRCLE
  8
_0-0_計極細
  6
CONTINUOUS
 62
    2
 10
930.23501584173846
 20
621.62369320585685
 40
0.3318518518518431
  0
CIRCLE
  8
_0-0_計極細
  6
CONTINUOUS
 62
    2
 10
940.23501584173857
 20
595.45480431696819
 40
0.3318518518518431
  0
CIRCLE
  8
_0-0_計極細
  6
CONTINUOUS
 62
    2
 10
944.39501584173843
 20
604.41480431696823
 40
0.3318518518518431
  0
CIRCLE
  8
_0-0_計極細
  6
CONTINUOUS
 62
    2
 10
936.18168250840529
 20
613.37480431696804
 40
0.3318518518518431
  0
CIRCLE
  8
_0-0_計極細
  6
CONTINUOUS
 62
    2
 10
928.39501584173831
 20
611.45480431696797
 40
0.3318518518518431
  0
CIRCLE
  8
_0-0_計極細
  6
CONTINUOUS
 62
    2
 10
916.44834917507205
 20
610.81480431696787
 40
0.3318518518518431
  0
CIRCLE
  8
_0-0_計極細
  6
CONTINUOUS
 62
    2
 10
918.58168250840549
 20
616.36147098363449
 40
0.3318518518518431
  0
CIRCLE
  8
_0-0_計極細
  6
CONTINUOUS
 62
    2
 10
914.84834917507203
 20
617.85480431696806
 40
0.3318518518518431
  0
CIRCLE
  8
_0-0_計極細
  6
CONTINUOUS
 62
    2
 10
921.56834917507183
 20
621.16147098363444
 40
0.3318518518518431
  0
CIRCLE
  8
_0-0_計極細
  6
CONTINUOUS
 62
    2
 10
897.98834917507236
 20
610.42813765030132
 40
0.3318518518518431
  0
CIRCLE
  8
_0-0_計極細
  6
CONTINUOUS
 62
    2
 10
894.25501584173867
 20
615.54813765030121
 40
0.3318518518518431
  0
CIRCLE
  8
_0-0_計極細
  6
CONTINUOUS
 62
    2
 10
889.02834917507221
 20
611.49480431696793
 40
0.3318518518518431
  0
CIRCLE
  8
_0-0_計極細
  6
CONTINUOUS
 62
    2
 10
892.44168250840517
 20
622.26813765030124
 40
0.3318518518518431
  0
CIRCLE
  8
_0-0_計極細
  6
CONTINUOUS
 62
    2
 10
917.10834917507202
 20
638.53480431696767
 40
0.3318518518518431
  0
CIRCLE
  8
_0-0_計極細
  6
CONTINUOUS
 62
    2
 10
900.68168250840574
 20
634.16147098363444
 40
0.3318518518518431
  0
CIRCLE
  8
_0-0_計極細
  6
CONTINUOUS
 62
    2
 10
909.53501584173853
 20
642.26813765030101
 40
0.3318518518518431
  0
CIRCLE
  8
_0-0_計極細
  6
CONTINUOUS
 62
    2
 10
917.10834917507202
 20
645.68147098363443
 40
0.3318518518518431
  0
CIRCLE
  8
_0-0_計極細
  6
CONTINUOUS
 62
    2
 10
902.06834917507183
 20
647.92147098363432
 40
0.3318518518518431
  0
CIRCLE
  8
_0-0_計極細
  6
CONTINUOUS
 62
    2
 10
889.80168250840575
 20
648.66813765030088
 40
0.3318518518518431
  0
CIRCLE
  8
_0-0_計極細
  6
CONTINUOUS
 62
    2
 10
906.11501584173857
 20
656.00813765030114
 40
0.3318518518518431
  0
CIRCLE
  8
_0-0_計極細
  6
CONTINUOUS
 62
    2
 10
885.63501584173878
 20
653.02147098363423
 40
0.3318518518518431
  0
CIRCLE
  8
_0-0_計極細
  6
CONTINUOUS
 62
    2
 10
878.06168250840585
 20
651.84813765030094
 40
0.3318518518518431
  0
CIRCLE
  8
_0-0_計極細
  6
CONTINUOUS
 62
    2
 10
871.69723806396121
 20
651.20813765030107
 40
0.3318518518518431
  0
LINE
  8
_0-0_計極細
  6
CONTINUOUS
 62
    2
 10
913.21168742465431
 20
591.3144646266328
 11
928.95664753165966
 21
607.05942473363802
  0
LINE
  8
_0-0_計極細
  6
CONTINUOUS
 62
    2
 10
870.78528068546916
 20
591.31446475864095
 11
886.53024066046669
 21
607.05942473363802
  0
LINE
  8
_0-0_計極細
  6
CONTINUOUS
 62
    2
 10
867.15822387657909
 20
630.11381482094339
 11
885.10383378927395
 21
648.05942473363859
  0
LINE
  8
_0-0_計極細
  6
CONTINUOUS
 62
    2
 10
908.96904675073586
 20
591.31446463983366
 11
924.71400684454011
 21
607.05942473363802
  0
LINE
  8
_0-0_計極細
  6
CONTINUOUS
 62
    2
 10
867.15822387657909
 20
591.93004863686997
 11
885.66487216364771
 21
610.43669692393905
  0
LINE
  8
_0-0_計極細
  6
CONTINUOUS
 62
    2
 10
867.15822387657909
 20
634.35645550806294
 11
880.86119310215463
 21
648.05942473363859
  0
LINE
  8
_0-0_計極細
  6
CONTINUOUS
 62
    2
 10
904.7264060768174
 20
591.31446465303475
 11
920.47136615742136
 21
607.05942473363802
  0
LINE
  8
_0-0_計極細
  6
CONTINUOUS
 62
    2
 10
867.15822387657909
 20
596.17268932398952
 11
885.66487216364771
 21
614.67933761105814
  0
LINE
  8
_0-0_計極細
  6
CONTINUOUS
 62
    2
 10
867.15822387657909
 20
638.59909619518248
 11
876.6185524150352
 21
648.05942473363859
  0
LINE
  8
_0-0_計極細
  6
CONTINUOUS
 62
    2
 10
935.66487216364817
 20
607.05942473363802
 11
935.66487216364817
 21
591.3144645567711
  0
LINE
  8
_0-0_計極細
  6
CONTINUOUS
 62
    2
 10
885.66487216364771
 20
648.05942473363859
 11
867.15822387657909
 21
648.05942473363859
  0
LINE
  8
_0-0_計極細
  6
CONTINUOUS
 62
    2
 10
935.66487216364817
 20
607.05942473363802
 11
885.66487216364771
 21
607.05942473363802
  0
LINE
  8
_0-0_計極細
  6
CONTINUOUS
 62
    2
 10
885.66487216364771
 20
648.05942473363859
 11
885.66487216364771
 21
607.05942473363802
  0
CIRCLE
  8
_0-0_計極細
  6
CONTINUOUS
 62
    2
 10
1302.0616825084037
 20
640.17128579844916
 40
0.3318518518518431
  0
CIRCLE
  8
_0-0_計極細
  6
CONTINUOUS
 62
    2
 10
1313.8216825084037
 20
636.81128579844903
 40
0.3318518518518431
  0
LINE
  8
_0-0_計極細
  6
CONTINUOUS
 62
    2
 10
1300.6648721636484
 20
633.51076154262773
 11
1309.6648721636484
 21
633.51076154262773
  0
LINE
  8
_0-0_計極細
  6
CENTER1
 62
    2
 10
1305.1648721636484
 20
602.09338056296633
 11
1305.1648721636484
 21
636.07619364139327
  0
LINE
  8
_0-0_計極細
  6
CONTINUOUS
 62
    2
 10
1309.6648721636484
 20
633.51076154262773
 11
1309.6648721636484
 21
607.05942473363802
  0
LINE
  8
_0-0_計極細
  6
CONTINUOUS
 62
    2
 10
1300.6648721636484
 20
607.05942473363802
 11
1300.6648721636484
 21
633.51076154262773
  0
LINE
  8
_0-0_計極細
  6
CENTER1
 62
    2
 10
1316.3612637761005
 20
625.13488420065892
 11
1277.9426514865611
 21
639.11811549167987
  0
LINE
  8
_0-0_計極細
  6
CONTINUOUS
 62
    2
 10
1311.8489130959395
 20
621.98844543114001
 11
1278.7743062017307
 21
634.0266178506879
  0
LINE
  8
_0-0_計極細
  6
CONTINUOUS
 62
    2
 10
1314.9270943858708
 20
630.44567901821347
 11
1281.8524874916613
 21
642.48385143776113
  0
LINE
  8
_0-0_計極細
  6
CONTINUOUS
 62
    2
 10
1281.8524874916613
 20
642.48385143776113
 11
1278.7743062017307
 21
634.0266178506879
  0
LINE
  8
_0-0_計極細
  6
CONTINUOUS
 62
    2
 10
1311.8489130959395
 20
621.98844543114001
 11
1314.9270943858708
 21
630.44567901821347
  0
CIRCLE
  8
_0-0_計極細
  6
CONTINUOUS
 62
    2
 10
1261.4250158417369
 20
600.47073024289398
 40
1.0953188836088352
  0
CIRCLE
  8
_0-0_計極細
  6
CONTINUOUS
 62
    2
 10
1259.6561269528481
 20
644.04406357622747
 40
1.0953188836088352
  0
CIRCLE
  8
_0-0_計極細
  6
CONTINUOUS
 62
    2
 10
1260.0394602861818
 20
604.47202653919044
 40
0.3318518518518431
  0
CIRCLE
  8
_0-0_計極細
  6
CONTINUOUS
 62
    2
 10
1259.255509668898
 20
628.0253598725235
 40
0.3318518518518431
  0
LINE
  8
_0-0_計極細
  6
CONTINUOUS
 62
    2
 10
1255.6648721636479
 20
652.05942473363802
 11
1255.6648721636479
 21
591.3144645567711
  0
LINE
  8
_0-0_計極細
  6
CONTINUOUS
 62
    2
 10
1256.1648721636477
 20
652.05942473363802
 11
1255.6648721636479
 21
652.05942473363802
  0
CIRCLE
  8
_0-0_計極細
  6
CONTINUOUS
 62
    2
 10
1310.4616825084033
 20
659.38739690956015
 40
1.0953188836088352
  0
CIRCLE
  8
_0-0_計極細
  6
CONTINUOUS
 62
    2
 10
1310.3816825084036
 20
663.17869320585646
 40
0.3318518518518431
  0
CIRCLE
  8
_0-0_計極細
  6
CONTINUOUS
 62
    2
 10
1264.2387195454417
 20
622.9501403320055
 40
0.3318518518518431
  0
CIRCLE
  8
_0-0_計極細
  6
CONTINUOUS
 62
    2
 10
1264.1187195454411
 20
637.32347366533872
 40
0.3318518518518431
  0
CIRCLE
  8
_0-0_計極細
  6
CONTINUOUS
 62
    2
 10
1292.5983491750706
 20
640.57739690956043
 40
1.0953188836088352
  0
CIRCLE
  8
_0-0_計極細
  6
CONTINUOUS
 62
    2
 10
1322.9974647562406
 20
608.54516547437902
 40
1.0953188836088352
  0
CIRCLE
  8
_0-0_計極細
  6
CONTINUOUS
 62
    2
 10
1295.2383491750707
 20
614.6573969095607
 40
1.0953188836088352
  0
CIRCLE
  8
_0-0_計極細
  6
CONTINUOUS
 62
    2
 10
1274.1183491750708
 20
628.09739690956053
 40
1.0953188836088352
  0
CIRCLE
  8
_0-0_計極細
  6
CONTINUOUS
 62
    2
 10
1267.9850158417373
 20
610.17739690956068
 40
1.0953188836088352
  0
CIRCLE
  8
_0-0_計極細
  6
CONTINUOUS
 62
    2
 10
1310.2216825084033
 20
636.90739690956025
 40
1.0953188836088352
  0
CIRCLE
  8
_0-0_計極細
  6
CONTINUOUS
 62
    2
 10
1291.0216825084037
 20
656.10739690956041
 40
1.0953188836088352
  0
CIRCLE
  8
_0-0_計極細
  6
CONTINUOUS
 62
    2
 10
1324.2750158417366
 20
652.16073024289381
 40
1.0953188836088352
  0
CIRCLE
  8
_0-0_計極細
  6
CONTINUOUS
 62
    2
 10
1336.5416825084035
 20
653.17869320585623
 40
0.3318518518518431
  0
CIRCLE
  8
_0-0_計極細
  6
CONTINUOUS
 62
    2
 10
1318.7816825084037
 20
640.45869320585666
 40
0.3318518518518431
  0
CIRCLE
  8
_0-0_計極細
  6
CONTINUOUS
 62
    2
 10
1310.3816825084036
 20
644.77869320585671
 40
0.3318518518518431
  0
CIRCLE
  8
_0-0_計極細
  6
CONTINUOUS
 62
    2
 10
1321.1816825084031
 20
632.0586932058568
 40
0.3318518518518431
  0
CIRCLE
  8
_0-0_計極細
  6
CONTINUOUS
 62
    2
 10
1322.1416825084034
 20
619.57869320585678
 40
0.3318518518518431
  0
CIRCLE
  8
_0-0_計極細
  6
CONTINUOUS
 62
    2
 10
1317.8216825084032
 20
611.17869320585692
 40
0.3318518518518431
  0
CIRCLE
  8
_0-0_計極細
  6
CONTINUOUS
 62
    2
 10
1294.3016825084037
 20
643.09869320585676
 40
0.3318518518518431
  0
CIRCLE
  8
_0-0_計極細
  6
CONTINUOUS
 62
    2
 10
1288.9416825084036
 20
651.92535987252313
 40
0.3318518518518431
  0
CIRCLE
  8
_0-0_計極細
  6
CONTINUOUS
 62
    2
 10
1290.4350158417374
 20
663.76535987252305
 40
0.3318518518518431
  0
CIRCLE
  8
_0-0_計極細
  6
CONTINUOUS
 62
    2
 10
1296.1283491750705
 20
619.35202653919032
 40
0.3318518518518431
  0
CIRCLE
  8
_0-0_計極細
  6
CONTINUOUS
 62
    2
 10
1289.4083491750707
 20
615.99202653919019
 40
0.3318518518518431
  0
CIRCLE
  8
_0-0_計極細
  6
CONTINUOUS
 62
    2
 10
1296.6083491750705
 20
610.55202653919036
 40
0.3318518518518431
  0
CIRCLE
  8
_0-0_計極細
  6
CONTINUOUS
 62
    2
 10
1280.4483491750705
 20
610.39202653919028
 40
0.3318518518518431
  0
CIRCLE
  8
_0-0_計極細
  6
CONTINUOUS
 62
    2
 10
1272.1283491750705
 20
613.27202653919039
 40
0.3318518518518431
  0
CIRCLE
  8
_0-0_計極細
  6
CONTINUOUS
 62
    2
 10
1265.2483491750706
 20
595.35202653919055
 40
0.3318518518518431
  0
CIRCLE
  8
_0-0_計極細
  6
CONTINUOUS
 62
    2
 10
1270.8483491750708
 20
606.07202653919035
 40
0.3318518518518431
  0
CIRCLE
  8
_0-0_計極細
  6
CONTINUOUS
 62
    2
 10
1281.5483491750704
 20
620.05202653919014
 40
0.3318518518518431
  0
CIRCLE
  8
_0-0_計極細
  6
CONTINUOUS
 62
    2
 10
1271.0283491750706
 20
630.2653598725235
 40
0.3318518518518431
  0
CIRCLE
  8
_0-0_計極細
  6
CONTINUOUS
 62
    2
 10
1273.481682508404
 20
645.25202653918996
 40
0.3318518518518431
  0
CIRCLE
  8
_0-0_計極細
  6
CONTINUOUS
 62
    2
 10
1267.5083491750706
 20
642.37202653919007
 40
0.3318518518518431
  0
LINE
  8
_0-0_計極細
  6
CONTINUOUS
 62
    2
 10
1330.638873612404
 20
591.3144645567711
 11
1344.1715204756415
 21
604.8471114200081
  0
LINE
  8
_0-0_計極細
  6
CONTINUOUS
 62
    2
 10
1288.2124667412111
 20
591.3144645567711
 11
1303.9574269180785
 21
607.05942473363802
  0
LINE
  8
_0-0_計極細
  6
CONTINUOUS
 62
    2
 10
1325.6648721636484
 20
628.76686997920797
 11
1344.1715204511704
 21
647.27351826672975
  0
LINE
  8
_0-0_計極細
  6
CONTINUOUS
 62
    2
 10
1326.3962329252849
 20
591.3144645567711
 11
1344.1715204731943
 21
609.08975210468043
  0
LINE
  8
_0-0_計極細
  6
CONTINUOUS
 62
    2
 10
1283.969826054092
 20
591.3144645567711
 11
1299.7147862309594
 21
607.05942473363802
  0
LINE
  8
_0-0_計極細
  6
CONTINUOUS
 62
    2
 10
1325.6648721636484
 20
633.00951066632706
 11
1340.7147861232293
 21
648.05942462590815
  0
LINE
  8
_0-0_計極細
  6
CONTINUOUS
 62
    2
 10
1322.1535922381654
 20
591.3144645567711
 11
1344.1715204707473
 21
613.33239278935275
  0
LINE
  8
_0-0_計極細
  6
CONTINUOUS
 62
    2
 10
1279.7271853669724
 20
591.3144645567711
 11
1295.47214554384
 21
607.05942473363802
  0
LINE
  8
_0-0_計極細
  6
CONTINUOUS
 62
    2
 10
1325.6648721636484
 20
637.25215135344661
 11
1336.4721454664798
 21
648.05942465627777
  0
LINE
  8
_0-0_計極細
  6
CONTINUOUS
 62
    2
 10
1275.6648721636482
 20
607.05942473363802
 11
1275.6648721636482
 21
591.3144645567711
  0
LINE
  8
_0-0_計極細
  6
CONTINUOUS
 62
    2
 10
1325.6648721636484
 20
648.05942473363859
 11
1344.171520450717
 21
648.05942473363859
  0
LINE
  8
_0-0_計極細
  6
CONTINUOUS
 62
    2
 10
1275.6648721636482
 20
607.05942473363802
 11
1325.6648721636484
 21
607.05942473363802
  0
LINE
  8
_0-0_計極細
  6
CONTINUOUS
 62
    2
 10
1325.6648721636484
 20
648.05942473363859
 11
1325.6648721636484
 21
607.05942473363802
  0
LINE
  8
_0-1_計細線
  6
CONTINUOUS
 62
    3
 10
1285.6648721636484
 20
664.05942473363802
 11
1285.6648721636484
 21
629.05942473363802
  0
LINE
  8
_0-1_計細線
  6
CONTINUOUS
 62
    3
 10
1285.6648721636484
 20
629.05942473363802
 11
1287.9648721636486
 21
629.05942473363802
  0
LINE
  8
_0-1_計細線
  6
CONTINUOUS
 62
    3
 10
1287.9648721636486
 20
629.05942473363802
 11
1287.9648721636486
 21
664.05942473363802
  0
LINE
  8
_0-1_計細線
  6
CONTINUOUS
 62
    3
 10
1287.9648721636486
 20
664.05942473363802
 11
1285.6648721636484
 21
664.05942473363802
  0
LINE
  8
_0-0_計極細
  6
CONTINUOUS
 62
    2
 10
1287.9648721636486
 20
648.05942473363802
 11
1285.6648721636484
 21
648.05942473363802
  0
LINE
  8
_0-0_計極細
  6
CONTINUOUS
 62
    2
 10
1287.9648721636486
 20
650.05942473363802
 11
1285.6648721636484
 21
650.05942473363802
  0
LINE
  8
_0-0_計極細
  6
CONTINUOUS
 62
    2
 10
1287.9648721636486
 20
646.05942473363814
 11
1285.6648721636484
 21
646.05942473363814
  0
LINE
  8
_0-0_計極細
  6
CONTINUOUS
 62
    2
 10
1287.9648721636486
 20
652.05942473363802
 11
1285.6648721636484
 21
652.05942473363802
  0
LINE
  8
_0-0_計極細
  6
CONTINUOUS
 62
    2
 10
1285.6648721636484
 20
632.05942473363802
 11
1287.9648721636486
 21
632.05942473363802
  0
LINE
  8
_0-0_計極細
  6
CONTINUOUS
 62
    2
 10
1287.9648721636486
 20
662.05942473363802
 11
1285.6648721636484
 21
662.05942473363802
  0
LINE
  8
_0-7_枠細線
  6
CONTINUOUS
 62
    5
 10
1304.5789009844689
 20
649.20750856470249
 11
1297.0789009844689
 21
664.20750856470249
  0
LINE
  8
_0-7_枠細線
  6
CONTINUOUS
 62
    5
 10
1289.5789009844689
 20
649.20750856470249
 11
1304.5789009844689
 21
649.20750856470249
  0
LINE
  8
_0-7_枠細線
  6
CONTINUOUS
 62
    5
 10
1297.0789009844689
 20
664.20750856470249
 11
1289.5789009844689
 21
649.20750856470249
  0
TEXT
  8
_0-7_枠細線
 62
    5
 10
1291.944052252617
 20
648.25868859985258
 40
12.5
 41
0.8
 50
0
  1
５
  0
LINE
  8
_0-1_計細線
  6
CONTINUOUS
 62
    3
 10
925.66487216364806
 20
664.05942473363802
 11
925.66487216364806
 21
629.05942473363802
  0
LINE
  8
_0-1_計細線
  6
CONTINUOUS
 62
    3
 10
925.66487216364806
 20
629.05942473363802
 11
923.36487216364799
 21
629.05942473363802
  0
LINE
  8
_0-1_計細線
  6
CONTINUOUS
 62
    3
 10
923.36487216364799
 20
629.05942473363802
 11
923.36487216364799
 21
664.05942473363802
  0
LINE
  8
_0-1_計細線
  6
CONTINUOUS
 62
    3
 10
923.36487216364799
 20
664.05942473363802
 11
925.66487216364806
 21
664.05942473363802
  0
LINE
  8
_0-0_計極細
  6
CONTINUOUS
 62
    2
 10
923.36487216364799
 20
648.05942473363802
 11
925.66487216364806
 21
648.05942473363802
  0
LINE
  8
_0-0_計極細
  6
CONTINUOUS
 62
    2
 10
923.36487216364799
 20
650.05942473363802
 11
925.66487216364806
 21
650.05942473363802
  0
LINE
  8
_0-0_計極細
  6
CONTINUOUS
 62
    2
 10
923.36487216364799
 20
646.05942473363814
 11
925.66487216364806
 21
646.05942473363814
  0
LINE
  8
_0-0_計極細
  6
CONTINUOUS
 62
    2
 10
923.36487216364799
 20
652.05942473363802
 11
925.66487216364806
 21
652.05942473363802
  0
LINE
  8
_0-0_計極細
  6
CONTINUOUS
 62
    2
 10
925.66487216364806
 20
632.05942473363802
 11
923.36487216364799
 21
632.05942473363802
  0
LINE
  8
_0-0_計極細
  6
CONTINUOUS
 62
    2
 10
923.36487216364799
 20
662.05942473363802
 11
925.66487216364806
 21
662.05942473363802
  0
LINE
  8
_0-5_寸法線
  6
CONTINUOUS
 62
    7
 10
915.66487216364817
 20
680.05942473363791
 11
868.36487216364799
 21
680.05942473363791
  0
LINE
  8
_0-5_寸法線
  6
CONTINUOUS
 62
    7
 10
873.36487216364799
 20
680.05942473363791
 11
875.95306261467329
 21
670.40016647074708
  0
LINE
  8
_0-5_寸法線
  6
CONTINUOUS
 62
    7
 10
873.36487216364799
 20
680.05942473363791
 11
870.77668171262292
 21
670.40016647074708
  0
LINE
  8
_0-5_寸法線
  6
CONTINUOUS
 62
    7
 10
914.46487216364801
 20
652.05942473363802
 11
868.36487216364799
 21
652.0594247336378
  0
LINE
  8
_0-5_寸法線
  6
CONTINUOUS
 62
    7
 10
873.36487216364799
 20
652.0594247336378
 11
870.7766817126228
 21
661.71868299652851
  0
LINE
  8
_0-5_寸法線
  6
CONTINUOUS
 62
    7
 10
873.36487216364799
 20
652.0594247336378
 11
875.95306261467329
 21
661.71868299652851
  0
LINE
  8
_0-5_寸法線
  6
CONTINUOUS
 62
    7
 10
873.36487216364799
 20
680.05942473363791
 11
873.36487216364799
 21
652.0594247336378
  0
TEXT
  8
_0-5_寸法線
 62
    7
 10
873.36487216364799
 20
658.5594247336378
 40
15
 41
1
 50
90
  1
28
  0
LINE
  8
_0-5_寸法線
  6
CONTINUOUS
 62
    7
 10
915.66487216364817
 20
652.05942473363802
 11
868.36487216364799
 21
652.0594247336378
  0
LINE
  8
_0-5_寸法線
  6
CONTINUOUS
 62
    7
 10
873.36487216364799
 20
652.0594247336378
 11
875.95306261467329
 21
642.40016647074708
  0
LINE
  8
_0-5_寸法線
  6
CONTINUOUS
 62
    7
 10
873.36487216364799
 20
652.0594247336378
 11
870.77668171262292
 21
642.40016647074708
  0
LINE
  8
_0-5_寸法線
  6
CONTINUOUS
 62
    7
 10
914.46487216364801
 20
629.05942473363802
 11
868.36487216364799
 21
629.05942473363802
  0
LINE
  8
_0-5_寸法線
  6
CONTINUOUS
 62
    7
 10
873.36487216364799
 20
629.05942473363802
 11
870.7766817126228
 21
638.71868299652874
  0
LINE
  8
_0-5_寸法線
  6
CONTINUOUS
 62
    7
 10
873.36487216364799
 20
629.05942473363802
 11
875.95306261467329
 21
638.71868299652874
  0
LINE
  8
_0-5_寸法線
  6
CONTINUOUS
 62
    7
 10
873.36487216364799
 20
652.0594247336378
 11
873.36487216364799
 21
629.05942473363802
  0
TEXT
  8
_0-5_寸法線
 62
    7
 10
873.36487216364799
 20
633.05942473363802
 40
15
 41
1
 50
90
  1
23
  0
LINE
  8
_0-5_寸法線
  6
CONTINUOUS
 62
    7
 10
955.66487216364817
 20
647.05942473363802
 11
955.66487216364806
 21
574.05942473363802
  0
LINE
  8
_0-5_寸法線
  6
CONTINUOUS
 62
    7
 10
955.66487216364806
 20
579.05942473363802
 11
965.32413042653866
 21
581.64761518466321
  0
LINE
  8
_0-5_寸法線
  6
CONTINUOUS
 62
    7
 10
955.66487216364806
 20
579.05942473363802
 11
965.32413042653866
 21
576.47123428261284
  0
LINE
  8
_0-5_寸法線
  6
CONTINUOUS
 62
    7
 10
1255.6648721636479
 20
647.05942473363802
 11
1255.6648721636479
 21
574.05942473363802
  0
LINE
  8
_0-5_寸法線
  6
CONTINUOUS
 62
    7
 10
1255.6648721636479
 20
579.05942473363802
 11
1246.0056139007572
 21
576.47123428261284
  0
LINE
  8
_0-5_寸法線
  6
CONTINUOUS
 62
    7
 10
1255.6648721636479
 20
579.05942473363802
 11
1246.0056139007572
 21
581.64761518466321
  0
LINE
  8
_0-5_寸法線
  6
CONTINUOUS
 62
    7
 10
955.66487216364806
 20
579.05942473363802
 11
1255.6648721636479
 21
579.05942473363802
  0
TEXT
  8
_0-5_寸法線
 62
    7
 10
1094.4148721636479
 20
579.05942473363802
 40
15
 41
1
 50
0
  1
300
  0
LINE
  8
_0-5_寸法線
  6
CONTINUOUS
 62
    7
 10
925.66487216364806
 20
619.05942473363825
 11
925.66487216364737
 21
574.05942473363802
  0
LINE
  8
_0-5_寸法線
  6
CONTINUOUS
 62
    7
 10
925.66487216364749
 20
579.05942473363802
 11
935.3241304265382
 21
581.64761518466321
  0
LINE
  8
_0-5_寸法線
  6
CONTINUOUS
 62
    7
 10
925.66487216364749
 20
579.05942473363802
 11
935.3241304265382
 21
576.47123428261284
  0
LINE
  8
_0-5_寸法線
  6
CONTINUOUS
 62
    7
 10
955.66487216364806
 20
642.05942473363802
 11
955.66487216364681
 21
574.05942473363802
  0
LINE
  8
_0-5_寸法線
  6
CONTINUOUS
 62
    7
 10
955.66487216364692
 20
579.05942473363802
 11
946.00561390075609
 21
576.47123428261284
  0
LINE
  8
_0-5_寸法線
  6
CONTINUOUS
 62
    7
 10
955.66487216364692
 20
579.05942473363802
 11
946.00561390075609
 21
581.64761518466321
  0
LINE
  8
_0-5_寸法線
  6
CONTINUOUS
 62
    7
 10
925.66487216364749
 20
579.05942473363802
 11
955.66487216364692
 21
579.05942473363802
  0
TEXT
  8
_0-5_寸法線
 62
    7
 10
933.16487216364703
 20
579.05942473363802
 40
15
 41
1
 50
0
  1
30
  0
LINE
  8
_0-5_寸法線
  6
CONTINUOUS
 62
    7
 10
1285.6648721636484
 20
619.05942473363825
 11
1285.6648721636484
 21
574.05942473363802
  0
LINE
  8
_0-5_寸法線
  6
CONTINUOUS
 62
    7
 10
1285.6648721636484
 20
579.05942473363802
 11
1276.0056139007577
 21
576.47123428261284
  0
LINE
  8
_0-5_寸法線
  6
CONTINUOUS
 62
    7
 10
1285.6648721636484
 20
579.05942473363802
 11
1276.0056139007577
 21
581.64761518466321
  0
LINE
  8
_0-5_寸法線
  6
CONTINUOUS
 62
    7
 10
1255.6648721636484
 20
642.05942473363802
 11
1255.6648721636484
 21
574.05942473363802
  0
LINE
  8
_0-5_寸法線
  6
CONTINUOUS
 62
    7
 10
1255.6648721636484
 20
579.05942473363802
 11
1265.3241304265391
 21
581.64761518466321
  0
LINE
  8
_0-5_寸法線
  6
CONTINUOUS
 62
    7
 10
1255.6648721636484
 20
579.05942473363802
 11
1265.3241304265391
 21
576.47123428261284
  0
LINE
  8
_0-5_寸法線
  6
CONTINUOUS
 62
    7
 10
1285.6648721636484
 20
579.05942473363802
 11
1255.6648721636484
 21
579.05942473363802
  0
TEXT
  8
_0-5_寸法線
 62
    7
 10
1263.1648721636484
 20
579.05942473363802
 40
15
 41
1
 50
0
  1
30
  0
CIRCLE
  8
_0-0_計極細
  6
CONTINUOUS
 62
    2
 10
1314.5925038410323
 20
668.96237224756123
 40
0.3318518518518431
  0
TEXT
  8
_0-7_枠細線
 62
    5
 10
1056.3474408707193
 20
527.67977613206153
 40
25
 41
0.8
 50
0
  1
断面詳細図
  0
TEXT
  8
_0-7_枠細線
 62
    5
 10
1171.2964106198874
 20
528.99508271887032
 40
20
 41
0.6
 50
0
  1
Ｓ＝１：５
  0
LINE
  8
_0-5_寸法線
  6
CONTINUOUS
 62
    7
 10
925.66487216364817
 20
685.05942473363802
 11
925.66487216364817
 21
805.05942473363802
  0
LINE
  8
_0-5_寸法線
  6
CONTINUOUS
 62
    7
 10
925.66487216364817
 20
800.05942473363802
 11
935.324130426539
 21
802.64761518466332
  0
LINE
  8
_0-5_寸法線
  6
CONTINUOUS
 62
    7
 10
925.66487216364817
 20
800.05942473363802
 11
935.324130426539
 21
797.47123428261284
  0
LINE
  8
_0-5_寸法線
  6
CONTINUOUS
 62
    7
 10
1285.6648721636484
 20
685.05942473363802
 11
1285.6648721636484
 21
805.05942473363802
  0
LINE
  8
_0-5_寸法線
  6
CONTINUOUS
 62
    7
 10
1285.6648721636484
 20
800.05942473363802
 11
1276.0056139007577
 21
797.47123428261284
  0
LINE
  8
_0-5_寸法線
  6
CONTINUOUS
 62
    7
 10
1285.6648721636484
 20
800.05942473363802
 11
1276.0056139007577
 21
802.64761518466332
  0
LINE
  8
_0-5_寸法線
  6
CONTINUOUS
 62
    7
 10
925.66487216364817
 20
800.05942473363802
 11
1285.6648721636484
 21
800.05942473363802
  0
TEXT
  8
_0-5_寸法線
 62
    7
 10
1094.4148721636484
 20
800.05942473363802
 40
15
 41
1
 50
0
  1
360
  0
LINE
  8
_0-5_寸法線
  6
CONTINUOUS
 62
    7
 10
1097.4733517207583
 20
660.79497009614192
 11
1073.80449055248
 21
677.36808510700916
  0
LINE
  8
_0-5_寸法線
  6
CONTINUOUS
 62
    7
 10
1077.9002507739251
 20
674.5002029252538
 11
1075.3120603228999
 21
684.15946118814463
  0
LINE
  8
_0-5_寸法線
  6
CONTINUOUS
 62
    7
 10
1077.9002507739251
 20
674.5002029252538
 11
1080.4884412249503
 21
684.15946118814463
  0
LINE
  8
_0-5_寸法線
  6
CONTINUOUS
 62
    7
 10
1097.4733517207583
 20
685.79497009614113
 11
1073.8044905524803
 21
702.36808510700928
  0
LINE
  8
_0-5_寸法線
  6
CONTINUOUS
 62
    7
 10
1077.9002507739251
 20
699.50020292525392
 11
1080.4884412249503
 21
689.84094466236331
  0
LINE
  8
_0-5_寸法線
  6
CONTINUOUS
 62
    7
 10
1077.9002507739251
 20
699.50020292525392
 11
1075.3120603228999
 21
689.84094466236331
  0
LINE
  8
_0-5_寸法線
  6
CONTINUOUS
 62
    7
 10
1077.9002507739251
 20
674.5002029252538
 11
1077.9002507739251
 21
699.50020292525392
  0
TEXT
  8
_0-5_寸法線
 62
    7
 10
1077.9002507739251
 20
679.5002029252538
 40
15
 41
1
 50
90
  1
25
  0
LINE
  8
_0-5_寸法線
  6
CONTINUOUS
 62
    7
 10
273.65569731883653
 20
746.58920897572625
 11
273.6556973188367
 21
896.58920897572625
  0
LINE
  8
_0-5_寸法線
  6
CONTINUOUS
 62
    7
 10
273.6556973188367
 20
891.58920897572625
 11
283.3149555817273
 21
894.17739942675155
  0
LINE
  8
_0-5_寸法線
  6
CONTINUOUS
 62
    7
 10
273.6556973188367
 20
891.58920897572625
 11
283.3149555817273
 21
889.00101852470118
  0
LINE
  8
_0-5_寸法線
  6
CONTINUOUS
 62
    7
 10
633.65569731883693
 20
746.58920897572625
 11
633.65569731883738
 21
896.58920897572625
  0
LINE
  8
_0-5_寸法線
  6
CONTINUOUS
 62
    7
 10
633.65569731883738
 20
891.58920897572625
 11
623.99643905594667
 21
889.00101852470118
  0
LINE
  8
_0-5_寸法線
  6
CONTINUOUS
 62
    7
 10
633.65569731883738
 20
891.58920897572625
 11
623.99643905594667
 21
894.17739942675155
  0
LINE
  8
_0-5_寸法線
  6
CONTINUOUS
 62
    7
 10
273.6556973188367
 20
891.58920897572625
 11
633.65569731883738
 21
891.58920897572625
  0
TEXT
  8
_0-5_寸法線
 62
    7
 10
442.40569731883681
 20
891.58920897572625
 40
15
 41
1
 50
0
  1
360
  0
LINE
  8
_0-5_寸法線
  6
CONTINUOUS
 62
    7
 10
273.65569731883653
 20
856.58920897572625
 11
263.99643905594576
 21
854.00101852470118
  0
LINE
  8
_0-5_寸法線
  6
CONTINUOUS
 62
    7
 10
273.65569731883653
 20
856.58920897572625
 11
263.99643905594587
 21
859.17739942675155
  0
LINE
  8
_0-5_寸法線
  6
CONTINUOUS
 62
    7
 10
276.65569731883647
 20
746.58920897572625
 11
276.65569731883647
 21
861.58920897572625
  0
LINE
  8
_0-5_寸法線
  6
CONTINUOUS
 62
    7
 10
248.65569731883653
 20
856.58920897572625
 11
276.65569731883647
 21
856.58920897572625
  0
TEXT
  8
_0-5_寸法線
 62
    7
 10
252.54962105956963
 20
856.58920897572625
 40
15
 41
1
 50
0
  1
3
  0
LINE
  8
_0-5_寸法線
  6
CONTINUOUS
 62
    7
 10
276.65569731883647
 20
856.58920897572625
 11
286.31495558172719
 21
859.17739942675155
  0
LINE
  8
_0-5_寸法線
  6
CONTINUOUS
 62
    7
 10
276.65569731883647
 20
856.58920897572625
 11
286.31495558172719
 21
854.00101852470107
  0
LINE
  8
_0-5_寸法線
  6
CONTINUOUS
 62
    7
 10
630.65569731883693
 20
746.58920897572625
 11
630.65569731883704
 21
861.58920897572625
  0
LINE
  8
_0-5_寸法線
  6
CONTINUOUS
 62
    7
 10
630.65569731883704
 20
856.58920897572625
 11
620.99643905594633
 21
854.00101852470118
  0
LINE
  8
_0-5_寸法線
  6
CONTINUOUS
 62
    7
 10
630.65569731883704
 20
856.58920897572625
 11
620.99643905594633
 21
859.17739942675155
  0
LINE
  8
_0-5_寸法線
  6
CONTINUOUS
 62
    7
 10
276.65569731883647
 20
856.58920897572625
 11
630.65569731883704
 21
856.58920897572625
  0
TEXT
  8
_0-5_寸法線
 62
    7
 10
442.40569731883659
 20
856.58920897572625
 40
15
 41
1
 50
0
  1
354
  0
LINE
  8
_0-5_寸法線
  6
CONTINUOUS
 62
    7
 10
633.65569731883716
 20
856.58920897572625
 11
643.31495558172776
 21
859.17739942675155
  0
LINE
  8
_0-5_寸法線
  6
CONTINUOUS
 62
    7
 10
633.65569731883716
 20
856.58920897572625
 11
643.31495558172776
 21
854.00101852470107
  0
LINE
  8
_0-5_寸法線
  6
CONTINUOUS
 62
    7
 10
630.65569731883704
 20
856.58920897572625
 11
658.65569731883716
 21
856.58920897572625
  0
TEXT
  8
_0-5_寸法線
 62
    7
 10
647.82334368730676
 20
856.58920897572625
 40
15
 41
1
 50
0
  1
3
  0
LINE
  8
_0-5_寸法線
  6
CONTINUOUS
 62
    7
 10
278.65569731883653
 20
746.58920897572625
 11
278.65569731883659
 21
826.58920897572625
  0
LINE
  8
_0-5_寸法線
  6
CONTINUOUS
 62
    7
 10
278.65569731883659
 20
821.58920897572625
 11
288.31495558172725
 21
824.17739942675155
  0
LINE
  8
_0-5_寸法線
  6
CONTINUOUS
 62
    7
 10
278.65569731883659
 20
821.58920897572625
 11
288.31495558172725
 21
819.00101852470118
  0
LINE
  8
_0-5_寸法線
  6
CONTINUOUS
 62
    7
 10
628.65569731883647
 20
746.58920897572614
 11
628.65569731883659
 21
826.58920897572625
  0
LINE
  8
_0-5_寸法線
  6
CONTINUOUS
 62
    7
 10
628.65569731883659
 20
821.58920897572625
 11
618.99643905594587
 21
819.00101852470118
  0
LINE
  8
_0-5_寸法線
  6
CONTINUOUS
 62
    7
 10
628.65569731883659
 20
821.58920897572625
 11
618.99643905594587
 21
824.17739942675155
  0
LINE
  8
_0-5_寸法線
  6
CONTINUOUS
 62
    7
 10
278.65569731883659
 20
821.58920897572625
 11
628.65569731883659
 21
821.58920897572625
  0
TEXT
  8
_0-5_寸法線
 62
    7
 10
442.40569731883659
 20
821.58920897572625
 40
15
 41
1
 50
0
  1
350
  0
LINE
  8
_0-5_寸法線
  6
CONTINUOUS
 62
    7
 10
930.6648723536191
 20
690.0592057326304
 11
930.66487235361922
 21
735.05942473363802
  0
LINE
  8
_0-5_寸法線
  6
CONTINUOUS
 62
    7
 10
930.66487235361922
 20
730.05942473363802
 11
940.32413061650982
 21
732.64761518466332
  0
LINE
  8
_0-5_寸法線
  6
CONTINUOUS
 62
    7
 10
930.66487235361922
 20
730.05942473363802
 11
940.32413061650982
 21
727.47123428261284
  0
LINE
  8
_0-5_寸法線
  6
CONTINUOUS
 62
    7
 10
1280.6648721650222
 20
690.05942473363802
 11
1280.6648721650226
 21
735.05942473363802
  0
LINE
  8
_0-5_寸法線
  6
CONTINUOUS
 62
    7
 10
1280.6648721650226
 20
730.05942473363802
 11
1271.0056139021317
 21
727.47123428261284
  0
LINE
  8
_0-5_寸法線
  6
CONTINUOUS
 62
    7
 10
1280.6648721650226
 20
730.05942473363802
 11
1271.0056139021317
 21
732.64761518466332
  0
LINE
  8
_0-5_寸法線
  6
CONTINUOUS
 62
    7
 10
930.66487235361922
 20
730.05942473363802
 11
1280.6648721650226
 21
730.05942473363802
  0
TEXT
  8
_0-5_寸法線
 62
    7
 10
1094.4148722593209
 20
730.05942473363802
 40
15
 41
1
 50
0
  1
350
  0
LINE
  8
_0-5_寸法線
  6
CONTINUOUS
 62
    7
 10
925.66487216364817
 20
765.05942473363802
 11
916.00561390075757
 21
762.47123428261284
  0
LINE
  8
_0-5_寸法線
  6
CONTINUOUS
 62
    7
 10
925.66487216364817
 20
765.05942473363802
 11
916.00561390075757
 21
767.64761518466332
  0
LINE
  8
_0-5_寸法線
  6
CONTINUOUS
 62
    7
 10
928.66487216364806
 20
684.55942473363757
 11
928.66487216364806
 21
770.05942473363802
  0
LINE
  8
_0-5_寸法線
  6
CONTINUOUS
 62
    7
 10
900.66487216364817
 20
765.05942473363802
 11
928.66487216364806
 21
765.05942473363802
  0
TEXT
  8
_0-5_寸法線
 62
    7
 10
907.16487216364817
 20
765.05942473363802
 40
15
 41
1
 50
0
  1
3
  0
LINE
  8
_0-5_寸法線
  6
CONTINUOUS
 62
    7
 10
928.66487216364806
 20
765.05942473363802
 11
938.32413042653866
 21
767.64761518466332
  0
LINE
  8
_0-5_寸法線
  6
CONTINUOUS
 62
    7
 10
928.66487216364806
 20
765.05942473363802
 11
938.32413042653866
 21
762.47123428261284
  0
LINE
  8
_0-5_寸法線
  6
CONTINUOUS
 62
    7
 10
1282.6648721636482
 20
684.55942473363757
 11
1282.6648721636484
 21
770.05942473363802
  0
LINE
  8
_0-5_寸法線
  6
CONTINUOUS
 62
    7
 10
1282.6648721636484
 20
765.05942473363802
 11
1273.0056139007577
 21
762.47123428261284
  0
LINE
  8
_0-5_寸法線
  6
CONTINUOUS
 62
    7
 10
1282.6648721636484
 20
765.05942473363802
 11
1273.0056139007577
 21
767.64761518466332
  0
LINE
  8
_0-5_寸法線
  6
CONTINUOUS
 62
    7
 10
928.66487216364806
 20
765.05942473363802
 11
1282.6648721636484
 21
765.05942473363802
  0
TEXT
  8
_0-5_寸法線
 62
    7
 10
1094.4148721636482
 20
765.05942473363802
 40
15
 41
1
 50
0
  1
354
  0
LINE
  8
_0-5_寸法線
  6
CONTINUOUS
 62
    7
 10
1285.6648721636484
 20
765.05942473363802
 11
1295.3241304265393
 21
767.64761518466332
  0
LINE
  8
_0-5_寸法線
  6
CONTINUOUS
 62
    7
 10
1285.6648721636484
 20
765.05942473363802
 11
1295.3241304265393
 21
762.47123428261273
  0
LINE
  8
_0-5_寸法線
  6
CONTINUOUS
 62
    7
 10
1282.6648721636484
 20
765.05942473363802
 11
1310.6648721636484
 21
765.05942473363802
  0
TEXT
  8
_0-5_寸法線
 62
    7
 10
1298.8535514419582
 20
765.05942473363802
 40
15
 41
1
 50
0
  1
3
  0
ENDSEC
  0
EOF
