  0
SECTION
  2
HEADER
  9
$ACADVER
  1
AC1009
  9
$INSBASE
 10
0
 20
0
 30
0
  9
$EXTMIN
 10
0
 20
0
  9
$EXTMAX
 10
2376
 20
1680
  9
$LIMMIN
 10
0
 20
0
  9
$LIMMAX
 10
2376
 20
1680
  9
$LTSCALE
 40
8
  0
ENDSEC
  0
SECTION
  2
TABLES
  0
TABLE
  2
LTYPE
 70
     9
  0
LTYPE
  2
CONTINUOUS
 70
    64
  3
実線
 72
    65
 73
     0
 40
0.0
  0
LTYPE
  2
DASHED1
 70
    64
  3
--  --  --  --  --  --  --  --  
 72
    65
 73
     2
 40
2.5
 49
1.25
 49
-1.25
  0
LTYPE
  2
DASHED2
 70
    64
  3
----    ----    ----    ----    
 72
    65
 73
     2
 40
5.0
 49
2.5
 49
-2.5
  0
LTYPE
  2
DASHED3
 70
    64
  3
------  ------  ------  ------  
 72
    65
 73
     2
 40
5.0
 49
3.75
 49
-1.25
  0
LTYPE
  2
CENTER1
 70
    64
  3
----- - ----- - ----- - ----- - 
 72
    65
 73
     4
 40
10.0
 49
6.25
 49
-1.25
 49
1.25
 49
-1.25
  0
LTYPE
  2
CENTER2
 70
    64
  3
----------  --  ----------  --  
 72
    65
 73
     4
 40
20.0
 49
12.5
 49
-2.5
 49
2.5
 49
-2.5
  0
LTYPE
  2
PHANTOM1
 70
    64
  3
--- - - --- - - --- - - --- - - 
 72
    65
 73
     6
 40
10.0
 49
3.25
 49
-1.25
 49
1.25
 49
-1.25
 49
1.25
 49
-1.25
  0
LTYPE
  2
PHANTOM2
 70
    64
  3
--------  -  -  --------  -  -  
 72
    65
 73
     6
 40
20.0
 49
10.0
 49
-2.5
 49
1.25
 49
-2.5
 49
1.25
 49
-2.5
  0
LTYPE
  2
DOT
 70
    64
  3
-   -   -   -   -   -   -   -   
 72
    65
 73
     2
 40
2.5
 49
0.625
 49
-1.875
  0
LTYPE
  2
DUMMY
 70
    64
  3
ダミー
 72
    65
 73
     0
 40
0.0
  0
LTYPE
  2
RAND1
 70
    64
  3
ランダム線1
 72
    65
 73
     4
 40
10.0
 49
1.0
 49
-2.0
 49
3.0
 49
-4.0
  0
LTYPE
  2
RAND2
 70
    64
  3
ランダム線2
 72
    65
 73
     4
 40
14.0
 49
2.0
 49
-3.0
 49
4.0
 49
-5.0
  0
LTYPE
  2
RAND3
 70
    64
  3
ランダム線3
 72
    65
 73
     4
 40
18.0
 49
3.0
 49
-4.0
 49
5.0
 49
-6.0
  0
LTYPE
  2
RAND4
 70
    64
  3
ランダム線4
 72
    65
 73
     4
 40
22.0
 49
4.0
 49
-5.0
 49
6.0
 49
-7.0
  0
LTYPE
  2
RAND5
 70
    64
  3
ランダム線5
 72
    65
 73
     4
 40
26.0
 49
5.0
 49
-6.0
 49
7.0
 49
-8.0
  0
LTYPE
  2
LONG1
 70
    64
  3
----------  --  ----------  --  
 72
    65
 73
     4
 40
40.0
 49
32.5
 49
-2.5
 49
2.5
 49
-2.5
  0
LTYPE
  2
LONG2
 70
    64
  3
--------  -  -  --------  -  -  
 72
    65
 73
     6
 40
40.0
 49
30.0
 49
-2.5
 49
1.25
 49
-2.5
 49
1.25
 49
-2.5
  0
LTYPE
  2
LONG3
 70
    64
  3
+++++++++++++++..+++++++++++++++
 72
    65
 73
     2
 40
40.0
 49
37.5
 49
-2.5
  0
LTYPE
  2
LONG4
 70
    64
  3
+++++++++++++++..+++++++++++++++
 72
    65
 73
     2
 40
80.0
 49
75.0
 49
-5.0
  0
LTYPE
  2
LONG5
 70
    64
  3
----------  --  ----------  --  
 72
    65
 73
     4
 40
60.0
 49
37.5
 49
-7.5
 49
7.5
 49
-7.5
  0
LTYPE
  2
dashed
 70
   64
  3
-------   -------------   ------
 72
   65
 73
    2
 40
7.5
 49
6
 49
-1.5
  0
LTYPE
  2
dashed_spaced
 70
   64
  3
----        --------        ----
 72
   65
 73
    2
 40
12
 49
6
 49
-6
  0
LTYPE
  2
long_dashed_dotted
 70
   64
  3
------------- --- --------------
 72
   65
 73
    4
 40
15.25
 49
12
 49
-1.5
 49
0.25
 49
-1.5
  0
LTYPE
  2
long_dashed_double-dotted
 70
   64
  3
----------- --- --- ------------
 72
   65
 73
    6
 40
17
 49
12
 49
-1.5
 49
0.25
 49
-1.5
 49
0.25
 49
-1.5
  0
LTYPE
  2
long_dashed_triplicate-dotted
 70
   64
  3
--------- --- --- --- ----------
 72
   65
 73
    8
 40
18.75
 49
12
 49
-1.5
 49
0.25
 49
-1.5
 49
0.25
 49
-1.5
 49
0.25
 49
-1.5
  0
LTYPE
  2
dotted
 70
   64
  3
   -       -       -       -    
 72
   65
 73
    2
 40
1.75
 49
0.25
 49
-1.5
  0
LTYPE
  2
chain
 70
   64
  3
-------------- -- --------------
 72
   65
 73
    4
 40
18.5
 49
12
 49
-1.5
 49
3.5
 49
-1.5
  0
LTYPE
  2
chain_double_dash
 70
   64
  3
------------ -- -- -------------
 72
   65
 73
    6
 40
23.5
 49
12
 49
-1.5
 49
3.5
 49
-1.5
 49
3.5
 49
-1.5
  0
LTYPE
  2
dashed_dotted
 70
   64
  3
-----------     -     ----------
 72
   65
 73
    4
 40
9.25
 49
6
 49
-1.5
 49
0.25
 49
-1.5
  0
LTYPE
  2
double-dashed_dotted
 70
   64
  3
------   -----------   -   -----
 72
   65
 73
    6
 40
16.75
 49
6
 49
-1.5
 49
6
 49
-1.5
 49
0.25
 49
-1.5
  0
LTYPE
  2
dashed_double-dotted
 70
   64
  3
---------    -    -    ---------
 72
   65
 73
    6
 40
11
 49
6
 49
-1.5
 49
0.25
 49
-1.5
 49
0.25
 49
-1.5
  0
LTYPE
  2
double-dashed_double-dotted
 70
   64
  3
-----   ---------   -   -   ----
 72
   65
 73
    8
 40
18.5
 49
6
 49
-1.5
 49
6
 49
-1.5
 49
0.25
 49
-1.5
 49
0.25
 49
-1.5
  0
LTYPE
  2
dashed_triplicate-dotted
 70
   64
  3
-------    -    -    -    ------
 72
   65
 73
    8
 40
12.75
 49
6
 49
-1.5
 49
0.25
 49
-1.5
 49
0.25
 49
-1.5
 49
0.25
 49
-1.5
  0
LTYPE
  2
double-dashed_triplicate-dotted
 70
   64
  3
-----  ---------  -  -  -  -----
 72
   65
 73
   10
 40
20.25
 49
6
 49
-1.5
 49
6
 49
-1.5
 49
0.25
 49
-1.5
 49
0.25
 49
-1.5
 49
0.25
 49
-1.5
  0
LTYPE
  2
undefined
 70
   64
  3
--------------------------------
 72
   65
 73
    0
 40
0
  0
ENDTAB
  0
TABLE
  2
STYLE
  5
3
100
AcDbSymbolTable
 70
     1
  0
STYLE
  5
10
100
AcDbSymbolTableRecord
100
AcDbTextStyleTableRecord
  2
STANDARD
 70
     0
 40
0.0
 41
1.0
 50
0.0
 71
     0
 42
0.2
  3
txt
  4
bigfont.shx
  0
STYLE
  5
26
100
AcDbSymbolTableRecord
100
AcDbTextStyleTableRecord
  2
TATEGAKI
 70
    68
 40
0.0
 41
1.0
 50
0.0
 71
     0
 42
1.0
  3
txt
  4
bigfont.shx
  0
ENDTAB
  0
TABLE
  2
LAYER
 70
   14
  0
LAYER
  2
_0-0_計極細
 70
   64
 62
    7
  6
CONTINUOUS
  0
LAYER
  2
_0-1_計細線
 70
   64
 62
    7
  6
CONTINUOUS
  0
LAYER
  2
_0-5_寸法線
 70
   64
 62
    7
  6
CONTINUOUS
  0
LAYER
  2
_0-7_枠細線
 70
   64
 62
    7
  6
CONTINUOUS
  0
LAYER
  2
_0-8_枠中線
 70
   64
 62
    7
  6
CONTINUOUS
  0
LAYER
  2
_0-a_極細1
 70
   64
 62
    7
  6
CONTINUOUS
  0
LAYER
  2
_0-b_細線1
 70
   64
 62
    7
  6
CONTINUOUS
  0
LAYER
  2
_0-d_寸法1
 70
   64
 62
    7
  6
CONTINUOUS
  0
LAYER
  2
_0-e_極細4
 70
   64
 62
    7
  6
CONTINUOUS
  0
LAYER
  2
_1-1_寸法4
 70
   64
 62
    7
  6
CONTINUOUS
  0
LAYER
  2
_1-2_極細3
 70
   64
 62
    7
  6
CONTINUOUS
  0
LAYER
  2
_1-3_細線3
 70
   64
 62
    7
  6
CONTINUOUS
  0
LAYER
  2
_1-5_寸法3
 70
   64
 62
    7
  6
CONTINUOUS
  0
LAYER
  2
ADD_LINE
 70
   64
 62
    7
  6
CONTINUOUS
  0
ENDTAB
  0
ENDSEC
  0
SECTION
  2
BLOCKS
  0
ENDSEC
  0
SECTION
  2
ENTITIES
  0
LINE
  8
_0-8_枠中線
  6
CONTINUOUS
 62
    5
 10
96
 20
96
 11
96
 21
1536
  0
LINE
  8
_0-8_枠中線
  6
CONTINUOUS
 62
    5
 10
96
 20
1536
 11
2280
 21
1536
  0
LINE
  8
_0-8_枠中線
  6
CONTINUOUS
 62
    5
 10
2280
 20
1536
 11
2280
 21
96
  0
LINE
  8
_0-8_枠中線
  6
CONTINUOUS
 62
    5
 10
2280
 20
96
 11
96
 21
96
  0
LINE
  8
_0-7_枠細線
  6
CONTINUOUS
 62
    5
 10
1896
 20
288
 11
1896
 21
160
  0
TEXT
  8
_0-7_枠細線
 62
    5
 10
1500
 20
156
 40
28
 41
1
 50
0
  1
備考
  7
TATEGAKI
  0
TEXT
  8
_0-7_枠細線
 62
    5
 10
1500
 20
220
 40
28
 41
1
 50
0
  1
品番
  7
TATEGAKI
  0
TEXT
  8
_0-7_枠細線
 62
    5
 10
1500
 20
284
 40
28
 41
1
 50
0
  1
品名
  7
TATEGAKI
  0
LINE
  8
_0-7_枠細線
  6
CONTINUOUS
 62
    5
 10
1896
 20
224
 11
1480
 21
224
  0
LINE
  8
_0-7_枠細線
  6
CONTINUOUS
 62
    5
 10
1520
 20
288
 11
1520
 21
96
  0
LINE
  8
_0-8_枠中線
  6
CONTINUOUS
 62
    5
 10
2280
 20
288
 11
1480
 21
288
  0
LINE
  8
_0-8_枠中線
  6
CONTINUOUS
 62
    5
 10
1480
 20
288
 11
1480
 21
96
  0
LINE
  8
_0-7_枠細線
  6
CONTINUOUS
 62
    5
 10
1992
 20
288
 11
1992
 21
96
  0
TEXT
  8
_0-7_枠細線
 62
    5
 10
1908
 20
256
 40
24
 41
1
 50
0
  1
縮　尺
  0
LINE
  8
_0-7_枠細線
  6
CONTINUOUS
 62
    5
 10
1896
 20
248
 11
1992
 21
248
  0
LINE
  8
_0-7_枠細線
  6
CONTINUOUS
 62
    5
 10
1992
 20
160
 11
1480
 21
160
  0
LINE
  8
_0-7_枠細線
  6
CONTINUOUS
 62
    5
 10
2280
 20
144
 11
1992
 21
144
  0
LINE
  8
_0-7_枠細線
  6
CONTINUOUS
 62
    5
 10
1992
 20
192
 11
2280
 21
192
  0
LINE
  8
_0-7_枠細線
  6
CONTINUOUS
 62
    5
 10
2280
 20
224
 11
1992
 21
224
  0
TEXT
  8
_0-7_枠細線
 62
    5
 10
2008
 20
236
 40
40
 41
0.8
 50
0
  1
株式会社シマブン
  0
TEXT
  8
_0-7_枠細線
 62
    5
 10
2004
 20
96
 40
24
 41
1
 50
0
  1
年月日
  0
TEXT
  8
_0-7_枠細線
 62
    5
 10
2004
 20
120
 40
24
 41
1
 50
0
  1
作　成
  0
TEXT
  8
_0-7_枠細線
 62
    5
 10
2010
 20
196
 40
24
 41
1
 50
0
  1
承 認
  0
LINE
  8
_0-7_枠細線
  6
CONTINUOUS
 62
    5
 10
2088
 20
224
 11
2088
 21
96
  0
TEXT
  8
_0-7_枠細線
 62
    5
 10
2106
 20
196
 40
24
 41
1
 50
0
  1
検 図
  0
LINE
  8
_0-7_枠細線
  6
CONTINUOUS
 62
    5
 10
2184
 20
224
 11
2184
 21
144
  0
TEXT
  8
_0-7_枠細線
 62
    5
 10
2202
 20
196
 40
24
 41
1
 50
0
  1
設 計
  0
TEXT
  8
_0-7_枠細線
 62
    5
 10
1910.4000000000001
 20
188
 40
32
 41
0.6999999999999998
 50
0
  1
１：８
  0
LINE
  8
_0-7_枠細線
  6
CONTINUOUS
 62
    5
 10
2280
 20
1508
 11
1424
 21
1508
  0
TEXT
  8
_0-7_枠細線
 62
    5
 10
1432
 20
1511.9999999999993
 40
20
 41
1
 50
0
  1
記号
  0
TEXT
  8
_0-7_枠細線
 62
    5
 10
1595
 20
1512
 40
20
 41
1
 50
0
  1
訂　 正　 記　 事
  0
TEXT
  8
_0-7_枠細線
 62
    5
 10
1890
 20
1512
 40
20
 41
1
 50
0
  1
訂 正 年 月 日
  0
TEXT
  8
_0-7_枠細線
 62
    5
 10
2090
 20
1512
 40
20
 41
1
 50
0
  1
備　　　　　考
  0
LINE
  8
_0-7_枠細線
  6
CONTINUOUS
 62
    5
 10
1424
 20
1508
 11
1424
 21
1535.9999999999991
  0
LINE
  8
_0-7_枠細線
  6
CONTINUOUS
 62
    5
 10
1480
 20
1508
 11
1480
 21
1535.9999999999991
  0
LINE
  8
_0-7_枠細線
  6
CONTINUOUS
 62
    5
 10
1880
 20
1508
 11
1880
 21
1536
  0
LINE
  8
_0-7_枠細線
  6
CONTINUOUS
 62
    5
 10
2040
 20
1508
 11
2040
 21
1535.9999999999991
  0
TEXT
  8
_0-7_枠細線
 62
    5
 10
2008
 20
152
 40
32
 41
1
 50
0
  1
大野
  0
TEXT
  8
_0-7_枠細線
 62
    5
 10
2104
 20
152
 40
32
 41
1
 50
0
  1
深川
  0
TEXT
  8
_0-7_枠細線
 62
    5
 10
2200
 20
152
 40
32
 41
1
 50
0
  1
久野
  0
TEXT
  8
_0-7_枠細線
 62
    5
 10
1079.06662595134
 20
114.84526555100319
 40
40
 41
0.8
 50
0
  1
断面詳細図
  0
TEXT
  8
_0-7_枠細線
 62
    5
 10
1262.9849775500097
 20
114.84526555100319
 40
32
 41
0.6
 50
0
  1
Ｓ＝１：３
  0
LINE
  8
_1-2_極細3
  6
CONTINUOUS
 62
    2
 10
990.68444079055325
 20
188.84247738216743
 11
990.68444079055325
 21
244.30914404883379
  0
LINE
  8
_1-2_極細3
  6
CONTINUOUS
 62
    2
 10
992.55110745721868
 20
190.70914404883456
 11
992.55110745721868
 21
246.17581071550092
  0
LINE
  8
_1-2_極細3
  6
CONTINUOUS
 62
    2
 10
967.21777412388565
 20
224.84247738216766
 11
967.21777412388565
 21
246.17581071550092
  0
LINE
  8
_1-2_極細3
  6
CONTINUOUS
 62
    2
 10
969.08444079055243
 20
224.84247738216732
 11
969.08444079055107
 21
244.30914404883424
  0
LINE
  8
_1-2_極細3
  6
CONTINUOUS
 62
    2
 10
967.21777412388565
 20
224.84247738216766
 11
969.08444079055243
 21
224.84247738216766
  0
LINE
  8
_1-2_極細3
  6
CONTINUOUS
 62
    2
 10
969.08444079055243
 20
244.30914404883379
 11
990.68444079055325
 21
244.30914404883379
  0
LINE
  8
_1-2_極細3
  6
CONTINUOUS
 62
    2
 10
967.21777412388565
 20
246.17581071550092
 11
992.55110745721868
 21
246.17581071550092
  0
LINE
  8
_1-2_極細3
  6
CONTINUOUS
 62
    2
 10
1325.8844407905526
 20
190.70914404883456
 11
1325.8844407905526
 21
246.17581071550092
  0
LINE
  8
_1-2_極細3
  6
CONTINUOUS
 62
    2
 10
1327.7511074572176
 20
188.84247738216743
 11
1327.7511074572176
 21
244.30914404883379
  0
LINE
  8
_1-2_極細3
  6
CONTINUOUS
 62
    2
 10
992.55110745721868
 20
190.70914404883456
 11
1325.8844407905526
 21
190.70914404883456
  0
LINE
  8
_1-2_極細3
  6
CONTINUOUS
 62
    2
 10
1327.7511074572176
 20
188.84247738216743
 11
990.68444079055325
 21
188.84247738216743
  0
LINE
  8
_1-2_極細3
  6
CONTINUOUS
 62
    2
 10
1349.3511074572184
 20
224.84247738216732
 11
1349.3511074572184
 21
244.30914404883379
  0
LINE
  8
_1-2_極細3
  6
CONTINUOUS
 62
    2
 10
1351.2177741238852
 20
224.84247738216732
 11
1351.2177741238856
 21
246.17581071550092
  0
LINE
  8
_1-2_極細3
  6
CONTINUOUS
 62
    2
 10
1349.3511074572184
 20
224.84247738216732
 11
1351.2177741238852
 21
224.84247738216732
  0
LINE
  8
_1-2_極細3
  6
CONTINUOUS
 62
    2
 10
1325.8844407905526
 20
246.17581071550092
 11
1351.2177741238856
 21
246.17581071550092
  0
LINE
  8
_1-2_極細3
  6
CONTINUOUS
 62
    2
 10
1327.7511074572176
 20
244.30914404883379
 11
1349.3511074572184
 21
244.30914404883379
  0
ARC
  8
_1-3_細線3
  6
CONTINUOUS
 62
    4
 10
1017.0844407905533
 20
264.3304831286448
 40
52.555815658248846
 50
259.17925751977776
 51
280.82074248022252
  0
ARC
  8
_1-3_細線3
  6
CONTINUOUS
 62
    4
 10
1017.0844407905533
 20
181.0878049690225
 40
52.55581565825014
 50
79.179257519777337
 51
100.82074248022219
  0
ARC
  8
_1-3_細線3
  6
CONTINUOUS
 62
    4
 10
1047.2177741238879
 20
77.329185184253902
 40
156.3144354430184
 50
83.731857045477739
 51
96.268142954523427
  0
ARC
  8
_1-3_細線3
  6
CONTINUOUS
 62
    4
 10
1047.2177741238879
 20
368.0891029134134
 40
156.3144354430184
 50
263.73185704547626
 51
276.26814295452186
  0
ARC
  8
_1-3_細線3
  6
CONTINUOUS
 62
    4
 10
1084.55110745722
 20
77.329185184253902
 40
156.3144354430184
 50
83.731857045477398
 51
96.268142954522602
  0
ARC
  8
_1-3_細線3
  6
CONTINUOUS
 62
    4
 10
1084.55110745722
 20
368.0891029134134
 40
156.3144354430184
 50
263.73185704547706
 51
276.2681429545222
  0
ARC
  8
_1-3_細線3
  6
CONTINUOUS
 62
    4
 10
1121.8844407905526
 20
77.329185184253902
 40
156.3144354430184
 50
83.731857045476744
 51
96.268142954522276
  0
ARC
  8
_1-3_細線3
  6
CONTINUOUS
 62
    4
 10
1121.8844407905526
 20
368.0891029134134
 40
156.3144354430184
 50
263.73185704547745
 51
276.26814295452289
  0
ARC
  8
_1-3_細線3
  6
CONTINUOUS
 62
    4
 10
1159.2177741238879
 20
77.329185184253902
 40
156.3144354430184
 50
83.731857045477739
 51
96.268142954523427
  0
ARC
  8
_1-3_細線3
  6
CONTINUOUS
 62
    4
 10
1159.2177741238879
 20
368.0891029134134
 40
156.3144354430184
 50
263.73185704547626
 51
276.26814295452186
  0
ARC
  8
_1-3_細線3
  6
CONTINUOUS
 62
    4
 10
1196.5511074572214
 20
77.329185184253902
 40
156.3144354430184
 50
83.731857045477909
 51
96.2681429545231
  0
ARC
  8
_1-3_細線3
  6
CONTINUOUS
 62
    4
 10
1196.5511074572214
 20
368.0891029134134
 40
156.3144354430184
 50
263.73185704547654
 51
276.26814295452169
  0
ARC
  8
_1-3_細線3
  6
CONTINUOUS
 62
    4
 10
1233.8844407905526
 20
77.329185184253902
 40
156.3144354430184
 50
83.731857045476744
 51
96.268142954522105
  0
ARC
  8
_1-3_細線3
  6
CONTINUOUS
 62
    4
 10
1233.8844407905526
 20
368.0891029134134
 40
156.3144354430184
 50
263.73185704547757
 51
276.26814295452289
  0
ARC
  8
_1-3_細線3
  6
CONTINUOUS
 62
    4
 10
1271.2177741238879
 20
77.329185184253902
 40
156.3144354430184
 50
83.731857045477909
 51
96.268142954523427
  0
ARC
  8
_1-3_細線3
  6
CONTINUOUS
 62
    4
 10
1271.2177741238879
 20
368.0891029134134
 40
156.3144354430184
 50
263.73185704547626
 51
276.26814295452169
  0
ARC
  8
_1-3_細線3
  6
CONTINUOUS
 62
    4
 10
1301.3511074572179
 20
264.3304831286448
 40
52.555815658248846
 50
259.17925751977731
 51
280.82074248022201
  0
ARC
  8
_1-3_細線3
  6
CONTINUOUS
 62
    4
 10
1301.3511074572179
 20
181.0878049690225
 40
52.55581565825014
 50
79.179257519777821
 51
100.82074248022219
  0
LINE
  8
_1-3_細線3
  6
CONTINUOUS
 62
    4
 10
1321.8844407905526
 20
244.04247738216668
 11
1321.8844407905526
 21
190.70914404883456
  0
LINE
  8
_1-3_細線3
  6
CONTINUOUS
 62
    4
 10
1321.8844407905526
 20
190.70914404883456
 11
1311.2177741238856
 21
190.70914404883456
  0
LINE
  8
_1-3_細線3
  6
CONTINUOUS
 62
    4
 10
1311.2177741238856
 20
190.70914404883456
 11
1311.2177741238856
 21
244.04247738216668
  0
LINE
  8
_1-3_細線3
  6
CONTINUOUS
 62
    4
 10
1311.2177741238856
 20
244.04247738216668
 11
1321.8844407905526
 21
244.04247738216668
  0
LINE
  8
_1-3_細線3
  6
CONTINUOUS
 62
    4
 10
996.55110745721868
 20
244.04247738216668
 11
996.55110745721868
 21
190.70914404883456
  0
LINE
  8
_1-3_細線3
  6
CONTINUOUS
 62
    4
 10
996.55110745721868
 20
190.70914404883456
 11
1007.2177741238856
 21
190.70914404883456
  0
LINE
  8
_1-3_細線3
  6
CONTINUOUS
 62
    4
 10
1007.2177741238856
 20
190.70914404883456
 11
1007.2177741238856
 21
244.04247738216668
  0
LINE
  8
_1-3_細線3
  6
CONTINUOUS
 62
    4
 10
1007.2177741238856
 20
244.04247738216668
 11
996.55110745721868
 21
244.04247738216668
  0
LINE
  8
_1-3_細線3
  6
CONTINUOUS
 62
    4
 10
1300.5511074572187
 20
244.04247738216668
 11
1279.2177741238856
 21
244.04247738216668
  0
LINE
  8
_1-3_細線3
  6
CONTINUOUS
 62
    4
 10
1279.2177741238856
 20
244.04247738216668
 11
1279.2177741238856
 21
240.84247738216686
  0
LINE
  8
_1-3_細線3
  6
CONTINUOUS
 62
    4
 10
1279.2177741238856
 20
240.84247738216686
 11
1288.2844407905536
 21
240.84247738216686
  0
LINE
  8
_1-3_細線3
  6
CONTINUOUS
 62
    4
 10
1288.2844407905536
 20
240.84247738216686
 11
1288.2844407905536
 21
204.04247738216668
  0
LINE
  8
_1-3_細線3
  6
CONTINUOUS
 62
    4
 10
1288.2844407905536
 20
204.04247738216668
 11
1291.484440790553
 21
204.04247738216668
  0
LINE
  8
_1-3_細線3
  6
CONTINUOUS
 62
    4
 10
1291.484440790553
 20
204.04247738216668
 11
1291.484440790553
 21
240.84247738216686
  0
LINE
  8
_1-3_細線3
  6
CONTINUOUS
 62
    4
 10
1291.484440790553
 20
240.84247738216686
 11
1300.5511074572187
 21
240.84247738216686
  0
LINE
  8
_1-3_細線3
  6
CONTINUOUS
 62
    4
 10
1300.5511074572187
 20
240.84247738216686
 11
1300.5511074572187
 21
244.04247738216668
  0
LINE
  8
_1-3_細線3
  6
CONTINUOUS
 62
    4
 10
1263.2177741238879
 20
244.04247738216668
 11
1241.8844407905526
 21
244.04247738216668
  0
LINE
  8
_1-3_細線3
  6
CONTINUOUS
 62
    4
 10
1241.8844407905526
 20
244.04247738216668
 11
1241.8844407905526
 21
240.84247738216686
  0
LINE
  8
_1-3_細線3
  6
CONTINUOUS
 62
    4
 10
1241.8844407905526
 20
240.84247738216686
 11
1250.9511074572201
 21
240.84247738216686
  0
LINE
  8
_1-3_細線3
  6
CONTINUOUS
 62
    4
 10
1250.9511074572201
 20
240.84247738216686
 11
1250.9511074572201
 21
204.04247738216668
  0
LINE
  8
_1-3_細線3
  6
CONTINUOUS
 62
    4
 10
1250.9511074572201
 20
204.04247738216668
 11
1254.1511074572186
 21
204.04247738216668
  0
LINE
  8
_1-3_細線3
  6
CONTINUOUS
 62
    4
 10
1254.1511074572186
 20
204.04247738216668
 11
1254.1511074572186
 21
240.84247738216686
  0
LINE
  8
_1-3_細線3
  6
CONTINUOUS
 62
    4
 10
1254.1511074572186
 20
240.84247738216686
 11
1263.2177741238879
 21
240.84247738216686
  0
LINE
  8
_1-3_細線3
  6
CONTINUOUS
 62
    4
 10
1263.2177741238879
 20
240.84247738216686
 11
1263.2177741238879
 21
244.04247738216668
  0
LINE
  8
_1-3_細線3
  6
CONTINUOUS
 62
    4
 10
1225.8844407905544
 20
244.04247738216668
 11
1204.5511074572214
 21
244.04247738216668
  0
LINE
  8
_1-3_細線3
  6
CONTINUOUS
 62
    4
 10
1204.5511074572214
 20
244.04247738216668
 11
1204.5511074572214
 21
240.84247738216686
  0
LINE
  8
_1-3_細線3
  6
CONTINUOUS
 62
    4
 10
1204.5511074572214
 20
240.84247738216686
 11
1213.6177741238871
 21
240.84247738216686
  0
LINE
  8
_1-3_細線3
  6
CONTINUOUS
 62
    4
 10
1213.6177741238871
 20
240.84247738216686
 11
1213.6177741238871
 21
204.04247738216668
  0
LINE
  8
_1-3_細線3
  6
CONTINUOUS
 62
    4
 10
1213.6177741238871
 20
204.04247738216668
 11
1216.8177741238869
 21
204.04247738216668
  0
LINE
  8
_1-3_細線3
  6
CONTINUOUS
 62
    4
 10
1216.8177741238869
 20
204.04247738216668
 11
1216.8177741238869
 21
240.84247738216686
  0
LINE
  8
_1-3_細線3
  6
CONTINUOUS
 62
    4
 10
1216.8177741238869
 20
240.84247738216686
 11
1225.8844407905544
 21
240.84247738216686
  0
LINE
  8
_1-3_細線3
  6
CONTINUOUS
 62
    4
 10
1225.8844407905544
 20
240.84247738216686
 11
1225.8844407905544
 21
244.04247738216668
  0
LINE
  8
_1-3_細線3
  6
CONTINUOUS
 62
    4
 10
1188.5511074572214
 20
244.04247738216668
 11
1167.2177741238879
 21
244.04247738216668
  0
LINE
  8
_1-3_細線3
  6
CONTINUOUS
 62
    4
 10
1167.2177741238879
 20
244.04247738216668
 11
1167.2177741238879
 21
240.84247738216686
  0
LINE
  8
_1-3_細線3
  6
CONTINUOUS
 62
    4
 10
1167.2177741238879
 20
240.84247738216686
 11
1176.2844407905541
 21
240.84247738216686
  0
LINE
  8
_1-3_細線3
  6
CONTINUOUS
 62
    4
 10
1176.2844407905541
 20
240.84247738216686
 11
1176.2844407905541
 21
204.04247738216668
  0
LINE
  8
_1-3_細線3
  6
CONTINUOUS
 62
    4
 10
1176.2844407905541
 20
204.04247738216668
 11
1179.4844407905543
 21
204.04247738216668
  0
LINE
  8
_1-3_細線3
  6
CONTINUOUS
 62
    4
 10
1179.4844407905543
 20
204.04247738216668
 11
1179.4844407905543
 21
240.84247738216686
  0
LINE
  8
_1-3_細線3
  6
CONTINUOUS
 62
    4
 10
1179.4844407905543
 20
240.84247738216686
 11
1188.5511074572214
 21
240.84247738216686
  0
LINE
  8
_1-3_細線3
  6
CONTINUOUS
 62
    4
 10
1188.5511074572214
 20
240.84247738216686
 11
1188.5511074572214
 21
244.04247738216668
  0
LINE
  8
_1-3_細線3
  6
CONTINUOUS
 62
    4
 10
1151.2177741238879
 20
244.04247738216668
 11
1129.8844407905526
 21
244.04247738216668
  0
LINE
  8
_1-3_細線3
  6
CONTINUOUS
 62
    4
 10
1129.8844407905526
 20
244.04247738216668
 11
1129.8844407905526
 21
240.84247738216686
  0
LINE
  8
_1-3_細線3
  6
CONTINUOUS
 62
    4
 10
1129.8844407905526
 20
240.84247738216686
 11
1138.9511074572215
 21
240.84247738216686
  0
LINE
  8
_1-3_細線3
  6
CONTINUOUS
 62
    4
 10
1138.9511074572215
 20
240.84247738216686
 11
1138.9511074572215
 21
204.04247738216668
  0
LINE
  8
_1-3_細線3
  6
CONTINUOUS
 62
    4
 10
1138.9511074572215
 20
204.04247738216668
 11
1142.1511074572222
 21
204.04247738216668
  0
LINE
  8
_1-3_細線3
  6
CONTINUOUS
 62
    4
 10
1142.1511074572222
 20
204.04247738216668
 11
1142.1511074572222
 21
240.84247738216686
  0
LINE
  8
_1-3_細線3
  6
CONTINUOUS
 62
    4
 10
1142.1511074572222
 20
240.84247738216686
 11
1151.2177741238879
 21
240.84247738216686
  0
LINE
  8
_1-3_細線3
  6
CONTINUOUS
 62
    4
 10
1151.2177741238879
 20
240.84247738216686
 11
1151.2177741238879
 21
244.04247738216668
  0
LINE
  8
_1-3_細線3
  6
CONTINUOUS
 62
    4
 10
1113.8844407905526
 20
244.04247738216668
 11
1092.55110745722
 21
244.04247738216668
  0
LINE
  8
_1-3_細線3
  6
CONTINUOUS
 62
    4
 10
1092.55110745722
 20
244.04247738216668
 11
1092.55110745722
 21
240.84247738216686
  0
LINE
  8
_1-3_細線3
  6
CONTINUOUS
 62
    4
 10
1092.55110745722
 20
240.84247738216686
 11
1101.6177741238871
 21
240.84247738216686
  0
LINE
  8
_1-3_細線3
  6
CONTINUOUS
 62
    4
 10
1101.6177741238871
 20
240.84247738216686
 11
1101.6177741238871
 21
204.04247738216668
  0
LINE
  8
_1-3_細線3
  6
CONTINUOUS
 62
    4
 10
1101.6177741238871
 20
204.04247738216668
 11
1104.8177741238869
 21
204.04247738216668
  0
LINE
  8
_1-3_細線3
  6
CONTINUOUS
 62
    4
 10
1104.8177741238869
 20
204.04247738216668
 11
1104.8177741238869
 21
240.84247738216686
  0
LINE
  8
_1-3_細線3
  6
CONTINUOUS
 62
    4
 10
1104.8177741238869
 20
240.84247738216686
 11
1113.8844407905526
 21
240.84247738216686
  0
LINE
  8
_1-3_細線3
  6
CONTINUOUS
 62
    4
 10
1113.8844407905526
 20
240.84247738216686
 11
1113.8844407905526
 21
244.04247738216668
  0
LINE
  8
_1-3_細線3
  6
CONTINUOUS
 62
    4
 10
1076.55110745722
 20
244.04247738216668
 11
1055.2177741238879
 21
244.04247738216668
  0
LINE
  8
_1-3_細線3
  6
CONTINUOUS
 62
    4
 10
1055.2177741238879
 20
244.04247738216668
 11
1055.2177741238879
 21
240.84247738216686
  0
LINE
  8
_1-3_細線3
  6
CONTINUOUS
 62
    4
 10
1055.2177741238879
 20
240.84247738216686
 11
1064.2844407905536
 21
240.84247738216686
  0
LINE
  8
_1-3_細線3
  6
CONTINUOUS
 62
    4
 10
1064.2844407905536
 20
240.84247738216686
 11
1064.2844407905536
 21
204.04247738216668
  0
LINE
  8
_1-3_細線3
  6
CONTINUOUS
 62
    4
 10
1064.2844407905536
 20
204.04247738216668
 11
1067.484440790553
 21
204.04247738216668
  0
LINE
  8
_1-3_細線3
  6
CONTINUOUS
 62
    4
 10
1067.484440790553
 20
204.04247738216668
 11
1067.484440790553
 21
240.84247738216686
  0
LINE
  8
_1-3_細線3
  6
CONTINUOUS
 62
    4
 10
1067.484440790553
 20
240.84247738216686
 11
1076.55110745722
 21
240.84247738216686
  0
LINE
  8
_1-3_細線3
  6
CONTINUOUS
 62
    4
 10
1076.55110745722
 20
240.84247738216686
 11
1076.55110745722
 21
244.04247738216668
  0
LINE
  8
_1-3_細線3
  6
CONTINUOUS
 62
    4
 10
1039.2177741238879
 20
244.04247738216668
 11
1017.8844407905526
 21
244.04247738216668
  0
LINE
  8
_1-3_細線3
  6
CONTINUOUS
 62
    4
 10
1017.8844407905526
 20
244.04247738216668
 11
1017.8844407905526
 21
240.84247738216686
  0
LINE
  8
_1-3_細線3
  6
CONTINUOUS
 62
    4
 10
1017.8844407905526
 20
240.84247738216686
 11
1026.9511074572215
 21
240.84247738216686
  0
LINE
  8
_1-3_細線3
  6
CONTINUOUS
 62
    4
 10
1026.9511074572215
 20
240.84247738216686
 11
1026.9511074572215
 21
204.04247738216668
  0
LINE
  8
_1-3_細線3
  6
CONTINUOUS
 62
    4
 10
1026.9511074572215
 20
204.04247738216668
 11
1030.1511074572222
 21
204.04247738216668
  0
LINE
  8
_1-3_細線3
  6
CONTINUOUS
 62
    4
 10
1030.1511074572222
 20
204.04247738216668
 11
1030.1511074572222
 21
240.84247738216686
  0
LINE
  8
_1-3_細線3
  6
CONTINUOUS
 62
    4
 10
1030.1511074572222
 20
240.84247738216686
 11
1039.2177741238879
 21
240.84247738216686
  0
LINE
  8
_1-3_細線3
  6
CONTINUOUS
 62
    4
 10
1039.2177741238879
 20
240.84247738216686
 11
1039.2177741238879
 21
244.04247738216668
  0
LINE
  8
_1-2_極細3
  6
CENTER1
 62
    2
 10
1159.2177741238856
 20
178.14515020544764
 11
1159.2177741238856
 21
266.33181687212414
  0
LINE
  8
_1-2_極細3
  6
CENTER1
 62
    2
 10
1330.2405731978047
 20
222.70914404883456
 11
986.95735598717511
 21
222.70914404883456
  0
LINE
  8
_1-5_寸法3
  6
CONTINUOUS
 62
    7
 10
967.21777412388565
 20
262.17581071550092
 11
967.21777412388565
 21
446.17581071550092
  0
LINE
  8
_1-5_寸法3
  6
CONTINUOUS
 62
    7
 10
967.21777412388565
 20
438.17581071550092
 11
982.6725873445107
 21
442.31691543714123
  0
LINE
  8
_1-5_寸法3
  6
CONTINUOUS
 62
    7
 10
967.21777412388565
 20
438.17581071550092
 11
982.6725873445107
 21
434.0347059938606
  0
LINE
  8
_1-5_寸法3
  6
CONTINUOUS
 62
    7
 10
1351.2177741238856
 20
262.17581071550092
 11
1351.2177741238863
 21
446.17581071550092
  0
LINE
  8
_1-5_寸法3
  6
CONTINUOUS
 62
    7
 10
1351.2177741238863
 20
438.17581071550092
 11
1335.7629609032613
 21
434.03470599386065
  0
LINE
  8
_1-5_寸法3
  6
CONTINUOUS
 62
    7
 10
1351.2177741238863
 20
438.17581071550092
 11
1335.7629609032613
 21
442.31691543714129
  0
LINE
  8
_1-5_寸法3
  6
CONTINUOUS
 62
    7
 10
967.21777412388565
 20
438.17581071550092
 11
1351.2177741238863
 21
438.17581071550092
  0
TEXT
  8
_1-5_寸法3
 62
    7
 10
1141.2177741238861
 20
438.17581071550092
 40
24
 41
1
 50
0
  1
144
  0
LINE
  8
_1-5_寸法3
  6
CONTINUOUS
 62
    7
 10
996.55110745721879
 20
262.17581071550092
 11
996.55110745721936
 21
390.17581071550092
  0
LINE
  8
_1-5_寸法3
  6
CONTINUOUS
 62
    7
 10
996.55110745721936
 20
382.17581071550092
 11
1012.0059206778444
 21
386.31691543714123
  0
LINE
  8
_1-5_寸法3
  6
CONTINUOUS
 62
    7
 10
996.55110745721936
 20
382.17581071550092
 11
1012.0059206778444
 21
378.0347059938606
  0
LINE
  8
_1-5_寸法3
  6
CONTINUOUS
 62
    7
 10
1321.8844407905526
 20
262.17581071550092
 11
1321.8844407905526
 21
390.17581071550092
  0
LINE
  8
_1-5_寸法3
  6
CONTINUOUS
 62
    7
 10
1321.8844407905526
 20
382.17581071550092
 11
1306.4296275699276
 21
378.03470599386065
  0
LINE
  8
_1-5_寸法3
  6
CONTINUOUS
 62
    7
 10
1321.8844407905526
 20
382.17581071550092
 11
1306.4296275699276
 21
386.31691543714129
  0
LINE
  8
_1-5_寸法3
  6
CONTINUOUS
 62
    7
 10
996.55110745721936
 20
382.17581071550092
 11
1321.8844407905526
 21
382.17581071550092
  0
TEXT
  8
_1-5_寸法3
 62
    7
 10
1141.2177741238859
 20
382.17581071550092
 40
24
 41
1
 50
0
  1
122
  0
LINE
  8
_1-5_寸法3
  6
CONTINUOUS
 62
    7
 10
1325.8844407905526
 20
262.17581071550092
 11
1325.8844407905528
 21
390.17581071550092
  0
LINE
  8
_1-5_寸法3
  6
CONTINUOUS
 62
    7
 10
1325.8844407905528
 20
382.17581071550092
 11
1341.3392540111779
 21
386.31691543714123
  0
LINE
  8
_1-5_寸法3
  6
CONTINUOUS
 62
    7
 10
1325.8844407905528
 20
382.17581071550092
 11
1341.3392540111779
 21
378.0347059938606
  0
LINE
  8
_1-5_寸法3
  6
CONTINUOUS
 62
    7
 10
1351.2177741238856
 20
262.17581071550092
 11
1351.2177741238859
 21
390.17581071550092
  0
LINE
  8
_1-5_寸法3
  6
CONTINUOUS
 62
    7
 10
1351.2177741238859
 20
382.17581071550092
 11
1335.7629609032608
 21
378.03470599386065
  0
LINE
  8
_1-5_寸法3
  6
CONTINUOUS
 62
    7
 10
1351.2177741238859
 20
382.17581071550092
 11
1335.7629609032608
 21
386.31691543714129
  0
LINE
  8
_1-5_寸法3
  6
CONTINUOUS
 62
    7
 10
1325.8844407905528
 20
382.17581071550092
 11
1351.2177741238859
 21
382.17581071550092
  0
TEXT
  8
_1-5_寸法3
 62
    7
 10
1314.9098928411368
 20
382.17581071550092
 40
24
 41
1
 50
0
  1
9.5
  0
LINE
  8
_1-5_寸法3
  6
CONTINUOUS
 62
    7
 10
967.21777412388565
 20
262.17581071550092
 11
967.21777412388587
 21
390.17581071550092
  0
LINE
  8
_1-5_寸法3
  6
CONTINUOUS
 62
    7
 10
967.21777412388587
 20
382.17581071550092
 11
982.67258734451093
 21
386.31691543714123
  0
LINE
  8
_1-5_寸法3
  6
CONTINUOUS
 62
    7
 10
967.21777412388587
 20
382.17581071550092
 11
982.67258734451093
 21
378.0347059938606
  0
LINE
  8
_1-5_寸法3
  6
CONTINUOUS
 62
    7
 10
992.55110745721868
 20
262.17581071550092
 11
992.5511074572189
 21
390.17581071550092
  0
LINE
  8
_1-5_寸法3
  6
CONTINUOUS
 62
    7
 10
992.5511074572189
 20
382.17581071550092
 11
977.09629423659385
 21
378.03470599386065
  0
LINE
  8
_1-5_寸法3
  6
CONTINUOUS
 62
    7
 10
992.5511074572189
 20
382.17581071550092
 11
977.09629423659385
 21
386.31691543714129
  0
LINE
  8
_1-5_寸法3
  6
CONTINUOUS
 62
    7
 10
967.21777412388587
 20
382.17581071550092
 11
992.5511074572189
 21
382.17581071550092
  0
TEXT
  8
_1-5_寸法3
 62
    7
 10
968.36383082752889
 20
382.1758107155008
 40
24
 41
1
 50
0
  1
9.5
  0
LINE
  8
_1-5_寸法3
  6
CONTINUOUS
 62
    7
 10
1113.8844407905528
 20
260.04247738216668
 11
1113.8844407905533
 21
334.17581071550092
  0
LINE
  8
_1-5_寸法3
  6
CONTINUOUS
 62
    7
 10
1113.8844407905533
 20
326.17581071550092
 11
1098.4296275699282
 21
322.0347059938606
  0
LINE
  8
_1-5_寸法3
  6
CONTINUOUS
 62
    7
 10
1113.8844407905533
 20
326.17581071550092
 11
1098.4296275699282
 21
330.31691543714129
  0
LINE
  8
_1-5_寸法3
  6
CONTINUOUS
 62
    7
 10
1129.8844407905528
 20
260.04247738216668
 11
1129.8844407905533
 21
334.17581071550092
  0
LINE
  8
_1-5_寸法3
  6
CONTINUOUS
 62
    7
 10
1073.8844407905533
 20
326.17581071550092
 11
1129.8844407905533
 21
326.17581071550092
  0
TEXT
  8
_1-5_寸法3
 62
    7
 10
1084.4516783534557
 20
326.17581071550092
 40
24
 41
1
 50
0
  1
6
  0
LINE
  8
_1-5_寸法3
  6
CONTINUOUS
 62
    7
 10
1129.8844407905533
 20
326.17581071550092
 11
1145.3392540111784
 21
330.31691543714112
  0
LINE
  8
_1-5_寸法3
  6
CONTINUOUS
 62
    7
 10
1129.8844407905533
 20
326.17581071550092
 11
1145.3392540111784
 21
322.03470599386048
  0
LINE
  8
_1-5_寸法3
  6
CONTINUOUS
 62
    7
 10
1151.2177741238879
 20
260.04247738216668
 11
1151.2177741238879
 21
334.17581071550092
  0
LINE
  8
_1-5_寸法3
  6
CONTINUOUS
 62
    7
 10
1151.2177741238879
 20
326.17581071550092
 11
1135.7629609032629
 21
322.0347059938606
  0
LINE
  8
_1-5_寸法3
  6
CONTINUOUS
 62
    7
 10
1151.2177741238879
 20
326.17581071550092
 11
1135.7629609032629
 21
330.31691543714129
  0
LINE
  8
_1-5_寸法3
  6
CONTINUOUS
 62
    7
 10
1129.8844407905533
 20
326.17581071550092
 11
1151.2177741238879
 21
326.17581071550092
  0
TEXT
  8
_1-5_寸法3
 62
    7
 10
1134.5511074572207
 20
326.17581071550092
 40
24
 41
1
 50
0
  1
8
  0
LINE
  8
_1-5_寸法3
  6
CONTINUOUS
 62
    7
 10
1367.2177741238856
 20
246.17581071550069
 11
1439.2177741238854
 21
246.17581071550001
  0
LINE
  8
_1-5_寸法3
  6
CONTINUOUS
 62
    7
 10
1431.2177741238854
 20
246.17581071550012
 11
1435.3588788455259
 21
230.72099749487495
  0
LINE
  8
_1-5_寸法3
  6
CONTINUOUS
 62
    7
 10
1431.2177741238854
 20
246.17581071550012
 11
1427.0766694022452
 21
230.72099749487495
  0
LINE
  8
_1-5_寸法3
  6
CONTINUOUS
 62
    7
 10
1367.2177741238856
 20
224.84247738216709
 11
1439.2177741238854
 21
224.84247738216641
  0
LINE
  8
_1-5_寸法3
  6
CONTINUOUS
 62
    7
 10
1431.2177741238854
 20
224.84247738216641
 11
1427.0766694022452
 21
240.29729060279158
  0
LINE
  8
_1-5_寸法3
  6
CONTINUOUS
 62
    7
 10
1431.2177741238854
 20
224.84247738216641
 11
1435.3588788455259
 21
240.29729060279146
  0
LINE
  8
_1-5_寸法3
  6
CONTINUOUS
 62
    7
 10
1431.2177741238854
 20
246.17581071550012
 11
1431.2177741238854
 21
224.84247738216641
  0
TEXT
  8
_1-5_寸法3
 62
    7
 10
1431.2177741238854
 20
229.50914404883326
 40
24
 41
1
 50
90
  1
8
  0
LINE
  8
_1-5_寸法3
  6
CONTINUOUS
 62
    7
 10
951.21777412388565
 20
246.17581071550092
 11
879.21777412388565
 21
246.17581071550126
  0
LINE
  8
_1-5_寸法3
  6
CONTINUOUS
 62
    7
 10
887.21777412388565
 20
246.17581071550114
 11
891.35887884552596
 21
230.72099749487609
  0
LINE
  8
_1-5_寸法3
  6
CONTINUOUS
 62
    7
 10
887.21777412388565
 20
246.17581071550114
 11
883.07666940224533
 21
230.72099749487609
  0
LINE
  8
_1-5_寸法3
  6
CONTINUOUS
 62
    7
 10
974.68444079055325
 20
188.84247738216754
 11
879.21777412388565
 21
188.84247738216777
  0
LINE
  8
_1-5_寸法3
  6
CONTINUOUS
 62
    7
 10
887.21777412388565
 20
188.84247738216777
 11
883.07666940224533
 21
204.29729060279283
  0
LINE
  8
_1-5_寸法3
  6
CONTINUOUS
 62
    7
 10
887.21777412388565
 20
188.84247738216777
 11
891.35887884552596
 21
204.29729060279294
  0
LINE
  8
_1-5_寸法3
  6
CONTINUOUS
 62
    7
 10
887.21777412388565
 20
246.17581071550114
 11
887.21777412388565
 21
188.84247738216777
  0
TEXT
  8
_1-5_寸法3
 62
    7
 10
887.21777412388565
 20
193.50914404883451
 40
24
 41
1
 50
90
  1
21.5
  0
LINE
  8
_0-1_計細線
  6
CONTINUOUS
 62
    3
 10
1405.9792205215026
 20
1086.3642826045293
 11
1405.9792205215026
 21
1211.3642826045293
  0
LINE
  8
_0-1_計細線
  6
CONTINUOUS
 62
    3
 10
819.47922052150307
 20
1076.8642826045293
 11
819.47922052150307
 21
1220.8642826045293
  0
LINE
  8
_0-1_計細線
  6
CONTINUOUS
 62
    3
 10
819.47922052150307
 20
1220.8642826045293
 11
1415.4792205215026
 21
1220.8642826045293
  0
LINE
  8
_0-1_計細線
  6
CONTINUOUS
 62
    3
 10
1415.4792205215026
 20
1220.8642826045293
 11
1415.4792205215026
 21
1076.8642826045293
  0
LINE
  8
_0-1_計細線
  6
CONTINUOUS
 62
    3
 10
1415.4792205215026
 20
1076.8642826045293
 11
819.47922052150307
 21
1076.8642826045293
  0
LINE
  8
_0-1_計細線
  6
CONTINUOUS
 62
    3
 10
1405.9792205215026
 20
1211.3642826045293
 11
828.97922052150307
 21
1211.3642826045293
  0
LINE
  8
_0-1_計細線
  6
CONTINUOUS
 62
    3
 10
828.97922052150307
 20
1086.3642826045293
 11
1405.9792205215026
 21
1086.3642826045293
  0
LINE
  8
_0-1_計細線
  6
CONTINUOUS
 62
    3
 10
828.97922052150307
 20
1211.3642826045293
 11
828.97922052150307
 21
1086.3642826045293
  0
LINE
  8
_0-1_計細線
  6
CONTINUOUS
 62
    3
 10
1116.9792205215031
 20
1209.8642826045293
 11
1113.9792205215031
 21
1209.8642826045293
  0
LINE
  8
_0-1_計細線
  6
CONTINUOUS
 62
    3
 10
1113.9792205215031
 20
1209.8642826045293
 11
1113.9792205215031
 21
1087.8642826045293
  0
LINE
  8
_0-1_計細線
  6
CONTINUOUS
 62
    3
 10
1113.9792205215031
 20
1087.8642826045293
 11
1116.9792205215031
 21
1087.8642826045293
  0
LINE
  8
_0-1_計細線
  6
CONTINUOUS
 62
    3
 10
1116.9792205215031
 20
1087.8642826045293
 11
1116.9792205215031
 21
1209.8642826045293
  0
LINE
  8
_0-1_計細線
  6
CONTINUOUS
 62
    3
 10
1120.9792205215031
 20
1209.8642826045293
 11
1117.9792205215031
 21
1209.8642826045293
  0
LINE
  8
_0-1_計細線
  6
CONTINUOUS
 62
    3
 10
1117.9792205215031
 20
1209.8642826045293
 11
1117.9792205215031
 21
1087.8642826045293
  0
LINE
  8
_0-1_計細線
  6
CONTINUOUS
 62
    3
 10
1117.9792205215031
 20
1087.8642826045293
 11
1120.9792205215031
 21
1087.8642826045293
  0
LINE
  8
_0-1_計細線
  6
CONTINUOUS
 62
    3
 10
1120.9792205215031
 20
1087.8642826045293
 11
1120.9792205215031
 21
1209.8642826045293
  0
LINE
  8
_0-5_寸法線
  6
CONTINUOUS
 62
    7
 10
1415.4792205215026
 20
1236.8642826045293
 11
1415.4792205215035
 21
1476.8642826045293
  0
LINE
  8
_0-5_寸法線
  6
CONTINUOUS
 62
    7
 10
1415.4792205215035
 20
1468.8642826045293
 11
1400.0244073008785
 21
1464.7231778828891
  0
LINE
  8
_0-5_寸法線
  6
CONTINUOUS
 62
    7
 10
1415.4792205215035
 20
1468.8642826045293
 11
1400.0244073008785
 21
1473.0053873261697
  0
LINE
  8
_0-5_寸法線
  6
CONTINUOUS
 62
    7
 10
819.47922052150307
 20
1236.8642826045293
 11
819.47922052150352
 21
1476.8642826045293
  0
LINE
  8
_0-5_寸法線
  6
CONTINUOUS
 62
    7
 10
819.47922052150352
 20
1468.8642826045293
 11
834.93403374212858
 21
1473.0053873261697
  0
LINE
  8
_0-5_寸法線
  6
CONTINUOUS
 62
    7
 10
819.47922052150352
 20
1468.8642826045293
 11
834.93403374212858
 21
1464.7231778828889
  0
LINE
  8
_0-5_寸法線
  6
CONTINUOUS
 62
    7
 10
1415.4792205215035
 20
1468.8642826045293
 11
819.47922052150352
 21
1468.8642826045293
  0
TEXT
  8
_0-5_寸法線
 62
    7
 10
1099.4792205215035
 20
1468.8642826045293
 40
24
 41
1
 50
0
  1
596
  0
LINE
  8
_0-5_寸法線
  6
CONTINUOUS
 62
    7
 10
819.47922052150307
 20
1236.8642826045293
 11
819.47922052150307
 21
1420.8642826045293
  0
LINE
  8
_0-5_寸法線
  6
CONTINUOUS
 62
    7
 10
819.47922052150307
 20
1412.8642826045293
 11
804.02440730087801
 21
1408.7231778828891
  0
LINE
  8
_0-5_寸法線
  6
CONTINUOUS
 62
    7
 10
819.47922052150307
 20
1412.8642826045293
 11
804.02440730087801
 21
1417.0053873261697
  0
LINE
  8
_0-5_寸法線
  6
CONTINUOUS
 62
    7
 10
828.97922052150307
 20
1236.8642826045293
 11
828.97922052150307
 21
1420.8642826045293
  0
LINE
  8
_0-5_寸法線
  6
CONTINUOUS
 62
    7
 10
764.32674568721541
 20
1412.8642826045293
 11
828.97922052150307
 21
1412.8642826045293
  0
TEXT
  8
_0-5_寸法線
 62
    7
 10
764.32674568721541
 20
1412.8642826045293
 40
24
 41
1
 50
0
  1
9.5
  0
LINE
  8
_0-5_寸法線
  6
CONTINUOUS
 62
    7
 10
828.97922052150307
 20
1412.8642826045293
 11
844.43403374212824
 21
1417.0053873261695
  0
LINE
  8
_0-5_寸法線
  6
CONTINUOUS
 62
    7
 10
828.97922052150307
 20
1412.8642826045293
 11
844.43403374212812
 21
1408.7231778828889
  0
LINE
  8
_0-5_寸法線
  6
CONTINUOUS
 62
    7
 10
1405.9792205215026
 20
1236.8642826045293
 11
1405.9792205215035
 21
1420.8642826045293
  0
LINE
  8
_0-5_寸法線
  6
CONTINUOUS
 62
    7
 10
1405.9792205215035
 20
1412.8642826045293
 11
1390.5244073008785
 21
1408.7231778828891
  0
LINE
  8
_0-5_寸法線
  6
CONTINUOUS
 62
    7
 10
1405.9792205215035
 20
1412.8642826045293
 11
1390.5244073008785
 21
1417.0053873261697
  0
LINE
  8
_0-5_寸法線
  6
CONTINUOUS
 62
    7
 10
828.97922052150307
 20
1412.8642826045293
 11
1405.9792205215035
 21
1412.8642826045293
  0
TEXT
  8
_0-5_寸法線
 62
    7
 10
1099.4792205215031
 20
1412.8642826045293
 40
24
 41
1
 50
0
  1
577
  0
LINE
  8
_0-5_寸法線
  6
CONTINUOUS
 62
    7
 10
1415.4792205215026
 20
1236.8642826045293
 11
1415.4792205215035
 21
1420.8642826045293
  0
LINE
  8
_0-5_寸法線
  6
CONTINUOUS
 62
    7
 10
1415.4792205215035
 20
1412.8642826045293
 11
1430.9340337421286
 21
1417.0053873261695
  0
LINE
  8
_0-5_寸法線
  6
CONTINUOUS
 62
    7
 10
1415.4792205215035
 20
1412.8642826045293
 11
1430.9340337421286
 21
1408.7231778828889
  0
LINE
  8
_0-5_寸法線
  6
CONTINUOUS
 62
    7
 10
1405.9792205215035
 20
1412.8642826045293
 11
1466.6401493732601
 21
1412.8642826045293
  0
TEXT
  8
_0-5_寸法線
 62
    7
 10
1430.6401493732601
 20
1412.8642826045293
 40
24
 41
1
 50
0
  1
9.5
  0
LINE
  8
_0-5_寸法線
  6
CONTINUOUS
 62
    7
 10
803.47922052150307
 20
1076.8642826045293
 11
675.47922052150307
 21
1076.8642826045298
  0
LINE
  8
_0-5_寸法線
  6
CONTINUOUS
 62
    7
 10
683.47922052150307
 20
1076.8642826045298
 11
679.33811579986275
 21
1092.3190958251548
  0
LINE
  8
_0-5_寸法線
  6
CONTINUOUS
 62
    7
 10
683.47922052150307
 20
1076.8642826045298
 11
687.62032524314338
 21
1092.3190958251548
  0
LINE
  8
_0-5_寸法線
  6
CONTINUOUS
 62
    7
 10
803.47922052150307
 20
1220.8642826045293
 11
675.47922052150307
 21
1220.8642826045298
  0
LINE
  8
_0-5_寸法線
  6
CONTINUOUS
 62
    7
 10
683.47922052150307
 20
1220.8642826045298
 11
687.62032524314338
 21
1205.4094693839047
  0
LINE
  8
_0-5_寸法線
  6
CONTINUOUS
 62
    7
 10
683.47922052150307
 20
1220.8642826045298
 11
679.33811579986275
 21
1205.4094693839047
  0
LINE
  8
_0-5_寸法線
  6
CONTINUOUS
 62
    7
 10
683.47922052150307
 20
1076.8642826045298
 11
683.47922052150307
 21
1220.8642826045298
  0
TEXT
  8
_0-5_寸法線
 62
    7
 10
683.47922052150307
 20
1130.8642826045295
 40
24
 41
1
 50
90
  1
144
  0
LINE
  8
_0-5_寸法線
  6
CONTINUOUS
 62
    7
 10
803.47922052150307
 20
1220.8642826045293
 11
731.47922052150261
 21
1220.8642826045293
  0
LINE
  8
_0-5_寸法線
  6
CONTINUOUS
 62
    7
 10
739.47922052150261
 20
1220.8642826045293
 11
735.33811579986229
 21
1236.3190958251544
  0
LINE
  8
_0-5_寸法線
  6
CONTINUOUS
 62
    7
 10
739.47922052150261
 20
1220.8642826045293
 11
743.62032524314293
 21
1236.3190958251544
  0
LINE
  8
_0-5_寸法線
  6
CONTINUOUS
 62
    7
 10
803.47922052150307
 20
1211.3642826045291
 11
731.47922052150261
 21
1211.3642826045291
  0
LINE
  8
_0-5_寸法線
  6
CONTINUOUS
 62
    7
 10
739.47922052150261
 20
1277.7514608999352
 11
739.47922052150261
 21
1211.3642826045291
  0
TEXT
  8
_0-5_寸法線
 62
    7
 10
739.47922052150261
 20
1241.7514608999352
 40
24
 41
1
 50
89.999999999999815
  1
9.5
  0
LINE
  8
_0-5_寸法線
  6
CONTINUOUS
 62
    7
 10
739.47922052150261
 20
1211.3642826045291
 11
743.62032524314282
 21
1195.909469383904
  0
LINE
  8
_0-5_寸法線
  6
CONTINUOUS
 62
    7
 10
739.47922052150261
 20
1211.3642826045291
 11
735.33811579986218
 21
1195.909469383904
  0
LINE
  8
_0-5_寸法線
  6
CONTINUOUS
 62
    7
 10
803.47922052150307
 20
1086.3642826045293
 11
731.47922052150261
 21
1086.3642826045293
  0
LINE
  8
_0-5_寸法線
  6
CONTINUOUS
 62
    7
 10
739.47922052150261
 20
1086.3642826045293
 11
735.33811579986229
 21
1101.8190958251544
  0
LINE
  8
_0-5_寸法線
  6
CONTINUOUS
 62
    7
 10
739.47922052150261
 20
1086.3642826045293
 11
743.62032524314293
 21
1101.8190958251544
  0
LINE
  8
_0-5_寸法線
  6
CONTINUOUS
 62
    7
 10
739.47922052150261
 20
1211.3642826045291
 11
739.47922052150261
 21
1086.3642826045293
  0
TEXT
  8
_0-5_寸法線
 62
    7
 10
739.47922052150261
 20
1130.8642826045291
 40
24
 41
1
 50
90
  1
125
  0
LINE
  8
_0-5_寸法線
  6
CONTINUOUS
 62
    7
 10
803.47922052150307
 20
1076.8642826045293
 11
731.47922052150307
 21
1076.8642826045293
  0
LINE
  8
_0-5_寸法線
  6
CONTINUOUS
 62
    7
 10
739.47922052150307
 20
1076.8642826045293
 11
743.62032524314327
 21
1061.4094693839043
  0
LINE
  8
_0-5_寸法線
  6
CONTINUOUS
 62
    7
 10
739.47922052150307
 20
1076.8642826045293
 11
735.33811579986263
 21
1061.4094693839043
  0
LINE
  8
_0-5_寸法線
  6
CONTINUOUS
 62
    7
 10
739.47922052150261
 20
1086.3642826045293
 11
739.47922052150568
 21
1022.4811136182941
  0
TEXT
  8
_0-5_寸法線
 62
    7
 10
739.47922052150295
 20
1022.4811136182941
 40
24
 41
1
 50
89.999999999999815
  1
9.5
  0
ARC
  8
_0-1_計細線
  6
CONTINUOUS
 62
    3
 10
1374.0939821431193
 20
1163.0640874925348
 40
0.501740082747087
 50
330.00000000003996
 51
20.189990999990084
  0
ARC
  8
_0-1_計細線
  6
CONTINUOUS
 62
    3
 10
1374.0939821431193
 20
1134.6644777165257
 40
0.501740082747087
 50
339.81000900000919
 51
29.999999999959307
  0
LINE
  8
_0-1_計細線
  6
CONTINUOUS
 62
    3
 10
1336.782788616918
 20
1151.1221220082493
 11
1335.4792205215026
 21
1153.3799614119685
  0
LINE
  8
_0-1_計細線
  6
CONTINUOUS
 62
    3
 10
1336.782788616918
 20
1151.1221220082493
 11
1316.6428972611711
 21
1186.005433729556
  0
LINE
  8
_0-1_計細線
  6
CONTINUOUS
 62
    3
 10
1336.782788616918
 20
1151.1221220082493
 11
1339.3899187868446
 21
1151.1221220082493
  0
LINE
  8
_0-1_計細線
  6
CONTINUOUS
 62
    3
 10
1332.8720963724818
 20
1148.8642826045293
 11
1312.7322050167313
 21
1183.7475943258382
  0
ARC
  8
_0-1_計細線
  6
CONTINUOUS
 62
    3
 10
1303.874448157927
 20
1122.5228228944693
 40
0.501740082747087
 50
219.81000899998574
 51
269.99999999999977
  0
LINE
  8
_0-1_計細線
  6
CONTINUOUS
 62
    3
 10
1336.782788616918
 20
1146.6064432008102
 11
1316.6428972611711
 21
1111.7231314795031
  0
LINE
  8
_0-1_計細線
  6
CONTINUOUS
 62
    3
 10
1332.8720963724818
 20
1148.8642826045293
 11
1312.7322050167313
 21
1113.9809708832222
  0
ARC
  8
_0-1_計細線
  6
CONTINUOUS
 62
    3
 10
1335.4792205215026
 20
1148.8642826045293
 40
46.4111412917104
 50
89.999999999999915
 51
269.99999999999977
  0
ARC
  8
_0-1_計細線
  6
CONTINUOUS
 62
    3
 10
1335.4792205215026
 20
1148.8642826045293
 40
57.198598227560829
 50
89.999999999999915
 51
269.99999999999977
  0
CIRCLE
  8
_0-1_計細線
  6
CONTINUOUS
 62
    3
 10
1335.4792205215026
 20
1148.8642826045293
 40
58.202084413960065
  0
LINE
  8
_0-1_計細線
  6
CONTINUOUS
 62
    3
 10
1336.782788616918
 20
1151.1221220082493
 11
1377.0625653075085
 21
1151.1221220082493
  0
LINE
  8
_0-1_計細線
  6
CONTINUOUS
 62
    3
 10
1336.782788616918
 20
1146.6064432008102
 11
1377.0625653075085
 21
1146.6064432008102
  0
ARC
  8
_0-1_計細線
  6
CONTINUOUS
 62
    3
 10
1335.4792205215026
 20
1148.8642826045293
 40
46.4111412917104
 50
269.99999999999977
 51
89.999999999999545
  0
ARC
  8
_0-1_計細線
  6
CONTINUOUS
 62
    3
 10
1335.4792205215026
 20
1148.8642826045293
 40
57.198598227560829
 50
269.99999999999977
 51
89.999999999999545
  0
ARC
  8
_0-1_計細線
  6
CONTINUOUS
 62
    3
 10
1335.4792205215026
 20
1148.8642826045293
 40
41.644595453350369
 50
89.999999999999915
 51
116.89207624474167
  0
ARC
  8
_0-1_計細線
  6
CONTINUOUS
 62
    3
 10
1335.4792205215026
 20
1148.8642826045293
 40
41.644595453350369
 50
123.10791868694014
 51
236.89208131305782
  0
ARC
  8
_0-1_計細線
  6
CONTINUOUS
 62
    3
 10
1335.4792205215026
 20
1148.8642826045293
 40
41.644595453350369
 50
243.10792375525659
 51
269.99999999999977
  0
ARC
  8
_0-1_計細線
  6
CONTINUOUS
 62
    3
 10
1335.4792205215026
 20
1148.8642826045293
 40
41.644595453350369
 50
269.99999999999977
 51
356.8920785890931
  0
ARC
  8
_0-1_計細線
  6
CONTINUOUS
 62
    3
 10
1335.4792205215026
 20
1148.8642826045293
 40
41.644595453350369
 50
3.1079214109077964
 51
89.999999999999915
  0
ARC
  8
_0-0_計極細
  6
CONTINUOUS
 62
    2
 10
1335.4792205215026
 20
1148.8642826045293
 40
50.153133796808191
 50
269.99999999999977
 51
89.999999999999545
  0
ARC
  8
_0-0_計極細
  6
CONTINUOUS
 62
    2
 10
1335.4792205215026
 20
1148.8642826045293
 40
50.153133796808191
 50
89.999999999999915
 51
269.99999999999977
  0
ARC
  8
_0-0_計極細
  6
CONTINUOUS
 62
    2
 10
1321.8642194769955
 20
1119.7632403749381
 40
0.501740082747087
 50
149.99997568607938
 51
210.00002243784951
  0
ARC
  8
_0-0_計極細
  6
CONTINUOUS
 62
    2
 10
1335.7689043274513
 20
1142.8433775279432
 40
1.0034861863992508
 50
29.999999999951111
 51
149.99999999997101
  0
ARC
  8
_0-0_計極細
  6
CONTINUOUS
 62
    2
 10
1335.7689043274513
 20
1142.8433775279432
 40
1.0034861863992508
 50
29.999999999951111
 51
106.77865499997519
  0
ARC
  8
_0-0_計極細
  6
CONTINUOUS
 62
    2
 10
1330.1201273100305
 20
1146.1047031180628
 40
1.0034861863992508
 50
329.99999999995163
 51
89.999999999999545
  0
ARC
  8
_0-0_計極細
  6
CONTINUOUS
 62
    2
 10
1294.9840042214646
 20
1156.1430434036224
 40
0.501740082747087
 50
89.993779916795503
 51
169.8086801233749
  0
ARC
  8
_0-0_計極細
  6
CONTINUOUS
 62
    2
 10
1294.9824385160318
 20
1141.592520070868
 40
0.501740082747087
 50
190.17882981053808
 51
269.99383436904543
  0
ARC
  8
_0-0_計極細
  6
CONTINUOUS
 62
    2
 10
1294.9307062254256
 20
1151.6273690011635
 40
1.0034861863992508
 50
176.10042624738318
 51
269.99385985774035
  0
ARC
  8
_0-0_計極細
  6
CONTINUOUS
 62
    2
 10
1335.4792205215026
 20
1148.8642826045293
 40
37.630656728658437
 50
317.45760300000074
 51
327.38710799999916
  0
ARC
  8
_0-0_計極細
  6
CONTINUOUS
 62
    2
 10
1335.4792205215026
 20
1148.8642826045293
 40
37.630656728658437
 50
32.612892000001082
 51
42.54239699999939
  0
LINE
  8
_0-0_計極細
  6
CONTINUOUS
 62
    2
 10
1370.6534382924901
 20
1129.585344549304
 11
1361.6953490714895
 21
1145.1012169316655
  0
LINE
  8
_0-0_計極細
  6
CONTINUOUS
 62
    2
 10
1369.2466116750111
 20
1124.9976496962431
 11
1356.9156114301059
 21
1146.3555701489836
  0
LINE
  8
_0-0_計極細
  6
CONTINUOUS
 62
    2
 10
1364.6246759347796
 20
1120.9612650374256
 11
1350.6874728216908
 21
1145.1012169316655
  0
LINE
  8
_0-0_計極細
  6
CONTINUOUS
 62
    2
 10
1370.6534382924901
 20
1168.143220659756
 11
1361.6953490714895
 21
1152.6273482773954
  0
LINE
  8
_0-0_計極細
  6
CONTINUOUS
 62
    2
 10
1369.2466116750111
 20
1172.7309155128164
 11
1356.9156114301059
 21
1151.3729950600755
  0
LINE
  8
_0-0_計極細
  6
CONTINUOUS
 62
    2
 10
1364.6246759347796
 20
1176.7672941507299
 11
1350.6874728216908
 21
1152.6273482773954
  0
LINE
  8
_0-0_計極細
  6
CONTINUOUS
 62
    2
 10
1333.4722541696092
 20
1121.844646209358
 11
1333.4722541696092
 21
1129.7620581133019
  0
LINE
  8
_0-0_計極細
  6
CONTINUOUS
 62
    2
 10
1333.9739942523565
 20
1121.8120550501781
 11
1333.9739942523565
 21
1128.893018737263
  0
ARC
  8
_0-0_計極細
  6
CONTINUOUS
 62
    2
 10
1335.4792205215026
 20
1148.8642826045293
 40
37.630656728658437
 50
213.59599499999973
 51
225.50677599999941
  0
LINE
  8
_0-0_計極細
  6
CONTINUOUS
 62
    2
 10
1362.4615574097252
 20
1117.6835144182596
 11
1345.9077351803071
 21
1146.3555701489836
  0
LINE
  8
_0-0_計極細
  6
CONTINUOUS
 62
    2
 10
1357.2737047595365
 20
1114.6273270850038
 11
1339.6795965718911
 21
1145.1012169316655
  0
LINE
  8
_0-0_計極細
  6
CONTINUOUS
 62
    2
 10
1339.264635794013
 20
1107.68754760106
 11
1326.9336355491077
 21
1129.045468053801
  0
LINE
  8
_0-0_計極細
  6
CONTINUOUS
 62
    2
 10
1345.071214712586
 20
1109.6720680188278
 11
1331.1340115994963
 21
1133.8120199130667
  0
LINE
  8
_0-0_計極細
  6
CONTINUOUS
 62
    2
 10
1348.9913959034266
 20
1109.9065100207017
 11
1332.4375736740085
 21
1138.578571772332
  0
LINE
  8
_0-0_計極細
  6
CONTINUOUS
 62
    2
 10
1354.2320518911374
 20
1112.871233784937
 11
1336.637949724397
 21
1143.3451176106919
  0
LINE
  8
_0-0_計極細
  6
CONTINUOUS
 62
    2
 10
1303.874448157927
 20
1122.0210828117224
 11
1317.0844824812984
 21
1122.0210828117224
  0
ARC
  8
_0-0_計極細
  6
CONTINUOUS
 62
    2
 10
1313.608312935331
 20
1117.5054040042828
 40
1.0034861863992508
 50
329.99999999997061
 51
89.999999999999545
  0
ARC
  8
_0-0_計極細
  6
CONTINUOUS
 62
    2
 10
1335.4792205215026
 20
1148.8642826045293
 40
37.630656728658437
 50
233.77152299999938
 51
236.31964599999873
  0
ARC
  8
_0-0_計極細
  6
CONTINUOUS
 62
    2
 10
1309.6273326450291
 20
1117.5054040042828
 40
1.0034861863992508
 50
89.999999999999915
 51
230.49822999997428
  0
LINE
  8
_0-0_計極細
  6
CONTINUOUS
 62
    2
 10
1309.6273326450291
 20
1118.508884169777
 11
1313.608312935331
 21
1118.508884169777
  0
ARC
  8
_0-0_計極細
  6
CONTINUOUS
 62
    2
 10
1335.4792205215026
 20
1148.8642826045293
 40
37.630656728658437
 50
272.61289199999942
 51
282.54239699999982
  0
ARC
  8
_0-0_計極細
  6
CONTINUOUS
 62
    2
 10
1339.6991584924845
 20
1107.9384206528857
 40
0.501740082747087
 50
210.00000000000426
 51
275.88706199997517
  0
LINE
  8
_0-0_計極細
  6
CONTINUOUS
 62
    2
 10
1334.5881626955979
 20
1108.7630438121764
 11
1325.6300734745973
 21
1124.278922215442
  0
LINE
  8
_0-0_計極細
  6
CONTINUOUS
 62
    2
 10
1328.0347145858932
 20
1108.0721449546395
 11
1321.4296974242088
 21
1119.5123703561771
  0
ARC
  8
_0-0_計極細
  6
CONTINUOUS
 62
    2
 10
1335.4792205215026
 20
1148.8642826045293
 40
37.630656728658437
 50
254.49322399999932
 51
266.40400499999907
  0
ARC
  8
_0-0_計極細
  6
CONTINUOUS
 62
    2
 10
1317.0844824812984
 20
1122.5228228944693
 40
0.501740082747087
 50
269.99999999999977
 51
329.99999999989114
  0
ARC
  8
_0-0_計極細
  6
CONTINUOUS
 62
    2
 10
1321.2475831083566
 20
1110.7964479582611
 40
1.0034861863992508
 50
249.50177000005806
 51
29.999999999976708
  0
LINE
  8
_0-0_計極細
  6
CONTINUOUS
 62
    2
 10
1322.1166224843973
 20
1111.2981880410084
 11
1320.1261353496984
 21
1114.74581849691
  0
ARC
  8
_0-0_計極細
  6
CONTINUOUS
 62
    2
 10
1324.7610280776526
 20
1123.7771761117906
 40
1.0034861863992508
 50
29.999999999977071
 51
149.99999999999699
  0
ARC
  8
_0-0_計極細
  6
CONTINUOUS
 62
    2
 10
1335.4792205215026
 20
1148.8642826045293
 40
27.094072844634088
 50
244.78019200000111
 51
249.77896100000117
  0
ARC
  8
_0-0_計極細
  6
CONTINUOUS
 62
    2
 10
1335.4792205215026
 20
1148.8642826045293
 40
37.630656728658437
 50
243.68035399999945
 51
246.22847699999838
  0
ARC
  8
_0-0_計極細
  6
CONTINUOUS
 62
    2
 10
1319.2570899527536
 20
1114.244078414165
 40
1.0034861863992508
 50
29.999999999977071
 51
150.00000000002294
  0
ARC
  8
_0-0_計極細
  6
CONTINUOUS
 62
    2
 10
1333.7191233195599
 20
1108.2613037294309
 40
1.0034861863992508
 50
267.5178359999677
 51
30.000000000002665
  0
ARC
  8
_0-0_計極細
  6
CONTINUOUS
 62
    2
 10
1328.4692372843647
 20
1108.3230180064652
 40
0.501740082747087
 50
210.00000000010814
 51
260.18999100005101
  0
ARC
  8
_0-0_計極細
  6
CONTINUOUS
 62
    2
 10
1335.4792205215026
 20
1148.8642826045293
 40
27.094072844634088
 50
260.29098299999907
 51
275.37568199999987
  0
ARC
  8
_0-0_計極細
  6
CONTINUOUS
 62
    2
 10
1335.4792205215026
 20
1148.8642826045293
 40
37.630656728658437
 50
288.07291800000053
 51
297.3252259999997
  0
ARC
  8
_0-0_計極細
  6
CONTINUOUS
 62
    2
 10
1335.4792205215026
 20
1148.8642826045293
 40
27.094072844634088
 50
283.31934900000118
 51
296.2837799999993
  0
ARC
  8
_0-0_計極細
  6
CONTINUOUS
 62
    2
 10
1349.4259125809922
 20
1110.1573830725279
 40
0.501740082747087
 50
210.00000000010814
 51
289.81487200010849
  0
ARC
  8
_0-0_計極細
  6
CONTINUOUS
 62
    2
 10
1344.2021693156421
 20
1109.1703279360813
 40
1.0034861863992508
 50
282.39403400005705
 51
30.000000000002665
  0
ARC
  8
_0-0_計極細
  6
CONTINUOUS
 62
    2
 10
1335.4792205215026
 20
1148.8642826045293
 40
37.630656728658437
 50
302.67477399999865
 51
311.92708199999919
  0
ARC
  8
_0-0_計極細
  6
CONTINUOUS
 62
    2
 10
1358.1427441355745
 20
1115.1290731886565
 40
1.0034861863992508
 50
210.00000000002515
 51
303.89345000001418
  0
ARC
  8
_0-0_計極細
  6
CONTINUOUS
 62
    2
 10
1362.0270347112528
 20
1117.4326413664339
 40
0.501740082747087
 50
310.18512800003361
 51
29.999999999907399
  0
ARC
  8
_0-0_計極細
  6
CONTINUOUS
 62
    2
 10
1353.3630125150985
 20
1112.3694876812842
 40
1.0034861863992508
 50
296.10655000002453
 51
29.999999999999204
  0
LINE
  8
_0-0_計極細
  6
CONTINUOUS
 62
    2
 10
1301.1960605764198
 20
1128.0419878883081
 11
1319.1122510602299
 21
1128.0419878883081
  0
ARC
  8
_0-0_計極細
  6
CONTINUOUS
 62
    2
 10
1313.608312935331
 20
1180.2231612047776
 40
1.0034861863992508
 50
269.99999999999977
 51
30.000000000051159
  0
LINE
  8
_0-0_計極細
  6
CONTINUOUS
 62
    2
 10
1303.874448157927
 20
1175.707482397338
 11
1317.0844824812984
 21
1175.707482397338
  0
LINE
  8
_0-0_計極細
  6
CONTINUOUS
 62
    2
 10
1301.1960605764198
 20
1169.6865773207514
 11
1319.1122510602299
 21
1169.6865773207514
  0
LINE
  8
_0-0_計極細
  6
CONTINUOUS
 62
    2
 10
1297.9264201163905
 20
1166.1743846997128
 11
1322.5884206061974
 21
1166.1743846997128
  0
LINE
  8
_0-0_計極細
  6
CONTINUOUS
 62
    2
 10
1296.7417769380463
 20
1160.1534796231276
 11
1324.6161891851307
 21
1160.1534796231276
  0
LINE
  8
_0-0_計極細
  6
CONTINUOUS
 62
    2
 10
1294.984720293166
 20
1156.6412870020872
 11
1328.0923587310963
 21
1156.6412870020872
  0
LINE
  8
_0-0_計極細
  6
CONTINUOUS
 62
    2
 10
1294.9319109347389
 20
1150.620381925502
 11
1330.1201273100305
 21
1150.620381925502
  0
LINE
  8
_0-0_計極細
  6
CONTINUOUS
 62
    2
 10
1297.9264201163905
 20
1131.5541805093476
 11
1322.5884206061974
 21
1131.5541805093476
  0
LINE
  8
_0-0_計極細
  6
CONTINUOUS
 62
    2
 10
1296.7417769380463
 20
1137.5750855859333
 11
1324.6161891851307
 21
1137.5750855859333
  0
LINE
  8
_0-0_計極細
  6
CONTINUOUS
 62
    2
 10
1294.984720293166
 20
1141.0872782069732
 11
1328.0923587310963
 21
1141.0872782069732
  0
LINE
  8
_0-0_計極細
  6
CONTINUOUS
 62
    2
 10
1294.9319109347389
 20
1147.1081832835571
 11
1330.1201273100305
 21
1147.1081832835571
  0
ARC
  8
_0-0_計極細
  6
CONTINUOUS
 62
    2
 10
1335.4792205215026
 20
1148.8642826045293
 40
27.094072844634088
 50
140.2909829999995
 51
155.37568200000004
  0
ARC
  8
_0-0_計極細
  6
CONTINUOUS
 62
    2
 10
1335.4792205215026
 20
1148.8642826045293
 40
37.630656728658437
 50
152.61289200000007
 51
162.54239699999968
  0
ARC
  8
_0-0_計極細
  6
CONTINUOUS
 62
    2
 10
1296.7417769380463
 20
1161.1569658095282
 40
1.0034861863992508
 50
162.39403400002107
 51
269.99999999999977
  0
ARC
  8
_0-0_計極細
  6
CONTINUOUS
 62
    2
 10
1301.1960605764198
 20
1127.0385017019075
 40
1.0034861863992508
 50
89.999999999999915
 51
212.4821639999854
  0
ARC
  8
_0-0_計極細
  6
CONTINUOUS
 62
    2
 10
1335.4792205215026
 20
1148.8642826045293
 40
37.630656728658437
 50
168.07291799999925
 51
177.32522600000016
  0
ARC
  8
_0-0_計極細
  6
CONTINUOUS
 62
    2
 10
1335.4792205215026
 20
1148.8642826045293
 40
37.630656728658437
 50
182.67477399999882
 51
191.9270819999997
  0
ARC
  8
_0-0_計極細
  6
CONTINUOUS
 62
    2
 10
1335.4792205215026
 20
1148.8642826045293
 40
37.630656728658437
 50
197.4576029999993
 51
207.38710799999896
  0
ARC
  8
_0-0_計極細
  6
CONTINUOUS
 62
    2
 10
1294.9319109347389
 20
1146.1047031180638
 40
1.0034861863992508
 50
89.999999999999915
 51
183.89344999999844
  0
ARC
  8
_0-0_計極細
  6
CONTINUOUS
 62
    2
 10
1296.7417769380463
 20
1136.5715993995341
 40
1.0034861863992508
 50
89.999999999999915
 51
197.60596600000332
  0
ARC
  8
_0-0_計極細
  6
CONTINUOUS
 62
    2
 10
1297.9264201163905
 20
1132.0559205920936
 40
0.501740082747087
 50
204.11293800002809
 51
269.99999999999977
  0
ARC
  8
_0-0_計極細
  6
CONTINUOUS
 62
    2
 10
1335.4792205215026
 20
1148.8642826045293
 40
27.094072844634088
 50
163.31934899999951
 51
176.28377999999955
  0
ARC
  8
_0-0_計極細
  6
CONTINUOUS
 62
    2
 10
1335.4792205215026
 20
1148.8642826045293
 40
27.094072844634088
 50
183.71621999999911
 51
196.68065099999922
  0
ARC
  8
_0-0_計極細
  6
CONTINUOUS
 62
    2
 10
1335.4792205215026
 20
1148.8642826045293
 40
27.094072844634088
 50
204.62431799999874
 51
219.70901699999865
  0
ARC
  8
_0-0_計極細
  6
CONTINUOUS
 62
    2
 10
1297.9264201163905
 20
1165.6726446169669
 40
0.501740082747087
 50
89.999999999999915
 51
155.88706199997156
  0
ARC
  8
_0-0_計極細
  6
CONTINUOUS
 62
    2
 10
1301.1960605764198
 20
1170.6900635071524
 40
1.0034861863992508
 50
147.5178360000142
 51
269.99999999999977
  0
ARC
  8
_0-0_計極細
  6
CONTINUOUS
 62
    2
 10
1335.4792205215026
 20
1148.8642826045293
 40
37.630656728658437
 50
123.68035400000058
 51
126.22847700000025
  0
ARC
  8
_0-0_計極細
  6
CONTINUOUS
 62
    2
 10
1335.4792205215026
 20
1148.8642826045293
 40
37.630656728658437
 50
134.49322399999971
 51
146.40400499999933
  0
ARC
  8
_0-0_計極細
  6
CONTINUOUS
 62
    2
 10
1303.874448157927
 20
1175.2057423145916
 40
0.501740082747087
 50
89.999999999999915
 51
140.18999100005377
  0
ARC
  8
_0-0_計極細
  6
CONTINUOUS
 62
    2
 10
1309.6273326450291
 20
1180.2231612047776
 40
1.0034861863992508
 50
129.50177000002535
 51
269.99999999999977
  0
LINE
  8
_0-0_計極細
  6
CONTINUOUS
 62
    2
 10
1309.6273326450291
 20
1179.2196810392834
 11
1313.608312935331
 21
1179.2196810392834
  0
ARC
  8
_0-0_計極細
  6
CONTINUOUS
 62
    2
 10
1335.4792205215026
 20
1148.8642826045293
 40
37.630656728658437
 50
77.457603000000148
 51
87.387108000000282
  0
ARC
  8
_0-0_計極細
  6
CONTINUOUS
 62
    2
 10
1335.4792205215026
 20
1148.8642826045293
 40
37.630656728658437
 50
77.457603000000148
 51
87.387108000000282
  0
ARC
  8
_0-0_計極細
  6
CONTINUOUS
 62
    2
 10
1340.5486419688359
 20
1145.6029570144119
 40
1.0034861863992508
 50
89.999999999999915
 51
209.9999999999992
  0
ARC
  8
_0-0_計極細
  6
CONTINUOUS
 62
    2
 10
1340.5486419688359
 20
1152.1256081946499
 40
1.0034861863992508
 50
150.00000000000043
 51
269.99999999999977
  0
ARC
  8
_0-0_計極細
  6
CONTINUOUS
 62
    2
 10
1339.6991584924845
 20
1189.790144556172
 40
0.501740082747087
 50
84.112938000024442
 51
150.00000000004033
  0
LINE
  8
_0-0_計極細
  6
CONTINUOUS
 62
    2
 10
1345.071214712586
 20
1188.0564911693255
 11
1331.1340115994963
 21
1163.9165452959937
  0
LINE
  8
_0-0_計極細
  6
CONTINUOUS
 62
    2
 10
1348.9913959034266
 20
1187.8220491674542
 11
1332.4375736740085
 21
1159.1499934367284
  0
LINE
  8
_0-0_計極細
  6
CONTINUOUS
 62
    2
 10
1354.2320518911374
 20
1184.8573314241235
 11
1336.637949724397
 21
1154.3834475983685
  0
LINE
  8
_0-0_計極細
  6
CONTINUOUS
 62
    2
 10
1333.4722541696092
 20
1156.856130957935
 11
1333.4722541696092
 21
1160.9421158327737
  0
LINE
  8
_0-0_計極細
  6
CONTINUOUS
 62
    2
 10
1333.9739942523565
 20
1155.987091581896
 11
1333.9739942523565
 21
1161.8111612297166
  0
ARC
  8
_0-0_計極細
  6
CONTINUOUS
 62
    2
 10
1324.6161891851307
 20
1161.1569658095282
 40
1.0034861863992508
 50
269.99999999999977
 51
29.999999999999204
  0
LINE
  8
_0-0_計極細
  6
CONTINUOUS
 62
    2
 10
1336.9844467906496
 20
1154.9836053954982
 11
1336.9844467906496
 21
1167.0254155486678
  0
LINE
  8
_0-0_計極細
  6
CONTINUOUS
 62
    2
 10
1337.486192894301
 20
1155.8526507924407
 11
1337.486192894301
 21
1167.894460945613
  0
ARC
  8
_0-0_計極細
  6
CONTINUOUS
 62
    2
 10
1324.6161891851307
 20
1136.5715993995341
 40
1.0034861863992508
 50
329.9999999999776
 51
89.999999999999545
  0
ARC
  8
_0-0_計極細
  6
CONTINUOUS
 62
    2
 10
1322.5884206061974
 20
1132.0559205920936
 40
0.501740082747087
 50
269.99999999999977
 51
329.999999999995
  0
ARC
  8
_0-0_計極細
  6
CONTINUOUS
 62
    2
 10
1335.4792205215026
 20
1148.8642826045293
 40
27.094072844634088
 50
230.22103899999877
 51
235.21980799999864
  0
ARC
  8
_0-0_計極細
  6
CONTINUOUS
 62
    2
 10
1319.1122510602299
 20
1127.0385017019075
 40
1.0034861863992508
 50
330.00000000000011
 51
89.999999999999545
  0
ARC
  8
_0-0_計極細
  6
CONTINUOUS
 62
    2
 10
1327.3681582475801
 20
1129.296341105628
 40
0.501740082747087
 50
149.9999999999884
 51
210.00000000005619
  0
LINE
  8
_0-0_計極細
  6
CONTINUOUS
 62
    2
 10
1333.4722541696092
 20
1136.7864493762868
 11
1333.4722541696092
 21
1140.8724342511255
  0
LINE
  8
_0-0_計極細
  6
CONTINUOUS
 62
    2
 10
1333.9739942523565
 20
1135.917403979342
 11
1333.9739942523565
 21
1141.7414736271639
  0
ARC
  8
_0-0_計極細
  6
CONTINUOUS
 62
    2
 10
1328.0923587310963
 20
1141.5890243106246
 40
0.501740082747087
 50
269.99999999999977
 51
330.00000000003996
  0
ARC
  8
_0-0_計極細
  6
CONTINUOUS
 62
    2
 10
1332.8720963724818
 20
1138.8294388032523
 40
0.501740082747087
 50
150.00000000009922
 51
209.99999999985545
  0
ARC
  8
_0-0_計極細
  6
CONTINUOUS
 62
    2
 10
1330.2649662025515
 20
1133.3102798303194
 40
1.0034861863992508
 50
29.999999999999559
 51
150.00000000000043
  0
ARC
  8
_0-0_計極細
  6
CONTINUOUS
 62
    2
 10
1332.8720963724818
 20
1158.8991264058072
 40
0.501740082747087
 50
150.00000000009922
 51
209.99999999985545
  0
ARC
  8
_0-0_計極細
  6
CONTINUOUS
 62
    2
 10
1335.7689043274513
 20
1154.8851876811159
 40
1.0034861863992508
 50
210.00000000005113
 51
330.00000000002603
  0
ARC
  8
_0-0_計極細
  6
CONTINUOUS
 62
    2
 10
1328.0923587310963
 20
1156.1395408984345
 40
0.501740082747087
 50
29.99999999995967
 51
89.999999999999901
  0
ARC
  8
_0-0_計極細
  6
CONTINUOUS
 62
    2
 10
1330.1201273100305
 20
1151.6238620909967
 40
1.0034861863992508
 50
269.99999999999977
 51
30.000000000002665
  0
LINE
  8
_0-0_計極細
  6
CONTINUOUS
 62
    2
 10
1336.9844467906496
 20
1130.7031496603918
 11
1336.9844467906496
 21
1142.7449598135636
  0
LINE
  8
_0-0_計極細
  6
CONTINUOUS
 62
    2
 10
1337.486192894301
 20
1129.8341042634488
 11
1337.486192894301
 21
1141.8759144166188
  0
ARC
  8
_0-0_計極細
  6
CONTINUOUS
 62
    2
 10
1335.7689043274513
 20
1154.8851876811159
 40
1.0034861863992508
 50
253.22134500003193
 51
330.00000000002603
  0
LINE
  8
_0-0_計極細
  6
CONTINUOUS
 62
    2
 10
1334.5881626955979
 20
1188.9655153759791
 11
1325.6300734745973
 21
1173.449642993618
  0
ARC
  8
_0-0_計極細
  6
CONTINUOUS
 62
    2
 10
1335.4792205215026
 20
1148.8642826045293
 40
37.630656728658437
 50
93.595995000000485
 51
105.50677600000017
  0
LINE
  8
_0-0_計極細
  6
CONTINUOUS
 62
    2
 10
1328.0347145858932
 20
1189.6564202544232
 11
1321.4296974242088
 21
1178.2161948528828
  0
LINE
  8
_0-0_計極細
  6
CONTINUOUS
 62
    2
 10
1339.264635794013
 20
1190.041017607999
 11
1326.9336355491077
 21
1168.6830971552577
  0
ARC
  8
_0-0_計極細
  6
CONTINUOUS
 62
    2
 10
1327.3681582475801
 20
1168.4322241034324
 40
0.501740082747087
 50
149.9999999999884
 51
210.00000000001123
  0
ARC
  8
_0-0_計極細
  6
CONTINUOUS
 62
    2
 10
1335.4792205215026
 20
1148.8642826045293
 40
27.094072844634088
 50
110.2210389999981
 51
115.21980799999808
  0
ARC
  8
_0-0_計極細
  6
CONTINUOUS
 62
    2
 10
1324.7610280776526
 20
1173.9513890972712
 40
1.0034861863992508
 50
210.00000000000267
 51
330.00000000002257
  0
ARC
  8
_0-0_計極細
  6
CONTINUOUS
 62
    2
 10
1321.8642201226803
 20
1177.9653218010567
 40
0.501740082747087
 50
149.99999999999537
 51
209.9999999999593
  0
ARC
  8
_0-0_計極細
  6
CONTINUOUS
 62
    2
 10
1335.4792205215026
 20
1148.8642826045293
 40
37.630656728658437
 50
113.77152300000098
 51
116.31964599999986
  0
ARC
  8
_0-0_計極細
  6
CONTINUOUS
 62
    2
 10
1321.2475831083566
 20
1186.9321172507994
 40
1.0034861863992508
 50
330.00000000002257
 51
110.49822999994124
  0
ARC
  8
_0-0_計極細
  6
CONTINUOUS
 62
    2
 10
1319.2570899527536
 20
1183.4844867948946
 40
1.0034861863992508
 50
209.9999999999992
 51
330.00000000000011
  0
LINE
  8
_0-0_計極細
  6
CONTINUOUS
 62
    2
 10
1322.1166224843973
 20
1186.430377168052
 11
1320.1261353496984
 21
1182.9827467121499
  0
ARC
  8
_0-0_計極細
  6
CONTINUOUS
 62
    2
 10
1335.4792205215026
 20
1148.8642826045293
 40
27.094072844634088
 50
124.78019199999984
 51
129.77896100000024
  0
ARC
  8
_0-0_計極細
  6
CONTINUOUS
 62
    2
 10
1317.0844824812984
 20
1175.2057423145916
 40
0.501740082747087
 50
30.000000000063526
 51
89.999999999999915
  0
ARC
  8
_0-0_計極細
  6
CONTINUOUS
 62
    2
 10
1319.1122510602299
 20
1170.6900635071524
 40
1.0034861863992508
 50
269.99999999999977
 51
29.999999999999204
  0
ARC
  8
_0-0_計極細
  6
CONTINUOUS
 62
    2
 10
1322.5884206061974
 20
1165.6726446169669
 40
0.501740082747087
 50
29.99999999995967
 51
89.999999999999901
  0
LINE
  8
_0-0_計極細
  6
CONTINUOUS
 62
    2
 10
1333.9739942523565
 20
1168.8355464717974
 11
1333.9739942523565
 21
1175.9165101588824
  0
LINE
  8
_0-0_計極細
  6
CONTINUOUS
 62
    2
 10
1333.4722541696092
 20
1167.966507095759
 11
1333.4722541696092
 21
1175.8839189997025
  0
ARC
  8
_0-0_計極細
  6
CONTINUOUS
 62
    2
 10
1333.7191233195599
 20
1189.4672614796327
 40
1.0034861863992508
 50
329.99999999997414
 51
92.482164000031602
  0
ARC
  8
_0-0_計極細
  6
CONTINUOUS
 62
    2
 10
1335.4792205215026
 20
1148.8642826045293
 40
27.094072844634088
 50
84.624317999999832
 51
99.709017000000401
  0
ARC
  8
_0-0_計極細
  6
CONTINUOUS
 62
    2
 10
1328.4692372843647
 20
1189.405547202598
 40
0.501740082747087
 50
99.810008999948636
 51
149.99999999993648
  0
ARC
  8
_0-0_計極細
  6
CONTINUOUS
 62
    2
 10
1330.2649662025515
 20
1164.4182853787397
 40
1.0034861863992508
 50
209.9999999999992
 51
330.00000000000011
  0
ARC
  8
_0-0_計極細
  6
CONTINUOUS
 62
    2
 10
1335.4792205215026
 20
1148.8642826045293
 40
27.094072844634088
 50
84.624317999999832
 51
89.999999999999915
  0
ARC
  8
_0-0_計極細
  6
CONTINUOUS
 62
    2
 10
1335.4792205215026
 20
1148.8642826045293
 40
27.094072844634088
 50
20.290983000001571
 51
35.37568200000068
  0
LINE
  8
_0-0_計極細
  6
CONTINUOUS
 62
    2
 10
1362.4615574097252
 20
1180.0450507908022
 11
1345.9077351803071
 21
1151.3729950600755
  0
LINE
  8
_0-0_計極細
  6
CONTINUOUS
 62
    2
 10
1357.2737047595365
 20
1183.1012381240562
 11
1339.6795965718911
 21
1152.6273482773954
  0
ARC
  8
_0-0_計極細
  6
CONTINUOUS
 62
    2
 10
1335.4792205215026
 20
1148.8642826045293
 40
27.094072844634088
 50
303.71622000000156
 51
316.68065099999922
  0
ARC
  8
_0-0_計極細
  6
CONTINUOUS
 62
    2
 10
1351.5565121977279
 20
1145.6029570144119
 40
1.0034861863992508
 50
89.999999999999915
 51
210.00000000002515
  0
ARC
  8
_0-0_計極細
  6
CONTINUOUS
 62
    2
 10
1345.4732124818356
 20
1146.1047031180638
 40
0.501740082747087
 50
30.0000000001085
 51
89.999999999999915
  0
ARC
  8
_0-0_計極細
  6
CONTINUOUS
 62
    2
 10
1351.5565121977279
 20
1152.1256081946499
 40
1.0034861863992508
 50
149.99999999997448
 51
269.99999999999977
  0
ARC
  8
_0-0_計極細
  6
CONTINUOUS
 62
    2
 10
1345.4732124818356
 20
1151.6238620909967
 40
0.501740082747087
 50
269.99999999999977
 51
329.99999999989114
  0
ARC
  8
_0-0_計極細
  6
CONTINUOUS
 62
    2
 10
1335.4792205215026
 20
1148.8642826045293
 40
27.094072844634088
 50
324.62431799999973
 51
339.7090169999999
  0
ARC
  8
_0-0_計極細
  6
CONTINUOUS
 62
    2
 10
1335.4792205215026
 20
1148.8642826045293
 40
27.094072844634088
 50
350.22103899999934
 51
355.21980800000068
  0
ARC
  8
_0-0_計極細
  6
CONTINUOUS
 62
    2
 10
1335.4792205215026
 20
1148.8642826045293
 40
27.094072844634088
 50
4.7801919999998796
 51
9.778961000001221
  0
ARC
  8
_0-0_計極細
  6
CONTINUOUS
 62
    2
 10
1362.5643884475276
 20
1145.6029570144119
 40
1.0034861863992508
 50
89.999999999999915
 51
210.00000000002515
  0
ARC
  8
_0-0_計極細
  6
CONTINUOUS
 62
    2
 10
1356.4810887316344
 20
1146.1047031180638
 40
0.501740082747087
 50
30.000000000056566
 51
89.999999999999915
  0
ARC
  8
_0-0_計極細
  6
CONTINUOUS
 62
    2
 10
1362.5643884475276
 20
1152.1256081946499
 40
1.0034861863992508
 50
149.99999999997448
 51
269.99999999999977
  0
ARC
  8
_0-0_計極細
  6
CONTINUOUS
 62
    2
 10
1356.4810887316344
 20
1151.6238620909967
 40
0.501740082747087
 50
269.99999999999977
 51
329.9999999999431
  0
ARC
  8
_0-0_計極細
  6
CONTINUOUS
 62
    2
 10
1335.4792205215026
 20
1148.8642826045293
 40
27.094072844634088
 50
43.319349000001104
 51
56.28377999999919
  0
ARC
  8
_0-0_計極細
  6
CONTINUOUS
 62
    2
 10
1335.4792205215026
 20
1148.8642826045293
 40
37.630656728658437
 50
62.674774000000312
 51
71.927081999999317
  0
ARC
  8
_0-0_計極細
  6
CONTINUOUS
 62
    2
 10
1335.4792205215026
 20
1148.8642826045293
 40
27.094072844634088
 50
63.716220000000746
 51
76.680650999998889
  0
ARC
  8
_0-0_計極細
  6
CONTINUOUS
 62
    2
 10
1349.4259125809922
 20
1187.5711821365321
 40
0.501740082747087
 50
70.185127999891137
 51
149.99999999993648
  0
ARC
  8
_0-0_計極細
  6
CONTINUOUS
 62
    2
 10
1344.2021693156421
 20
1188.5582372729791
 40
1.0034861863992508
 50
329.99999999999665
 51
77.605965999942228
  0
ARC
  8
_0-0_計極細
  6
CONTINUOUS
 62
    2
 10
1335.4792205215026
 20
1148.8642826045293
 40
37.630656728658437
 50
48.072918000001373
 51
57.325226000001372
  0
ARC
  8
_0-0_計極細
  6
CONTINUOUS
 62
    2
 10
1358.1427441355745
 20
1182.5994920204043
 40
1.0034861863992508
 50
56.106549999971008
 51
149.99999999999699
  0
ARC
  8
_0-0_計極細
  6
CONTINUOUS
 62
    2
 10
1362.0270347112528
 20
1180.2959178217225
 40
0.501740082747087
 50
330.00000000009186
 51
49.814871999965682
  0
ARC
  8
_0-0_計極細
  6
CONTINUOUS
 62
    2
 10
1353.3630125150985
 20
1185.3590775277748
 40
1.0034861863992508
 50
330.00000000000011
 51
63.893449999974756
  0
ARC
  8
_0-0_計極細
  6
CONTINUOUS
 62
    2
 10
1365.4937213317226
 20
1121.4630111410784
 40
1.0034861863992508
 50
210.00000000002515
 51
317.6059660000256
  0
ARC
  8
_0-0_計極細
  6
CONTINUOUS
 62
    2
 10
1368.8120949974427
 20
1124.7467766444174
 40
0.501740082747087
 50
324.11293799996702
 51
29.999999999959307
  0
ARC
  8
_0-0_計極細
  6
CONTINUOUS
 62
    2
 10
1335.4792205215026
 20
1148.8642826045293
 40
37.630656728658437
 50
14.493223999999607
 51
26.404005000000534
  0
LINE
  8
_0-0_計極細
  6
CONTINUOUS
 62
    2
 10
1374.5285048415908
 20
1162.8132204616145
 11
1367.9234876799055
 21
1151.3729950600755
  0
ARC
  8
_0-0_計極細
  6
CONTINUOUS
 62
    2
 10
1375.562757852932
 20
1142.1553265585076
 40
1.0034861863992508
 50
209.99999999997672
 51
350.4982300000064
  0
ARC
  8
_0-0_計極細
  6
CONTINUOUS
 62
    2
 10
1375.562757852932
 20
1155.5732386505529
 40
1.0034861863992508
 50
9.5017699999932326
 51
150.00000000000043
  0
ARC
  8
_0-0_計極細
  6
CONTINUOUS
 62
    2
 10
1335.4792205215026
 20
1148.8642826045293
 40
37.630656728658437
 50
3.6803540000001762
 51
6.228477000000372
  0
ARC
  8
_0-0_計極細
  6
CONTINUOUS
 62
    2
 10
1335.4792205215026
 20
1148.8642826045293
 40
37.630656728658437
 50
353.77152300000063
 51
356.31964600000015
  0
ARC
  8
_0-0_計極細
  6
CONTINUOUS
 62
    2
 10
1335.4792205215026
 20
1148.8642826045293
 40
37.630656728658437
 50
333.59599499999973
 51
345.50677600000074
  0
ARC
  8
_0-0_計極細
  6
CONTINUOUS
 62
    2
 10
1371.5224836894349
 20
1130.0870846320508
 40
1.0034861863992508
 50
209.99999999997672
 51
332.48216400001218
  0
ARC
  8
_0-0_計極細
  6
CONTINUOUS
 62
    2
 10
1373.5722646973263
 20
1145.6029570144119
 40
1.0034861863992508
 50
89.999999999999915
 51
210.00000000002515
  0
ARC
  8
_0-0_計極細
  6
CONTINUOUS
 62
    2
 10
1367.4889649814331
 20
1146.1047031180638
 40
0.501740082747087
 50
30.000000000004636
 51
89.999999999999915
  0
LINE
  8
_0-0_計極細
  6
CONTINUOUS
 62
    2
 10
1374.6937124559872
 20
1141.6535864757611
 11
1372.7032253212883
 21
1145.1012169316655
  0
LINE
  8
_0-0_計極細
  6
CONTINUOUS
 62
    2
 10
1374.5285048415908
 20
1134.9153447474469
 11
1367.9234876799055
 21
1146.3555701489836
  0
ARC
  8
_0-0_計極細
  6
CONTINUOUS
 62
    2
 10
1373.5722646973263
 20
1152.1256081946499
 40
1.0034861863992508
 50
149.99999999997448
 51
269.99999999999977
  0
ARC
  8
_0-0_計極細
  6
CONTINUOUS
 62
    2
 10
1367.4889649814331
 20
1151.6238620909967
 40
0.501740082747087
 50
269.99999999999977
 51
329.999999999995
  0
LINE
  8
_0-0_計極細
  6
CONTINUOUS
 62
    2
 10
1374.6937124559872
 20
1156.0749787332993
 11
1372.7032253212883
 21
1152.6273482773954
  0
ARC
  8
_0-0_計極細
  6
CONTINUOUS
 62
    2
 10
1365.4937213317226
 20
1176.2655540679821
 40
1.0034861863992508
 50
42.394033999974049
 51
149.99999999997448
  0
ARC
  8
_0-0_計極細
  6
CONTINUOUS
 62
    2
 10
1368.8120949974427
 20
1172.9817885646426
 40
0.501740082747087
 50
330.00000000003996
 51
35.887062000032259
  0
ARC
  8
_0-0_計極細
  6
CONTINUOUS
 62
    2
 10
1371.5224836894349
 20
1167.6414805770096
 40
1.0034861863992508
 50
27.517836000010465
 51
150.00000000000043
  0
LINE
  8
_0-0_計極細
  6
CONTINUOUS
 62
    2
 10
1336.9844467906496
 20
1121.8120539128117
 11
1336.9844467906496
 21
1123.678765562905
  0
LINE
  8
_0-0_計極細
  6
CONTINUOUS
 62
    2
 10
1337.486192894301
 20
1121.8446444647402
 11
1337.486192894301
 21
1122.8097155313467
  0
LINE
  8
_0-0_計極細
  6
CONTINUOUS
 62
    2
 10
1336.9844467906496
 20
1174.0497971187528
 11
1336.9844467906496
 21
1175.9165112962473
  0
LINE
  8
_0-0_計極細
  6
CONTINUOUS
 62
    2
 10
1337.486192894301
 20
1174.9188469335554
 11
1337.486192894301
 21
1175.8839207443189
  0
ARC
  8
_0-0_計極細
  6
CONTINUOUS
 62
    2
 10
1209.0561915253984
 20
1177.8642826044445
 40
54.312365187078854
 50
327.72737804884275
 51
36.099154316385302
  0
ARC
  8
_0-0_計極細
  6
CONTINUOUS
 62
    2
 10
1300.9002552904503
 20
1119.8642826046207
 40
54.312365187078854
 50
147.72737804884292
 51
216.09915431639362
  0
LINE
  8
_0-1_計細線
  6
CONTINUOUS
 62
    3
 10
1120.9792205215031
 20
1201.8642826045293
 11
1120.9792205215031
 21
1193.8642826045293
  0
LINE
  8
_0-1_計細線
  6
CONTINUOUS
 62
    3
 10
1120.9792205215031
 20
1187.8642826045293
 11
1120.9792205215031
 21
1179.8642826045302
  0
LINE
  8
_0-1_計細線
  6
CONTINUOUS
 62
    3
 10
1120.9792205215031
 20
1173.8642826045293
 11
1120.9792205215031
 21
1165.8642826045298
  0
LINE
  8
_0-1_計細線
  6
CONTINUOUS
 62
    3
 10
1120.9792205215031
 20
1159.8642826045293
 11
1120.9792205215031
 21
1151.8642826045298
  0
LINE
  8
_0-1_計細線
  6
CONTINUOUS
 62
    3
 10
1120.9792205215031
 20
1145.8642826045293
 11
1120.9792205215031
 21
1137.8642826045293
  0
LINE
  8
_0-1_計細線
  6
CONTINUOUS
 62
    3
 10
1120.9792205215031
 20
1131.8642826045293
 11
1120.9792205215031
 21
1123.8642826045293
  0
LINE
  8
_0-1_計細線
  6
CONTINUOUS
 62
    3
 10
1120.9792205215031
 20
1117.8642826045293
 11
1120.9792205215031
 21
1109.8642826045293
  0
LINE
  8
_0-1_計細線
  6
CONTINUOUS
 62
    3
 10
1120.9792205215031
 20
1103.8642826045293
 11
1120.9792205215031
 21
1095.8642826045293
  0
LINE
  8
_0-1_計細線
  6
CONTINUOUS
 62
    3
 10
1120.9792205215031
 20
1209.8642826045293
 11
1120.9792205215031
 21
1205.8642826045293
  0
LINE
  8
_0-1_計細線
  6
CONTINUOUS
 62
    3
 10
1120.9792205215031
 20
1091.8642826045293
 11
1120.9792205215031
 21
1087.8642826045293
  0
LINE
  8
_0-1_計細線
  6
CONTINUOUS
 62
    3
 10
1252.9405054907456
 20
1209.8642826045293
 11
1120.9792205215031
 21
1209.8642826045293
  0
LINE
  8
_0-1_計細線
  6
CONTINUOUS
 62
    3
 10
1120.9792205215031
 20
1205.8642826045293
 11
1255.5947025910727
 21
1205.8642826045293
  0
LINE
  8
_0-1_計細線
  6
CONTINUOUS
 62
    3
 10
1257.7781887362125
 20
1201.8642826045293
 11
1120.9792205215031
 21
1201.8642826045293
  0
LINE
  8
_0-1_計細線
  6
CONTINUOUS
 62
    3
 10
1120.9792205215031
 20
1193.8642826045293
 11
1260.9583399608136
 21
1193.8642826045293
  0
LINE
  8
_0-1_計細線
  6
CONTINUOUS
 62
    3
 10
1262.4400187787242
 20
1187.8642826045293
 11
1120.9792205215031
 21
1187.8642826045293
  0
LINE
  8
_0-1_計細線
  6
CONTINUOUS
 62
    3
 10
1120.9792205215031
 20
1179.8642826045302
 11
1263.3317201936143
 21
1179.8642826045302
  0
LINE
  8
_0-1_計細線
  6
CONTINUOUS
 62
    3
 10
1263.2210603262674
 20
1173.8642826045293
 11
1120.9792205215031
 21
1173.8642826045293
  0
LINE
  8
_0-1_計細線
  6
CONTINUOUS
 62
    3
 10
1120.9792205215031
 20
1165.8642826045298
 11
1262.0263058561859
 21
1165.8642826045298
  0
LINE
  8
_0-1_計細線
  6
CONTINUOUS
 62
    3
 10
1260.2990740771993
 20
1159.8642826045293
 11
1120.9792205215031
 21
1159.8642826045293
  0
LINE
  8
_0-1_計細線
  6
CONTINUOUS
 62
    3
 10
1120.9792205215031
 20
1151.8642826045298
 11
1256.7409166710786
 21
1151.8642826045298
  0
LINE
  8
_0-1_計細線
  6
CONTINUOUS
 62
    3
 10
1253.2155301447674
 20
1145.8642826045293
 11
1120.9792205215031
 21
1145.8642826045293
  0
LINE
  8
_0-1_計細線
  6
CONTINUOUS
 62
    3
 10
1120.9792205215031
 20
1137.8642826045293
 11
1249.6573727386476
 21
1137.8642826045293
  0
LINE
  8
_0-1_計細線
  6
CONTINUOUS
 62
    3
 10
1247.9301409596619
 20
1131.8642826045293
 11
1120.9792205215031
 21
1131.8642826045293
  0
LINE
  8
_0-1_計細線
  6
CONTINUOUS
 62
    3
 10
1120.9792205215031
 20
1123.8642826045293
 11
1246.7353864895813
 21
1123.8642826045293
  0
LINE
  8
_0-1_計細線
  6
CONTINUOUS
 62
    3
 10
1246.6247266222354
 20
1117.8642826045293
 11
1120.9792205215031
 21
1117.8642826045293
  0
LINE
  8
_0-1_計細線
  6
CONTINUOUS
 62
    3
 10
1120.9792205215031
 20
1109.8642826045293
 11
1247.5164280371264
 21
1109.8642826045293
  0
LINE
  8
_0-1_計細線
  6
CONTINUOUS
 62
    3
 10
1248.9981068550369
 20
1103.8642826045293
 11
1120.9792205215031
 21
1103.8642826045293
  0
LINE
  8
_0-1_計細線
  6
CONTINUOUS
 62
    3
 10
1120.9792205215031
 20
1095.8642826045293
 11
1252.1782580796398
 21
1095.8642826045293
  0
LINE
  8
_0-1_計細線
  6
CONTINUOUS
 62
    3
 10
1254.3617442247805
 20
1091.8642826045293
 11
1120.9792205215031
 21
1091.8642826045293
  0
LINE
  8
_0-1_計細線
  6
CONTINUOUS
 62
    3
 10
1120.9792205215031
 20
1087.8642826045293
 11
1257.0159413251076
 21
1087.8642826045293
  0
LINE
  8
_0-5_寸法線
  6
CONTINUOUS
 62
    7
 10
819.47922052150295
 20
1060.8642826045293
 11
819.47922052150261
 21
988.86428260452931
  0
LINE
  8
_0-5_寸法線
  6
CONTINUOUS
 62
    7
 10
819.47922052150261
 20
996.86428260452931
 11
834.93403374212767
 21
1001.0053873261696
  0
LINE
  8
_0-5_寸法線
  6
CONTINUOUS
 62
    7
 10
819.47922052150261
 20
996.86428260452931
 11
834.93403374212767
 21
992.72317788288899
  0
LINE
  8
_0-5_寸法線
  6
CONTINUOUS
 62
    7
 10
1335.4792205215026
 20
1060.8642826045293
 11
1335.4792205215026
 21
988.86428260452931
  0
LINE
  8
_0-5_寸法線
  6
CONTINUOUS
 62
    7
 10
1335.4792205215026
 20
996.86428260452931
 11
1320.0244073008776
 21
992.72317788288899
  0
LINE
  8
_0-5_寸法線
  6
CONTINUOUS
 62
    7
 10
1335.4792205215026
 20
996.86428260452931
 11
1320.0244073008776
 21
1001.0053873261697
  0
LINE
  8
_0-5_寸法線
  6
CONTINUOUS
 62
    7
 10
819.47922052150261
 20
996.86428260452931
 11
1335.4792205215026
 21
996.86428260452931
  0
TEXT
  8
_0-5_寸法線
 62
    7
 10
1059.4792205215026
 20
996.86428260452931
 40
24
 41
1
 50
0
  1
516
  0
LINE
  8
_0-5_寸法線
  6
CONTINUOUS
 62
    7
 10
1335.4792205215026
 20
996.86428260452931
 11
1350.9340337421277
 21
1001.0053873261695
  0
LINE
  8
_0-5_寸法線
  6
CONTINUOUS
 62
    7
 10
1335.4792205215026
 20
996.86428260452931
 11
1350.9340337421277
 21
992.72317788288888
  0
LINE
  8
_0-5_寸法線
  6
CONTINUOUS
 62
    7
 10
1415.4792205215026
 20
1060.8642826045293
 11
1415.4792205215026
 21
988.86428260452931
  0
LINE
  8
_0-5_寸法線
  6
CONTINUOUS
 62
    7
 10
1415.4792205215026
 20
996.86428260452931
 11
1400.0244073008776
 21
992.72317788288899
  0
LINE
  8
_0-5_寸法線
  6
CONTINUOUS
 62
    7
 10
1415.4792205215026
 20
996.86428260452931
 11
1400.0244073008776
 21
1001.0053873261697
  0
LINE
  8
_0-5_寸法線
  6
CONTINUOUS
 62
    7
 10
1335.4792205215026
 20
996.86428260452931
 11
1415.4792205215026
 21
996.86428260452931
  0
TEXT
  8
_0-5_寸法線
 62
    7
 10
1363.4792205215026
 20
996.86428260452931
 40
24
 41
1
 50
0
  1
80
  0
ARC
  8
_0-1_計細線
  6
CONTINUOUS
 62
    3
 10
820.47922052150307
 20
835.86428260452919
 40
1
 50
89.999999999999915
 51
179.99999999998698
  0
LINE
  8
_0-1_計細線
  6
CONTINUOUS
 62
    3
 10
819.47922052150307
 20
828.86428260452919
 11
819.47922052150307
 21
835.86428260452942
  0
ARC
  8
_0-1_計細線
  6
CONTINUOUS
 62
    3
 10
1414.4792205215026
 20
835.86428260452931
 40
1
 50
0
 51
89.999999999999915
  0
LINE
  8
_0-1_計細線
  6
CONTINUOUS
 62
    3
 10
1415.4792205215026
 20
828.86428260452931
 11
1415.4792205215026
 21
835.86428260452931
  0
ARC
  8
_0-1_計細線
  6
CONTINUOUS
 62
    3
 10
1405.4792205215026
 20
835.86428260452931
 40
1
 50
89.999999999999915
 51
179.99999999999983
  0
LINE
  8
_0-1_計細線
  6
CONTINUOUS
 62
    3
 10
1414.7792205215028
 20
828.86428260452931
 11
1415.4792205215026
 21
828.86428260452931
  0
LINE
  8
_0-1_計細線
  6
CONTINUOUS
 62
    3
 10
1405.1792205215029
 20
836.16428260452938
 11
1405.1792205215029
 21
828.86428260452931
  0
LINE
  8
_0-1_計細線
  6
CONTINUOUS
 62
    3
 10
1405.1792205215029
 20
828.86428260452931
 11
1414.7792205215028
 21
828.86428260452931
  0
LINE
  8
_0-1_計細線
  6
CONTINUOUS
 62
    3
 10
1414.7792205215028
 20
828.86428260452931
 11
1414.7792205215028
 21
836.16428260452938
  0
LINE
  8
_0-1_計細線
  6
CONTINUOUS
 62
    3
 10
1414.7792205215028
 20
836.16428260452938
 11
1405.1792205215029
 21
836.16428260452938
  0
LINE
  8
_0-1_計細線
  6
CONTINUOUS
 62
    3
 10
1414.4792205215026
 20
836.86428260452931
 11
1404.9792205215031
 21
836.86428260452931
  0
LINE
  8
_0-1_計細線
  6
CONTINUOUS
 62
    3
 10
819.47922052150307
 20
828.86428260453067
 11
1335.4792205215031
 21
828.86428260453067
  0
LINE
  8
_0-1_計細線
  6
CONTINUOUS
 62
    3
 10
1404.9792205215031
 20
836.86428260452931
 11
820.47922052150352
 21
836.86428260452931
  0
ARC
  8
_0-1_計細線
  6
CONTINUOUS
 62
    3
 10
831.47922052150307
 20
816.36428260452942
 40
1
 50
179.99999999999983
 51
269.99999999999977
  0
LINE
  8
_0-1_計細線
  6
CONTINUOUS
 62
    3
 10
830.47922052150307
 20
816.36428260452942
 11
830.47922052150307
 21
828.86428260453079
  0
ARC
  8
_0-1_計細線
  6
CONTINUOUS
 62
    3
 10
1394.4792205215031
 20
814.56428260452935
 40
0.8
 50
89.999999999999915
 51
179.99999999999983
  0
LINE
  8
_0-1_計細線
  6
CONTINUOUS
 62
    3
 10
1394.4792205215031
 20
815.36428260452931
 11
1404.1792205215029
 21
815.36428260452931
  0
LINE
  8
_0-1_計細線
  6
CONTINUOUS
 62
    3
 10
1393.6792205215033
 20
814.56428260452935
 11
1393.6792205215033
 21
812.86428260452931
  0
ARC
  8
_0-1_計細線
  6
CONTINUOUS
 62
    3
 10
1404.1792205215029
 20
816.36428260452931
 40
1
 50
269.99999999999977
 51
359.99999999999966
  0
LINE
  8
_0-1_計細線
  6
CONTINUOUS
 62
    3
 10
1405.1792205215029
 20
828.86428260452931
 11
1405.1792205215029
 21
816.36428260452931
  0
LINE
  8
_0-1_計細線
  6
CONTINUOUS
 62
    3
 10
1404.4792205215026
 20
835.86428260452931
 11
1404.4792205215026
 21
816.06428260452935
  0
LINE
  8
_0-1_計細線
  6
CONTINUOUS
 62
    3
 10
1394.4792205215035
 20
816.06428260452935
 11
1404.4792205215026
 21
816.06428260452935
  0
ARC
  8
_0-1_計細線
  6
CONTINUOUS
 62
    3
 10
1394.4792205215035
 20
814.56428260452935
 40
1.5
 50
89.999999999999915
 51
179.99999999999983
  0
LINE
  8
_0-1_計細線
  6
CONTINUOUS
 62
    3
 10
1392.9792205215035
 20
814.56428260452935
 11
1392.9792205215035
 21
812.86428260452954
  0
ARC
  8
_0-1_計細線
  6
CONTINUOUS
 62
    3
 10
1392.1792205215033
 20
812.86428260452965
 40
0.8
 50
284.47751218588252
 51
359.99999999999147
  0
ARC
  8
_0-1_計細線
  6
CONTINUOUS
 62
    3
 10
1392.1792205215033
 20
812.86428260452931
 40
1.5
 50
277.66225566074115
 51
359.99999999999966
  0
LINE
  8
_0-1_計細線
  6
CONTINUOUS
 62
    3
 10
1278.9793466815295
 20
811.86429932453302
 11
1284.4792205215031
 21
811.86429932453302
  0
LINE
  8
_0-1_計細線
  6
CONTINUOUS
 62
    3
 10
1279.7404445215029
 20
811.86429932453302
 11
1335.4792205215031
 21
811.86429932453302
  0
LINE
  8
_0-0_計極細
  6
CONTINUOUS
 62
    2
 10
1362.4792205215031
 20
792.86429932453302
 11
1385.4582205215024
 21
792.86429932453302
  0
LINE
  8
_0-0_計極細
  6
CONTINUOUS
 62
    2
 10
1373.7292205215031
 20
787.66429932453275
 11
1362.4792205215031
 21
787.66429932453275
  0
LINE
  8
_0-0_計極細
  6
CONTINUOUS
 62
    2
 10
1385.4582205215024
 20
814.07136332453274
 11
1392.3792205215027
 21
815.05712033920281
  0
LINE
  8
_0-0_計極細
  6
CONTINUOUS
 62
    2
 10
1362.4792205215031
 20
792.56863532453281
 11
1362.4792205215031
 21
794.04638832453293
  0
LINE
  8
_0-0_計極細
  6
CONTINUOUS
 62
    2
 10
1362.4792205215031
 20
793.66429932453275
 11
1383.9792205215031
 21
793.66429932453275
  0
LINE
  8
_0-0_計極細
  6
CONTINUOUS
 62
    2
 10
1378.9792205215031
 20
807.17214232453307
 11
1378.9792205215031
 21
808.07136332453274
  0
LINE
  8
_0-0_計極細
  6
CONTINUOUS
 62
    2
 10
1378.9792205215031
 20
807.17214232453307
 11
1335.4792205215031
 21
807.17214232453307
  0
LINE
  8
_0-0_計極細
  6
CONTINUOUS
 62
    2
 10
1378.9792205215031
 20
802.57214232453271
 11
1335.4792205215031
 21
802.57214232453316
  0
LINE
  8
_0-0_計極細
  6
CONTINUOUS
 62
    2
 10
1378.9792205215031
 20
801.07214232453271
 11
1378.9792205215031
 21
802.57214232453271
  0
LINE
  8
_0-0_計極細
  6
CONTINUOUS
 62
    2
 10
1375.2292205215031
 20
805.47747332453309
 11
1375.2292205215031
 21
804.17747332453291
  0
LINE
  8
_0-0_計極細
  6
CONTINUOUS
 62
    2
 10
1375.2292205215031
 20
803.17747332453291
 11
1375.2292205215031
 21
802.67747332453291
  0
LINE
  8
_0-0_計極細
  6
CONTINUOUS
 62
    2
 10
1378.8292205215034
 20
805.47747332453309
 11
1378.8292205215034
 21
802.67747332453291
  0
LINE
  8
_0-0_計極細
  6
CONTINUOUS
 62
    2
 10
1335.4792205215031
 20
802.67747332453291
 11
1378.8292205215034
 21
802.67747332453291
  0
LINE
  8
_0-0_計極細
  6
CONTINUOUS
 62
    2
 10
1335.4792205215031
 20
803.67747332453291
 11
1374.7292205215031
 21
803.67747332453291
  0
LINE
  8
_0-0_計極細
  6
CONTINUOUS
 62
    2
 10
1335.4792205215031
 20
805.97747332453309
 11
1374.7292205215031
 21
805.97747332453309
  0
LINE
  8
_0-0_計極細
  6
CONTINUOUS
 62
    2
 10
1374.7292205215031
 20
805.97747332453309
 11
1375.2292205215031
 21
806.47747332453309
  0
LINE
  8
_0-0_計極細
  6
CONTINUOUS
 62
    2
 10
1375.2292205215031
 20
805.47747332453309
 11
1374.7292205215031
 21
805.97747332453309
  0
LINE
  8
_0-0_計極細
  6
CONTINUOUS
 62
    2
 10
1375.2292205215031
 20
803.17747332453291
 11
1374.7292205215031
 21
803.67747332453291
  0
LINE
  8
_0-0_計極細
  6
CONTINUOUS
 62
    2
 10
1374.7292205215031
 20
803.67747332453291
 11
1375.2292205215031
 21
804.17747332453291
  0
LINE
  8
_0-0_計極細
  6
CONTINUOUS
 62
    2
 10
1378.8292205215034
 20
805.47747332453309
 11
1379.6292205215027
 21
806.97747332453309
  0
LINE
  8
_0-0_計極細
  6
CONTINUOUS
 62
    2
 10
1375.2292205215031
 20
806.97747332453309
 11
1375.2292205215031
 21
806.47747332453309
  0
LINE
  8
_0-0_計極細
  6
CONTINUOUS
 62
    2
 10
1335.4792205215031
 20
806.97747332453309
 11
1379.6292205215027
 21
806.97747332453309
  0
LINE
  8
_0-0_計極細
  6
CONTINUOUS
 62
    2
 10
1335.6792205215038
 20
808.07136332453319
 11
1379.2792205215042
 21
808.07136332453274
  0
LINE
  8
_0-0_計極細
  6
CONTINUOUS
 62
    2
 10
1335.6792205215038
 20
809.07136332453319
 11
1378.6792205215038
 21
809.07136332453274
  0
ARC
  8
_0-0_計極細
  6
CONTINUOUS
 62
    2
 10
1381.4292205215038
 20
813.07136332453274
 40
0.5
 50
24.054549000092944
 51
89.999999999999929
  0
ARC
  8
_0-0_計極細
  6
CONTINUOUS
 62
    2
 10
1381.7292205215031
 20
811.77136332453301
 40
0.1999999999999886
 50
269.99999999999977
 51
359.99999999999966
  0
ARC
  8
_0-0_計極細
  6
CONTINUOUS
 62
    2
 10
1381.4292205215038
 20
813.07136332453274
 40
0.5
 50
0
 51
24.054549000092944
  0
ARC
  8
_0-0_計極細
  6
CONTINUOUS
 62
    2
 10
1379.2792205215042
 20
808.57136332453274
 40
0.5
 50
269.99999999999977
 51
359.99999999999966
  0
LINE
  8
_0-0_計極細
  6
CONTINUOUS
 62
    2
 10
1378.6792205215038
 20
808.07136332453274
 11
1378.6792205215038
 21
809.07136332453274
  0
LINE
  8
_0-0_計極細
  6
CONTINUOUS
 62
    2
 10
1379.7792205215042
 20
808.57136332453274
 11
1379.7792205215042
 21
811.57136332453274
  0
LINE
  8
_0-0_計極細
  6
CONTINUOUS
 62
    2
 10
1379.7792205215042
 20
811.57136332453274
 11
1381.7292205215031
 21
811.57136332453274
  0
LINE
  8
_0-0_計極細
  6
CONTINUOUS
 62
    2
 10
1335.4792205215031
 20
813.57136332453319
 11
1381.4292205215038
 21
813.57136332453274
  0
LINE
  8
_0-0_計極細
  6
CONTINUOUS
 62
    2
 10
1381.9292205215038
 20
811.77136332453301
 11
1381.9292205215038
 21
813.07136332453274
  0
LINE
  8
_0-0_計極細
  6
CONTINUOUS
 62
    2
 10
1366.7655335215036
 20
794.87136332453292
 11
1366.7655335215036
 21
796.57136332453274
  0
LINE
  8
_0-0_計極細
  6
CONTINUOUS
 62
    2
 10
1370.2655335215036
 20
794.87136332453292
 11
1370.2655335215036
 21
796.57136332453274
  0
LINE
  8
_0-0_計極細
  6
CONTINUOUS
 62
    2
 10
1365.2655335215036
 20
794.87136332453292
 11
1365.2655335215036
 21
796.57136332453274
  0
LINE
  8
_0-0_計極細
  6
CONTINUOUS
 62
    2
 10
1365.2655335215036
 20
794.87136332453292
 11
1370.2655335215036
 21
794.87136332453292
  0
LINE
  8
_0-0_計極細
  6
CONTINUOUS
 62
    2
 10
1378.4792205215031
 20
796.57136332453274
 11
1383.9792205215031
 21
796.57136332453274
  0
LINE
  8
_0-0_計極細
  6
CONTINUOUS
 62
    2
 10
1377.6490365215027
 20
794.57136332453274
 11
1378.4792205215031
 21
794.57136332453274
  0
LINE
  8
_0-0_計極細
  6
CONTINUOUS
 62
    2
 10
1378.4792205215031
 20
799.27136332453301
 11
1379.7792205215042
 21
799.27136332453301
  0
LINE
  8
_0-0_計極細
  6
CONTINUOUS
 62
    2
 10
1378.4792205215031
 20
798.57136332453274
 11
1380.4792205215031
 21
798.57136332453274
  0
LINE
  8
_0-0_計極細
  6
CONTINUOUS
 62
    2
 10
1376.2292205215031
 20
796.67214232453307
 11
1376.2292205215031
 21
800.57136332453274
  0
LINE
  8
_0-0_計極細
  6
CONTINUOUS
 62
    2
 10
1378.4792205215031
 20
794.57136332453274
 11
1378.4792205215031
 21
800.57136332453274
  0
LINE
  8
_0-0_計極細
  6
CONTINUOUS
 62
    2
 10
1385.4582205215024
 20
798.05036332453301
 11
1383.9792205215031
 21
796.57136332453274
  0
LINE
  8
_0-0_計極細
  6
CONTINUOUS
 62
    2
 10
1380.4792205215031
 20
798.57136332453274
 11
1380.4792205215031
 21
809.82136332453274
  0
ARC
  8
_0-0_計極細
  6
CONTINUOUS
 62
    2
 10
1381.5292205215042
 20
809.82136332453274
 40
1.0500000000000114
 50
89.999999999999915
 51
179.99999999999983
  0
LINE
  8
_0-0_計極細
  6
CONTINUOUS
 62
    2
 10
1382.7204445215043
 20
810.87136332453292
 11
1381.5292205215042
 21
810.87136332453292
  0
ARC
  8
_0-0_計極細
  6
CONTINUOUS
 62
    2
 10
1382.7204445215043
 20
812.57136332453274
 40
1.6999999999999886
 50
269.99999999999977
 51
356.64911199999773
  0
ARC
  8
_0-0_計極細
  6
CONTINUOUS
 62
    2
 10
1382.7204445215043
 20
812.57136332453274
 40
1
 50
269.99999999999977
 51
356.64911199999977
  0
ARC
  8
_0-0_計極細
  6
CONTINUOUS
 62
    2
 10
1385.4582205215024
 20
812.32136332453274
 40
1.75
 50
89.999999999999915
 51
175.8490099999841
  0
ARC
  8
_0-0_計極細
  6
CONTINUOUS
 62
    2
 10
1381.5292205215042
 20
809.82136332453274
 40
1.75
 50
89.999999999999915
 51
179.99999999999983
  0
LINE
  8
_0-0_計極細
  6
CONTINUOUS
 62
    2
 10
1381.9792205215031
 20
811.57136332453274
 11
1381.9792205215031
 21
814.07136332453274
  0
LINE
  8
_0-0_計極細
  6
CONTINUOUS
 62
    2
 10
1379.7792205215042
 20
799.27136332453301
 11
1379.7792205215042
 21
809.82136332453274
  0
LINE
  8
_0-0_計極細
  6
CONTINUOUS
 62
    2
 10
1382.7204445215043
 20
811.57136332453274
 11
1381.5292205215042
 21
811.57136332453274
  0
LINE
  8
_0-0_計極細
  6
CONTINUOUS
 62
    2
 10
1375.7292205215031
 20
800.57136332453274
 11
1379.7792205215042
 21
800.57136332453274
  0
LINE
  8
_0-0_計極細
  6
CONTINUOUS
 62
    2
 10
1335.4792205215031
 20
814.07136332453319
 11
1385.4582205215024
 21
814.07136332453274
  0
LINE
  8
_0-0_計極細
  6
CONTINUOUS
 62
    2
 10
1363.0363815215037
 20
796.57136332453274
 11
1372.9775275215029
 21
796.57136332453274
  0
ARC
  8
_0-0_計極細
  6
CONTINUOUS
 62
    2
 10
1373.7292205215031
 20
786.66429932453275
 40
1
 50
89.999999999999915
 51
179.99999999999983
  0
ARC
  8
_0-0_計極細
  6
CONTINUOUS
 62
    2
 10
1373.7292205215031
 20
786.66429932453275
 40
1
 50
0
 51
89.999999999999915
  0
LINE
  8
_0-0_計極細
  6
CONTINUOUS
 62
    2
 10
1392.3792205215027
 20
812.66429932453275
 11
1385.4582205215024
 21
811.86429932453302
  0
LINE
  8
_0-0_計極細
  6
CONTINUOUS
 62
    2
 10
1385.4582205215024
 20
792.86429932453302
 11
1383.9792205215031
 21
793.66429932453275
  0
LINE
  8
_0-0_計極細
  6
CONTINUOUS
 62
    2
 10
1383.9792205215031
 20
793.66429932453275
 11
1383.9792205215031
 21
796.57136332453274
  0
LINE
  8
_0-1_計細線
  6
CONTINUOUS
 62
    3
 10
1335.4792205215031
 20
786.33417232453303
 11
1284.9792205215031
 21
786.33417232453303
  0
LINE
  8
_0-1_計細線
  6
CONTINUOUS
 62
    3
 10
1278.5792205215034
 20
798.6642993245332
 11
1278.5792205215034
 21
811.86429932453302
  0
LINE
  8
_0-1_計細線
  6
CONTINUOUS
 62
    3
 10
1278.5792205215034
 20
811.86429932453302
 11
1335.4792205215031
 21
811.86429932453302
  0
LINE
  8
_0-1_計細線
  6
CONTINUOUS
 62
    3
 10
1309.9792205215031
 20
798.6642993245332
 11
1305.9792205215031
 21
798.6642993245332
  0
LINE
  8
_0-1_計細線
  6
CONTINUOUS
 62
    3
 10
1282.4792205215031
 20
798.6642993245332
 11
1278.5792205215034
 21
798.6642993245332
  0
LINE
  8
_0-1_計細線
  6
CONTINUOUS
 62
    3
 10
1309.9792205215031
 20
798.6642993245332
 11
1309.9792205215031
 21
808.6642993245332
  0
LINE
  8
_0-1_計細線
  6
CONTINUOUS
 62
    3
 10
1305.9792205215031
 20
798.6642993245332
 11
1305.9792205215031
 21
808.6642993245332
  0
LINE
  8
_0-1_計細線
  6
CONTINUOUS
 62
    3
 10
1333.4792205215031
 20
798.6642993245332
 11
1333.4792205215031
 21
808.6642993245332
  0
LINE
  8
_0-1_計細線
  6
CONTINUOUS
 62
    3
 10
1335.4792205215031
 20
798.6642993245332
 11
1333.4792205215031
 21
798.6642993245332
  0
LINE
  8
_0-1_計細線
  6
CONTINUOUS
 62
    3
 10
1335.4792205215031
 20
790.6642993245332
 11
1282.4792205215031
 21
790.6642993245332
  0
LINE
  8
_0-1_計細線
  6
CONTINUOUS
 62
    3
 10
1392.3792205215027
 20
799.21954032453323
 11
1392.3792205215027
 21
815.04287732453304
  0
LINE
  8
_0-1_計細線
  6
CONTINUOUS
 62
    3
 10
1388.4792205215031
 20
798.66429932453275
 11
1392.3792205215027
 21
798.66429932453275
  0
LINE
  8
_0-1_計細線
  6
CONTINUOUS
 62
    3
 10
1392.3792205215027
 20
798.66429932453275
 11
1392.3792205215027
 21
799.21954032453323
  0
ARC
  8
_0-1_計細線
  6
CONTINUOUS
 62
    3
 10
1390.9792205215031
 20
786.33417232453303
 40
5
 50
119.99999999999989
 51
179.99999999999983
  0
LINE
  8
_0-1_計細線
  6
CONTINUOUS
 62
    3
 10
1388.4792205215031
 20
790.66429932453275
 11
1388.4792205215031
 21
798.66429932453275
  0
ARC
  8
_0-1_計細線
  6
CONTINUOUS
 62
    3
 10
1279.9792205215031
 20
786.33417232453303
 40
5
 50
0
 51
60.000000000000107
  0
LINE
  8
_0-1_計細線
  6
CONTINUOUS
 62
    3
 10
1282.4792205215031
 20
790.6642993245332
 11
1282.4792205215031
 21
808.6642993245332
  0
LINE
  8
_0-1_計細線
  6
CONTINUOUS
 62
    3
 10
1335.4792205215031
 20
808.6642993245332
 11
1278.5792205215034
 21
808.6642993245332
  0
LINE
  8
_0-0_計極細
  6
CONTINUOUS
 62
    2
 10
1385.4582205215024
 20
813.36429877828186
 11
1392.3792205215027
 21
814.35005632453294
  0
LINE
  8
_0-0_計極細
  6
CONTINUOUS
 62
    2
 10
1385.4582205215024
 20
798.05036332453301
 11
1385.4582205215024
 21
813.37136332453292
  0
ARC
  8
_0-0_計極細
  6
CONTINUOUS
 62
    2
 10
1385.4582205215024
 20
812.32136332453274
 40
1.0500000000000114
 50
89.999999999999915
 51
175.84900999999113
  0
LINE
  8
_0-0_計極細
  6
CONTINUOUS
 62
    2
 10
1335.4792205215031
 20
792.86429932453302
 11
1360.4792045215031
 21
792.86429932453302
  0
ARC
  8
_0-0_計極細
  6
CONTINUOUS
 62
    2
 10
1368.4792205215031
 20
794.04638832453293
 40
6
 50
55.166292356146954
 51
179.99999999999983
  0
ARC
  8
_0-0_計極細
  6
CONTINUOUS
 62
    2
 10
1369.9792205215031
 20
796.67214232453307
 40
3
 50
0
 51
50.029499419945331
  0
LINE
  8
_0-0_計極細
  6
CONTINUOUS
 62
    2
 10
1372.9792205215031
 20
793.67214232453307
 11
1372.9792205215031
 21
796.67214232453307
  0
LINE
  8
_0-0_計極細
  6
CONTINUOUS
 62
    2
 10
1375.9792205215031
 20
793.67214232453307
 11
1372.9792205215031
 21
793.67214232453307
  0
ARC
  8
_0-0_計極細
  6
CONTINUOUS
 62
    2
 10
1375.9792205215031
 20
795.67214232453307
 40
2
 50
269.99999999999977
 51
359.99999999999966
  0
LINE
  8
_0-0_計極細
  6
CONTINUOUS
 62
    2
 10
1377.9792205215031
 20
795.67214232453307
 11
1377.9792205215031
 21
796.67214232453307
  0
LINE
  8
_0-0_計極細
  6
CONTINUOUS
 62
    2
 10
1377.9792205215031
 20
796.67214232453307
 11
1375.7292205215031
 21
796.67214232453307
  0
LINE
  8
_0-0_計極細
  6
CONTINUOUS
 62
    2
 10
1378.9792205215031
 20
801.07214232453271
 11
1375.7292205215031
 21
801.07214232453271
  0
LINE
  8
_0-0_計極細
  6
CONTINUOUS
 62
    2
 10
1375.7292205215031
 20
796.67214232453307
 11
1375.7292205215031
 21
801.07214232453316
  0
LINE
  8
_0-0_計極細
  6
CONTINUOUS
 62
    2
 10
1375.7292205215031
 20
801.07214232453316
 11
1335.4792205215031
 21
801.07214232453316
  0
ARC
  8
_0-0_計極細
  6
CONTINUOUS
 62
    2
 10
1362.7292205215031
 20
728.86428260452931
 40
10
 50
269.99999999999977
 51
359.99999999999966
  0
LINE
  8
_0-0_計極細
  6
CONTINUOUS
 62
    2
 10
1335.4792205215031
 20
718.86428260452931
 11
1362.7292205215031
 21
718.86428260452931
  0
LINE
  8
_0-0_計極細
  6
CONTINUOUS
 62
    2
 10
1372.7292205215031
 20
728.86428260452931
 11
1372.7292205215031
 21
786.66429932453275
  0
LINE
  8
_0-0_計極細
  6
CONTINUOUS
 62
    2
 10
1374.7292205215031
 20
728.86428260452931
 11
1374.7292205215031
 21
786.66429932453275
  0
LINE
  8
_0-0_計極細
  6
CONTINUOUS
 62
    2
 10
1336.4102545215042
 20
716.86428260452931
 11
1362.7292205215031
 21
716.86428260452931
  0
LINE
  8
_0-0_計極細
  6
CONTINUOUS
 62
    2
 10
1335.4792205215031
 20
716.86428260452931
 11
1336.4102545215042
 21
716.86428260452931
  0
ARC
  8
_0-0_計極細
  6
CONTINUOUS
 62
    2
 10
1336.975784521504
 20
707.36428260452931
 40
0.5
 50
180.3951370000056
 51
269.99999999999977
  0
LINE
  8
_0-0_計極細
  6
CONTINUOUS
 62
    2
 10
1336.4757955215023
 20
707.36083460452937
 11
1336.4103255215027
 21
716.85399960452924
  0
LINE
  8
_0-0_計極細
  6
CONTINUOUS
 62
    2
 10
1373.7292205215031
 20
679.36428260452931
 11
1373.4792205215031
 21
704.36428260452931
  0
LINE
  8
_0-0_計極細
  6
CONTINUOUS
 62
    2
 10
1383.4792205215031
 20
765.78584960452918
 11
1383.4792205215031
 21
792.86429932453302
  0
ARC
  8
_0-0_計極細
  6
CONTINUOUS
 62
    2
 10
1382.4792205215031
 20
765.78584960452918
 40
1
 50
277.18075600005386
 51
359.99999999999966
  0
ARC
  8
_0-0_計極細
  6
CONTINUOUS
 62
    2
 10
1362.7292205215031
 20
728.86428260452931
 40
12
 50
269.99999999999977
 51
359.99999999999966
  0
LINE
  8
_0-0_計極細
  6
CONTINUOUS
 62
    2
 10
1360.4792205215031
 20
706.86428260452931
 11
1360.4792205215031
 21
716.86428260452931
  0
LINE
  8
_0-0_計極細
  6
CONTINUOUS
 62
    2
 10
1362.7292205215031
 20
716.86428260452931
 11
1360.4792205215031
 21
716.86428260452931
  0
LINE
  8
_0-0_計極細
  6
CONTINUOUS
 62
    2
 10
1374.7292205215031
 20
728.86428260452931
 11
1374.7292205215031
 21
755.86428260452931
  0
LINE
  8
_0-0_計極細
  6
CONTINUOUS
 62
    2
 10
1360.4807995215028
 20
706.76160960452944
 11
1360.4792205215031
 21
706.86428260452931
  0
LINE
  8
_0-0_計極細
  6
CONTINUOUS
 62
    2
 10
1360.4792205215031
 20
706.86428260452931
 11
1335.4792205215031
 21
706.86428260452931
  0
ARC
  8
_0-0_計極細
  6
CONTINUOUS
 62
    2
 10
1375.4792205215031
 20
714.86428260452931
 40
8
 50
269.99999999999977
 51
359.99999999999636
  0
LINE
  8
_0-0_計極細
  6
CONTINUOUS
 62
    2
 10
1363.4792205215031
 20
704.36428260452931
 11
1373.4792205215031
 21
704.36428260452931
  0
LINE
  8
_0-0_計極細
  6
CONTINUOUS
 62
    2
 10
1360.9792205215031
 20
674.36428260452931
 11
1360.4792205215031
 21
706.86428260452931
  0
LINE
  8
_0-0_計極細
  6
CONTINUOUS
 62
    2
 10
1383.4792205215031
 20
714.86428260452885
 11
1383.4792205215031
 21
765.78584960452918
  0
LINE
  8
_0-0_計極細
  6
CONTINUOUS
 62
    2
 10
1375.4792205215031
 20
706.86428260452931
 11
1360.4792205215031
 21
706.86428260452931
  0
LINE
  8
_0-0_計極細
  6
CONTINUOUS
 62
    2
 10
1363.062553854837
 20
679.36428260452931
 11
1363.4792205215031
 21
704.36428260452931
  0
LINE
  8
_0-1_計細線
  6
CONTINUOUS
 62
    3
 10
1362.9792205215031
 20
674.36428260452931
 11
1363.062553854837
 21
679.36428260452931
  0
LINE
  8
_0-1_計細線
  6
CONTINUOUS
 62
    3
 10
1335.4792205215031
 20
674.36428260452931
 11
1360.0356215215029
 21
674.36428260452931
  0
ARC
  8
_0-1_計細線
  6
CONTINUOUS
 62
    3
 10
1377.9792205215031
 20
712.36428260452885
 40
8
 50
269.99999999999977
 51
359.99999999999966
  0
LINE
  8
_0-1_計細線
  6
CONTINUOUS
 62
    3
 10
1385.9792205215031
 20
712.36428260452885
 11
1385.9792205215031
 21
786.33417232453303
  0
LINE
  8
_0-1_計細線
  6
CONTINUOUS
 62
    3
 10
1376.5792205215034
 20
679.36428260452931
 11
1376.9792205215031
 21
704.36428260452931
  0
LINE
  8
_0-1_計細線
  6
CONTINUOUS
 62
    3
 10
1363.0625535215036
 20
679.36428260452931
 11
1376.5792205215034
 21
679.36428260452931
  0
LINE
  8
_0-1_計細線
  6
CONTINUOUS
 62
    3
 10
1360.0356215215029
 20
674.36428260452931
 11
1362.9792205215031
 21
674.36428260452931
  0
ARC
  8
_0-1_計細線
  6
CONTINUOUS
 62
    3
 10
1292.9792205215031
 20
712.36428260452931
 40
8
 50
179.99999999999983
 51
269.99999999999977
  0
LINE
  8
_0-1_計細線
  6
CONTINUOUS
 62
    3
 10
1335.4792205215031
 20
704.36428260452931
 11
1292.9792205215031
 21
704.36428260452931
  0
LINE
  8
_0-1_計細線
  6
CONTINUOUS
 62
    3
 10
1284.9792205215031
 20
712.36428260452931
 11
1284.9792205215031
 21
786.33417232453303
  0
LINE
  8
_0-1_計細線
  6
CONTINUOUS
 62
    3
 10
1294.3792205215027
 20
679.36428260452931
 11
1293.9792205215031
 21
704.36428260452931
  0
LINE
  8
_0-1_計細線
  6
CONTINUOUS
 62
    3
 10
1335.4792205215031
 20
679.36428260452931
 11
1294.3792205215027
 21
679.36428260452931
  0
LINE
  8
_0-1_計細線
  6
CONTINUOUS
 62
    3
 10
1307.9792205215031
 20
674.36428260452931
 11
1307.8958875215026
 21
679.36428260452931
  0
LINE
  8
_0-1_計細線
  6
CONTINUOUS
 62
    3
 10
1310.9228195215032
 20
674.36428260452931
 11
1307.9792205215031
 21
674.36428260452931
  0
LINE
  8
_0-1_計細線
  6
CONTINUOUS
 62
    3
 10
1335.4792205215031
 20
674.36428260452931
 11
1310.9228195215032
 21
674.36428260452931
  0
LINE
  8
_0-0_計極細
  6
CONTINUOUS
 62
    2
 10
1361.4792205215031
 20
734.07212560452899
 11
1335.4792205215031
 21
734.07212560452899
  0
ARC
  8
_0-0_計極細
  6
CONTINUOUS
 62
    2
 10
1361.4792045215031
 20
735.07212560452899
 40
1
 50
179.99999999999983
 51
270.00045836628669
  0
ARC
  8
_0-0_計極細
  6
CONTINUOUS
 62
    2
 10
1361.4792205215031
 20
735.07212560452899
 40
1
 50
269.99954163381682
 51
359.99999999999966
  0
LINE
  8
_0-0_計極細
  6
CONTINUOUS
 62
    2
 10
1360.4792045215031
 20
735.07212560452899
 11
1360.4792045215031
 21
792.86429932453302
  0
LINE
  8
_0-0_計極細
  6
CONTINUOUS
 62
    2
 10
1362.4792205215031
 20
735.07212560452899
 11
1362.4792205215031
 21
794.04638832453293
  0
LINE
  8
_0-0_計極細
  6
CONTINUOUS
 62
    2
 10
1382.6042205252884
 20
764.79369286335668
 11
1374.7292205215031
 21
764.79369286335668
  0
LINE
  8
_0-1_計細線
  6
CONTINUOUS
 62
    3
 10
1376.9792205215031
 20
704.36428260452931
 11
1377.9792205215031
 21
704.36428260452885
  0
LINE
  8
_0-0_計極細
  6
CONTINUOUS
 62
    2
 10
1297.2292205215031
 20
679.36428260452931
 11
1297.4792205215031
 21
704.36428260452931
  0
LINE
  8
_0-0_計極細
  6
CONTINUOUS
 62
    2
 10
1376.4919895947401
 20
679.36428260452931
 11
1376.580638910556
 21
679.45293192034569
  0
LINE
  8
_0-0_計極細
  6
CONTINUOUS
 62
    2
 10
1375.2191973886033
 20
679.36428260452931
 11
1376.6013347187868
 21
680.74641993471141
  0
LINE
  8
_0-0_計極細
  6
CONTINUOUS
 62
    2
 10
1373.9464051824684
 20
679.36428260452931
 11
1376.6220305270158
 21
682.03990794907713
  0
LINE
  8
_0-0_計極細
  6
CONTINUOUS
 62
    2
 10
1373.7187689616508
 20
680.40943858984701
 11
1376.6427263352466
 21
683.33339596344285
  0
LINE
  8
_0-0_計極細
  6
CONTINUOUS
 62
    2
 10
1373.7061670586186
 20
681.66962889295155
 11
1376.6634221434756
 21
684.62688397780857
  0
LINE
  8
_0-0_計極細
  6
CONTINUOUS
 62
    2
 10
1373.6935651555882
 20
682.92981919605654
 11
1376.6841179517064
 21
685.9203719921743
  0
LINE
  8
_0-0_計極細
  6
CONTINUOUS
 62
    2
 10
1373.6809632525578
 20
684.19000949916153
 11
1376.7048137599354
 21
687.21386000654002
  0
LINE
  8
_0-0_計極細
  6
CONTINUOUS
 62
    2
 10
1362.5824441517884
 20
674.36428260452931
 11
1362.9859455447181
 21
674.76778399745899
  0
LINE
  8
_0-0_計極細
  6
CONTINUOUS
 62
    2
 10
1373.6683613495256
 20
685.45019980226607
 11
1376.7255095681644
 21
688.50734802090574
  0
LINE
  8
_0-0_計極細
  6
CONTINUOUS
 62
    2
 10
1361.3096519456535
 20
674.36428260452931
 11
1363.0075182939759
 21
676.0621489528512
  0
LINE
  8
_0-0_計極細
  6
CONTINUOUS
 62
    2
 10
1373.6557594464953
 20
686.71039010537061
 11
1376.7462053763952
 21
689.800836035271
  0
LINE
  8
_0-0_計極細
  6
CONTINUOUS
 62
    2
 10
1360.9649423278365
 20
675.29236519284859
 11
1363.0290910432318
 21
677.35651390824387
  0
LINE
  8
_0-0_計極細
  6
CONTINUOUS
 62
    2
 10
1373.6431575434631
 20
687.9705804084756
 11
1376.7669011846242
 21
691.09432404963673
  0
LINE
  8
_0-0_計極細
  6
CONTINUOUS
 62
    2
 10
1360.9456575974414
 20
676.54587266858834
 11
1363.0506637924877
 21
678.65087886363608
  0
LINE
  8
_0-0_計極細
  6
CONTINUOUS
 62
    2
 10
1373.6305556404327
 20
689.23077071158059
 11
1376.787596992855
 21
692.38781206400245
  0
LINE
  8
_0-0_計極細
  6
CONTINUOUS
 62
    2
 10
1360.9263728670444
 20
677.7993801443281
 11
1363.0722365417455
 21
679.94524381902829
  0
LINE
  8
_0-0_計極細
  6
CONTINUOUS
 62
    2
 10
1373.6179537374023
 20
690.49096101468513
 11
1376.808292801084
 21
693.68130007836817
  0
LINE
  8
_0-0_計極細
  6
CONTINUOUS
 62
    2
 10
1360.9070881366492
 20
679.05288762006785
 11
1363.0938092910014
 21
681.2396087744205
  0
LINE
  8
_0-0_計極細
  6
CONTINUOUS
 62
    2
 10
1373.6053518343701
 20
691.75115131778966
 11
1376.8289886093148
 21
694.97478809273343
  0
LINE
  8
_0-0_計極細
  6
CONTINUOUS
 62
    2
 10
1360.8878034062523
 20
680.3063950958076
 11
1363.1153820402574
 21
682.53397372981271
  0
LINE
  8
_0-0_計極細
  6
CONTINUOUS
 62
    2
 10
1373.5927499313398
 20
693.01134162089465
 11
1376.8496844175438
 21
696.26827610709915
  0
LINE
  8
_0-0_計極細
  6
CONTINUOUS
 62
    2
 10
1360.8685186758571
 20
681.55990257154735
 11
1363.1369547895151
 21
683.82833868520538
  0
LINE
  8
_0-0_計極細
  6
CONTINUOUS
 62
    2
 10
1373.5801480283094
 20
694.27153192399919
 11
1376.8703802257746
 21
697.56176412146488
  0
LINE
  8
_0-0_計極細
  6
CONTINUOUS
 62
    2
 10
1360.8492339454601
 20
682.81341004728711
 11
1363.1585275387711
 21
685.12270364059759
  0
LINE
  8
_0-0_計極細
  6
CONTINUOUS
 62
    2
 10
1373.5675461252772
 20
695.53172222710418
 11
1376.8910760340036
 21
698.8552521358306
  0
LINE
  8
_0-0_計極細
  6
CONTINUOUS
 62
    2
 10
1360.829949215065
 20
684.06691752302731
 11
1363.180100288027
 21
686.4170685959898
  0
LINE
  8
_0-0_計極細
  6
CONTINUOUS
 62
    2
 10
1373.5549442222468
 20
696.79191253020872
 11
1376.9117718422344
 21
700.14874015019632
  0
LINE
  8
_0-0_計極細
  6
CONTINUOUS
 62
    2
 10
1382.5889016611995
 20
705.82586996916234
 11
1384.5176331568705
 21
707.75460146483238
  0
LINE
  8
_0-0_計極細
  6
CONTINUOUS
 62
    2
 10
1360.810664484668
 20
685.32042499876707
 11
1363.2016730372848
 21
687.71143355138247
  0
LINE
  8
_0-0_計極細
  6
CONTINUOUS
 62
    2
 10
1373.5423423192146
 20
698.05210283331371
 11
1376.9324676504634
 21
701.44222816456204
  0
LINE
  8
_0-0_計極細
  6
CONTINUOUS
 62
    2
 10
1380.1565081540098
 20
704.66626866810793
 11
1385.6772344579235
 21
710.1869949720226
  0
LINE
  8
_0-0_計極細
  6
CONTINUOUS
 62
    2
 10
1360.7913797542728
 20
686.57393247450682
 11
1363.2232457865407
 21
689.00579850677468
  0
LINE
  8
_0-0_計極細
  6
CONTINUOUS
 62
    2
 10
1373.5297404161843
 20
699.31229313641825
 11
1376.9531634586942
 21
702.73571617892776
  0
LINE
  8
_0-0_計極細
  6
CONTINUOUS
 62
    2
 10
1378.6063483452958
 20
704.3889010655289
 11
1385.9546020605044
 21
711.73715478073746
  0
LINE
  8
_0-0_計極細
  6
CONTINUOUS
 62
    2
 10
1360.7720950238777
 20
687.82743995024657
 11
1363.2448185357966
 21
690.30016346216689
  0
LINE
  8
_0-0_計極細
  6
CONTINUOUS
 62
    2
 10
1373.5171385131539
 20
700.57248343952324
 11
1376.9738592669232
 21
704.02920419329348
  0
LINE
  8
_0-0_計極細
  6
CONTINUOUS
 62
    2
 10
1377.3089376781586
 20
704.36428260452931
 11
1385.9792205215031
 21
713.03456544787286
  0
LINE
  8
_0-0_計極細
  6
CONTINUOUS
 62
    2
 10
1360.7528102934807
 20
689.08094742598632
 11
1363.2663912850544
 21
691.59452841755956
  0
LINE
  8
_0-0_計極細
  6
CONTINUOUS
 62
    2
 10
1373.5045366101217
 20
701.83267374262778
 11
1379.809307988829
 21
708.13744512133508
  0
LINE
  8
_0-0_計極細
  6
CONTINUOUS
 62
    2
 10
1382.2060580046978
 20
710.53419513720291
 11
1385.9792205215031
 21
714.30735765400868
  0
LINE
  8
_0-0_計極細
  6
CONTINUOUS
 62
    2
 10
1360.7335255630855
 20
690.33445490172608
 11
1363.2879640343103
 21
692.88889337295177
  0
LINE
  8
_0-0_計極細
  6
CONTINUOUS
 62
    2
 10
1373.4919347070913
 20
703.09286404573231
 11
1377.5309195565255
 21
707.13184889516651
  0
LINE
  8
_0-0_計極細
  6
CONTINUOUS
 62
    2
 10
1383.2116542308663
 20
712.8125835695073
 11
1385.9792205215031
 21
715.5801498601445
  0
LINE
  8
_0-0_計極細
  6
CONTINUOUS
 62
    2
 10
1360.7142408326886
 20
691.58796237746583
 11
1363.3095367835663
 21
694.18325832834398
  0
LINE
  8
_0-0_計極細
  6
CONTINUOUS
 62
    2
 10
1373.479332804061
 20
704.3530543488373
 11
1376.0080596218609
 21
706.88178116663812
  0
LINE
  8
_0-0_計極細
  6
CONTINUOUS
 62
    2
 10
1383.4617219593943
 20
714.33544350417151
 11
1385.9792205215031
 21
716.85294206628032
  0
LINE
  8
_0-0_計極細
  6
CONTINUOUS
 62
    2
 10
1360.6949561022934
 20
692.84146985320604
 11
1363.331109532824
 21
695.47762328373619
  0
LINE
  8
_0-0_計極細
  6
CONTINUOUS
 62
    2
 10
1372.2177688536171
 20
704.36428260452931
 11
1374.7177688536171
 21
706.86428260452931
  0
LINE
  8
_0-0_計極細
  6
CONTINUOUS
 62
    2
 10
1383.4792205215031
 20
715.62573427241614
 11
1385.9792205215031
 21
718.12573427241614
  0
LINE
  8
_0-0_計極細
  6
CONTINUOUS
 62
    2
 10
1360.6756713718964
 20
694.09497732894579
 11
1363.35268228208
 21
696.7719882391284
  0
LINE
  8
_0-0_計極細
  6
CONTINUOUS
 62
    2
 10
1370.9449766474804
 20
704.36428260452931
 11
1373.4449766474804
 21
706.86428260452931
  0
LINE
  8
_0-0_計極細
  6
CONTINUOUS
 62
    2
 10
1383.4792205215031
 20
716.89852647855196
 11
1385.9792205215031
 21
719.39852647855196
  0
LINE
  8
_0-0_計極細
  6
CONTINUOUS
 62
    2
 10
1360.6563866415013
 20
695.34848480468554
 11
1363.3742550313359
 21
698.06635319452107
  0
LINE
  8
_0-0_計極細
  6
CONTINUOUS
 62
    2
 10
1369.6721844413455
 20
704.36428260452931
 11
1372.1721844413455
 21
706.86428260452931
  0
LINE
  8
_0-0_計極細
  6
CONTINUOUS
 62
    2
 10
1383.4792205215031
 20
718.17131868468778
 11
1385.9792205215031
 21
720.67131868468778
  0
LINE
  8
_0-0_計極細
  6
CONTINUOUS
 62
    2
 10
1360.6371019111043
 20
696.60199228042529
 11
1363.3958277805937
 21
699.36071814991328
  0
LINE
  8
_0-0_計極細
  6
CONTINUOUS
 62
    2
 10
1368.3993922352088
 20
704.36428260452931
 11
1370.8993922352088
 21
706.86428260452931
  0
LINE
  8
_0-0_計極細
  6
CONTINUOUS
 62
    2
 10
1383.4792205215031
 20
719.44411089082359
 11
1385.9792205215031
 21
721.94411089082359
  0
LINE
  8
_0-0_計極細
  6
CONTINUOUS
 62
    2
 10
1360.6178171807092
 20
697.85549975616505
 11
1363.4174005298496
 21
700.65508310530549
  0
LINE
  8
_0-0_計極細
  6
CONTINUOUS
 62
    2
 10
1367.1266000290739
 20
704.36428260452931
 11
1369.6266000290739
 21
706.86428260452931
  0
LINE
  8
_0-0_計極細
  6
CONTINUOUS
 62
    2
 10
1383.4792205215031
 20
720.71690309695941
 11
1385.9792205215031
 21
723.21690309695941
  0
LINE
  8
_0-0_計極細
  6
CONTINUOUS
 62
    2
 10
1360.5985324503122
 20
699.1090072319048
 11
1363.4389732791055
 21
701.94944806069816
  0
LINE
  8
_0-0_計極細
  6
CONTINUOUS
 62
    2
 10
1365.8538078229371
 20
704.36428260452931
 11
1368.3538078229371
 21
706.86428260452885
  0
LINE
  8
_0-0_計極細
  6
CONTINUOUS
 62
    2
 10
1383.4792205215031
 20
721.98969530309523
 11
1385.9792205215031
 21
724.48969530309523
  0
LINE
  8
_0-0_計極細
  6
CONTINUOUS
 62
    2
 10
1360.579247719917
 20
700.36251470764455
 11
1363.4605460283633
 21
703.24381301609037
  0
LINE
  8
_0-0_計極細
  6
CONTINUOUS
 62
    2
 10
1364.5810156168022
 20
704.36428260452931
 11
1367.0810156168022
 21
706.86428260452931
  0
LINE
  8
_0-0_計極細
  6
CONTINUOUS
 62
    2
 10
1383.4792205215031
 20
723.26248750923105
 11
1385.9792205215031
 21
725.76248750923105
  0
LINE
  8
_0-0_計極細
  6
CONTINUOUS
 62
    2
 10
1360.55996298952
 20
701.6160221833843
 11
1365.8082234106655
 21
706.86428260452931
  0
LINE
  8
_0-0_計極細
  6
CONTINUOUS
 62
    2
 10
1383.4792205215031
 20
724.53527971536687
 11
1385.9792205215031
 21
727.03527971536687
  0
LINE
  8
_0-0_計極細
  6
CONTINUOUS
 62
    2
 10
1360.5406782591249
 20
702.86952965912405
 11
1364.5354312045306
 21
706.86428260452931
  0
LINE
  8
_0-0_計極細
  6
CONTINUOUS
 62
    2
 10
1383.4792205215031
 20
725.80807192150269
 11
1385.9792205215031
 21
728.30807192150269
  0
LINE
  8
_0-0_計極細
  6
CONTINUOUS
 62
    2
 10
1360.5213935287297
 20
704.12303713486381
 11
1363.2626389983939
 21
706.86428260452931
  0
LINE
  8
_0-0_計極細
  6
CONTINUOUS
 62
    2
 10
1383.4792205215031
 20
727.08086412763851
 11
1385.9792205215031
 21
729.58086412763851
  0
LINE
  8
_0-0_計極細
  6
CONTINUOUS
 62
    2
 10
1360.5021087983328
 20
705.37654461060356
 11
1361.989846792259
 21
706.86428260452931
  0
LINE
  8
_0-0_計極細
  6
CONTINUOUS
 62
    2
 10
1383.4792205215031
 20
728.35365633377387
 11
1385.9792205215031
 21
730.85365633377387
  0
LINE
  8
_0-0_計極細
  6
CONTINUOUS
 62
    2
 10
1360.4828240679376
 20
706.63005208634331
 11
1360.7170545861222
 21
706.86428260452931
  0
LINE
  8
_0-0_計極細
  6
CONTINUOUS
 62
    2
 10
1383.4792205215031
 20
729.62644853990969
 11
1385.9792205215031
 21
732.12644853990969
  0
LINE
  8
_0-0_計極細
  6
CONTINUOUS
 62
    2
 10
1383.4792205215031
 20
730.89924074604551
 11
1385.9792205215031
 21
733.39924074604551
  0
LINE
  8
_0-0_計極細
  6
CONTINUOUS
 62
    2
 10
1383.4792205215031
 20
732.17203295218133
 11
1385.9792205215031
 21
734.67203295218133
  0
LINE
  8
_0-0_計極細
  6
CONTINUOUS
 62
    2
 10
1383.4792205215031
 20
733.44482515831714
 11
1385.9792205215031
 21
735.94482515831714
  0
LINE
  8
_0-0_計極細
  6
CONTINUOUS
 62
    2
 10
1383.4792205215031
 20
734.71761736445296
 11
1385.9792205215031
 21
737.21761736445296
  0
LINE
  8
_0-0_計極細
  6
CONTINUOUS
 62
    2
 10
1383.4792205215031
 20
735.99040957058878
 11
1385.9792205215031
 21
738.49040957058878
  0
LINE
  8
_0-0_計極細
  6
CONTINUOUS
 62
    2
 10
1383.4792205215031
 20
737.2632017767246
 11
1385.9792205215031
 21
739.7632017767246
  0
LINE
  8
_0-0_計極細
  6
CONTINUOUS
 62
    2
 10
1383.4792205215031
 20
738.53599398286042
 11
1385.9792205215031
 21
741.03599398286042
  0
LINE
  8
_0-0_計極細
  6
CONTINUOUS
 62
    2
 10
1383.4792205215031
 20
739.80878618899624
 11
1385.9792205215031
 21
742.30878618899624
  0
LINE
  8
_0-0_計極細
  6
CONTINUOUS
 62
    2
 10
1383.4792205215031
 20
741.08157839513206
 11
1385.9792205215031
 21
743.58157839513206
  0
LINE
  8
_0-0_計極細
  6
CONTINUOUS
 62
    2
 10
1383.4792205215031
 20
742.35437060126787
 11
1385.9792205215031
 21
744.85437060126787
  0
LINE
  8
_0-0_計極細
  6
CONTINUOUS
 62
    2
 10
1383.4792205215031
 20
743.62716280740369
 11
1385.9792205215031
 21
746.12716280740369
  0
LINE
  8
_0-0_計極細
  6
CONTINUOUS
 62
    2
 10
1383.4792205215031
 20
744.89995501353951
 11
1385.9792205215031
 21
747.39995501353951
  0
LINE
  8
_0-0_計極細
  6
CONTINUOUS
 62
    2
 10
1383.4792205215031
 20
746.17274721967533
 11
1385.9792205215031
 21
748.67274721967533
  0
LINE
  8
_0-0_計極細
  6
CONTINUOUS
 62
    2
 10
1383.4792205215031
 20
747.44553942581115
 11
1385.9792205215031
 21
749.94553942581115
  0
LINE
  8
_0-0_計極細
  6
CONTINUOUS
 62
    2
 10
1383.4792205215031
 20
748.71833163194697
 11
1385.9792205215031
 21
751.21833163194697
  0
LINE
  8
_0-0_計極細
  6
CONTINUOUS
 62
    2
 10
1383.4792205215031
 20
749.99112383808233
 11
1385.9792205215031
 21
752.49112383808233
  0
LINE
  8
_0-0_計極細
  6
CONTINUOUS
 62
    2
 10
1383.4792205215031
 20
751.26391604421815
 11
1385.9792205215031
 21
753.76391604421815
  0
LINE
  8
_0-0_計極細
  6
CONTINUOUS
 62
    2
 10
1383.4792205215031
 20
752.53670825035397
 11
1385.9792205215031
 21
755.03670825035397
  0
LINE
  8
_0-0_計極細
  6
CONTINUOUS
 62
    2
 10
1383.4792205215031
 20
753.80950045648979
 11
1385.9792205215031
 21
756.30950045648979
  0
LINE
  8
_0-0_計極細
  6
CONTINUOUS
 62
    2
 10
1383.4792205215031
 20
755.0822926626256
 11
1385.9792205215031
 21
757.5822926626256
  0
LINE
  8
_0-0_計極細
  6
CONTINUOUS
 62
    2
 10
1383.4792205215031
 20
756.35508486876142
 11
1385.9792205215031
 21
758.85508486876142
  0
LINE
  8
_0-0_計極細
  6
CONTINUOUS
 62
    2
 10
1383.4792205215031
 20
757.62787707489724
 11
1385.9792205215031
 21
760.12787707489724
  0
LINE
  8
_0-0_計極細
  6
CONTINUOUS
 62
    2
 10
1383.4792205215031
 20
758.90066928103306
 11
1385.9792205215031
 21
761.40066928103306
  0
LINE
  8
_0-0_計極細
  6
CONTINUOUS
 62
    2
 10
1383.4792205215031
 20
760.17346148716842
 11
1385.9792205215031
 21
762.67346148716888
  0
LINE
  8
_0-0_計極細
  6
CONTINUOUS
 62
    2
 10
1383.4792205215031
 20
761.44625369330424
 11
1385.9792205215031
 21
763.9462536933047
  0
LINE
  8
_0-0_計極細
  6
CONTINUOUS
 62
    2
 10
1383.4792205215031
 20
762.71904589944006
 11
1385.9792205215031
 21
765.21904589944006
  0
LINE
  8
_0-0_計極細
  6
CONTINUOUS
 62
    2
 10
1383.4792205215031
 20
763.99183810557588
 11
1385.9792205215031
 21
766.49183810557588
  0
LINE
  8
_0-0_計極細
  6
CONTINUOUS
 62
    2
 10
1383.4792205215031
 20
765.2646303117117
 11
1385.9792205215031
 21
767.7646303117117
  0
LINE
  8
_0-0_計極細
  6
CONTINUOUS
 62
    2
 10
1383.4792205215031
 20
766.53742251784752
 11
1385.9792205215031
 21
769.03742251784752
  0
LINE
  8
_0-0_計極細
  6
CONTINUOUS
 62
    2
 10
1383.4792205215031
 20
767.81021472398334
 11
1385.9792205215031
 21
770.31021472398334
  0
LINE
  8
_0-0_計極細
  6
CONTINUOUS
 62
    2
 10
1383.4792205215031
 20
769.08300693011915
 11
1385.9792205215031
 21
771.58300693011915
  0
LINE
  8
_0-0_計極細
  6
CONTINUOUS
 62
    2
 10
1383.4792205215031
 20
770.35579913625497
 11
1385.9792205215031
 21
772.85579913625497
  0
LINE
  8
_0-0_計極細
  6
CONTINUOUS
 62
    2
 10
1383.4792205215031
 20
771.62859134239079
 11
1385.9792205215031
 21
774.12859134239079
  0
LINE
  8
_0-0_計極細
  6
CONTINUOUS
 62
    2
 10
1383.4792205215031
 20
772.90138354852661
 11
1385.9792205215031
 21
775.40138354852661
  0
LINE
  8
_0-0_計極細
  6
CONTINUOUS
 62
    2
 10
1383.4792205215031
 20
774.17417575466243
 11
1385.9792205215031
 21
776.67417575466243
  0
LINE
  8
_0-0_計極細
  6
CONTINUOUS
 62
    2
 10
1383.4792205215031
 20
775.44696796079825
 11
1385.9792205215031
 21
777.94696796079825
  0
LINE
  8
_0-0_計極細
  6
CONTINUOUS
 62
    2
 10
1383.4792205215031
 20
776.71976016693407
 11
1385.9792205215031
 21
779.21976016693407
  0
LINE
  8
_0-0_計極細
  6
CONTINUOUS
 62
    2
 10
1383.4792205215031
 20
777.99255237306988
 11
1385.9792205215031
 21
780.49255237306988
  0
LINE
  8
_0-0_計極細
  6
CONTINUOUS
 62
    2
 10
1383.4792205215031
 20
779.2653445792057
 11
1385.9792205215031
 21
781.7653445792057
  0
LINE
  8
_0-0_計極細
  6
CONTINUOUS
 62
    2
 10
1383.4792205215031
 20
780.53813678534152
 11
1385.9792205215031
 21
783.03813678534152
  0
LINE
  8
_0-0_計極細
  6
CONTINUOUS
 62
    2
 10
1383.4792205215031
 20
781.81092899147734
 11
1385.9792205215031
 21
784.31092899147734
  0
LINE
  8
_0-0_計極細
  6
CONTINUOUS
 62
    2
 10
1383.4792205215031
 20
783.0837211976127
 11
1385.9792205215031
 21
785.58372119761316
  0
LINE
  8
_0-0_計極細
  6
CONTINUOUS
 62
    2
 10
1383.4792205215031
 20
784.35651340374852
 11
1386.0098975299111
 21
786.887190412157
  0
LINE
  8
_0-0_計極細
  6
CONTINUOUS
 62
    2
 10
1383.4792205215031
 20
785.62930560988434
 11
1386.6036247848965
 21
788.75370987327688
  0
LINE
  8
_0-0_計極細
  6
CONTINUOUS
 62
    2
 10
1383.4792205215031
 20
786.90209781602016
 11
1388.4792205215031
 21
791.90209781602016
  0
LINE
  8
_0-0_計極細
  6
CONTINUOUS
 62
    2
 10
1383.4792205215031
 20
788.17489002215598
 11
1388.4792205215031
 21
793.17489002215598
  0
LINE
  8
_0-0_計極細
  6
CONTINUOUS
 62
    2
 10
1383.4792205215031
 20
789.4476822282918
 11
1388.4792205215031
 21
794.4476822282918
  0
LINE
  8
_0-0_計極細
  6
CONTINUOUS
 62
    2
 10
1383.4792205215031
 20
790.72047443442762
 11
1388.4792205215031
 21
795.72047443442762
  0
LINE
  8
_0-0_計極細
  6
CONTINUOUS
 62
    2
 10
1391.4230454116091
 20
798.66429932453275
 11
1392.3792205215027
 21
799.62047443442771
  0
LINE
  8
_0-0_計極細
  6
CONTINUOUS
 62
    2
 10
1383.4792205215031
 20
791.99326664056343
 11
1384.3502532054731
 21
792.86429932453302
  0
LINE
  8
_0-0_計極細
  6
CONTINUOUS
 62
    2
 10
1384.7391842510292
 20
793.25323037009002
 11
1388.4792205215031
 21
796.99326664056343
  0
LINE
  8
_0-0_計極細
  6
CONTINUOUS
 62
    2
 10
1390.1502532054724
 20
798.6642993245332
 11
1392.3792205215027
 21
800.89326664056352
  0
LINE
  8
_0-0_計極細
  6
CONTINUOUS
 62
    2
 10
1383.9792205215031
 20
793.76605884669925
 11
1388.4792205215031
 21
798.26605884669925
  0
LINE
  8
_0-0_計極細
  6
CONTINUOUS
 62
    2
 10
1388.8774609993375
 20
798.66429932453275
 11
1392.3792205215027
 21
802.16605884669934
  0
LINE
  8
_0-0_計極細
  6
CONTINUOUS
 62
    2
 10
1383.9792205215031
 20
795.03885105283462
 11
1392.3792205215027
 21
803.43885105283516
  0
LINE
  8
_0-0_計極細
  6
CONTINUOUS
 62
    2
 10
1383.9792205215031
 20
796.31164325897043
 11
1392.3792205215027
 21
804.71164325897098
  0
LINE
  8
_0-0_計極細
  6
CONTINUOUS
 62
    2
 10
1385.4582205215042
 20
799.06343546510652
 11
1392.3792205215027
 21
805.98443546510634
  0
LINE
  8
_0-0_計極細
  6
CONTINUOUS
 62
    2
 10
1385.4582205215042
 20
800.33622767124234
 11
1392.3792205215027
 21
807.25722767124216
  0
LINE
  8
_0-0_計極細
  6
CONTINUOUS
 62
    2
 10
1385.4582205215042
 20
801.60901987737816
 11
1392.3792205215027
 21
808.53001987737798
  0
LINE
  8
_0-0_計極細
  6
CONTINUOUS
 62
    2
 10
1385.4582205215042
 20
802.88181208351398
 11
1392.3792205215027
 21
809.8028120835138
  0
LINE
  8
_0-0_計極細
  6
CONTINUOUS
 62
    2
 10
1385.4582205215042
 20
804.1546042896498
 11
1392.3792205215027
 21
811.07560428964962
  0
LINE
  8
_0-0_計極細
  6
CONTINUOUS
 62
    2
 10
1385.4582205215042
 20
805.42739649578562
 11
1392.3792205215027
 21
812.34839649578544
  0
LINE
  8
_0-0_計極細
  6
CONTINUOUS
 62
    2
 10
1385.4582205215042
 20
806.70018870192143
 11
1391.2972680005255
 21
812.53923618094359
  0
LINE
  8
_0-0_計極細
  6
CONTINUOUS
 62
    2
 10
1385.4582205215042
 20
807.9729809080568
 11
1389.8581249097456
 21
812.37288529629905
  0
LINE
  8
_0-0_計極細
  6
CONTINUOUS
 62
    2
 10
1385.4582205215042
 20
809.24577311419262
 11
1388.4189818189657
 21
812.2065344116545
  0
LINE
  8
_0-0_計極細
  6
CONTINUOUS
 62
    2
 10
1385.4582205215042
 20
810.51856532032843
 11
1386.9798387281858
 21
812.04018352701041
  0
LINE
  8
_0-0_計極細
  6
CONTINUOUS
 62
    2
 10
1385.4582205215042
 20
811.79135752646425
 11
1385.540695637404
 21
811.87383264236587
  0
LINE
  8
_0-0_計極細
  6
CONTINUOUS
 62
    2
 10
1391.2972680005255
 20
812.53923618094359
 11
1392.3792205215027
 21
813.6211887019208
  0
LINE
  8
_0-0_計極細
  6
CONTINUOUS
 62
    2
 10
1389.8581249097456
 20
812.37288529629905
 11
1391.7449579666204
 21
814.25971835317341
  0
LINE
  8
_0-0_計極細
  6
CONTINUOUS
 62
    2
 10
1388.4189818189657
 20
812.2065344116545
 11
1390.2607734657663
 21
814.04832605845468
  0
LINE
  8
_0-0_計極細
  6
CONTINUOUS
 62
    2
 10
1386.9798387281858
 20
812.04018352701041
 11
1388.7765889649122
 21
813.8369337637364
  0
LINE
  8
_0-0_計極細
  6
CONTINUOUS
 62
    2
 10
1385.5406956374059
 20
811.87383264236587
 11
1387.2924044640581
 21
813.62554146901812
  0
LINE
  8
_0-0_計極細
  6
CONTINUOUS
 62
    2
 10
1385.4582205215042
 20
813.06414973259962
 11
1385.808219963204
 21
813.41414917429984
  0
LINE
  8
_0-0_計極細
  6
CONTINUOUS
 62
    2
 10
1379.8093079888308
 20
708.13744512133553
 11
1382.2060580046959
 21
710.534195137202
  0
LINE
  8
_0-0_計極細
  6
CONTINUOUS
 62
    2
 10
1377.5309195565255
 20
707.13184889516651
 11
1383.2116542308663
 21
712.8125835695073
  0
LINE
  8
_0-0_計極細
  6
CONTINUOUS
 62
    2
 10
1376.0080596218609
 20
706.88178116663812
 11
1383.4617219593943
 21
714.33544350417105
  0
LINE
  8
_0-0_計極細
  6
CONTINUOUS
 62
    2
 10
1374.7177688536171
 20
706.86428260452931
 11
1383.4792205215031
 21
715.62573427241614
  0
LINE
  8
_0-0_計極細
  6
CONTINUOUS
 62
    2
 10
1373.4449766474804
 20
706.86428260452931
 11
1383.4792205215031
 21
716.89852647855196
  0
LINE
  8
_0-0_計極細
  6
CONTINUOUS
 62
    2
 10
1372.1721844413455
 20
706.86428260452931
 11
1383.4792205215031
 21
718.17131868468778
  0
LINE
  8
_0-0_計極細
  6
CONTINUOUS
 62
    2
 10
1370.8993922352088
 20
706.86428260452931
 11
1383.4792205215031
 21
719.44411089082314
  0
LINE
  8
_0-0_計極細
  6
CONTINUOUS
 62
    2
 10
1369.6266000290739
 20
706.86428260452931
 11
1383.4792205215031
 21
720.71690309695896
  0
LINE
  8
_0-0_計極細
  6
CONTINUOUS
 62
    2
 10
1368.3538078229371
 20
706.86428260452931
 11
1383.4792205215031
 21
721.98969530309478
  0
LINE
  8
_0-0_計極細
  6
CONTINUOUS
 62
    2
 10
1367.0810156168022
 20
706.86428260452931
 11
1383.4792205215031
 21
723.2624875092306
  0
LINE
  8
_0-0_計極細
  6
CONTINUOUS
 62
    2
 10
1365.8082234106655
 20
706.86428260452931
 11
1383.4792205215031
 21
724.53527971536641
  0
LINE
  8
_0-0_計極細
  6
CONTINUOUS
 62
    2
 10
1364.5354312045306
 20
706.86428260452931
 11
1383.4792205215031
 21
725.80807192150223
  0
LINE
  8
_0-0_計極細
  6
CONTINUOUS
 62
    2
 10
1363.2626389983939
 20
706.86428260452931
 11
1383.4792205215031
 21
727.08086412763805
  0
LINE
  8
_0-0_計極細
  6
CONTINUOUS
 62
    2
 10
1361.989846792259
 20
706.86428260452931
 11
1383.4792205215031
 21
728.35365633377387
  0
LINE
  8
_0-0_計極細
  6
CONTINUOUS
 62
    2
 10
1360.7170545861222
 20
706.86428260452931
 11
1383.4792205215031
 21
729.62644853990969
  0
LINE
  8
_0-0_計極細
  6
CONTINUOUS
 62
    2
 10
1360.4792205215031
 20
707.89924074604551
 11
1383.4792205215031
 21
730.89924074604551
  0
LINE
  8
_0-0_計極細
  6
CONTINUOUS
 62
    2
 10
1360.4792205215031
 20
709.17203295218133
 11
1383.4792205215031
 21
732.17203295218133
  0
LINE
  8
_0-0_計極細
  6
CONTINUOUS
 62
    2
 10
1360.4792205215031
 20
710.44482515831714
 11
1368.237680339043
 21
718.20328497585751
  0
LINE
  8
_0-0_計極細
  6
CONTINUOUS
 62
    2
 10
1373.3902181501758
 20
723.35582278698894
 11
1383.4792205215031
 21
733.44482515831714
  0
LINE
  8
_0-0_計極細
  6
CONTINUOUS
 62
    2
 10
1360.4792205215031
 20
711.71761736445296
 11
1366.1127848601659
 21
717.3511817031158
  0
LINE
  8
_0-0_計極細
  6
CONTINUOUS
 62
    2
 10
1374.2423214229161
 20
725.48071826586647
 11
1383.4792205215031
 21
734.71761736445296
  0
LINE
  8
_0-0_計極細
  6
CONTINUOUS
 62
    2
 10
1360.4792205215031
 20
712.99040957058878
 11
1364.4817577768258
 21
716.99294682591062
  0
LINE
  8
_0-0_計極細
  6
CONTINUOUS
 62
    2
 10
1374.6005563001213
 20
727.11174534920701
 11
1383.4792205215031
 21
735.99040957058878
  0
LINE
  8
_0-0_計極細
  6
CONTINUOUS
 62
    2
 10
1360.4792205215031
 20
714.2632017767246
 11
1363.0855942771755
 21
716.86957553239654
  0
LINE
  8
_0-0_計極細
  6
CONTINUOUS
 62
    2
 10
1374.7239275936367
 20
728.50790884885737
 11
1383.4792205215031
 21
737.2632017767246
  0
LINE
  8
_0-0_計極細
  6
CONTINUOUS
 62
    2
 10
1360.4792205215031
 20
715.53599398286042
 11
1361.8075091431724
 21
716.86428260452931
  0
LINE
  8
_0-0_計極細
  6
CONTINUOUS
 62
    2
 10
1374.7292205215031
 20
729.78599398286042
 11
1383.4792205215031
 21
738.53599398286042
  0
LINE
  8
_0-0_計極細
  6
CONTINUOUS
 62
    2
 10
1360.4792205215031
 20
716.80878618899624
 11
1360.5347169370357
 21
716.86428260452931
  0
LINE
  8
_0-0_計極細
  6
CONTINUOUS
 62
    2
 10
1374.7292205215031
 20
731.05878618899624
 11
1383.4792205215031
 21
739.80878618899624
  0
LINE
  8
_0-0_計極細
  6
CONTINUOUS
 62
    2
 10
1374.7292205215031
 20
732.33157839513206
 11
1383.4792205215031
 21
741.08157839513206
  0
LINE
  8
_0-0_計極細
  6
CONTINUOUS
 62
    2
 10
1374.7292205215031
 20
733.60437060126742
 11
1383.4792205215031
 21
742.35437060126787
  0
LINE
  8
_0-0_計極細
  6
CONTINUOUS
 62
    2
 10
1374.7292205215031
 20
734.87716280740369
 11
1383.4792205215031
 21
743.62716280740324
  0
LINE
  8
_0-0_計極細
  6
CONTINUOUS
 62
    2
 10
1374.7292205215031
 20
736.14995501353906
 11
1383.4792205215031
 21
744.89995501353906
  0
LINE
  8
_0-0_計極細
  6
CONTINUOUS
 62
    2
 10
1374.7292205215031
 20
737.42274721967487
 11
1383.4792205215031
 21
746.17274721967487
  0
LINE
  8
_0-0_計極細
  6
CONTINUOUS
 62
    2
 10
1374.7292205215031
 20
738.69553942581069
 11
1383.4792205215031
 21
747.44553942581069
  0
LINE
  8
_0-0_計極細
  6
CONTINUOUS
 62
    2
 10
1374.7292205215031
 20
739.96833163194651
 11
1383.4792205215031
 21
748.71833163194651
  0
LINE
  8
_0-0_計極細
  6
CONTINUOUS
 62
    2
 10
1374.7292205215031
 20
741.24112383808233
 11
1383.4792205215031
 21
749.99112383808233
  0
LINE
  8
_0-0_計極細
  6
CONTINUOUS
 62
    2
 10
1374.7292205215031
 20
742.51391604421815
 11
1383.4792205215031
 21
751.26391604421815
  0
LINE
  8
_0-0_計極細
  6
CONTINUOUS
 62
    2
 10
1374.7292205215031
 20
743.78670825035397
 11
1383.4792205215031
 21
752.53670825035397
  0
LINE
  8
_0-0_計極細
  6
CONTINUOUS
 62
    2
 10
1374.7292205215031
 20
745.05950045648979
 11
1383.4792205215031
 21
753.80950045648979
  0
LINE
  8
_0-0_計極細
  6
CONTINUOUS
 62
    2
 10
1374.7292205215031
 20
746.33229266262515
 11
1383.4792205215031
 21
755.08229266262515
  0
LINE
  8
_0-0_計極細
  6
CONTINUOUS
 62
    2
 10
1374.7292205215031
 20
747.60508486876097
 11
1383.4792205215031
 21
756.35508486876097
  0
LINE
  8
_0-0_計極細
  6
CONTINUOUS
 62
    2
 10
1374.7292205215031
 20
748.87787707489679
 11
1383.4792205215031
 21
757.62787707489679
  0
LINE
  8
_0-0_計極細
  6
CONTINUOUS
 62
    2
 10
1374.7292205215031
 20
750.15066928103261
 11
1383.4792205215031
 21
758.90066928103261
  0
LINE
  8
_0-0_計極細
  6
CONTINUOUS
 62
    2
 10
1374.7292205215031
 20
751.42346148716842
 11
1383.4792205215031
 21
760.17346148716842
  0
LINE
  8
_0-0_計極細
  6
CONTINUOUS
 62
    2
 10
1374.7292205215031
 20
752.69625369330424
 11
1383.4792205215031
 21
761.44625369330424
  0
LINE
  8
_0-0_計極細
  6
CONTINUOUS
 62
    2
 10
1374.7292205215031
 20
753.96904589944006
 11
1383.4792205215031
 21
762.71904589944006
  0
LINE
  8
_0-0_計極細
  6
CONTINUOUS
 62
    2
 10
1374.7292205215031
 20
755.24183810557588
 11
1383.4792205215031
 21
763.99183810557588
  0
LINE
  8
_0-0_計極細
  6
CONTINUOUS
 62
    2
 10
1374.7292205215031
 20
756.5146303117117
 11
1383.4792205215031
 21
765.2646303117117
  0
LINE
  8
_0-0_計極細
  6
CONTINUOUS
 62
    2
 10
1374.7292205215031
 20
757.78742251784752
 11
1381.7354908670127
 21
764.79369286335668
  0
LINE
  8
_0-0_計極細
  6
CONTINUOUS
 62
    2
 10
1374.7292205215031
 20
759.06021472398334
 11
1380.462698660876
 21
764.79369286335668
  0
LINE
  8
_0-0_計極細
  6
CONTINUOUS
 62
    2
 10
1374.7292205215031
 20
760.33300693011915
 11
1379.189906454741
 21
764.79369286335668
  0
LINE
  8
_0-0_計極細
  6
CONTINUOUS
 62
    2
 10
1374.7292205215031
 20
761.60579913625497
 11
1377.9171142486061
 21
764.79369286335668
  0
LINE
  8
_0-0_計極細
  6
CONTINUOUS
 62
    2
 10
1374.7292205215031
 20
762.87859134239079
 11
1376.6443220424694
 21
764.79369286335668
  0
LINE
  8
_0-0_計極細
  6
CONTINUOUS
 62
    2
 10
1374.7292205215031
 20
764.15138354852661
 11
1375.3715298363345
 21
764.79369286335668
  0
LINE
  8
_0-0_計極細
  6
CONTINUOUS
 62
    2
 10
1361.2282598305715
 20
734.10412417782936
 11
1362.4792205215031
 21
735.35508486876097
  0
LINE
  8
_0-0_計極細
  6
CONTINUOUS
 62
    2
 10
1360.4792045215031
 20
735.47638921232101
 11
1362.4792205215031
 21
737.47640521232097
  0
LINE
  8
_0-0_計極細
  6
CONTINUOUS
 62
    2
 10
1360.4792045215031
 20
737.59770955588056
 11
1362.4792205215031
 21
739.59772555588006
  0
LINE
  8
_0-0_計極細
  6
CONTINUOUS
 62
    2
 10
1360.4792045215031
 20
739.7190298994401
 11
1362.4792205215031
 21
741.71904589944006
  0
LINE
  8
_0-0_計極細
  6
CONTINUOUS
 62
    2
 10
1360.4792045215031
 20
741.8403502430001
 11
1362.4792205215031
 21
743.84036624299961
  0
LINE
  8
_0-0_計極細
  6
CONTINUOUS
 62
    2
 10
1360.4792045215031
 20
743.96167058655965
 11
1362.4792205215031
 21
745.96168658655915
  0
LINE
  8
_0-0_計極細
  6
CONTINUOUS
 62
    2
 10
1360.4792045215031
 20
746.08299093011919
 11
1362.4792205215031
 21
748.08300693011915
  0
LINE
  8
_0-0_計極細
  6
CONTINUOUS
 62
    2
 10
1360.4792045215031
 20
748.20431127367874
 11
1362.4792205215031
 21
750.2043272736787
  0
LINE
  8
_0-0_計極細
  6
CONTINUOUS
 62
    2
 10
1360.4792045215031
 20
750.32563161723829
 11
1362.4792205215031
 21
752.32564761723825
  0
LINE
  8
_0-0_計極細
  6
CONTINUOUS
 62
    2
 10
1360.4792045215031
 20
752.44695196079829
 11
1362.4792205215031
 21
754.44696796079779
  0
LINE
  8
_0-0_計極細
  6
CONTINUOUS
 62
    2
 10
1360.4792045215031
 20
754.56827230435783
 11
1362.4792205215031
 21
756.56828830435734
  0
LINE
  8
_0-0_計極細
  6
CONTINUOUS
 62
    2
 10
1360.4792045215031
 20
756.68959264791738
 11
1362.4792205215031
 21
758.68960864791734
  0
LINE
  8
_0-0_計極細
  6
CONTINUOUS
 62
    2
 10
1360.4792045215031
 20
758.81091299147693
 11
1362.4792205215031
 21
760.81092899147689
  0
LINE
  8
_0-0_計極細
  6
CONTINUOUS
 62
    2
 10
1360.4792045215031
 20
760.93223333503647
 11
1362.4792205215031
 21
762.93224933503643
  0
LINE
  8
_0-0_計極細
  6
CONTINUOUS
 62
    2
 10
1360.4792045215031
 20
763.05355367859647
 11
1362.4792205215031
 21
765.05356967859598
  0
LINE
  8
_0-0_計極細
  6
CONTINUOUS
 62
    2
 10
1360.4792045215031
 20
765.17487402215602
 11
1362.4792205215031
 21
767.17489002215552
  0
LINE
  8
_0-0_計極細
  6
CONTINUOUS
 62
    2
 10
1360.4792045215031
 20
767.29619436571556
 11
1362.4792205215031
 21
769.29621036571552
  0
LINE
  8
_0-0_計極細
  6
CONTINUOUS
 62
    2
 10
1360.4792045215031
 20
769.41751470927557
 11
1362.4792205215031
 21
771.41753070927507
  0
LINE
  8
_0-0_計極細
  6
CONTINUOUS
 62
    2
 10
1360.4792045215031
 20
771.53883505283466
 11
1362.4792205215031
 21
773.53885105283462
  0
LINE
  8
_0-0_計極細
  6
CONTINUOUS
 62
    2
 10
1360.4792045215031
 20
773.66015539639466
 11
1362.4792205215031
 21
775.66017139639416
  0
LINE
  8
_0-0_計極細
  6
CONTINUOUS
 62
    2
 10
1360.4792045215031
 20
775.7814757399542
 11
1362.4792205215031
 21
777.78149173995371
  0
LINE
  8
_0-0_計極細
  6
CONTINUOUS
 62
    2
 10
1360.4792045215031
 20
777.90279608351375
 11
1362.4792205215031
 21
779.90281208351371
  0
LINE
  8
_0-0_計極細
  6
CONTINUOUS
 62
    2
 10
1376.2697677211631
 20
793.69335928317423
 11
1377.9580035628619
 21
795.38159512487255
  0
LINE
  8
_0-0_計極細
  6
CONTINUOUS
 62
    2
 10
1360.4792045215031
 20
780.0241164270733
 11
1362.4792205215031
 21
782.02413242707325
  0
LINE
  8
_0-0_計極細
  6
CONTINUOUS
 62
    2
 10
1374.1272304189638
 20
793.67214232453307
 11
1377.1272304189638
 21
796.67214232453307
  0
LINE
  8
_0-0_計極細
  6
CONTINUOUS
 62
    2
 10
1360.4792045215031
 20
782.14543677063284
 11
1362.4792205215031
 21
784.1454527706328
  0
LINE
  8
_0-0_計極細
  6
CONTINUOUS
 62
    2
 10
1372.9792205215031
 20
794.6454527706328
 11
1375.7292205215031
 21
797.3954527706328
  0
LINE
  8
_0-0_計極細
  6
CONTINUOUS
 62
    2
 10
1360.4792045215031
 20
784.26675711419284
 11
1362.4792205215031
 21
786.2667731141928
  0
LINE
  8
_0-0_計極細
  6
CONTINUOUS
 62
    2
 10
1372.9777729858065
 20
796.76532557849623
 11
1375.7292205215031
 21
799.5167731141928
  0
LINE
  8
_0-0_計極細
  6
CONTINUOUS
 62
    2
 10
1360.4792045215031
 20
786.38807745775239
 11
1362.4792205215031
 21
788.38809345775189
  0
LINE
  8
_0-0_計極細
  6
CONTINUOUS
 62
    2
 10
1372.4560271602145
 20
798.36490009646423
 11
1375.1632693882834
 21
801.07214232453316
  0
LINE
  8
_0-0_計極細
  6
CONTINUOUS
 62
    2
 10
1360.4792045215031
 20
788.50939780131193
 11
1362.4792205215031
 21
790.50941380131189
  0
LINE
  8
_0-0_計極細
  6
CONTINUOUS
 62
    2
 10
1371.3076802430182
 20
799.33787352282707
 11
1373.0419490447252
 21
801.07214232453316
  0
LINE
  8
_0-0_計極細
  6
CONTINUOUS
 62
    2
 10
1360.4792045215031
 20
790.63071814487193
 11
1362.4792205215031
 21
792.63073414487144
  0
LINE
  8
_0-0_計極細
  6
CONTINUOUS
 62
    2
 10
1369.7571937357784
 20
799.90870735914677
 11
1370.9206287011652
 21
801.07214232453316
  0
LINE
  8
_0-0_計極細
  6
CONTINUOUS
 62
    2
 10
1360.4792045215031
 20
792.75203848843103
 11
1362.5266739313788
 21
794.79950789830718
  0
LINE
  8
_0-0_計極細
  6
CONTINUOUS
 62
    2
 10
1367.7261009477293
 20
799.99893491465718
 11
1368.7993083576052
 21
801.07214232453316
  0
LINE
  8
_0-0_計極細
  6
CONTINUOUS
 62
    2
 10
1358.4701450140451
 20
792.86429932453302
 11
1366.6779880140452
 21
801.07214232453316
  0
LINE
  8
_0-0_計極細
  6
CONTINUOUS
 62
    2
 10
1356.3488246704851
 20
792.86429932453302
 11
1364.5566676704852
 21
801.07214232453316
  0
LINE
  8
_0-0_計極細
  6
CONTINUOUS
 62
    2
 10
1354.2275043269269
 20
792.86429932453302
 11
1362.4353473269271
 21
801.07214232453316
  0
LINE
  8
_0-0_計極細
  6
CONTINUOUS
 62
    2
 10
1352.1061839833669
 20
792.86429932453302
 11
1360.3140269833671
 21
801.07214232453316
  0
LINE
  8
_0-0_計極細
  6
CONTINUOUS
 62
    2
 10
1349.9848636398069
 20
792.86429932453302
 11
1358.1927066398071
 21
801.07214232453316
  0
LINE
  8
_0-0_計極細
  6
CONTINUOUS
 62
    2
 10
1347.8635432962469
 20
792.86429932453302
 11
1356.0713862962471
 21
801.07214232453316
  0
LINE
  8
_0-0_計極細
  6
CONTINUOUS
 62
    2
 10
1345.7422229526869
 20
792.86429932453302
 11
1353.9500659526871
 21
801.07214232453316
  0
LINE
  8
_0-0_計極細
  6
CONTINUOUS
 62
    2
 10
1343.6209026091287
 20
792.86429932453302
 11
1351.8287456091289
 21
801.07214232453316
  0
LINE
  8
_0-0_計極細
  6
CONTINUOUS
 62
    2
 10
1341.4995822655687
 20
792.86429932453302
 11
1349.7074252655689
 21
801.07214232453316
  0
LINE
  8
_0-0_計極細
  6
CONTINUOUS
 62
    2
 10
1339.3782619220087
 20
792.86429932453302
 11
1347.5861049220089
 21
801.07214232453316
  0
LINE
  8
_0-0_計極細
  6
CONTINUOUS
 62
    2
 10
1337.2569415784487
 20
792.86429932453302
 11
1345.4647845784489
 21
801.07214232453316
  0
LINE
  8
_0-0_計極細
  6
CONTINUOUS
 62
    2
 10
1335.4792205215031
 20
793.2078986111469
 11
1343.3434642348889
 21
801.07214232453316
  0
LINE
  8
_0-0_計極細
  6
CONTINUOUS
 62
    2
 10
1335.4792205215031
 20
795.32921895470645
 11
1341.2221438913307
 21
801.07214232453316
  0
LINE
  8
_0-0_計極細
  6
CONTINUOUS
 62
    2
 10
1335.4792205215031
 20
797.45053929826645
 11
1339.1008235477707
 21
801.07214232453316
  0
LINE
  8
_0-0_計極細
  6
CONTINUOUS
 62
    2
 10
1335.4792205215031
 20
799.57185964182599
 11
1336.9795032042107
 21
801.07214232453316
  0
LINE
  8
_0-0_計極細
  6
CONTINUOUS
 62
    2
 10
1335.4792205215031
 20
815.05712033920338
 11
1392.3792205215027
 21
815.05712033920281
  0
ARC
  8
_0-1_計細線
  6
CONTINUOUS
 62
    3
 10
1276.4792205215031
 20
814.86428260452942
 40
0.5
 50
0
 51
89.999999999999915
  0
LINE
  8
_0-1_計細線
  6
CONTINUOUS
 62
    3
 10
1276.9792205215031
 20
814.86428260452942
 11
1276.9792205215031
 21
812.86428260452931
  0
ARC
  8
_0-1_計細線
  6
CONTINUOUS
 62
    3
 10
1278.4792205215031
 20
812.86428260452931
 40
1.5
 50
179.99999999999983
 51
269.99999999999977
  0
LINE
  8
_0-1_計細線
  6
CONTINUOUS
 62
    3
 10
1278.4792205215031
 20
811.36428260452931
 11
1278.5792205215034
 21
811.36428260452931
  0
LINE
  8
_0-1_計細線
  6
CONTINUOUS
 62
    3
 10
1403.4792205215026
 20
836.86428260452931
 11
1403.4792205215026
 21
816.86428260452931
  0
LINE
  8
_0-1_計細線
  6
CONTINUOUS
 62
    3
 10
1335.4792205215026
 20
832.96428260452944
 11
1403.4792205215026
 21
832.96428260452944
  0
LINE
  8
_0-0_計極細
  6
CONTINUOUS
 62
    2
 10
1335.4792205215026
 20
835.7642826045294
 11
1403.4792205215026
 21
835.7642826045294
  0
LINE
  8
_0-1_計細線
  6
CONTINUOUS
 62
    3
 10
1335.4792205215026
 20
816.86428260452931
 11
1403.4792205215026
 21
816.86428260452931
  0
LINE
  8
_0-5_寸法線
  6
CONTINUOUS
 62
    7
 10
854.47922052150307
 20
792.36428260452931
 11
863.20450794183932
 21
778.95274430974291
  0
LINE
  8
_0-5_寸法線
  6
CONTINUOUS
 62
    7
 10
854.47922052150307
 20
792.36428260452931
 11
855.32977193544195
 21
776.3869060272483
  0
LINE
  8
_0-5_寸法線
  6
CONTINUOUS
 62
    7
 10
854.47922052150307
 20
792.36428260452931
 11
867.61977382617624
 21
752.03501128674043
  0
LINE
  8
_0-5_寸法線
  6
CONTINUOUS
 62
    7
 10
867.61977382617624
 20
752.03501128674043
 11
944.4197738261762
 21
752.03501128674043
  0
TEXT
  8
_0-5_寸法線
 62
    7
 10
867.61977382617624
 20
752.03501128674043
 40
24
 41
0.8000000000000001
 50
0
  1
アンカー
  0
LINE
  8
_0-0_計極細
  6
CENTER1
 62
    2
 10
854.47922052150307
 20
787.58140087879065
 11
854.47922052150307
 21
832.63510095632819
  0
LINE
  8
_0-1_計細線
  6
CONTINUOUS
 62
    3
 10
848.47922067458376
 20
827.36428260452931
 11
846.47922067458376
 21
825.36428260452931
  0
LINE
  8
_0-1_計細線
  6
CONTINUOUS
 62
    3
 10
846.47922067458376
 20
815.36428260452931
 11
846.47922067458376
 21
825.36428260452931
  0
LINE
  8
_0-1_計細線
  6
CONTINUOUS
 62
    3
 10
862.47922036842238
 20
815.36428260452931
 11
862.47922036842238
 21
825.36428260452931
  0
LINE
  8
_0-1_計細線
  6
CONTINUOUS
 62
    3
 10
848.47922067458376
 20
811.36428260452931
 11
846.47922067458376
 21
809.36428260452931
  0
LINE
  8
_0-1_計細線
  6
CONTINUOUS
 62
    3
 10
848.47922067458376
 20
813.36428260452931
 11
848.47922067458376
 21
811.36428260452931
  0
LINE
  8
_0-1_計細線
  6
CONTINUOUS
 62
    3
 10
846.47922067458376
 20
815.36428260452931
 11
848.47922067458376
 21
813.36428260452931
  0
LINE
  8
_0-1_計細線
  6
CONTINUOUS
 62
    3
 10
860.47922036842238
 20
811.36428260452931
 11
862.47922036842238
 21
809.36428260452931
  0
LINE
  8
_0-1_計細線
  6
CONTINUOUS
 62
    3
 10
860.47922036842238
 20
813.36428260452931
 11
860.47922036842238
 21
811.36428260452931
  0
LINE
  8
_0-1_計細線
  6
CONTINUOUS
 62
    3
 10
862.47922036842238
 20
815.36428260452931
 11
860.47922036842238
 21
813.36428260452931
  0
LINE
  8
_0-1_計細線
  6
CONTINUOUS
 62
    3
 10
846.47922067458376
 20
809.36428260452931
 11
846.47922067458376
 21
795.36428260452931
  0
ARC
  8
_0-1_計細線
  6
CONTINUOUS
 62
    3
 10
849.47922067458376
 20
795.36428260452931
 40
3
 50
179.99999999999983
 51
269.99999999999977
  0
LINE
  8
_0-1_計細線
  6
CONTINUOUS
 62
    3
 10
849.47922067458376
 20
792.36428260452931
 11
859.47922036842238
 21
792.36428260452931
  0
LINE
  8
_0-1_計細線
  6
CONTINUOUS
 62
    3
 10
862.47922036842238
 20
809.36428260452931
 11
862.47922036842238
 21
795.36428260452931
  0
ARC
  8
_0-1_計細線
  6
CONTINUOUS
 62
    3
 10
859.47922036842238
 20
795.36428260452931
 40
3
 50
269.99999999999977
 51
359.99999999999966
  0
LINE
  8
_0-1_計細線
  6
CONTINUOUS
 62
    3
 10
848.47922067458376
 20
827.36428260452931
 11
860.47922036842238
 21
827.36428260452931
  0
LINE
  8
_0-1_計細線
  6
CONTINUOUS
 62
    3
 10
862.47922036842238
 20
825.36428260452931
 11
860.47922036842238
 21
827.36428260452931
  0
LINE
  8
_0-0_計極細
  6
DASHED2
 62
    2
 10
1380.4792205215026
 20
787.58140087879065
 11
1380.4792205215026
 21
832.63510095632819
  0
LINE
  8
_0-1_計細線
  6
DASHED2
 62
    3
 10
1388.4792203684219
 20
825.36428260452931
 11
1386.4792203684219
 21
827.36428260452931
  0
LINE
  8
_0-1_計細線
  6
DASHED2
 62
    3
 10
1374.4792206745833
 20
827.36428260452931
 11
1386.4792203684219
 21
827.36428260452931
  0
ARC
  8
_0-1_計細線
  6
DASHED2
 62
    3
 10
1385.4792203684219
 20
795.36428260452931
 40
3
 50
269.99999999999977
 51
359.99999999999966
  0
LINE
  8
_0-1_計細線
  6
DASHED2
 62
    3
 10
1388.4792203684219
 20
809.36428260452931
 11
1388.4792203684219
 21
795.36428260452931
  0
LINE
  8
_0-1_計細線
  6
DASHED2
 62
    3
 10
1375.4792206745833
 20
792.36428260452931
 11
1385.4792203684219
 21
792.36428260452931
  0
ARC
  8
_0-1_計細線
  6
DASHED2
 62
    3
 10
1375.4792206745833
 20
795.36428260452931
 40
3
 50
179.99999999999983
 51
269.99999999999977
  0
LINE
  8
_0-1_計細線
  6
DASHED2
 62
    3
 10
1372.4792206745833
 20
809.36428260452931
 11
1372.4792206745833
 21
795.36428260452931
  0
LINE
  8
_0-1_計細線
  6
DASHED2
 62
    3
 10
1388.4792203684219
 20
815.36428260452931
 11
1386.4792203684219
 21
813.36428260452931
  0
LINE
  8
_0-1_計細線
  6
DASHED2
 62
    3
 10
1386.4792203684219
 20
813.36428260452931
 11
1386.4792203684219
 21
811.36428260452931
  0
LINE
  8
_0-1_計細線
  6
DASHED2
 62
    3
 10
1386.4792203684219
 20
811.36428260452931
 11
1388.4792203684219
 21
809.36428260452931
  0
LINE
  8
_0-1_計細線
  6
DASHED2
 62
    3
 10
1372.4792206745833
 20
815.36428260452931
 11
1374.4792206745833
 21
813.36428260452931
  0
LINE
  8
_0-1_計細線
  6
DASHED2
 62
    3
 10
1374.4792206745833
 20
813.36428260452931
 11
1374.4792206745833
 21
811.36428260452931
  0
LINE
  8
_0-1_計細線
  6
DASHED2
 62
    3
 10
1374.4792206745833
 20
811.36428260452931
 11
1372.4792206745833
 21
809.36428260452931
  0
LINE
  8
_0-1_計細線
  6
DASHED2
 62
    3
 10
1388.4792203684219
 20
815.36428260452931
 11
1388.4792203684219
 21
825.36428260452931
  0
LINE
  8
_0-1_計細線
  6
DASHED2
 62
    3
 10
1372.4792206745833
 20
815.36428260452931
 11
1372.4792206745833
 21
825.36428260452931
  0
LINE
  8
_0-1_計細線
  6
DASHED2
 62
    3
 10
1374.4792206745833
 20
827.36428260452931
 11
1372.4792206745833
 21
825.36428260452931
  0
LINE
  8
_0-0_計極細
  6
CENTER2
 62
    2
 10
1335.4792205215026
 20
654.95372725407947
 11
1335.4792205215026
 21
1231.5142826045294
  0
LINE
  8
_0-5_寸法線
  6
CONTINUOUS
 62
    7
 10
1378.9792205215031
 20
674.36428260452931
 11
1503.4792205215026
 21
674.36428260452897
  0
LINE
  8
_0-5_寸法線
  6
CONTINUOUS
 62
    7
 10
1495.4792205215026
 20
674.36428260452897
 11
1491.3381157998624
 21
689.81909582515402
  0
LINE
  8
_0-5_寸法線
  6
CONTINUOUS
 62
    7
 10
1495.4792205215026
 20
674.36428260452897
 11
1499.620325243143
 21
689.81909582515402
  0
LINE
  8
_0-5_寸法線
  6
CONTINUOUS
 62
    7
 10
1421.1792205215024
 20
815.36428260452931
 11
1503.4792205215026
 21
815.36428260452908
  0
LINE
  8
_0-5_寸法線
  6
CONTINUOUS
 62
    7
 10
1495.4792205215026
 20
815.36428260452908
 11
1499.6203252431428
 21
799.90946938390402
  0
LINE
  8
_0-5_寸法線
  6
CONTINUOUS
 62
    7
 10
1495.4792205215026
 20
815.36428260452908
 11
1491.3381157998622
 21
799.90946938390402
  0
LINE
  8
_0-5_寸法線
  6
CONTINUOUS
 62
    7
 10
1495.4792205215026
 20
674.36428260452897
 11
1495.4792205215026
 21
815.36428260452908
  0
TEXT
  8
_0-5_寸法線
 62
    7
 10
1495.4792205215026
 20
726.86428260452897
 40
24
 41
1
 50
90
  1
141
  0
LINE
  8
_0-5_寸法線
  6
CONTINUOUS
 62
    7
 10
1431.4792205215026
 20
836.86428260452931
 11
1503.4792205215026
 21
836.86428260452908
  0
LINE
  8
_0-5_寸法線
  6
CONTINUOUS
 62
    7
 10
1495.4792205215026
 20
836.86428260452908
 11
1491.3381157998624
 21
852.31909582515414
  0
LINE
  8
_0-5_寸法線
  6
CONTINUOUS
 62
    7
 10
1495.4792205215026
 20
836.86428260452908
 11
1499.620325243143
 21
852.31909582515414
  0
LINE
  8
_0-5_寸法線
  6
CONTINUOUS
 62
    7
 10
1495.4792205215026
 20
815.36428260452908
 11
1495.4792205215026
 21
905.09824585334854
  0
TEXT
  8
_0-5_寸法線
 62
    7
 10
1495.4792205215026
 20
857.09824585334843
 40
24
 41
1
 50
90
  1
21.5
  0
LINE
  8
_0-5_寸法線
  6
CONTINUOUS
 62
    7
 10
1431.4792205215026
 20
836.86428260452931
 11
1559.4792205215026
 21
836.86428260452885
  0
LINE
  8
_0-5_寸法線
  6
CONTINUOUS
 62
    7
 10
1551.4792205215026
 20
836.86428260452885
 11
1555.620325243143
 21
821.4094693839038
  0
LINE
  8
_0-5_寸法線
  6
CONTINUOUS
 62
    7
 10
1551.4792205215026
 20
836.86428260452885
 11
1547.3381157998624
 21
821.4094693839038
  0
LINE
  8
_0-5_寸法線
  6
CONTINUOUS
 62
    7
 10
1378.9792205215031
 20
674.36428260452931
 11
1559.4792205215026
 21
674.36428260452885
  0
LINE
  8
_0-5_寸法線
  6
CONTINUOUS
 62
    7
 10
1551.4792205215026
 20
674.36428260452885
 11
1547.3381157998622
 21
689.81909582515391
  0
LINE
  8
_0-5_寸法線
  6
CONTINUOUS
 62
    7
 10
1551.4792205215026
 20
674.36428260452885
 11
1555.6203252431428
 21
689.81909582515391
  0
LINE
  8
_0-5_寸法線
  6
CONTINUOUS
 62
    7
 10
1551.4792205215026
 20
836.86428260452885
 11
1551.4792205215026
 21
674.36428260452885
  0
TEXT
  8
_0-5_寸法線
 62
    7
 10
1551.4792205215031
 20
725.61428260452874
 40
24
 41
1
 50
90
  1
162.5
  0
LINE
  8
_0-5_寸法線
  6
CONTINUOUS
 62
    7
 10
1297.4687301168005
 20
747.38832681776944
 11
1292.626027830205
 21
732.13879454417486
  0
LINE
  8
_0-5_寸法線
  6
CONTINUOUS
 62
    7
 10
1297.4687301168005
 20
747.38832681776944
 11
1285.6500607768464
 21
736.60319561630376
  0
LINE
  8
_0-5_寸法線
  6
CONTINUOUS
 62
    7
 10
1297.4687301168005
 20
747.38832681776944
 11
1250.5817715519488
 21
674.12387927013447
  0
LINE
  8
_0-5_寸法線
  6
CONTINUOUS
 62
    7
 10
1250.5817715519488
 20
674.12387927013447
 11
1039.381771551949
 21
674.12387927013447
  0
TEXT
  8
_0-5_寸法線
 62
    7
 10
1039.381771551949
 20
674.12387927013515
 40
24
 41
0.7999999999999998
 50
-0.000000000000185
  1
縦引き排水トラップ一式
  0
LINE
  8
_0-1_計細線
  6
CONTINUOUS
 62
    3
 10
862.47922036842238
 20
815.36428260452931
 11
1335.4792205215031
 21
815.36428260452931
  0
LINE
  8
_0-1_計細線
  6
CONTINUOUS
 62
    3
 10
831.47922052150307
 20
815.36428260452931
 11
846.47922067458376
 21
815.36428260452931
  0
LINE
  8
_0-5_寸法線
  6
CONTINUOUS
 62
    7
 10
819.47922052150318
 20
852.86428260452931
 11
819.47922052150352
 21
924.86428260452931
  0
LINE
  8
_0-5_寸法線
  6
CONTINUOUS
 62
    7
 10
819.47922052150352
 20
916.86428260452931
 11
834.93403374212858
 21
921.00538732616963
  0
LINE
  8
_0-5_寸法線
  6
CONTINUOUS
 62
    7
 10
819.47922052150352
 20
916.86428260452931
 11
834.93403374212858
 21
912.72317788288899
  0
LINE
  8
_0-5_寸法線
  6
CONTINUOUS
 62
    7
 10
854.47922052150318
 20
852.86428260452931
 11
854.47922052150352
 21
924.86428260452931
  0
LINE
  8
_0-5_寸法線
  6
CONTINUOUS
 62
    7
 10
854.47922052150352
 20
916.86428260452931
 11
839.02440730087847
 21
912.72317788288899
  0
LINE
  8
_0-5_寸法線
  6
CONTINUOUS
 62
    7
 10
854.47922052150352
 20
916.86428260452931
 11
839.02440730087847
 21
921.00538732616974
  0
LINE
  8
_0-5_寸法線
  6
CONTINUOUS
 62
    7
 10
819.47922052150352
 20
916.86428260452931
 11
854.47922052150352
 21
916.86428260452931
  0
TEXT
  8
_0-5_寸法線
 62
    7
 10
824.97922052150352
 20
916.86428260452931
 40
24
 41
1
 50
0
  1
35
  0
LINE
  8
_0-5_寸法線
  6
CONTINUOUS
 62
    7
 10
854.47922052150352
 20
916.86428260452931
 11
869.93403374212869
 21
921.00538732616951
  0
LINE
  8
_0-5_寸法線
  6
CONTINUOUS
 62
    7
 10
854.47922052150352
 20
916.86428260452931
 11
869.93403374212858
 21
912.72317788288888
  0
LINE
  8
_0-5_寸法線
  6
CONTINUOUS
 62
    7
 10
1380.4792205215031
 20
852.86428260452931
 11
1380.4792205215035
 21
924.86428260452931
  0
LINE
  8
_0-5_寸法線
  6
CONTINUOUS
 62
    7
 10
1380.4792205215035
 20
916.86428260452931
 11
1365.0244073008785
 21
912.72317788288899
  0
LINE
  8
_0-5_寸法線
  6
CONTINUOUS
 62
    7
 10
1380.4792205215035
 20
916.86428260452931
 11
1365.0244073008785
 21
921.00538732616974
  0
LINE
  8
_0-5_寸法線
  6
CONTINUOUS
 62
    7
 10
854.47922052150352
 20
916.86428260452931
 11
1380.4792205215035
 21
916.86428260452931
  0
TEXT
  8
_0-5_寸法線
 62
    7
 10
1099.4792205215035
 20
916.86428260452931
 40
24
 41
1
 50
0
  1
526
  0
LINE
  8
_0-5_寸法線
  6
CONTINUOUS
 62
    7
 10
1380.4792205215035
 20
916.86428260452931
 11
1395.9340337421286
 21
921.00538732616951
  0
LINE
  8
_0-5_寸法線
  6
CONTINUOUS
 62
    7
 10
1380.4792205215035
 20
916.86428260452931
 11
1395.9340337421286
 21
912.72317788288888
  0
LINE
  8
_0-5_寸法線
  6
CONTINUOUS
 62
    7
 10
1415.4792205215031
 20
852.86428260452931
 11
1415.4792205215035
 21
924.86428260452931
  0
LINE
  8
_0-5_寸法線
  6
CONTINUOUS
 62
    7
 10
1415.4792205215035
 20
916.86428260452931
 11
1400.0244073008785
 21
912.72317788288899
  0
LINE
  8
_0-5_寸法線
  6
CONTINUOUS
 62
    7
 10
1415.4792205215035
 20
916.86428260452931
 11
1400.0244073008785
 21
921.00538732616974
  0
LINE
  8
_0-5_寸法線
  6
CONTINUOUS
 62
    7
 10
1380.4792205215035
 20
916.86428260452931
 11
1415.4792205215035
 21
916.86428260452931
  0
TEXT
  8
_0-5_寸法線
 62
    7
 10
1385.9792205215035
 20
916.86428260452931
 40
24
 41
1
 50
0
  1
35
  0
LINE
  8
_0-0_計極細
  6
CENTER2
 62
    2
 10
810.30776126367709
 20
1148.8642826045293
 11
1423.3364818903092
 21
1148.8642826045293
  0
LINE
  8
_0-1_計細線
  6
CONTINUOUS
 62
    3
 10
1524.7036124051358
 20
1220.8642826045291
 11
1517.7036124051356
 21
1220.8642826045291
  0
ARC
  8
_0-1_計細線
  6
CONTINUOUS
 62
    3
 10
1517.7036124051358
 20
1219.8642826045291
 40
1
 50
90.000000000013031
 51
179.99999999999983
  0
LINE
  8
_0-1_計細線
  6
CONTINUOUS
 62
    3
 10
1516.7036124051356
 20
1219.8642826045291
 11
1516.7036124051356
 21
1077.8642826045295
  0
ARC
  8
_0-1_計細線
  6
CONTINUOUS
 62
    3
 10
1517.7036124051356
 20
1077.8642826045295
 40
1
 50
179.99999999999983
 51
269.99999999998664
  0
LINE
  8
_0-1_計細線
  6
CONTINUOUS
 62
    3
 10
1524.7036124051358
 20
1076.8642826045295
 11
1524.7036124051358
 21
1220.8642826045291
  0
LINE
  8
_0-1_計細線
  6
CONTINUOUS
 62
    3
 10
1524.7036124051358
 20
1076.8642826045295
 11
1517.7036124051353
 21
1076.8642826045295
  0
LINE
  8
_0-0_計極細
  6
CENTER2
 62
    2
 10
1477.4613060193985
 20
1148.8642826045293
 11
1592.6843276021305
 21
1148.8642826045293
  0
LINE
  8
_0-1_計細線
  6
CONTINUOUS
 62
    3
 10
1542.2036124051351
 20
1199.8642826045293
 11
1542.2036124051351
 21
1148.8642826045291
  0
ARC
  8
_0-1_計細線
  6
CONTINUOUS
 62
    3
 10
1538.7036124051351
 20
1207.8642826045293
 40
0.5
 50
179.99999999999983
 51
269.99999999999977
  0
LINE
  8
_0-1_計細線
  6
CONTINUOUS
 62
    3
 10
1542.2036124051351
 20
1205.8642826045293
 11
1542.2036124051351
 21
1199.8642826045293
  0
LINE
  8
_0-1_計細線
  6
CONTINUOUS
 62
    3
 10
1538.7036124051351
 20
1207.3642826045293
 11
1540.7036124051351
 21
1207.3642826045293
  0
ARC
  8
_0-1_計細線
  6
CONTINUOUS
 62
    3
 10
1540.7036124051351
 20
1205.8642826045293
 40
1.5
 50
0
 51
89.999999999999915
  0
LINE
  8
_0-1_計細線
  6
CONTINUOUS
 62
    3
 10
1542.2036124051351
 20
1097.8642826045291
 11
1542.2036124051351
 21
1148.8642826045291
  0
ARC
  8
_0-1_計細線
  6
CONTINUOUS
 62
    3
 10
1538.7036124051351
 20
1089.8642826045291
 40
0.5
 50
89.999999999999915
 51
179.99999999999983
  0
LINE
  8
_0-1_計細線
  6
CONTINUOUS
 62
    3
 10
1542.2036124051351
 20
1091.8642826045291
 11
1542.2036124051351
 21
1097.8642826045291
  0
LINE
  8
_0-1_計細線
  6
CONTINUOUS
 62
    3
 10
1538.7036124051351
 20
1090.3642826045291
 11
1540.7036124051351
 21
1090.3642826045291
  0
ARC
  8
_0-1_計細線
  6
CONTINUOUS
 62
    3
 10
1540.7036124051351
 20
1091.8642826045291
 40
1.5
 50
269.99999999999977
 51
359.99999999999966
  0
ARC
  8
_0-1_計細線
  6
CONTINUOUS
 62
    3
 10
1537.2036124051351
 20
1087.8642826045295
 40
1
 50
269.99999999999977
 51
359.99999999999966
  0
LINE
  8
_0-1_計細線
  6
CONTINUOUS
 62
    3
 10
1538.2036124051351
 20
1087.8642826045295
 11
1538.2036124051351
 21
1148.8642826045291
  0
ARC
  8
_0-1_計細線
  6
CONTINUOUS
 62
    3
 10
1537.2036124051351
 20
1209.8642826045295
 40
1
 50
0
 51
89.999999999999915
  0
LINE
  8
_0-1_計細線
  6
CONTINUOUS
 62
    3
 10
1538.2036124051353
 20
1209.8642826045295
 11
1538.2036124051351
 21
1148.8642826045291
  0
LINE
  8
_0-1_計細線
  6
CONTINUOUS
 62
    3
 10
1526.2036124051353
 20
1086.8642826045295
 11
1561.2036124051358
 21
1086.8642826045295
  0
LINE
  8
_0-1_計細線
  6
CONTINUOUS
 62
    3
 10
1561.2036124051358
 20
1086.8642826045295
 11
1561.2036124051358
 21
1085.6642826045302
  0
LINE
  8
_0-1_計細線
  6
CONTINUOUS
 62
    3
 10
1561.2036124051358
 20
1085.6642826045302
 11
1526.2036124051353
 21
1085.6642826045302
  0
LINE
  8
_0-1_計細線
  6
CONTINUOUS
 62
    3
 10
1526.2036124051353
 20
1085.6642826045302
 11
1526.2036124051353
 21
1086.8642826045295
  0
LINE
  8
_0-1_計細線
  6
CONTINUOUS
 62
    3
 10
1528.2036124051353
 20
1085.6642826045302
 11
1528.2036124051353
 21
1086.8642826045295
  0
LINE
  8
_0-1_計細線
  6
CONTINUOUS
 62
    3
 10
1538.2036124051353
 20
1085.6642826045302
 11
1538.2036124051353
 21
1086.8642826045295
  0
LINE
  8
_0-1_計細線
  6
CONTINUOUS
 62
    3
 10
1540.2036124051353
 20
1085.6642826045302
 11
1540.2036124051353
 21
1086.8642826045295
  0
LINE
  8
_0-1_計細線
  6
CONTINUOUS
 62
    3
 10
1542.2036124051356
 20
1085.6642826045302
 11
1542.2036124051356
 21
1086.8642826045295
  0
LINE
  8
_0-1_計細線
  6
CONTINUOUS
 62
    3
 10
1544.2036124051353
 20
1085.6642826045302
 11
1544.2036124051353
 21
1086.8642826045295
  0
LINE
  8
_0-1_計細線
  6
CONTINUOUS
 62
    3
 10
1558.2036124051353
 20
1085.6642826045302
 11
1558.2036124051353
 21
1086.8642826045295
  0
LINE
  8
_0-1_計細線
  6
CONTINUOUS
 62
    3
 10
1526.2036124051356
 20
1212.0642826045291
 11
1561.2036124051358
 21
1212.0642826045289
  0
LINE
  8
_0-1_計細線
  6
CONTINUOUS
 62
    3
 10
1561.2036124051358
 20
1212.0642826045289
 11
1561.2036124051358
 21
1210.8642826045293
  0
LINE
  8
_0-1_計細線
  6
CONTINUOUS
 62
    3
 10
1561.2036124051358
 20
1210.8642826045293
 11
1526.2036124051356
 21
1210.8642826045295
  0
LINE
  8
_0-1_計細線
  6
CONTINUOUS
 62
    3
 10
1526.2036124051356
 20
1210.8642826045295
 11
1526.2036124051356
 21
1212.0642826045291
  0
LINE
  8
_0-1_計細線
  6
CONTINUOUS
 62
    3
 10
1528.2036124051356
 20
1210.8642826045295
 11
1528.2036124051356
 21
1212.0642826045291
  0
LINE
  8
_0-1_計細線
  6
CONTINUOUS
 62
    3
 10
1538.2036124051356
 20
1210.8642826045295
 11
1538.2036124051356
 21
1212.0642826045291
  0
LINE
  8
_0-1_計細線
  6
CONTINUOUS
 62
    3
 10
1540.2036124051356
 20
1210.8642826045293
 11
1540.2036124051356
 21
1212.0642826045291
  0
LINE
  8
_0-1_計細線
  6
CONTINUOUS
 62
    3
 10
1542.2036124051356
 20
1210.8642826045293
 11
1542.2036124051356
 21
1212.0642826045291
  0
LINE
  8
_0-1_計細線
  6
CONTINUOUS
 62
    3
 10
1544.2036124051356
 20
1210.8642826045293
 11
1544.2036124051356
 21
1212.0642826045291
  0
LINE
  8
_0-1_計細線
  6
CONTINUOUS
 62
    3
 10
1558.2036124051358
 20
1210.8642826045293
 11
1558.2036124051358
 21
1212.0642826045289
  0
LINE
  8
_0-1_計細線
  6
CONTINUOUS
 62
    3
 10
1537.2036124051351
 20
1210.8642826045295
 11
1524.7036124051358
 21
1210.8642826045295
  0
LINE
  8
_0-1_計細線
  6
CONTINUOUS
 62
    3
 10
1537.2036124051349
 20
1086.8642826045295
 11
1524.7036124051356
 21
1086.8642826045295
  0
LINE
  8
_0-a_極細1
  6
CONTINUOUS
 62
    7
 10
1861.2703120523061
 20
506.47284620872313
 11
1866.6504800691332
 21
511.85301422554892
  0
LINE
  8
_0-a_極細1
  6
CONTINUOUS
 62
    7
 10
1860.9696048378178
 20
494.8584304952509
 11
1877.9641885681162
 21
511.85301422554892
  0
LINE
  8
_0-a_極細1
  6
CONTINUOUS
 62
    7
 10
1853.552330132487
 20
476.12744729093481
 11
1889.2778970671029
 21
511.85301422554892
  0
LINE
  8
_0-a_極細1
  6
CONTINUOUS
 62
    7
 10
1850.6916037671749
 20
461.95301242663697
 11
1900.5916055660859
 21
511.85301422554892
  0
LINE
  8
_0-a_極細1
  6
CONTINUOUS
 62
    7
 10
1851.7895747486295
 20
451.73727490910721
 11
1911.9053140650726
 21
511.85301422554892
  0
LINE
  8
_0-a_極細1
  6
CONTINUOUS
 62
    7
 10
1859.2190225640556
 20
447.85301422554846
 11
1923.2190225640556
 21
511.85301422554892
  0
LINE
  8
_0-a_極細1
  6
CONTINUOUS
 62
    7
 10
1870.5327310630405
 20
447.85301422554846
 11
1934.5327310630405
 21
511.85301422554846
  0
LINE
  8
_0-a_極細1
  6
CONTINUOUS
 62
    7
 10
1881.8464395620254
 20
447.85301422554846
 11
1945.8464395620254
 21
511.85301422554846
  0
LINE
  8
_0-a_極細1
  6
CONTINUOUS
 62
    7
 10
1893.1601480610102
 20
447.85301422554846
 11
1957.1601480610102
 21
511.85301422554846
  0
LINE
  8
_0-a_極細1
  6
CONTINUOUS
 62
    7
 10
1904.4738565599951
 20
447.85301422554846
 11
1968.4738565599951
 21
511.85301422554846
  0
LINE
  8
_0-a_極細1
  6
CONTINUOUS
 62
    7
 10
1915.7875650589799
 20
447.85301422554846
 11
1979.7875650589799
 21
511.85301422554846
  0
LINE
  8
_0-a_極細1
  6
CONTINUOUS
 62
    7
 10
1927.1012735579648
 20
447.85301422554846
 11
1991.1012735579648
 21
511.85301422554846
  0
LINE
  8
_0-a_極細1
  6
CONTINUOUS
 62
    7
 10
1938.4149820569496
 20
447.85301422554846
 11
2002.4149820569496
 21
511.85301422554846
  0
LINE
  8
_0-a_極細1
  6
CONTINUOUS
 62
    7
 10
1949.7286905559345
 20
447.85301422554846
 11
2013.7286905559345
 21
511.85301422554846
  0
LINE
  8
_0-a_極細1
  6
CONTINUOUS
 62
    7
 10
1961.0423990549193
 20
447.85301422554846
 11
2025.0423990549193
 21
511.85301422554846
  0
LINE
  8
_0-a_極細1
  6
CONTINUOUS
 62
    7
 10
1972.3561075539042
 20
447.85301422554846
 11
2036.3561075539042
 21
511.85301422554846
  0
LINE
  8
_0-a_極細1
  6
CONTINUOUS
 62
    7
 10
1983.669816052889
 20
447.85301422554846
 11
2047.669816052889
 21
511.85301422554846
  0
LINE
  8
_0-a_極細1
  6
CONTINUOUS
 62
    7
 10
1994.9835245518739
 20
447.85301422554846
 11
2058.9835245518739
 21
511.85301422554846
  0
LINE
  8
_0-a_極細1
  6
CONTINUOUS
 62
    7
 10
2006.2972330508587
 20
447.85301422554846
 11
2066.9454844572942
 21
508.50126563198398
  0
LINE
  8
_0-a_極細1
  6
CONTINUOUS
 62
    7
 10
2017.6109415498436
 20
447.85301422554846
 11
2067.3053995776886
 21
497.54747225339349
  0
LINE
  8
_0-a_極細1
  6
CONTINUOUS
 62
    7
 10
2028.9246500488284
 20
447.85301422554846
 11
2061.5618459705734
 21
480.49021014729249
  0
LINE
  8
_0-a_極細1
  6
CONTINUOUS
 62
    7
 10
2040.2383585478133
 20
447.85301422554846
 11
2056.7815268036907
 21
464.39618248142585
  0
LINE
  8
_0-a_極細1
  6
CONTINUOUS
 62
    7
 10
2051.5520670467981
 20
447.85301422554846
 11
2057.3493561217988
 21
453.65030330054913
  0
LINE
  8
_0-a_極細1
  6
CONTINUOUS
 62
    7
 10
2062.865775545783
 20
511.85301422554846
 11
2067.082988598168
 21
507.63580117316531
  0
LINE
  8
_0-a_極細1
  6
CONTINUOUS
 62
    7
 10
2051.5520670467999
 20
511.85301422554846
 11
2067.1510948595919
 21
496.25398641275558
  0
LINE
  8
_0-a_極細1
  6
CONTINUOUS
 62
    7
 10
2040.2383585478133
 20
511.85301422554846
 11
2064.8519186586823
 21
487.23945411468037
  0
LINE
  8
_0-a_極細1
  6
CONTINUOUS
 62
    7
 10
2028.9246500488302
 20
511.85301422554846
 11
2061.1216390601007
 21
479.65602521427707
  0
LINE
  8
_0-a_極細1
  6
CONTINUOUS
 62
    7
 10
2017.6109415498436
 20
511.85301422554846
 11
2057.9886622894051
 21
471.47529348598835
  0
LINE
  8
_0-a_極細1
  6
CONTINUOUS
 62
    7
 10
2006.2972330508605
 20
511.85301422554846
 11
2056.6525185917058
 21
461.49772868470325
  0
LINE
  8
_0-a_極細1
  6
CONTINUOUS
 62
    7
 10
1994.9835245518757
 20
511.85301422554846
 11
2058.8417850217361
 21
447.9947537556867
  0
LINE
  8
_0-a_極細1
  6
CONTINUOUS
 62
    7
 10
1983.6698160528908
 20
511.85301422554846
 11
2047.6698160528908
 21
447.85301422554846
  0
LINE
  8
_0-a_極細1
  6
CONTINUOUS
 62
    7
 10
1972.356107553906
 20
511.85301422554846
 11
2036.3561075539042
 21
447.85301422554846
  0
LINE
  8
_0-a_極細1
  6
CONTINUOUS
 62
    7
 10
1961.0423990549211
 20
511.85301422554846
 11
2025.0423990549211
 21
447.85301422554846
  0
LINE
  8
_0-a_極細1
  6
CONTINUOUS
 62
    7
 10
1949.7286905559363
 20
511.85301422554846
 11
2013.7286905559363
 21
447.85301422554846
  0
LINE
  8
_0-a_極細1
  6
CONTINUOUS
 62
    7
 10
1938.4149820569514
 20
511.85301422554846
 11
2002.4149820569514
 21
447.85301422554846
  0
LINE
  8
_0-a_極細1
  6
CONTINUOUS
 62
    7
 10
1927.1012735579666
 20
511.85301422554846
 11
1991.1012735579666
 21
447.85301422554846
  0
LINE
  8
_0-a_極細1
  6
CONTINUOUS
 62
    7
 10
1915.7875650589817
 20
511.85301422554892
 11
1979.7875650589817
 21
447.85301422554846
  0
LINE
  8
_0-a_極細1
  6
CONTINUOUS
 62
    7
 10
1904.4738565599969
 20
511.85301422554892
 11
1968.4738565599969
 21
447.85301422554846
  0
LINE
  8
_0-a_極細1
  6
CONTINUOUS
 62
    7
 10
1893.160148061012
 20
511.85301422554892
 11
1957.160148061012
 21
447.85301422554846
  0
LINE
  8
_0-a_極細1
  6
CONTINUOUS
 62
    7
 10
1881.8464395620272
 20
511.85301422554892
 11
1945.8464395620272
 21
447.85301422554846
  0
LINE
  8
_0-a_極細1
  6
CONTINUOUS
 62
    7
 10
1870.5327310630423
 20
511.85301422554892
 11
1934.5327310630423
 21
447.85301422554846
  0
LINE
  8
_0-a_極細1
  6
CONTINUOUS
 62
    7
 10
1860.5905541493926
 20
510.48148264021563
 11
1923.2190225640575
 21
447.85301422554846
  0
LINE
  8
_0-a_極細1
  6
CONTINUOUS
 62
    7
 10
1861.412275602594
 20
498.34605268802795
 11
1911.9053140650726
 21
447.85301422554846
  0
LINE
  8
_0-a_極細1
  6
CONTINUOUS
 62
    7
 10
1859.4941192787123
 20
488.95050051292571
 11
1900.5916055660896
 21
447.85301422554846
  0
LINE
  8
_0-a_極細1
  6
CONTINUOUS
 62
    7
 10
1855.9678507433514
 20
481.16306054930089
 11
1889.2778970671029
 21
447.85301422554846
  0
LINE
  8
_0-a_極細1
  6
CONTINUOUS
 62
    7
 10
1852.5405020178828
 20
473.27670077578466
 11
1877.9641885681199
 21
447.85301422554846
  0
LINE
  8
_0-a_極細1
  6
CONTINUOUS
 62
    7
 10
1850.7664793626977
 20
463.73701493198485
 11
1866.6504800691332
 21
447.85301422554846
  0
LINE
  8
_0-a_極細1
  6
CONTINUOUS
 62
    7
 10
1851.8986157930017
 20
451.29117000269696
 11
1855.3367715701502
 21
447.85301422554846
  0
ARC
  8
_0-a_極細1
  6
CONTINUOUS
 62
    7
 10
2026.9590005539962
 20
501.70459695909528
 40
40.559999999972042
 50
329.9999999999639
 51
30.000000000012992
  0
ARC
  8
_0-a_極細1
  6
CONTINUOUS
 62
    7
 10
2097.210981308845
 20
461.14459695910853
 40
40.559999999917657
 50
149.99999999994796
 51
210.00000000010346
  0
ARC
  8
_0-a_極細1
  6
CONTINUOUS
 62
    7
 10
1820.9915658070327
 20
501.70459695909528
 40
40.559999999972042
 50
329.99999999996328
 51
30.000000000012331
  0
ARC
  8
_0-a_極細1
  6
CONTINUOUS
 62
    7
 10
1891.2435465618805
 20
461.14459695910853
 40
40.559999999917657
 50
149.99999999994796
 51
210.00000000010346
  0
LINE
  8
_0-b_細線1
  6
CONTINUOUS
 62
    7
 10
2058.8906547388619
 20
447.85301422554846
 11
1852.9232199918974
 21
447.85301422554846
  0
LINE
  8
_0-b_細線1
  6
CONTINUOUS
 62
    7
 10
1860.2614426464593
 20
511.85301422554846
 11
2066.2288773934238
 21
511.85301422554846
  0
LINE
  8
_0-d_寸法1
  6
CONTINUOUS
 62
    7
 10
1838.2423657196746
 20
447.85301422554852
 11
1761.0680941353717
 21
447.85301422554846
  0
LINE
  8
_0-d_寸法1
  6
CONTINUOUS
 62
    7
 10
1769.0680941353717
 20
447.85301422554846
 11
1764.9269894137315
 21
463.30782744617358
  0
LINE
  8
_0-d_寸法1
  6
CONTINUOUS
 62
    7
 10
1769.0680941353717
 20
447.85301422554846
 11
1773.2091988570121
 21
463.30782744617358
  0
LINE
  8
_0-d_寸法1
  6
CONTINUOUS
 62
    7
 10
1844.2614426464575
 20
511.85301422554852
 11
1761.0680941353717
 21
511.85301422554846
  0
LINE
  8
_0-d_寸法1
  6
CONTINUOUS
 62
    7
 10
1769.0680941353717
 20
511.85301422554846
 11
1773.2091988570121
 21
496.39820100492335
  0
LINE
  8
_0-d_寸法1
  6
CONTINUOUS
 62
    7
 10
1769.0680941353717
 20
511.85301422554846
 11
1764.9269894137315
 21
496.39820100492335
  0
LINE
  8
_0-d_寸法1
  6
CONTINUOUS
 62
    7
 10
1769.0680941353717
 20
447.85301422554846
 11
1769.0680941353717
 21
511.85301422554846
  0
TEXT
  8
_0-d_寸法1
 62
    7
 10
1769.0680941353717
 20
473.85301422554846
 40
24
 41
1
 50
90
  1
8
  0
TEXT
  8
_0-7_枠細線
 62
    5
 10
1914.6349561496336
 20
401.33201984568689
 40
28.000000000000004
 41
0.8000000000000001
 50
0
  1
表面形状
  0
TEXT
  8
_0-7_枠細線
 62
    5
 10
1536.8000000000002
 20
239.24855752183862
 40
32
 41
0.5
 50
0
  1
排水ユニット ＳＵＳグレーチング Ｔバー 浅型
  0
TEXT
  8
_0-7_枠細線
 62
    5
 10
1539.8715071507147
 20
176
 40
32
 41
0.6
 50
0
  1
ＨＳＴＴ－１５Ｌ６００
  0
TEXT
  8
_0-7_枠細線
 62
    5
 10
2096
 20
108
 40
24
 41
0.6666666666666666
 50
0
  1
２０１９年０４月０１日
  0
LINE
  8
_0-5_寸法線
  6
CONTINUOUS
 62
    7
 10
1516.7036124051356
 20
1236.8642826045291
 11
1516.7036124051358
 21
1364.8642826045291
  0
LINE
  8
_0-5_寸法線
  6
CONTINUOUS
 62
    7
 10
1516.7036124051358
 20
1356.8642826045291
 11
1532.1584256257609
 21
1361.0053873261695
  0
LINE
  8
_0-5_寸法線
  6
CONTINUOUS
 62
    7
 10
1516.7036124051358
 20
1356.8642826045291
 11
1532.1584256257609
 21
1352.7231778828886
  0
LINE
  8
_0-5_寸法線
  6
CONTINUOUS
 62
    7
 10
1561.2036124051358
 20
1228.0642826045291
 11
1561.203612405136
 21
1364.8642826045291
  0
LINE
  8
_0-5_寸法線
  6
CONTINUOUS
 62
    7
 10
1561.203612405136
 20
1356.8642826045291
 11
1545.748799184511
 21
1352.7231778828889
  0
LINE
  8
_0-5_寸法線
  6
CONTINUOUS
 62
    7
 10
1561.203612405136
 20
1356.8642826045291
 11
1545.748799184511
 21
1361.0053873261695
  0
LINE
  8
_0-5_寸法線
  6
CONTINUOUS
 62
    7
 10
1516.7036124051358
 20
1356.8642826045291
 11
1561.203612405136
 21
1356.8642826045291
  0
TEXT
  8
_0-5_寸法線
 62
    7
 10
1514.953612405136
 20
1356.8642826045291
 40
24
 41
1
 50
0
  1
44.5
  0
LINE
  8
_0-5_寸法線
  6
CONTINUOUS
 62
    7
 10
1516.7036124051358
 20
1236.8642826045291
 11
1516.703612405136
 21
1308.8642826045291
  0
LINE
  8
_0-5_寸法線
  6
CONTINUOUS
 62
    7
 10
1516.703612405136
 20
1300.8642826045291
 11
1501.248799184511
 21
1296.7231778828889
  0
LINE
  8
_0-5_寸法線
  6
CONTINUOUS
 62
    7
 10
1516.703612405136
 20
1300.8642826045291
 11
1501.248799184511
 21
1305.0053873261695
  0
LINE
  8
_0-5_寸法線
  6
CONTINUOUS
 62
    7
 10
1538.2036124051356
 20
1228.0642826045291
 11
1538.2036124051358
 21
1308.8642826045291
  0
CIRCLE
  8
_0-5_寸法線
  6
CONTINUOUS
 62
    1
 10
1538.2036124051358
 20
1300.8642826045291
 40
2.3999999999999999
  0
LINE
  8
_0-5_寸法線
  6
CONTINUOUS
 62
    7
 10
1454.2245186871976
 20
1300.8642826045291
 11
1538.2036124051358
 21
1300.8642826045291
  0
TEXT
  8
_0-5_寸法線
 62
    7
 10
1454.2245186871978
 20
1300.851875158558
 40
24
 41
1
 50
0
  1
21.5
  0
LINE
  8
_0-5_寸法線
  6
CONTINUOUS
 62
    7
 10
1561.2036124051358
 20
1228.0642826045291
 11
1561.203612405136
 21
1308.8642826045291
  0
LINE
  8
_0-5_寸法線
  6
CONTINUOUS
 62
    7
 10
1561.203612405136
 20
1300.8642826045291
 11
1576.6584256257611
 21
1305.0053873261693
  0
LINE
  8
_0-5_寸法線
  6
CONTINUOUS
 62
    7
 10
1561.203612405136
 20
1300.8642826045291
 11
1576.6584256257611
 21
1296.7231778828886
  0
LINE
  8
_0-5_寸法線
  6
CONTINUOUS
 62
    7
 10
1538.2036124051358
 20
1300.8642826045291
 11
1609.0559573866228
 21
1300.8642826045291
  0
TEXT
  8
_0-5_寸法線
 62
    7
 10
1585.055957386623
 20
1300.8518751585584
 40
24
 41
1
 50
0
  1
23
  0
LINE
  8
_0-a_極細1
  6
CONTINUOUS
 62
    7
 10
685.64228571310719
 20
586.47668478060791
 11
704.84228379310855
 21
586.47668478060791
  0
LINE
  8
_0-a_極細1
  6
CONTINUOUS
 62
    7
 10
685.64228571310719
 20
587.54335134060784
 11
704.84228379310855
 21
587.54335134060784
  0
LINE
  8
_0-a_極細1
  6
CONTINUOUS
 62
    7
 10
685.47040982037993
 20
588.61001790060777
 11
704.84228379310855
 21
588.61001790060777
  0
LINE
  8
_0-a_極細1
  6
CONTINUOUS
 62
    7
 10
684.40374326037977
 20
589.67668446060793
 11
704.84228379310855
 21
589.67668446060793
  0
LINE
  8
_0-a_極細1
  6
CONTINUOUS
 62
    7
 10
683.33707670038007
 20
590.74335102060786
 11
704.84228379310855
 21
590.74335102060786
  0
LINE
  8
_0-a_極細1
  6
CONTINUOUS
 62
    7
 10
683.68082848583413
 20
591.81001758060802
 11
704.84228379310855
 21
591.81001758060802
  0
LINE
  8
_0-a_極細1
  6
CONTINUOUS
 62
    7
 10
684.74749504583428
 20
592.87668414060818
 11
704.84228379310855
 21
592.87668414060818
  0
LINE
  8
_0-a_極細1
  6
CONTINUOUS
 62
    7
 10
685.64228571310719
 20
593.94335070060788
 11
704.84228379310855
 21
593.94335070060788
  0
LINE
  8
_0-a_極細1
  6
CONTINUOUS
 62
    7
 10
685.64228571310719
 20
595.01001726060804
 11
704.84228379310855
 21
595.01001726060804
  0
LINE
  8
_0-a_極細1
  6
CONTINUOUS
 62
    7
 10
685.64228571310719
 20
596.0766838206082
 11
704.84228379310855
 21
596.0766838206082
  0
LINE
  8
_0-a_極細1
  6
CONTINUOUS
 62
    7
 10
685.64228571310719
 20
597.14335038060813
 11
704.84228379310855
 21
597.14335038060813
  0
LINE
  8
_0-a_極細1
  6
CONTINUOUS
 62
    7
 10
685.64228571310719
 20
598.21001694060828
 11
704.84228379310855
 21
598.21001694060828
  0
LINE
  8
_0-a_極細1
  6
CONTINUOUS
 62
    7
 10
685.64228571310719
 20
599.27668350060844
 11
704.84228379310855
 21
599.27668350060844
  0
LINE
  8
_0-a_極細1
  6
CONTINUOUS
 62
    7
 10
685.64228571310719
 20
600.34335006060837
 11
704.84228379310855
 21
600.34335006060837
  0
LINE
  8
_0-a_極細1
  6
CONTINUOUS
 62
    7
 10
684.93707654037951
 20
601.4100166206083
 11
705.21839535189667
 21
601.4100166206083
  0
LINE
  8
_0-a_極細1
  6
CONTINUOUS
 62
    7
 10
683.87040998037969
 20
602.47668318060846
 11
705.7872841838963
 21
602.47668318060846
  0
LINE
  8
_0-a_極細1
  6
CONTINUOUS
 62
    7
 10
683.14749520583518
 20
603.54334974060839
 11
706.35617301589639
 21
603.54334974060839
  0
LINE
  8
_0-a_極細1
  6
CONTINUOUS
 62
    7
 10
684.214161765835
 20
604.61001630060855
 11
706.92506184789647
 21
604.61001630060855
  0
LINE
  8
_0-a_極細1
  6
CONTINUOUS
 62
    7
 10
685.28082832583516
 20
605.67668286060871
 11
707.49395067989656
 21
605.67668286060871
  0
LINE
  8
_0-a_極細1
  6
CONTINUOUS
 62
    7
 10
685.64228571310719
 20
606.74334942060841
 11
708.06283951189664
 21
606.74334942060841
  0
LINE
  8
_0-a_極細1
  6
CONTINUOUS
 62
    7
 10
685.64228571310719
 20
607.81001598060857
 11
708.63172834389604
 21
607.81001598060857
  0
LINE
  8
_0-a_極細1
  6
CONTINUOUS
 62
    7
 10
739.55197199771658
 20
560.44858314908174
 11
739.55197199771658
 21
642.76828370201588
  0
LINE
  8
_0-a_極細1
  6
CONTINUOUS
 62
    7
 10
738.48530543771687
 20
559.38191658908181
 11
738.48530543771687
 21
642.53755544847058
  0
LINE
  8
_0-a_極細1
  6
CONTINUOUS
 62
    7
 10
737.41863887771672
 20
558.31525002908165
 11
737.41863887771672
 21
642.06775141941534
  0
LINE
  8
_0-a_極細1
  6
CONTINUOUS
 62
    7
 10
736.35197231771656
 20
557.24858346908195
 11
736.35197231771656
 21
641.27693401342367
  0
LINE
  8
_0-a_極細1
  6
CONTINUOUS
 62
    7
 10
735.28530575771686
 20
556.18191690908202
 11
735.28530575771686
 21
639.89549001372779
  0
LINE
  8
_0-a_極細1
  6
CONTINUOUS
 62
    7
 10
734.21863919771693
 20
555.11525034908209
 11
734.21863919771693
 21
635.73790328261634
  0
LINE
  8
_0-a_極細1
  6
CONTINUOUS
 62
    7
 10
733.15197263771677
 20
554.0485837890817
 11
733.15197263771677
 21
633.52851517722479
  0
LINE
  8
_0-a_極細1
  6
CONTINUOUS
 62
    7
 10
732.08530607771661
 20
553.20555886447255
 11
732.08530607771661
 21
632.20749056689738
  0
LINE
  8
_0-a_極細1
  6
CONTINUOUS
 62
    7
 10
731.01863951771691
 20
553.20555886447255
 11
731.01863951771691
 21
631.27295429283731
  0
LINE
  8
_0-a_極細1
  6
CONTINUOUS
 62
    7
 10
729.95197295771629
 20
553.20555886447255
 11
729.95197295771629
 21
630.58744570579347
  0
LINE
  8
_0-a_極細1
  6
CONTINUOUS
 62
    7
 10
728.88530639771659
 20
553.20555886447255
 11
728.88530639771659
 21
630.09012952629337
  0
LINE
  8
_0-a_極細1
  6
CONTINUOUS
 62
    7
 10
727.81863983771666
 20
553.20555886447255
 11
727.81863983771666
 21
629.74900469695285
  0
LINE
  8
_0-a_極細1
  6
CONTINUOUS
 62
    7
 10
726.75197327771627
 20
553.20555886447255
 11
726.75197327771627
 21
629.5462787615852
  0
LINE
  8
_0-a_極細1
  6
CONTINUOUS
 62
    7
 10
725.68530671771634
 20
553.20555886447255
 11
725.68530671771634
 21
629.47266292401036
  0
LINE
  8
_0-a_極細1
  6
CONTINUOUS
 62
    7
 10
724.61864015771619
 20
553.20555886447255
 11
724.61864015771619
 21
629.47221790447315
  0
LINE
  8
_0-a_極細1
  6
CONTINUOUS
 62
    7
 10
723.55197359771603
 20
553.20555886447255
 11
723.55197359771603
 21
629.47221790447315
  0
LINE
  8
_0-a_極細1
  6
CONTINUOUS
 62
    7
 10
722.48530703771632
 20
553.20555886447255
 11
722.48530703771632
 21
629.47221790447315
  0
LINE
  8
_0-a_極細1
  6
CONTINUOUS
 62
    7
 10
721.41864047771662
 20
553.20555886447255
 11
721.41864047771662
 21
629.47221790447315
  0
LINE
  8
_0-a_極細1
  6
CONTINUOUS
 62
    7
 10
720.35197391771646
 20
553.20555886447255
 11
720.35197391771646
 21
629.47221790447315
  0
LINE
  8
_0-a_極細1
  6
CONTINUOUS
 62
    7
 10
719.28530735771631
 20
553.20555886447255
 11
719.28530735771631
 21
629.47221790447315
  0
LINE
  8
_0-a_極細1
  6
CONTINUOUS
 62
    7
 10
718.21864079771638
 20
553.20555886447255
 11
718.21864079771638
 21
629.37786571925335
  0
LINE
  8
_0-a_極細1
  6
CONTINUOUS
 62
    7
 10
717.15197423771622
 20
553.20555886447255
 11
717.15197423771622
 21
629.06746684262816
  0
LINE
  8
_0-a_極細1
  6
CONTINUOUS
 62
    7
 10
716.08530767771651
 20
553.20555886447255
 11
716.08530767771651
 21
628.49752976501622
  0
LINE
  8
_0-a_極細1
  6
CONTINUOUS
 62
    7
 10
715.01864111771636
 20
553.20555886447255
 11
715.01864111771636
 21
627.54928909783007
  0
LINE
  8
_0-a_極細1
  6
CONTINUOUS
 62
    7
 10
713.9519745577162
 20
553.20555886447255
 11
713.9519745577162
 21
625.70869257483218
  0
LINE
  8
_0-a_極細1
  6
CONTINUOUS
 62
    7
 10
712.88530799771604
 20
553.20555886447255
 11
712.88530799771604
 21
563.87222446447231
  0
LINE
  8
_0-a_極細1
  6
CONTINUOUS
 62
    7
 10
711.81864143771588
 20
553.20555886447255
 11
711.81864143771588
 21
563.87222446447231
  0
LINE
  8
_0-a_極細1
  6
CONTINUOUS
 62
    7
 10
710.75197487771572
 20
553.20555886447255
 11
710.75197487771572
 21
563.87222446447231
  0
LINE
  8
_0-a_極細1
  6
CONTINUOUS
 62
    7
 10
709.68530831771579
 20
553.20555886447255
 11
709.68530831771579
 21
563.87222446447231
  0
LINE
  8
_0-a_極細1
  6
CONTINUOUS
 62
    7
 10
708.61864175771609
 20
553.20555886447255
 11
708.61864175771609
 21
563.87222446447231
  0
LINE
  8
_0-a_極細1
  6
CONTINUOUS
 62
    7
 10
707.55197519771593
 20
553.20555886447255
 11
707.55197519771593
 21
563.87222446447231
  0
LINE
  8
_0-a_極細1
  6
CONTINUOUS
 62
    7
 10
706.48530863771578
 20
553.20555886447255
 11
706.48530863771578
 21
563.87222446447231
  0
LINE
  8
_0-a_極細1
  6
CONTINUOUS
 62
    7
 10
705.41864207771607
 20
553.20555886447255
 11
705.41864207771607
 21
563.87222446447231
  0
LINE
  8
_0-a_極細1
  6
CONTINUOUS
 62
    7
 10
704.35197551771546
 20
553.20555886447255
 11
704.35197551771546
 21
563.87222446447231
  0
LINE
  8
_0-a_極細1
  6
CONTINUOUS
 62
    7
 10
703.28530895771576
 20
553.20555886447255
 11
703.28530895771576
 21
563.87222446447231
  0
LINE
  8
_0-a_極細1
  6
CONTINUOUS
 62
    7
 10
702.21864239771696
 20
542.53889326447234
 11
702.21864239771696
 21
574.53889006447253
  0
LINE
  8
_0-a_極細1
  6
CONTINUOUS
 62
    7
 10
701.15197583771726
 20
542.53889326447234
 11
701.15197583771726
 21
574.53889006447253
  0
LINE
  8
_0-a_極細1
  6
CONTINUOUS
 62
    7
 10
700.0853092777171
 20
542.53889326447234
 11
700.0853092777171
 21
546.23692651609622
  0
LINE
  8
_0-a_極細1
  6
CONTINUOUS
 62
    7
 10
700.0853092777171
 20
553.74304681072408
 11
700.0853092777171
 21
574.53889006447253
  0
LINE
  8
_0-a_極細1
  6
CONTINUOUS
 62
    7
 10
699.01864271771694
 20
542.53889326447234
 11
699.01864271771694
 21
543.3242762868656
  0
LINE
  8
_0-a_極細1
  6
CONTINUOUS
 62
    7
 10
699.01864271771694
 20
553.74304681072408
 11
699.01864271771694
 21
574.53889006447253
  0
LINE
  8
_0-a_極細1
  6
CONTINUOUS
 62
    7
 10
697.95197615771701
 20
553.74304681072408
 11
697.95197615771701
 21
574.53889006447253
  0
LINE
  8
_0-a_極細1
  6
CONTINUOUS
 62
    7
 10
696.88530959771731
 20
553.74304681072408
 11
696.88530959771731
 21
574.53889006447253
  0
LINE
  8
_0-a_極細1
  6
CONTINUOUS
 62
    7
 10
695.8186430377167
 20
553.74304681072408
 11
695.8186430377167
 21
574.53889006447253
  0
LINE
  8
_0-a_極細1
  6
CONTINUOUS
 62
    7
 10
694.75197647771699
 20
553.74304681072408
 11
694.75197647771699
 21
574.53889006447253
  0
LINE
  8
_0-a_極細1
  6
CONTINUOUS
 62
    7
 10
693.68530991771684
 20
553.74304681072408
 11
693.68530991771684
 21
574.53889006447253
  0
LINE
  8
_0-a_極細1
  6
CONTINUOUS
 62
    7
 10
692.61864335771668
 20
553.74304681072408
 11
692.61864335771668
 21
574.53889006447253
  0
LINE
  8
_0-a_極細1
  6
CONTINUOUS
 62
    7
 10
691.55197679771652
 20
553.74304681072408
 11
691.55197679771652
 21
574.53889006447253
  0
LINE
  8
_0-a_極細1
  6
CONTINUOUS
 62
    7
 10
690.4853102377167
 20
553.74304681072408
 11
690.4853102377167
 21
574.53889006447253
  0
LINE
  8
_0-a_極細1
  6
CONTINUOUS
 62
    7
 10
689.41864367771655
 20
553.74304681072408
 11
689.41864367771655
 21
574.53889006447253
  0
LINE
  8
_0-a_極細1
  6
CONTINUOUS
 62
    7
 10
688.35197711771673
 20
553.74304681072408
 11
688.35197711771673
 21
574.53889006447253
  0
LINE
  8
_0-a_極細1
  6
CONTINUOUS
 62
    7
 10
673.64228691310768
 20
537.74304841072444
 11
673.64228691310768
 21
553.20555886447255
  0
ARC
  8
_0-a_極細1
  6
CONTINUOUS
 62
    7
 10
657.64228851310816
 20
553.74304681072408
 40
15.999998399999999
 50
358.07490068720398
 51
50.029499419963109
  0
LINE
  8
_0-a_極細1
  6
CONTINUOUS
 62
    7
 10
740.19694692430801
 20
635.5433465406079
 11
746.90573607907766
 21
635.5433465406079
  0
LINE
  8
_0-a_極細1
  6
CONTINUOUS
 62
    7
 10
740.19694692430801
 20
636.61001310060783
 11
756.13373515627802
 21
636.61001310060783
  0
LINE
  8
_0-a_極細1
  6
CONTINUOUS
 62
    7
 10
740.19694692430801
 20
637.67667966060776
 11
765.3617342334777
 21
637.67667966060776
  0
LINE
  8
_0-a_極細1
  6
CONTINUOUS
 62
    7
 10
740.19694692430801
 20
638.74334622060792
 11
774.58973331067784
 21
638.74334622060792
  0
LINE
  8
_0-a_極細1
  6
CONTINUOUS
 62
    7
 10
740.19694692430801
 20
639.81001278060785
 11
777.10894323310765
 21
639.81001278060785
  0
LINE
  8
_0-a_極細1
  6
CONTINUOUS
 62
    7
 10
740.19694692430801
 20
640.87667934060801
 11
777.10894323310765
 21
640.87667934060801
  0
LINE
  8
_0-a_極細1
  6
CONTINUOUS
 62
    7
 10
740.19694692430801
 20
641.94334590060816
 11
777.10894323310765
 21
641.94334590060816
  0
LINE
  8
_0-a_極細1
  6
CONTINUOUS
 62
    7
 10
741.89701187691378
 20
643.01001246060832
 11
777.10894323310765
 21
643.01001246060832
  0
LINE
  8
_0-a_極細1
  6
CONTINUOUS
 62
    7
 10
749.38607375611366
 20
644.07667902060803
 11
777.10894323310765
 21
644.07667902060803
  0
LINE
  8
_0-a_極細1
  6
CONTINUOUS
 62
    7
 10
756.87513563531331
 20
645.14334558060818
 11
777.10894323310765
 21
645.14334558060818
  0
LINE
  8
_0-a_極細1
  6
CONTINUOUS
 62
    7
 10
764.36419751451297
 20
646.21001214060834
 11
777.10894323310765
 21
646.21001214060834
  0
LINE
  8
_0-a_極細1
  6
CONTINUOUS
 62
    7
 10
771.85325939371307
 20
647.27667870060827
 11
777.10894323310765
 21
647.27667870060827
  0
LINE
  8
_0-a_極細1
  6
CONTINUOUS
 62
    7
 10
777.10894323310765
 20
648.1012080415735
 11
777.10894323310765
 21
651.79625308364371
  0
LINE
  8
_0-a_極細1
  6
CONTINUOUS
 62
    7
 10
740.19694692430801
 20
646.53888286447295
 11
777.10894323310765
 21
651.79625308364371
  0
LINE
  8
_0-a_極細1
  6
CONTINUOUS
 62
    7
 10
705.6422837131073
 20
609.74304121072419
 11
705.6422837131073
 21
614.53888606447254
  0
LINE
  8
_0-a_極細1
  6
CONTINUOUS
 62
    7
 10
705.6422837131073
 20
577.20971113072369
 11
705.6422837131073
 21
585.20971033072351
  0
LINE
  8
_0-a_極細1
  6
CONTINUOUS
 62
    7
 10
685.64228571310764
 20
600.70480744788074
 11
685.64228571310764
 21
593.77147480788085
  0
LINE
  8
_0-a_極細1
  6
CONTINUOUS
 62
    7
 10
685.64228571310764
 20
588.43814200788051
 11
685.64228571310764
 21
585.7714756078808
  0
LINE
  8
_0-a_極細1
  6
CONTINUOUS
 62
    7
 10
704.84228379310832
 20
600.70480744788074
 11
704.84228379310832
 21
585.7714756078808
  0
LINE
  8
_0-a_極細1
  6
CONTINUOUS
 62
    7
 10
682.97561931310759
 20
603.37147384788068
 11
685.64228571310764
 21
606.03814024788062
  0
LINE
  8
_0-a_極細1
  6
CONTINUOUS
 62
    7
 10
685.64228571310764
 20
600.70480744788074
 11
682.97561931310759
 21
603.37147384788068
  0
LINE
  8
_0-a_極細1
  6
CONTINUOUS
 62
    7
 10
685.64228571310764
 20
588.43814200788051
 11
682.97561931310759
 21
591.10480840788091
  0
LINE
  8
_0-a_極細1
  6
CONTINUOUS
 62
    7
 10
682.97561931310759
 20
591.10480840788091
 11
685.64228571310764
 21
593.77147480788085
  0
LINE
  8
_0-a_極細1
  6
CONTINUOUS
 62
    7
 10
704.84228379310832
 20
600.70480744788074
 11
709.10895003310782
 21
608.7048066478801
  0
LINE
  8
_0-a_極細1
  6
CONTINUOUS
 62
    7
 10
685.64228571310764
 20
608.7048066478801
 11
685.64228571310764
 21
606.03814024788062
  0
ARC
  8
_0-a_極細1
  6
CONTINUOUS
 62
    7
 10
718.7089490731081
 20
641.20555006447285
 40
2.6666664000000004
 50
24.054548999999657
 51
89.999999999999915
  0
ARC
  8
_0-a_極細1
  6
CONTINUOUS
 62
    7
 10
720.30894891310811
 20
634.27221742447273
 40
1.0666665599999394
 50
269.99999999999977
 51
359.99999999999966
  0
ARC
  8
_0-a_極細1
  6
CONTINUOUS
 62
    7
 10
718.7089490731081
 20
641.20555006447285
 40
2.6666664000000004
 50
0
 51
24.054548999999657
  0
LINE
  8
_0-a_極細1
  6
CONTINUOUS
 62
    7
 10
709.90894995310748
 20
617.20555246447248
 11
709.90894995310907
 21
633.20555086447303
  0
LINE
  8
_0-a_極細1
  6
CONTINUOUS
 62
    7
 10
709.90894995310907
 20
633.20555086447303
 11
720.30894891310811
 21
633.20555086447303
  0
LINE
  8
_0-a_極細1
  6
CONTINUOUS
 62
    7
 10
721.37561547310827
 20
634.27221742447273
 11
721.37561547310827
 21
641.20555006447285
  0
LINE
  8
_0-a_極細1
  6
CONTINUOUS
 62
    7
 10
702.97561731310759
 20
553.20555886447255
 11
732.30894771310693
 21
553.20555886447255
  0
LINE
  8
_0-a_極細1
  6
CONTINUOUS
 62
    7
 10
698.54796975587249
 20
542.53889326447234
 11
702.97561731310759
 21
542.53889326447234
  0
LINE
  8
_0-a_極細1
  6
CONTINUOUS
 62
    7
 10
702.97561731310759
 20
567.60555742447286
 11
709.90894995310748
 21
567.60555742447286
  0
LINE
  8
_0-a_極細1
  6
CONTINUOUS
 62
    7
 10
702.97561731310759
 20
563.87222446447231
 11
713.64228291310735
 21
563.87222446447231
  0
LINE
  8
_0-a_極細1
  6
CONTINUOUS
 62
    7
 10
702.97561731310759
 20
542.53889326447234
 11
702.97561731310759
 21
574.53889006447253
  0
LINE
  8
_0-a_極細1
  6
CONTINUOUS
 62
    7
 10
740.19694692430801
 20
561.09355807567272
 11
732.30894771310693
 21
553.20555886447255
  0
LINE
  8
_0-a_極細1
  6
CONTINUOUS
 62
    7
 10
713.64228291310735
 20
563.87222446447231
 11
713.64228291310803
 21
623.87221846447255
  0
ARC
  8
_0-a_極細1
  6
CONTINUOUS
 62
    7
 10
719.24228235310795
 20
623.87221846447255
 40
5.5999994400000617
 50
89.999999999999915
 51
179.99999999999983
  0
LINE
  8
_0-a_極細1
  6
CONTINUOUS
 62
    7
 10
725.59547638445576
 20
629.47221790447315
 11
719.24228235310795
 21
629.47221790447315
  0
ARC
  8
_0-a_極細1
  6
CONTINUOUS
 62
    7
 10
725.59547638445576
 20
638.53888366447245
 40
9.066665759999939
 50
269.99999999999977
 51
356.64911199999887
  0
ARC
  8
_0-a_極細1
  6
CONTINUOUS
 62
    7
 10
725.59547638445576
 20
638.53888366447245
 40
5.3333328000000009
 50
269.99999999999977
 51
356.64911200000176
  0
ARC
  8
_0-a_極細1
  6
CONTINUOUS
 62
    7
 10
740.19694692430801
 20
637.20555046447271
 40
9.3333324000000015
 50
89.999999999999915
 51
175.84900999999914
  0
ARC
  8
_0-a_極細1
  6
CONTINUOUS
 62
    7
 10
719.24228235310795
 20
623.87221846447255
 40
9.3333324000000015
 50
89.999999999999915
 51
179.99999999999983
  0
LINE
  8
_0-a_極細1
  6
CONTINUOUS
 62
    7
 10
721.64228211310831
 20
633.20555086447303
 11
721.64228211310831
 21
646.53888286447295
  0
LINE
  8
_0-a_極細1
  6
CONTINUOUS
 62
    7
 10
709.90894995310748
 20
567.60555742447286
 11
709.90894995310748
 21
623.87221846447255
  0
LINE
  8
_0-a_極細1
  6
CONTINUOUS
 62
    7
 10
725.59547638445576
 20
633.20555086447303
 11
719.24228235310795
 21
633.20555086447303
  0
LINE
  8
_0-a_極細1
  6
CONTINUOUS
 62
    7
 10
688.30895211310838
 20
574.53889006447253
 11
709.90894995310748
 21
574.53889006447253
  0
LINE
  8
_0-a_極細1
  6
CONTINUOUS
 62
    7
 10
777.10894323310765
 20
639.03454228157375
 11
740.19694692430801
 21
634.76787604157357
  0
LINE
  8
_0-a_極細1
  6
CONTINUOUS
 62
    7
 10
740.19694692430619
 20
533.43455284157358
 11
732.30894771310693
 21
537.70121908157353
  0
LINE
  8
_0-a_極細1
  6
CONTINUOUS
 62
    7
 10
732.30894771310693
 20
537.70121908157353
 11
732.30894771310693
 21
553.20555886447255
  0
LINE
  8
_0-a_極細1
  6
CONTINUOUS
 62
    7
 10
777.10894323310765
 20
567.32916811877885
 11
777.10894323310765
 21
651.72029034633215
  0
LINE
  8
_0-a_極細1
  6
CONTINUOUS
 62
    7
 10
756.30894531310707
 20
564.36788308157338
 11
777.10894323310765
 21
564.36788308157338
  0
LINE
  8
_0-a_極細1
  6
CONTINUOUS
 62
    7
 10
777.10894323310765
 20
564.36788308157338
 11
777.10894323310765
 21
567.32916811877885
  0
LINE
  8
_0-a_極細1
  6
CONTINUOUS
 62
    7
 10
756.30894531310707
 20
521.7012206815732
 11
756.30894531310707
 21
564.36788308157338
  0
LINE
  8
_0-a_極細1
  6
CONTINUOUS
 62
    7
 10
740.19694692430801
 20
642.76787232823585
 11
777.10894323310765
 21
648.02524538250282
  0
LINE
  8
_0-a_極細1
  6
CONTINUOUS
 62
    7
 10
740.19694692430801
 20
561.09355807567272
 11
740.19694692430801
 21
642.80554990447308
  0
ARC
  8
_0-a_極細1
  6
CONTINUOUS
 62
    7
 10
740.19694692430801
 20
637.20555046447271
 40
5.5999994400000617
 50
89.999999999999915
 51
175.84900999999994
  0
LINE
  8
_0-a_極細1
  6
CONTINUOUS
 62
    7
 10
689.64228531310789
 20
537.74304841072444
 11
673.64228691310768
 21
537.74304841072444
  0
ARC
  8
_0-a_極細1
  6
CONTINUOUS
 62
    7
 10
689.64228531310789
 20
548.4097140107242
 40
10.666665600000002
 50
269.99999999999977
 51
359.99999999999966
  0
LINE
  8
_0-a_極細1
  6
CONTINUOUS
 62
    7
 10
700.30895091310765
 20
548.4097140107242
 11
700.30895091310765
 21
553.74304681072408
  0
LINE
  8
_0-a_極細1
  6
CONTINUOUS
 62
    7
 10
700.30895091310765
 20
553.74304681072408
 11
688.30895211310838
 21
553.74304681072408
  0
LINE
  8
_0-a_極細1
  6
CONTINUOUS
 62
    7
 10
705.6422837131073
 20
577.20971113072369
 11
688.30895211310838
 21
577.20971113072369
  0
LINE
  8
_0-a_極細1
  6
CONTINUOUS
 62
    7
 10
688.30895211310838
 20
553.74304681072408
 11
688.30895211310838
 21
577.20971113072414
  0
LINE
  8
_0-a_極細1
  6
CONTINUOUS
 62
    7
 10
704.0422838731082
 20
614.53888606447254
 11
704.0422838731082
 21
619.87221886447242
  0
ARC
  8
_0-a_極細1
  6
CONTINUOUS
 62
    7
 10
707.24228355310754
 20
617.20555246447248
 40
2.6666664000000004
 50
269.99999999999977
 51
359.99999999999966
  0
CIRCLE
  8
_0-a_極細1
  6
CONTINUOUS
 62
    7
 10
711.1099090656254
 20
600.75830025215919
 40
99.281077021678641
  0
ARC
  8
_0-a_極細1
  6
CONTINUOUS
 62
    7
 10
769.64227731310723
 20
498.60721232430825
 40
26.666664000000004
 50
120.00000000000088
 51
161.13978923390169
  0
LINE
  8
_0-a_極細1
  6
CONTINUOUS
 62
    7
 10
729.64228131310722
 20
503.22223803174114
 11
729.64228131310722
 21
533.43455284157358
  0
LINE
  8
_0-a_極細1
  6
CONTINUOUS
 62
    7
 10
754.19818121181549
 20
520.34636742525299
 11
756.30894531310753
 21
522.45713152654525
  0
LINE
  8
_0-a_極細1
  6
CONTINUOUS
 62
    7
 10
729.64228131310722
 20
503.33293910495451
 11
756.30894531310753
 21
529.99960310495453
  0
LINE
  8
_0-a_極細1
  6
CONTINUOUS
 62
    7
 10
729.64228131310722
 20
507.10417489415914
 11
756.30894531310753
 21
533.77083889415917
  0
LINE
  8
_0-a_極細1
  6
CONTINUOUS
 62
    7
 10
729.64228131310722
 20
510.8754106833639
 11
756.30894531310753
 21
537.54207468336381
  0
LINE
  8
_0-a_極細1
  6
CONTINUOUS
 62
    7
 10
729.64228131310722
 20
514.64664647256859
 11
756.30894531310753
 21
541.31331047256845
  0
LINE
  8
_0-a_極細1
  6
CONTINUOUS
 62
    7
 10
729.64228131310722
 20
518.41788226177323
 11
756.30894531310753
 21
545.08454626177308
  0
LINE
  8
_0-a_極細1
  6
CONTINUOUS
 62
    7
 10
775.5922821329076
 20
564.36788308157338
 11
777.10894323310765
 21
565.88454418177321
  0
LINE
  8
_0-a_極細1
  6
CONTINUOUS
 62
    7
 10
729.64228131310722
 20
522.18911805097741
 11
756.30894531310753
 21
548.85578205097772
  0
LINE
  8
_0-a_極細1
  6
CONTINUOUS
 62
    7
 10
771.82104634370319
 20
564.36788308157338
 11
777.10894323310811
 21
569.65577997097807
  0
LINE
  8
_0-a_極細1
  6
CONTINUOUS
 62
    7
 10
729.64228131310722
 20
525.96035384018228
 11
737.11648031449852
 21
533.43455284157358
  0
LINE
  8
_0-a_極細1
  6
CONTINUOUS
 62
    7
 10
738.19782006344406
 20
534.51589259051889
 11
756.30894531310753
 21
552.62701784018259
  0
LINE
  8
_0-a_極細1
  6
CONTINUOUS
 62
    7
 10
768.04981055449878
 20
564.36788308157384
 11
777.10894323310765
 21
573.42701576018271
  0
LINE
  8
_0-a_極細1
  6
CONTINUOUS
 62
    7
 10
729.64228131310722
 20
529.73158962938669
 11
733.34524452529433
 21
533.43455284157403
  0
LINE
  8
_0-a_極細1
  6
CONTINUOUS
 62
    7
 10
735.75040552538655
 20
535.8397138416658
 11
756.30894531310753
 21
556.398253629387
  0
LINE
  8
_0-a_極細1
  6
CONTINUOUS
 62
    7
 10
764.27857476529414
 20
564.36788308157338
 11
777.10894323310765
 21
577.19825154938735
  0
LINE
  8
_0-a_極細1
  6
CONTINUOUS
 62
    7
 10
733.3029909873286
 20
537.16353509281271
 11
756.30894531310753
 21
560.16948941859187
  0
LINE
  8
_0-a_極細1
  6
CONTINUOUS
 62
    7
 10
760.50733897608904
 20
564.36788308157338
 11
777.10894323310765
 21
580.96948733859176
  0
LINE
  8
_0-a_極細1
  6
CONTINUOUS
 62
    7
 10
732.30894771310761
 20
539.94072760779613
 11
756.30894531310753
 21
563.9407252077965
  0
LINE
  8
_0-a_極細1
  6
CONTINUOUS
 62
    7
 10
756.73610318688463
 20
564.36788308157338
 11
777.10894323310765
 21
584.7407231277964
  0
LINE
  8
_0-a_極細1
  6
CONTINUOUS
 62
    7
 10
732.30894771310761
 20
543.71196339700077
 11
777.10894323310765
 21
588.51195891700127
  0
LINE
  8
_0-a_極細1
  6
CONTINUOUS
 62
    7
 10
732.30894771310761
 20
547.48319918620518
 11
777.10894323310811
 21
592.2831947062059
  0
LINE
  8
_0-a_極細1
  6
CONTINUOUS
 62
    7
 10
732.30894771310761
 20
551.25443497540982
 11
777.10894323310811
 21
596.05443049541054
  0
LINE
  8
_0-a_極細1
  6
CONTINUOUS
 62
    7
 10
740.19694692430846
 20
562.91366997581554
 11
777.10894323310765
 21
599.82566628461518
  0
LINE
  8
_0-a_極細1
  6
CONTINUOUS
 62
    7
 10
740.19694692430846
 20
566.68490576501995
 11
777.10894323310765
 21
603.59690207381959
  0
LINE
  8
_0-a_極細1
  6
CONTINUOUS
 62
    7
 10
740.19694692430801
 20
570.45614155422459
 11
777.10894323310765
 21
607.36813786302423
  0
LINE
  8
_0-a_極細1
  6
CONTINUOUS
 62
    7
 10
740.19694692430801
 20
574.22737734342945
 11
777.10894323310765
 21
611.13937365222887
  0
LINE
  8
_0-a_極細1
  6
CONTINUOUS
 62
    7
 10
740.19694692430846
 20
577.99861313263409
 11
777.10894323310811
 21
614.91060944143351
  0
LINE
  8
_0-a_極細1
  6
CONTINUOUS
 62
    7
 10
740.19694692430846
 20
581.76984892183873
 11
777.10894323310811
 21
618.68184523063837
  0
LINE
  8
_0-a_極細1
  6
CONTINUOUS
 62
    7
 10
740.19694692430846
 20
585.54108471104337
 11
777.10894323310811
 21
622.45308101984301
  0
LINE
  8
_0-a_極細1
  6
CONTINUOUS
 62
    7
 10
740.19694692430846
 20
589.31232050024801
 11
777.10894323310765
 21
626.22431680904765
  0
LINE
  8
_0-a_極細1
  6
CONTINUOUS
 62
    7
 10
740.19694692430846
 20
593.08355628945264
 11
777.10894323310765
 21
629.99555259825206
  0
LINE
  8
_0-a_極細1
  6
CONTINUOUS
 62
    7
 10
740.19694692430846
 20
596.85479207865728
 11
777.10894323310765
 21
633.76678838745693
  0
LINE
  8
_0-a_極細1
  6
CONTINUOUS
 62
    7
 10
740.19694692430801
 20
600.62602786786169
 11
777.10894323310811
 21
637.53802417666134
  0
LINE
  8
_0-a_極細1
  6
CONTINUOUS
 62
    7
 10
740.19694692430801
 20
604.39726365706611
 11
774.5369254103681
 21
638.73724214312688
  0
LINE
  8
_0-a_極細1
  6
CONTINUOUS
 62
    7
 10
740.19694692430801
 20
608.16849944627097
 11
770.27279816039584
 21
638.24435068235812
  0
LINE
  8
_0-a_極細1
  6
CONTINUOUS
 62
    7
 10
740.19694692430801
 20
611.93973523547561
 11
766.00867091042221
 21
637.75145922158981
  0
LINE
  8
_0-a_極細1
  6
CONTINUOUS
 62
    7
 10
740.19694692430801
 20
615.71097102468025
 11
761.74454366044949
 21
637.25856776082128
  0
LINE
  8
_0-a_極細1
  6
CONTINUOUS
 62
    7
 10
740.19694692430801
 20
619.48220681388511
 11
757.48041641047587
 21
636.76567630005275
  0
LINE
  8
_0-a_極細1
  6
CONTINUOUS
 62
    7
 10
740.19694692430801
 20
623.2534426030893
 11
753.2162891605027
 21
636.27278483928421
  0
LINE
  8
_0-a_極細1
  6
CONTINUOUS
 62
    7
 10
740.19694692430801
 20
627.02467839229394
 11
748.95216191052998
 21
635.77989337851568
  0
LINE
  8
_0-a_極細1
  6
CONTINUOUS
 62
    7
 10
740.19694692430801
 20
630.7959141814988
 11
744.68803466055681
 21
635.28700191774715
  0
LINE
  8
_0-a_極細1
  6
CONTINUOUS
 62
    7
 10
740.19694692430801
 20
634.56714997070344
 11
740.42390741058364
 21
634.79411045697884
  0
LINE
  8
_0-a_極細1
  6
CONTINUOUS
 62
    7
 10
734.30547477750417
 20
504.22489678014659
 11
756.30894531310753
 21
526.22836731574989
  0
LINE
  8
_0-a_極細1
  6
CONTINUOUS
 62
    7
 10
739.46403918733461
 20
505.61222540077273
 11
747.90312221216243
 21
514.05130842559993
  0
LINE
  8
_0-a_極細1
  6
CONTINUOUS
 62
    7
 10
638.14248284556356
 20
533.43455284157358
 11
740.19694692430619
 21
533.43455284157358
  0
LINE
  8
_0-a_極細1
  6
CONTINUOUS
 62
    7
 10
634.42525109005203
 20
537.70121908157353
 11
732.30894771310693
 21
537.70121908157353
  0
LINE
  8
_0-a_極細1
  6
CONTINUOUS
 62
    7
 10
623.95792090069426
 20
553.20555886447255
 11
673.64228691310768
 21
553.20555886447255
  0
LINE
  8
_0-a_極細1
  6
CONTINUOUS
 62
    7
 10
625.95205784005907
 20
651.79625308364371
 11
777.10894323310765
 21
651.79625308364371
  0
LINE
  8
_0-a_極細1
  6
CONTINUOUS
 62
    7
 10
623.01410604265743
 20
646.53888286447318
 11
740.19694692430801
 21
646.53888286447295
  0
LINE
  8
_0-a_極細1
  6
CONTINUOUS
 62
    7
 10
621.67880439045018
 20
643.87221646447279
 11
718.7089490731081
 21
643.87221646447256
  0
LINE
  8
_0-a_極細1
  6
CONTINUOUS
 62
    7
 10
613.68614209951829
 20
619.87221886447287
 11
704.0422838731082
 21
619.87221886447242
  0
LINE
  8
_0-a_極細1
  6
CONTINUOUS
 62
    7
 10
612.78988206576162
 20
614.53888606447276
 11
707.24228355310754
 21
614.53888606447254
  0
LINE
  8
_0-a_極細1
  6
CONTINUOUS
 62
    7
 10
705.6422837131073
 20
609.74304121072419
 11
612.23621850796496
 21
609.74304121072419
  0
LINE
  8
_0-a_極細1
  6
CONTINUOUS
 62
    7
 10
612.14736417773724
 20
608.70480664788079
 11
709.10895003310782
 21
608.7048066478801
  0
LINE
  8
_0-a_極細1
  6
CONTINUOUS
 62
    7
 10
611.86322862570762
 20
603.37147384788091
 11
682.97561931310759
 21
603.37147384788068
  0
LINE
  8
_0-a_極細1
  6
CONTINUOUS
 62
    7
 10
612.29927021637502
 20
591.10480840788091
 11
682.97561931310759
 21
591.10480840788091
  0
LINE
  8
_0-a_極細1
  6
CONTINUOUS
 62
    7
 10
612.96650713933104
 20
585.7714756078808
 11
704.84228379310832
 21
585.7714756078808
  0
LINE
  8
_0-a_極細1
  6
CONTINUOUS
 62
    7
 10
705.6422837131073
 20
585.20971033072351
 11
613.05393726360035
 21
585.20971033072351
  0
LINE
  8
_0-a_極細1
  6
CONTINUOUS
 62
    7
 10
688.30895211310838
 20
577.20971113072414
 11
614.66201533551668
 21
577.20971113072414
  0
LINE
  8
_0-a_極細1
  6
CONTINUOUS
 62
    7
 10
658.48531343771697
 20
544.13889310447303
 11
658.48531343771697
 21
553.20555886447255
  0
LINE
  8
_0-a_極細1
  6
CONTINUOUS
 62
    7
 10
657.41864687771726
 20
544.13889310447303
 11
657.41864687771726
 21
553.20555886447255
  0
LINE
  8
_0-a_極細1
  6
CONTINUOUS
 62
    7
 10
656.35198031771711
 20
544.13889310447303
 11
656.35198031771711
 21
553.20555886447255
  0
LINE
  8
_0-a_極細1
  6
CONTINUOUS
 62
    7
 10
655.28531375771695
 20
544.13889310447303
 11
655.28531375771695
 21
553.20555886447255
  0
LINE
  8
_0-a_極細1
  6
CONTINUOUS
 62
    7
 10
654.21864719771679
 20
544.13889310447303
 11
654.21864719771679
 21
553.20555886447255
  0
LINE
  8
_0-a_極細1
  6
CONTINUOUS
 62
    7
 10
653.15198063771663
 20
544.13889310447303
 11
653.15198063771663
 21
553.20555886447255
  0
LINE
  8
_0-a_極細1
  6
CONTINUOUS
 62
    7
 10
652.08531407771682
 20
544.13889310447303
 11
652.08531407771682
 21
553.20555886447255
  0
LINE
  8
_0-a_極細1
  6
CONTINUOUS
 62
    7
 10
651.018647517717
 20
544.13889310447303
 11
651.018647517717
 21
553.20555886447255
  0
LINE
  8
_0-a_極細1
  6
CONTINUOUS
 62
    7
 10
649.95198095771684
 20
544.13889310447303
 11
649.95198095771684
 21
553.20555886447255
  0
LINE
  8
_0-a_極細1
  6
CONTINUOUS
 62
    7
 10
648.88531439771668
 20
544.13889310447303
 11
648.88531439771668
 21
553.20555886447255
  0
LINE
  8
_0-a_極細1
  6
CONTINUOUS
 62
    7
 10
647.81864783771687
 20
544.13889310447303
 11
647.81864783771687
 21
553.20555886447255
  0
LINE
  8
_0-a_極細1
  6
CONTINUOUS
 62
    7
 10
646.75198127771637
 20
544.13889310447303
 11
646.75198127771637
 21
553.20555886447255
  0
LINE
  8
_0-a_極細1
  6
CONTINUOUS
 62
    7
 10
645.68531471771655
 20
544.13889310447303
 11
645.68531471771655
 21
553.20555886447255
  0
LINE
  8
_0-a_極細1
  6
CONTINUOUS
 62
    7
 10
644.61864815771673
 20
544.13889310447303
 11
644.61864815771673
 21
553.20555886447255
  0
LINE
  8
_0-a_極細1
  6
CONTINUOUS
 62
    7
 10
643.55198159771658
 20
544.13889310447303
 11
643.55198159771658
 21
553.20555886447255
  0
LINE
  8
_0-a_極細1
  6
CONTINUOUS
 62
    7
 10
642.48531503771642
 20
544.13889310447303
 11
642.48531503771642
 21
553.20555886447255
  0
LINE
  8
_0-a_極細1
  6
CONTINUOUS
 62
    7
 10
641.41864847771626
 20
544.13889310447303
 11
641.41864847771626
 21
553.20555886447255
  0
LINE
  8
_0-a_極細1
  6
CONTINUOUS
 62
    7
 10
640.3519819177161
 20
544.13889310447303
 11
640.3519819177161
 21
553.20555886447255
  0
LINE
  8
_0-a_極細1
  6
CONTINUOUS
 62
    7
 10
639.2853153577164
 20
544.13889310447303
 11
639.2853153577164
 21
553.20555886447255
  0
LINE
  8
_0-a_極細1
  6
CONTINUOUS
 62
    7
 10
638.21864879771624
 20
544.13889310447303
 11
638.21864879771624
 21
553.20555886447255
  0
LINE
  8
_0-a_極細1
  6
CONTINUOUS
 62
    7
 10
637.15198223771608
 20
544.13889310447303
 11
637.15198223771608
 21
553.20555886447255
  0
LINE
  8
_0-a_極細1
  6
CONTINUOUS
 62
    7
 10
636.08531567771627
 20
544.13889310447303
 11
636.08531567771627
 21
553.20555886447255
  0
LINE
  8
_0-a_極細1
  6
CONTINUOUS
 62
    7
 10
635.01864911771611
 20
544.13889310447303
 11
635.01864911771611
 21
553.20555886447255
  0
LINE
  8
_0-a_極細1
  6
CONTINUOUS
 62
    7
 10
633.95198255771595
 20
544.13889310447303
 11
633.95198255771595
 21
553.20555886447255
  0
LINE
  8
_0-a_極細1
  6
CONTINUOUS
 62
    7
 10
632.88531599771613
 20
544.13889310447303
 11
632.88531599771613
 21
553.20555886447255
  0
LINE
  8
_0-a_極細1
  6
CONTINUOUS
 62
    7
 10
659.16929102707422
 20
544.13889310447303
 11
659.16929102707422
 21
553.20555886447255
  0
LINE
  8
_0-a_極細1
  6
CONTINUOUS
 62
    7
 10
632.50262702707391
 20
544.13889310447303
 11
632.50262702707391
 21
553.20555886447255
  0
LINE
  8
_0-a_極細1
  6
CONTINUOUS
 62
    7
 10
632.50262702707391
 20
544.13889310447303
 11
659.16929102707422
 21
544.13889310447303
  0
ARC
  8
_0-a_極細1
  6
CONTINUOUS
 62
    7
 10
649.64228931310777
 20
539.73902687779309
 40
31.999996799999998
 50
55.166292356154599
 51
148.68484545273054
  0
LINE
  8
_0-a_極細1
  6
CONTINUOUS
 62
    7
 10
673.57314725392257
 20
553.20555886447255
 11
673.57314725392257
 21
555.22887606747759
  0
LINE
  8
_0-a_極細1
  6
CONTINUOUS
 62
    7
 10
671.97314725392266
 20
553.20555886447255
 11
671.97314725392266
 21
560.85827249588897
  0
LINE
  8
_0-a_極細1
  6
CONTINUOUS
 62
    7
 10
670.37314725392264
 20
553.20555886447255
 11
670.37314725392264
 21
563.43454744382689
  0
LINE
  8
_0-a_極細1
  6
CONTINUOUS
 62
    7
 10
668.77314725392262
 20
553.20555886447255
 11
668.77314725392262
 21
565.23669429496704
  0
LINE
  8
_0-a_極細1
  6
CONTINUOUS
 62
    7
 10
667.17314725392259
 20
553.20555886447255
 11
667.17314725392259
 21
566.50969767736342
  0
LINE
  8
_0-a_極細1
  6
CONTINUOUS
 62
    7
 10
665.57314725392257
 20
553.20555886447255
 11
665.57314725392257
 21
567.4916404568703
  0
LINE
  8
_0-a_極細1
  6
CONTINUOUS
 62
    7
 10
663.97314725392221
 20
553.20555886447255
 11
663.97314725392221
 21
568.35067321071483
  0
LINE
  8
_0-a_極細1
  6
CONTINUOUS
 62
    7
 10
662.3731472539223
 20
553.20555886447255
 11
662.3731472539223
 21
569.09758698027099
  0
LINE
  8
_0-a_極細1
  6
CONTINUOUS
 62
    7
 10
660.77314725392228
 20
553.20555886447255
 11
660.77314725392228
 21
569.74075677294104
  0
LINE
  8
_0-a_極細1
  6
CONTINUOUS
 62
    7
 10
659.17314725392225
 20
553.20555886447255
 11
659.17314725392225
 21
570.28673615544631
  0
LINE
  8
_0-a_極細1
  6
CONTINUOUS
 62
    7
 10
657.57314725392223
 20
553.20555886447255
 11
657.57314725392223
 21
570.74066050446868
  0
LINE
  8
_0-a_極細1
  6
CONTINUOUS
 62
    7
 10
655.97314725392221
 20
553.20555886447255
 11
655.97314725392221
 21
571.10652650612224
  0
LINE
  8
_0-a_極細1
  6
CONTINUOUS
 62
    7
 10
654.3731472539223
 20
553.20555886447255
 11
654.3731472539223
 21
571.38738826260783
  0
LINE
  8
_0-a_極細1
  6
CONTINUOUS
 62
    7
 10
652.77314725392228
 20
553.20555886447255
 11
652.77314725392228
 21
571.58549487275991
  0
LINE
  8
_0-a_極細1
  6
CONTINUOUS
 62
    7
 10
651.17314725392225
 20
553.20555886447255
 11
651.17314725392225
 21
571.70238510506715
  0
LINE
  8
_0-a_極細1
  6
CONTINUOUS
 62
    7
 10
649.57314725392223
 20
553.20555886447255
 11
649.57314725392223
 21
571.73894898044273
  0
LINE
  8
_0-a_極細1
  6
CONTINUOUS
 62
    7
 10
647.97314725392221
 20
553.20555886447255
 11
647.97314725392221
 21
571.69546222321696
  0
LINE
  8
_0-a_極細1
  6
CONTINUOUS
 62
    7
 10
646.37314725392184
 20
553.20555886447255
 11
646.37314725392184
 21
571.57159676143374
  0
LINE
  8
_0-a_極細1
  6
CONTINUOUS
 62
    7
 10
644.77314725392193
 20
553.20555886447255
 11
644.77314725392193
 21
571.36640822382742
  0
LINE
  8
_0-a_極細1
  6
CONTINUOUS
 62
    7
 10
643.17314725392191
 20
553.20555886447255
 11
643.17314725392191
 21
571.0782993042244
  0
LINE
  8
_0-a_極細1
  6
CONTINUOUS
 62
    7
 10
641.57314725392189
 20
553.20555886447255
 11
641.57314725392189
 21
570.70495559999813
  0
LINE
  8
_0-a_極細1
  6
CONTINUOUS
 62
    7
 10
639.97314725392187
 20
553.20555886447255
 11
639.97314725392187
 21
570.24324768474526
  0
LINE
  8
_0-a_極細1
  6
CONTINUOUS
 62
    7
 10
638.37314725392184
 20
553.20555886447255
 11
638.37314725392184
 21
569.68908918907891
  0
LINE
  8
_0-a_極細1
  6
CONTINUOUS
 62
    7
 10
636.77314725392193
 20
553.20555886447255
 11
636.77314725392193
 21
569.03723463629785
  0
LINE
  8
_0-a_極細1
  6
CONTINUOUS
 62
    7
 10
635.17314725392191
 20
553.20555886447255
 11
635.17314725392191
 21
568.28099112819291
  0
LINE
  8
_0-a_極細1
  6
CONTINUOUS
 62
    7
 10
633.57314725392189
 20
553.20555886447255
 11
633.57314725392189
 21
567.41180174193914
  0
LINE
  8
_0-a_極細1
  6
CONTINUOUS
 62
    7
 10
631.97314725392187
 20
553.20555886447255
 11
631.97314725392187
 21
566.41862983758847
  0
LINE
  8
_0-a_極細1
  6
CONTINUOUS
 62
    7
 10
630.37314725392184
 20
553.20555886447255
 11
630.37314725392184
 21
565.28702013563884
  0
LINE
  8
_0-a_極細1
  6
CONTINUOUS
 62
    7
 10
628.77314725392193
 20
553.20555886447255
 11
628.77314725392193
 21
563.99760690452854
  0
LINE
  8
_0-a_極細1
  6
CONTINUOUS
 62
    7
 10
627.17314725392191
 20
553.20555886447255
 11
627.17314725392191
 21
562.52361487767007
  0
LINE
  8
_0-a_極細1
  6
CONTINUOUS
 62
    7
 10
625.57314725392189
 20
553.20555886447255
 11
625.57314725392189
 21
560.82637369370946
  0
LINE
  8
_0-a_極細1
  6
CONTINUOUS
 62
    7
 10
623.97314725392187
 20
553.20555886447255
 11
623.97314725392187
 21
558.84648461411552
  0
LINE
  8
_0-a_極細1
  6
CONTINUOUS
 62
    7
 10
622.37314725392184
 20
556.23280915147052
 11
622.37314725392184
 21
556.48398691226157
  0
LINE
  8
_0-d_寸法1
  6
CONTINUOUS
 62
    7
 10
766.4774572633379
 20
641.70665492935336
 11
773.00852216241424
 21
656.31299571971056
  0
LINE
  8
_0-d_寸法1
  6
CONTINUOUS
 62
    7
 10
766.4774572633379
 20
641.70665492935336
 11
779.4366957748814
 21
651.09058466059741
  0
LINE
  8
_0-d_寸法1
  6
CONTINUOUS
 62
    7
 10
766.4774572633379
 20
641.70665492935336
 11
799.21015768302743
 21
681.9967582400584
  0
LINE
  8
_0-d_寸法1
  6
CONTINUOUS
 62
    7
 10
799.21015768302743
 20
681.9967582400584
 11
876.01015768302727
 21
681.9967582400584
  0
TEXT
  8
_0-d_寸法1
 62
    7
 10
799.21015768302743
 20
681.9967582400584
 40
24
 41
0.7999999999999999
 50
0
  1
パッキン
  0
LINE
  8
_0-d_寸法1
  6
CONTINUOUS
 62
    7
 10
697.61844557162578
 20
592.99269489299331
 11
708.9320974539794
 21
581.67892977766076
  0
LINE
  8
_0-d_寸法1
  6
CONTINUOUS
 62
    7
 10
697.61844557162578
 20
592.99269489299331
 11
701.75947295365131
 21
577.53786094948828
  0
LINE
  8
_0-d_寸法1
  6
CONTINUOUS
 62
    7
 10
697.61844557162578
 20
592.99269489299331
 11
757.46694982911788
 21
489.33084676700474
  0
LINE
  8
_0-d_寸法1
  6
CONTINUOUS
 62
    7
 10
757.46694982911788
 20
489.33084676700474
 11
949.46694982911799
 21
489.33084676700474
  0
TEXT
  8
_0-d_寸法1
 62
    7
 10
757.46694982911788
 20
489.33084676700474
 40
24
 41
0.7999999999999999
 50
0
  1
防臭インナーパッキン
  0
LINE
  8
_0-d_寸法1
  6
CONTINUOUS
 62
    7
 10
765.37826149349837
 20
571.96915532196522
 11
776.6924949208634
 21
560.65597177571726
  0
LINE
  8
_0-d_寸法1
  6
CONTINUOUS
 62
    7
 10
765.37826149349837
 20
571.96915532196522
 11
769.52008329281955
 21
556.51453425955583
  0
LINE
  8
_0-d_寸法1
  6
CONTINUOUS
 62
    7
 10
765.37826149349837
 20
571.96915532196522
 11
795.25516232328607
 21
520.22638965539545
  0
LINE
  8
_0-d_寸法1
  6
CONTINUOUS
 62
    7
 10
795.25516232328607
 20
520.22638965539545
 11
929.65516232328605
 21
520.22638965539545
  0
TEXT
  8
_0-d_寸法1
 62
    7
 10
795.25516232328607
 20
520.22638965539545
 40
24
 41
0.7999999999999999
 50
0
  1
ロックフランジ
  0
TEXT
  8
_0-7_枠細線
 62
    5
 10
629.90144414984309
 20
429.93504783249739
 40
40
 41
0.8
 50
0
  1
Ｃ部拡大図
  0
LINE
  8
_1-1_寸法4
  6
CONTINUOUS
 62
    7
 10
341.54604446931421
 20
364.41057761429573
 11
341.54604446931319
 21
254.41057761429579
  0
LINE
  8
_1-1_寸法4
  6
CONTINUOUS
 62
    7
 10
341.5460444693133
 20
262.41057761429579
 11
357.00085768993836
 21
266.55168233593599
  0
LINE
  8
_1-1_寸法4
  6
CONTINUOUS
 62
    7
 10
341.5460444693133
 20
262.41057761429579
 11
357.00085768993836
 21
258.26947289265536
  0
LINE
  8
_1-1_寸法4
  6
CONTINUOUS
 62
    7
 10
494.54604446931273
 20
364.41057761429573
 11
494.54604446931194
 21
254.41057761429579
  0
LINE
  8
_1-1_寸法4
  6
CONTINUOUS
 62
    7
 10
494.54604446931194
 20
262.41057761429579
 11
479.09123124868688
 21
258.26947289265547
  0
LINE
  8
_1-1_寸法4
  6
CONTINUOUS
 62
    7
 10
494.54604446931194
 20
262.41057761429579
 11
479.09123124868688
 21
266.55168233593611
  0
LINE
  8
_1-1_寸法4
  6
CONTINUOUS
 62
    7
 10
341.5460444693133
 20
262.41057761429579
 11
494.54604446931194
 21
262.41057761429579
  0
TEXT
  8
_1-1_寸法4
 62
    7
 10
370.04604446931262
 20
262.41057761429579
 40
24
 41
1
 50
0
  1
VU65内接
  0
LINE
  8
_1-1_寸法4
  6
CONTINUOUS
 62
    7
 10
335.84604446931394
 20
364.41057761429573
 11
335.8460444693128
 21
206.41057761429579
  0
LINE
  8
_1-1_寸法4
  6
CONTINUOUS
 62
    7
 10
335.8460444693128
 20
214.41057761429579
 11
351.30085768993797
 21
218.55168233593599
  0
LINE
  8
_1-1_寸法4
  6
CONTINUOUS
 62
    7
 10
335.8460444693128
 20
214.41057761429579
 11
351.30085768993797
 21
210.26947289265536
  0
LINE
  8
_1-1_寸法4
  6
CONTINUOUS
 62
    7
 10
500.24604446931312
 20
364.41057761429573
 11
500.24604446931176
 21
206.41057761429579
  0
LINE
  8
_1-1_寸法4
  6
CONTINUOUS
 62
    7
 10
500.24604446931176
 20
214.41057761429579
 11
484.7912312486867
 21
210.26947289265547
  0
LINE
  8
_1-1_寸法4
  6
CONTINUOUS
 62
    7
 10
500.24604446931176
 20
214.41057761429579
 11
484.7912312486867
 21
218.55168233593611
  0
LINE
  8
_1-1_寸法4
  6
CONTINUOUS
 62
    7
 10
335.8460444693128
 20
214.41057761429579
 11
500.24604446931176
 21
214.41057761429579
  0
TEXT
  8
_1-1_寸法4
 62
    7
 10
370.04604446931262
 20
214.41057761429579
 40
24
 41
1
 50
0
  1
VU75外接
  0
LINE
  8
_1-1_寸法4
  6
CONTINUOUS
 62
    7
 10
363.04604446931398
 20
354.41057761429573
 11
363.04604446931353
 21
302.41057761429579
  0
LINE
  8
_1-1_寸法4
  6
CONTINUOUS
 62
    7
 10
363.04604446931353
 20
310.41057761429579
 11
378.5008576899387
 21
314.55168233593599
  0
LINE
  8
_1-1_寸法4
  6
CONTINUOUS
 62
    7
 10
363.04604446931353
 20
310.41057761429579
 11
378.5008576899387
 21
306.26947289265536
  0
LINE
  8
_1-1_寸法4
  6
CONTINUOUS
 62
    7
 10
473.04604446931307
 20
354.41057761429573
 11
473.04604446931285
 21
302.41057761429579
  0
LINE
  8
_1-1_寸法4
  6
CONTINUOUS
 62
    7
 10
473.04604446931285
 20
310.41057761429579
 11
457.59123124868779
 21
306.26947289265547
  0
LINE
  8
_1-1_寸法4
  6
CONTINUOUS
 62
    7
 10
473.04604446931285
 20
310.41057761429579
 11
457.59123124868779
 21
314.55168233593611
  0
LINE
  8
_1-1_寸法4
  6
CONTINUOUS
 62
    7
 10
363.04604446931353
 20
310.41057761429579
 11
473.04604446931285
 21
310.41057761429579
  0
TEXT
  8
_1-1_寸法4
 62
    7
 10
370.0460444693133
 20
310.41057761429579
 40
24
 41
1
 50
0
  1
VU50外接
  0
LINE
  8
_0-e_極細4
  6
CONTINUOUS
 62
    6
 10
331.34604446931371
 20
627.89167317011038
 11
338.54604446931398
 21
627.89167317011038
  0
LINE
  8
_0-e_極細4
  6
CONTINUOUS
 62
    6
 10
331.34604446931371
 20
629.09167317011043
 11
339.49133035350678
 21
629.09167317011043
  0
LINE
  8
_0-e_極細4
  6
CONTINUOUS
 62
    6
 10
331.34604446931371
 20
630.29167317011024
 11
338.54604446931398
 21
630.29167317011024
  0
LINE
  8
_0-e_極細4
  6
CONTINUOUS
 62
    6
 10
331.34604446931371
 20
631.49167317011029
 11
338.54604446931398
 21
631.49167317011029
  0
LINE
  8
_0-e_極細4
  6
CONTINUOUS
 62
    6
 10
331.31686360754975
 20
632.69167317011056
 11
338.60075858512096
 21
632.69167317011056
  0
LINE
  8
_0-e_極細4
  6
CONTINUOUS
 62
    6
 10
330.67686360754988
 20
633.89167317011015
 11
339.29133035350628
 21
633.89167317011015
  0
LINE
  8
_0-e_極細4
  6
CONTINUOUS
 62
    6
 10
330.03686360754978
 20
635.09167317011043
 11
338.54604446931398
 21
635.09167317011043
  0
LINE
  8
_0-e_極細4
  6
CONTINUOUS
 62
    6
 10
497.5460444693133
 20
627.89167317011038
 11
504.74604446931403
 21
627.89167317011038
  0
LINE
  8
_0-e_極細4
  6
CONTINUOUS
 62
    6
 10
496.6007585851205
 20
629.09167317011043
 11
504.74604446931403
 21
629.09167317011043
  0
LINE
  8
_0-e_極細4
  6
CONTINUOUS
 62
    6
 10
497.5460444693133
 20
630.29167317011024
 11
504.74604446931403
 21
630.29167317011024
  0
LINE
  8
_0-e_極細4
  6
CONTINUOUS
 62
    6
 10
497.5460444693133
 20
631.49167317011029
 11
504.74604446931403
 21
631.49167317011029
  0
LINE
  8
_0-e_極細4
  6
CONTINUOUS
 62
    6
 10
497.49133035350519
 20
632.69167317011056
 11
504.77522533107754
 21
632.69167317011056
  0
LINE
  8
_0-e_極細4
  6
CONTINUOUS
 62
    6
 10
496.80075858512055
 20
633.89167317011015
 11
505.41522533107741
 21
633.89167317011015
  0
LINE
  8
_0-e_極細4
  6
CONTINUOUS
 62
    6
 10
497.5460444693133
 20
635.09167317011043
 11
506.05522533107796
 21
635.09167317011043
  0
LINE
  8
_0-e_極細4
  6
CONTINUOUS
 62
    6
 10
331.06769400998337
 20
614.82473905430288
 11
331.06769400998337
 21
618.82473905430288
  0
LINE
  8
_0-e_極細4
  6
CONTINUOUS
 62
    6
 10
329.86769400998332
 20
614.82473905430288
 11
329.86769400998332
 21
618.82473905430288
  0
LINE
  8
_0-e_極細4
  6
CONTINUOUS
 62
    6
 10
328.66769400998328
 20
614.82473905430288
 11
328.66769400998328
 21
618.82473905430288
  0
LINE
  8
_0-e_極細4
  6
CONTINUOUS
 62
    6
 10
327.46769400998346
 20
614.82473905430288
 11
327.46769400998346
 21
642.77200636733824
  0
LINE
  8
_0-e_極細4
  6
CONTINUOUS
 62
    6
 10
326.26769400998342
 20
614.82473905430288
 11
326.26769400998342
 21
643.39995990351076
  0
LINE
  8
_0-e_極細4
  6
CONTINUOUS
 62
    6
 10
325.06769400998337
 20
614.82473905430288
 11
325.06769400998337
 21
643.42473905430302
  0
LINE
  8
_0-e_極細4
  6
CONTINUOUS
 62
    6
 10
323.8676940099831
 20
614.82473905430288
 11
323.8676940099831
 21
643.42473905430302
  0
LINE
  8
_0-e_極細4
  6
CONTINUOUS
 62
    6
 10
322.66769400998328
 20
614.82473905430288
 11
322.66769400998328
 21
643.5448977801916
  0
LINE
  8
_0-e_極細4
  6
CONTINUOUS
 62
    6
 10
321.46769400998301
 20
614.82473905430288
 11
321.46769400998301
 21
644.14757770672395
  0
LINE
  8
_0-e_極細4
  6
CONTINUOUS
 62
    6
 10
320.26769400998296
 20
615.60308951363368
 11
320.26769400998296
 21
645.98985763842484
  0
LINE
  8
_0-e_極細4
  6
CONTINUOUS
 62
    6
 10
319.06769400998269
 20
616.80308951363372
 11
319.06769400998269
 21
648.18223381269854
  0
LINE
  8
_0-e_極細4
  6
CONTINUOUS
 62
    6
 10
517.06769400998337
 20
616.84638859497295
 11
517.06769400998337
 21
648.20443259775948
  0
LINE
  8
_0-e_極細4
  6
CONTINUOUS
 62
    6
 10
515.86769400998378
 20
615.64638859497313
 11
515.86769400998378
 21
646.18463510119204
  0
LINE
  8
_0-e_極細4
  6
CONTINUOUS
 62
    6
 10
514.66769400998305
 20
614.82473905430288
 11
514.66769400998305
 21
644.18204785622584
  0
LINE
  8
_0-e_極細4
  6
CONTINUOUS
 62
    6
 10
513.46769400998346
 20
614.82473905430288
 11
513.46769400998346
 21
643.5570333659025
  0
LINE
  8
_0-e_極細4
  6
CONTINUOUS
 62
    6
 10
512.26769400998342
 20
614.82473905430288
 11
512.26769400998342
 21
643.42473905430302
  0
LINE
  8
_0-e_極細4
  6
CONTINUOUS
 62
    6
 10
511.06769400998337
 20
614.82473905430288
 11
511.06769400998337
 21
643.42473905430302
  0
LINE
  8
_0-e_極細4
  6
CONTINUOUS
 62
    6
 10
509.8676940099831
 20
614.82473905430288
 11
509.8676940099831
 21
643.40620993370317
  0
LINE
  8
_0-e_極細4
  6
CONTINUOUS
 62
    6
 10
508.66769400998305
 20
614.82473905430288
 11
508.66769400998305
 21
642.81620810171876
  0
LINE
  8
_0-e_極細4
  6
CONTINUOUS
 62
    6
 10
507.46769400998346
 20
614.82473905430288
 11
507.46769400998346
 21
618.82473905430288
  0
LINE
  8
_0-e_極細4
  6
CONTINUOUS
 62
    6
 10
506.26769400998296
 20
614.82473905430288
 11
506.26769400998296
 21
618.82473905430288
  0
LINE
  8
_0-e_極細4
  6
CONTINUOUS
 62
    6
 10
505.06769400998269
 20
614.82473905430288
 11
505.06769400998269
 21
618.82473905430288
  0
LINE
  8
_0-e_極細4
  6
CONTINUOUS
 62
    6
 10
503.86769400998378
 20
610.82473905430311
 11
503.86769400998378
 21
622.82473905430288
  0
LINE
  8
_0-e_極細4
  6
CONTINUOUS
 62
    6
 10
502.66769400998305
 20
610.82473905430311
 11
502.66769400998305
 21
611.32816437263068
  0
LINE
  8
_0-e_極細4
  6
CONTINUOUS
 62
    6
 10
502.66769400998305
 20
615.02629705430309
 11
502.66769400998305
 21
622.82473905430288
  0
LINE
  8
_0-e_極細4
  6
CONTINUOUS
 62
    6
 10
501.46769400998346
 20
615.02629705430309
 11
501.46769400998346
 21
622.82473905430288
  0
LINE
  8
_0-e_極細4
  6
CONTINUOUS
 62
    6
 10
500.26769400998342
 20
615.02629705430309
 11
500.26769400998342
 21
622.82473905430288
  0
LINE
  8
_0-e_極細4
  6
CONTINUOUS
 62
    6
 10
499.06769400998337
 20
615.02629705430309
 11
499.06769400998337
 21
622.82473905430288
  0
LINE
  8
_0-e_極細4
  6
CONTINUOUS
 62
    6
 10
337.06769400998337
 20
615.02629705430309
 11
337.06769400998337
 21
622.82473905430288
  0
LINE
  8
_0-e_極細4
  6
CONTINUOUS
 62
    6
 10
335.86769400998332
 20
615.02629705430309
 11
335.86769400998332
 21
622.82473905430288
  0
LINE
  8
_0-e_極細4
  6
CONTINUOUS
 62
    6
 10
334.66769400998328
 20
615.02629705430309
 11
334.66769400998328
 21
622.82473905430288
  0
LINE
  8
_0-e_極細4
  6
CONTINUOUS
 62
    6
 10
333.46769400998346
 20
610.82473905430311
 11
333.46769400998346
 21
611.23872663884822
  0
LINE
  8
_0-e_極細4
  6
CONTINUOUS
 62
    6
 10
333.46769400998346
 20
615.02629705430309
 11
333.46769400998346
 21
622.82473905430288
  0
LINE
  8
_0-e_極細4
  6
CONTINUOUS
 62
    6
 10
332.26769400998342
 20
610.82473905430311
 11
332.26769400998342
 21
622.82473905430288
  0
LINE
  8
_0-e_極細4
  6
CONTINUOUS
 62
    6
 10
357.46769400998346
 20
611.42473905430325
 11
357.46769400998346
 21
614.82473905430288
  0
LINE
  8
_0-e_極細4
  6
CONTINUOUS
 62
    6
 10
356.26769400998342
 20
611.42473905430325
 11
356.26769400998342
 21
614.82473905430288
  0
LINE
  8
_0-e_極細4
  6
CONTINUOUS
 62
    6
 10
355.06769400998337
 20
611.42473905430325
 11
355.06769400998337
 21
614.82473905430288
  0
LINE
  8
_0-e_極細4
  6
CONTINUOUS
 62
    6
 10
353.86769400998332
 20
611.42473905430325
 11
353.86769400998332
 21
614.82473905430288
  0
LINE
  8
_0-e_極細4
  6
CONTINUOUS
 62
    6
 10
352.66769400998328
 20
611.42473905430325
 11
352.66769400998328
 21
614.82473905430288
  0
LINE
  8
_0-e_極細4
  6
CONTINUOUS
 62
    6
 10
351.46769400998346
 20
611.42473905430325
 11
351.46769400998346
 21
614.82473905430288
  0
LINE
  8
_0-e_極細4
  6
CONTINUOUS
 62
    6
 10
350.26769400998296
 20
611.42473905430325
 11
350.26769400998296
 21
614.82473905430288
  0
LINE
  8
_0-e_極細4
  6
CONTINUOUS
 62
    6
 10
349.06769400998292
 20
611.42473905430325
 11
349.06769400998292
 21
614.82473905430288
  0
LINE
  8
_0-e_極細4
  6
CONTINUOUS
 62
    6
 10
487.06769400998314
 20
611.42473905430325
 11
487.06769400998314
 21
614.82473905430288
  0
LINE
  8
_0-e_極細4
  6
CONTINUOUS
 62
    6
 10
485.86769400998378
 20
611.42473905430325
 11
485.86769400998378
 21
614.82473905430288
  0
LINE
  8
_0-e_極細4
  6
CONTINUOUS
 62
    6
 10
484.6676940099826
 20
611.42473905430325
 11
484.6676940099826
 21
614.82473905430288
  0
LINE
  8
_0-e_極細4
  6
CONTINUOUS
 62
    6
 10
483.46769400998346
 20
611.42473905430325
 11
483.46769400998346
 21
614.82473905430288
  0
LINE
  8
_0-e_極細4
  6
CONTINUOUS
 62
    6
 10
482.26769400998342
 20
611.42473905430325
 11
482.26769400998342
 21
614.82473905430288
  0
LINE
  8
_0-e_極細4
  6
CONTINUOUS
 62
    6
 10
481.06769400998314
 20
611.42473905430325
 11
481.06769400998314
 21
614.82473905430288
  0
LINE
  8
_0-e_極細4
  6
CONTINUOUS
 62
    6
 10
479.8676940099831
 20
611.42473905430325
 11
479.8676940099831
 21
614.82473905430288
  0
LINE
  8
_0-e_極細4
  6
CONTINUOUS
 62
    6
 10
478.6676940099826
 20
611.42473905430325
 11
478.6676940099826
 21
614.82473905430288
  0
LINE
  8
_0-e_極細4
  6
CONTINUOUS
 62
    6
 10
362.26769400998364
 20
614.82473905430288
 11
362.26769400998364
 21
616.06111394788991
  0
LINE
  8
_0-e_極細4
  6
CONTINUOUS
 62
    6
 10
361.06769400998337
 20
614.82473905430288
 11
361.06769400998337
 21
617.68742701931455
  0
LINE
  8
_0-e_極細4
  6
CONTINUOUS
 62
    6
 10
359.86769400998332
 20
614.82473905430288
 11
359.86769400998332
 21
618.875437298409
  0
LINE
  8
_0-e_極細4
  6
CONTINUOUS
 62
    6
 10
358.66769400998328
 20
614.82473905430288
 11
358.66769400998328
 21
619.7824739694347
  0
LINE
  8
_0-e_極細4
  6
CONTINUOUS
 62
    6
 10
357.46769400998346
 20
614.82473905430288
 11
357.46769400998346
 21
620.480194990472
  0
LINE
  8
_0-e_極細4
  6
CONTINUOUS
 62
    6
 10
356.26769400998296
 20
614.82473905430288
 11
356.26769400998296
 21
621.00767270703318
  0
LINE
  8
_0-e_極細4
  6
CONTINUOUS
 62
    6
 10
355.06769400998337
 20
614.82473905430288
 11
355.06769400998337
 21
621.38812768078674
  0
LINE
  8
_0-e_極細4
  6
CONTINUOUS
 62
    6
 10
353.8676940099831
 20
614.82473905430288
 11
353.8676940099831
 21
621.6357162082395
  0
LINE
  8
_0-e_極細4
  6
CONTINUOUS
 62
    6
 10
352.66769400998328
 20
614.82473905430288
 11
352.66769400998328
 21
621.75867623036515
  0
LINE
  8
_0-e_極細4
  6
CONTINUOUS
 62
    6
 10
351.46769400998301
 20
614.82473905430288
 11
351.46769400998301
 21
621.76084389925472
  0
LINE
  8
_0-e_極細4
  6
CONTINUOUS
 62
    6
 10
350.26769400998296
 20
614.82473905430288
 11
350.26769400998296
 21
621.64228540542103
  0
LINE
  8
_0-e_極細4
  6
CONTINUOUS
 62
    6
 10
349.06769400998269
 20
614.82473905430288
 11
349.06769400998269
 21
621.39930747621634
  0
LINE
  8
_0-e_極細4
  6
CONTINUOUS
 62
    6
 10
347.8676940099831
 20
614.82473905430288
 11
347.8676940099831
 21
621.0238506791236
  0
LINE
  8
_0-e_極細4
  6
CONTINUOUS
 62
    6
 10
346.6676940099826
 20
614.82473905430288
 11
346.6676940099826
 21
620.50201359453786
  0
LINE
  8
_0-e_極細4
  6
CONTINUOUS
 62
    6
 10
345.46769400998301
 20
614.82473905430288
 11
345.46769400998301
 21
619.81098879495289
  0
LINE
  8
_0-e_極細4
  6
CONTINUOUS
 62
    6
 10
344.26769400998273
 20
614.82473905430288
 11
344.26769400998273
 21
618.65498371586659
  0
LINE
  8
_0-e_極細4
  6
CONTINUOUS
 62
    6
 10
343.06769400998269
 20
614.82473905430288
 11
343.06769400998269
 21
615.535537454718
  0
ARC
  8
_0-e_極細4
  6
CONTINUOUS
 62
    6
 10
352.04604446931398
 20
609.77478905430326
 40
12
 50
0
 51
24.886947317068444
  0
LINE
  8
_0-e_極細4
  6
CONTINUOUS
 62
    6
 10
362.93172336396742
 20
614.82473905430288
 11
343.04604446931398
 21
614.82473905430288
  0
ARC
  8
_0-e_極細4
  6
CONTINUOUS
 62
    6
 10
352.04604446931398
 20
609.77478905430326
 40
12
 50
24.886947317068444
 51
124.83370764384648
  0
LINE
  8
_0-e_極細4
  6
CONTINUOUS
 62
    6
 10
343.04604446931398
 20
609.02629705430354
 11
343.04604446931398
 21
614.82473905430288
  0
ARC
  8
_0-e_極細4
  6
CONTINUOUS
 62
    6
 10
349.04604446931398
 20
615.02629705430309
 40
6
 50
129.9705005800391
 51
181.92509931279602
  0
LINE
  8
_0-e_極細4
  6
CONTINUOUS
 62
    6
 10
491.86769400998378
 20
614.82473905430288
 11
491.86769400998378
 21
618.59724870714831
  0
LINE
  8
_0-e_極細4
  6
CONTINUOUS
 62
    6
 10
490.6676940099826
 20
614.82473905430288
 11
490.6676940099826
 21
619.78247396943448
  0
LINE
  8
_0-e_極細4
  6
CONTINUOUS
 62
    6
 10
489.46769400998346
 20
614.82473905430288
 11
489.46769400998346
 21
620.48019499047155
  0
LINE
  8
_0-e_極細4
  6
CONTINUOUS
 62
    6
 10
488.26769400998342
 20
614.82473905430288
 11
488.26769400998342
 21
621.00767270703273
  0
LINE
  8
_0-e_極細4
  6
CONTINUOUS
 62
    6
 10
487.06769400998314
 20
614.82473905430288
 11
487.06769400998314
 21
621.38812768078628
  0
LINE
  8
_0-e_極細4
  6
CONTINUOUS
 62
    6
 10
485.8676940099831
 20
614.82473905430288
 11
485.8676940099831
 21
621.63571620823927
  0
LINE
  8
_0-e_極細4
  6
CONTINUOUS
 62
    6
 10
484.6676940099826
 20
614.82473905430288
 11
484.6676940099826
 21
621.75867623036515
  0
LINE
  8
_0-e_極細4
  6
CONTINUOUS
 62
    6
 10
483.46769400998301
 20
614.82473905430288
 11
483.46769400998301
 21
621.76084389925495
  0
LINE
  8
_0-e_極細4
  6
CONTINUOUS
 62
    6
 10
482.26769400998296
 20
614.82473905430288
 11
482.26769400998296
 21
621.64228540542103
  0
LINE
  8
_0-e_極細4
  6
CONTINUOUS
 62
    6
 10
481.06769400998223
 20
614.82473905430288
 11
481.06769400998223
 21
621.39930747621656
  0
LINE
  8
_0-e_極細4
  6
CONTINUOUS
 62
    6
 10
479.8676940099831
 20
614.82473905430288
 11
479.8676940099831
 21
621.02385067912383
  0
LINE
  8
_0-e_極細4
  6
CONTINUOUS
 62
    6
 10
478.6676940099826
 20
614.82473905430288
 11
478.6676940099826
 21
620.50201359453808
  0
LINE
  8
_0-e_極細4
  6
CONTINUOUS
 62
    6
 10
477.46769400998301
 20
614.82473905430288
 11
477.46769400998301
 21
619.81098879495335
  0
LINE
  8
_0-e_極細4
  6
CONTINUOUS
 62
    6
 10
476.26769400998273
 20
614.82473905430288
 11
476.26769400998273
 21
618.91247279427989
  0
LINE
  8
_0-e_極細4
  6
CONTINUOUS
 62
    6
 10
475.06769400998223
 20
614.82473905430288
 11
475.06769400998223
 21
617.73652398014906
  0
LINE
  8
_0-e_極細4
  6
CONTINUOUS
 62
    6
 10
473.8676940099831
 20
614.82473905430288
 11
473.8676940099831
 21
616.13098146226571
  0
LINE
  8
_0-e_極細4
  6
CONTINUOUS
 62
    6
 10
493.0460444693133
 20
609.02629705430354
 11
493.0460444693133
 21
614.82473905430288
  0
LINE
  8
_0-e_極細4
  6
CONTINUOUS
 62
    6
 10
473.16036557465986
 20
614.82473905430288
 11
493.0460444693133
 21
614.82473905430288
  0
ARC
  8
_0-e_極細4
  6
CONTINUOUS
 62
    6
 10
487.0460444693133
 20
615.02629705430309
 40
6
 50
358.0749006872033
 51
50.029499419963869
  0
ARC
  8
_0-e_極細4
  6
CONTINUOUS
 62
    6
 10
484.0460444693133
 20
609.77478905430326
 40
12
 50
55.166292356155324
 51
155.11305268293157
  0
ARC
  8
_0-e_極細4
  6
CONTINUOUS
 62
    6
 10
484.0460444693133
 20
609.77478905430326
 40
12
 50
155.11305268293157
 51
179.99999999999983
  0
LINE
  8
_0-e_極細4
  6
CONTINUOUS
 62
    6
 10
313.92625583993527
 20
645.89167317011038
 11
318.0880444693139
 21
645.89167317011038
  0
LINE
  8
_0-e_極細4
  6
CONTINUOUS
 62
    6
 10
304.24604446931357
 20
647.09167317011043
 11
318.0880444693139
 21
647.09167317011043
  0
LINE
  8
_0-e_極細4
  6
CONTINUOUS
 62
    6
 10
304.24604446931357
 20
648.29167317011047
 11
318.0880444693139
 21
648.29167317011047
  0
LINE
  8
_0-e_極細4
  6
CONTINUOUS
 62
    6
 10
304.24604446931357
 20
649.49167317011052
 11
310.4979037768444
 21
649.49167317011052
  0
LINE
  8
_0-e_極細4
  6
CONTINUOUS
 62
    6
 10
518.00404446931384
 20
645.89167317011038
 11
522.16583309869156
 21
645.89167317011038
  0
LINE
  8
_0-e_極細4
  6
CONTINUOUS
 62
    6
 10
518.00404446931384
 20
647.09167317011043
 11
531.84604446931394
 21
647.09167317011043
  0
LINE
  8
_0-e_極細4
  6
CONTINUOUS
 62
    6
 10
518.00404446931384
 20
648.29167317011047
 11
531.84604446931394
 21
648.29167317011047
  0
LINE
  8
_0-e_極細4
  6
CONTINUOUS
 62
    6
 10
525.59418516178334
 20
649.49167317011052
 11
531.84604446931394
 21
649.49167317011052
  0
LINE
  8
_0-e_極細4
  6
CONTINUOUS
 62
    6
 10
365.15023389020894
 20
370.41057761429573
 11
367.07566650961235
 21
372.33601023369937
  0
LINE
  8
_0-e_極細4
  6
CONTINUOUS
 62
    6
 10
363.01098789117918
 20
372.51397230238541
 11
367.14195777034911
 21
376.64494218155511
  0
LINE
  8
_0-e_極細4
  6
CONTINUOUS
 62
    6
 10
362.94143640450488
 20
376.68706150283077
 11
367.20824903108496
 21
380.95387412941051
  0
LINE
  8
_0-e_極細4
  6
CONTINUOUS
 62
    6
 10
362.87188491783127
 20
380.86015070327579
 11
367.27454029182104
 21
385.26280607726591
  0
LINE
  8
_0-e_極細4
  6
CONTINUOUS
 62
    6
 10
362.80233343115674
 20
385.03323990372115
 11
367.34083155255757
 21
389.57173802512165
  0
LINE
  8
_0-e_極細4
  6
CONTINUOUS
 62
    6
 10
362.73278194448312
 20
389.20632910416651
 11
367.40712281329343
 21
393.88066997297705
  0
LINE
  8
_0-e_極細4
  6
CONTINUOUS
 62
    6
 10
362.66323045780882
 20
393.37941830461153
 11
367.47341407402996
 21
398.18960192083244
  0
LINE
  8
_0-e_極細4
  6
CONTINUOUS
 62
    6
 10
362.59367897113475
 20
397.55250750505655
 11
367.53970533476604
 21
402.49853386868807
  0
LINE
  8
_0-e_極細4
  6
CONTINUOUS
 62
    6
 10
341.20910839325438
 20
380.41057761429551
 11
341.54944786402211
 21
380.75091708506324
  0
LINE
  8
_0-e_極細4
  6
CONTINUOUS
 62
    6
 10
362.52412748446068
 20
401.7255967055018
 11
367.60599659550189
 21
406.80746581654347
  0
LINE
  8
_0-e_極細4
  6
CONTINUOUS
 62
    6
 10
336.96646770613461
 20
380.41057761429573
 11
341.59230282045746
 21
385.03641272861813
  0
LINE
  8
_0-e_極細4
  6
CONTINUOUS
 62
    6
 10
362.45457599778661
 20
405.89868590594727
 11
367.67228785623865
 21
411.11639776439932
  0
LINE
  8
_0-e_極細4
  6
CONTINUOUS
 62
    6
 10
335.7968756905691
 20
383.48362628584908
 11
341.63515777689304
 21
389.32190837217303
  0
LINE
  8
_0-e_極細4
  6
CONTINUOUS
 62
    6
 10
362.38502451111231
 20
410.07177510639229
 11
367.73857911697473
 21
415.42532971225472
  0
LINE
  8
_0-e_極細4
  6
CONTINUOUS
 62
    6
 10
335.73006245140186
 20
387.65945373380106
 11
341.67801273332861
 21
393.60740401572747
  0
LINE
  8
_0-e_極細4
  6
CONTINUOUS
 62
    6
 10
362.31547302443778
 20
414.24486430683731
 11
367.80487037771127
 21
419.73426166011012
  0
LINE
  8
_0-e_極細4
  6
CONTINUOUS
 62
    6
 10
335.66324921223486
 20
391.83528118175326
 11
341.72086768976442
 21
397.89289965928236
  0
LINE
  8
_0-e_極細4
  6
CONTINUOUS
 62
    6
 10
362.24592153776416
 20
418.41795350728268
 11
367.87116163844712
 21
424.04319360796586
  0
LINE
  8
_0-e_極細4
  6
CONTINUOUS
 62
    6
 10
335.59643597306695
 20
396.01110862970535
 11
341.76372264619954
 21
402.17839530283726
  0
LINE
  8
_0-e_極細4
  6
CONTINUOUS
 62
    6
 10
362.17637005109009
 20
422.59104270772804
 11
367.93745289918365
 21
428.35212555582126
  0
LINE
  8
_0-e_極細4
  6
CONTINUOUS
 62
    6
 10
335.5296227339004
 20
400.18693607765732
 11
341.80657760263489
 21
406.46389094639216
  0
LINE
  8
_0-e_極細4
  6
CONTINUOUS
 62
    6
 10
362.10681856441624
 20
426.76413190817306
 11
368.00374415991973
 21
432.66105750367666
  0
LINE
  8
_0-e_極細4
  6
CONTINUOUS
 62
    6
 10
335.46280949473316
 20
404.36276352560952
 11
341.84943255907046
 21
410.74938658994682
  0
LINE
  8
_0-e_極細4
  6
CONTINUOUS
 62
    6
 10
361.51062358341937
 20
430.41057761429573
 11
366.51062358341937
 21
435.41057761429596
  0
LINE
  8
_0-e_極細4
  6
CONTINUOUS
 62
    6
 10
335.39599625556571
 20
408.53859097356138
 11
341.89228751550604
 21
415.03488223350172
  0
LINE
  8
_0-e_極細4
  6
CONTINUOUS
 62
    6
 10
357.26798289630051
 20
430.41057761429573
 11
362.26798289630005
 21
435.41057761429596
  0
LINE
  8
_0-e_極細4
  6
CONTINUOUS
 62
    6
 10
335.32918301639893
 20
412.71441842151359
 11
341.93514247194162
 21
419.32037787705661
  0
LINE
  8
_0-e_極細4
  6
CONTINUOUS
 62
    6
 10
353.02534220918096
 20
430.41057761429573
 11
358.02534220918096
 21
435.41057761429596
  0
LINE
  8
_0-e_極細4
  6
CONTINUOUS
 62
    6
 10
335.26236977723147
 20
416.89024586946579
 11
341.97799742837742
 21
423.60587352061117
  0
LINE
  8
_0-e_極細4
  6
CONTINUOUS
 62
    6
 10
348.78270152206119
 20
430.41057761429573
 11
353.78270152206164
 21
435.41057761429596
  0
LINE
  8
_0-e_極細4
  6
CONTINUOUS
 62
    6
 10
335.19555653806447
 20
421.06607331741765
 11
342.02085238481254
 21
427.89136916416606
  0
LINE
  8
_0-e_極細4
  6
CONTINUOUS
 62
    6
 10
344.54006083494232
 20
430.41057761429573
 11
349.54006083494232
 21
435.41057761429596
  0
LINE
  8
_0-e_極細4
  6
CONTINUOUS
 62
    6
 10
335.12874329889746
 20
425.24190076536985
 11
345.297420147823
 21
435.41057761429596
  0
LINE
  8
_0-e_極細4
  6
CONTINUOUS
 62
    6
 10
335.06193005973
 20
429.41772821332205
 11
341.05477946070414
 21
435.41057761429596
  0
LINE
  8
_0-e_極細4
  6
CONTINUOUS
 62
    6
 10
331.85642489811607
 20
430.45486373882721
 11
336.85642489811607
 21
435.4548637388271
  0
LINE
  8
_0-e_極細4
  6
CONTINUOUS
 62
    6
 10
328.29207205157854
 20
431.13315157940968
 11
333.292072051579
 21
436.13315157940957
  0
LINE
  8
_0-e_極細4
  6
CONTINUOUS
 62
    6
 10
325.31732736182039
 20
432.40104757676994
 11
330.31732736182039
 21
437.40104757677017
  0
LINE
  8
_0-e_極細4
  6
CONTINUOUS
 62
    6
 10
322.79741283263206
 20
434.1237737347015
 11
327.79741283263229
 21
439.12377373470139
  0
LINE
  8
_0-e_極細4
  6
CONTINUOUS
 62
    6
 10
320.68392216074972
 20
436.25292374993813
 11
325.68392216074972
 21
441.25292374993813
  0
LINE
  8
_0-e_極細4
  6
CONTINUOUS
 62
    6
 10
318.97773559743473
 20
438.78937787374224
 11
323.97773559743473
 21
443.78937787374258
  0
LINE
  8
_0-e_極細4
  6
CONTINUOUS
 62
    6
 10
317.72959434828226
 20
441.78387731170932
 11
322.72959434828226
 21
446.78387731170955
  0
LINE
  8
_0-e_極細4
  6
CONTINUOUS
 62
    6
 10
317.07950049148894
 20
445.37642414203555
 11
322.07950049148917
 21
450.37642414203555
  0
LINE
  8
_0-e_極細4
  6
CONTINUOUS
 62
    6
 10
317.04604446931398
 20
449.58560880697956
 11
322.04604446931398
 21
454.58560880697968
  0
LINE
  8
_0-e_極細4
  6
CONTINUOUS
 62
    6
 10
317.04604446931398
 20
453.82824949409877
 11
322.04604446931398
 21
458.82824949409877
  0
LINE
  8
_0-e_極細4
  6
CONTINUOUS
 62
    6
 10
317.04604446931398
 20
458.07089018121809
 11
322.04604446931398
 21
463.07089018121832
  0
LINE
  8
_0-e_極細4
  6
CONTINUOUS
 62
    6
 10
317.04604446931398
 20
462.31353086833741
 11
322.04604446931398
 21
467.3135308683373
  0
LINE
  8
_0-e_極細4
  6
CONTINUOUS
 62
    6
 10
317.04604446931398
 20
466.55617155545673
 11
322.04604446931398
 21
471.5561715554565
  0
LINE
  8
_0-e_極細4
  6
CONTINUOUS
 62
    6
 10
317.04604446931398
 20
470.79881224257605
 11
322.04604446931398
 21
475.79881224257593
  0
LINE
  8
_0-e_極細4
  6
CONTINUOUS
 62
    6
 10
317.04604446931398
 20
475.04145292969537
 11
322.04604446931398
 21
480.04145292969514
  0
LINE
  8
_0-e_極細4
  6
CONTINUOUS
 62
    6
 10
317.04604446931398
 20
479.28409361681469
 11
322.04604446931398
 21
484.28409361681457
  0
LINE
  8
_0-e_極細4
  6
CONTINUOUS
 62
    6
 10
317.04604446931398
 20
483.52673430393401
 11
322.04604446931398
 21
488.52673430393355
  0
LINE
  8
_0-e_極細4
  6
CONTINUOUS
 62
    6
 10
317.04604446931398
 20
487.76937499105333
 11
322.04604446931398
 21
492.76937499105287
  0
LINE
  8
_0-e_極細4
  6
CONTINUOUS
 62
    6
 10
317.04604446931398
 20
492.0120156781723
 11
322.04604446931398
 21
497.01201567817219
  0
LINE
  8
_0-e_極細4
  6
CONTINUOUS
 62
    6
 10
317.04604446931398
 20
496.25465636529128
 11
322.04604446931398
 21
501.25465636529151
  0
LINE
  8
_0-e_極細4
  6
CONTINUOUS
 62
    6
 10
317.04604446931398
 20
500.49729705241094
 11
322.04604446931398
 21
505.49729705241083
  0
LINE
  8
_0-e_極細4
  6
CONTINUOUS
 62
    6
 10
317.04604446931398
 20
504.73993773952992
 11
322.04604446931398
 21
509.73993773953015
  0
LINE
  8
_0-e_極細4
  6
CONTINUOUS
 62
    6
 10
317.04604446931398
 20
508.98257842664924
 11
322.04604446931398
 21
513.98257842664952
  0
LINE
  8
_0-e_極細4
  6
CONTINUOUS
 62
    6
 10
317.04604446931398
 20
513.22521911376862
 11
322.04604446931398
 21
518.22521911376884
  0
LINE
  8
_0-e_極細4
  6
CONTINUOUS
 62
    6
 10
317.04604446931398
 20
517.46785980088794
 11
322.04604446931398
 21
522.46785980088794
  0
LINE
  8
_0-e_極細4
  6
CONTINUOUS
 62
    6
 10
317.04604446931398
 20
521.71050048800703
 11
322.04604446931398
 21
526.71050048800748
  0
LINE
  8
_0-e_極細4
  6
CONTINUOUS
 62
    6
 10
317.04604446931398
 20
525.95314117512658
 11
322.04604446931398
 21
530.95314117512635
  0
LINE
  8
_0-e_極細4
  6
CONTINUOUS
 62
    6
 10
317.04604446931398
 20
530.19578186224589
 11
322.04604446931398
 21
535.19578186224567
  0
LINE
  8
_0-e_極細4
  6
CONTINUOUS
 62
    6
 10
317.04604446931398
 20
534.43842254936521
 11
322.04604446931398
 21
539.43842254936521
  0
LINE
  8
_0-e_極細4
  6
CONTINUOUS
 62
    6
 10
317.04604446931398
 20
538.68106323648453
 11
322.04604446931398
 21
543.68106323648453
  0
LINE
  8
_0-e_極細4
  6
CONTINUOUS
 62
    6
 10
317.04604446931398
 20
542.92370392360385
 11
322.04604446931398
 21
547.92370392360385
  0
LINE
  8
_0-e_極細4
  6
CONTINUOUS
 62
    6
 10
317.04604446931398
 20
547.16634461072317
 11
322.04604446931398
 21
552.16634461072294
  0
LINE
  8
_0-e_極細4
  6
CONTINUOUS
 62
    6
 10
317.04604446931398
 20
551.40898529784226
 11
322.04604446931398
 21
556.40898529784204
  0
LINE
  8
_0-e_極細4
  6
CONTINUOUS
 62
    6
 10
317.04604446931398
 20
555.65162598496158
 11
322.04604446931398
 21
560.65162598496136
  0
LINE
  8
_0-e_極細4
  6
CONTINUOUS
 62
    6
 10
317.04604446931398
 20
559.89426667208113
 11
322.04604446931398
 21
564.89426667208068
  0
LINE
  8
_0-e_極細4
  6
CONTINUOUS
 62
    6
 10
317.04604446931398
 20
564.13690735920022
 11
322.04604446931398
 21
569.13690735920022
  0
LINE
  8
_0-e_極細4
  6
CONTINUOUS
 62
    6
 10
317.04604446931398
 20
568.37954804631954
 11
322.04604446931398
 21
573.37954804631931
  0
LINE
  8
_0-e_極細4
  6
CONTINUOUS
 62
    6
 10
317.04604446931398
 20
572.62218873343886
 11
322.04604446931398
 21
577.62218873343863
  0
LINE
  8
_0-e_極細4
  6
CONTINUOUS
 62
    6
 10
317.04604446931398
 20
576.86482942055795
 11
322.04604446931398
 21
581.86482942055795
  0
LINE
  8
_0-e_極細4
  6
CONTINUOUS
 62
    6
 10
317.04604446931398
 20
581.10747010767727
 11
322.04604446931398
 21
586.10747010767727
  0
LINE
  8
_0-e_極細4
  6
CONTINUOUS
 62
    6
 10
317.04604446931398
 20
585.35011079479636
 11
322.04604446931398
 21
590.35011079479636
  0
LINE
  8
_0-e_極細4
  6
CONTINUOUS
 62
    6
 10
317.04604446931398
 20
589.59275148191591
 11
322.04604446931398
 21
594.59275148191591
  0
LINE
  8
_0-e_極細4
  6
CONTINUOUS
 62
    6
 10
317.04604446931444
 20
593.835392169035
 11
322.04604446931398
 21
598.83539216903523
  0
LINE
  8
_0-e_極細4
  6
CONTINUOUS
 62
    6
 10
316.51975240951106
 20
597.55174079635117
 11
322.04604446931398
 21
603.07803285615455
  0
LINE
  8
_0-e_極細4
  6
CONTINUOUS
 62
    6
 10
315.05874991393171
 20
600.33337898789114
 11
322.04604446931398
 21
607.32067354327364
  0
LINE
  8
_0-e_極細4
  6
CONTINUOUS
 62
    6
 10
312.92352644345738
 20
602.44079620453613
 11
321.04604446931398
 21
610.56331423039273
  0
LINE
  8
_0-e_極細4
  6
CONTINUOUS
 62
    6
 10
312.04604446931353
 20
605.80595491751183
 11
321.04604446931398
 21
614.80595491751183
  0
LINE
  8
_0-e_極細4
  6
CONTINUOUS
 62
    6
 10
312.04604446931353
 20
610.04859560463137
 11
318.93411619414928
 21
616.93666732946735
  0
LINE
  8
_0-e_極細4
  6
CONTINUOUS
 62
    6
 10
312.04604446931353
 20
614.29123629175069
 11
318.0880444693139
 21
620.33323629175061
  0
LINE
  8
_0-e_極細4
  6
CONTINUOUS
 62
    6
 10
312.04604446931353
 20
618.53387697886978
 11
318.0880444693139
 21
624.57587697886993
  0
LINE
  8
_0-e_極細4
  6
CONTINUOUS
 62
    6
 10
308.28013785762778
 20
619.0106110543029
 11
318.0880444693139
 21
628.81851766598925
  0
LINE
  8
_0-e_極細4
  6
CONTINUOUS
 62
    6
 10
304.24604446931403
 20
619.21915835310847
 11
318.0880444693139
 21
633.06115835310857
  0
LINE
  8
_0-e_極細4
  6
CONTINUOUS
 62
    6
 10
304.24604446931403
 20
623.46179904022779
 11
318.0880444693139
 21
637.30379904022766
  0
LINE
  8
_0-e_極細4
  6
CONTINUOUS
 62
    6
 10
304.24604446931403
 20
627.70443972734711
 11
318.0880444693139
 21
641.54643972734721
  0
LINE
  8
_0-e_極細4
  6
CONTINUOUS
 62
    6
 10
304.24604446931357
 20
631.94708041446643
 11
317.74878965236167
 21
645.44982559751406
  0
LINE
  8
_0-e_極細4
  6
CONTINUOUS
 62
    6
 10
304.24604446931357
 20
636.18972110158575
 11
313.9457439075677
 21
645.88942053983942
  0
LINE
  8
_0-e_極細4
  6
CONTINUOUS
 62
    6
 10
304.24604446931357
 20
640.43236178870461
 11
310.14269816277397
 21
646.329015482165
  0
LINE
  8
_0-e_極細4
  6
CONTINUOUS
 62
    6
 10
304.24604446931403
 20
644.67500247582393
 11
306.33965241798023
 21
646.76861042449082
  0
LINE
  8
_0-e_極細4
  6
CONTINUOUS
 62
    6
 10
366.51062358341937
 20
435.41057761429596
 11
368.04604446931398
 21
436.94599850019034
  0
LINE
  8
_0-e_極細4
  6
CONTINUOUS
 62
    6
 10
362.26798289630005
 20
435.41057761429596
 11
368.04604446931398
 21
441.18863918730966
  0
LINE
  8
_0-e_極細4
  6
CONTINUOUS
 62
    6
 10
358.02534220918096
 20
435.41057761429596
 11
368.04604446931398
 21
445.43127987442898
  0
LINE
  8
_0-e_極細4
  6
CONTINUOUS
 62
    6
 10
353.78270152206164
 20
435.41057761429562
 11
368.04604446931398
 21
449.67392056154785
  0
LINE
  8
_0-e_極細4
  6
CONTINUOUS
 62
    6
 10
349.54006083494232
 20
435.41057761429562
 11
368.04604446931398
 21
453.91656124866728
  0
LINE
  8
_0-e_極細4
  6
CONTINUOUS
 62
    6
 10
345.297420147823
 20
435.41057761429562
 11
365.297420147823
 21
455.41057761429573
  0
LINE
  8
_0-e_極細4
  6
CONTINUOUS
 62
    6
 10
341.05477946070368
 20
435.41057761429596
 11
361.17244259547078
 21
455.52824074906238
  0
LINE
  8
_0-e_極細4
  6
CONTINUOUS
 62
    6
 10
336.85642489811607
 20
435.4548637388271
 11
357.56846203648593
 21
456.16690087719729
  0
LINE
  8
_0-e_極細4
  6
CONTINUOUS
 62
    6
 10
333.292072051579
 20
436.13315157940957
 11
354.3862233654952
 21
457.22730289332543
  0
LINE
  8
_0-e_極細4
  6
CONTINUOUS
 62
    6
 10
330.31732736182039
 20
437.40104757677017
 11
351.54363753723624
 21
458.62735775218579
  0
LINE
  8
_0-e_極細4
  6
CONTINUOUS
 62
    6
 10
327.79741283263229
 20
439.12377373470139
 11
348.9969485197671
 21
460.32330942183631
  0
LINE
  8
_0-e_極細4
  6
CONTINUOUS
 62
    6
 10
325.68392216074972
 20
441.25292374993813
 11
346.72389082268546
 21
462.29289241187388
  0
LINE
  8
_0-e_極細4
  6
CONTINUOUS
 62
    6
 10
323.97773559743473
 20
443.78937787374258
 11
344.71707289972164
 21
464.52871517602938
  0
LINE
  8
_0-e_極細4
  6
CONTINUOUS
 62
    6
 10
322.72959434828226
 20
446.78387731170955
 11
342.98204695207664
 21
467.03632991550347
  0
LINE
  8
_0-e_極細4
  6
CONTINUOUS
 62
    6
 10
322.07950049148917
 20
450.37642414203555
 11
341.53874676675696
 21
469.83567041730299
  0
LINE
  8
_0-e_極細4
  6
CONTINUOUS
 62
    6
 10
322.04604446931398
 20
454.58560880697968
 11
340.42726256454102
 21
472.96682690220649
  0
LINE
  8
_0-e_極細4
  6
CONTINUOUS
 62
    6
 10
322.04604446931398
 20
458.82824949409877
 11
339.72260038767399
 21
476.50480541245878
  0
LINE
  8
_0-e_極細4
  6
CONTINUOUS
 62
    6
 10
322.04604446931398
 20
463.07089018121832
 11
339.54604446931398
 21
480.57089018121809
  0
LINE
  8
_0-e_極細4
  6
CONTINUOUS
 62
    6
 10
322.04604446931398
 20
467.3135308683373
 11
339.54604446931398
 21
484.81353086833741
  0
LINE
  8
_0-e_極細4
  6
CONTINUOUS
 62
    6
 10
322.04604446931398
 20
471.5561715554565
 11
339.54604446931398
 21
489.05617155545673
  0
LINE
  8
_0-e_極細4
  6
CONTINUOUS
 62
    6
 10
322.04604446931398
 20
475.79881224257593
 11
339.54604446931398
 21
493.29881224257605
  0
LINE
  8
_0-e_極細4
  6
CONTINUOUS
 62
    6
 10
322.04604446931398
 20
480.04145292969514
 11
339.54604446931398
 21
497.54145292969537
  0
LINE
  8
_0-e_極細4
  6
CONTINUOUS
 62
    6
 10
322.04604446931398
 20
484.28409361681457
 11
339.54604446931398
 21
501.78409361681423
  0
LINE
  8
_0-e_極細4
  6
CONTINUOUS
 62
    6
 10
322.04604446931398
 20
488.52673430393355
 11
339.54604446931398
 21
506.02673430393367
  0
LINE
  8
_0-e_極細4
  6
CONTINUOUS
 62
    6
 10
322.04604446931398
 20
492.76937499105287
 11
339.54604446931398
 21
510.26937499105298
  0
LINE
  8
_0-e_極細4
  6
CONTINUOUS
 62
    6
 10
322.04604446931398
 20
497.01201567817219
 11
339.54604446931398
 21
514.51201567817225
  0
LINE
  8
_0-e_極細4
  6
CONTINUOUS
 62
    6
 10
322.04604446931398
 20
501.25465636529151
 11
339.54604446931398
 21
518.75465636529134
  0
LINE
  8
_0-e_極細4
  6
CONTINUOUS
 62
    6
 10
322.04604446931398
 20
505.49729705241083
 11
339.54604446931398
 21
522.99729705241066
  0
LINE
  8
_0-e_極細4
  6
CONTINUOUS
 62
    6
 10
322.04604446931398
 20
509.73993773953015
 11
339.54604446931398
 21
527.23993773952975
  0
LINE
  8
_0-e_極細4
  6
CONTINUOUS
 62
    6
 10
322.04604446931398
 20
513.98257842664952
 11
339.54604446931398
 21
531.4825784266493
  0
LINE
  8
_0-e_極細4
  6
CONTINUOUS
 62
    6
 10
322.04604446931398
 20
518.22521911376884
 11
339.54604446931398
 21
535.72521911376862
  0
LINE
  8
_0-e_極細4
  6
CONTINUOUS
 62
    6
 10
322.04604446931398
 20
522.46785980088794
 11
339.54604446931398
 21
539.96785980088794
  0
LINE
  8
_0-e_極細4
  6
CONTINUOUS
 62
    6
 10
322.04604446931398
 20
526.71050048800748
 11
339.54604446931398
 21
544.21050048800703
  0
LINE
  8
_0-e_極細4
  6
CONTINUOUS
 62
    6
 10
322.04604446931398
 20
530.95314117512635
 11
339.54604446931398
 21
548.45314117512658
  0
LINE
  8
_0-e_極細4
  6
CONTINUOUS
 62
    6
 10
322.04604446931398
 20
535.19578186224567
 11
338.11966073901885
 21
551.26939813195077
  0
LINE
  8
_0-e_極細4
  6
CONTINUOUS
 62
    6
 10
322.04604446931398
 20
539.43842254936521
 11
333.87702005189954
 21
551.26939813195077
  0
LINE
  8
_0-e_極細4
  6
CONTINUOUS
 62
    6
 10
322.04604446931398
 20
543.68106323648453
 11
329.63437936478022
 21
551.26939813195077
  0
LINE
  8
_0-e_極細4
  6
CONTINUOUS
 62
    6
 10
322.04604446931398
 20
547.92370392360385
 11
325.39173867766112
 21
551.26939813195077
  0
LINE
  8
_0-e_極細4
  6
CONTINUOUS
 62
    6
 10
322.04604446931398
 20
552.16634461072294
 11
322.25115587612049
 21
552.37145601752945
  0
LINE
  8
_0-e_極細4
  6
CONTINUOUS
 62
    6
 10
503.09145595869518
 20
436.22690800175423
 11
513.22971408185481
 21
446.36516612491374
  0
LINE
  8
_0-e_極細4
  6
CONTINUOUS
 62
    6
 10
498.03248488411759
 20
435.41057761429596
 11
514.0460444693133
 21
451.42413719949167
  0
LINE
  8
_0-e_極細4
  6
CONTINUOUS
 62
    6
 10
493.78984419699759
 20
435.41057761429596
 11
514.0460444693133
 21
455.66677788661099
  0
LINE
  8
_0-e_極細4
  6
CONTINUOUS
 62
    6
 10
489.54720350987918
 20
435.41057761429596
 11
514.0460444693133
 21
459.90941857373042
  0
LINE
  8
_0-e_極細4
  6
CONTINUOUS
 62
    6
 10
485.30456282275986
 20
435.41057761429596
 11
514.0460444693133
 21
464.15205926084963
  0
LINE
  8
_0-e_極細4
  6
CONTINUOUS
 62
    6
 10
481.06192213564032
 20
435.41057761429596
 11
514.0460444693133
 21
468.39469994796895
  0
LINE
  8
_0-e_極細4
  6
CONTINUOUS
 62
    6
 10
476.819281448521
 20
435.41057761429596
 11
514.0460444693133
 21
472.63734063508826
  0
LINE
  8
_0-e_極細4
  6
CONTINUOUS
 62
    6
 10
472.57664076140168
 20
435.41057761429596
 11
514.0460444693133
 21
476.87998132220758
  0
LINE
  8
_0-e_極細4
  6
CONTINUOUS
 62
    6
 10
468.33400007428236
 20
435.41057761429596
 11
514.0460444693133
 21
481.1226220093269
  0
LINE
  8
_0-e_極細4
  6
CONTINUOUS
 62
    6
 10
468.04604446931285
 20
439.365262696446
 11
514.0460444693133
 21
485.36526269644622
  0
LINE
  8
_0-e_極細4
  6
CONTINUOUS
 62
    6
 10
468.04604446931285
 20
443.60790338356531
 11
481.63722560321025
 21
457.19908451746272
  0
LINE
  8
_0-e_極細4
  6
CONTINUOUS
 62
    6
 10
494.75753756614722
 20
470.31939648039855
 11
514.0460444693133
 21
489.60790338356554
  0
LINE
  8
_0-e_極細4
  6
CONTINUOUS
 62
    6
 10
468.04604446931285
 20
447.85054407068463
 11
475.83210467372487
 21
455.63660427509598
  0
LINE
  8
_0-e_極細4
  6
CONTINUOUS
 62
    6
 10
496.32001780851351
 20
476.1245174098845
 11
514.0460444693133
 21
493.85054407068486
  0
LINE
  8
_0-e_極細4
  6
CONTINUOUS
 62
    6
 10
468.04604446931285
 20
452.09318475780407
 11
471.36343732580531
 21
455.41057761429551
  0
LINE
  8
_0-e_極細4
  6
CONTINUOUS
 62
    6
 10
496.54604446931285
 20
480.59318475780407
 11
514.0460444693133
 21
498.09318475780373
  0
LINE
  8
_0-e_極細4
  6
CONTINUOUS
 62
    6
 10
496.54604446931285
 20
484.83582544492327
 11
514.0460444693133
 21
502.33582544492316
  0
LINE
  8
_0-e_極細4
  6
CONTINUOUS
 62
    6
 10
496.54604446931285
 20
489.07846613204237
 11
514.0460444693133
 21
506.57846613204214
  0
LINE
  8
_0-e_極細4
  6
CONTINUOUS
 62
    6
 10
496.54604446931285
 20
493.32110681916168
 11
514.0460444693133
 21
510.82110681916146
  0
LINE
  8
_0-e_極細4
  6
CONTINUOUS
 62
    6
 10
496.54604446931285
 20
497.563747506281
 11
514.0460444693133
 21
515.06374750628061
  0
LINE
  8
_0-e_極細4
  6
CONTINUOUS
 62
    6
 10
496.54604446931285
 20
501.80638819340032
 11
514.0460444693133
 21
519.30638819340015
  0
LINE
  8
_0-e_極細4
  6
CONTINUOUS
 62
    6
 10
496.54604446931285
 20
506.04902888051964
 11
514.0460444693133
 21
523.54902888051947
  0
LINE
  8
_0-e_極細4
  6
CONTINUOUS
 62
    6
 10
496.54604446931285
 20
510.29166956763885
 11
514.0460444693133
 21
527.79166956763879
  0
LINE
  8
_0-e_極細4
  6
CONTINUOUS
 62
    6
 10
496.54604446931285
 20
514.53431025475834
 11
514.0460444693133
 21
532.03431025475788
  0
LINE
  8
_0-e_極細4
  6
CONTINUOUS
 62
    6
 10
496.54604446931285
 20
518.77695094187766
 11
514.0460444693133
 21
536.27695094187743
  0
LINE
  8
_0-e_極細4
  6
CONTINUOUS
 62
    6
 10
496.54604446931285
 20
523.01959162899698
 11
514.0460444693133
 21
540.51959162899675
  0
LINE
  8
_0-e_極細4
  6
CONTINUOUS
 62
    6
 10
496.54604446931285
 20
527.26223231611607
 11
514.0460444693133
 21
544.76223231611607
  0
LINE
  8
_0-e_極細4
  6
CONTINUOUS
 62
    6
 10
496.54604446931285
 20
531.50487300323562
 11
514.0460444693133
 21
549.00487300323516
  0
LINE
  8
_0-e_極細4
  6
CONTINUOUS
 62
    6
 10
496.54604446931285
 20
535.74751369035494
 11
512.06792891091027
 21
551.26939813195054
  0
LINE
  8
_0-e_極細4
  6
CONTINUOUS
 62
    6
 10
514.04603483584833
 20
553.24750405688951
 11
514.0460444693133
 21
553.24751369035471
  0
LINE
  8
_0-e_極細4
  6
CONTINUOUS
 62
    6
 10
496.54604446931285
 20
539.9901543774738
 11
507.82528822379027
 21
551.26939813195077
  0
LINE
  8
_0-e_極細4
  6
CONTINUOUS
 62
    6
 10
496.54604446931285
 20
544.23279506459312
 11
503.58264753667095
 21
551.26939813195054
  0
LINE
  8
_0-e_極細4
  6
CONTINUOUS
 62
    6
 10
496.54604446931285
 20
548.47543575171221
 11
499.34000684955208
 21
551.26939813195054
  0
LINE
  8
_0-e_極細4
  6
CONTINUOUS
 62
    6
 10
498.18681381666829
 20
380.41057761429573
 11
500.27952789455958
 21
382.50329169218702
  0
LINE
  8
_0-e_極細4
  6
CONTINUOUS
 62
    6
 10
494.54008534713716
 20
381.00648983188415
 11
500.34851392199266
 21
386.81491840673931
  0
LINE
  8
_0-e_極細4
  6
CONTINUOUS
 62
    6
 10
494.49807900370024
 20
385.20712417556678
 11
500.41749994942506
 21
391.1265451212916
  0
LINE
  8
_0-e_極細4
  6
CONTINUOUS
 62
    6
 10
494.45607266026332
 20
389.40775851924906
 11
500.48648597685815
 21
395.43817183584355
  0
LINE
  8
_0-e_極細4
  6
CONTINUOUS
 62
    6
 10
471.21625106819033
 20
370.41057761429573
 11
473.0770579167895
 21
372.27138446289445
  0
LINE
  8
_0-e_極細4
  6
CONTINUOUS
 62
    6
 10
494.41406631682685
 20
393.60839286293157
 11
500.555472004291
 21
399.74979855039572
  0
LINE
  8
_0-e_極細4
  6
CONTINUOUS
 62
    6
 10
469.01464395282528
 20
372.45161118604909
 11
473.14896708097876
 21
376.58593431420235
  0
LINE
  8
_0-e_極細4
  6
CONTINUOUS
 62
    6
 10
494.37205997339038
 20
397.80902720661396
 11
500.62445803172409
 21
404.06142526494767
  0
LINE
  8
_0-e_極細4
  6
CONTINUOUS
 62
    6
 10
468.95036151817135
 20
376.62996943851516
 11
473.22087624516666
 21
380.90048416551048
  0
LINE
  8
_0-e_極細4
  6
CONTINUOUS
 62
    6
 10
494.33005362995345
 20
402.00966155029658
 11
500.69344405915649
 21
408.37305197950008
  0
LINE
  8
_0-e_極細4
  6
CONTINUOUS
 62
    6
 10
468.88607908351833
 20
380.80832769098078
 11
473.29278540935547
 21
385.21503401681792
  0
LINE
  8
_0-e_極細4
  6
CONTINUOUS
 62
    6
 10
494.28804728651653
 20
406.21029589397921
 11
500.76243008658957
 21
412.68467869405202
  0
LINE
  8
_0-e_極細4
  6
CONTINUOUS
 62
    6
 10
468.82179664886485
 20
384.98668594344707
 11
473.36469457354383
 21
389.52958386812605
  0
LINE
  8
_0-e_極細4
  6
CONTINUOUS
 62
    6
 10
494.24604094307938
 20
410.41093023766149
 11
500.83141611402243
 21
416.99630540860431
  0
LINE
  8
_0-e_極細4
  6
CONTINUOUS
 62
    6
 10
468.7575142142116
 20
389.16504419591291
 11
473.43660373773241
 21
393.8441337194335
  0
LINE
  8
_0-e_極細4
  6
CONTINUOUS
 62
    6
 10
494.20403459964291
 20
414.611564581344
 11
500.90040214145506
 21
421.3079321231566
  0
LINE
  8
_0-e_極細4
  6
CONTINUOUS
 62
    6
 10
468.6932317795588
 20
393.34340244837898
 11
473.50851290192077
 21
398.15868357074129
  0
LINE
  8
_0-e_極細4
  6
CONTINUOUS
 62
    6
 10
494.16202825620599
 20
418.81219892502639
 11
500.96938816888792
 21
425.61955883770855
  0
LINE
  8
_0-e_極細4
  6
CONTINUOUS
 62
    6
 10
506.04373207364438
 20
430.69390274246479
 11
518.76271934114448
 21
443.41289000996466
  0
LINE
  8
_0-e_極細4
  6
CONTINUOUS
 62
    6
 10
468.62894934490419
 20
397.52176070084494
 11
473.58042206610867
 21
402.47323342204908
  0
LINE
  8
_0-e_極細4
  6
CONTINUOUS
 62
    6
 10
494.12002191276906
 20
423.01283326870902
 11
501.038374196321
 21
429.93118555226073
  0
LINE
  8
_0-e_極細4
  6
CONTINUOUS
 62
    6
 10
501.51776625835623
 20
430.41057761429573
 11
519.0460444693133
 21
447.93885582525303
  0
LINE
  8
_0-e_極細4
  6
CONTINUOUS
 62
    6
 10
468.56466691025162
 20
401.70011895331089
 11
473.65233123029793
 21
406.78778327335675
  0
LINE
  8
_0-e_極細4
  6
CONTINUOUS
 62
    6
 10
494.07801556933259
 20
427.21346761239164
 11
503.09145595869518
 21
436.22690800175423
  0
LINE
  8
_0-e_極細4
  6
CONTINUOUS
 62
    6
 10
513.22971408185481
 20
446.36516612491374
 11
519.0460444693133
 21
452.18149651237223
  0
LINE
  8
_0-e_極細4
  6
CONTINUOUS
 62
    6
 10
468.50038447559814
 20
405.87847720577673
 11
473.72424039448629
 21
411.10233312466465
  0
LINE
  8
_0-e_極細4
  6
CONTINUOUS
 62
    6
 10
493.03248488411737
 20
430.41057761429573
 11
498.03248488411737
 21
435.41057761429562
  0
LINE
  8
_0-e_極細4
  6
CONTINUOUS
 62
    6
 10
514.0460444693133
 20
451.42413719949189
 11
519.0460444693133
 21
456.42413719949144
  0
LINE
  8
_0-e_極細4
  6
CONTINUOUS
 62
    6
 10
468.43610204094512
 20
410.0568354582428
 11
473.79614955867441
 21
415.41688297597244
  0
LINE
  8
_0-e_極細4
  6
CONTINUOUS
 62
    6
 10
488.78984419699805
 20
430.41057761429573
 11
493.78984419699759
 21
435.41057761429562
  0
LINE
  8
_0-e_極細4
  6
CONTINUOUS
 62
    6
 10
514.0460444693133
 20
455.66677788661099
 11
519.0460444693133
 21
460.66677788661087
  0
LINE
  8
_0-e_極細4
  6
CONTINUOUS
 62
    6
 10
468.37181960629164
 20
414.23519371070876
 11
473.86805872286345
 21
419.73143282728023
  0
LINE
  8
_0-e_極細4
  6
CONTINUOUS
 62
    6
 10
484.54720350987873
 20
430.41057761429573
 11
489.54720350987918
 21
435.41057761429562
  0
LINE
  8
_0-e_極細4
  6
CONTINUOUS
 62
    6
 10
514.0460444693133
 20
459.90941857373042
 11
519.0460444693133
 21
464.90941857373008
  0
LINE
  8
_0-e_極細4
  6
CONTINUOUS
 62
    6
 10
468.30753717163816
 20
418.41355196317471
 11
473.93996788705181
 21
424.0459826785879
  0
LINE
  8
_0-e_極細4
  6
CONTINUOUS
 62
    6
 10
480.30456282275941
 20
430.41057761429573
 11
485.30456282275986
 21
435.41057761429596
  0
LINE
  8
_0-e_極細4
  6
CONTINUOUS
 62
    6
 10
514.0460444693133
 20
464.15205926084963
 11
519.0460444693133
 21
469.15205926084951
  0
LINE
  8
_0-e_極細4
  6
CONTINUOUS
 62
    6
 10
468.24325473698468
 20
422.59191021564055
 11
474.01187705124016
 21
428.36053252989581
  0
LINE
  8
_0-e_極細4
  6
CONTINUOUS
 62
    6
 10
476.06192213564054
 20
430.41057761429573
 11
481.06192213563986
 21
435.41057761429596
  0
LINE
  8
_0-e_極細4
  6
CONTINUOUS
 62
    6
 10
514.0460444693133
 20
468.39469994796895
 11
519.0460444693133
 21
473.39469994796872
  0
LINE
  8
_0-e_極細4
  6
CONTINUOUS
 62
    6
 10
468.17897230233166
 20
426.77026846810662
 11
476.819281448521
 21
435.41057761429562
  0
LINE
  8
_0-e_極細4
  6
CONTINUOUS
 62
    6
 10
514.0460444693133
 20
472.63734063508826
 11
519.0460444693133
 21
477.63734063508815
  0
LINE
  8
_0-e_極細4
  6
CONTINUOUS
 62
    6
 10
468.11468986767863
 20
430.94862672057258
 11
472.57664076140168
 21
435.41057761429596
  0
LINE
  8
_0-e_極細4
  6
CONTINUOUS
 62
    6
 10
514.0460444693133
 20
476.87998132220758
 11
519.0460444693133
 21
481.87998132220736
  0
LINE
  8
_0-e_極細4
  6
CONTINUOUS
 62
    6
 10
468.05040743302493
 20
435.12698497303853
 11
468.33400007428236
 21
435.41057761429596
  0
LINE
  8
_0-e_極細4
  6
CONTINUOUS
 62
    6
 10
514.0460444693133
 20
481.1226220093269
 11
519.0460444693133
 21
486.12262200932679
  0
LINE
  8
_0-e_極細4
  6
CONTINUOUS
 62
    6
 10
514.0460444693133
 20
485.36526269644622
 11
519.0460444693133
 21
490.36526269644577
  0
LINE
  8
_0-e_極細4
  6
CONTINUOUS
 62
    6
 10
514.0460444693133
 20
489.60790338356554
 11
519.0460444693133
 21
494.60790338356509
  0
LINE
  8
_0-e_極細4
  6
CONTINUOUS
 62
    6
 10
514.0460444693133
 20
493.85054407068486
 11
519.0460444693133
 21
498.85054407068441
  0
LINE
  8
_0-e_極細4
  6
CONTINUOUS
 62
    6
 10
514.0460444693133
 20
498.09318475780373
 11
519.0460444693133
 21
503.09318475780373
  0
LINE
  8
_0-e_極細4
  6
CONTINUOUS
 62
    6
 10
514.0460444693133
 20
502.33582544492316
 11
519.0460444693133
 21
507.33582544492305
  0
LINE
  8
_0-e_極細4
  6
CONTINUOUS
 62
    6
 10
514.0460444693133
 20
506.57846613204214
 11
519.0460444693133
 21
511.57846613204237
  0
LINE
  8
_0-e_極細4
  6
CONTINUOUS
 62
    6
 10
514.0460444693133
 20
510.8211068191618
 11
519.0460444693133
 21
515.82110681916151
  0
LINE
  8
_0-e_極細4
  6
CONTINUOUS
 62
    6
 10
514.0460444693133
 20
515.06374750628061
 11
519.0460444693133
 21
520.06374750628106
  0
LINE
  8
_0-e_極細4
  6
CONTINUOUS
 62
    6
 10
514.0460444693133
 20
519.30638819340015
 11
519.0460444693133
 21
524.30638819340038
  0
LINE
  8
_0-e_極細4
  6
CONTINUOUS
 62
    6
 10
514.0460444693133
 20
523.54902888051947
 11
519.0460444693133
 21
528.5490288805197
  0
LINE
  8
_0-e_極細4
  6
CONTINUOUS
 62
    6
 10
514.0460444693133
 20
527.79166956763879
 11
519.0460444693133
 21
532.79166956763879
  0
LINE
  8
_0-e_極細4
  6
CONTINUOUS
 62
    6
 10
514.0460444693133
 20
532.03431025475788
 11
519.0460444693133
 21
537.03431025475811
  0
LINE
  8
_0-e_極細4
  6
CONTINUOUS
 62
    6
 10
514.0460444693133
 20
536.27695094187743
 11
519.0460444693133
 21
541.27695094187743
  0
LINE
  8
_0-e_極細4
  6
CONTINUOUS
 62
    6
 10
514.0460444693133
 20
540.51959162899675
 11
519.0460444693133
 21
545.51959162899675
  0
LINE
  8
_0-e_極細4
  6
CONTINUOUS
 62
    6
 10
514.0460444693133
 20
544.76223231611607
 11
519.0460444693133
 21
549.76223231611607
  0
LINE
  8
_0-e_極細4
  6
CONTINUOUS
 62
    6
 10
514.0460444693133
 20
549.00487300323516
 11
519.0460444693133
 21
554.00487300323493
  0
LINE
  8
_0-e_極細4
  6
CONTINUOUS
 62
    6
 10
514.0460444693133
 20
553.24751369035471
 11
519.0460444693133
 21
558.24751369035425
  0
LINE
  8
_0-e_極細4
  6
CONTINUOUS
 62
    6
 10
514.0460444693133
 20
557.4901543774738
 11
519.0460444693133
 21
562.4901543774738
  0
LINE
  8
_0-e_極細4
  6
CONTINUOUS
 62
    6
 10
514.0460444693133
 20
561.73279506459312
 11
519.0460444693133
 21
566.73279506459289
  0
LINE
  8
_0-e_極細4
  6
CONTINUOUS
 62
    6
 10
514.0460444693133
 20
565.97543575171244
 11
519.0460444693133
 21
570.97543575171221
  0
LINE
  8
_0-e_極細4
  6
CONTINUOUS
 62
    6
 10
514.0460444693133
 20
570.21807643883176
 11
519.0460444693133
 21
575.21807643883153
  0
LINE
  8
_0-e_極細4
  6
CONTINUOUS
 62
    6
 10
514.0460444693133
 20
574.46071712595108
 11
519.0460444693133
 21
579.46071712595108
  0
LINE
  8
_0-e_極細4
  6
CONTINUOUS
 62
    6
 10
514.0460444693133
 20
578.7033578130704
 11
519.0460444693133
 21
583.70335781307017
  0
LINE
  8
_0-e_極細4
  6
CONTINUOUS
 62
    6
 10
514.0460444693133
 20
582.94599850018926
 11
519.0460444693133
 21
587.94599850018949
  0
LINE
  8
_0-e_極細4
  6
CONTINUOUS
 62
    6
 10
514.0460444693133
 20
587.18863918730858
 11
519.0460444693133
 21
592.18863918730881
  0
LINE
  8
_0-e_極細4
  6
CONTINUOUS
 62
    6
 10
514.0460444693133
 20
591.4312798744279
 11
519.32960346823779
 21
596.71483887335239
  0
LINE
  8
_0-e_極細4
  6
CONTINUOUS
 62
    6
 10
514.0460444693133
 20
595.67392056154722
 11
524.0460444693133
 21
605.67392056154722
  0
LINE
  8
_0-e_極細4
  6
CONTINUOUS
 62
    6
 10
514.0460444693133
 20
599.91656124866631
 11
524.0460444693133
 21
609.91656124866677
  0
LINE
  8
_0-e_極細4
  6
CONTINUOUS
 62
    6
 10
514.0460444693133
 20
604.15920193578586
 11
517.29745358783066
 21
607.41061105430299
  0
LINE
  8
_0-e_極細4
  6
CONTINUOUS
 62
    6
 10
517.54548900037366
 20
607.65864646684645
 11
524.0460444693133
 21
614.15920193578609
  0
LINE
  8
_0-e_極細4
  6
CONTINUOUS
 62
    6
 10
528.89745358783034
 20
619.0106110543029
 11
531.84604446931394
 21
621.95920193578581
  0
LINE
  8
_0-e_極細4
  6
CONTINUOUS
 62
    6
 10
515.0460444693133
 20
609.40184262290495
 11
524.0460444693133
 21
618.40184262290518
  0
LINE
  8
_0-e_極細4
  6
CONTINUOUS
 62
    6
 10
524.65481290071148
 20
619.0106110543029
 11
531.84604446931394
 21
626.20184262290513
  0
LINE
  8
_0-e_極細4
  6
CONTINUOUS
 62
    6
 10
515.0460444693133
 20
613.64448331002427
 11
531.84604446931394
 21
630.44448331002445
  0
LINE
  8
_0-e_極細4
  6
CONTINUOUS
 62
    6
 10
518.00404446931384
 20
620.84512399714367
 11
531.84604446931394
 21
634.68712399714377
  0
LINE
  8
_0-e_極細4
  6
CONTINUOUS
 62
    6
 10
518.00404446931384
 20
625.08776468426299
 11
531.84604446931394
 21
638.92976468426309
  0
LINE
  8
_0-e_極細4
  6
CONTINUOUS
 62
    6
 10
518.00404446931384
 20
629.33040537138231
 11
531.84604446931394
 21
643.17240537138241
  0
LINE
  8
_0-e_極細4
  6
CONTINUOUS
 62
    6
 10
518.00404446931384
 20
633.57304605850163
 11
531.38875078134515
 21
646.95775237053272
  0
LINE
  8
_0-e_極細4
  6
CONTINUOUS
 62
    6
 10
518.00404446931384
 20
637.81568674562095
 11
526.59160714541099
 21
646.40324942171787
  0
LINE
  8
_0-e_極細4
  6
CONTINUOUS
 62
    6
 10
518.00404446931384
 20
642.05832743274004
 11
521.79446350947615
 21
645.84874647290303
  0
LINE
  8
_0-e_極細4
  6
CENTER2
 62
    6
 10
418.0460444693133
 20
673.92303902553704
 11
418.0460444693133
 21
348.26752034563577
  0
LINE
  8
_0-e_極細4
  6
CONTINUOUS
 62
    6
 10
304.24604446931357
 20
651.79625308364371
 11
531.84604446931394
 21
651.79625308364371
  0
LINE
  8
_0-e_極細4
  6
CONTINUOUS
 62
    6
 10
531.84604446931394
 20
650.41061105430299
 11
531.84604446931394
 21
651.79625308364371
  0
LINE
  8
_0-e_極細4
  6
CONTINUOUS
 62
    6
 10
472.0460444693133
 20
607.41061105430299
 11
518.00404446931316
 21
607.41061105430299
  0
LINE
  8
_0-e_極細4
  6
CONTINUOUS
 62
    6
 10
494.5460444693133
 20
597.0106110543029
 11
472.0460444693133
 21
597.0106110543029
  0
LINE
  8
_0-e_極細4
  6
CONTINUOUS
 62
    6
 10
518.00404446931384
 20
649.82473905430288
 11
531.84604446931394
 21
651.79625308364371
  0
LINE
  8
_0-e_極細4
  6
CONTINUOUS
 62
    6
 10
472.0460444693133
 20
606.81928305430324
 11
472.0460444693133
 21
609.77478905430326
  0
LINE
  8
_0-e_極細4
  6
CONTINUOUS
 62
    6
 10
472.0460444693133
 20
609.0106110543029
 11
515.0460444693133
 21
609.0106110543029
  0
LINE
  8
_0-e_極細4
  6
CONTINUOUS
 62
    6
 10
505.0460444693133
 20
636.02629705430309
 11
505.0460444693133
 21
637.82473905430288
  0
LINE
  8
_0-e_極細4
  6
CONTINUOUS
 62
    6
 10
505.0460444693133
 20
636.02629705430309
 11
418.0460444693133
 21
636.02629705430309
  0
LINE
  8
_0-e_極細4
  6
CONTINUOUS
 62
    6
 10
505.0460444693133
 20
626.82629705430281
 11
418.0460444693133
 21
626.82629705430327
  0
LINE
  8
_0-e_極細4
  6
CONTINUOUS
 62
    6
 10
505.0460444693133
 20
623.82629705430281
 11
505.0460444693133
 21
626.82629705430281
  0
LINE
  8
_0-e_極細4
  6
CONTINUOUS
 62
    6
 10
497.5460444693133
 20
632.63695905430313
 11
497.5460444693133
 21
630.036959054303
  0
LINE
  8
_0-e_極細4
  6
CONTINUOUS
 62
    6
 10
497.5460444693133
 20
628.03695905430277
 11
497.5460444693133
 21
627.036959054303
  0
LINE
  8
_0-e_極細4
  6
CONTINUOUS
 62
    6
 10
504.74604446931403
 20
632.63695905430313
 11
504.74604446931403
 21
627.036959054303
  0
LINE
  8
_0-e_極細4
  6
CONTINUOUS
 62
    6
 10
418.0460444693133
 20
627.036959054303
 11
504.74604446931403
 21
627.036959054303
  0
LINE
  8
_0-e_極細4
  6
CONTINUOUS
 62
    6
 10
418.0460444693133
 20
629.036959054303
 11
496.54604446931285
 21
629.036959054303
  0
LINE
  8
_0-e_極細4
  6
CONTINUOUS
 62
    6
 10
418.0460444693133
 20
633.63695905430313
 11
496.54604446931285
 21
633.63695905430291
  0
LINE
  8
_0-e_極細4
  6
CONTINUOUS
 62
    6
 10
496.54604446931285
 20
633.63695905430291
 11
497.5460444693133
 21
634.63695905430291
  0
LINE
  8
_0-e_極細4
  6
CONTINUOUS
 62
    6
 10
497.5460444693133
 20
632.63695905430313
 11
496.54604446931285
 21
633.63695905430291
  0
LINE
  8
_0-e_極細4
  6
CONTINUOUS
 62
    6
 10
497.5460444693133
 20
628.03695905430277
 11
496.54604446931285
 21
629.036959054303
  0
LINE
  8
_0-e_極細4
  6
CONTINUOUS
 62
    6
 10
496.54604446931285
 20
629.036959054303
 11
497.5460444693133
 21
630.036959054303
  0
LINE
  8
_0-e_極細4
  6
CONTINUOUS
 62
    6
 10
504.74604446931403
 20
632.63695905430313
 11
506.34604446931394
 21
635.63695905430268
  0
LINE
  8
_0-e_極細4
  6
CONTINUOUS
 62
    6
 10
497.5460444693133
 20
635.63695905430268
 11
497.5460444693133
 21
634.63695905430291
  0
LINE
  8
_0-e_極細4
  6
CONTINUOUS
 62
    6
 10
418.0460444693133
 20
635.63695905430313
 11
506.34604446931394
 21
635.63695905430268
  0
LINE
  8
_0-e_極細4
  6
CONTINUOUS
 62
    6
 10
418.44604446931362
 20
637.82473905430334
 11
505.64604446931321
 21
637.82473905430288
  0
LINE
  8
_0-e_極細4
  6
CONTINUOUS
 62
    6
 10
418.44604446931362
 20
639.82473905430311
 11
504.44604446931339
 21
639.82473905430288
  0
ARC
  8
_0-e_極細4
  6
CONTINUOUS
 62
    6
 10
509.94604446931362
 20
647.82473905430334
 40
1
 50
24.054548999998843
 51
89.999999999999915
  0
ARC
  8
_0-e_極細4
  6
CONTINUOUS
 62
    6
 10
510.5460444693133
 20
645.22473905430297
 40
0.3999999999999772
 50
269.99999999999977
 51
359.99999999999966
  0
ARC
  8
_0-e_極細4
  6
CONTINUOUS
 62
    6
 10
509.94604446931362
 20
647.82473905430334
 40
1
 50
0
 51
24.054548999998843
  0
LINE
  8
_0-e_極細4
  6
CONTINUOUS
 62
    6
 10
506.64604446931367
 20
638.82473905430311
 11
506.64604446931367
 21
644.82473905430334
  0
LINE
  8
_0-e_極細4
  6
CONTINUOUS
 62
    6
 10
506.64604446931367
 20
644.82473905430334
 11
510.5460444693133
 21
644.82473905430334
  0
LINE
  8
_0-e_極細4
  6
CONTINUOUS
 62
    6
 10
418.0460444693133
 20
648.82473905430334
 11
509.94604446931362
 21
648.82473905430288
  0
LINE
  8
_0-e_極細4
  6
CONTINUOUS
 62
    6
 10
510.94604446931362
 20
645.22473905430297
 11
510.94604446931362
 21
647.82473905430334
  0
LINE
  8
_0-e_極細4
  6
CONTINUOUS
 62
    6
 10
487.61867046931366
 20
611.42473905430325
 11
487.61867046931366
 21
614.82473905430288
  0
LINE
  8
_0-e_極細4
  6
CONTINUOUS
 62
    6
 10
477.61867046931366
 20
611.42473905430325
 11
477.61867046931366
 21
614.82473905430288
  0
LINE
  8
_0-e_極細4
  6
CONTINUOUS
 62
    6
 10
477.61867046931366
 20
611.42473905430325
 11
487.61867046931366
 21
611.42473905430325
  0
LINE
  8
_0-e_極細4
  6
CONTINUOUS
 62
    6
 10
504.0460444693133
 20
614.82473905430288
 11
515.0460444693133
 21
614.82473905430288
  0
LINE
  8
_0-e_極細4
  6
CONTINUOUS
 62
    6
 10
502.38567646931369
 20
610.82473905430311
 11
504.0460444693133
 21
610.82473905430311
  0
LINE
  8
_0-e_極細4
  6
CONTINUOUS
 62
    6
 10
504.0460444693133
 20
620.22473905430297
 11
506.64604446931367
 21
620.22473905430297
  0
LINE
  8
_0-e_極細4
  6
CONTINUOUS
 62
    6
 10
504.0460444693133
 20
618.82473905430288
 11
508.0460444693133
 21
618.82473905430288
  0
LINE
  8
_0-e_極細4
  6
CONTINUOUS
 62
    6
 10
504.0460444693133
 20
610.82473905430311
 11
504.0460444693133
 21
622.82473905430288
  0
LINE
  8
_0-e_極細4
  6
CONTINUOUS
 62
    6
 10
518.00404446931384
 20
617.78273905430297
 11
515.0460444693133
 21
614.82473905430288
  0
LINE
  8
_0-e_極細4
  6
CONTINUOUS
 62
    6
 10
508.0460444693133
 20
618.82473905430288
 11
508.0460444693133
 21
641.32473905430288
  0
ARC
  8
_0-e_極細4
  6
CONTINUOUS
 62
    6
 10
510.14604446931321
 20
641.32473905430288
 40
2.1000000000000227
 50
89.999999999999915
 51
179.99999999999983
  0
LINE
  8
_0-e_極細4
  6
CONTINUOUS
 62
    6
 10
512.52849246931351
 20
643.42473905430302
 11
510.14604446931321
 21
643.42473905430302
  0
ARC
  8
_0-e_極細4
  6
CONTINUOUS
 62
    6
 10
512.52849246931351
 20
646.82473905430288
 40
3.3999999999999773
 50
269.99999999999977
 51
356.64911199999881
  0
ARC
  8
_0-e_極細4
  6
CONTINUOUS
 62
    6
 10
512.52849246931351
 20
646.82473905430288
 40
2
 50
269.99999999999977
 51
356.64911200000364
  0
ARC
  8
_0-e_極細4
  6
CONTINUOUS
 62
    6
 10
518.00404446931384
 20
646.32473905430334
 40
3.4999999999999996
 50
89.999999999999915
 51
175.84901000000326
  0
ARC
  8
_0-e_極細4
  6
CONTINUOUS
 62
    6
 10
510.14604446931321
 20
641.32473905430288
 40
3.4999999999999996
 50
89.999999999999915
 51
179.99999999999983
  0
LINE
  8
_0-e_極細4
  6
CONTINUOUS
 62
    6
 10
511.0460444693133
 20
644.82473905430334
 11
511.0460444693133
 21
649.82473905430288
  0
LINE
  8
_0-e_極細4
  6
CONTINUOUS
 62
    6
 10
506.64604446931367
 20
620.22473905430297
 11
506.64604446931367
 21
641.32473905430288
  0
LINE
  8
_0-e_極細4
  6
CONTINUOUS
 62
    6
 10
512.52849246931351
 20
644.82473905430334
 11
510.14604446931321
 21
644.82473905430334
  0
LINE
  8
_0-e_極細4
  6
CONTINUOUS
 62
    6
 10
498.5460444693133
 20
622.82473905430288
 11
506.64604446931367
 21
622.82473905430288
  0
LINE
  8
_0-e_極細4
  6
CONTINUOUS
 62
    6
 10
418.0460444693133
 20
649.82473905430334
 11
518.00404446931384
 21
649.82473905430288
  0
ARC
  8
_0-e_極細4
  6
CONTINUOUS
 62
    6
 10
494.5460444693133
 20
595.01061105430335
 40
2
 50
89.999999999999915
 51
179.99999999999983
  0
ARC
  8
_0-e_極細4
  6
CONTINUOUS
 62
    6
 10
494.5460444693133
 20
595.01061105430335
 40
2
 50
0
 51
89.999999999999915
  0
LINE
  8
_0-e_極細4
  6
CONTINUOUS
 62
    6
 10
531.84604446931394
 20
647.0106110543029
 11
518.00404446931384
 21
645.41061105430299
  0
LINE
  8
_0-e_極細4
  6
CONTINUOUS
 62
    6
 10
518.00404446931316
 20
607.41061105430299
 11
515.0460444693133
 21
609.0106110543029
  0
LINE
  8
_0-e_極細4
  6
CONTINUOUS
 62
    6
 10
515.0460444693133
 20
609.0106110543029
 11
515.0460444693133
 21
614.82473905430288
  0
LINE
  8
_0-e_極細4
  6
CONTINUOUS
 62
    6
 10
531.84604446931394
 20
620.1210930543034
 11
531.84604446931394
 21
651.76776705430302
  0
LINE
  8
_0-e_極細4
  6
CONTINUOUS
 62
    6
 10
524.0460444693133
 20
619.0106110543029
 11
531.84604446931394
 21
619.0106110543029
  0
LINE
  8
_0-e_極細4
  6
CONTINUOUS
 62
    6
 10
531.84604446931394
 20
619.0106110543029
 11
531.84604446931394
 21
620.1210930543034
  0
ARC
  8
_0-e_極細4
  6
CONTINUOUS
 62
    6
 10
529.0460444693133
 20
594.350357054303
 40
10
 50
119.99999999999989
 51
179.99999999999983
  0
LINE
  8
_0-e_極細4
  6
CONTINUOUS
 62
    6
 10
524.0460444693133
 20
603.0106110543029
 11
524.0460444693133
 21
619.0106110543029
  0
LINE
  8
_0-e_極細4
  6
CONTINUOUS
 62
    6
 10
518.00404446931384
 20
648.41060996180158
 11
531.84604446931394
 21
650.38212505430306
  0
LINE
  8
_0-e_極細4
  6
CONTINUOUS
 62
    6
 10
518.00404446931384
 20
617.78273905430297
 11
518.00404446931384
 21
648.42473905430325
  0
ARC
  8
_0-e_極細4
  6
CONTINUOUS
 62
    6
 10
518.00404446931384
 20
646.32473905430334
 40
2.1000000000000227
 50
89.999999999999915
 51
175.84901000001071
  0
LINE
  8
_0-e_極細4
  6
CONTINUOUS
 62
    6
 10
499.0460444693133
 20
609.02629705430354
 11
493.0460444693133
 21
609.02629705430354
  0
ARC
  8
_0-e_極細4
  6
CONTINUOUS
 62
    6
 10
499.0460444693133
 20
613.02629705430309
 40
4
 50
269.99999999999977
 51
359.99999999999966
  0
LINE
  8
_0-e_極細4
  6
CONTINUOUS
 62
    6
 10
503.0460444693133
 20
613.02629705430309
 11
503.0460444693133
 21
615.02629705430309
  0
LINE
  8
_0-e_極細4
  6
CONTINUOUS
 62
    6
 10
503.0460444693133
 20
615.02629705430309
 11
498.5460444693133
 21
615.02629705430309
  0
LINE
  8
_0-e_極細4
  6
CONTINUOUS
 62
    6
 10
505.0460444693133
 20
623.82629705430281
 11
498.5460444693133
 21
623.82629705430281
  0
LINE
  8
_0-e_極細4
  6
CONTINUOUS
 62
    6
 10
498.5460444693133
 20
615.02629705430309
 11
498.5460444693133
 21
623.82629705430327
  0
LINE
  8
_0-e_極細4
  6
CONTINUOUS
 62
    6
 10
498.5460444693133
 20
623.82629705430327
 11
418.0460444693133
 21
623.82629705430327
  0
ARC
  8
_0-e_極細4
  6
CONTINUOUS
 62
    6
 10
472.54604446931285
 20
479.41057761429573
 40
20
 50
269.99999999999977
 51
359.99999999999966
  0
LINE
  8
_0-e_極細4
  6
CONTINUOUS
 62
    6
 10
418.0460444693133
 20
459.41057761429573
 11
472.54604446931285
 21
459.41057761429573
  0
LINE
  8
_0-e_極細4
  6
CONTINUOUS
 62
    6
 10
492.5460444693133
 20
479.41057761429573
 11
492.5460444693133
 21
595.01061105430335
  0
LINE
  8
_0-e_極細4
  6
CONTINUOUS
 62
    6
 10
496.54604446931285
 20
479.41057761429573
 11
496.54604446931285
 21
595.01061105430335
  0
LINE
  8
_0-e_極細4
  6
CONTINUOUS
 62
    6
 10
419.90811246931321
 20
455.41057761429573
 11
472.54604446931285
 21
455.41057761429573
  0
LINE
  8
_0-e_極細4
  6
CONTINUOUS
 62
    6
 10
418.0460444693133
 20
455.41057761429573
 11
419.90811246931321
 21
455.41057761429573
  0
LINE
  8
_0-e_極細4
  6
CONTINUOUS
 62
    6
 10
494.54604446931285
 20
380.41057761429573
 11
494.0460444693133
 21
430.41057761429573
  0
LINE
  8
_0-e_極細4
  6
CONTINUOUS
 62
    6
 10
514.0460444693133
 20
553.25371161429553
 11
514.0460444693133
 21
607.41061105430299
  0
ARC
  8
_0-e_極細4
  6
CONTINUOUS
 62
    6
 10
512.0460444693133
 20
553.25371161429553
 40
2
 50
277.18075600000213
 51
359.99999999999966
  0
ARC
  8
_0-e_極細4
  6
CONTINUOUS
 62
    6
 10
472.54604446931285
 20
479.41057761429573
 40
24
 50
269.99999999999977
 51
359.99999999999966
  0
LINE
  8
_0-e_極細4
  6
CONTINUOUS
 62
    6
 10
468.04604446931285
 20
435.41057761429562
 11
468.04604446931285
 21
455.41057761429573
  0
LINE
  8
_0-e_極細4
  6
CONTINUOUS
 62
    6
 10
472.54604446931285
 20
455.41057761429573
 11
468.04604446931285
 21
455.41057761429573
  0
LINE
  8
_0-e_極細4
  6
CONTINUOUS
 62
    6
 10
496.54604446931285
 20
479.41057761429573
 11
496.54604446931285
 21
533.41057761429533
  0
LINE
  8
_0-e_極細4
  6
CONTINUOUS
 62
    6
 10
468.04920246931351
 20
435.205231614296
 11
468.04604446931285
 21
435.41057761429562
  0
LINE
  8
_0-e_極細4
  6
CONTINUOUS
 62
    6
 10
468.04604446931285
 20
435.41057761429562
 11
418.0460444693133
 21
435.41057761429596
  0
ARC
  8
_0-e_極細4
  6
CONTINUOUS
 62
    6
 10
498.04604446931285
 20
451.41057761429573
 40
16
 50
269.99999999999977
 51
359.99999999999966
  0
LINE
  8
_0-e_極細4
  6
CONTINUOUS
 62
    6
 10
474.04604446931285
 20
430.41057761429573
 11
494.0460444693133
 21
430.41057761429573
  0
LINE
  8
_0-e_極細4
  6
CONTINUOUS
 62
    6
 10
469.0460444693133
 20
370.41057761429573
 11
468.04604446931285
 21
435.41057761429562
  0
LINE
  8
_0-e_極細4
  6
CONTINUOUS
 62
    6
 10
514.0460444693133
 20
451.41057761429573
 11
514.0460444693133
 21
553.25371161429553
  0
LINE
  8
_0-e_極細4
  6
CONTINUOUS
 62
    6
 10
498.04604446931285
 20
435.41057761429562
 11
468.04604446931285
 21
435.41057761429562
  0
LINE
  8
_0-e_極細4
  6
CONTINUOUS
 62
    6
 10
473.21271113598004
 20
380.41057761429573
 11
474.04604446931285
 21
430.41057761429573
  0
ARC
  8
_0-e_極細4
  6
CONTINUOUS
 62
    6
 10
503.0460444693133
 20
446.41057761429562
 40
16
 50
269.99999999999977
 51
359.99999999999966
  0
LINE
  8
_0-e_極細4
  6
CONTINUOUS
 62
    6
 10
519.0460444693133
 20
446.41057761429562
 11
519.0460444693133
 21
594.350357054303
  0
LINE
  8
_0-e_極細4
  6
CONTINUOUS
 62
    6
 10
500.24604446931335
 20
380.41057761429573
 11
501.0460444693133
 21
430.41057761429573
  0
LINE
  8
_0-e_極細4
  6
CONTINUOUS
 62
    6
 10
473.21271046931315
 20
380.41057761429573
 11
500.24604446931335
 21
380.41057761429573
  0
LINE
  8
_0-e_極細4
  6
CONTINUOUS
 62
    6
 10
470.0460444693133
 20
489.82626361429556
 11
418.0460444693133
 21
489.82626361429556
  0
ARC
  8
_0-e_極細4
  6
CONTINUOUS
 62
    6
 10
470.0460444693133
 20
491.82626361429578
 40
2
 50
269.99954163375492
 51
359.99999999999966
  0
LINE
  8
_0-e_極細4
  6
CONTINUOUS
 62
    6
 10
472.0460444693133
 20
491.82626361429578
 11
472.0460444693133
 21
609.77478905430326
  0
LINE
  8
_0-e_極細4
  6
CONTINUOUS
 62
    6
 10
512.29604447688212
 20
551.26939813195054
 11
496.54604446931285
 21
551.26939813195054
  0
LINE
  8
_0-e_極細4
  6
CONTINUOUS
 62
    6
 10
501.0460444693133
 20
430.41057761429573
 11
503.0460444693133
 21
430.41057761429573
  0
LINE
  8
_0-e_極細4
  6
CONTINUOUS
 62
    6
 10
418.04604446931285
 20
370.41057761429573
 11
473.0460444693133
 21
370.41057761429573
  0
LINE
  8
_0-e_極細4
  6
CONTINUOUS
 62
    6
 10
473.0460444693133
 20
370.41057761429573
 11
473.21271113598004
 21
380.41057761429573
  0
LINE
  8
_0-e_極細4
  6
CONTINUOUS
 62
    6
 10
304.24604446931357
 20
650.41061105430299
 11
304.24604446931357
 21
651.79625308364371
  0
LINE
  8
_0-e_極細4
  6
CONTINUOUS
 62
    6
 10
364.04604446931398
 20
607.41061105430299
 11
318.0880444693139
 21
607.41061105430299
  0
LINE
  8
_0-e_極細4
  6
CONTINUOUS
 62
    6
 10
341.54604446931398
 20
597.0106110543029
 11
364.04604446931398
 21
597.0106110543029
  0
LINE
  8
_0-e_極細4
  6
CONTINUOUS
 62
    6
 10
318.0880444693139
 20
649.82473905430288
 11
304.24604446931357
 21
651.79625308364371
  0
LINE
  8
_0-e_極細4
  6
CONTINUOUS
 62
    6
 10
364.04604446931398
 20
606.81928305430324
 11
364.04604446931398
 21
609.77478905430326
  0
LINE
  8
_0-e_極細4
  6
CONTINUOUS
 62
    6
 10
364.04604446931398
 20
609.0106110543029
 11
321.04604446931398
 21
609.0106110543029
  0
LINE
  8
_0-e_極細4
  6
CONTINUOUS
 62
    6
 10
331.04604446931398
 20
636.02629705430309
 11
331.04604446931398
 21
637.82473905430288
  0
LINE
  8
_0-e_極細4
  6
CONTINUOUS
 62
    6
 10
331.04604446931398
 20
636.02629705430309
 11
418.04604446931398
 21
636.02629705430309
  0
LINE
  8
_0-e_極細4
  6
CONTINUOUS
 62
    6
 10
331.04604446931398
 20
626.82629705430281
 11
418.04604446931398
 21
626.82629705430327
  0
LINE
  8
_0-e_極細4
  6
CONTINUOUS
 62
    6
 10
331.04604446931398
 20
623.82629705430281
 11
331.04604446931398
 21
626.82629705430281
  0
LINE
  8
_0-e_極細4
  6
CONTINUOUS
 62
    6
 10
338.54604446931398
 20
632.63695905430313
 11
338.54604446931398
 21
630.036959054303
  0
LINE
  8
_0-e_極細4
  6
CONTINUOUS
 62
    6
 10
338.54604446931398
 20
628.03695905430277
 11
338.54604446931398
 21
627.036959054303
  0
LINE
  8
_0-e_極細4
  6
CONTINUOUS
 62
    6
 10
331.34604446931371
 20
632.63695905430313
 11
331.34604446931371
 21
627.036959054303
  0
LINE
  8
_0-e_極細4
  6
CONTINUOUS
 62
    6
 10
418.04604446931398
 20
627.036959054303
 11
331.34604446931371
 21
627.036959054303
  0
LINE
  8
_0-e_極細4
  6
CONTINUOUS
 62
    6
 10
418.04604446931398
 20
629.036959054303
 11
339.54604446931398
 21
629.036959054303
  0
LINE
  8
_0-e_極細4
  6
CONTINUOUS
 62
    6
 10
418.04604446931398
 20
633.63695905430313
 11
339.54604446931398
 21
633.63695905430291
  0
LINE
  8
_0-e_極細4
  6
CONTINUOUS
 62
    6
 10
339.54604446931398
 20
633.63695905430291
 11
338.54604446931398
 21
634.63695905430291
  0
LINE
  8
_0-e_極細4
  6
CONTINUOUS
 62
    6
 10
338.54604446931398
 20
632.63695905430313
 11
339.54604446931398
 21
633.63695905430291
  0
LINE
  8
_0-e_極細4
  6
CONTINUOUS
 62
    6
 10
338.54604446931398
 20
628.03695905430277
 11
339.54604446931398
 21
629.036959054303
  0
LINE
  8
_0-e_極細4
  6
CONTINUOUS
 62
    6
 10
339.54604446931398
 20
629.036959054303
 11
338.54604446931398
 21
630.036959054303
  0
LINE
  8
_0-e_極細4
  6
CONTINUOUS
 62
    6
 10
331.34604446931371
 20
632.63695905430313
 11
329.74604446931357
 21
635.63695905430268
  0
LINE
  8
_0-e_極細4
  6
CONTINUOUS
 62
    6
 10
338.54604446931398
 20
635.63695905430268
 11
338.54604446931398
 21
634.63695905430291
  0
LINE
  8
_0-e_極細4
  6
CONTINUOUS
 62
    6
 10
418.04604446931398
 20
635.63695905430313
 11
329.74604446931357
 21
635.63695905430268
  0
LINE
  8
_0-e_極細4
  6
CONTINUOUS
 62
    6
 10
417.64604446931367
 20
637.82473905430334
 11
330.44604446931407
 21
637.82473905430288
  0
LINE
  8
_0-e_極細4
  6
CONTINUOUS
 62
    6
 10
417.64604446931367
 20
639.82473905430311
 11
331.64604446931367
 21
639.82473905430288
  0
ARC
  8
_0-e_極細4
  6
CONTINUOUS
 62
    6
 10
326.14604446931367
 20
647.82473905430334
 40
1
 50
89.999999999999915
 51
155.94545100000116
  0
ARC
  8
_0-e_極細4
  6
CONTINUOUS
 62
    6
 10
325.54604446931353
 20
645.22473905430297
 40
0.3999999999999772
 50
179.99999999999983
 51
269.99999999999977
  0
ARC
  8
_0-e_極細4
  6
CONTINUOUS
 62
    6
 10
326.14604446931367
 20
647.82473905430334
 40
1
 50
155.94545100000116
 51
179.99999999999983
  0
LINE
  8
_0-e_極細4
  6
CONTINUOUS
 62
    6
 10
329.44604446931407
 20
638.82473905430311
 11
329.44604446931362
 21
644.82473905430334
  0
LINE
  8
_0-e_極細4
  6
CONTINUOUS
 62
    6
 10
329.44604446931362
 20
644.82473905430334
 11
325.54604446931353
 21
644.82473905430334
  0
LINE
  8
_0-e_極細4
  6
CONTINUOUS
 62
    6
 10
418.0460444693133
 20
648.82473905430334
 11
326.14604446931367
 21
648.82473905430288
  0
LINE
  8
_0-e_極細4
  6
CONTINUOUS
 62
    6
 10
325.14604446931389
 20
645.22473905430297
 11
325.14604446931389
 21
647.82473905430334
  0
LINE
  8
_0-e_極細4
  6
CONTINUOUS
 62
    6
 10
348.47341846931363
 20
611.42473905430325
 11
348.47341846931363
 21
614.82473905430288
  0
LINE
  8
_0-e_極細4
  6
CONTINUOUS
 62
    6
 10
358.47341846931363
 20
611.42473905430325
 11
358.47341846931363
 21
614.82473905430288
  0
LINE
  8
_0-e_極細4
  6
CONTINUOUS
 62
    6
 10
358.47341846931363
 20
611.42473905430325
 11
348.47341846931363
 21
611.42473905430325
  0
LINE
  8
_0-e_極細4
  6
CONTINUOUS
 62
    6
 10
332.04604446931398
 20
614.82473905430288
 11
321.04604446931398
 21
614.82473905430288
  0
LINE
  8
_0-e_極細4
  6
CONTINUOUS
 62
    6
 10
333.70641246931359
 20
610.82473905430311
 11
332.04604446931398
 21
610.82473905430311
  0
LINE
  8
_0-e_極細4
  6
CONTINUOUS
 62
    6
 10
332.04604446931398
 20
620.22473905430297
 11
329.44604446931407
 21
620.22473905430297
  0
LINE
  8
_0-e_極細4
  6
CONTINUOUS
 62
    6
 10
332.04604446931398
 20
618.82473905430288
 11
328.04604446931398
 21
618.82473905430288
  0
LINE
  8
_0-e_極細4
  6
CONTINUOUS
 62
    6
 10
332.04604446931398
 20
610.82473905430311
 11
332.04604446931398
 21
622.82473905430288
  0
LINE
  8
_0-e_極細4
  6
CONTINUOUS
 62
    6
 10
318.0880444693139
 20
617.78273905430297
 11
321.04604446931398
 21
614.82473905430288
  0
LINE
  8
_0-e_極細4
  6
CONTINUOUS
 62
    6
 10
328.04604446931398
 20
618.82473905430288
 11
328.04604446931353
 21
641.32473905430288
  0
ARC
  8
_0-e_極細4
  6
CONTINUOUS
 62
    6
 10
325.94604446931407
 20
641.32473905430288
 40
2.1000000000000227
 50
0
 51
89.999999999999915
  0
LINE
  8
_0-e_極細4
  6
CONTINUOUS
 62
    6
 10
323.56359646931378
 20
643.42473905430302
 11
325.94604446931407
 21
643.42473905430302
  0
ARC
  8
_0-e_極細4
  6
CONTINUOUS
 62
    6
 10
323.56359646931378
 20
646.82473905430288
 40
3.3999999999999773
 50
183.35088800000077
 51
269.99999999999977
  0
ARC
  8
_0-e_極細4
  6
CONTINUOUS
 62
    6
 10
323.56359646931378
 20
646.82473905430288
 40
2
 50
183.35088799999644
 51
269.99999999999977
  0
ARC
  8
_0-e_極細4
  6
CONTINUOUS
 62
    6
 10
318.0880444693139
 20
646.32473905430334
 40
3.4999999999999996
 50
4.15098999999769
 51
89.999999999999915
  0
ARC
  8
_0-e_極細4
  6
CONTINUOUS
 62
    6
 10
325.94604446931407
 20
641.32473905430288
 40
3.4999999999999996
 50
0
 51
89.999999999999915
  0
LINE
  8
_0-e_極細4
  6
CONTINUOUS
 62
    6
 10
325.04604446931353
 20
644.82473905430334
 11
325.04604446931353
 21
649.82473905430288
  0
LINE
  8
_0-e_極細4
  6
CONTINUOUS
 62
    6
 10
329.44604446931407
 20
620.22473905430297
 11
329.44604446931407
 21
641.32473905430288
  0
LINE
  8
_0-e_極細4
  6
CONTINUOUS
 62
    6
 10
323.56359646931378
 20
644.82473905430334
 11
325.94604446931407
 21
644.82473905430334
  0
LINE
  8
_0-e_極細4
  6
CONTINUOUS
 62
    6
 10
337.54604446931353
 20
622.82473905430288
 11
329.44604446931407
 21
622.82473905430288
  0
LINE
  8
_0-e_極細4
  6
CONTINUOUS
 62
    6
 10
418.0460444693133
 20
649.82473905430334
 11
318.0880444693139
 21
649.82473905430288
  0
ARC
  8
_0-e_極細4
  6
CONTINUOUS
 62
    6
 10
341.54604446931398
 20
595.01061105430335
 40
2
 50
0
 51
89.999999999999915
  0
ARC
  8
_0-e_極細4
  6
CONTINUOUS
 62
    6
 10
341.54604446931398
 20
595.01061105430335
 40
2
 50
89.999999999999915
 51
179.99999999999983
  0
LINE
  8
_0-e_極細4
  6
CONTINUOUS
 62
    6
 10
304.24604446931357
 20
647.0106110543029
 11
318.0880444693139
 21
645.41061105430299
  0
LINE
  8
_0-e_極細4
  6
CONTINUOUS
 62
    6
 10
318.0880444693139
 20
607.41061105430299
 11
321.04604446931398
 21
609.0106110543029
  0
LINE
  8
_0-e_極細4
  6
CONTINUOUS
 62
    6
 10
321.04604446931398
 20
609.0106110543029
 11
321.04604446931398
 21
614.82473905430288
  0
LINE
  8
_0-e_極細4
  6
CONTINUOUS
 62
    6
 10
304.24604446931357
 20
620.1210930543034
 11
304.24604446931357
 21
651.76776705430302
  0
LINE
  8
_0-e_極細4
  6
CONTINUOUS
 62
    6
 10
312.04604446931353
 20
619.0106110543029
 11
304.24604446931357
 21
619.0106110543029
  0
LINE
  8
_0-e_極細4
  6
CONTINUOUS
 62
    6
 10
304.24604446931357
 20
619.0106110543029
 11
304.24604446931357
 21
620.1210930543034
  0
ARC
  8
_0-e_極細4
  6
CONTINUOUS
 62
    6
 10
307.04604446931398
 20
594.350357054303
 40
10
 50
0
 51
60.000000000002359
  0
LINE
  8
_0-e_極細4
  6
CONTINUOUS
 62
    6
 10
312.04604446931353
 20
603.0106110543029
 11
312.04604446931353
 21
619.0106110543029
  0
LINE
  8
_0-e_極細4
  6
CONTINUOUS
 62
    6
 10
318.0880444693139
 20
648.41060996180158
 11
304.24604446931357
 21
650.38212505430306
  0
LINE
  8
_0-e_極細4
  6
CONTINUOUS
 62
    6
 10
318.0880444693139
 20
617.78273905430297
 11
318.0880444693139
 21
648.42473905430325
  0
ARC
  8
_0-e_極細4
  6
CONTINUOUS
 62
    6
 10
318.0880444693139
 20
646.32473905430334
 40
2.1000000000000227
 50
4.1509899999899957
 51
89.999999999999915
  0
LINE
  8
_0-e_極細4
  6
CONTINUOUS
 62
    6
 10
337.04604446931398
 20
609.02629705430354
 11
343.04604446931398
 21
609.02629705430354
  0
ARC
  8
_0-e_極細4
  6
CONTINUOUS
 62
    6
 10
337.04604446931398
 20
613.02629705430309
 40
4
 50
179.99999999999983
 51
269.99999999999977
  0
LINE
  8
_0-e_極細4
  6
CONTINUOUS
 62
    6
 10
333.04604446931398
 20
613.02629705430309
 11
333.04604446931398
 21
615.02629705430309
  0
LINE
  8
_0-e_極細4
  6
CONTINUOUS
 62
    6
 10
333.04604446931398
 20
615.02629705430309
 11
337.54604446931353
 21
615.02629705430309
  0
LINE
  8
_0-e_極細4
  6
CONTINUOUS
 62
    6
 10
331.04604446931398
 20
623.82629705430281
 11
337.54604446931353
 21
623.82629705430281
  0
LINE
  8
_0-e_極細4
  6
CONTINUOUS
 62
    6
 10
337.54604446931353
 20
615.02629705430309
 11
337.54604446931353
 21
623.82629705430327
  0
LINE
  8
_0-e_極細4
  6
CONTINUOUS
 62
    6
 10
337.54604446931353
 20
623.82629705430327
 11
418.04604446931398
 21
623.82629705430327
  0
ARC
  8
_0-e_極細4
  6
CONTINUOUS
 62
    6
 10
363.54604446931353
 20
479.41057761429573
 40
20
 50
179.99999999999983
 51
269.99999999999977
  0
LINE
  8
_0-e_極細4
  6
CONTINUOUS
 62
    6
 10
418.04604446931398
 20
459.41057761429573
 11
363.54604446931353
 21
459.41057761429573
  0
LINE
  8
_0-e_極細4
  6
CONTINUOUS
 62
    6
 10
343.54604446931398
 20
479.41057761429573
 11
343.54604446931398
 21
595.01061105430335
  0
LINE
  8
_0-e_極細4
  6
CONTINUOUS
 62
    6
 10
339.54604446931398
 20
479.41057761429573
 11
339.54604446931398
 21
595.01061105430335
  0
LINE
  8
_0-e_極細4
  6
CONTINUOUS
 62
    6
 10
416.18397646931408
 20
455.41057761429573
 11
363.54604446931353
 21
455.41057761429573
  0
LINE
  8
_0-e_極細4
  6
CONTINUOUS
 62
    6
 10
418.04604446931398
 20
455.41057761429573
 11
416.18397646931408
 21
455.41057761429573
  0
LINE
  8
_0-e_極細4
  6
CONTINUOUS
 62
    6
 10
341.54604446931444
 20
380.41057761429573
 11
342.04604446931398
 21
430.41057761429573
  0
LINE
  8
_0-e_極細4
  6
CONTINUOUS
 62
    6
 10
322.04604446931398
 20
553.25371161429553
 11
322.04604446931398
 21
607.41061105430299
  0
ARC
  8
_0-e_極細4
  6
CONTINUOUS
 62
    6
 10
324.04604446931398
 20
553.25371161429553
 40
2
 50
179.99999999999983
 51
262.81924399999713
  0
ARC
  8
_0-e_極細4
  6
CONTINUOUS
 62
    6
 10
363.54604446931353
 20
479.41057761429573
 40
24
 50
179.99999999999983
 51
269.99999999999977
  0
LINE
  8
_0-e_極細4
  6
CONTINUOUS
 62
    6
 10
368.04604446931398
 20
435.41057761429562
 11
368.04604446931398
 21
455.41057761429573
  0
LINE
  8
_0-e_極細4
  6
CONTINUOUS
 62
    6
 10
363.54604446931353
 20
455.41057761429573
 11
368.04604446931398
 21
455.41057761429573
  0
LINE
  8
_0-e_極細4
  6
CONTINUOUS
 62
    6
 10
339.54604446931398
 20
479.41057761429573
 11
339.54604446931398
 21
533.41057761429533
  0
LINE
  8
_0-e_極細4
  6
CONTINUOUS
 62
    6
 10
368.04288646931377
 20
435.205231614296
 11
368.04604446931398
 21
435.41057761429562
  0
LINE
  8
_0-e_極細4
  6
CONTINUOUS
 62
    6
 10
368.04604446931398
 20
435.41057761429562
 11
418.04604446931398
 21
435.41057761429596
  0
ARC
  8
_0-e_極細4
  6
CONTINUOUS
 62
    6
 10
338.04604446931398
 20
451.41057761429573
 40
16
 50
179.99999999999983
 51
269.99999999999977
  0
LINE
  8
_0-e_極細4
  6
CONTINUOUS
 62
    6
 10
362.04604446931398
 20
430.41057761429573
 11
342.04604446931398
 21
430.41057761429573
  0
LINE
  8
_0-e_極細4
  6
CONTINUOUS
 62
    6
 10
367.04604446931398
 20
370.41057761429573
 11
368.04604446931398
 21
435.41057761429562
  0
LINE
  8
_0-e_極細4
  6
CONTINUOUS
 62
    6
 10
322.04604446931398
 20
451.41057761429573
 11
322.04604446931398
 21
553.25371161429553
  0
LINE
  8
_0-e_極細4
  6
CONTINUOUS
 62
    6
 10
338.04604446931398
 20
435.41057761429562
 11
368.04604446931398
 21
435.41057761429562
  0
LINE
  8
_0-e_極細4
  6
CONTINUOUS
 62
    6
 10
362.87937780264747
 20
380.41057761429573
 11
362.04604446931398
 21
430.41057761429573
  0
ARC
  8
_0-e_極細4
  6
CONTINUOUS
 62
    6
 10
333.04604446931398
 20
446.41057761429562
 40
16
 50
179.99999999999983
 51
269.99999999999977
  0
LINE
  8
_0-e_極細4
  6
CONTINUOUS
 62
    6
 10
317.04604446931398
 20
446.41057761429562
 11
317.04604446931398
 21
594.350357054303
  0
LINE
  8
_0-e_極細4
  6
CONTINUOUS
 62
    6
 10
335.84604446931394
 20
380.41057761429573
 11
335.04604446931444
 21
430.41057761429573
  0
LINE
  8
_0-e_極細4
  6
CONTINUOUS
 62
    6
 10
362.87937846931413
 20
380.41057761429573
 11
335.84604446931394
 21
380.41057761429573
  0
LINE
  8
_0-e_極細4
  6
CONTINUOUS
 62
    6
 10
366.04604446931353
 20
489.82626361429556
 11
418.04604446931398
 21
489.82626361429556
  0
ARC
  8
_0-e_極細4
  6
CONTINUOUS
 62
    6
 10
366.04604446931353
 20
491.82626361429578
 40
2
 50
179.99999999999983
 51
270.00045836623457
  0
LINE
  8
_0-e_極細4
  6
CONTINUOUS
 62
    6
 10
364.04604446931398
 20
491.82626361429578
 11
364.04604446931398
 21
609.77478905430326
  0
LINE
  8
_0-e_極細4
  6
CONTINUOUS
 62
    6
 10
323.79604446174517
 20
551.26939813195054
 11
339.54604446931398
 21
551.26939813195054
  0
LINE
  8
_0-e_極細4
  6
CONTINUOUS
 62
    6
 10
335.04604446931444
 20
430.41057761429573
 11
333.04604446931398
 21
430.41057761429573
  0
LINE
  8
_0-e_極細4
  6
CONTINUOUS
 62
    6
 10
418.04604446931398
 20
370.41057761429573
 11
363.04604446931398
 21
370.41057761429573
  0
LINE
  8
_0-e_極細4
  6
CONTINUOUS
 62
    6
 10
363.04604446931398
 20
370.41057761429573
 11
362.87937780264747
 21
380.41057761429573
  0
LINE
  8
_0-e_極細4
  6
CONTINUOUS
 62
    6
 10
504.44604446931339
 20
637.82473905430288
 11
504.44604446931339
 21
639.82473905430288
  0
ARC
  8
_0-e_極細4
  6
CONTINUOUS
 62
    6
 10
505.64604446931321
 20
638.82473905430311
 40
1
 50
269.99999999999977
 51
359.99999999999966
  0
LINE
  8
_0-e_極細4
  6
CONTINUOUS
 62
    6
 10
331.64604446931367
 20
637.82473905430288
 11
331.64604446931367
 21
639.82473905430288
  0
ARC
  8
_0-e_極細4
  6
CONTINUOUS
 62
    6
 10
330.44604446931407
 20
638.82473905430311
 40
1
 50
179.99999999999983
 51
269.99999999999977
  0
CIRCLE
  8
_1-1_寸法4
  6
CONTINUOUS
 62
    7
 10
506.64604446931367
 20
631.50805162775123
 40
36.118355382873794
  0
TEXT
  8
_1-1_寸法4
 62
    7
 10
525.21499293007219
 20
662.48755692763075
 40
24
 41
0.8000000000000001
 50
0
  1
Ｃ部
  0
LINE
  8
_1-1_寸法4
  6
CONTINUOUS
 62
    7
 10
372.03372730077194
 20
643.48948475801103
 11
357.79655729560568
 21
650.79037444653466
  0
LINE
  8
_1-1_寸法4
  6
CONTINUOUS
 62
    7
 10
372.03372730077194
 20
643.48948475801103
 11
363.3544212425619
 21
656.93082570108356
  0
LINE
  8
_1-1_寸法4
  6
CONTINUOUS
 62
    7
 10
372.03372730077194
 20
643.48948475801103
 11
341.03398539754107
 21
671.54806559297526
  0
LINE
  8
_1-1_寸法4
  6
CONTINUOUS
 62
    7
 10
341.03398539754107
 20
671.54806559297526
 11
225.83398539754114
 21
671.54806559297526
  0
TEXT
  8
_1-1_寸法4
 62
    7
 10
225.83398539754114
 20
671.54806559297538
 40
24
 41
0.7999999999999999
 50
-0.0000000000001696
  1
ストレーナー
  0
LINE
  8
_1-1_寸法4
  6
CONTINUOUS
 62
    7
 10
387.37314245272137
 20
539.12245607169234
 11
377.74951982023595
 21
526.34020715268298
  0
LINE
  8
_1-1_寸法4
  6
CONTINUOUS
 62
    7
 10
387.37314245272137
 20
539.12245607169234
 11
372.64771631704946
 21
532.86451510657673
  0
LINE
  8
_1-1_寸法4
  6
CONTINUOUS
 62
    7
 10
387.37314245272137
 20
539.12245607169234
 11
296.99847237457129
 21
468.45230811694108
  0
LINE
  8
_1-1_寸法4
  6
CONTINUOUS
 62
    7
 10
296.99847237457129
 20
468.45230811694108
 11
143.39847237457093
 21
468.45230811694108
  0
TEXT
  8
_1-1_寸法4
 62
    7
 10
143.39847237457093
 20
468.45230811694142
 40
24
 41
0.7999999999999999
 50
-0.0000000000001696
  1
防臭インナー１号
  0
LINE
  8
_1-1_寸法4
  6
CONTINUOUS
 62
    7
 10
327.79089702190458
 20
450.86143460165425
 11
318.08283559282722
 21
438.14319795936535
  0
LINE
  8
_1-1_寸法4
  6
CONTINUOUS
 62
    7
 10
327.79089702190458
 20
450.86143460165425
 11
313.02435088167931
 21
444.70114929262866
  0
LINE
  8
_1-1_寸法4
  6
CONTINUOUS
 62
    7
 10
327.79089702190458
 20
450.86143460165425
 11
296.99847237457129
 21
427.10965582469856
  0
LINE
  8
_1-1_寸法4
  6
CONTINUOUS
 62
    7
 10
296.99847237457129
 20
427.10965582469856
 11
181.79847237457125
 21
427.10965582469856
  0
TEXT
  8
_1-1_寸法4
 62
    7
 10
181.79847237457136
 20
427.10965582469868
 40
24
 41
0.7999999999999999
 50
-0.0000000000001696
  1
トラップ本体
  0
LINE
  8
_1-1_寸法4
  6
CONTINUOUS
 62
    7
 10
350.81961764853941
 20
570.88006825870889
 11
341.2025409471587
 21
558.09289360127343
  0
LINE
  8
_1-1_寸法4
  6
CONTINUOUS
 62
    7
 10
350.81961764853941
 20
570.88006825870889
 11
336.09739758628257
 21
564.61458851343161
  0
LINE
  8
_1-1_寸法4
  6
CONTINUOUS
 62
    7
 10
350.81961764853941
 20
570.88006825870889
 11
296.99847237457129
 21
528.74920102695387
  0
LINE
  8
_1-1_寸法4
  6
CONTINUOUS
 62
    7
 10
296.99847237457129
 20
528.74920102695387
 11
143.39847237457116
 21
528.74920102695387
  0
TEXT
  8
_1-1_寸法4
 62
    7
 10
143.39847237457093
 20
528.7492010269541
 40
24
 41
0.7999999999999999
 50
-0.0000000000001696
  1
防臭インナー２号
  0
TEXT
  8
_0-7_枠細線
 62
    5
 10
315.23960716274087
 20
136.54418398174084
 40
40
 41
0.8
 50
0
  1
排水部詳細図
  0
TEXT
  8
_0-7_枠細線
 62
    5
 10
536.88079674863388
 20
137.51894464318559
 40
32
 41
0.6
 50
0
  1
Ｓ＝１：４
  0
LINE
  8
_0-1_計細線
  6
CONTINUOUS
 62
    3
 10
833.97922052150318
 20
1209.8642826045293
 11
830.97922052150318
 21
1209.8642826045293
  0
LINE
  8
_0-1_計細線
  6
CONTINUOUS
 62
    3
 10
830.97922052150318
 20
1209.8642826045293
 11
830.97922052150318
 21
1087.8642826045293
  0
LINE
  8
_0-1_計細線
  6
CONTINUOUS
 62
    3
 10
830.97922052150318
 20
1087.8642826045293
 11
833.97922052150318
 21
1087.8642826045293
  0
LINE
  8
_0-1_計細線
  6
CONTINUOUS
 62
    3
 10
833.97922052150318
 20
1087.8642826045293
 11
833.97922052150318
 21
1209.8642826045293
  0
LINE
  8
_0-1_計細線
  6
CONTINUOUS
 62
    3
 10
833.97922052150318
 20
1201.8642826045293
 11
833.97922052150318
 21
1193.8642826045293
  0
LINE
  8
_0-1_計細線
  6
CONTINUOUS
 62
    3
 10
833.97922052150318
 20
1193.8642826045293
 11
1113.9792205215031
 21
1193.8642826045293
  0
LINE
  8
_0-1_計細線
  6
CONTINUOUS
 62
    3
 10
1113.9792205215031
 20
1193.8642826045293
 11
1113.9792205215031
 21
1201.8642826045293
  0
LINE
  8
_0-1_計細線
  6
CONTINUOUS
 62
    3
 10
1113.9792205215031
 20
1201.8642826045293
 11
833.97922052150318
 21
1201.8642826045293
  0
LINE
  8
_0-1_計細線
  6
CONTINUOUS
 62
    3
 10
833.97922052150318
 20
1187.8642826045293
 11
833.97922052150318
 21
1179.8642826045302
  0
LINE
  8
_0-1_計細線
  6
CONTINUOUS
 62
    3
 10
833.97922052150318
 20
1179.8642826045302
 11
1113.9792205215031
 21
1179.8642826045302
  0
LINE
  8
_0-1_計細線
  6
CONTINUOUS
 62
    3
 10
1113.9792205215031
 20
1179.8642826045302
 11
1113.9792205215031
 21
1187.8642826045293
  0
LINE
  8
_0-1_計細線
  6
CONTINUOUS
 62
    3
 10
1113.9792205215031
 20
1187.8642826045293
 11
833.97922052150318
 21
1187.8642826045293
  0
LINE
  8
_0-1_計細線
  6
CONTINUOUS
 62
    3
 10
833.97922052150318
 20
1173.8642826045293
 11
833.97922052150318
 21
1165.8642826045298
  0
LINE
  8
_0-1_計細線
  6
CONTINUOUS
 62
    3
 10
833.97922052150318
 20
1165.8642826045298
 11
1113.9792205215031
 21
1165.8642826045298
  0
LINE
  8
_0-1_計細線
  6
CONTINUOUS
 62
    3
 10
1113.9792205215031
 20
1165.8642826045298
 11
1113.9792205215031
 21
1173.8642826045293
  0
LINE
  8
_0-1_計細線
  6
CONTINUOUS
 62
    3
 10
1113.9792205215031
 20
1173.8642826045293
 11
833.97922052150318
 21
1173.8642826045293
  0
LINE
  8
_0-1_計細線
  6
CONTINUOUS
 62
    3
 10
833.97922052150318
 20
1159.8642826045293
 11
833.97922052150318
 21
1151.8642826045298
  0
LINE
  8
_0-1_計細線
  6
CONTINUOUS
 62
    3
 10
833.97922052150318
 20
1151.8642826045298
 11
1113.9792205215031
 21
1151.8642826045298
  0
LINE
  8
_0-1_計細線
  6
CONTINUOUS
 62
    3
 10
1113.9792205215031
 20
1151.8642826045298
 11
1113.9792205215031
 21
1159.8642826045293
  0
LINE
  8
_0-1_計細線
  6
CONTINUOUS
 62
    3
 10
1113.9792205215031
 20
1159.8642826045293
 11
833.97922052150318
 21
1159.8642826045293
  0
LINE
  8
_0-1_計細線
  6
CONTINUOUS
 62
    3
 10
833.97922052150318
 20
1145.8642826045293
 11
833.97922052150318
 21
1137.8642826045293
  0
LINE
  8
_0-1_計細線
  6
CONTINUOUS
 62
    3
 10
833.97922052150318
 20
1137.8642826045293
 11
1113.9792205215031
 21
1137.8642826045293
  0
LINE
  8
_0-1_計細線
  6
CONTINUOUS
 62
    3
 10
1113.9792205215031
 20
1137.8642826045293
 11
1113.9792205215031
 21
1145.8642826045293
  0
LINE
  8
_0-1_計細線
  6
CONTINUOUS
 62
    3
 10
1113.9792205215031
 20
1145.8642826045293
 11
833.97922052150318
 21
1145.8642826045293
  0
LINE
  8
_0-1_計細線
  6
CONTINUOUS
 62
    3
 10
833.97922052150318
 20
1131.8642826045293
 11
833.97922052150318
 21
1123.8642826045293
  0
LINE
  8
_0-1_計細線
  6
CONTINUOUS
 62
    3
 10
833.97922052150318
 20
1123.8642826045293
 11
1113.9792205215031
 21
1123.8642826045293
  0
LINE
  8
_0-1_計細線
  6
CONTINUOUS
 62
    3
 10
1113.9792205215031
 20
1123.8642826045293
 11
1113.9792205215031
 21
1131.8642826045293
  0
LINE
  8
_0-1_計細線
  6
CONTINUOUS
 62
    3
 10
1113.9792205215031
 20
1131.8642826045293
 11
833.97922052150318
 21
1131.8642826045293
  0
LINE
  8
_0-1_計細線
  6
CONTINUOUS
 62
    3
 10
833.97922052150318
 20
1117.8642826045293
 11
833.97922052150318
 21
1109.8642826045293
  0
LINE
  8
_0-1_計細線
  6
CONTINUOUS
 62
    3
 10
833.97922052150318
 20
1109.8642826045293
 11
1113.9792205215031
 21
1109.8642826045293
  0
LINE
  8
_0-1_計細線
  6
CONTINUOUS
 62
    3
 10
1113.9792205215031
 20
1109.8642826045293
 11
1113.9792205215031
 21
1117.8642826045293
  0
LINE
  8
_0-1_計細線
  6
CONTINUOUS
 62
    3
 10
1113.9792205215031
 20
1117.8642826045293
 11
833.97922052150318
 21
1117.8642826045293
  0
LINE
  8
_0-1_計細線
  6
CONTINUOUS
 62
    3
 10
833.97922052150318
 20
1103.8642826045293
 11
833.97922052150318
 21
1095.8642826045293
  0
LINE
  8
_0-1_計細線
  6
CONTINUOUS
 62
    3
 10
833.97922052150318
 20
1095.8642826045293
 11
1113.9792205215031
 21
1095.8642826045293
  0
LINE
  8
_0-1_計細線
  6
CONTINUOUS
 62
    3
 10
1113.9792205215031
 20
1095.8642826045293
 11
1113.9792205215031
 21
1103.8642826045293
  0
LINE
  8
_0-1_計細線
  6
CONTINUOUS
 62
    3
 10
1113.9792205215031
 20
1103.8642826045293
 11
833.97922052150318
 21
1103.8642826045293
  0
LINE
  8
_0-1_計細線
  6
CONTINUOUS
 62
    3
 10
833.97922052150318
 20
1209.8642826045293
 11
833.97922052150318
 21
1205.8642826045293
  0
LINE
  8
_0-1_計細線
  6
CONTINUOUS
 62
    3
 10
833.97922052150318
 20
1205.8642826045293
 11
1113.9792205215031
 21
1205.8642826045293
  0
LINE
  8
_0-1_計細線
  6
CONTINUOUS
 62
    3
 10
1113.9792205215031
 20
1205.8642826045293
 11
1113.9792205215031
 21
1209.8642826045293
  0
LINE
  8
_0-1_計細線
  6
CONTINUOUS
 62
    3
 10
1113.9792205215031
 20
1209.8642826045293
 11
833.97922052150318
 21
1209.8642826045293
  0
LINE
  8
_0-1_計細線
  6
CONTINUOUS
 62
    3
 10
833.97922052150318
 20
1091.8642826045293
 11
833.97922052150318
 21
1087.8642826045293
  0
LINE
  8
_0-1_計細線
  6
CONTINUOUS
 62
    3
 10
833.97922052150318
 20
1087.8642826045293
 11
1113.9792205215031
 21
1087.8642826045293
  0
LINE
  8
_0-1_計細線
  6
CONTINUOUS
 62
    3
 10
1113.9792205215031
 20
1087.8642826045293
 11
1113.9792205215031
 21
1091.8642826045293
  0
LINE
  8
_0-1_計細線
  6
CONTINUOUS
 62
    3
 10
1113.9792205215031
 20
1091.8642826045293
 11
833.97922052150318
 21
1091.8642826045293
  0
LINE
  8
_0-5_寸法線
  6
CONTINUOUS
 62
    7
 10
830.97922052150318
 20
1236.8642826045293
 11
830.97922052150318
 21
1364.8642826045293
  0
LINE
  8
_0-5_寸法線
  6
CONTINUOUS
 62
    7
 10
830.97922052150318
 20
1356.8642826045293
 11
846.43403374212824
 21
1361.0053873261697
  0
LINE
  8
_0-5_寸法線
  6
CONTINUOUS
 62
    7
 10
830.97922052150318
 20
1356.8642826045293
 11
846.43403374212824
 21
1352.7231778828889
  0
LINE
  8
_0-5_寸法線
  6
CONTINUOUS
 62
    7
 10
1116.9792205215031
 20
1236.8642826045293
 11
1116.9792205215031
 21
1364.8642826045293
  0
LINE
  8
_0-5_寸法線
  6
CONTINUOUS
 62
    7
 10
1116.9792205215031
 20
1356.8642826045293
 11
1101.524407300878
 21
1352.7231778828891
  0
LINE
  8
_0-5_寸法線
  6
CONTINUOUS
 62
    7
 10
1116.9792205215031
 20
1356.8642826045293
 11
1101.524407300878
 21
1361.0053873261697
  0
LINE
  8
_0-5_寸法線
  6
CONTINUOUS
 62
    7
 10
830.97922052150318
 20
1356.8642826045293
 11
1116.9792205215031
 21
1356.8642826045293
  0
TEXT
  8
_0-5_寸法線
 62
    7
 10
955.97922052150307
 20
1356.8642826045293
 40
24
 41
1
 50
0
  1
286
  0
LINE
  8
_0-5_寸法線
  6
CONTINUOUS
 62
    7
 10
1117.9792205215031
 20
1236.8642826045293
 11
1117.9792205215031
 21
1364.8642826045293
  0
LINE
  8
_0-5_寸法線
  6
CONTINUOUS
 62
    7
 10
1117.9792205215031
 20
1356.8642826045293
 11
1133.4340337421281
 21
1361.0053873261697
  0
LINE
  8
_0-5_寸法線
  6
CONTINUOUS
 62
    7
 10
1117.9792205215031
 20
1356.8642826045293
 11
1133.4340337421281
 21
1352.7231778828889
  0
LINE
  8
_0-5_寸法線
  6
CONTINUOUS
 62
    7
 10
1403.9792205215031
 20
1236.8642826045293
 11
1403.9792205215033
 21
1364.8642826045293
  0
LINE
  8
_0-5_寸法線
  6
CONTINUOUS
 62
    7
 10
1403.9792205215033
 20
1356.8642826045293
 11
1388.5244073008782
 21
1352.7231778828891
  0
LINE
  8
_0-5_寸法線
  6
CONTINUOUS
 62
    7
 10
1403.9792205215033
 20
1356.8642826045293
 11
1388.5244073008782
 21
1361.0053873261697
  0
LINE
  8
_0-5_寸法線
  6
CONTINUOUS
 62
    7
 10
1117.9792205215031
 20
1356.8642826045293
 11
1403.9792205215033
 21
1356.8642826045293
  0
TEXT
  8
_0-5_寸法線
 62
    7
 10
1242.9792205215031
 20
1356.8642826045293
 40
24
 41
1
 50
0
  1
286
  0
LINE
  8
_0-0_計極細
  6
CONTINUOUS
 62
    2
 10
926.47922060951771
 20
1193.8642826045293
 11
926.47922060951771
 21
1187.8642826045293
  0
LINE
  8
_0-0_計極細
  6
CONTINUOUS
 62
    2
 10
921.47922060951771
 20
1187.8642826045293
 11
921.47922060951771
 21
1193.8642826045293
  0
LINE
  8
_0-0_計極細
  6
CONTINUOUS
 62
    2
 10
926.47922060951771
 20
1179.8642826045293
 11
926.47922060951771
 21
1173.8642826045293
  0
LINE
  8
_0-0_計極細
  6
CONTINUOUS
 62
    2
 10
921.47922060951771
 20
1173.8642826045293
 11
921.47922060951771
 21
1179.8642826045293
  0
LINE
  8
_0-0_計極細
  6
CONTINUOUS
 62
    2
 10
926.47922060951771
 20
1165.8642826045293
 11
926.47922060951771
 21
1159.8642826045289
  0
LINE
  8
_0-0_計極細
  6
CONTINUOUS
 62
    2
 10
921.47922060951771
 20
1159.8642826045284
 11
921.47922060951771
 21
1165.8642826045293
  0
LINE
  8
_0-0_計極細
  6
CONTINUOUS
 62
    2
 10
926.47922060951771
 20
1151.8642826045293
 11
926.47922060951771
 21
1145.8642826045289
  0
LINE
  8
_0-0_計極細
  6
CONTINUOUS
 62
    2
 10
921.47922060951771
 20
1145.8642826045284
 11
921.47922060951771
 21
1151.8642826045293
  0
LINE
  8
_0-0_計極細
  6
CONTINUOUS
 62
    2
 10
926.47922060951771
 20
1137.8642826045293
 11
926.47922060951771
 21
1131.8642826045289
  0
LINE
  8
_0-0_計極細
  6
CONTINUOUS
 62
    2
 10
921.47922060951771
 20
1131.8642826045284
 11
921.47922060951771
 21
1137.8642826045293
  0
LINE
  8
_0-0_計極細
  6
CONTINUOUS
 62
    2
 10
926.47922060951771
 20
1123.8642826045293
 11
926.47922060951771
 21
1117.8642826045289
  0
LINE
  8
_0-0_計極細
  6
CONTINUOUS
 62
    2
 10
921.47922060951771
 20
1117.8642826045284
 11
921.47922060951771
 21
1123.8642826045293
  0
LINE
  8
_0-0_計極細
  6
CONTINUOUS
 62
    2
 10
926.47922060951771
 20
1109.8642826045293
 11
926.47922060951771
 21
1103.8642826045289
  0
LINE
  8
_0-0_計極細
  6
CONTINUOUS
 62
    2
 10
921.47922060951771
 20
1103.8642826045284
 11
921.47922060951771
 21
1109.8642826045293
  0
LINE
  8
_0-0_計極細
  6
CONTINUOUS
 62
    2
 10
926.47922060951771
 20
1205.8642826045293
 11
926.47922060951771
 21
1201.8642826045293
  0
LINE
  8
_0-0_計極細
  6
CONTINUOUS
 62
    2
 10
921.47922060951771
 20
1201.8642826045293
 11
921.47922060951771
 21
1205.8642826045293
  0
LINE
  8
_0-0_計極細
  6
CONTINUOUS
 62
    2
 10
926.47922060951771
 20
1095.8642826045293
 11
926.47922060951771
 21
1091.8642826045289
  0
LINE
  8
_0-0_計極細
  6
CONTINUOUS
 62
    2
 10
921.47922060951771
 20
1091.8642826045284
 11
921.47922060951771
 21
1095.8642826045293
  0
LINE
  8
_0-0_計極細
  6
CENTER2
 62
    2
 10
923.97922060951771
 20
1207.8642826045293
 11
923.97922051509397
 21
1089.8642826045293
  0
LINE
  8
_0-0_計極細
  6
CONTINUOUS
 62
    2
 10
1026.4792201808632
 20
1193.8642826045293
 11
1026.4792201808632
 21
1187.8642826045293
  0
LINE
  8
_0-0_計極細
  6
CONTINUOUS
 62
    2
 10
1021.4792201808633
 20
1187.8642826045293
 11
1021.4792201808633
 21
1193.8642826045293
  0
LINE
  8
_0-0_計極細
  6
CONTINUOUS
 62
    2
 10
1026.4792201808632
 20
1179.8642826045293
 11
1026.4792201808632
 21
1173.8642826045293
  0
LINE
  8
_0-0_計極細
  6
CONTINUOUS
 62
    2
 10
1021.4792201808633
 20
1173.8642826045293
 11
1021.4792201808633
 21
1179.8642826045293
  0
LINE
  8
_0-0_計極細
  6
CONTINUOUS
 62
    2
 10
1026.4792201808632
 20
1165.8642826045293
 11
1026.4792201808632
 21
1159.8642826045289
  0
LINE
  8
_0-0_計極細
  6
CONTINUOUS
 62
    2
 10
1021.4792201808633
 20
1159.8642826045284
 11
1021.4792201808633
 21
1165.8642826045293
  0
LINE
  8
_0-0_計極細
  6
CONTINUOUS
 62
    2
 10
1026.4792201808632
 20
1151.8642826045293
 11
1026.4792201808632
 21
1145.8642826045289
  0
LINE
  8
_0-0_計極細
  6
CONTINUOUS
 62
    2
 10
1021.4792201808633
 20
1145.8642826045284
 11
1021.4792201808633
 21
1151.8642826045293
  0
LINE
  8
_0-0_計極細
  6
CONTINUOUS
 62
    2
 10
1026.4792201808632
 20
1137.8642826045293
 11
1026.4792201808632
 21
1131.8642826045289
  0
LINE
  8
_0-0_計極細
  6
CONTINUOUS
 62
    2
 10
1021.4792201808633
 20
1131.8642826045284
 11
1021.4792201808633
 21
1137.8642826045293
  0
LINE
  8
_0-0_計極細
  6
CONTINUOUS
 62
    2
 10
1026.4792201808632
 20
1123.8642826045293
 11
1026.4792201808632
 21
1117.8642826045289
  0
LINE
  8
_0-0_計極細
  6
CONTINUOUS
 62
    2
 10
1021.4792201808633
 20
1117.8642826045284
 11
1021.4792201808633
 21
1123.8642826045293
  0
LINE
  8
_0-0_計極細
  6
CONTINUOUS
 62
    2
 10
1026.4792201808632
 20
1109.8642826045293
 11
1026.4792201808632
 21
1103.8642826045289
  0
LINE
  8
_0-0_計極細
  6
CONTINUOUS
 62
    2
 10
1021.4792201808633
 20
1103.8642826045284
 11
1021.4792201808633
 21
1109.8642826045293
  0
LINE
  8
_0-0_計極細
  6
CONTINUOUS
 62
    2
 10
1026.4792201808632
 20
1205.8642826045293
 11
1026.4792201808632
 21
1201.8642826045293
  0
LINE
  8
_0-0_計極細
  6
CONTINUOUS
 62
    2
 10
1021.4792201808633
 20
1201.8642826045293
 11
1021.4792201808633
 21
1205.8642826045293
  0
LINE
  8
_0-0_計極細
  6
CONTINUOUS
 62
    2
 10
1026.4792201808632
 20
1095.8642826045293
 11
1026.4792201808632
 21
1091.8642826045289
  0
LINE
  8
_0-0_計極細
  6
CONTINUOUS
 62
    2
 10
1021.4792201808633
 20
1091.8642826045284
 11
1021.4792201808633
 21
1095.8642826045293
  0
LINE
  8
_0-0_計極細
  6
CENTER2
 62
    2
 10
1023.9792201808633
 20
1207.8642826045293
 11
1023.9792205632767
 21
1089.8642826045293
  0
LINE
  8
_0-5_寸法線
  6
CONTINUOUS
 62
    7
 10
830.97922052150318
 20
1236.8642826045293
 11
830.97922052150318
 21
1308.8642826045293
  0
LINE
  8
_0-5_寸法線
  6
CONTINUOUS
 62
    7
 10
830.97922052150318
 20
1300.8642826045293
 11
846.43403374212824
 21
1305.0053873261697
  0
LINE
  8
_0-5_寸法線
  6
CONTINUOUS
 62
    7
 10
830.97922052150318
 20
1300.8642826045293
 11
846.43403374212824
 21
1296.7231778828889
  0
LINE
  8
_0-5_寸法線
  6
CONTINUOUS
 62
    7
 10
923.97922051719172
 20
1236.8642826045293
 11
923.97922051719172
 21
1308.8642826045293
  0
LINE
  8
_0-5_寸法線
  6
CONTINUOUS
 62
    7
 10
923.97922051719172
 20
1300.8642826045293
 11
908.52440729656666
 21
1296.7231778828891
  0
LINE
  8
_0-5_寸法線
  6
CONTINUOUS
 62
    7
 10
923.97922051719172
 20
1300.8642826045293
 11
908.52440729656666
 21
1305.0053873261697
  0
LINE
  8
_0-5_寸法線
  6
CONTINUOUS
 62
    7
 10
830.97922052150318
 20
1300.8642826045293
 11
923.97922051719172
 21
1300.8642826045293
  0
TEXT
  8
_0-5_寸法線
 62
    7
 10
865.4792205193479
 20
1300.8642826045293
 40
24
 41
1
 50
0
  1
93
  0
LINE
  8
_0-5_寸法線
  6
CONTINUOUS
 62
    7
 10
923.97922051719172
 20
1300.8642826045293
 11
939.43403373781689
 21
1305.0053873261695
  0
LINE
  8
_0-5_寸法線
  6
CONTINUOUS
 62
    7
 10
923.97922051719172
 20
1300.8642826045293
 11
939.43403373781678
 21
1296.7231778828889
  0
LINE
  8
_0-5_寸法線
  6
CONTINUOUS
 62
    7
 10
1023.9792200885373
 20
1236.8642826045293
 11
1023.9792200885373
 21
1308.8642826045293
  0
LINE
  8
_0-5_寸法線
  6
CONTINUOUS
 62
    7
 10
1023.9792200885373
 20
1300.8642826045293
 11
1008.5244068679123
 21
1296.7231778828891
  0
LINE
  8
_0-5_寸法線
  6
CONTINUOUS
 62
    7
 10
1023.9792200885373
 20
1300.8642826045293
 11
1008.5244068679123
 21
1305.0053873261697
  0
LINE
  8
_0-5_寸法線
  6
CONTINUOUS
 62
    7
 10
923.97922051719172
 20
1300.8642826045293
 11
1023.9792200885373
 21
1300.8642826045293
  0
TEXT
  8
_0-5_寸法線
 62
    7
 10
955.97922030286497
 20
1300.8642826045293
 40
24
 41
1
 50
0
  1
100
  0
LINE
  8
_0-5_寸法線
  6
CONTINUOUS
 62
    7
 10
1023.9792200885373
 20
1300.8642826045293
 11
1039.4340333091625
 21
1305.0053873261695
  0
LINE
  8
_0-5_寸法線
  6
CONTINUOUS
 62
    7
 10
1023.9792200885373
 20
1300.8642826045293
 11
1039.4340333091625
 21
1296.7231778828889
  0
LINE
  8
_0-5_寸法線
  6
CONTINUOUS
 62
    7
 10
1116.9792205215031
 20
1236.8642826045293
 11
1116.9792205215031
 21
1308.8642826045293
  0
LINE
  8
_0-5_寸法線
  6
CONTINUOUS
 62
    7
 10
1116.9792205215031
 20
1300.8642826045293
 11
1101.524407300878
 21
1296.7231778828891
  0
LINE
  8
_0-5_寸法線
  6
CONTINUOUS
 62
    7
 10
1116.9792205215031
 20
1300.8642826045293
 11
1101.524407300878
 21
1305.0053873261697
  0
LINE
  8
_0-5_寸法線
  6
CONTINUOUS
 62
    7
 10
1023.9792200885373
 20
1300.8642826045293
 11
1116.9792205215031
 21
1300.8642826045293
  0
TEXT
  8
_0-5_寸法線
 62
    7
 10
1058.4792203050206
 20
1300.8642826045293
 40
24
 41
1
 50
0
  1
93
  0
LINE
  8
_0-0_計極細
  6
CONTINUOUS
 62
    2
 10
1213.4792206130803
 20
1193.8642826045293
 11
1213.4792206130803
 21
1187.8642826045293
  0
LINE
  8
_0-0_計極細
  6
CONTINUOUS
 62
    2
 10
1208.4792206130803
 20
1187.8642826045293
 11
1208.4792206130803
 21
1193.8642826045293
  0
LINE
  8
_0-0_計極細
  6
CONTINUOUS
 62
    2
 10
1213.4792206130803
 20
1179.8642826045293
 11
1213.4792206130803
 21
1173.8642826045293
  0
LINE
  8
_0-0_計極細
  6
CONTINUOUS
 62
    2
 10
1208.4792206130803
 20
1173.8642826045293
 11
1208.4792206130803
 21
1179.8642826045293
  0
LINE
  8
_0-0_計極細
  6
CONTINUOUS
 62
    2
 10
1213.4792206130803
 20
1165.8642826045293
 11
1213.4792206130803
 21
1159.8642826045289
  0
LINE
  8
_0-0_計極細
  6
CONTINUOUS
 62
    2
 10
1208.4792206130803
 20
1159.8642826045284
 11
1208.4792206130803
 21
1165.8642826045293
  0
LINE
  8
_0-0_計極細
  6
CONTINUOUS
 62
    2
 10
1213.4792206130803
 20
1151.8642826045293
 11
1213.4792206130803
 21
1145.8642826045289
  0
LINE
  8
_0-0_計極細
  6
CONTINUOUS
 62
    2
 10
1208.4792206130803
 20
1145.8642826045284
 11
1208.4792206130803
 21
1151.8642826045293
  0
LINE
  8
_0-0_計極細
  6
CONTINUOUS
 62
    2
 10
1213.4792206130803
 20
1137.8642826045293
 11
1213.4792206130803
 21
1131.8642826045289
  0
LINE
  8
_0-0_計極細
  6
CONTINUOUS
 62
    2
 10
1208.4792206130803
 20
1131.8642826045284
 11
1208.4792206130803
 21
1137.8642826045293
  0
LINE
  8
_0-0_計極細
  6
CONTINUOUS
 62
    2
 10
1213.4792206130803
 20
1123.8642826045293
 11
1213.4792206130803
 21
1117.8642826045289
  0
LINE
  8
_0-0_計極細
  6
CONTINUOUS
 62
    2
 10
1208.4792206130803
 20
1117.8642826045284
 11
1208.4792206130803
 21
1123.8642826045293
  0
LINE
  8
_0-0_計極細
  6
CONTINUOUS
 62
    2
 10
1213.4792206130803
 20
1109.8642826045293
 11
1213.4792206130803
 21
1103.8642826045289
  0
LINE
  8
_0-0_計極細
  6
CONTINUOUS
 62
    2
 10
1208.4792206130803
 20
1103.8642826045284
 11
1208.4792206130803
 21
1109.8642826045293
  0
LINE
  8
_0-0_計極細
  6
CONTINUOUS
 62
    2
 10
1213.4792206130803
 20
1205.8642826045293
 11
1213.4792206130803
 21
1201.8642826045293
  0
LINE
  8
_0-0_計極細
  6
CONTINUOUS
 62
    2
 10
1208.4792206130803
 20
1201.8642826045293
 11
1208.4792206130803
 21
1205.8642826045293
  0
LINE
  8
_0-0_計極細
  6
CONTINUOUS
 62
    2
 10
1213.4792206130803
 20
1095.8642826045293
 11
1213.4792206130803
 21
1091.8642826045289
  0
LINE
  8
_0-0_計極細
  6
CONTINUOUS
 62
    2
 10
1208.4792206130803
 20
1091.8642826045284
 11
1208.4792206130803
 21
1095.8642826045293
  0
LINE
  8
_0-0_計極細
  6
CENTER2
 62
    2
 10
1210.9792206130803
 20
1207.8642826045293
 11
1210.9792205186566
 21
1089.8642826045293
  0
LINE
  8
_0-0_計極細
  6
CENTER2
 62
    2
 10
1310.9792205127469
 20
1207.8642826045293
 11
1310.9792208951603
 21
1089.8642826045293
  0
ENDSEC
  0
EOF
