  0
SECTION
  2
HEADER
  9
$ACADVER
  1
AC1009
  9
$INSBASE
 10
0
 20
0
 30
0
  9
$EXTMIN
 10
0
 20
0
  9
$EXTMAX
 10
1782
 20
1260
  9
$LIMMIN
 10
0
 20
0
  9
$LIMMAX
 10
1782
 20
1260
  9
$LTSCALE
 40
6
  0
ENDSEC
  0
SECTION
  2
TABLES
  0
TABLE
  2
LTYPE
 70
     9
  0
LTYPE
  2
CONTINUOUS
 70
    64
  3
実線
 72
    65
 73
     0
 40
0.0
  0
LTYPE
  2
DASHED1
 70
    64
  3
--  --  --  --  --  --  --  --  
 72
    65
 73
     2
 40
2.5
 49
1.25
 49
-1.25
  0
LTYPE
  2
DASHED2
 70
    64
  3
----    ----    ----    ----    
 72
    65
 73
     2
 40
5.0
 49
2.5
 49
-2.5
  0
LTYPE
  2
DASHED3
 70
    64
  3
------  ------  ------  ------  
 72
    65
 73
     2
 40
5.0
 49
3.75
 49
-1.25
  0
LTYPE
  2
CENTER1
 70
    64
  3
----- - ----- - ----- - ----- - 
 72
    65
 73
     4
 40
10.0
 49
6.25
 49
-1.25
 49
1.25
 49
-1.25
  0
LTYPE
  2
CENTER2
 70
    64
  3
----------  --  ----------  --  
 72
    65
 73
     4
 40
20.0
 49
12.5
 49
-2.5
 49
2.5
 49
-2.5
  0
LTYPE
  2
PHANTOM1
 70
    64
  3
--- - - --- - - --- - - --- - - 
 72
    65
 73
     6
 40
10.0
 49
3.25
 49
-1.25
 49
1.25
 49
-1.25
 49
1.25
 49
-1.25
  0
LTYPE
  2
PHANTOM2
 70
    64
  3
--------  -  -  --------  -  -  
 72
    65
 73
     6
 40
20.0
 49
10.0
 49
-2.5
 49
1.25
 49
-2.5
 49
1.25
 49
-2.5
  0
LTYPE
  2
DOT
 70
    64
  3
-   -   -   -   -   -   -   -   
 72
    65
 73
     2
 40
2.5
 49
0.625
 49
-1.875
  0
LTYPE
  2
DUMMY
 70
    64
  3
ダミー
 72
    65
 73
     0
 40
0.0
  0
LTYPE
  2
RAND1
 70
    64
  3
ランダム線1
 72
    65
 73
     4
 40
10.0
 49
1.0
 49
-2.0
 49
3.0
 49
-4.0
  0
LTYPE
  2
RAND2
 70
    64
  3
ランダム線2
 72
    65
 73
     4
 40
14.0
 49
2.0
 49
-3.0
 49
4.0
 49
-5.0
  0
LTYPE
  2
RAND3
 70
    64
  3
ランダム線3
 72
    65
 73
     4
 40
18.0
 49
3.0
 49
-4.0
 49
5.0
 49
-6.0
  0
LTYPE
  2
RAND4
 70
    64
  3
ランダム線4
 72
    65
 73
     4
 40
22.0
 49
4.0
 49
-5.0
 49
6.0
 49
-7.0
  0
LTYPE
  2
RAND5
 70
    64
  3
ランダム線5
 72
    65
 73
     4
 40
26.0
 49
5.0
 49
-6.0
 49
7.0
 49
-8.0
  0
LTYPE
  2
LONG1
 70
    64
  3
----------  --  ----------  --  
 72
    65
 73
     4
 40
40.0
 49
32.5
 49
-2.5
 49
2.5
 49
-2.5
  0
LTYPE
  2
LONG2
 70
    64
  3
--------  -  -  --------  -  -  
 72
    65
 73
     6
 40
40.0
 49
30.0
 49
-2.5
 49
1.25
 49
-2.5
 49
1.25
 49
-2.5
  0
LTYPE
  2
LONG3
 70
    64
  3
+++++++++++++++..+++++++++++++++
 72
    65
 73
     2
 40
40.0
 49
37.5
 49
-2.5
  0
LTYPE
  2
LONG4
 70
    64
  3
+++++++++++++++..+++++++++++++++
 72
    65
 73
     2
 40
80.0
 49
75.0
 49
-5.0
  0
LTYPE
  2
LONG5
 70
    64
  3
----------  --  ----------  --  
 72
    65
 73
     4
 40
60.0
 49
37.5
 49
-7.5
 49
7.5
 49
-7.5
  0
LTYPE
  2
dashed
 70
   64
  3
-------   -------------   ------
 72
   65
 73
    2
 40
7.5
 49
6
 49
-1.5
  0
LTYPE
  2
dashed_spaced
 70
   64
  3
----        --------        ----
 72
   65
 73
    2
 40
12
 49
6
 49
-6
  0
LTYPE
  2
long_dashed_dotted
 70
   64
  3
------------- --- --------------
 72
   65
 73
    4
 40
15.25
 49
12
 49
-1.5
 49
0.25
 49
-1.5
  0
LTYPE
  2
long_dashed_double-dotted
 70
   64
  3
----------- --- --- ------------
 72
   65
 73
    6
 40
17
 49
12
 49
-1.5
 49
0.25
 49
-1.5
 49
0.25
 49
-1.5
  0
LTYPE
  2
long_dashed_triplicate-dotted
 70
   64
  3
--------- --- --- --- ----------
 72
   65
 73
    8
 40
18.75
 49
12
 49
-1.5
 49
0.25
 49
-1.5
 49
0.25
 49
-1.5
 49
0.25
 49
-1.5
  0
LTYPE
  2
dotted
 70
   64
  3
   -       -       -       -    
 72
   65
 73
    2
 40
1.75
 49
0.25
 49
-1.5
  0
LTYPE
  2
chain
 70
   64
  3
-------------- -- --------------
 72
   65
 73
    4
 40
18.5
 49
12
 49
-1.5
 49
3.5
 49
-1.5
  0
LTYPE
  2
chain_double_dash
 70
   64
  3
------------ -- -- -------------
 72
   65
 73
    6
 40
23.5
 49
12
 49
-1.5
 49
3.5
 49
-1.5
 49
3.5
 49
-1.5
  0
LTYPE
  2
dashed_dotted
 70
   64
  3
-----------     -     ----------
 72
   65
 73
    4
 40
9.25
 49
6
 49
-1.5
 49
0.25
 49
-1.5
  0
LTYPE
  2
double-dashed_dotted
 70
   64
  3
------   -----------   -   -----
 72
   65
 73
    6
 40
16.75
 49
6
 49
-1.5
 49
6
 49
-1.5
 49
0.25
 49
-1.5
  0
LTYPE
  2
dashed_double-dotted
 70
   64
  3
---------    -    -    ---------
 72
   65
 73
    6
 40
11
 49
6
 49
-1.5
 49
0.25
 49
-1.5
 49
0.25
 49
-1.5
  0
LTYPE
  2
double-dashed_double-dotted
 70
   64
  3
-----   ---------   -   -   ----
 72
   65
 73
    8
 40
18.5
 49
6
 49
-1.5
 49
6
 49
-1.5
 49
0.25
 49
-1.5
 49
0.25
 49
-1.5
  0
LTYPE
  2
dashed_triplicate-dotted
 70
   64
  3
-------    -    -    -    ------
 72
   65
 73
    8
 40
12.75
 49
6
 49
-1.5
 49
0.25
 49
-1.5
 49
0.25
 49
-1.5
 49
0.25
 49
-1.5
  0
LTYPE
  2
double-dashed_triplicate-dotted
 70
   64
  3
-----  ---------  -  -  -  -----
 72
   65
 73
   10
 40
20.25
 49
6
 49
-1.5
 49
6
 49
-1.5
 49
0.25
 49
-1.5
 49
0.25
 49
-1.5
 49
0.25
 49
-1.5
  0
LTYPE
  2
undefined
 70
   64
  3
--------------------------------
 72
   65
 73
    0
 40
0
  0
ENDTAB
  0
TABLE
  2
STYLE
  5
3
100
AcDbSymbolTable
 70
     1
  0
STYLE
  5
10
100
AcDbSymbolTableRecord
100
AcDbTextStyleTableRecord
  2
STANDARD
 70
     0
 40
0.0
 41
1.0
 50
0.0
 71
     0
 42
0.2
  3
txt
  4
bigfont.shx
  0
STYLE
  5
26
100
AcDbSymbolTableRecord
100
AcDbTextStyleTableRecord
  2
TATEGAKI
 70
    68
 40
0.0
 41
1.0
 50
0.0
 71
     0
 42
1.0
  3
txt
  4
bigfont.shx
  0
ENDTAB
  0
TABLE
  2
LAYER
 70
   11
  0
LAYER
  2
_0-0_計極細
 70
   64
 62
    7
  6
CONTINUOUS
  0
LAYER
  2
_0-1_計細線
 70
   64
 62
    7
  6
CONTINUOUS
  0
LAYER
  2
_0-5_寸法線
 70
   64
 62
    7
  6
CONTINUOUS
  0
LAYER
  2
_0-7_枠細線
 70
   64
 62
    7
  6
CONTINUOUS
  0
LAYER
  2
_0-8_枠中線
 70
   64
 62
    7
  6
CONTINUOUS
  0
LAYER
  2
_0-9_枠極太
 70
   64
 62
    7
  6
CONTINUOUS
  0
LAYER
  2
_0-a_極細3
 70
   64
 62
    7
  6
CONTINUOUS
  0
LAYER
  2
_0-b_細線3
 70
   64
 62
    7
  6
CONTINUOUS
  0
LAYER
  2
_0-d_寸法3
 70
   64
 62
    7
  6
CONTINUOUS
  0
LAYER
  2
_1-1_寸法8
 70
   64
 62
    7
  6
CONTINUOUS
  0
LAYER
  2
ADD_LINE
 70
   64
 62
    7
  6
CONTINUOUS
  0
ENDTAB
  0
ENDSEC
  0
SECTION
  2
BLOCKS
  0
ENDSEC
  0
SECTION
  2
ENTITIES
  0
LINE
  8
_0-7_枠細線
  6
CONTINUOUS
 62
    5
 10
1422
 20
216
 11
1422
 21
120
  0
TEXT
  8
_0-7_枠細線
 62
    5
 10
1125
 20
117
 40
21
 41
1
 50
0
  1
備考
  7
TATEGAKI
  0
TEXT
  8
_0-7_枠細線
 62
    5
 10
1125
 20
165
 40
21
 41
1
 50
0
  1
品番
  7
TATEGAKI
  0
TEXT
  8
_0-7_枠細線
 62
    5
 10
1125
 20
213
 40
21
 41
1
 50
0
  1
品名
  7
TATEGAKI
  0
LINE
  8
_0-7_枠細線
  6
CONTINUOUS
 62
    5
 10
1422
 20
168
 11
1110
 21
168
  0
LINE
  8
_0-7_枠細線
  6
CONTINUOUS
 62
    5
 10
1140
 20
216
 11
1140
 21
72
  0
LINE
  8
_0-8_枠中線
  6
CONTINUOUS
 62
    5
 10
1710
 20
216
 11
1110
 21
216
  0
LINE
  8
_0-8_枠中線
  6
CONTINUOUS
 62
    5
 10
1110
 20
216
 11
1110
 21
72
  0
LINE
  8
_0-7_枠細線
  6
CONTINUOUS
 62
    5
 10
1494
 20
216
 11
1494
 21
72
  0
TEXT
  8
_0-7_枠細線
 62
    5
 10
1431
 20
192
 40
18
 41
1
 50
0
  1
縮　尺
  0
LINE
  8
_0-7_枠細線
  6
CONTINUOUS
 62
    5
 10
1422
 20
186
 11
1494
 21
186
  0
LINE
  8
_0-7_枠細線
  6
CONTINUOUS
 62
    5
 10
1494
 20
120
 11
1110
 21
120
  0
LINE
  8
_0-7_枠細線
  6
CONTINUOUS
 62
    5
 10
1710
 20
108
 11
1494
 21
108
  0
LINE
  8
_0-7_枠細線
  6
CONTINUOUS
 62
    5
 10
1494
 20
144
 11
1710
 21
144
  0
LINE
  8
_0-7_枠細線
  6
CONTINUOUS
 62
    5
 10
1710
 20
168
 11
1494
 21
168
  0
TEXT
  8
_0-7_枠細線
 62
    5
 10
1506
 20
177
 40
30
 41
0.8
 50
0
  1
株式会社シマブン
  0
TEXT
  8
_0-7_枠細線
 62
    5
 10
1503
 20
72
 40
18
 41
1
 50
0
  1
年月日
  0
TEXT
  8
_0-7_枠細線
 62
    5
 10
1503
 20
90
 40
18
 41
1
 50
0
  1
作　成
  0
TEXT
  8
_0-7_枠細線
 62
    5
 10
1507.5
 20
147
 40
18
 41
1
 50
0
  1
承 認
  0
LINE
  8
_0-7_枠細線
  6
CONTINUOUS
 62
    5
 10
1566
 20
168
 11
1566
 21
72
  0
TEXT
  8
_0-7_枠細線
 62
    5
 10
1579.5
 20
147
 40
18
 41
1
 50
0
  1
検 図
  0
LINE
  8
_0-7_枠細線
  6
CONTINUOUS
 62
    5
 10
1638
 20
168
 11
1638
 21
108
  0
TEXT
  8
_0-7_枠細線
 62
    5
 10
1650
 20
114
 40
24
 41
1
 50
0
  1
藤戸
  0
TEXT
  8
_0-7_枠細線
 62
    5
 10
1651.5
 20
147
 40
18
 41
1
 50
0
  1
設 計
  0
TEXT
  8
_0-7_枠細線
 62
    5
 10
1152.5999999999999
 20
83.999999999999829
 40
24
 41
0.5999999999999997
 50
0
  1
色については表参照のこと
  0
TEXT
  8
_0-7_枠細線
 62
    5
 10
1432.8
 20
141
 40
24
 41
0.6999999999999999
 50
0
  1
１：６
  0
LINE
  8
_0-9_枠極太
  6
CONTINUOUS
 62
    5
 10
72
 20
72
 11
72
 21
1152
  0
LINE
  8
_0-9_枠極太
  6
CONTINUOUS
 62
    5
 10
72
 20
1152
 11
1710
 21
1152
  0
LINE
  8
_0-9_枠極太
  6
CONTINUOUS
 62
    5
 10
1710
 20
1152
 11
1710
 21
72
  0
LINE
  8
_0-9_枠極太
  6
CONTINUOUS
 62
    5
 10
1710
 20
72
 11
72
 21
72
  0
LINE
  8
_0-7_枠細線
  6
CONTINUOUS
 62
    5
 10
1710
 20
1131
 11
1068
 21
1131
  0
TEXT
  8
_0-7_枠細線
 62
    5
 10
1074
 20
1134
 40
15
 41
1
 50
0
  1
記号
  0
TEXT
  8
_0-7_枠細線
 62
    5
 10
1196.25
 20
1134
 40
15
 41
1
 50
0
  1
訂　 正　 記　 事
  0
TEXT
  8
_0-7_枠細線
 62
    5
 10
1417.5
 20
1134
 40
15
 41
1
 50
0
  1
訂 正 年 月 日
  0
TEXT
  8
_0-7_枠細線
 62
    5
 10
1567.5
 20
1134
 40
15
 41
1
 50
0
  1
備　　　　　考
  0
LINE
  8
_0-7_枠細線
  6
CONTINUOUS
 62
    5
 10
1710
 20
1110
 11
1068
 21
1110
  0
TEXT
  8
_0-7_枠細線
 62
    5
 10
1126.6204444444443
 20
1113
 40
15
 41
1
 50
0
  1
品番・色記号変更
  0
TEXT
  8
_0-7_枠細線
 62
    5
 10
1416
 20
1113
 40
15
 41
0.7199999999999999
 50
0
  1
２０１３．０３．１３
  0
LINE
  8
_0-7_枠細線
  6
CONTINUOUS
 62
    5
 10
1710
 20
1089
 11
1068
 21
1089
  0
LINE
  8
_0-7_枠細線
  6
CONTINUOUS
 62
    5
 10
1710
 20
1068
 11
1068
 21
1068
  0
TEXT
  8
_0-7_枠細線
 62
    5
 10
1126.6204444444443
 20
1092
 40
15
 41
1
 50
0
  1
クロスバーピッチ変更
  0
TEXT
  8
_0-7_枠細線
 62
    5
 10
1126.6204444444443
 20
1071
 40
15
 41
1
 50
0
  1
取外具形状変更
  0
TEXT
  8
_0-7_枠細線
 62
    5
 10
1416
 20
1092
 40
15
 41
0.7199999999999999
 50
0
  1
２０１５．１１．２０
  0
LINE
  8
_0-7_枠細線
  6
CONTINUOUS
 62
    5
 10
1098
 20
1090.7308007660963
 11
1089
 21
1108.7308007660963
  0
LINE
  8
_0-7_枠細線
  6
CONTINUOUS
 62
    5
 10
1080
 20
1090.7308007660963
 11
1098
 21
1090.7308007660963
  0
LINE
  8
_0-7_枠細線
  6
CONTINUOUS
 62
    5
 10
1089
 20
1108.7308007660963
 11
1080
 21
1090.7308007660963
  0
TEXT
  8
_0-7_枠細線
 62
    5
 10
1082.8381815217776
 20
1090.3623980716397
 40
15
 41
0.8
 50
0
  1
１
  0
TEXT
  8
_0-7_枠細線
 62
    5
 10
1082.8381815217776
 20
1069.3623980716397
 40
15
 41
0.8
 50
0
  1
２
  0
LINE
  8
_0-7_枠細線
  6
CONTINUOUS
 62
    5
 10
1710
 20
1047
 11
1068
 21
1047
  0
LINE
  8
_0-7_枠細線
  6
CONTINUOUS
 62
    5
 10
1089
 20
1087.7308007660963
 11
1080
 21
1069.7308007660963
  0
LINE
  8
_0-7_枠細線
  6
CONTINUOUS
 62
    5
 10
1080
 20
1069.7308007660963
 11
1098
 21
1069.7308007660963
  0
LINE
  8
_0-7_枠細線
  6
CONTINUOUS
 62
    5
 10
1098
 20
1069.7308007660963
 11
1089
 21
1087.7308007660963
  0
TEXT
  8
_0-7_枠細線
 62
    5
 10
1082.8381815217776
 20
1048.0735800978787
 40
15
 41
0.8
 50
0
  1
３
  0
TEXT
  8
_0-7_枠細線
 62
    5
 10
1416
 20
1050
 40
15
 41
0.7199999999999999
 50
0
  1
２０１７．０４．０１
  0
LINE
  8
_0-7_枠細線
  6
CONTINUOUS
 62
    5
 10
1098
 20
1027.7308007660963
 11
1089
 21
1045.7308007660963
  0
LINE
  8
_0-7_枠細線
  6
CONTINUOUS
 62
    5
 10
1080
 20
1027.7308007660963
 11
1098
 21
1027.7308007660963
  0
LINE
  8
_0-7_枠細線
  6
CONTINUOUS
 62
    5
 10
1089
 20
1045.7308007660963
 11
1080
 21
1027.7308007660963
  0
TEXT
  8
_0-7_枠細線
 62
    5
 10
1416
 20
1029
 40
15
 41
0.7199999999999999
 50
0
  1
２０１７．０４．０１
  0
TEXT
  8
_0-7_枠細線
 62
    5
 10
1126.6204444444443
 20
1029
 40
15
 41
1
 50
0
  1
ブラウン色（Ｃ）追加
  0
LINE
  8
_0-7_枠細線
  6
CONTINUOUS
 62
    5
 10
1710
 20
1026
 11
1068
 21
1026
  0
LINE
  8
_0-7_枠細線
  6
CONTINUOUS
 62
    5
 10
1089
 20
1066.7308007660963
 11
1080
 21
1048.7308007660963
  0
LINE
  8
_0-7_枠細線
  6
CONTINUOUS
 62
    5
 10
1080
 20
1048.7308007660963
 11
1098
 21
1048.7308007660963
  0
LINE
  8
_0-7_枠細線
  6
CONTINUOUS
 62
    5
 10
1098
 20
1048.7308007660963
 11
1089
 21
1066.7308007660963
  0
TEXT
  8
_0-7_枠細線
 62
    5
 10
1082.8381815217776
 20
1026.5922168082761
 40
15
 41
0.8
 50
0
  1
４
  0
TEXT
  8
_0-7_枠細線
 62
    5
 10
1126.6204444444443
 20
1050
 40
15
 41
1
 50
0
  1
取外具形状変更
  0
TEXT
  8
_0-7_枠細線
 62
    5
 10
1416
 20
1071
 40
15
 41
0.7199999999999999
 50
0
  1
２０１５．１１．２０
  0
LINE
  8
_0-7_枠細線
  6
CONTINUOUS
 62
    5
 10
1098
 20
1006.7308007660961
 11
1089
 21
1024.7308007660963
  0
LINE
  8
_0-7_枠細線
  6
CONTINUOUS
 62
    5
 10
1080
 20
1006.7308007660961
 11
1098
 21
1006.7308007660961
  0
LINE
  8
_0-7_枠細線
  6
CONTINUOUS
 62
    5
 10
1089
 20
1024.7308007660963
 11
1080
 21
1006.7308007660961
  0
LINE
  8
_0-7_枠細線
  6
CONTINUOUS
 62
    5
 10
1710
 20
1005
 11
1068
 21
1005
  0
TEXT
  8
_0-7_枠細線
 62
    5
 10
1416
 20
1008
 40
15
 41
0.7199999999999999
 50
0
  1
２０１９．０９．０１
  0
TEXT
  8
_0-7_枠細線
 62
    5
 10
1082.8381815217776
 20
1005.5922168082762
 40
15
 41
0.8
 50
0
  1
５
  0
TEXT
  8
_0-7_枠細線
 62
    5
 10
1126.6204444444443
 20
1008
 40
15
 41
1
 50
0
  1
アンカー材質･厚み変更
  0
LINE
  8
_0-7_枠細線
  6
CONTINUOUS
 62
    5
 10
1530
 20
1005
 11
1530
 21
1151.9999999999989
  0
LINE
  8
_0-7_枠細線
  6
CONTINUOUS
 62
    5
 10
1410
 20
1005
 11
1410
 21
1151.9999999999989
  0
LINE
  8
_0-7_枠細線
  6
CONTINUOUS
 62
    5
 10
1110
 20
1005
 11
1110
 21
1151.9999999999989
  0
LINE
  8
_0-7_枠細線
  6
CONTINUOUS
 62
    5
 10
1068
 20
1005
 11
1068
 21
1151.9999999999989
  0
LINE
  8
_0-7_枠細線
  6
CONTINUOUS
 62
    5
 10
1109.9999999999995
 20
388.47600000000074
 11
1470.0000000000007
 21
388.47600000000074
  0
LINE
  8
_0-7_枠細線
  6
CONTINUOUS
 62
    5
 10
1109.9999999999995
 20
418.47600000000057
 11
1470.0000000000007
 21
418.47600000000057
  0
LINE
  8
_0-7_枠細線
  6
CONTINUOUS
 62
    5
 10
1109.9999999999995
 20
448.47600000000057
 11
1470.0000000000007
 21
448.47600000000057
  0
LINE
  8
_0-7_枠細線
  6
CONTINUOUS
 62
    5
 10
1109.9999999999995
 20
478.47600000000079
 11
1470.0000000000007
 21
478.47600000000079
  0
TEXT
  8
_0-7_枠細線
 62
    5
 10
1257.6000000000004
 20
484.47600000000079
 40
18.000000000000004
 41
0.5999999999999999
 50
0
  1
ライトグレー
  0
LINE
  8
_0-7_枠細線
  6
CONTINUOUS
 62
    5
 10
1109.9999999999995
 20
508.47600000000057
 11
1470.0000000000007
 21
508.47600000000057
  0
TEXT
  8
_0-7_枠細線
 62
    5
 10
1268.4000000000005
 20
514.47600000000057
 40
18.000000000000004
 41
0.5999999999999999
 50
0
  1
ベージュ
  0
LINE
  8
_0-7_枠細線
  6
CONTINUOUS
 62
    5
 10
1109.9999999999995
 20
538.47600000000057
 11
1470.0000000000007
 21
538.47600000000057
  0
TEXT
  8
_0-7_枠細線
 62
    5
 10
1282.8000000000006
 20
544.47600000000057
 40
18.000000000000004
 41
0.8
 50
0
  1
色
  0
TEXT
  8
_0-7_枠細線
 62
    5
 10
1141.2000000000005
 20
544.47600000000057
 40
18.000000000000004
 41
0.8
 50
0
  1
品　　番
  0
TEXT
  8
_0-7_枠細線
 62
    5
 10
1381.2000000000007
 20
544.47600000000057
 40
18.000000000000004
 41
0.8
 50
0
  1
備　　考
  0
LINE
  8
_0-7_枠細線
  6
CONTINUOUS
 62
    5
 10
1109.9999999999995
 20
568.47600000000057
 11
1470.0000000000007
 21
568.47600000000057
  0
TEXT
  8
_0-7_枠細線
 62
    5
 10
1216.5
 20
574.47600000000057
 40
21.000000000000004
 41
1
 50
0
  1
品番表
  0
LINE
  8
_0-7_枠細線
  6
CONTINUOUS
 62
    5
 10
1109.9999999999995
 20
298.4760000000004
 11
1470.0000000000007
 21
298.4760000000004
  0
LINE
  8
_0-7_枠細線
  6
CONTINUOUS
 62
    5
 10
1109.9999999999995
 20
328.47600000000074
 11
1470.0000000000007
 21
328.47600000000074
  0
LINE
  8
_0-7_枠細線
  6
CONTINUOUS
 62
    5
 10
1109.9999999999995
 20
358.47600000000079
 11
1470.0000000000007
 21
358.47600000000079
  0
TEXT
  8
_0-7_枠細線
 62
    5
 10
1268.400000000001
 20
454.47600000000091
 40
18.000000000000004
 41
0.5999999999999999
 50
0
  1
ホワイト
  0
TEXT
  8
_0-7_枠細線
 62
    5
 10
1273.8000000000006
 20
424.47600000000057
 40
18.000000000000004
 41
0.5999999999999999
 50
0
  1
ピンク
  0
TEXT
  8
_0-7_枠細線
 62
    5
 10
1273.8000000000006
 20
394.47600000000057
 40
18.000000000000004
 41
0.5999999999999999
 50
0
  1
ブルー
  0
TEXT
  8
_0-7_枠細線
 62
    5
 10
1257.5999999999999
 20
364.47600000000074
 40
18.000000000000004
 41
0.5999999999999999
 50
0
  1
ダークグレー
  0
TEXT
  8
_0-7_枠細線
 62
    5
 10
1273.8000000000006
 20
334.47600000000079
 40
18.000000000000004
 41
0.5999999999999999
 50
0
  1
ウッド
  0
LINE
  8
_0-7_枠細線
  6
CONTINUOUS
 62
    5
 10
1109.9999999999995
 20
268.476
 11
1470.0000000000007
 21
268.476
  0
TEXT
  8
_0-7_枠細線
 62
    5
 10
1268.400000000001
 20
274.47600000000011
 40
18.000000000000004
 41
0.5999999999999999
 50
0
  1
ブラック
  0
LINE
  8
_0-7_枠細線
  6
CONTINUOUS
 62
    5
 10
1470.0000000000007
 20
568.47600000000057
 11
1470.0000000000007
 21
268.476
  0
LINE
  8
_0-7_枠細線
  6
CONTINUOUS
 62
    5
 10
1350
 20
568.47600000000057
 11
1350
 21
268.476
  0
LINE
  8
_0-7_枠細線
  6
CONTINUOUS
 62
    5
 10
1230.0000000000005
 20
568.47600000000057
 11
1230.0000000000005
 21
268.476
  0
LINE
  8
_0-7_枠細線
  6
CONTINUOUS
 62
    5
 10
1109.9999999999995
 20
568.47600000000057
 11
1109.9999999999995
 21
268.476
  0
TEXT
  8
_0-7_枠細線
 62
    5
 10
1268.4000000000005
 20
304.4760000000004
 40
18.000000000000004
 41
0.5999999999999999
 50
0
  1
ブラウン
  0
LINE
  8
_0-7_枠細線
  6
CONTINUOUS
 62
    5
 10
1102.2331495986659
 20
305.16724946552819
 11
1093.2331495986659
 21
323.16724946552824
  0
LINE
  8
_0-7_枠細線
  6
CONTINUOUS
 62
    5
 10
1084.2331495986659
 20
305.16724946552819
 11
1102.2331495986659
 21
305.16724946552819
  0
LINE
  8
_0-7_枠細線
  6
CONTINUOUS
 62
    5
 10
1093.2331495986659
 20
323.16724946552824
 11
1084.2331495986659
 21
305.16724946552819
  0
TEXT
  8
_0-7_枠細線
 62
    5
 10
1087.071331120444
 20
304.0286655077083
 40
15
 41
0.8
 50
0
  1
４
  0
LINE
  8
_0-7_枠細線
  6
CONTINUOUS
 62
    5
 10
1524.8760000000007
 20
472.47600000000074
 11
1524.8760000000007
 21
568.47600000000079
  0
TEXT
  8
_0-7_枠細線
 62
    5
 10
1551.8760000000004
 20
541.47600000000079
 40
18.000000000000004
 41
1
 50
0
  1
耐荷重
  0
TEXT
  8
_0-7_枠細線
 62
    5
 10
1542.8760000000004
 20
505.47600000000074
 40
18.000000000000004
 41
1
 50
0
  1
3.5kN/㎡
  0
TEXT
  8
_0-7_枠細線
 62
    5
 10
1533.8760000000007
 20
481.47600000000074
 40
18.000000000000004
 41
1
 50
0
  1
（歩道用）
  0
LINE
  8
_0-7_枠細線
  6
CONTINUOUS
 62
    5
 10
1632.8760000000004
 20
472.47600000000074
 11
1632.8760000000004
 21
568.47600000000079
  0
LINE
  8
_0-7_枠細線
  6
CONTINUOUS
 62
    5
 10
1524.8760000000007
 20
472.47600000000074
 11
1632.8760000000004
 21
472.47600000000074
  0
LINE
  8
_0-7_枠細線
  6
CONTINUOUS
 62
    5
 10
1524.8760000000007
 20
532.47600000000079
 11
1632.8760000000004
 21
532.47600000000079
  0
LINE
  8
_0-7_枠細線
  6
CONTINUOUS
 62
    5
 10
1524.8760000000007
 20
568.47600000000079
 11
1632.8760000000004
 21
568.47600000000079
  0
TEXT
  8
_0-7_枠細線
 62
    5
 10
1354.1999999999998
 20
171
 40
24.000000000000011
 41
0.5999999999999998
 50
0
  1
集水マス
  0
TEXT
  8
_0-7_枠細線
 62
    5
 10
1152.5999999999999
 20
192
 40
24.000000000000011
 41
0.5999999999999998
 50
0
  1
セーフティグレーチングＨ２５タイプ
  0
TEXT
  8
_0-7_枠細線
 62
    5
 10
1152.5999999999999
 20
131.99999999999983
 40
24.000000000000007
 41
0.5999999999999997
 50
0
  1
ＧＲＳ－２５Ｋ４５０
  0
TEXT
  8
_0-7_枠細線
 62
    5
 10
1571.9999999999995
 20
80.999999999999744
 40
18.000000000000011
 41
0.6666666666666665
 50
0
  1
２０１０年０３月０１日
  0
TEXT
  8
_0-7_枠細線
 62
    5
 10
1506
 20
113.99999999999974
 40
24.000000000000007
 41
1
 50
0
  1
隠塚
  0
TEXT
  8
_0-7_枠細線
 62
    5
 10
1578
 20
113.99999999999974
 40
24.000000000000007
 41
1
 50
0
  1
渋田
  0
LINE
  8
_0-1_計細線
  6
CONTINUOUS
 62
    3
 10
341.10052219321113
 20
892.97231522212815
 11
341.10052219321113
 21
432.97231522213264
  0
LINE
  8
_0-1_計細線
  6
CONTINUOUS
 62
    3
 10
344.10052219321113
 20
435.97231522213264
 11
344.10052219321113
 21
889.97231522212815
  0
LINE
  8
_0-0_計極細
  6
CENTER1
 62
    2
 10
352.60052219321142
 20
896.72303464662082
 11
352.60052219321142
 21
430.41449148114543
  0
LINE
  8
_0-0_計極細
  6
CONTINUOUS
 62
    2
 10
346.10052219321136
 20
875.57231522214943
 11
346.10052219321136
 21
869.17231522215252
  0
LINE
  8
_0-0_計極細
  6
CONTINUOUS
 62
    2
 10
359.10052219321142
 20
875.57231522214943
 11
359.10052219321142
 21
869.17231522215252
  0
LINE
  8
_0-0_計極細
  6
CONTINUOUS
 62
    2
 10
346.10052219321136
 20
857.77231522214925
 11
346.10052219321136
 21
851.37231522215234
  0
LINE
  8
_0-0_計極細
  6
CONTINUOUS
 62
    2
 10
359.10052219321142
 20
857.77231522214925
 11
359.10052219321142
 21
851.37231522215234
  0
LINE
  8
_0-0_計極細
  6
CONTINUOUS
 62
    2
 10
346.10052219321136
 20
474.57231522214852
 11
346.10052219321136
 21
468.17231522215161
  0
LINE
  8
_0-0_計極細
  6
CONTINUOUS
 62
    2
 10
359.10052219321142
 20
474.57231522214852
 11
359.10052219321142
 21
468.17231522215161
  0
LINE
  8
_0-0_計極細
  6
CONTINUOUS
 62
    2
 10
346.10052219321136
 20
456.77231522214834
 11
346.10052219321136
 21
450.37231522215143
  0
LINE
  8
_0-0_計極細
  6
CONTINUOUS
 62
    2
 10
359.10052219321142
 20
456.77231522214834
 11
359.10052219321142
 21
450.37231522215143
  0
LINE
  8
_0-0_計極細
  6
CONTINUOUS
 62
    2
 10
346.10052219321136
 20
839.97231522214906
 11
346.10052219321136
 21
833.97231522215179
  0
LINE
  8
_0-0_計極細
  6
CONTINUOUS
 62
    2
 10
359.10052219321142
 20
839.97231522214906
 11
359.10052219321142
 21
833.97231522215179
  0
LINE
  8
_0-0_計極細
  6
CONTINUOUS
 62
    2
 10
346.10052219321136
 20
822.57231522214852
 11
346.10052219321136
 21
816.57231522215125
  0
LINE
  8
_0-0_計極細
  6
CONTINUOUS
 62
    2
 10
359.10052219321142
 20
822.57231522214852
 11
359.10052219321142
 21
816.57231522215125
  0
LINE
  8
_0-0_計極細
  6
CONTINUOUS
 62
    2
 10
346.10052219321136
 20
805.17231522214888
 11
346.10052219321136
 21
799.17231522215161
  0
LINE
  8
_0-0_計極細
  6
CONTINUOUS
 62
    2
 10
359.10052219321142
 20
805.17231522214888
 11
359.10052219321142
 21
799.17231522215161
  0
LINE
  8
_0-0_計極細
  6
CONTINUOUS
 62
    2
 10
346.10052219321136
 20
787.77231522214834
 11
346.10052219321136
 21
781.77231522215106
  0
LINE
  8
_0-0_計極細
  6
CONTINUOUS
 62
    2
 10
359.10052219321142
 20
787.77231522214834
 11
359.10052219321142
 21
781.77231522215106
  0
LINE
  8
_0-0_計極細
  6
CONTINUOUS
 62
    2
 10
346.10052219321136
 20
770.37231522214859
 11
346.10052219321136
 21
764.37231522215143
  0
LINE
  8
_0-0_計極細
  6
CONTINUOUS
 62
    2
 10
359.10052219321142
 20
770.37231522214859
 11
359.10052219321142
 21
764.37231522215143
  0
LINE
  8
_0-0_計極細
  6
CONTINUOUS
 62
    2
 10
346.10052219321136
 20
752.97231522214815
 11
346.10052219321136
 21
746.97231522215088
  0
LINE
  8
_0-0_計極細
  6
CONTINUOUS
 62
    2
 10
359.10052219321142
 20
752.97231522214815
 11
359.10052219321142
 21
746.97231522215088
  0
LINE
  8
_0-0_計極細
  6
CONTINUOUS
 62
    2
 10
346.10052219321136
 20
735.57231522214852
 11
346.10052219321136
 21
729.57231522215125
  0
LINE
  8
_0-0_計極細
  6
CONTINUOUS
 62
    2
 10
359.10052219321142
 20
735.57231522214852
 11
359.10052219321142
 21
729.57231522215125
  0
LINE
  8
_0-0_計極細
  6
CONTINUOUS
 62
    2
 10
346.10052219321136
 20
718.17231522214888
 11
346.10052219321136
 21
712.17231522215161
  0
LINE
  8
_0-0_計極細
  6
CONTINUOUS
 62
    2
 10
359.10052219321142
 20
718.17231522214888
 11
359.10052219321142
 21
712.17231522215161
  0
LINE
  8
_0-0_計極細
  6
CONTINUOUS
 62
    2
 10
346.10052219321136
 20
700.77231522214834
 11
346.10052219321136
 21
694.77231522215106
  0
LINE
  8
_0-0_計極細
  6
CONTINUOUS
 62
    2
 10
359.10052219321142
 20
700.77231522214834
 11
359.10052219321142
 21
694.77231522215106
  0
LINE
  8
_0-0_計極細
  6
CONTINUOUS
 62
    2
 10
346.10052219321136
 20
683.3723152221487
 11
346.10052219321136
 21
677.37231522215143
  0
LINE
  8
_0-0_計極細
  6
CONTINUOUS
 62
    2
 10
359.10052219321142
 20
683.3723152221487
 11
359.10052219321142
 21
677.37231522215143
  0
LINE
  8
_0-0_計極細
  6
CONTINUOUS
 62
    2
 10
346.10052219321136
 20
665.97231522214815
 11
346.10052219321136
 21
659.97231522215088
  0
LINE
  8
_0-0_計極細
  6
CONTINUOUS
 62
    2
 10
359.10052219321142
 20
665.97231522214815
 11
359.10052219321142
 21
659.97231522215088
  0
LINE
  8
_0-0_計極細
  6
CONTINUOUS
 62
    2
 10
346.10052219321136
 20
648.57231522214852
 11
346.10052219321136
 21
642.57231522215125
  0
LINE
  8
_0-0_計極細
  6
CONTINUOUS
 62
    2
 10
359.10052219321142
 20
648.57231522214852
 11
359.10052219321142
 21
642.57231522215125
  0
LINE
  8
_0-0_計極細
  6
CONTINUOUS
 62
    2
 10
346.10052219321136
 20
631.17231522214888
 11
346.10052219321136
 21
625.17231522215161
  0
LINE
  8
_0-0_計極細
  6
CONTINUOUS
 62
    2
 10
359.10052219321142
 20
631.17231522214888
 11
359.10052219321142
 21
625.17231522215161
  0
LINE
  8
_0-0_計極細
  6
CONTINUOUS
 62
    2
 10
346.10052219321136
 20
613.77231522214834
 11
346.10052219321136
 21
607.77231522215106
  0
LINE
  8
_0-0_計極細
  6
CONTINUOUS
 62
    2
 10
359.10052219321142
 20
613.77231522214834
 11
359.10052219321142
 21
607.77231522215106
  0
LINE
  8
_0-0_計極細
  6
CONTINUOUS
 62
    2
 10
346.10052219321136
 20
596.3723152221487
 11
346.10052219321136
 21
590.37231522215143
  0
LINE
  8
_0-0_計極細
  6
CONTINUOUS
 62
    2
 10
359.10052219321142
 20
596.3723152221487
 11
359.10052219321142
 21
590.37231522215143
  0
LINE
  8
_0-0_計極細
  6
CONTINUOUS
 62
    2
 10
346.10052219321136
 20
578.97231522214815
 11
346.10052219321136
 21
572.97231522215088
  0
LINE
  8
_0-0_計極細
  6
CONTINUOUS
 62
    2
 10
359.10052219321142
 20
578.97231522214815
 11
359.10052219321142
 21
572.97231522215088
  0
LINE
  8
_0-0_計極細
  6
CONTINUOUS
 62
    2
 10
346.10052219321136
 20
561.57231522214852
 11
346.10052219321136
 21
555.57231522215125
  0
LINE
  8
_0-0_計極細
  6
CONTINUOUS
 62
    2
 10
359.10052219321142
 20
561.57231522214852
 11
359.10052219321142
 21
555.57231522215125
  0
LINE
  8
_0-0_計極細
  6
CONTINUOUS
 62
    2
 10
346.10052219321136
 20
544.17231522214888
 11
346.10052219321136
 21
538.17231522215161
  0
LINE
  8
_0-0_計極細
  6
CONTINUOUS
 62
    2
 10
359.10052219321142
 20
544.17231522214888
 11
359.10052219321142
 21
538.17231522215161
  0
LINE
  8
_0-0_計極細
  6
CONTINUOUS
 62
    2
 10
346.10052219321136
 20
526.77231522214834
 11
346.10052219321136
 21
520.77231522215106
  0
LINE
  8
_0-0_計極細
  6
CONTINUOUS
 62
    2
 10
359.10052219321142
 20
526.77231522214834
 11
359.10052219321142
 21
520.77231522215106
  0
LINE
  8
_0-0_計極細
  6
CONTINUOUS
 62
    2
 10
346.10052219321136
 20
509.3723152221487
 11
346.10052219321136
 21
503.37231522215143
  0
LINE
  8
_0-0_計極細
  6
CONTINUOUS
 62
    2
 10
359.10052219321142
 20
509.3723152221487
 11
359.10052219321142
 21
503.37231522215143
  0
LINE
  8
_0-0_計極細
  6
CONTINUOUS
 62
    2
 10
346.10052219321136
 20
491.97231522214906
 11
346.10052219321136
 21
485.97231522215179
  0
LINE
  8
_0-0_計極細
  6
CONTINUOUS
 62
    2
 10
359.10052219321142
 20
491.97231522214906
 11
359.10052219321142
 21
485.97231522215179
  0
LINE
  8
_0-0_計極細
  6
CENTER2
 62
    2
 10
329.71192265619192
 20
662.97231522212996
 11
812.64525598956857
 21
662.97231522212996
  0
LINE
  8
_0-1_計細線
  6
CONTINUOUS
 62
    3
 10
341.10052219321113
 20
892.97231522212815
 11
801.10052219321074
 21
892.97231522212815
  0
LINE
  8
_0-1_計細線
  6
CONTINUOUS
 62
    3
 10
344.10052219321113
 20
889.97231522212815
 11
798.10052219321074
 21
889.97231522212815
  0
LINE
  8
_0-1_計細線
  6
CONTINUOUS
 62
    3
 10
798.10052219321074
 20
435.97231522213264
 11
344.10052219321113
 21
435.97231522213264
  0
LINE
  8
_0-1_計細線
  6
CONTINUOUS
 62
    3
 10
801.10052219321074
 20
432.97231522213264
 11
341.10052219321113
 21
432.97231522213264
  0
LINE
  8
_0-1_計細線
  6
CONTINUOUS
 62
    3
 10
801.10052219321074
 20
892.97231522212815
 11
801.10052219321074
 21
432.97231522213264
  0
LINE
  8
_0-1_計細線
  6
CONTINUOUS
 62
    3
 10
798.10052219321074
 20
435.97231522213264
 11
798.10052219321074
 21
889.97231522212815
  0
LINE
  8
_0-1_計細線
  6
CONTINUOUS
 62
    3
 10
345.60052219321113
 20
886.9723152221527
 11
795.60052219321096
 21
886.9723152221527
  0
LINE
  8
_0-1_計細線
  6
CONTINUOUS
 62
    3
 10
345.60052219321113
 20
875.57231522215216
 11
795.60052219321096
 21
875.57231522215216
  0
LINE
  8
_0-1_計細線
  6
CONTINUOUS
 62
    3
 10
345.60052219321113
 20
886.9723152221527
 11
345.60052219321113
 21
875.57231522215216
  0
LINE
  8
_0-1_計細線
  6
CONTINUOUS
 62
    3
 10
795.60052219321096
 20
886.9723152221527
 11
795.60052219321096
 21
875.57231522215216
  0
LINE
  8
_0-0_計極細
  6
CONTINUOUS
 62
    2
 10
345.60052219321113
 20
878.77231522215288
 11
795.60052219321096
 21
878.77231522215288
  0
LINE
  8
_0-0_計極細
  6
CONTINUOUS
 62
    2
 10
345.60052219321113
 20
883.77231522215288
 11
795.60052219321096
 21
883.77231522215288
  0
LINE
  8
_0-1_計細線
  6
CONTINUOUS
 62
    3
 10
345.60052219321113
 20
485.97231522215179
 11
795.60052219321096
 21
485.97231522215179
  0
LINE
  8
_0-1_計細線
  6
CONTINUOUS
 62
    3
 10
345.60052219321113
 20
474.57231522215125
 11
795.60052219321096
 21
474.57231522215125
  0
LINE
  8
_0-1_計細線
  6
CONTINUOUS
 62
    3
 10
345.60052219321113
 20
485.97231522215179
 11
345.60052219321113
 21
474.57231522215125
  0
LINE
  8
_0-1_計細線
  6
CONTINUOUS
 62
    3
 10
795.60052219321096
 20
485.97231522215179
 11
795.60052219321096
 21
474.57231522215125
  0
LINE
  8
_0-0_計極細
  6
CONTINUOUS
 62
    2
 10
345.60052219321113
 20
477.77231522215192
 11
795.60052219321096
 21
477.77231522215192
  0
LINE
  8
_0-0_計極細
  6
CONTINUOUS
 62
    2
 10
345.60052219321113
 20
482.77231522215197
 11
795.60052219321096
 21
482.77231522215197
  0
LINE
  8
_0-1_計細線
  6
CONTINUOUS
 62
    3
 10
345.60052219321113
 20
816.57231522215125
 11
795.60052219321096
 21
816.57231522215125
  0
LINE
  8
_0-1_計細線
  6
CONTINUOUS
 62
    3
 10
345.60052219321113
 20
805.1723152221507
 11
795.60052219321096
 21
805.1723152221507
  0
LINE
  8
_0-1_計細線
  6
CONTINUOUS
 62
    3
 10
345.60052219321113
 20
816.57231522215125
 11
345.60052219321113
 21
805.1723152221507
  0
LINE
  8
_0-1_計細線
  6
CONTINUOUS
 62
    3
 10
795.60052219321096
 20
816.57231522215125
 11
795.60052219321096
 21
805.1723152221507
  0
LINE
  8
_0-0_計極細
  6
CONTINUOUS
 62
    2
 10
345.60052219321113
 20
808.37231522215143
 11
795.60052219321096
 21
808.37231522215143
  0
LINE
  8
_0-0_計極細
  6
CONTINUOUS
 62
    2
 10
345.60052219321113
 20
813.37231522215143
 11
795.60052219321096
 21
813.37231522215143
  0
LINE
  8
_0-1_計細線
  6
CONTINUOUS
 62
    3
 10
345.60052219321113
 20
799.17231522215161
 11
795.60052219321096
 21
799.17231522215161
  0
LINE
  8
_0-1_計細線
  6
CONTINUOUS
 62
    3
 10
345.60052219321113
 20
787.77231522215106
 11
795.60052219321096
 21
787.77231522215106
  0
LINE
  8
_0-1_計細線
  6
CONTINUOUS
 62
    3
 10
345.60052219321113
 20
799.17231522215161
 11
345.60052219321113
 21
787.77231522215106
  0
LINE
  8
_0-1_計細線
  6
CONTINUOUS
 62
    3
 10
795.60052219321096
 20
799.17231522215161
 11
795.60052219321096
 21
787.77231522215106
  0
LINE
  8
_0-0_計極細
  6
CONTINUOUS
 62
    2
 10
345.60052219321113
 20
790.97231522215168
 11
795.60052219321096
 21
790.97231522215168
  0
LINE
  8
_0-0_計極細
  6
CONTINUOUS
 62
    2
 10
345.60052219321113
 20
795.97231522215179
 11
795.60052219321096
 21
795.97231522215179
  0
LINE
  8
_0-1_計細線
  6
CONTINUOUS
 62
    3
 10
345.60052219321113
 20
781.77231522215106
 11
795.60052219321096
 21
781.77231522215106
  0
LINE
  8
_0-1_計細線
  6
CONTINUOUS
 62
    3
 10
345.60052219321113
 20
770.37231522215052
 11
795.60052219321096
 21
770.37231522215052
  0
LINE
  8
_0-1_計細線
  6
CONTINUOUS
 62
    3
 10
345.60052219321113
 20
781.77231522215106
 11
345.60052219321113
 21
770.37231522215052
  0
LINE
  8
_0-1_計細線
  6
CONTINUOUS
 62
    3
 10
795.60052219321096
 20
781.77231522215106
 11
795.60052219321096
 21
770.37231522215052
  0
LINE
  8
_0-0_計極細
  6
CONTINUOUS
 62
    2
 10
345.60052219321113
 20
773.57231522215113
 11
795.60052219321096
 21
773.57231522215113
  0
LINE
  8
_0-0_計極細
  6
CONTINUOUS
 62
    2
 10
345.60052219321113
 20
778.57231522215125
 11
795.60052219321096
 21
778.57231522215125
  0
LINE
  8
_0-1_計細線
  6
CONTINUOUS
 62
    3
 10
345.60052219321113
 20
764.37231522215143
 11
795.60052219321096
 21
764.37231522215143
  0
LINE
  8
_0-1_計細線
  6
CONTINUOUS
 62
    3
 10
345.60052219321113
 20
752.97231522215088
 11
795.60052219321096
 21
752.97231522215088
  0
LINE
  8
_0-1_計細線
  6
CONTINUOUS
 62
    3
 10
345.60052219321113
 20
764.37231522215143
 11
345.60052219321113
 21
752.97231522215088
  0
LINE
  8
_0-1_計細線
  6
CONTINUOUS
 62
    3
 10
795.60052219321096
 20
764.37231522215143
 11
795.60052219321096
 21
752.97231522215088
  0
LINE
  8
_0-0_計極細
  6
CONTINUOUS
 62
    2
 10
345.60052219321113
 20
756.17231522215161
 11
795.60052219321096
 21
756.17231522215161
  0
LINE
  8
_0-0_計極細
  6
CONTINUOUS
 62
    2
 10
345.60052219321113
 20
761.17231522215161
 11
795.60052219321096
 21
761.17231522215161
  0
LINE
  8
_0-1_計細線
  6
CONTINUOUS
 62
    3
 10
345.60052219321113
 20
746.97231522215088
 11
795.60052219321096
 21
746.97231522215088
  0
LINE
  8
_0-1_計細線
  6
CONTINUOUS
 62
    3
 10
345.60052219321113
 20
735.57231522215034
 11
795.60052219321096
 21
735.57231522215034
  0
LINE
  8
_0-1_計細線
  6
CONTINUOUS
 62
    3
 10
345.60052219321113
 20
746.97231522215088
 11
345.60052219321113
 21
735.57231522215034
  0
LINE
  8
_0-1_計細線
  6
CONTINUOUS
 62
    3
 10
795.60052219321096
 20
746.97231522215088
 11
795.60052219321096
 21
735.57231522215034
  0
LINE
  8
_0-0_計極細
  6
CONTINUOUS
 62
    2
 10
345.60052219321113
 20
738.77231522215106
 11
795.60052219321096
 21
738.77231522215106
  0
LINE
  8
_0-0_計極細
  6
CONTINUOUS
 62
    2
 10
345.60052219321113
 20
743.77231522215106
 11
795.60052219321096
 21
743.77231522215106
  0
LINE
  8
_0-1_計細線
  6
CONTINUOUS
 62
    3
 10
345.60052219321113
 20
729.57231522215125
 11
795.60052219321096
 21
729.57231522215125
  0
LINE
  8
_0-1_計細線
  6
CONTINUOUS
 62
    3
 10
345.60052219321113
 20
718.1723152221507
 11
795.60052219321096
 21
718.1723152221507
  0
LINE
  8
_0-1_計細線
  6
CONTINUOUS
 62
    3
 10
345.60052219321113
 20
729.57231522215125
 11
345.60052219321113
 21
718.1723152221507
  0
LINE
  8
_0-1_計細線
  6
CONTINUOUS
 62
    3
 10
795.60052219321096
 20
729.57231522215125
 11
795.60052219321096
 21
718.1723152221507
  0
LINE
  8
_0-0_計極細
  6
CONTINUOUS
 62
    2
 10
345.60052219321113
 20
721.37231522215143
 11
795.60052219321096
 21
721.37231522215143
  0
LINE
  8
_0-0_計極細
  6
CONTINUOUS
 62
    2
 10
345.60052219321113
 20
726.37231522215143
 11
795.60052219321096
 21
726.37231522215143
  0
LINE
  8
_0-1_計細線
  6
CONTINUOUS
 62
    3
 10
345.60052219321113
 20
712.17231522215161
 11
795.60052219321096
 21
712.17231522215161
  0
LINE
  8
_0-1_計細線
  6
CONTINUOUS
 62
    3
 10
345.60052219321113
 20
700.77231522215106
 11
795.60052219321096
 21
700.77231522215106
  0
LINE
  8
_0-1_計細線
  6
CONTINUOUS
 62
    3
 10
345.60052219321113
 20
712.17231522215161
 11
345.60052219321113
 21
700.77231522215106
  0
LINE
  8
_0-1_計細線
  6
CONTINUOUS
 62
    3
 10
795.60052219321096
 20
712.17231522215161
 11
795.60052219321096
 21
700.77231522215106
  0
LINE
  8
_0-0_計極細
  6
CONTINUOUS
 62
    2
 10
345.60052219321113
 20
703.97231522215179
 11
795.60052219321096
 21
703.97231522215179
  0
LINE
  8
_0-0_計極細
  6
CONTINUOUS
 62
    2
 10
345.60052219321113
 20
708.97231522215179
 11
795.60052219321096
 21
708.97231522215179
  0
LINE
  8
_0-1_計細線
  6
CONTINUOUS
 62
    3
 10
345.60052219321113
 20
694.77231522215106
 11
795.60052219321096
 21
694.77231522215106
  0
LINE
  8
_0-1_計細線
  6
CONTINUOUS
 62
    3
 10
345.60052219321113
 20
683.37231522215052
 11
795.60052219321096
 21
683.37231522215052
  0
LINE
  8
_0-1_計細線
  6
CONTINUOUS
 62
    3
 10
345.60052219321113
 20
694.77231522215106
 11
345.60052219321113
 21
683.37231522215052
  0
LINE
  8
_0-1_計細線
  6
CONTINUOUS
 62
    3
 10
795.60052219321096
 20
694.77231522215106
 11
795.60052219321096
 21
683.37231522215052
  0
LINE
  8
_0-0_計極細
  6
CONTINUOUS
 62
    2
 10
345.60052219321113
 20
686.57231522215125
 11
795.60052219321096
 21
686.57231522215125
  0
LINE
  8
_0-0_計極細
  6
CONTINUOUS
 62
    2
 10
345.60052219321113
 20
691.57231522215125
 11
795.60052219321096
 21
691.57231522215125
  0
LINE
  8
_0-1_計細線
  6
CONTINUOUS
 62
    3
 10
345.60052219321113
 20
677.37231522215143
 11
795.60052219321096
 21
677.37231522215143
  0
LINE
  8
_0-1_計細線
  6
CONTINUOUS
 62
    3
 10
345.60052219321113
 20
665.97231522215088
 11
795.60052219321096
 21
665.97231522215088
  0
LINE
  8
_0-1_計細線
  6
CONTINUOUS
 62
    3
 10
345.60052219321113
 20
677.37231522215143
 11
345.60052219321113
 21
665.97231522215088
  0
LINE
  8
_0-1_計細線
  6
CONTINUOUS
 62
    3
 10
795.60052219321096
 20
677.37231522215143
 11
795.60052219321096
 21
665.97231522215088
  0
LINE
  8
_0-0_計極細
  6
CONTINUOUS
 62
    2
 10
345.60052219321113
 20
669.17231522215161
 11
795.60052219321096
 21
669.17231522215161
  0
LINE
  8
_0-0_計極細
  6
CONTINUOUS
 62
    2
 10
345.60052219321113
 20
674.17231522215161
 11
795.60052219321096
 21
674.17231522215161
  0
LINE
  8
_0-1_計細線
  6
CONTINUOUS
 62
    3
 10
345.60052219321113
 20
659.97231522215088
 11
795.60052219321096
 21
659.97231522215088
  0
LINE
  8
_0-1_計細線
  6
CONTINUOUS
 62
    3
 10
345.60052219321113
 20
648.57231522215034
 11
795.60052219321096
 21
648.57231522215034
  0
LINE
  8
_0-1_計細線
  6
CONTINUOUS
 62
    3
 10
345.60052219321113
 20
659.97231522215088
 11
345.60052219321113
 21
648.57231522215034
  0
LINE
  8
_0-1_計細線
  6
CONTINUOUS
 62
    3
 10
795.60052219321096
 20
659.97231522215088
 11
795.60052219321096
 21
648.57231522215034
  0
LINE
  8
_0-0_計極細
  6
CONTINUOUS
 62
    2
 10
345.60052219321113
 20
651.77231522215106
 11
795.60052219321096
 21
651.77231522215106
  0
LINE
  8
_0-0_計極細
  6
CONTINUOUS
 62
    2
 10
345.60052219321113
 20
656.77231522215106
 11
795.60052219321096
 21
656.77231522215106
  0
LINE
  8
_0-1_計細線
  6
CONTINUOUS
 62
    3
 10
345.60052219321113
 20
642.57231522215125
 11
795.60052219321096
 21
642.57231522215125
  0
LINE
  8
_0-1_計細線
  6
CONTINUOUS
 62
    3
 10
345.60052219321113
 20
631.1723152221507
 11
795.60052219321096
 21
631.1723152221507
  0
LINE
  8
_0-1_計細線
  6
CONTINUOUS
 62
    3
 10
345.60052219321113
 20
642.57231522215125
 11
345.60052219321113
 21
631.1723152221507
  0
LINE
  8
_0-1_計細線
  6
CONTINUOUS
 62
    3
 10
795.60052219321096
 20
642.57231522215125
 11
795.60052219321096
 21
631.1723152221507
  0
LINE
  8
_0-0_計極細
  6
CONTINUOUS
 62
    2
 10
345.60052219321113
 20
634.37231522215143
 11
795.60052219321096
 21
634.37231522215143
  0
LINE
  8
_0-0_計極細
  6
CONTINUOUS
 62
    2
 10
345.60052219321113
 20
639.37231522215143
 11
795.60052219321096
 21
639.37231522215143
  0
LINE
  8
_0-1_計細線
  6
CONTINUOUS
 62
    3
 10
345.60052219321113
 20
625.17231522215161
 11
795.60052219321096
 21
625.17231522215161
  0
LINE
  8
_0-1_計細線
  6
CONTINUOUS
 62
    3
 10
345.60052219321113
 20
613.77231522215106
 11
795.60052219321096
 21
613.77231522215106
  0
LINE
  8
_0-1_計細線
  6
CONTINUOUS
 62
    3
 10
345.60052219321113
 20
625.17231522215161
 11
345.60052219321113
 21
613.77231522215106
  0
LINE
  8
_0-1_計細線
  6
CONTINUOUS
 62
    3
 10
795.60052219321096
 20
625.17231522215161
 11
795.60052219321096
 21
613.77231522215106
  0
LINE
  8
_0-0_計極細
  6
CONTINUOUS
 62
    2
 10
345.60052219321113
 20
616.97231522215179
 11
795.60052219321096
 21
616.97231522215179
  0
LINE
  8
_0-0_計極細
  6
CONTINUOUS
 62
    2
 10
345.60052219321113
 20
621.97231522215179
 11
795.60052219321096
 21
621.97231522215179
  0
LINE
  8
_0-1_計細線
  6
CONTINUOUS
 62
    3
 10
345.60052219321113
 20
607.77231522215106
 11
795.60052219321096
 21
607.77231522215106
  0
LINE
  8
_0-1_計細線
  6
CONTINUOUS
 62
    3
 10
345.60052219321113
 20
596.37231522215052
 11
795.60052219321096
 21
596.37231522215052
  0
LINE
  8
_0-1_計細線
  6
CONTINUOUS
 62
    3
 10
345.60052219321113
 20
607.77231522215106
 11
345.60052219321113
 21
596.37231522215052
  0
LINE
  8
_0-1_計細線
  6
CONTINUOUS
 62
    3
 10
795.60052219321096
 20
607.77231522215106
 11
795.60052219321096
 21
596.37231522215052
  0
LINE
  8
_0-0_計極細
  6
CONTINUOUS
 62
    2
 10
345.60052219321113
 20
599.57231522215125
 11
795.60052219321096
 21
599.57231522215125
  0
LINE
  8
_0-0_計極細
  6
CONTINUOUS
 62
    2
 10
345.60052219321113
 20
604.57231522215125
 11
795.60052219321096
 21
604.57231522215125
  0
LINE
  8
_0-1_計細線
  6
CONTINUOUS
 62
    3
 10
345.60052219321113
 20
590.37231522215143
 11
795.60052219321096
 21
590.37231522215143
  0
LINE
  8
_0-1_計細線
  6
CONTINUOUS
 62
    3
 10
345.60052219321113
 20
578.97231522215088
 11
795.60052219321096
 21
578.97231522215088
  0
LINE
  8
_0-1_計細線
  6
CONTINUOUS
 62
    3
 10
345.60052219321113
 20
590.37231522215143
 11
345.60052219321113
 21
578.97231522215088
  0
LINE
  8
_0-1_計細線
  6
CONTINUOUS
 62
    3
 10
795.60052219321096
 20
590.37231522215143
 11
795.60052219321096
 21
578.97231522215088
  0
LINE
  8
_0-0_計極細
  6
CONTINUOUS
 62
    2
 10
345.60052219321113
 20
582.17231522215161
 11
795.60052219321096
 21
582.17231522215161
  0
LINE
  8
_0-0_計極細
  6
CONTINUOUS
 62
    2
 10
345.60052219321113
 20
587.17231522215161
 11
795.60052219321096
 21
587.17231522215161
  0
LINE
  8
_0-1_計細線
  6
CONTINUOUS
 62
    3
 10
345.60052219321113
 20
572.97231522215088
 11
795.60052219321096
 21
572.97231522215088
  0
LINE
  8
_0-1_計細線
  6
CONTINUOUS
 62
    3
 10
345.60052219321113
 20
561.57231522215034
 11
795.60052219321096
 21
561.57231522215034
  0
LINE
  8
_0-1_計細線
  6
CONTINUOUS
 62
    3
 10
345.60052219321113
 20
572.97231522215088
 11
345.60052219321113
 21
561.57231522215034
  0
LINE
  8
_0-1_計細線
  6
CONTINUOUS
 62
    3
 10
795.60052219321096
 20
572.97231522215088
 11
795.60052219321096
 21
561.57231522215034
  0
LINE
  8
_0-0_計極細
  6
CONTINUOUS
 62
    2
 10
345.60052219321113
 20
564.77231522215106
 11
795.60052219321096
 21
564.77231522215106
  0
LINE
  8
_0-0_計極細
  6
CONTINUOUS
 62
    2
 10
345.60052219321113
 20
569.77231522215106
 11
795.60052219321096
 21
569.77231522215106
  0
LINE
  8
_0-1_計細線
  6
CONTINUOUS
 62
    3
 10
345.60052219321113
 20
555.57231522215125
 11
795.60052219321096
 21
555.57231522215125
  0
LINE
  8
_0-1_計細線
  6
CONTINUOUS
 62
    3
 10
345.60052219321113
 20
544.1723152221507
 11
795.60052219321096
 21
544.1723152221507
  0
LINE
  8
_0-1_計細線
  6
CONTINUOUS
 62
    3
 10
345.60052219321113
 20
555.57231522215125
 11
345.60052219321113
 21
544.1723152221507
  0
LINE
  8
_0-1_計細線
  6
CONTINUOUS
 62
    3
 10
795.60052219321096
 20
555.57231522215125
 11
795.60052219321096
 21
544.1723152221507
  0
LINE
  8
_0-0_計極細
  6
CONTINUOUS
 62
    2
 10
345.60052219321113
 20
547.37231522215143
 11
795.60052219321096
 21
547.37231522215143
  0
LINE
  8
_0-0_計極細
  6
CONTINUOUS
 62
    2
 10
345.60052219321113
 20
552.37231522215143
 11
795.60052219321096
 21
552.37231522215143
  0
LINE
  8
_0-1_計細線
  6
CONTINUOUS
 62
    3
 10
345.60052219321113
 20
538.17231522215161
 11
795.60052219321096
 21
538.17231522215161
  0
LINE
  8
_0-1_計細線
  6
CONTINUOUS
 62
    3
 10
345.60052219321113
 20
526.77231522215106
 11
795.60052219321096
 21
526.77231522215106
  0
LINE
  8
_0-1_計細線
  6
CONTINUOUS
 62
    3
 10
345.60052219321113
 20
538.17231522215161
 11
345.60052219321113
 21
526.77231522215106
  0
LINE
  8
_0-1_計細線
  6
CONTINUOUS
 62
    3
 10
795.60052219321096
 20
538.17231522215161
 11
795.60052219321096
 21
526.77231522215106
  0
LINE
  8
_0-0_計極細
  6
CONTINUOUS
 62
    2
 10
345.60052219321113
 20
529.97231522215179
 11
795.60052219321096
 21
529.97231522215179
  0
LINE
  8
_0-0_計極細
  6
CONTINUOUS
 62
    2
 10
345.60052219321113
 20
534.97231522215179
 11
795.60052219321096
 21
534.97231522215179
  0
LINE
  8
_0-1_計細線
  6
CONTINUOUS
 62
    3
 10
345.60052219321113
 20
520.77231522215106
 11
795.60052219321096
 21
520.77231522215106
  0
LINE
  8
_0-1_計細線
  6
CONTINUOUS
 62
    3
 10
345.60052219321113
 20
509.37231522215046
 11
795.60052219321096
 21
509.37231522215046
  0
LINE
  8
_0-1_計細線
  6
CONTINUOUS
 62
    3
 10
345.60052219321113
 20
520.77231522215106
 11
345.60052219321113
 21
509.37231522215046
  0
LINE
  8
_0-1_計細線
  6
CONTINUOUS
 62
    3
 10
795.60052219321096
 20
520.77231522215106
 11
795.60052219321096
 21
509.37231522215046
  0
LINE
  8
_0-0_計極細
  6
CONTINUOUS
 62
    2
 10
345.60052219321113
 20
512.57231522215125
 11
795.60052219321096
 21
512.57231522215125
  0
LINE
  8
_0-0_計極細
  6
CONTINUOUS
 62
    2
 10
345.60052219321113
 20
517.57231522215125
 11
795.60052219321096
 21
517.57231522215125
  0
LINE
  8
_0-1_計細線
  6
CONTINUOUS
 62
    3
 10
345.60052219321113
 20
503.37231522215143
 11
795.60052219321096
 21
503.37231522215143
  0
LINE
  8
_0-1_計細線
  6
CONTINUOUS
 62
    3
 10
345.60052219321113
 20
491.97231522215088
 11
795.60052219321096
 21
491.97231522215088
  0
LINE
  8
_0-1_計細線
  6
CONTINUOUS
 62
    3
 10
345.60052219321113
 20
503.37231522215143
 11
345.60052219321113
 21
491.97231522215088
  0
LINE
  8
_0-1_計細線
  6
CONTINUOUS
 62
    3
 10
795.60052219321096
 20
503.37231522215143
 11
795.60052219321096
 21
491.97231522215088
  0
LINE
  8
_0-0_計極細
  6
CONTINUOUS
 62
    2
 10
345.60052219321113
 20
495.17231522215161
 11
795.60052219321096
 21
495.17231522215161
  0
LINE
  8
_0-0_計極細
  6
CONTINUOUS
 62
    2
 10
345.60052219321113
 20
500.17231522215161
 11
795.60052219321096
 21
500.17231522215161
  0
LINE
  8
_0-0_計極細
  6
CENTER1
 62
    2
 10
788.60052219321085
 20
896.72303464662082
 11
788.60052219321085
 21
430.41449148114543
  0
LINE
  8
_0-0_計極細
  6
CONTINUOUS
 62
    2
 10
782.10052219321096
 20
875.57231522214943
 11
782.10052219321096
 21
869.17231522215252
  0
LINE
  8
_0-0_計極細
  6
CONTINUOUS
 62
    2
 10
795.10052219321096
 20
875.57231522214943
 11
795.10052219321096
 21
869.17231522215252
  0
LINE
  8
_0-0_計極細
  6
CONTINUOUS
 62
    2
 10
782.10052219321096
 20
857.77231522214925
 11
782.10052219321096
 21
851.37231522215234
  0
LINE
  8
_0-0_計極細
  6
CONTINUOUS
 62
    2
 10
795.10052219321096
 20
857.77231522214925
 11
795.10052219321096
 21
851.37231522215234
  0
LINE
  8
_0-0_計極細
  6
CONTINUOUS
 62
    2
 10
782.10052219321096
 20
474.57231522214852
 11
782.10052219321096
 21
468.17231522215161
  0
LINE
  8
_0-0_計極細
  6
CONTINUOUS
 62
    2
 10
795.10052219321096
 20
474.57231522214852
 11
795.10052219321096
 21
468.17231522215161
  0
LINE
  8
_0-0_計極細
  6
CONTINUOUS
 62
    2
 10
782.10052219321096
 20
456.77231522214834
 11
782.10052219321096
 21
450.37231522215143
  0
LINE
  8
_0-0_計極細
  6
CONTINUOUS
 62
    2
 10
795.10052219321096
 20
456.77231522214834
 11
795.10052219321096
 21
450.37231522215143
  0
LINE
  8
_0-0_計極細
  6
CONTINUOUS
 62
    2
 10
782.10052219321096
 20
839.97231522214906
 11
782.10052219321096
 21
833.97231522215179
  0
LINE
  8
_0-0_計極細
  6
CONTINUOUS
 62
    2
 10
795.10052219321096
 20
839.97231522214906
 11
795.10052219321096
 21
833.97231522215179
  0
LINE
  8
_0-0_計極細
  6
CONTINUOUS
 62
    2
 10
782.10052219321096
 20
822.57231522214852
 11
782.10052219321096
 21
816.57231522215125
  0
LINE
  8
_0-0_計極細
  6
CONTINUOUS
 62
    2
 10
795.10052219321096
 20
822.57231522214852
 11
795.10052219321096
 21
816.57231522215125
  0
LINE
  8
_0-0_計極細
  6
CONTINUOUS
 62
    2
 10
782.10052219321096
 20
805.17231522214888
 11
782.10052219321096
 21
799.17231522215161
  0
LINE
  8
_0-0_計極細
  6
CONTINUOUS
 62
    2
 10
795.10052219321096
 20
805.17231522214888
 11
795.10052219321096
 21
799.17231522215161
  0
LINE
  8
_0-0_計極細
  6
CONTINUOUS
 62
    2
 10
782.10052219321096
 20
787.77231522214834
 11
782.10052219321096
 21
781.77231522215106
  0
LINE
  8
_0-0_計極細
  6
CONTINUOUS
 62
    2
 10
795.10052219321096
 20
787.77231522214834
 11
795.10052219321096
 21
781.77231522215106
  0
LINE
  8
_0-0_計極細
  6
CONTINUOUS
 62
    2
 10
782.10052219321096
 20
770.37231522214859
 11
782.10052219321096
 21
764.37231522215143
  0
LINE
  8
_0-0_計極細
  6
CONTINUOUS
 62
    2
 10
795.10052219321096
 20
770.37231522214859
 11
795.10052219321096
 21
764.37231522215143
  0
LINE
  8
_0-0_計極細
  6
CONTINUOUS
 62
    2
 10
782.10052219321096
 20
752.97231522214815
 11
782.10052219321096
 21
746.97231522215088
  0
LINE
  8
_0-0_計極細
  6
CONTINUOUS
 62
    2
 10
795.10052219321096
 20
752.97231522214815
 11
795.10052219321096
 21
746.97231522215088
  0
LINE
  8
_0-0_計極細
  6
CONTINUOUS
 62
    2
 10
782.10052219321096
 20
735.57231522214852
 11
782.10052219321096
 21
729.57231522215125
  0
LINE
  8
_0-0_計極細
  6
CONTINUOUS
 62
    2
 10
795.10052219321096
 20
735.57231522214852
 11
795.10052219321096
 21
729.57231522215125
  0
LINE
  8
_0-0_計極細
  6
CONTINUOUS
 62
    2
 10
782.10052219321096
 20
718.17231522214888
 11
782.10052219321096
 21
712.17231522215161
  0
LINE
  8
_0-0_計極細
  6
CONTINUOUS
 62
    2
 10
795.10052219321096
 20
718.17231522214888
 11
795.10052219321096
 21
712.17231522215161
  0
LINE
  8
_0-0_計極細
  6
CONTINUOUS
 62
    2
 10
782.10052219321096
 20
700.77231522214834
 11
782.10052219321096
 21
694.77231522215106
  0
LINE
  8
_0-0_計極細
  6
CONTINUOUS
 62
    2
 10
795.10052219321096
 20
700.77231522214834
 11
795.10052219321096
 21
694.77231522215106
  0
LINE
  8
_0-0_計極細
  6
CONTINUOUS
 62
    2
 10
782.10052219321096
 20
683.3723152221487
 11
782.10052219321096
 21
677.37231522215143
  0
LINE
  8
_0-0_計極細
  6
CONTINUOUS
 62
    2
 10
795.10052219321096
 20
683.3723152221487
 11
795.10052219321096
 21
677.37231522215143
  0
LINE
  8
_0-0_計極細
  6
CONTINUOUS
 62
    2
 10
782.10052219321096
 20
665.97231522214815
 11
782.10052219321096
 21
659.97231522215088
  0
LINE
  8
_0-0_計極細
  6
CONTINUOUS
 62
    2
 10
795.10052219321096
 20
665.97231522214815
 11
795.10052219321096
 21
659.97231522215088
  0
LINE
  8
_0-0_計極細
  6
CONTINUOUS
 62
    2
 10
782.10052219321096
 20
648.57231522214852
 11
782.10052219321096
 21
642.57231522215125
  0
LINE
  8
_0-0_計極細
  6
CONTINUOUS
 62
    2
 10
795.10052219321096
 20
648.57231522214852
 11
795.10052219321096
 21
642.57231522215125
  0
LINE
  8
_0-0_計極細
  6
CONTINUOUS
 62
    2
 10
782.10052219321096
 20
631.17231522214888
 11
782.10052219321096
 21
625.17231522215161
  0
LINE
  8
_0-0_計極細
  6
CONTINUOUS
 62
    2
 10
795.10052219321096
 20
631.17231522214888
 11
795.10052219321096
 21
625.17231522215161
  0
LINE
  8
_0-0_計極細
  6
CONTINUOUS
 62
    2
 10
782.10052219321096
 20
613.77231522214834
 11
782.10052219321096
 21
607.77231522215106
  0
LINE
  8
_0-0_計極細
  6
CONTINUOUS
 62
    2
 10
795.10052219321096
 20
613.77231522214834
 11
795.10052219321096
 21
607.77231522215106
  0
LINE
  8
_0-0_計極細
  6
CONTINUOUS
 62
    2
 10
782.10052219321096
 20
596.3723152221487
 11
782.10052219321096
 21
590.37231522215143
  0
LINE
  8
_0-0_計極細
  6
CONTINUOUS
 62
    2
 10
795.10052219321096
 20
596.3723152221487
 11
795.10052219321096
 21
590.37231522215143
  0
LINE
  8
_0-0_計極細
  6
CONTINUOUS
 62
    2
 10
782.10052219321096
 20
578.97231522214815
 11
782.10052219321096
 21
572.97231522215088
  0
LINE
  8
_0-0_計極細
  6
CONTINUOUS
 62
    2
 10
795.10052219321096
 20
578.97231522214815
 11
795.10052219321096
 21
572.97231522215088
  0
LINE
  8
_0-0_計極細
  6
CONTINUOUS
 62
    2
 10
782.10052219321096
 20
561.57231522214852
 11
782.10052219321096
 21
555.57231522215125
  0
LINE
  8
_0-0_計極細
  6
CONTINUOUS
 62
    2
 10
795.10052219321096
 20
561.57231522214852
 11
795.10052219321096
 21
555.57231522215125
  0
LINE
  8
_0-0_計極細
  6
CONTINUOUS
 62
    2
 10
782.10052219321096
 20
544.17231522214888
 11
782.10052219321096
 21
538.17231522215161
  0
LINE
  8
_0-0_計極細
  6
CONTINUOUS
 62
    2
 10
795.10052219321096
 20
544.17231522214888
 11
795.10052219321096
 21
538.17231522215161
  0
LINE
  8
_0-0_計極細
  6
CONTINUOUS
 62
    2
 10
782.10052219321096
 20
526.77231522214834
 11
782.10052219321096
 21
520.77231522215106
  0
LINE
  8
_0-0_計極細
  6
CONTINUOUS
 62
    2
 10
795.10052219321096
 20
526.77231522214834
 11
795.10052219321096
 21
520.77231522215106
  0
LINE
  8
_0-0_計極細
  6
CONTINUOUS
 62
    2
 10
782.10052219321096
 20
509.3723152221487
 11
782.10052219321096
 21
503.37231522215143
  0
LINE
  8
_0-0_計極細
  6
CONTINUOUS
 62
    2
 10
795.10052219321096
 20
509.3723152221487
 11
795.10052219321096
 21
503.37231522215143
  0
LINE
  8
_0-0_計極細
  6
CONTINUOUS
 62
    2
 10
782.10052219321096
 20
491.97231522214906
 11
782.10052219321096
 21
485.97231522215179
  0
LINE
  8
_0-0_計極細
  6
CONTINUOUS
 62
    2
 10
795.10052219321096
 20
491.97231522214906
 11
795.10052219321096
 21
485.97231522215179
  0
LINE
  8
_0-0_計極細
  6
CENTER1
 62
    2
 10
449.60052219321187
 20
896.72303464662082
 11
449.60052219321187
 21
430.41449148114543
  0
LINE
  8
_0-0_計極細
  6
CONTINUOUS
 62
    2
 10
443.10052219321182
 20
875.57231522214943
 11
443.10052219321182
 21
869.17231522215252
  0
LINE
  8
_0-0_計極細
  6
CONTINUOUS
 62
    2
 10
456.10052219321187
 20
875.57231522214943
 11
456.10052219321187
 21
869.17231522215252
  0
LINE
  8
_0-0_計極細
  6
CONTINUOUS
 62
    2
 10
443.10052219321182
 20
857.77231522214925
 11
443.10052219321182
 21
851.37231522215234
  0
LINE
  8
_0-0_計極細
  6
CONTINUOUS
 62
    2
 10
456.10052219321187
 20
857.77231522214925
 11
456.10052219321187
 21
851.37231522215234
  0
LINE
  8
_0-0_計極細
  6
CONTINUOUS
 62
    2
 10
443.10052219321182
 20
474.57231522214852
 11
443.10052219321182
 21
468.17231522215161
  0
LINE
  8
_0-0_計極細
  6
CONTINUOUS
 62
    2
 10
456.10052219321187
 20
474.57231522214852
 11
456.10052219321187
 21
468.17231522215161
  0
LINE
  8
_0-0_計極細
  6
CONTINUOUS
 62
    2
 10
443.10052219321182
 20
456.77231522214834
 11
443.10052219321182
 21
450.37231522215143
  0
LINE
  8
_0-0_計極細
  6
CONTINUOUS
 62
    2
 10
456.10052219321187
 20
456.77231522214834
 11
456.10052219321187
 21
450.37231522215143
  0
LINE
  8
_0-0_計極細
  6
CONTINUOUS
 62
    2
 10
443.10052219321182
 20
839.97231522214906
 11
443.10052219321182
 21
833.97231522215179
  0
LINE
  8
_0-0_計極細
  6
CONTINUOUS
 62
    2
 10
456.10052219321187
 20
839.97231522214906
 11
456.10052219321187
 21
833.97231522215179
  0
LINE
  8
_0-0_計極細
  6
CONTINUOUS
 62
    2
 10
443.10052219321182
 20
822.57231522214852
 11
443.10052219321182
 21
816.57231522215125
  0
LINE
  8
_0-0_計極細
  6
CONTINUOUS
 62
    2
 10
456.10052219321187
 20
822.57231522214852
 11
456.10052219321187
 21
816.57231522215125
  0
LINE
  8
_0-0_計極細
  6
CONTINUOUS
 62
    2
 10
443.10052219321182
 20
805.17231522214888
 11
443.10052219321182
 21
799.17231522215161
  0
LINE
  8
_0-0_計極細
  6
CONTINUOUS
 62
    2
 10
456.10052219321187
 20
805.17231522214888
 11
456.10052219321187
 21
799.17231522215161
  0
LINE
  8
_0-0_計極細
  6
CONTINUOUS
 62
    2
 10
443.10052219321182
 20
787.77231522214834
 11
443.10052219321182
 21
781.77231522215106
  0
LINE
  8
_0-0_計極細
  6
CONTINUOUS
 62
    2
 10
456.10052219321187
 20
787.77231522214834
 11
456.10052219321187
 21
781.77231522215106
  0
LINE
  8
_0-0_計極細
  6
CONTINUOUS
 62
    2
 10
443.10052219321182
 20
770.37231522214859
 11
443.10052219321182
 21
764.37231522215143
  0
LINE
  8
_0-0_計極細
  6
CONTINUOUS
 62
    2
 10
456.10052219321187
 20
770.37231522214859
 11
456.10052219321187
 21
764.37231522215143
  0
LINE
  8
_0-0_計極細
  6
CONTINUOUS
 62
    2
 10
443.10052219321182
 20
752.97231522214815
 11
443.10052219321182
 21
746.97231522215088
  0
LINE
  8
_0-0_計極細
  6
CONTINUOUS
 62
    2
 10
456.10052219321187
 20
752.97231522214815
 11
456.10052219321187
 21
746.97231522215088
  0
LINE
  8
_0-0_計極細
  6
CONTINUOUS
 62
    2
 10
443.10052219321182
 20
735.57231522214852
 11
443.10052219321182
 21
729.57231522215125
  0
LINE
  8
_0-0_計極細
  6
CONTINUOUS
 62
    2
 10
456.10052219321187
 20
735.57231522214852
 11
456.10052219321187
 21
729.57231522215125
  0
LINE
  8
_0-0_計極細
  6
CONTINUOUS
 62
    2
 10
443.10052219321182
 20
718.17231522214888
 11
443.10052219321182
 21
712.17231522215161
  0
LINE
  8
_0-0_計極細
  6
CONTINUOUS
 62
    2
 10
456.10052219321187
 20
718.17231522214888
 11
456.10052219321187
 21
712.17231522215161
  0
LINE
  8
_0-0_計極細
  6
CONTINUOUS
 62
    2
 10
443.10052219321182
 20
700.77231522214834
 11
443.10052219321182
 21
694.77231522215106
  0
LINE
  8
_0-0_計極細
  6
CONTINUOUS
 62
    2
 10
456.10052219321187
 20
700.77231522214834
 11
456.10052219321187
 21
694.77231522215106
  0
LINE
  8
_0-0_計極細
  6
CONTINUOUS
 62
    2
 10
443.10052219321182
 20
683.3723152221487
 11
443.10052219321182
 21
677.37231522215143
  0
LINE
  8
_0-0_計極細
  6
CONTINUOUS
 62
    2
 10
456.10052219321187
 20
683.3723152221487
 11
456.10052219321187
 21
677.37231522215143
  0
LINE
  8
_0-0_計極細
  6
CONTINUOUS
 62
    2
 10
443.10052219321182
 20
648.57231522214852
 11
443.10052219321182
 21
642.57231522215125
  0
LINE
  8
_0-0_計極細
  6
CONTINUOUS
 62
    2
 10
456.10052219321187
 20
648.57231522214852
 11
456.10052219321187
 21
642.57231522215125
  0
LINE
  8
_0-0_計極細
  6
CONTINUOUS
 62
    2
 10
443.10052219321182
 20
631.17231522214888
 11
443.10052219321182
 21
625.17231522215161
  0
LINE
  8
_0-0_計極細
  6
CONTINUOUS
 62
    2
 10
456.10052219321187
 20
631.17231522214888
 11
456.10052219321187
 21
625.17231522215161
  0
LINE
  8
_0-0_計極細
  6
CONTINUOUS
 62
    2
 10
443.10052219321182
 20
613.77231522214834
 11
443.10052219321182
 21
607.77231522215106
  0
LINE
  8
_0-0_計極細
  6
CONTINUOUS
 62
    2
 10
456.10052219321187
 20
613.77231522214834
 11
456.10052219321187
 21
607.77231522215106
  0
LINE
  8
_0-0_計極細
  6
CONTINUOUS
 62
    2
 10
443.10052219321182
 20
596.3723152221487
 11
443.10052219321182
 21
590.37231522215143
  0
LINE
  8
_0-0_計極細
  6
CONTINUOUS
 62
    2
 10
456.10052219321187
 20
596.3723152221487
 11
456.10052219321187
 21
590.37231522215143
  0
LINE
  8
_0-0_計極細
  6
CONTINUOUS
 62
    2
 10
443.10052219321182
 20
578.97231522214815
 11
443.10052219321182
 21
572.97231522215088
  0
LINE
  8
_0-0_計極細
  6
CONTINUOUS
 62
    2
 10
456.10052219321187
 20
578.97231522214815
 11
456.10052219321187
 21
572.97231522215088
  0
LINE
  8
_0-0_計極細
  6
CONTINUOUS
 62
    2
 10
443.10052219321182
 20
561.57231522214852
 11
443.10052219321182
 21
555.57231522215125
  0
LINE
  8
_0-0_計極細
  6
CONTINUOUS
 62
    2
 10
456.10052219321187
 20
561.57231522214852
 11
456.10052219321187
 21
555.57231522215125
  0
LINE
  8
_0-0_計極細
  6
CONTINUOUS
 62
    2
 10
443.10052219321182
 20
544.17231522214888
 11
443.10052219321182
 21
538.17231522215161
  0
LINE
  8
_0-0_計極細
  6
CONTINUOUS
 62
    2
 10
456.10052219321187
 20
544.17231522214888
 11
456.10052219321187
 21
538.17231522215161
  0
LINE
  8
_0-0_計極細
  6
CONTINUOUS
 62
    2
 10
443.10052219321182
 20
526.77231522214834
 11
443.10052219321182
 21
520.77231522215106
  0
LINE
  8
_0-0_計極細
  6
CONTINUOUS
 62
    2
 10
456.10052219321187
 20
526.77231522214834
 11
456.10052219321187
 21
520.77231522215106
  0
LINE
  8
_0-0_計極細
  6
CONTINUOUS
 62
    2
 10
443.10052219321182
 20
509.3723152221487
 11
443.10052219321182
 21
503.37231522215143
  0
LINE
  8
_0-0_計極細
  6
CONTINUOUS
 62
    2
 10
456.10052219321187
 20
509.3723152221487
 11
456.10052219321187
 21
503.37231522215143
  0
LINE
  8
_0-0_計極細
  6
CONTINUOUS
 62
    2
 10
443.10052219321182
 20
491.97231522214906
 11
443.10052219321182
 21
485.97231522215179
  0
LINE
  8
_0-0_計極細
  6
CONTINUOUS
 62
    2
 10
456.10052219321187
 20
491.97231522214906
 11
456.10052219321187
 21
485.97231522215179
  0
LINE
  8
_0-0_計極細
  6
CENTER1
 62
    2
 10
691.60052219321142
 20
896.72303464662082
 11
691.60052219321142
 21
430.41449148114543
  0
LINE
  8
_0-0_計極細
  6
CONTINUOUS
 62
    2
 10
685.10052219321142
 20
875.57231522214943
 11
685.10052219321142
 21
869.17231522215252
  0
LINE
  8
_0-0_計極細
  6
CONTINUOUS
 62
    2
 10
698.10052219321142
 20
875.57231522214943
 11
698.10052219321142
 21
869.17231522215252
  0
LINE
  8
_0-0_計極細
  6
CONTINUOUS
 62
    2
 10
685.10052219321142
 20
857.77231522214925
 11
685.10052219321142
 21
851.37231522215234
  0
LINE
  8
_0-0_計極細
  6
CONTINUOUS
 62
    2
 10
698.10052219321142
 20
857.77231522214925
 11
698.10052219321142
 21
851.37231522215234
  0
LINE
  8
_0-0_計極細
  6
CONTINUOUS
 62
    2
 10
685.10052219321142
 20
474.57231522214852
 11
685.10052219321142
 21
468.17231522215161
  0
LINE
  8
_0-0_計極細
  6
CONTINUOUS
 62
    2
 10
698.10052219321142
 20
474.57231522214852
 11
698.10052219321142
 21
468.17231522215161
  0
LINE
  8
_0-0_計極細
  6
CONTINUOUS
 62
    2
 10
685.10052219321142
 20
456.77231522214834
 11
685.10052219321142
 21
450.37231522215143
  0
LINE
  8
_0-0_計極細
  6
CONTINUOUS
 62
    2
 10
698.10052219321142
 20
456.77231522214834
 11
698.10052219321142
 21
450.37231522215143
  0
LINE
  8
_0-0_計極細
  6
CONTINUOUS
 62
    2
 10
685.10052219321142
 20
839.97231522214906
 11
685.10052219321142
 21
833.97231522215179
  0
LINE
  8
_0-0_計極細
  6
CONTINUOUS
 62
    2
 10
698.10052219321142
 20
839.97231522214906
 11
698.10052219321142
 21
833.97231522215179
  0
LINE
  8
_0-0_計極細
  6
CONTINUOUS
 62
    2
 10
685.10052219321142
 20
822.57231522214852
 11
685.10052219321142
 21
816.57231522215125
  0
LINE
  8
_0-0_計極細
  6
CONTINUOUS
 62
    2
 10
698.10052219321142
 20
822.57231522214852
 11
698.10052219321142
 21
816.57231522215125
  0
LINE
  8
_0-0_計極細
  6
CONTINUOUS
 62
    2
 10
685.10052219321142
 20
805.17231522214888
 11
685.10052219321142
 21
799.17231522215161
  0
LINE
  8
_0-0_計極細
  6
CONTINUOUS
 62
    2
 10
698.10052219321142
 20
805.17231522214888
 11
698.10052219321142
 21
799.17231522215161
  0
LINE
  8
_0-0_計極細
  6
CONTINUOUS
 62
    2
 10
685.10052219321142
 20
787.77231522214834
 11
685.10052219321142
 21
781.77231522215106
  0
LINE
  8
_0-0_計極細
  6
CONTINUOUS
 62
    2
 10
698.10052219321142
 20
787.77231522214834
 11
698.10052219321142
 21
781.77231522215106
  0
LINE
  8
_0-0_計極細
  6
CONTINUOUS
 62
    2
 10
685.10052219321142
 20
770.37231522214859
 11
685.10052219321142
 21
764.37231522215143
  0
LINE
  8
_0-0_計極細
  6
CONTINUOUS
 62
    2
 10
698.10052219321142
 20
770.37231522214859
 11
698.10052219321142
 21
764.37231522215143
  0
LINE
  8
_0-0_計極細
  6
CONTINUOUS
 62
    2
 10
685.10052219321142
 20
752.97231522214815
 11
685.10052219321142
 21
746.97231522215088
  0
LINE
  8
_0-0_計極細
  6
CONTINUOUS
 62
    2
 10
698.10052219321142
 20
752.97231522214815
 11
698.10052219321142
 21
746.97231522215088
  0
LINE
  8
_0-0_計極細
  6
CONTINUOUS
 62
    2
 10
685.10052219321142
 20
735.57231522214852
 11
685.10052219321142
 21
729.57231522215125
  0
LINE
  8
_0-0_計極細
  6
CONTINUOUS
 62
    2
 10
698.10052219321142
 20
735.57231522214852
 11
698.10052219321142
 21
729.57231522215125
  0
LINE
  8
_0-0_計極細
  6
CONTINUOUS
 62
    2
 10
685.10052219321142
 20
718.17231522214888
 11
685.10052219321142
 21
712.17231522215161
  0
LINE
  8
_0-0_計極細
  6
CONTINUOUS
 62
    2
 10
698.10052219321142
 20
718.17231522214888
 11
698.10052219321142
 21
712.17231522215161
  0
LINE
  8
_0-0_計極細
  6
CONTINUOUS
 62
    2
 10
685.10052219321142
 20
700.77231522214834
 11
685.10052219321142
 21
694.77231522215106
  0
LINE
  8
_0-0_計極細
  6
CONTINUOUS
 62
    2
 10
698.10052219321142
 20
700.77231522214834
 11
698.10052219321142
 21
694.77231522215106
  0
LINE
  8
_0-0_計極細
  6
CONTINUOUS
 62
    2
 10
685.10052219321142
 20
683.3723152221487
 11
685.10052219321142
 21
677.37231522215143
  0
LINE
  8
_0-0_計極細
  6
CONTINUOUS
 62
    2
 10
698.10052219321142
 20
683.3723152221487
 11
698.10052219321142
 21
677.37231522215143
  0
LINE
  8
_0-0_計極細
  6
CONTINUOUS
 62
    2
 10
685.10052219321142
 20
665.97231522214815
 11
685.10052219321142
 21
659.97231522215088
  0
LINE
  8
_0-0_計極細
  6
CONTINUOUS
 62
    2
 10
698.10052219321142
 20
665.97231522214815
 11
698.10052219321142
 21
659.97231522215088
  0
LINE
  8
_0-0_計極細
  6
CONTINUOUS
 62
    2
 10
685.10052219321142
 20
648.57231522214852
 11
685.10052219321142
 21
642.57231522215125
  0
LINE
  8
_0-0_計極細
  6
CONTINUOUS
 62
    2
 10
698.10052219321142
 20
648.57231522214852
 11
698.10052219321142
 21
642.57231522215125
  0
LINE
  8
_0-0_計極細
  6
CONTINUOUS
 62
    2
 10
685.10052219321142
 20
631.17231522214888
 11
685.10052219321142
 21
625.17231522215161
  0
LINE
  8
_0-0_計極細
  6
CONTINUOUS
 62
    2
 10
698.10052219321142
 20
631.17231522214888
 11
698.10052219321142
 21
625.17231522215161
  0
LINE
  8
_0-0_計極細
  6
CONTINUOUS
 62
    2
 10
685.10052219321142
 20
613.77231522214834
 11
685.10052219321142
 21
607.77231522215106
  0
LINE
  8
_0-0_計極細
  6
CONTINUOUS
 62
    2
 10
698.10052219321142
 20
613.77231522214834
 11
698.10052219321142
 21
607.77231522215106
  0
LINE
  8
_0-0_計極細
  6
CONTINUOUS
 62
    2
 10
685.10052219321142
 20
596.3723152221487
 11
685.10052219321142
 21
590.37231522215143
  0
LINE
  8
_0-0_計極細
  6
CONTINUOUS
 62
    2
 10
698.10052219321142
 20
596.3723152221487
 11
698.10052219321142
 21
590.37231522215143
  0
LINE
  8
_0-0_計極細
  6
CONTINUOUS
 62
    2
 10
685.10052219321142
 20
578.97231522214815
 11
685.10052219321142
 21
572.97231522215088
  0
LINE
  8
_0-0_計極細
  6
CONTINUOUS
 62
    2
 10
698.10052219321142
 20
578.97231522214815
 11
698.10052219321142
 21
572.97231522215088
  0
LINE
  8
_0-0_計極細
  6
CONTINUOUS
 62
    2
 10
685.10052219321142
 20
561.57231522214852
 11
685.10052219321142
 21
555.57231522215125
  0
LINE
  8
_0-0_計極細
  6
CONTINUOUS
 62
    2
 10
698.10052219321142
 20
561.57231522214852
 11
698.10052219321142
 21
555.57231522215125
  0
LINE
  8
_0-0_計極細
  6
CONTINUOUS
 62
    2
 10
685.10052219321142
 20
544.17231522214888
 11
685.10052219321142
 21
538.17231522215161
  0
LINE
  8
_0-0_計極細
  6
CONTINUOUS
 62
    2
 10
698.10052219321142
 20
544.17231522214888
 11
698.10052219321142
 21
538.17231522215161
  0
LINE
  8
_0-0_計極細
  6
CONTINUOUS
 62
    2
 10
685.10052219321142
 20
526.77231522214834
 11
685.10052219321142
 21
520.77231522215106
  0
LINE
  8
_0-0_計極細
  6
CONTINUOUS
 62
    2
 10
698.10052219321142
 20
526.77231522214834
 11
698.10052219321142
 21
520.77231522215106
  0
LINE
  8
_0-0_計極細
  6
CONTINUOUS
 62
    2
 10
685.10052219321142
 20
509.3723152221487
 11
685.10052219321142
 21
503.37231522215143
  0
LINE
  8
_0-0_計極細
  6
CONTINUOUS
 62
    2
 10
698.10052219321142
 20
509.3723152221487
 11
698.10052219321142
 21
503.37231522215143
  0
LINE
  8
_0-0_計極細
  6
CONTINUOUS
 62
    2
 10
685.10052219321142
 20
491.97231522214906
 11
685.10052219321142
 21
485.97231522215179
  0
LINE
  8
_0-0_計極細
  6
CONTINUOUS
 62
    2
 10
698.10052219321142
 20
491.97231522214906
 11
698.10052219321142
 21
485.97231522215179
  0
LINE
  8
_0-0_計極細
  6
CENTER1
 62
    2
 10
546.60052219321187
 20
896.72303464662082
 11
546.60052219321187
 21
430.41449148114543
  0
LINE
  8
_0-0_計極細
  6
CONTINUOUS
 62
    2
 10
540.10052219321187
 20
875.57231522214943
 11
540.10052219321187
 21
869.17231522215252
  0
LINE
  8
_0-0_計極細
  6
CONTINUOUS
 62
    2
 10
553.10052219321187
 20
875.57231522214943
 11
553.10052219321187
 21
869.17231522215252
  0
LINE
  8
_0-0_計極細
  6
CONTINUOUS
 62
    2
 10
540.10052219321187
 20
857.77231522214925
 11
540.10052219321187
 21
851.37231522215234
  0
LINE
  8
_0-0_計極細
  6
CONTINUOUS
 62
    2
 10
553.10052219321187
 20
857.77231522214925
 11
553.10052219321187
 21
851.37231522215234
  0
LINE
  8
_0-0_計極細
  6
CONTINUOUS
 62
    2
 10
540.10052219321187
 20
474.57231522214852
 11
540.10052219321187
 21
468.17231522215161
  0
LINE
  8
_0-0_計極細
  6
CONTINUOUS
 62
    2
 10
553.10052219321187
 20
474.57231522214852
 11
553.10052219321187
 21
468.17231522215161
  0
LINE
  8
_0-0_計極細
  6
CONTINUOUS
 62
    2
 10
540.10052219321187
 20
456.77231522214834
 11
540.10052219321187
 21
450.37231522215143
  0
LINE
  8
_0-0_計極細
  6
CONTINUOUS
 62
    2
 10
553.10052219321187
 20
456.77231522214834
 11
553.10052219321187
 21
450.37231522215143
  0
LINE
  8
_0-0_計極細
  6
CONTINUOUS
 62
    2
 10
540.10052219321187
 20
839.97231522214906
 11
540.10052219321187
 21
833.97231522215179
  0
LINE
  8
_0-0_計極細
  6
CONTINUOUS
 62
    2
 10
553.10052219321187
 20
839.97231522214906
 11
553.10052219321187
 21
833.97231522215179
  0
LINE
  8
_0-0_計極細
  6
CONTINUOUS
 62
    2
 10
540.10052219321187
 20
822.57231522214852
 11
540.10052219321187
 21
816.57231522215125
  0
LINE
  8
_0-0_計極細
  6
CONTINUOUS
 62
    2
 10
553.10052219321187
 20
822.57231522214852
 11
553.10052219321187
 21
816.57231522215125
  0
LINE
  8
_0-0_計極細
  6
CONTINUOUS
 62
    2
 10
540.10052219321187
 20
805.17231522214888
 11
540.10052219321187
 21
799.17231522215161
  0
LINE
  8
_0-0_計極細
  6
CONTINUOUS
 62
    2
 10
553.10052219321187
 20
805.17231522214888
 11
553.10052219321187
 21
799.17231522215161
  0
LINE
  8
_0-0_計極細
  6
CONTINUOUS
 62
    2
 10
540.10052219321187
 20
787.77231522214834
 11
540.10052219321187
 21
781.77231522215106
  0
LINE
  8
_0-0_計極細
  6
CONTINUOUS
 62
    2
 10
553.10052219321187
 20
787.77231522214834
 11
553.10052219321187
 21
781.77231522215106
  0
LINE
  8
_0-0_計極細
  6
CONTINUOUS
 62
    2
 10
540.10052219321187
 20
770.37231522214859
 11
540.10052219321187
 21
764.37231522215143
  0
LINE
  8
_0-0_計極細
  6
CONTINUOUS
 62
    2
 10
553.10052219321187
 20
770.37231522214859
 11
553.10052219321187
 21
764.37231522215143
  0
LINE
  8
_0-0_計極細
  6
CONTINUOUS
 62
    2
 10
540.10052219321187
 20
752.97231522214815
 11
540.10052219321187
 21
746.97231522215088
  0
LINE
  8
_0-0_計極細
  6
CONTINUOUS
 62
    2
 10
553.10052219321187
 20
752.97231522214815
 11
553.10052219321187
 21
746.97231522215088
  0
LINE
  8
_0-0_計極細
  6
CONTINUOUS
 62
    2
 10
540.10052219321187
 20
735.57231522214852
 11
540.10052219321187
 21
729.57231522215125
  0
LINE
  8
_0-0_計極細
  6
CONTINUOUS
 62
    2
 10
553.10052219321187
 20
735.57231522214852
 11
553.10052219321187
 21
729.57231522215125
  0
LINE
  8
_0-0_計極細
  6
CONTINUOUS
 62
    2
 10
540.10052219321187
 20
718.17231522214888
 11
540.10052219321187
 21
712.17231522215161
  0
LINE
  8
_0-0_計極細
  6
CONTINUOUS
 62
    2
 10
553.10052219321187
 20
718.17231522214888
 11
553.10052219321187
 21
712.17231522215161
  0
LINE
  8
_0-0_計極細
  6
CONTINUOUS
 62
    2
 10
540.10052219321187
 20
700.77231522214834
 11
540.10052219321187
 21
694.77231522215106
  0
LINE
  8
_0-0_計極細
  6
CONTINUOUS
 62
    2
 10
553.10052219321187
 20
700.77231522214834
 11
553.10052219321187
 21
694.77231522215106
  0
LINE
  8
_0-0_計極細
  6
CONTINUOUS
 62
    2
 10
540.10052219321187
 20
683.3723152221487
 11
540.10052219321187
 21
677.37231522215143
  0
LINE
  8
_0-0_計極細
  6
CONTINUOUS
 62
    2
 10
553.10052219321187
 20
683.3723152221487
 11
553.10052219321187
 21
677.37231522215143
  0
LINE
  8
_0-0_計極細
  6
CONTINUOUS
 62
    2
 10
540.10052219321187
 20
665.97231522214815
 11
540.10052219321187
 21
659.97231522215088
  0
LINE
  8
_0-0_計極細
  6
CONTINUOUS
 62
    2
 10
553.10052219321187
 20
665.97231522214815
 11
553.10052219321187
 21
659.97231522215088
  0
LINE
  8
_0-0_計極細
  6
CONTINUOUS
 62
    2
 10
540.10052219321187
 20
648.57231522214852
 11
540.10052219321187
 21
642.57231522215125
  0
LINE
  8
_0-0_計極細
  6
CONTINUOUS
 62
    2
 10
553.10052219321187
 20
648.57231522214852
 11
553.10052219321187
 21
642.57231522215125
  0
LINE
  8
_0-0_計極細
  6
CONTINUOUS
 62
    2
 10
540.10052219321187
 20
631.17231522214888
 11
540.10052219321187
 21
625.17231522215161
  0
LINE
  8
_0-0_計極細
  6
CONTINUOUS
 62
    2
 10
553.10052219321187
 20
631.17231522214888
 11
553.10052219321187
 21
625.17231522215161
  0
LINE
  8
_0-0_計極細
  6
CONTINUOUS
 62
    2
 10
540.10052219321187
 20
613.77231522214834
 11
540.10052219321187
 21
607.77231522215106
  0
LINE
  8
_0-0_計極細
  6
CONTINUOUS
 62
    2
 10
553.10052219321187
 20
613.77231522214834
 11
553.10052219321187
 21
607.77231522215106
  0
LINE
  8
_0-0_計極細
  6
CONTINUOUS
 62
    2
 10
540.10052219321187
 20
596.3723152221487
 11
540.10052219321187
 21
590.37231522215143
  0
LINE
  8
_0-0_計極細
  6
CONTINUOUS
 62
    2
 10
553.10052219321187
 20
596.3723152221487
 11
553.10052219321187
 21
590.37231522215143
  0
LINE
  8
_0-0_計極細
  6
CONTINUOUS
 62
    2
 10
540.10052219321187
 20
578.97231522214815
 11
540.10052219321187
 21
572.97231522215088
  0
LINE
  8
_0-0_計極細
  6
CONTINUOUS
 62
    2
 10
553.10052219321187
 20
578.97231522214815
 11
553.10052219321187
 21
572.97231522215088
  0
LINE
  8
_0-0_計極細
  6
CONTINUOUS
 62
    2
 10
540.10052219321187
 20
561.57231522214852
 11
540.10052219321187
 21
555.57231522215125
  0
LINE
  8
_0-0_計極細
  6
CONTINUOUS
 62
    2
 10
553.10052219321187
 20
561.57231522214852
 11
553.10052219321187
 21
555.57231522215125
  0
LINE
  8
_0-0_計極細
  6
CONTINUOUS
 62
    2
 10
540.10052219321187
 20
544.17231522214888
 11
540.10052219321187
 21
538.17231522215161
  0
LINE
  8
_0-0_計極細
  6
CONTINUOUS
 62
    2
 10
553.10052219321187
 20
544.17231522214888
 11
553.10052219321187
 21
538.17231522215161
  0
LINE
  8
_0-0_計極細
  6
CONTINUOUS
 62
    2
 10
540.10052219321187
 20
526.77231522214834
 11
540.10052219321187
 21
520.77231522215106
  0
LINE
  8
_0-0_計極細
  6
CONTINUOUS
 62
    2
 10
553.10052219321187
 20
526.77231522214834
 11
553.10052219321187
 21
520.77231522215106
  0
LINE
  8
_0-0_計極細
  6
CONTINUOUS
 62
    2
 10
540.10052219321187
 20
509.3723152221487
 11
540.10052219321187
 21
503.37231522215143
  0
LINE
  8
_0-0_計極細
  6
CONTINUOUS
 62
    2
 10
553.10052219321187
 20
509.3723152221487
 11
553.10052219321187
 21
503.37231522215143
  0
LINE
  8
_0-0_計極細
  6
CONTINUOUS
 62
    2
 10
540.10052219321187
 20
491.97231522214906
 11
540.10052219321187
 21
485.97231522215179
  0
LINE
  8
_0-0_計極細
  6
CONTINUOUS
 62
    2
 10
553.10052219321187
 20
491.97231522214906
 11
553.10052219321187
 21
485.97231522215179
  0
LINE
  8
_0-0_計極細
  6
CENTER1
 62
    2
 10
594.60052219321142
 20
896.72303464662082
 11
594.60052219321142
 21
430.41449148114543
  0
LINE
  8
_0-0_計極細
  6
CONTINUOUS
 62
    2
 10
588.10052219321142
 20
875.57231522214943
 11
588.10052219321142
 21
869.17231522215252
  0
LINE
  8
_0-0_計極細
  6
CONTINUOUS
 62
    2
 10
601.10052219321142
 20
875.57231522214943
 11
601.10052219321142
 21
869.17231522215252
  0
LINE
  8
_0-0_計極細
  6
CONTINUOUS
 62
    2
 10
588.10052219321142
 20
857.77231522214925
 11
588.10052219321142
 21
851.37231522215234
  0
LINE
  8
_0-0_計極細
  6
CONTINUOUS
 62
    2
 10
601.10052219321142
 20
857.77231522214925
 11
601.10052219321142
 21
851.37231522215234
  0
LINE
  8
_0-0_計極細
  6
CONTINUOUS
 62
    2
 10
588.10052219321142
 20
474.57231522214852
 11
588.10052219321142
 21
468.17231522215161
  0
LINE
  8
_0-0_計極細
  6
CONTINUOUS
 62
    2
 10
601.10052219321142
 20
474.57231522214852
 11
601.10052219321142
 21
468.17231522215161
  0
LINE
  8
_0-0_計極細
  6
CONTINUOUS
 62
    2
 10
588.10052219321142
 20
456.77231522214834
 11
588.10052219321142
 21
450.37231522215143
  0
LINE
  8
_0-0_計極細
  6
CONTINUOUS
 62
    2
 10
601.10052219321142
 20
456.77231522214834
 11
601.10052219321142
 21
450.37231522215143
  0
LINE
  8
_0-0_計極細
  6
CONTINUOUS
 62
    2
 10
588.10052219321142
 20
839.97231522214906
 11
588.10052219321142
 21
833.97231522215179
  0
LINE
  8
_0-0_計極細
  6
CONTINUOUS
 62
    2
 10
601.10052219321142
 20
839.97231522214906
 11
601.10052219321142
 21
833.97231522215179
  0
LINE
  8
_0-0_計極細
  6
CONTINUOUS
 62
    2
 10
588.10052219321142
 20
822.57231522214852
 11
588.10052219321142
 21
816.57231522215125
  0
LINE
  8
_0-0_計極細
  6
CONTINUOUS
 62
    2
 10
601.10052219321142
 20
822.57231522214852
 11
601.10052219321142
 21
816.57231522215125
  0
LINE
  8
_0-0_計極細
  6
CONTINUOUS
 62
    2
 10
588.10052219321142
 20
805.17231522214888
 11
588.10052219321142
 21
799.17231522215161
  0
LINE
  8
_0-0_計極細
  6
CONTINUOUS
 62
    2
 10
601.10052219321142
 20
805.17231522214888
 11
601.10052219321142
 21
799.17231522215161
  0
LINE
  8
_0-0_計極細
  6
CONTINUOUS
 62
    2
 10
588.10052219321142
 20
787.77231522214834
 11
588.10052219321142
 21
781.77231522215106
  0
LINE
  8
_0-0_計極細
  6
CONTINUOUS
 62
    2
 10
601.10052219321142
 20
787.77231522214834
 11
601.10052219321142
 21
781.77231522215106
  0
LINE
  8
_0-0_計極細
  6
CONTINUOUS
 62
    2
 10
588.10052219321142
 20
770.37231522214859
 11
588.10052219321142
 21
764.37231522215143
  0
LINE
  8
_0-0_計極細
  6
CONTINUOUS
 62
    2
 10
601.10052219321142
 20
770.37231522214859
 11
601.10052219321142
 21
764.37231522215143
  0
LINE
  8
_0-0_計極細
  6
CONTINUOUS
 62
    2
 10
588.10052219321142
 20
752.97231522214815
 11
588.10052219321142
 21
746.97231522215088
  0
LINE
  8
_0-0_計極細
  6
CONTINUOUS
 62
    2
 10
601.10052219321142
 20
752.97231522214815
 11
601.10052219321142
 21
746.97231522215088
  0
LINE
  8
_0-0_計極細
  6
CONTINUOUS
 62
    2
 10
588.10052219321142
 20
735.57231522214852
 11
588.10052219321142
 21
729.57231522215125
  0
LINE
  8
_0-0_計極細
  6
CONTINUOUS
 62
    2
 10
601.10052219321142
 20
735.57231522214852
 11
601.10052219321142
 21
729.57231522215125
  0
LINE
  8
_0-0_計極細
  6
CONTINUOUS
 62
    2
 10
588.10052219321142
 20
718.17231522214888
 11
588.10052219321142
 21
712.17231522215161
  0
LINE
  8
_0-0_計極細
  6
CONTINUOUS
 62
    2
 10
601.10052219321142
 20
718.17231522214888
 11
601.10052219321142
 21
712.17231522215161
  0
LINE
  8
_0-0_計極細
  6
CONTINUOUS
 62
    2
 10
588.10052219321142
 20
700.77231522214834
 11
588.10052219321142
 21
694.77231522215106
  0
LINE
  8
_0-0_計極細
  6
CONTINUOUS
 62
    2
 10
601.10052219321142
 20
700.77231522214834
 11
601.10052219321142
 21
694.77231522215106
  0
LINE
  8
_0-0_計極細
  6
CONTINUOUS
 62
    2
 10
588.10052219321142
 20
683.3723152221487
 11
588.10052219321142
 21
677.37231522215143
  0
LINE
  8
_0-0_計極細
  6
CONTINUOUS
 62
    2
 10
601.10052219321142
 20
683.3723152221487
 11
601.10052219321142
 21
677.37231522215143
  0
LINE
  8
_0-0_計極細
  6
CONTINUOUS
 62
    2
 10
588.10052219321142
 20
665.97231522214815
 11
588.10052219321142
 21
659.97231522215088
  0
LINE
  8
_0-0_計極細
  6
CONTINUOUS
 62
    2
 10
601.10052219321142
 20
665.97231522214815
 11
601.10052219321142
 21
659.97231522215088
  0
LINE
  8
_0-0_計極細
  6
CONTINUOUS
 62
    2
 10
588.10052219321142
 20
648.57231522214852
 11
588.10052219321142
 21
642.57231522215125
  0
LINE
  8
_0-0_計極細
  6
CONTINUOUS
 62
    2
 10
601.10052219321142
 20
648.57231522214852
 11
601.10052219321142
 21
642.57231522215125
  0
LINE
  8
_0-0_計極細
  6
CONTINUOUS
 62
    2
 10
588.10052219321142
 20
631.17231522214888
 11
588.10052219321142
 21
625.17231522215161
  0
LINE
  8
_0-0_計極細
  6
CONTINUOUS
 62
    2
 10
601.10052219321142
 20
631.17231522214888
 11
601.10052219321142
 21
625.17231522215161
  0
LINE
  8
_0-0_計極細
  6
CONTINUOUS
 62
    2
 10
588.10052219321142
 20
613.77231522214834
 11
588.10052219321142
 21
607.77231522215106
  0
LINE
  8
_0-0_計極細
  6
CONTINUOUS
 62
    2
 10
601.10052219321142
 20
613.77231522214834
 11
601.10052219321142
 21
607.77231522215106
  0
LINE
  8
_0-0_計極細
  6
CONTINUOUS
 62
    2
 10
588.10052219321142
 20
596.3723152221487
 11
588.10052219321142
 21
590.37231522215143
  0
LINE
  8
_0-0_計極細
  6
CONTINUOUS
 62
    2
 10
601.10052219321142
 20
596.3723152221487
 11
601.10052219321142
 21
590.37231522215143
  0
LINE
  8
_0-0_計極細
  6
CONTINUOUS
 62
    2
 10
588.10052219321142
 20
578.97231522214815
 11
588.10052219321142
 21
572.97231522215088
  0
LINE
  8
_0-0_計極細
  6
CONTINUOUS
 62
    2
 10
601.10052219321142
 20
578.97231522214815
 11
601.10052219321142
 21
572.97231522215088
  0
LINE
  8
_0-0_計極細
  6
CONTINUOUS
 62
    2
 10
588.10052219321142
 20
561.57231522214852
 11
588.10052219321142
 21
555.57231522215125
  0
LINE
  8
_0-0_計極細
  6
CONTINUOUS
 62
    2
 10
601.10052219321142
 20
561.57231522214852
 11
601.10052219321142
 21
555.57231522215125
  0
LINE
  8
_0-0_計極細
  6
CONTINUOUS
 62
    2
 10
588.10052219321142
 20
544.17231522214888
 11
588.10052219321142
 21
538.17231522215161
  0
LINE
  8
_0-0_計極細
  6
CONTINUOUS
 62
    2
 10
601.10052219321142
 20
544.17231522214888
 11
601.10052219321142
 21
538.17231522215161
  0
LINE
  8
_0-0_計極細
  6
CONTINUOUS
 62
    2
 10
588.10052219321142
 20
526.77231522214834
 11
588.10052219321142
 21
520.77231522215106
  0
LINE
  8
_0-0_計極細
  6
CONTINUOUS
 62
    2
 10
601.10052219321142
 20
526.77231522214834
 11
601.10052219321142
 21
520.77231522215106
  0
LINE
  8
_0-0_計極細
  6
CONTINUOUS
 62
    2
 10
588.10052219321142
 20
509.3723152221487
 11
588.10052219321142
 21
503.37231522215143
  0
LINE
  8
_0-0_計極細
  6
CONTINUOUS
 62
    2
 10
601.10052219321142
 20
509.3723152221487
 11
601.10052219321142
 21
503.37231522215143
  0
LINE
  8
_0-0_計極細
  6
CONTINUOUS
 62
    2
 10
588.10052219321142
 20
491.97231522214906
 11
588.10052219321142
 21
485.97231522215179
  0
LINE
  8
_0-0_計極細
  6
CONTINUOUS
 62
    2
 10
601.10052219321142
 20
491.97231522214906
 11
601.10052219321142
 21
485.97231522215179
  0
LINE
  8
_0-1_計細線
  6
CONTINUOUS
 62
    3
 10
404.60052219321136
 20
660.62231522213006
 11
463.60052219321142
 21
660.62231522213006
  0
LINE
  8
_0-1_計細線
  6
CONTINUOUS
 62
    3
 10
463.60052219321142
 20
665.32231522212987
 11
404.60052219321136
 21
665.32231522212987
  0
LINE
  8
_0-1_計細線
  6
CONTINUOUS
 62
    3
 10
404.60052219321136
 20
665.32231522212987
 11
404.60052219321136
 21
660.62231522213006
  0
LINE
  8
_0-1_計細線
  6
CONTINUOUS
 62
    3
 10
453.60052219321142
 20
665.32231522212987
 11
453.60052219321142
 21
660.62231522213006
  0
LINE
  8
_0-1_計細線
  6
CONTINUOUS
 62
    3
 10
461.60052219321136
 20
665.32231522212987
 11
461.60052219321136
 21
660.62231522213006
  0
LINE
  8
_0-1_計細線
  6
CONTINUOUS
 62
    3
 10
463.60052219321142
 20
665.32231522212987
 11
463.60052219321142
 21
660.62231522213006
  0
LINE
  8
_0-1_計細線
  6
CONTINUOUS
 62
    3
 10
459.60052219321142
 20
665.32231522212987
 11
459.60052219321142
 21
660.62231522213006
  0
LINE
  8
_0-1_計細線
  6
CONTINUOUS
 62
    3
 10
457.60052219321142
 20
665.32231522212987
 11
457.60052219321142
 21
660.62231522213006
  0
LINE
  8
_0-1_計細線
  6
CONTINUOUS
 62
    3
 10
455.60052219321136
 20
665.32231522212987
 11
455.60052219321136
 21
660.62231522213006
  0
LINE
  8
_0-0_計極細
  6
CONTINUOUS
 62
    2
 10
443.10052219321182
 20
665.97231522214815
 11
443.10052219321182
 21
665.32231522212987
  0
LINE
  8
_0-0_計極細
  6
CONTINUOUS
 62
    2
 10
443.10052219321182
 20
660.62231522213006
 11
443.10052219321182
 21
659.97231522215088
  0
LINE
  8
_0-0_計極細
  6
CONTINUOUS
 62
    2
 10
456.10052219321187
 20
665.97231522214815
 11
456.10052219321187
 21
665.32231522212987
  0
LINE
  8
_0-0_計極細
  6
CONTINUOUS
 62
    2
 10
456.10052219321187
 20
660.62231522213006
 11
456.10052219321187
 21
659.97231522215088
  0
LINE
  8
_0-5_寸法線
  6
CONTINUOUS
 62
    7
 10
800.58097379363619
 20
616.64027390053388
 11
809.06625516787483
 21
625.12555527477241
  0
LINE
  8
_0-5_寸法線
  6
CONTINUOUS
 62
    7
 10
800.58097379363619
 20
616.64027390053388
 11
812.17208370910498
 21
619.74610244176415
  0
LINE
  8
_0-5_寸法線
  6
CONTINUOUS
 62
    7
 10
800.58097379363619
 20
616.64027390053388
 11
841.98097379363639
 21
640.54257504498446
  0
LINE
  8
_0-5_寸法線
  6
CONTINUOUS
 62
    7
 10
841.98097379363639
 20
640.54257504498446
 11
971.58097379363653
 21
640.54257504498446
  0
TEXT
  8
_0-5_寸法線
 62
    7
 10
841.98097379363639
 20
640.54257504498446
 40
18
 41
0.7999999999999998
 50
0
  1
ＳＵＳアングル受枠
  0
LINE
  8
_0-5_寸法線
  6
CONTINUOUS
 62
    7
 10
762.86983854726691
 20
704.9216986407389
 11
771.35511992150532
 21
713.40698001497742
  0
LINE
  8
_0-5_寸法線
  6
CONTINUOUS
 62
    7
 10
762.86983854726691
 20
704.9216986407389
 11
774.46094846273559
 21
708.02752718196916
  0
LINE
  8
_0-5_寸法線
  6
CONTINUOUS
 62
    7
 10
762.86983854726691
 20
704.9216986407389
 11
841.98097379363639
 21
750.59653387112712
  0
LINE
  8
_0-5_寸法線
  6
CONTINUOUS
 62
    7
 10
841.98097379363639
 20
750.59653387112712
 11
1000.3809737936365
 21
750.59653387112712
  0
TEXT
  8
_0-5_寸法線
 62
    7
 10
841.98097379363639
 20
750.59653387112712
 40
18
 41
0.7999999999999998
 50
0
  1
セーフティグレーチング
  0
LINE
  8
_0-5_寸法線
  6
CONTINUOUS
 62
    7
 10
430.39793289822109
 20
662.97231522212996
 11
421.91265152398262
 21
671.4575965963686
  0
LINE
  8
_0-5_寸法線
  6
CONTINUOUS
 62
    7
 10
430.39793289822109
 20
662.97231522212996
 11
427.29210435699093
 21
674.56342513759876
  0
LINE
  8
_0-5_寸法線
  6
CONTINUOUS
 62
    7
 10
430.39793289822109
 20
662.97231522212996
 11
248.5325981034909
 21
977.97231522212815
  0
LINE
  8
_0-5_寸法線
  6
CONTINUOUS
 62
    7
 10
248.5325981034909
 20
977.97231522212815
 11
176.5325981034909
 21
977.97231522212815
  0
TEXT
  8
_0-5_寸法線
 62
    7
 10
176.5325981034909
 20
977.97231522212815
 40
18
 41
0.7999999999999998
 50
0
  1
取　外　具
  0
TEXT
  8
_0-5_寸法線
 62
    7
 10
175.18790923875321
 20
957.85098529186985
 40
18
 41
0.7999999999999998
 50
0
  1
(標準付属)
  0
TEXT
  8
_0-5_寸法線
 62
    7
 10
841.98097379363639
 20
622.54257504498446
 40
18
 41
0.7999999999999998
 50
0
  1
ＧＳＬ－２５
  0
LINE
  8
_0-5_寸法線
  6
CONTINUOUS
 62
    7
 10
312.10052249937257
 20
892.97231522212815
 11
191.10052219321113
 21
892.97231522212917
  0
LINE
  8
_0-5_寸法線
  6
CONTINUOUS
 62
    7
 10
197.10052219321113
 20
892.97231522212917
 11
200.20635073444146
 21
881.38120530666038
  0
LINE
  8
_0-5_寸法線
  6
CONTINUOUS
 62
    7
 10
197.10052219321113
 20
892.97231522212917
 11
193.99469365198098
 21
881.38120530666038
  0
LINE
  8
_0-5_寸法線
  6
CONTINUOUS
 62
    7
 10
312.10052249937303
 20
432.9723152221282
 11
191.10052219321113
 21
432.9723152221294
  0
LINE
  8
_0-5_寸法線
  6
CONTINUOUS
 62
    7
 10
197.10052219321113
 20
432.97231522212928
 11
193.99469365198098
 21
444.56342513759819
  0
LINE
  8
_0-5_寸法線
  6
CONTINUOUS
 62
    7
 10
197.10052219321113
 20
432.97231522212928
 11
200.20635073444146
 21
444.56342513759807
  0
LINE
  8
_0-5_寸法線
  6
CONTINUOUS
 62
    7
 10
197.10052219321113
 20
892.97231522212917
 11
197.10052219321113
 21
432.97231522212928
  0
TEXT
  8
_0-5_寸法線
 62
    7
 10
197.10052219321113
 20
649.47231522212928
 40
18
 41
1
 50
89.999999999999815
  1
460
  0
LINE
  8
_0-5_寸法線
  6
CONTINUOUS
 62
    7
 10
329.10052219321113
 20
438.97231522215725
 11
275.10052219321113
 21
438.97231522215748
  0
LINE
  8
_0-5_寸法線
  6
CONTINUOUS
 62
    7
 10
281.10052219321113
 20
438.97231522215748
 11
277.99469365198098
 21
450.56342513762633
  0
LINE
  8
_0-5_寸法線
  6
CONTINUOUS
 62
    7
 10
281.10052219321113
 20
438.97231522215748
 11
284.20635073444146
 21
450.56342513762627
  0
LINE
  8
_0-5_寸法線
  6
CONTINUOUS
 62
    7
 10
329.10052219321113
 20
886.9723152221527
 11
275.10052219321113
 21
886.9723152221527
  0
LINE
  8
_0-5_寸法線
  6
CONTINUOUS
 62
    7
 10
281.10052219321113
 20
886.9723152221527
 11
284.20635073444146
 21
875.38120530668391
  0
LINE
  8
_0-5_寸法線
  6
CONTINUOUS
 62
    7
 10
281.10052219321113
 20
886.9723152221527
 11
277.99469365198098
 21
875.38120530668391
  0
LINE
  8
_0-5_寸法線
  6
CONTINUOUS
 62
    7
 10
281.10052219321113
 20
438.97231522215748
 11
281.10052219321113
 21
886.9723152221527
  0
TEXT
  8
_0-5_寸法線
 62
    7
 10
281.10052219321113
 20
649.4723152221552
 40
18
 41
1
 50
90
  1
448
  0
LINE
  8
_0-1_計細線
  6
CONTINUOUS
 62
    3
 10
345.60052219321113
 20
869.17231522215252
 11
795.60052219321096
 21
869.17231522215252
  0
LINE
  8
_0-1_計細線
  6
CONTINUOUS
 62
    3
 10
345.60052219321113
 20
857.77231522215197
 11
795.60052219321096
 21
857.77231522215197
  0
LINE
  8
_0-1_計細線
  6
CONTINUOUS
 62
    3
 10
345.60052219321113
 20
869.17231522215252
 11
345.60052219321113
 21
857.77231522215197
  0
LINE
  8
_0-1_計細線
  6
CONTINUOUS
 62
    3
 10
795.60052219321096
 20
869.17231522215252
 11
795.60052219321096
 21
857.77231522215197
  0
LINE
  8
_0-0_計極細
  6
CONTINUOUS
 62
    2
 10
345.60052219321113
 20
860.9723152221527
 11
795.60052219321096
 21
860.9723152221527
  0
LINE
  8
_0-0_計極細
  6
CONTINUOUS
 62
    2
 10
345.60052219321113
 20
865.9723152221527
 11
795.60052219321096
 21
865.9723152221527
  0
LINE
  8
_0-1_計細線
  6
CONTINUOUS
 62
    3
 10
345.60052219321113
 20
851.37231522215234
 11
795.60052219321096
 21
851.37231522215234
  0
LINE
  8
_0-1_計細線
  6
CONTINUOUS
 62
    3
 10
345.60052219321113
 20
839.97231522215179
 11
795.60052219321096
 21
839.97231522215179
  0
LINE
  8
_0-1_計細線
  6
CONTINUOUS
 62
    3
 10
345.60052219321113
 20
851.37231522215234
 11
345.60052219321113
 21
839.97231522215179
  0
LINE
  8
_0-1_計細線
  6
CONTINUOUS
 62
    3
 10
795.60052219321096
 20
851.37231522215234
 11
795.60052219321096
 21
839.97231522215179
  0
LINE
  8
_0-0_計極細
  6
CONTINUOUS
 62
    2
 10
345.60052219321113
 20
843.17231522215252
 11
795.60052219321096
 21
843.17231522215252
  0
LINE
  8
_0-0_計極細
  6
CONTINUOUS
 62
    2
 10
345.60052219321113
 20
848.17231522215252
 11
795.60052219321096
 21
848.17231522215252
  0
LINE
  8
_0-1_計細線
  6
CONTINUOUS
 62
    3
 10
345.60052219321113
 20
833.97231522215179
 11
795.60052219321096
 21
833.97231522215179
  0
LINE
  8
_0-1_計細線
  6
CONTINUOUS
 62
    3
 10
345.60052219321113
 20
822.57231522215125
 11
795.60052219321096
 21
822.57231522215125
  0
LINE
  8
_0-1_計細線
  6
CONTINUOUS
 62
    3
 10
345.60052219321113
 20
833.97231522215179
 11
345.60052219321113
 21
822.57231522215125
  0
LINE
  8
_0-1_計細線
  6
CONTINUOUS
 62
    3
 10
795.60052219321096
 20
833.97231522215179
 11
795.60052219321096
 21
822.57231522215125
  0
LINE
  8
_0-0_計極細
  6
CONTINUOUS
 62
    2
 10
345.60052219321113
 20
825.77231522215197
 11
795.60052219321096
 21
825.77231522215197
  0
LINE
  8
_0-0_計極細
  6
CONTINUOUS
 62
    2
 10
345.60052219321113
 20
830.77231522215197
 11
795.60052219321096
 21
830.77231522215197
  0
LINE
  8
_0-1_計細線
  6
CONTINUOUS
 62
    3
 10
345.60052219321113
 20
438.97231522215719
 11
795.60052219321096
 21
438.97231522215719
  0
LINE
  8
_0-1_計細線
  6
CONTINUOUS
 62
    3
 10
345.60052219321113
 20
450.37231522215774
 11
795.60052219321096
 21
450.37231522215774
  0
LINE
  8
_0-1_計細線
  6
CONTINUOUS
 62
    3
 10
345.60052219321113
 20
438.97231522215719
 11
345.60052219321113
 21
450.37231522215774
  0
LINE
  8
_0-1_計細線
  6
CONTINUOUS
 62
    3
 10
795.60052219321096
 20
438.97231522215719
 11
795.60052219321096
 21
450.37231522215774
  0
LINE
  8
_0-0_計極細
  6
CONTINUOUS
 62
    2
 10
345.60052219321113
 20
447.17231522215707
 11
795.60052219321096
 21
447.17231522215707
  0
LINE
  8
_0-0_計極細
  6
CONTINUOUS
 62
    2
 10
345.60052219321113
 20
442.17231522215701
 11
795.60052219321096
 21
442.17231522215701
  0
LINE
  8
_0-1_計細線
  6
CONTINUOUS
 62
    3
 10
345.60052219321113
 20
468.17231522215161
 11
795.60052219321096
 21
468.17231522215161
  0
LINE
  8
_0-1_計細線
  6
CONTINUOUS
 62
    3
 10
345.60052219321113
 20
456.77231522215106
 11
795.60052219321096
 21
456.77231522215106
  0
LINE
  8
_0-1_計細線
  6
CONTINUOUS
 62
    3
 10
345.60052219321113
 20
468.17231522215161
 11
345.60052219321113
 21
456.77231522215106
  0
LINE
  8
_0-1_計細線
  6
CONTINUOUS
 62
    3
 10
795.60052219321096
 20
468.17231522215161
 11
795.60052219321096
 21
456.77231522215106
  0
LINE
  8
_0-0_計極細
  6
CONTINUOUS
 62
    2
 10
345.60052219321113
 20
459.97231522215174
 11
795.60052219321096
 21
459.97231522215174
  0
LINE
  8
_0-0_計極細
  6
CONTINUOUS
 62
    2
 10
345.60052219321113
 20
464.97231522215179
 11
795.60052219321096
 21
464.97231522215179
  0
TEXT
  8
_0-7_枠細線
 62
    5
 10
175.75808349767243
 20
997.63527980491563
 40
15
 41
0.8
 50
0
  1
２
  0
LINE
  8
_0-7_枠細線
  6
CONTINUOUS
 62
    5
 10
190.91990197589482
 20
998.00368249937208
 11
181.91990197589482
 21
1016.0036824993721
  0
LINE
  8
_0-7_枠細線
  6
CONTINUOUS
 62
    5
 10
172.91990197589482
 20
998.00368249937208
 11
190.91990197589482
 21
998.00368249937208
  0
LINE
  8
_0-7_枠細線
  6
CONTINUOUS
 62
    5
 10
181.91990197589482
 20
1016.0036824993721
 11
172.91990197589482
 21
998.00368249937208
  0
TEXT
  8
_0-7_枠細線
 62
    5
 10
198.42835609112396
 20
997.28350853843619
 40
15
 41
0.8
 50
0
  1
３
  0
LINE
  8
_0-7_枠細線
  6
CONTINUOUS
 62
    5
 10
204.59017456934617
 20
1015.9407292066538
 11
195.59017456934617
 21
997.94072920665383
  0
LINE
  8
_0-7_枠細線
  6
CONTINUOUS
 62
    5
 10
195.59017456934617
 20
997.94072920665383
 11
213.59017456934617
 21
997.94072920665383
  0
LINE
  8
_0-7_枠細線
  6
CONTINUOUS
 62
    5
 10
213.59017456934617
 20
997.94072920665383
 11
204.59017456934617
 21
1015.9407292066538
  0
LINE
  8
_0-5_寸法線
  6
CONTINUOUS
 62
    7
 10
341.10052219321113
 20
905.47231522212257
 11
341.10052219321148
 21
1084.9723152221281
  0
LINE
  8
_0-5_寸法線
  6
CONTINUOUS
 62
    7
 10
341.10052219321148
 20
1078.9723152221281
 11
352.69163210868027
 21
1082.0781437633582
  0
LINE
  8
_0-5_寸法線
  6
CONTINUOUS
 62
    7
 10
341.10052219321148
 20
1078.9723152221281
 11
352.69163210868027
 21
1075.8664866808979
  0
LINE
  8
_0-5_寸法線
  6
CONTINUOUS
 62
    7
 10
801.10052219321074
 20
905.47231522212257
 11
801.10052219321108
 21
1084.9723152221281
  0
LINE
  8
_0-5_寸法線
  6
CONTINUOUS
 62
    7
 10
801.10052219321108
 20
1078.9723152221281
 11
789.50941227774229
 21
1075.8664866808979
  0
LINE
  8
_0-5_寸法線
  6
CONTINUOUS
 62
    7
 10
801.10052219321108
 20
1078.9723152221281
 11
789.50941227774229
 21
1082.0781437633582
  0
LINE
  8
_0-5_寸法線
  6
CONTINUOUS
 62
    7
 10
341.10052219321148
 20
1078.9723152221281
 11
801.10052219321108
 21
1078.9723152221281
  0
TEXT
  8
_0-5_寸法線
 62
    7
 10
557.60052219321119
 20
1078.9723152221281
 40
18
 41
1
 50
0
  1
460
  0
LINE
  8
_0-5_寸法線
  6
CONTINUOUS
 62
    7
 10
341.10052219321113
 20
905.47231522212257
 11
341.10052219321148
 21
1042.9723152221281
  0
LINE
  8
_0-5_寸法線
  6
CONTINUOUS
 62
    7
 10
341.10052219321148
 20
1036.9723152221281
 11
329.50941227774268
 21
1033.8664866808979
  0
LINE
  8
_0-5_寸法線
  6
CONTINUOUS
 62
    7
 10
341.10052219321148
 20
1036.9723152221281
 11
329.50941227774268
 21
1040.0781437633582
  0
LINE
  8
_0-5_寸法線
  6
CONTINUOUS
 62
    7
 10
344.10052219321113
 20
905.47231522212257
 11
344.10052219321148
 21
1042.9723152221281
  0
LINE
  8
_0-5_寸法線
  6
CONTINUOUS
 62
    7
 10
311.10052219321148
 20
1036.9723152221281
 11
344.10052219321148
 21
1036.9723152221281
  0
TEXT
  8
_0-5_寸法線
 62
    7
 10
318.80243503130282
 20
1036.9723152221281
 40
18
 41
1
 50
0
  1
3
  0
LINE
  8
_0-5_寸法線
  6
CONTINUOUS
 62
    7
 10
344.10052219321148
 20
1036.9723152221281
 11
355.69163210868032
 21
1040.0781437633582
  0
LINE
  8
_0-5_寸法線
  6
CONTINUOUS
 62
    7
 10
344.10052219321148
 20
1036.9723152221281
 11
355.69163210868027
 21
1033.8664866808979
  0
LINE
  8
_0-5_寸法線
  6
CONTINUOUS
 62
    7
 10
798.10052219321074
 20
905.47231522212257
 11
798.10052219321074
 21
1042.9723152221281
  0
LINE
  8
_0-5_寸法線
  6
CONTINUOUS
 62
    7
 10
798.10052219321074
 20
1036.9723152221281
 11
786.50941227774194
 21
1033.8664866808979
  0
LINE
  8
_0-5_寸法線
  6
CONTINUOUS
 62
    7
 10
798.10052219321074
 20
1036.9723152221281
 11
786.50941227774194
 21
1040.0781437633582
  0
LINE
  8
_0-5_寸法線
  6
CONTINUOUS
 62
    7
 10
344.10052219321148
 20
1036.9723152221281
 11
798.10052219321074
 21
1036.9723152221281
  0
TEXT
  8
_0-5_寸法線
 62
    7
 10
557.60052219321096
 20
1036.9723152221281
 40
18
 41
1
 50
0
  1
454
  0
LINE
  8
_0-5_寸法線
  6
CONTINUOUS
 62
    7
 10
801.10052219321074
 20
905.47231522212257
 11
801.10052219321074
 21
1042.9723152221281
  0
LINE
  8
_0-5_寸法線
  6
CONTINUOUS
 62
    7
 10
801.10052219321074
 20
1036.9723152221281
 11
812.69163210867953
 21
1040.0781437633582
  0
LINE
  8
_0-5_寸法線
  6
CONTINUOUS
 62
    7
 10
801.10052219321074
 20
1036.9723152221281
 11
812.69163210867953
 21
1033.8664866808979
  0
LINE
  8
_0-5_寸法線
  6
CONTINUOUS
 62
    7
 10
798.10052219321074
 20
1036.9723152221281
 11
831.10052219321074
 21
1036.9723152221281
  0
TEXT
  8
_0-5_寸法線
 62
    7
 10
816.97940050851537
 20
1036.9723152221281
 40
18
 41
1
 50
0
  1
3
  0
LINE
  8
_0-5_寸法線
  6
CONTINUOUS
 62
    7
 10
345.60052219321113
 20
904.97231522212815
 11
345.60052219321113
 21
1000.9723152221281
  0
LINE
  8
_0-5_寸法線
  6
CONTINUOUS
 62
    7
 10
345.60052219321113
 20
994.97231522212815
 11
357.19163210867993
 21
998.0781437633583
  0
LINE
  8
_0-5_寸法線
  6
CONTINUOUS
 62
    7
 10
345.60052219321113
 20
994.97231522212815
 11
357.19163210867993
 21
991.86648668089788
  0
LINE
  8
_0-5_寸法線
  6
CONTINUOUS
 62
    7
 10
795.60052219321096
 20
904.97231522212815
 11
795.60052219321096
 21
1000.9723152221281
  0
LINE
  8
_0-5_寸法線
  6
CONTINUOUS
 62
    7
 10
795.60052219321096
 20
994.97231522212815
 11
784.00941227774217
 21
991.86648668089799
  0
LINE
  8
_0-5_寸法線
  6
CONTINUOUS
 62
    7
 10
795.60052219321096
 20
994.97231522212815
 11
784.00941227774217
 21
998.0781437633583
  0
LINE
  8
_0-5_寸法線
  6
CONTINUOUS
 62
    7
 10
345.60052219321113
 20
994.97231522212815
 11
795.60052219321096
 21
994.97231522212815
  0
TEXT
  8
_0-5_寸法線
 62
    7
 10
557.10052219321119
 20
994.97231522212815
 40
18
 41
1
 50
0
  1
450
  0
LINE
  8
_0-5_寸法線
  6
CONTINUOUS
 62
    7
 10
345.60052219321113
 20
904.97231522212815
 11
345.60052219321113
 21
958.97231522212815
  0
LINE
  8
_0-5_寸法線
  6
CONTINUOUS
 62
    7
 10
345.60052219321113
 20
952.97231522212815
 11
357.19163210867993
 21
956.07814376335841
  0
LINE
  8
_0-5_寸法線
  6
CONTINUOUS
 62
    7
 10
345.60052219321113
 20
952.97231522212815
 11
357.19163210867993
 21
949.86648668089799
  0
LINE
  8
_0-5_寸法線
  6
CONTINUOUS
 62
    7
 10
352.60052219321119
 20
904.97231522212815
 11
352.60052219321125
 21
958.97231522212815
  0
LINE
  8
_0-5_寸法線
  6
CONTINUOUS
 62
    7
 10
352.60052219321125
 20
952.97231522212815
 11
341.00941227774246
 21
949.86648668089799
  0
LINE
  8
_0-5_寸法線
  6
CONTINUOUS
 62
    7
 10
352.60052219321125
 20
952.97231522212815
 11
341.00941227774246
 21
956.07814376335841
  0
LINE
  8
_0-5_寸法線
  6
CONTINUOUS
 62
    7
 10
345.60052219321113
 20
952.97231522212815
 11
352.60052219321125
 21
952.97231522212815
  0
TEXT
  8
_0-5_寸法線
 62
    7
 10
348.10052219321176
 20
952.97231522212815
 40
18
 41
1
 50
0
  1
7
  0
LINE
  8
_0-5_寸法線
  6
CONTINUOUS
 62
    7
 10
352.60052219321125
 20
952.97231522212815
 11
364.1916321086801
 21
956.0781437633583
  0
LINE
  8
_0-5_寸法線
  6
CONTINUOUS
 62
    7
 10
352.60052219321125
 20
952.97231522212815
 11
364.19163210868004
 21
949.86648668089799
  0
LINE
  8
_0-5_寸法線
  6
CONTINUOUS
 62
    7
 10
546.60052219321187
 20
904.97231522212815
 11
546.60052219321199
 21
958.97231522212815
  0
LINE
  8
_0-5_寸法線
  6
CONTINUOUS
 62
    7
 10
546.60052219321199
 20
952.97231522212815
 11
535.00941227774319
 21
949.86648668089799
  0
LINE
  8
_0-5_寸法線
  6
CONTINUOUS
 62
    7
 10
546.60052219321199
 20
952.97231522212815
 11
535.00941227774319
 21
956.07814376335841
  0
LINE
  8
_0-5_寸法線
  6
CONTINUOUS
 62
    7
 10
352.60052219321125
 20
952.97231522212815
 11
546.60052219321199
 21
952.97231522212815
  0
TEXT
  8
_0-5_寸法線
 62
    7
 10
413.6005221932117
 20
952.97231522212815
 40
18
 41
1
 50
0
  1
2@97=194
  0
LINE
  8
_0-5_寸法線
  6
CONTINUOUS
 62
    7
 10
546.60052219321199
 20
952.97231522212815
 11
558.19163210868078
 21
956.0781437633583
  0
LINE
  8
_0-5_寸法線
  6
CONTINUOUS
 62
    7
 10
546.60052219321199
 20
952.97231522212815
 11
558.19163210868078
 21
949.86648668089799
  0
LINE
  8
_0-5_寸法線
  6
CONTINUOUS
 62
    7
 10
594.60052219321142
 20
904.97231522212815
 11
594.60052219321142
 21
958.97231522212815
  0
LINE
  8
_0-5_寸法線
  6
CONTINUOUS
 62
    7
 10
594.60052219321142
 20
952.97231522212815
 11
583.00941227774274
 21
949.86648668089799
  0
LINE
  8
_0-5_寸法線
  6
CONTINUOUS
 62
    7
 10
594.60052219321142
 20
952.97231522212815
 11
583.00941227774274
 21
956.07814376335841
  0
LINE
  8
_0-5_寸法線
  6
CONTINUOUS
 62
    7
 10
546.60052219321199
 20
952.97231522212815
 11
594.60052219321142
 21
952.97231522212815
  0
TEXT
  8
_0-5_寸法線
 62
    7
 10
561.60052219321176
 20
952.97231522212815
 40
18
 41
1
 50
0
  1
48
  0
LINE
  8
_0-5_寸法線
  6
CONTINUOUS
 62
    7
 10
594.60052219321142
 20
952.97231522212815
 11
606.19163210868032
 21
956.0781437633583
  0
LINE
  8
_0-5_寸法線
  6
CONTINUOUS
 62
    7
 10
594.60052219321142
 20
952.97231522212815
 11
606.19163210868032
 21
949.86648668089799
  0
LINE
  8
_0-5_寸法線
  6
CONTINUOUS
 62
    7
 10
788.60052219321085
 20
904.97231522212815
 11
788.60052219321096
 21
958.97231522212815
  0
LINE
  8
_0-5_寸法線
  6
CONTINUOUS
 62
    7
 10
788.60052219321096
 20
952.97231522212815
 11
777.00941227774229
 21
949.86648668089799
  0
LINE
  8
_0-5_寸法線
  6
CONTINUOUS
 62
    7
 10
788.60052219321096
 20
952.97231522212815
 11
777.00941227774229
 21
956.07814376335841
  0
LINE
  8
_0-5_寸法線
  6
CONTINUOUS
 62
    7
 10
594.60052219321142
 20
952.97231522212815
 11
788.60052219321096
 21
952.97231522212815
  0
TEXT
  8
_0-5_寸法線
 62
    7
 10
655.60052219321119
 20
952.97231522212815
 40
18
 41
1
 50
0
  1
2@97=194
  0
LINE
  8
_0-5_寸法線
  6
CONTINUOUS
 62
    7
 10
788.60052219321096
 20
952.97231522212815
 11
800.19163210867987
 21
956.0781437633583
  0
LINE
  8
_0-5_寸法線
  6
CONTINUOUS
 62
    7
 10
788.60052219321096
 20
952.97231522212815
 11
800.19163210867987
 21
949.86648668089799
  0
LINE
  8
_0-5_寸法線
  6
CONTINUOUS
 62
    7
 10
795.60052219321119
 20
904.97231522212815
 11
795.6005221932113
 21
958.97231522212815
  0
LINE
  8
_0-5_寸法線
  6
CONTINUOUS
 62
    7
 10
795.6005221932113
 20
952.97231522212815
 11
784.00941227774251
 21
949.86648668089799
  0
LINE
  8
_0-5_寸法線
  6
CONTINUOUS
 62
    7
 10
795.6005221932113
 20
952.97231522212815
 11
784.00941227774251
 21
956.07814376335841
  0
LINE
  8
_0-5_寸法線
  6
CONTINUOUS
 62
    7
 10
788.60052219321096
 20
952.97231522212815
 11
795.6005221932113
 21
952.97231522212815
  0
TEXT
  8
_0-5_寸法線
 62
    7
 10
784.10052219321051
 20
952.97231522212815
 40
18
 41
1
 50
0
  1
7
  0
LINE
  8
_1-1_寸法8
  6
CONTINUOUS
 62
    7
 10
329.10052219321113
 20
892.97231522212815
 11
233.10052219321113
 21
892.97231522212815
  0
LINE
  8
_1-1_寸法8
  6
CONTINUOUS
 62
    7
 10
239.10052219321113
 20
892.97231522212815
 11
235.99469365198098
 21
904.56342513759694
  0
LINE
  8
_1-1_寸法8
  6
CONTINUOUS
 62
    7
 10
239.10052219321113
 20
892.97231522212815
 11
242.20635073444146
 21
904.56342513759694
  0
LINE
  8
_1-1_寸法8
  6
CONTINUOUS
 62
    7
 10
329.10052219321113
 20
889.97231522212815
 11
233.10052219321113
 21
889.97231522212815
  0
LINE
  8
_1-1_寸法8
  6
CONTINUOUS
 62
    7
 10
239.10052219321113
 20
922.97231522212815
 11
239.10052219321113
 21
889.97231522212815
  0
TEXT
  8
_1-1_寸法8
 62
    7
 10
239.10052219321113
 20
905.86646951150556
 40
18
 41
1
 50
89.99999999999946
  1
3
  0
LINE
  8
_1-1_寸法8
  6
CONTINUOUS
 62
    7
 10
239.10052219321113
 20
889.97231522212815
 11
242.20635073444146
 21
878.38120530665935
  0
LINE
  8
_1-1_寸法8
  6
CONTINUOUS
 62
    7
 10
239.10052219321113
 20
889.97231522212815
 11
235.99469365198098
 21
878.38120530665935
  0
LINE
  8
_1-1_寸法8
  6
CONTINUOUS
 62
    7
 10
329.10052219321113
 20
435.97231522213264
 11
233.10052219321113
 21
435.97231522213264
  0
LINE
  8
_1-1_寸法8
  6
CONTINUOUS
 62
    7
 10
239.10052219321113
 20
435.97231522213264
 11
235.99469365198098
 21
447.56342513760143
  0
LINE
  8
_1-1_寸法8
  6
CONTINUOUS
 62
    7
 10
239.10052219321113
 20
435.97231522213264
 11
242.20635073444146
 21
447.56342513760143
  0
LINE
  8
_1-1_寸法8
  6
CONTINUOUS
 62
    7
 10
239.10052219321113
 20
889.97231522212815
 11
239.10052219321113
 21
435.97231522213264
  0
TEXT
  8
_1-1_寸法8
 62
    7
 10
239.10052219321148
 20
649.47231522214292
 40
18
 41
1
 50
89.999999999999815
  1
454
  0
LINE
  8
_1-1_寸法8
  6
CONTINUOUS
 62
    7
 10
329.10052219321113
 20
432.97231522213269
 11
233.10052219321113
 21
432.97231522213264
  0
LINE
  8
_1-1_寸法8
  6
CONTINUOUS
 62
    7
 10
239.10052219321113
 20
432.97231522213264
 11
242.20635073444137
 21
421.38120530666384
  0
LINE
  8
_1-1_寸法8
  6
CONTINUOUS
 62
    7
 10
239.10052219321113
 20
432.97231522213264
 11
235.9946936519809
 21
421.38120530666384
  0
LINE
  8
_1-1_寸法8
  6
CONTINUOUS
 62
    7
 10
239.10052219321113
 20
435.97231522213264
 11
239.10052219321113
 21
402.97231522213264
  0
TEXT
  8
_1-1_寸法8
 62
    7
 10
239.10052219321113
 20
407.63873524984143
 40
18
 41
1
 50
90
  1
3
  0
LINE
  8
_0-d_寸法3
  6
CONTINUOUS
 62
    7
 10
566.29108252284118
 20
274.90911942974458
 11
566.29108252284118
 21
324.90911942974446
  0
LINE
  8
_0-d_寸法3
  6
CONTINUOUS
 62
    7
 10
566.29108252284118
 20
318.90911942974446
 11
577.88219243830986
 21
322.01494797097473
  0
LINE
  8
_0-d_寸法3
  6
CONTINUOUS
 62
    7
 10
566.29108252284118
 20
318.90911942974446
 11
577.88219243830986
 21
315.8032908885142
  0
LINE
  8
_0-d_寸法3
  6
CONTINUOUS
 62
    7
 10
601.09108252356475
 20
274.90911942974458
 11
601.09108252356475
 21
324.90911942974446
  0
LINE
  8
_0-d_寸法3
  6
CONTINUOUS
 62
    7
 10
601.09108252356475
 20
318.90911942974446
 11
589.49997260809596
 21
315.8032908885142
  0
LINE
  8
_0-d_寸法3
  6
CONTINUOUS
 62
    7
 10
601.09108252356475
 20
318.90911942974446
 11
589.49997260809596
 21
322.01494797097473
  0
LINE
  8
_0-d_寸法3
  6
CONTINUOUS
 62
    7
 10
566.29108252284118
 20
318.90911942974446
 11
601.09108252356475
 21
318.90911942974446
  0
TEXT
  8
_0-d_寸法3
 62
    7
 10
552.43566903127157
 20
300.90911942974446
 40
18
 41
1
 50
0
  1
(17.4)
  0
LINE
  8
_0-d_寸法3
  6
CONTINUOUS
 62
    7
 10
601.09108252356475
 20
318.90911942974446
 11
612.68219243903354
 21
322.01494797097462
  0
LINE
  8
_0-d_寸法3
  6
CONTINUOUS
 62
    7
 10
601.09108252356475
 20
318.90911942974446
 11
612.68219243903354
 21
315.80329088851414
  0
LINE
  8
_0-d_寸法3
  6
CONTINUOUS
 62
    7
 10
635.89108252428832
 20
274.90911942974458
 11
635.89108252428832
 21
324.90911942974446
  0
LINE
  8
_0-d_寸法3
  6
CONTINUOUS
 62
    7
 10
635.89108252428832
 20
318.90911942974446
 11
624.29997260881953
 21
315.8032908885142
  0
LINE
  8
_0-d_寸法3
  6
CONTINUOUS
 62
    7
 10
635.89108252428832
 20
318.90911942974446
 11
624.29997260881953
 21
322.01494797097473
  0
LINE
  8
_0-d_寸法3
  6
CONTINUOUS
 62
    7
 10
601.09108252356475
 20
318.90911942974446
 11
635.89108252428832
 21
318.90911942974446
  0
TEXT
  8
_0-d_寸法3
 62
    7
 10
596.91566903127159
 20
318.90911942974446
 40
18
 41
1
 50
0
  1
(17.4)
  0
LINE
  8
_0-d_寸法3
  6
CONTINUOUS
 62
    7
 10
508.09108251880679
 20
270.90911942974446
 11
508.09108251880679
 21
324.90911942974446
  0
LINE
  8
_0-d_寸法3
  6
CONTINUOUS
 62
    7
 10
508.09108251880679
 20
318.90911942974446
 11
496.49997260333794
 21
315.8032908885142
  0
LINE
  8
_0-d_寸法3
  6
CONTINUOUS
 62
    7
 10
508.09108251880679
 20
318.90911942974446
 11
496.49997260333799
 21
322.01494797097473
  0
LINE
  8
_0-d_寸法3
  6
CONTINUOUS
 62
    7
 10
520.09108252394458
 20
270.90911942974446
 11
520.09108252394458
 21
324.90911942974446
  0
LINE
  8
_0-d_寸法3
  6
CONTINUOUS
 62
    7
 10
478.84233569900636
 20
318.90911942974446
 11
520.09108252394458
 21
318.90911942974446
  0
TEXT
  8
_0-d_寸法3
 62
    7
 10
478.84233569900636
 20
300.90911942974446
 40
18
 41
1
 50
0
  1
(6)
  0
LINE
  8
_0-d_寸法3
  6
CONTINUOUS
 62
    7
 10
520.09108252394458
 20
318.90911942974446
 11
531.68219243941326
 21
322.01494797097473
  0
LINE
  8
_0-d_寸法3
  6
CONTINUOUS
 62
    7
 10
520.09108252394458
 20
318.90911942974446
 11
531.68219243941326
 21
315.8032908885142
  0
LINE
  8
_0-d_寸法3
  6
CONTINUOUS
 62
    7
 10
542.89108251952985
 20
270.90911942974446
 11
542.89108251952985
 21
324.90911942974446
  0
LINE
  8
_0-d_寸法3
  6
CONTINUOUS
 62
    7
 10
542.89108251952985
 20
318.90911942974446
 11
531.29997260406105
 21
315.8032908885142
  0
LINE
  8
_0-d_寸法3
  6
CONTINUOUS
 62
    7
 10
542.89108251952985
 20
318.90911942974446
 11
531.29997260406105
 21
322.01494797097473
  0
LINE
  8
_0-d_寸法3
  6
CONTINUOUS
 62
    7
 10
520.09108252394458
 20
318.90911942974446
 11
542.89108251952985
 21
318.90911942974446
  0
TEXT
  8
_0-d_寸法3
 62
    7
 10
508.9734468101172
 20
318.90911942974446
 40
18
 41
1
 50
0
  1
11.4
  0
ARC
  8
_0-a_極細3
  6
CONTINUOUS
 62
    7
 10
672.88636651372462
 20
249.09318043972257
 40
21.070607518177614
 50
150.0387139614817
 51
205.23810402387866
  0
ARC
  8
_0-a_極細3
  6
CONTINUOUS
 62
    7
 10
634.76779628584688
 20
231.12496938456582
 40
21.070607518177614
 50
330.03871396148202
 51
25.238104023878119
  0
ARC
  8
_0-a_極細3
  6
CONTINUOUS
 62
    7
 10
498.98258798772378
 20
249.09318043972257
 40
21.070607518177614
 50
150.0387139614817
 51
205.23810402387869
  0
ARC
  8
_0-a_極細3
  6
CONTINUOUS
 62
    7
 10
460.86401775984609
 20
231.12496938456582
 40
21.070607518177614
 50
330.03871396148202
 51
25.238104023878119
  0
ARC
  8
_0-b_細線3
  6
CONTINUOUS
 62
    7
 10
556.8910825250482
 20
258.90911942974446
 40
2
 50
89.999999999999915
 51
179.99999999999983
  0
ARC
  8
_0-b_細線3
  6
CONTINUOUS
 62
    7
 10
557.82698090770305
 20
262.90911942974458
 40
2
 50
269.99999999999977
 51
330.00000000000279
  0
ARC
  8
_0-b_細線3
  6
CONTINUOUS
 62
    7
 10
561.29108252284072
 20
260.90911942974481
 40
2
 50
89.999999999999915
 51
150.00000000000142
  0
LINE
  8
_0-b_細線3
  6
CONTINUOUS
 62
    7
 10
556.8910825250482
 20
260.90911942974481
 11
557.82698090770305
 21
260.90911942974481
  0
ARC
  8
_0-b_細線3
  6
CONTINUOUS
 62
    7
 10
575.69108252063393
 20
258.90911942974446
 40
2
 50
0
 51
89.999999999999915
  0
ARC
  8
_0-b_細線3
  6
CONTINUOUS
 62
    7
 10
574.75518413797863
 20
262.90911942974458
 40
2
 50
210.00000000000298
 51
269.99999999999977
  0
ARC
  8
_0-b_細線3
  6
CONTINUOUS
 62
    7
 10
571.29108252284095
 20
260.90911942974481
 40
2
 50
29.999999999992085
 51
89.999999999986969
  0
LINE
  8
_0-b_細線3
  6
CONTINUOUS
 62
    7
 10
575.69108252063393
 20
260.90911942974481
 11
574.75518413797863
 21
260.90911942974481
  0
ARC
  8
_0-b_細線3
  6
CONTINUOUS
 62
    7
 10
555.89108252504798
 20
256.10911942974474
 40
1
 50
179.99999999999983
 51
269.99999999999977
  0
LINE
  8
_0-b_細線3
  6
CONTINUOUS
 62
    7
 10
554.89108252504798
 20
258.90911942974446
 11
554.89108252504798
 21
256.10911942974474
  0
ARC
  8
_0-b_細線3
  6
CONTINUOUS
 62
    7
 10
576.69108252063347
 20
256.10911942974474
 40
1
 50
269.99999999999977
 51
359.99999999999966
  0
LINE
  8
_0-b_細線3
  6
CONTINUOUS
 62
    7
 10
577.6910825206337
 20
258.90911942974446
 11
577.6910825206337
 21
256.10911942974474
  0
ARC
  8
_0-b_細線3
  6
CONTINUOUS
 62
    7
 10
560.89108252504798
 20
253.10911942974474
 40
2
 50
0
 51
89.999999999999915
  0
LINE
  8
_0-b_細線3
  6
CONTINUOUS
 62
    7
 10
560.89108252504798
 20
255.10911942974462
 11
555.89108252504798
 21
255.10911942974462
  0
ARC
  8
_0-b_細線3
  6
CONTINUOUS
 62
    7
 10
571.69108252504839
 20
253.10911942974474
 40
2
 50
89.999999999999915
 51
179.99999999999983
  0
LINE
  8
_0-b_細線3
  6
CONTINUOUS
 62
    7
 10
571.6910825206337
 20
255.10911942974462
 11
576.69108252063347
 21
255.10911942974462
  0
LINE
  8
_0-b_細線3
  6
CONTINUOUS
 62
    7
 10
571.29108252284095
 20
262.90911942974458
 11
561.29108252284072
 21
262.90911942974458
  0
LINE
  8
_0-b_細線3
  6
CONTINUOUS
 62
    7
 10
562.89108252284086
 20
212.90911942974486
 11
562.8910825250482
 21
253.10911942974474
  0
LINE
  8
_0-b_細線3
  6
CONTINUOUS
 62
    7
 10
569.69108252284082
 20
212.90911942974486
 11
569.69108252504861
 21
253.10911942974474
  0
LINE
  8
_0-b_細線3
  6
CONTINUOUS
 62
    7
 10
569.69108252284082
 20
212.90911942974486
 11
562.89108252284086
 21
212.90911942974486
  0
ARC
  8
_0-b_細線3
  6
CONTINUOUS
 62
    7
 10
591.69108252577189
 20
258.90911942974446
 40
2
 50
89.999999999999915
 51
179.99999999999983
  0
ARC
  8
_0-b_細線3
  6
CONTINUOUS
 62
    7
 10
592.6269809084265
 20
262.90911942974458
 40
2
 50
269.99999999999977
 51
329.9999999999979
  0
ARC
  8
_0-b_細線3
  6
CONTINUOUS
 62
    7
 10
596.0910825235643
 20
260.90911942974481
 40
2
 50
89.999999999999915
 51
150.00000000000793
  0
LINE
  8
_0-b_細線3
  6
CONTINUOUS
 62
    7
 10
591.69108252577189
 20
260.90911942974481
 11
592.6269809084265
 21
260.90911942974481
  0
ARC
  8
_0-b_細線3
  6
CONTINUOUS
 62
    7
 10
610.4910825213575
 20
258.90911942974446
 40
2
 50
0
 51
89.999999999999915
  0
ARC
  8
_0-b_細線3
  6
CONTINUOUS
 62
    7
 10
609.55518413870232
 20
262.90911942974458
 40
2
 50
209.99999999999486
 51
269.99999999999977
  0
ARC
  8
_0-b_細線3
  6
CONTINUOUS
 62
    7
 10
606.09108252356441
 20
260.90911942974481
 40
2
 50
29.999999999998597
 51
89.999999999999901
  0
LINE
  8
_0-b_細線3
  6
CONTINUOUS
 62
    7
 10
610.4910825213575
 20
260.90911942974481
 11
609.55518413870232
 21
260.90911942974481
  0
ARC
  8
_0-b_細線3
  6
CONTINUOUS
 62
    7
 10
590.69108252577212
 20
256.10911942974474
 40
1
 50
179.99999999999983
 51
269.99999999999977
  0
LINE
  8
_0-b_細線3
  6
CONTINUOUS
 62
    7
 10
589.69108252577144
 20
258.90911942974446
 11
589.69108252577144
 21
256.10911942974474
  0
ARC
  8
_0-b_細線3
  6
CONTINUOUS
 62
    7
 10
611.49108252135716
 20
256.10911942974474
 40
1
 50
269.99999999999977
 51
359.99999999999966
  0
LINE
  8
_0-b_細線3
  6
CONTINUOUS
 62
    7
 10
612.49108252135738
 20
258.90911942974446
 11
612.49108252135738
 21
256.10911942974474
  0
ARC
  8
_0-b_細線3
  6
CONTINUOUS
 62
    7
 10
595.69108252577155
 20
253.10911942974474
 40
2
 50
0
 51
89.999999999999915
  0
LINE
  8
_0-b_細線3
  6
CONTINUOUS
 62
    7
 10
595.69108252577155
 20
255.10911942974462
 11
590.69108252577212
 21
255.10911942974462
  0
ARC
  8
_0-b_細線3
  6
CONTINUOUS
 62
    7
 10
606.49108252577207
 20
253.10911942974474
 40
2
 50
89.999999999999915
 51
179.99999999999983
  0
LINE
  8
_0-b_細線3
  6
CONTINUOUS
 62
    7
 10
606.49108252135738
 20
255.10911942974462
 11
611.49108252135716
 21
255.10911942974462
  0
LINE
  8
_0-b_細線3
  6
CONTINUOUS
 62
    7
 10
606.09108252356441
 20
262.90911942974458
 11
596.0910825235643
 21
262.90911942974458
  0
LINE
  8
_0-b_細線3
  6
CONTINUOUS
 62
    7
 10
597.69108252356455
 20
212.90911942974486
 11
597.69108252577189
 21
253.10911942974474
  0
LINE
  8
_0-b_細線3
  6
CONTINUOUS
 62
    7
 10
604.49108252356439
 20
212.90911942974486
 11
604.49108252577219
 21
253.10911942974474
  0
LINE
  8
_0-b_細線3
  6
CONTINUOUS
 62
    7
 10
604.49108252356439
 20
212.90911942974486
 11
597.69108252356455
 21
212.90911942974486
  0
ARC
  8
_0-b_細線3
  6
CONTINUOUS
 62
    7
 10
626.49108252649557
 20
258.90911942974446
 40
2
 50
89.999999999999915
 51
179.99999999999983
  0
ARC
  8
_0-b_細線3
  6
CONTINUOUS
 62
    7
 10
627.42698090915019
 20
262.90911942974458
 40
2
 50
269.99999999999977
 51
329.9999999999979
  0
ARC
  8
_0-b_細線3
  6
CONTINUOUS
 62
    7
 10
630.89108252428798
 20
260.90911942974481
 40
2
 50
89.999999999999915
 51
150.00000000000793
  0
LINE
  8
_0-b_細線3
  6
CONTINUOUS
 62
    7
 10
626.49108252649557
 20
260.90911942974481
 11
627.42698090915019
 21
260.90911942974481
  0
ARC
  8
_0-b_細線3
  6
CONTINUOUS
 62
    7
 10
645.29108252208118
 20
258.90911942974446
 40
2
 50
0
 51
89.999999999999915
  0
ARC
  8
_0-b_細線3
  6
CONTINUOUS
 62
    7
 10
644.355184139426
 20
262.90911942974458
 40
2
 50
210.00000000000136
 51
269.99999999999977
  0
ARC
  8
_0-b_細線3
  6
CONTINUOUS
 62
    7
 10
640.89108252428821
 20
260.90911942974481
 40
2
 50
29.999999999992085
 51
89.999999999983714
  0
LINE
  8
_0-b_細線3
  6
CONTINUOUS
 62
    7
 10
645.29108252208118
 20
260.90911942974481
 11
644.355184139426
 21
260.90911942974481
  0
ARC
  8
_0-b_細線3
  6
CONTINUOUS
 62
    7
 10
625.49108252649535
 20
256.10911942974474
 40
1
 50
179.99999999999983
 51
269.99999999999977
  0
LINE
  8
_0-b_細線3
  6
CONTINUOUS
 62
    7
 10
624.49108252649512
 20
258.90911942974446
 11
624.49108252649512
 21
256.10911942974474
  0
ARC
  8
_0-b_細線3
  6
CONTINUOUS
 62
    7
 10
646.29108252208084
 20
256.10911942974474
 40
1
 50
269.99999999999977
 51
359.99999999999966
  0
LINE
  8
_0-b_細線3
  6
CONTINUOUS
 62
    7
 10
647.29108252208107
 20
258.90911942974446
 11
647.29108252208107
 21
256.10911942974474
  0
ARC
  8
_0-b_細線3
  6
CONTINUOUS
 62
    7
 10
630.49108252649512
 20
253.10911942974474
 40
2
 50
0
 51
89.999999999999915
  0
LINE
  8
_0-b_細線3
  6
CONTINUOUS
 62
    7
 10
630.49108252649512
 20
255.10911942974462
 11
625.49108252649535
 21
255.10911942974462
  0
ARC
  8
_0-b_細線3
  6
CONTINUOUS
 62
    7
 10
641.29108252649519
 20
253.10911942974474
 40
2
 50
89.999999999999915
 51
179.99999999999983
  0
LINE
  8
_0-b_細線3
  6
CONTINUOUS
 62
    7
 10
641.2910825220805
 20
255.10911942974462
 11
646.29108252208084
 21
255.10911942974462
  0
LINE
  8
_0-b_細線3
  6
CONTINUOUS
 62
    7
 10
640.89108252428821
 20
262.90911942974458
 11
630.89108252428798
 21
262.90911942974458
  0
LINE
  8
_0-b_細線3
  6
CONTINUOUS
 62
    7
 10
632.49108252428823
 20
212.90911942974486
 11
632.49108252649557
 21
253.10911942974474
  0
LINE
  8
_0-b_細線3
  6
CONTINUOUS
 62
    7
 10
639.29108252428796
 20
212.90911942974486
 11
639.29108252649587
 21
253.10911942974474
  0
LINE
  8
_0-b_細線3
  6
CONTINUOUS
 62
    7
 10
639.29108252428796
 20
212.90911942974486
 11
632.49108252428823
 21
212.90911942974486
  0
ARC
  8
_0-b_細線3
  6
CONTINUOUS
 62
    7
 10
487.29108252322067
 20
258.90911942974446
 40
2
 50
89.999999999999915
 51
179.99999999999983
  0
ARC
  8
_0-b_細線3
  6
CONTINUOUS
 62
    7
 10
488.22698090587545
 20
262.90911942974458
 40
2
 50
269.99999999999977
 51
330.00000000000443
  0
ARC
  8
_0-b_細線3
  6
CONTINUOUS
 62
    7
 10
491.69108252101319
 20
260.90911942974481
 40
2
 50
89.999999999999915
 51
150.00000000000142
  0
LINE
  8
_0-b_細線3
  6
CONTINUOUS
 62
    7
 10
487.29108252322067
 20
260.90911942974481
 11
488.22698090587545
 21
260.90911942974481
  0
ARC
  8
_0-b_細線3
  6
CONTINUOUS
 62
    7
 10
506.09108251880639
 20
258.90911942974446
 40
2
 50
0
 51
89.999999999999915
  0
ARC
  8
_0-b_細線3
  6
CONTINUOUS
 62
    7
 10
505.15518413615172
 20
262.90911942974458
 40
2
 50
209.99999999999486
 51
269.99999999999977
  0
ARC
  8
_0-b_細線3
  6
CONTINUOUS
 62
    7
 10
501.69108252101341
 20
260.90911942974481
 40
2
 50
29.999999999991271
 51
89.999999999985349
  0
LINE
  8
_0-b_細線3
  6
CONTINUOUS
 62
    7
 10
506.09108251880639
 20
260.90911942974481
 11
505.15518413615172
 21
260.90911942974481
  0
ARC
  8
_0-b_細線3
  6
CONTINUOUS
 62
    7
 10
486.29108252322112
 20
256.10911942974474
 40
1
 50
179.99999999999983
 51
269.99999999999977
  0
LINE
  8
_0-b_細線3
  6
CONTINUOUS
 62
    7
 10
485.29108252322038
 20
258.90911942974446
 11
485.29108252322038
 21
256.10911942974474
  0
ARC
  8
_0-b_細線3
  6
CONTINUOUS
 62
    7
 10
507.09108251880599
 20
256.10911942974474
 40
1
 50
269.99999999999977
 51
359.99999999999966
  0
LINE
  8
_0-b_細線3
  6
CONTINUOUS
 62
    7
 10
508.09108251880679
 20
258.90911942974446
 11
508.09108251880679
 21
256.10911942974474
  0
ARC
  8
_0-b_細線3
  6
CONTINUOUS
 62
    7
 10
491.29108252322038
 20
253.10911942974474
 40
2
 50
0
 51
89.999999999999915
  0
LINE
  8
_0-b_細線3
  6
CONTINUOUS
 62
    7
 10
491.29108252322038
 20
255.10911942974462
 11
486.29108252322112
 21
255.10911942974462
  0
ARC
  8
_0-b_細線3
  6
CONTINUOUS
 62
    7
 10
502.09108252322085
 20
253.10911942974474
 40
2
 50
89.999999999999915
 51
179.99999999999983
  0
LINE
  8
_0-b_細線3
  6
CONTINUOUS
 62
    7
 10
502.09108251880616
 20
255.10911942974462
 11
507.09108251880599
 21
255.10911942974462
  0
LINE
  8
_0-b_細線3
  6
CONTINUOUS
 62
    7
 10
501.69108252101341
 20
262.90911942974458
 11
491.69108252101319
 21
262.90911942974458
  0
LINE
  8
_0-b_細線3
  6
CONTINUOUS
 62
    7
 10
493.29108252101395
 20
212.90911942974486
 11
493.29108252322067
 21
253.10911942974474
  0
LINE
  8
_0-b_細線3
  6
CONTINUOUS
 62
    7
 10
500.09108252101322
 20
212.90911942974486
 11
500.09108252322108
 21
253.10911942974474
  0
LINE
  8
_0-b_細線3
  6
CONTINUOUS
 62
    7
 10
500.09108252101322
 20
212.90911942974486
 11
493.29108252101395
 21
212.90911942974486
  0
ARC
  8
_0-b_細線3
  6
CONTINUOUS
 62
    7
 10
522.09108252394435
 20
258.90911942974446
 40
2
 50
89.999999999999915
 51
179.99999999999983
  0
ARC
  8
_0-b_細線3
  6
CONTINUOUS
 62
    7
 10
523.02698090659965
 20
262.90911942974458
 40
2
 50
269.99999999999977
 51
329.99999999998812
  0
ARC
  8
_0-b_細線3
  6
CONTINUOUS
 62
    7
 10
526.49108252173687
 20
260.90911942974481
 40
2
 50
89.999999999999915
 51
150.00000000000955
  0
LINE
  8
_0-b_細線3
  6
CONTINUOUS
 62
    7
 10
522.09108252394435
 20
260.90911942974481
 11
523.02698090659965
 21
260.90911942974481
  0
ARC
  8
_0-b_細線3
  6
CONTINUOUS
 62
    7
 10
540.89108251953007
 20
258.90911942974446
 40
2
 50
0
 51
89.999999999999915
  0
ARC
  8
_0-b_細線3
  6
CONTINUOUS
 62
    7
 10
539.95518413687478
 20
262.90911942974458
 40
2
 50
210.00000000000298
 51
269.99999999999977
  0
ARC
  8
_0-b_細線3
  6
CONTINUOUS
 62
    7
 10
536.49108252173755
 20
260.90911942974481
 40
2
 50
29.999999999998597
 51
89.999999999999901
  0
LINE
  8
_0-b_細線3
  6
CONTINUOUS
 62
    7
 10
540.89108251953007
 20
260.90911942974481
 11
539.95518413687478
 21
260.90911942974481
  0
ARC
  8
_0-b_細線3
  6
CONTINUOUS
 62
    7
 10
521.09108252394458
 20
256.10911942974474
 40
1
 50
179.99999999999983
 51
269.99999999999977
  0
LINE
  8
_0-b_細線3
  6
CONTINUOUS
 62
    7
 10
520.09108252394458
 20
258.90911942974446
 11
520.09108252394458
 21
256.10911942974474
  0
ARC
  8
_0-b_細線3
  6
CONTINUOUS
 62
    7
 10
541.89108251952962
 20
256.10911942974474
 40
1
 50
269.99999999999977
 51
359.99999999999966
  0
LINE
  8
_0-b_細線3
  6
CONTINUOUS
 62
    7
 10
542.89108251952985
 20
258.90911942974446
 11
542.89108251952985
 21
256.10911942974474
  0
ARC
  8
_0-b_細線3
  6
CONTINUOUS
 62
    7
 10
526.09108252394458
 20
253.10911942974474
 40
2
 50
0
 51
89.999999999999915
  0
LINE
  8
_0-b_細線3
  6
CONTINUOUS
 62
    7
 10
526.09108252394458
 20
255.10911942974462
 11
521.09108252394458
 21
255.10911942974462
  0
ARC
  8
_0-b_細線3
  6
CONTINUOUS
 62
    7
 10
536.89108252394453
 20
253.10911942974474
 40
2
 50
89.999999999999915
 51
179.99999999999983
  0
LINE
  8
_0-b_細線3
  6
CONTINUOUS
 62
    7
 10
536.89108251952985
 20
255.10911942974462
 11
541.89108251952962
 21
255.10911942974462
  0
LINE
  8
_0-b_細線3
  6
CONTINUOUS
 62
    7
 10
536.49108252173755
 20
262.90911942974458
 11
526.49108252173687
 21
262.90911942974458
  0
LINE
  8
_0-b_細線3
  6
CONTINUOUS
 62
    7
 10
528.09108252173701
 20
212.90911942974486
 11
528.09108252394435
 21
253.10911942974474
  0
LINE
  8
_0-b_細線3
  6
CONTINUOUS
 62
    7
 10
534.89108252173742
 20
212.90911942974486
 11
534.89108252394476
 21
253.10911942974474
  0
LINE
  8
_0-b_細線3
  6
CONTINUOUS
 62
    7
 10
534.89108252173742
 20
212.90911942974486
 11
528.09108252173701
 21
212.90911942974486
  0
LINE
  8
_0-d_寸法3
  6
CONTINUOUS
 62
    7
 10
645.7209070561355
 20
219.79203666595743
 11
688.14371712695811
 21
249.49680806958625
  0
LINE
  8
_0-d_寸法3
  6
CONTINUOUS
 62
    7
 10
683.22880486122415
 20
246.05534945147997
 11
680.12297631999377
 21
257.64645936694882
  0
LINE
  8
_0-d_寸法3
  6
CONTINUOUS
 62
    7
 10
683.22880486122415
 20
246.05534945147997
 11
686.33463340245441
 21
257.64645936694882
  0
LINE
  8
_0-d_寸法3
  6
CONTINUOUS
 62
    7
 10
645.7209070561355
 20
269.79203666595714
 11
688.14371712695811
 21
299.49680806958611
  0
LINE
  8
_0-d_寸法3
  6
CONTINUOUS
 62
    7
 10
683.22880486122415
 20
296.05534945147986
 11
686.3346334024543
 21
284.46423953601095
  0
LINE
  8
_0-d_寸法3
  6
CONTINUOUS
 62
    7
 10
683.22880486122415
 20
296.05534945147986
 11
680.12297631999377
 21
284.46423953601106
  0
LINE
  8
_0-d_寸法3
  6
CONTINUOUS
 62
    7
 10
683.22880486122415
 20
246.05534945147997
 11
683.22880486122415
 21
296.05534945147986
  0
TEXT
  8
_0-d_寸法3
 62
    7
 10
683.22880486122415
 20
262.05534945148122
 40
18
 41
1
 50
90
  1
25
  0
LINE
  8
_0-a_極細3
  6
CENTER1
 62
    7
 10
660.84960291119626
 20
240.50911942974449
 11
465.75535175768528
 21
240.50911942974449
  0
LINE
  8
_0-b_細線3
  6
CONTINUOUS
 62
    7
 10
569.69108252394471
 20
227.50911942974463
 11
597.69108252394483
 21
227.50911942974463
  0
LINE
  8
_0-b_細線3
  6
CONTINUOUS
 62
    7
 10
604.49108252466817
 20
227.50911942974463
 11
632.49108252466851
 21
227.50911942974463
  0
LINE
  8
_0-b_細線3
  6
CONTINUOUS
 62
    7
 10
500.09108252211718
 20
227.50911942974463
 11
528.0910825221174
 21
227.50911942974463
  0
LINE
  8
_0-b_細線3
  6
CONTINUOUS
 62
    7
 10
534.89108252284132
 20
227.50911942974463
 11
562.89108252284086
 21
227.50911942974463
  0
LINE
  8
_0-b_細線3
  6
CONTINUOUS
 62
    7
 10
569.69108252394471
 20
253.50911942974471
 11
597.69108252394483
 21
253.50911942974471
  0
LINE
  8
_0-b_細線3
  6
CONTINUOUS
 62
    7
 10
604.49108252466817
 20
253.50911942974471
 11
632.49108252466851
 21
253.50911942974471
  0
LINE
  8
_0-b_細線3
  6
CONTINUOUS
 62
    7
 10
500.09108252211718
 20
253.50911942974471
 11
528.0910825221174
 21
253.50911942974471
  0
LINE
  8
_0-b_細線3
  6
CONTINUOUS
 62
    7
 10
534.89108252284132
 20
253.50911942974471
 11
562.89108252284086
 21
253.50911942974471
  0
LINE
  8
_0-b_細線3
  6
CONTINUOUS
 62
    7
 10
639.29108252539197
 20
253.50911942974471
 11
652.20199819435209
 21
253.50911942974471
  0
LINE
  8
_0-b_細線3
  6
CONTINUOUS
 62
    7
 10
639.29108252539197
 20
227.50911942974463
 11
655.45216460521942
 21
227.50911942974463
  0
LINE
  8
_0-b_細線3
  6
CONTINUOUS
 62
    7
 10
478.29821966835129
 20
253.50911942974471
 11
493.29108252139372
 21
253.50911942974471
  0
LINE
  8
_0-b_細線3
  6
CONTINUOUS
 62
    7
 10
481.54838607921857
 20
227.50911942974463
 11
493.29108252139372
 21
227.50911942974463
  0
TEXT
  8
_0-7_枠細線
 62
    5
 10
518.61108252173653
 20
154.24855932442728
 40
30.000000000000007
 41
0.8
 50
0
  1
断面詳細
  0
TEXT
  8
_0-7_枠細線
 62
    5
 10
644.54984622073835
 20
157.79988710881102
 40
24
 41
0.6
 50
0
  1
Ｓ＝１：３
  0
LINE
  8
_0-7_枠細線
  6
CONTINUOUS
 62
    5
 10
814.42659877990309
 20
976.1593479079695
 11
805.42659877990309
 21
958.1593479079695
  0
LINE
  8
_0-7_枠細線
  6
CONTINUOUS
 62
    5
 10
805.42659877990309
 20
958.1593479079695
 11
823.42659877990309
 21
958.1593479079695
  0
LINE
  8
_0-7_枠細線
  6
CONTINUOUS
 62
    5
 10
823.42659877990309
 20
958.1593479079695
 11
814.42659877990309
 21
976.1593479079695
  0
TEXT
  8
_0-7_枠細線
 62
    5
 10
811.26478030168073
 20
957.50212723975187
 40
15
 41
0.8
 50
0
  1
1
  0
LINE
  8
_0-0_計極細
  6
CENTER1
 62
    2
 10
1356.482939430445
 20
790.32749879426137
 11
1356.482939430445
 21
828.39749879426518
  0
LINE
  8
_0-1_計細線
  6
CONTINUOUS
 62
    3
 10
1358.8329394309974
 20
820.23901874433159
 11
1358.8329394309974
 21
800.23901874433125
  0
LINE
  8
_0-1_計細線
  6
CONTINUOUS
 62
    3
 10
1354.1329394309964
 20
800.23901874433125
 11
1354.1329394309964
 21
820.23901874433159
  0
LINE
  8
_0-1_計細線
  6
CONTINUOUS
 62
    3
 10
1358.8329394309974
 20
800.23901874433125
 11
1354.1329394309964
 21
800.23901874433125
  0
LINE
  8
_0-1_計細線
  6
CONTINUOUS
 62
    3
 10
1354.1329394309964
 20
820.23901874433159
 11
1358.8329394309974
 21
820.23901874433159
  0
LINE
  8
_0-1_計細線
  6
DASHED2
 62
    3
 10
1354.1329394309964
 20
803.23901874433125
 11
1358.8329394309974
 21
803.23901874433125
  0
LINE
  8
_0-1_計細線
  6
DASHED2
 62
    3
 10
1354.1329394309964
 20
817.23901874433159
 11
1358.8329394309974
 21
817.23901874433159
  0
LINE
  8
_0-0_計極細
  6
CONTINUOUS
 62
    2
 10
1126.482939430445
 20
820.03899648553158
 11
1067.9762911433761
 21
820.03899648553158
  0
CIRCLE
  8
_0-0_計極細
  6
CONTINUOUS
 62
    2
 10
1108.5908608863133
 20
808.27363532811921
 40
1.0953188836088352
  0
LINE
  8
_0-0_計極細
  6
CONTINUOUS
 62
    2
 10
1116.1817476238664
 20
813.03899648185518
 11
1121.4829394304447
 21
818.34018828843341
  0
LINE
  8
_0-0_計極細
  6
CONTINUOUS
 62
    2
 10
1103.453825553682
 20
813.03899647302853
 11
1110.4538255661851
 21
820.03899648553124
  0
LINE
  8
_0-0_計極細
  6
CONTINUOUS
 62
    2
 10
1090.7259034834972
 20
813.03899646420155
 11
1097.7259035048271
 21
820.03899648553158
  0
LINE
  8
_0-0_計極細
  6
CONTINUOUS
 62
    2
 10
1077.9979814133128
 20
813.03899645537456
 11
1084.9979814434691
 21
820.03899648553158
  0
LINE
  8
_0-0_計極細
  6
CONTINUOUS
 62
    2
 10
1067.9762911433761
 20
815.74522824679616
 11
1072.2700593821116
 21
820.03899648553124
  0
LINE
  8
_0-0_計極細
  6
DASHED2
 62
    2
 10
1109.8177865887744
 20
813.03899647744151
 11
1116.8177865968644
 21
820.03899648553158
  0
LINE
  8
_0-0_計極細
  6
DASHED2
 62
    2
 10
1097.0898645185894
 20
813.03899646861487
 11
1104.0898645355062
 21
820.03899648553158
  0
LINE
  8
_0-0_計極細
  6
DASHED2
 62
    2
 10
1084.3619424484052
 20
813.03899645978822
 11
1091.3619424741478
 21
820.03899648553158
  0
LINE
  8
_0-0_計極細
  6
DASHED2
 62
    2
 10
1071.6340203782199
 20
813.03899645096158
 11
1078.6340204127903
 21
820.03899648553158
  0
LINE
  8
_0-0_計極細
  6
CONTINUOUS
 62
    2
 10
1126.3640852766291
 20
813.03899648553147
 11
1126.482939430445
 21
813.15785063934709
  0
LINE
  8
_0-0_計極細
  6
CONTINUOUS
 62
    2
 10
1123.8185008643579
 20
813.03899648553147
 11
1126.482939430445
 21
815.70343505161827
  0
LINE
  8
_0-0_計極細
  6
CONTINUOUS
 62
    2
 10
1121.4829394304447
 20
813.24901946388991
 11
1126.482939430445
 21
818.24901946388991
  0
LINE
  8
_0-0_計極細
  6
CONTINUOUS
 62
    2
 10
1121.4829394304447
 20
815.79460387616177
 11
1125.7273320398147
 21
820.03899648553158
  0
LINE
  8
_0-0_計極細
  6
CONTINUOUS
 62
    2
 10
1121.4829394304447
 20
818.34018828843341
 11
1123.181747627543
 21
820.03899648553158
  0
LINE
  8
_0-0_計極細
  6
CONTINUOUS
 62
    2
 10
1126.482939430445
 20
818.67041636217618
 11
1125.1143593070899
 21
820.03899648553158
  0
LINE
  8
_0-0_計極細
  6
CONTINUOUS
 62
    2
 10
1126.482939430445
 20
816.12483194990466
 11
1122.568774894818
 21
820.03899648553158
  0
LINE
  8
_0-0_計極細
  6
CONTINUOUS
 62
    2
 10
1121.4829394304447
 20
818.57924753763314
 11
1126.482939430445
 21
813.57924753763314
  0
LINE
  8
_0-0_計極細
  6
CONTINUOUS
 62
    2
 10
1121.4829394304447
 20
816.0336631253615
 11
1124.4776060702748
 21
813.03899648553147
  0
LINE
  8
_0-0_計極細
  6
CONTINUOUS
 62
    2
 10
1121.4829394304447
 20
813.48807871308998
 11
1121.9320216580034
 21
813.03899648553147
  0
LINE
  8
_0-0_計極細
  6
CONTINUOUS
 62
    2
 10
1126.482939430445
 20
819.53899648553136
 11
1126.482939430445
 21
820.03899648553158
  0
LINE
  8
_0-0_計極細
  6
CONTINUOUS
 62
    2
 10
1126.482939430445
 20
813.03899648553147
 11
1067.9762911433761
 21
813.03899648553147
  0
LINE
  8
_0-0_計極細
  6
CONTINUOUS
 62
    2
 10
1121.4829394304447
 20
820.03899648553158
 11
1121.4829394304447
 21
813.03899648553147
  0
CIRCLE
  8
_0-0_計極細
  6
CONTINUOUS
 62
    2
 10
1099.8930831085356
 20
809.94770940219394
 40
0.3318518518518431
  0
CIRCLE
  8
_0-0_計極細
  6
CONTINUOUS
 62
    2
 10
1118.4530831085356
 20
811.01437606886077
 40
0.3318518518518431
  0
LINE
  8
_0-0_計極細
  6
CENTER1
 62
    2
 10
1106.982939430445
 20
742.07295231485955
 11
1106.982939430445
 21
776.05576539328638
  0
LINE
  8
_0-0_計極細
  6
CONTINUOUS
 62
    2
 10
1102.482939430445
 20
773.49033329452072
 11
1102.482939430445
 21
747.03899648553124
  0
LINE
  8
_0-0_計極細
  6
CONTINUOUS
 62
    2
 10
1111.482939430445
 20
773.49033329452072
 11
1102.482939430445
 21
773.49033329452072
  0
LINE
  8
_0-0_計極細
  6
CONTINUOUS
 62
    2
 10
1111.482939430445
 20
747.03899648553124
 11
1111.482939430445
 21
773.49033329452072
  0
LINE
  8
_0-0_計極細
  6
CENTER1
 62
    2
 10
1095.7865478179924
 20
765.11445595255225
 11
1134.2051601075323
 21
779.09768724357309
  0
LINE
  8
_0-0_計極細
  6
CONTINUOUS
 62
    2
 10
1100.2988984981537
 20
761.96801718303323
 11
1133.3735053923626
 21
774.006189602581
  0
LINE
  8
_0-0_計極細
  6
CONTINUOUS
 62
    2
 10
1097.2207172082228
 20
770.42525077010646
 11
1130.2953241024311
 21
782.46342318965435
  0
LINE
  8
_0-0_計極細
  6
CONTINUOUS
 62
    2
 10
1130.2953241024311
 20
782.46342318965435
 11
1133.3735053923626
 21
774.006189602581
  0
LINE
  8
_0-0_計極細
  6
CONTINUOUS
 62
    2
 10
1100.2988984981537
 20
761.96801718303323
 11
1097.2207172082228
 21
770.42525077010646
  0
CIRCLE
  8
_0-0_計極細
  6
CONTINUOUS
 62
    2
 10
1145.1330831085327
 20
770.98030199478694
 40
1.0953188836088352
  0
CIRCLE
  8
_0-0_計極細
  6
CONTINUOUS
 62
    2
 10
1152.5553053307578
 20
736.02740011562594
 40
0.3318518518518431
  0
CIRCLE
  8
_0-0_計極細
  6
CONTINUOUS
 62
    2
 10
1151.7553053307572
 20
749.62104273552779
 40
0.3318518518518431
  0
CIRCLE
  8
_0-0_計極細
  6
CONTINUOUS
 62
    2
 10
1152.3504789418678
 20
782.44696866145375
 40
1.0953188836088352
  0
LINE
  8
_0-0_計極細
  6
CONTINUOUS
 62
    2
 10
1156.482939430445
 20
792.03899648553124
 11
1156.482939430445
 21
731.29403630866432
  0
LINE
  8
_0-0_計極細
  6
CONTINUOUS
 62
    2
 10
1155.9829394304447
 20
792.03899648553124
 11
1156.482939430445
 21
792.03899648553124
  0
CIRCLE
  8
_0-0_計極細
  6
CONTINUOUS
 62
    2
 10
1072.7975635630271
 20
801.06030199478676
 40
1.0953188836088352
  0
CIRCLE
  8
_0-0_計極細
  6
CONTINUOUS
 62
    2
 10
1145.4664164418684
 20
738.8469686614543
 40
1.0953188836088352
  0
CIRCLE
  8
_0-0_計極細
  6
CONTINUOUS
 62
    2
 10
1142.5864164418686
 20
750.04696866145389
 40
1.0953188836088352
  0
CIRCLE
  8
_0-0_計極細
  6
CONTINUOUS
 62
    2
 10
1120.9997497752017
 20
752.20696866145386
 40
1.0953188836088352
  0
CIRCLE
  8
_0-0_計極細
  6
CONTINUOUS
 62
    2
 10
1089.0797497752023
 20
759.88696866145369
 40
1.0953188836088352
  0
CIRCLE
  8
_0-0_計極細
  6
CONTINUOUS
 62
    2
 10
1100.8397497752019
 20
782.68696866145365
 40
1.0953188836088352
  0
CIRCLE
  8
_0-0_計極細
  6
CONTINUOUS
 62
    2
 10
1114.2797497752024
 20
776.60696866145372
 40
1.0953188836088352
  0
CIRCLE
  8
_0-0_計極細
  6
CONTINUOUS
 62
    2
 10
1084.9158112876746
 20
800.52473722627201
 40
1.0953188836088352
  0
CIRCLE
  8
_0-0_計極細
  6
CONTINUOUS
 62
    2
 10
1115.973083108536
 20
796.36696866145326
 40
1.0953188836088352
  0
CIRCLE
  8
_0-0_計極細
  6
CONTINUOUS
 62
    2
 10
1128.1464164418692
 20
783.17659829108311
 40
0.3318518518518431
  0
CIRCLE
  8
_0-0_計極細
  6
CONTINUOUS
 62
    2
 10
1149.293083108535
 20
765.33659829108342
 40
0.3318518518518431
  0
CIRCLE
  8
_0-0_計極細
  6
CONTINUOUS
 62
    2
 10
1148.9730831085351
 20
776.1099316244165
 40
0.3318518518518431
  0
CIRCLE
  8
_0-0_計極細
  6
CONTINUOUS
 62
    2
 10
1139.9064164418683
 20
782.08326495774963
 40
0.3318518518518431
  0
CIRCLE
  8
_0-0_計極細
  6
CONTINUOUS
 62
    2
 10
1131.0530831085352
 20
761.60326495775007
 40
0.3318518518518431
  0
CIRCLE
  8
_0-0_計極細
  6
CONTINUOUS
 62
    2
 10
1141.0530831085355
 20
735.43437606886141
 40
0.3318518518518431
  0
CIRCLE
  8
_0-0_計極細
  6
CONTINUOUS
 62
    2
 10
1145.2130831085353
 20
744.39437606886145
 40
0.3318518518518431
  0
CIRCLE
  8
_0-0_計極細
  6
CONTINUOUS
 62
    2
 10
1136.9997497752017
 20
753.35437606886114
 40
0.3318518518518431
  0
CIRCLE
  8
_0-0_計極細
  6
CONTINUOUS
 62
    2
 10
1129.2130831085356
 20
751.43437606886118
 40
0.3318518518518431
  0
CIRCLE
  8
_0-0_計極細
  6
CONTINUOUS
 62
    2
 10
1117.2664164418691
 20
750.79437606886097
 40
0.3318518518518431
  0
CIRCLE
  8
_0-0_計極細
  6
CONTINUOUS
 62
    2
 10
1119.3997497752021
 20
756.34104273552771
 40
0.3318518518518431
  0
CIRCLE
  8
_0-0_計極細
  6
CONTINUOUS
 62
    2
 10
1115.6664164418685
 20
757.83437606886116
 40
0.3318518518518431
  0
CIRCLE
  8
_0-0_計極細
  6
CONTINUOUS
 62
    2
 10
1122.386416441869
 20
761.14104273552766
 40
0.3318518518518431
  0
CIRCLE
  8
_0-0_計極細
  6
CONTINUOUS
 62
    2
 10
1098.8064164418688
 20
750.40770940219454
 40
0.3318518518518431
  0
CIRCLE
  8
_0-0_計極細
  6
CONTINUOUS
 62
    2
 10
1095.0730831085352
 20
755.52770940219443
 40
0.3318518518518431
  0
CIRCLE
  8
_0-0_計極細
  6
CONTINUOUS
 62
    2
 10
1089.8464164418688
 20
751.47437606886115
 40
0.3318518518518431
  0
CIRCLE
  8
_0-0_計極細
  6
CONTINUOUS
 62
    2
 10
1093.2597497752024
 20
762.24770940219435
 40
0.3318518518518431
  0
CIRCLE
  8
_0-0_計極細
  6
CONTINUOUS
 62
    2
 10
1117.9264164418689
 20
778.51437606886088
 40
0.3318518518518431
  0
CIRCLE
  8
_0-0_計極細
  6
CONTINUOUS
 62
    2
 10
1101.4997497752026
 20
774.14104273552766
 40
0.3318518518518431
  0
CIRCLE
  8
_0-0_計極細
  6
CONTINUOUS
 62
    2
 10
1110.353083108535
 20
782.24770940219423
 40
0.3318518518518431
  0
CIRCLE
  8
_0-0_計極細
  6
CONTINUOUS
 62
    2
 10
1117.9264164418689
 20
785.66104273552742
 40
0.3318518518518431
  0
CIRCLE
  8
_0-0_計極細
  6
CONTINUOUS
 62
    2
 10
1102.886416441869
 20
787.90104273552743
 40
0.3318518518518431
  0
CIRCLE
  8
_0-0_計極細
  6
CONTINUOUS
 62
    2
 10
1090.6197497752023
 20
788.6477094021941
 40
0.3318518518518431
  0
CIRCLE
  8
_0-0_計極細
  6
CONTINUOUS
 62
    2
 10
1106.933083108536
 20
795.98770940219435
 40
0.3318518518518431
  0
CIRCLE
  8
_0-0_計極細
  6
CONTINUOUS
 62
    2
 10
1121.8664164418683
 20
796.30770940219406
 40
0.3318518518518431
  0
CIRCLE
  8
_0-0_計極細
  6
CONTINUOUS
 62
    2
 10
1103.5197497752022
 20
800.04104273552753
 40
0.3318518518518431
  0
CIRCLE
  8
_0-0_計極細
  6
CONTINUOUS
 62
    2
 10
1086.453083108536
 20
793.00104273552734
 40
0.3318518518518431
  0
CIRCLE
  8
_0-0_計極細
  6
CONTINUOUS
 62
    2
 10
1078.8797497752028
 20
791.82770940219416
 40
0.3318518518518431
  0
CIRCLE
  8
_0-0_計極細
  6
CONTINUOUS
 62
    2
 10
1072.5153053307583
 20
791.18770940219429
 40
0.3318518518518431
  0
CIRCLE
  8
_0-0_計極細
  6
CONTINUOUS
 62
    2
 10
1078.7138238492769
 20
797.16104273552742
 40
0.3318518518518431
  0
LINE
  8
_0-0_計極細
  6
CONTINUOUS
 62
    2
 10
1114.0297546914514
 20
731.29403637852602
 11
1129.7747147984571
 21
747.03899648553124
  0
LINE
  8
_0-0_計極細
  6
CONTINUOUS
 62
    2
 10
1071.6033479522664
 20
731.29403651053417
 11
1087.3483079272639
 21
747.03899648553124
  0
LINE
  8
_0-0_計極細
  6
CONTINUOUS
 62
    2
 10
1067.9762911433761
 20
770.09338657283649
 11
1085.9219010560707
 21
788.0389964855317
  0
LINE
  8
_0-0_計極細
  6
CONTINUOUS
 62
    2
 10
1109.7871140175328
 20
731.29403639172688
 11
1125.5320741113371
 21
747.03899648553124
  0
LINE
  8
_0-0_計極細
  6
CONTINUOUS
 62
    2
 10
1067.9762911433761
 20
731.90962038876319
 11
1086.482939430445
 21
750.41626867583216
  0
LINE
  8
_0-0_計極細
  6
CONTINUOUS
 62
    2
 10
1067.9762911433761
 20
774.33602725995593
 11
1081.6792603689516
 21
788.0389964855317
  0
LINE
  8
_0-0_計極細
  6
CONTINUOUS
 62
    2
 10
1105.5444733436138
 20
731.29403640492785
 11
1121.2894334242178
 21
747.03899648553124
  0
LINE
  8
_0-0_計極細
  6
CONTINUOUS
 62
    2
 10
1067.9762911433761
 20
736.15226107588262
 11
1086.482939430445
 21
754.65890936295136
  0
LINE
  8
_0-0_計極細
  6
CONTINUOUS
 62
    2
 10
1067.9762911433761
 20
778.57866794707547
 11
1077.4366196818321
 21
788.0389964855317
  0
LINE
  8
_0-0_計極細
  6
CONTINUOUS
 62
    2
 10
1136.4829394304447
 20
747.03899648553124
 11
1136.4829394304447
 21
731.29403630866432
  0
LINE
  8
_0-0_計極細
  6
CONTINUOUS
 62
    2
 10
1086.482939430445
 20
788.0389964855317
 11
1067.9762911433761
 21
788.0389964855317
  0
LINE
  8
_0-0_計極細
  6
CONTINUOUS
 62
    2
 10
1136.4829394304447
 20
747.03899648553124
 11
1086.482939430445
 21
747.03899648553124
  0
LINE
  8
_0-0_計極細
  6
CONTINUOUS
 62
    2
 10
1086.482939430445
 20
788.0389964855317
 11
1086.482939430445
 21
747.03899648553124
  0
ARC
  8
_0-1_計細線
  6
CONTINUOUS
 62
    3
 10
1129.482939430445
 20
795.03899648553124
 40
3
 50
179.99999999999983
 51
269.99999999999977
  0
LINE
  8
_0-1_計細線
  6
CONTINUOUS
 62
    3
 10
1126.482939430445
 20
795.03899648553124
 11
1126.482939430445
 21
819.53899648553136
  0
LINE
  8
_0-1_計細線
  6
CONTINUOUS
 62
    3
 10
1129.482939430445
 20
792.03899648553124
 11
1155.9829394304447
 21
792.03899648553124
  0
LINE
  8
_0-1_計細線
  6
CONTINUOUS
 62
    3
 10
1156.482939430445
 20
792.5389964855317
 11
1155.9829394304447
 21
792.03899648553124
  0
LINE
  8
_0-1_計細線
  6
CONTINUOUS
 62
    3
 10
1156.482939430445
 20
794.53899648553158
 11
1156.482939430445
 21
792.5389964855317
  0
LINE
  8
_0-1_計細線
  6
CONTINUOUS
 62
    3
 10
1155.9829394304447
 20
795.03899648553124
 11
1156.482939430445
 21
794.53899648553158
  0
LINE
  8
_0-1_計細線
  6
CONTINUOUS
 62
    3
 10
1129.482939430445
 20
795.03899648553124
 11
1155.9829394304447
 21
795.03899648553124
  0
LINE
  8
_0-1_計細線
  6
CONTINUOUS
 62
    3
 10
1126.982939430445
 20
820.03899648553158
 11
1126.482939430445
 21
819.53899648553136
  0
LINE
  8
_0-1_計細線
  6
CONTINUOUS
 62
    3
 10
1128.9829394304447
 20
820.03899648553158
 11
1126.982939430445
 21
820.03899648553158
  0
LINE
  8
_0-1_計細線
  6
CONTINUOUS
 62
    3
 10
1129.482939430445
 20
819.53899648553136
 11
1128.9829394304447
 21
820.03899648553158
  0
LINE
  8
_0-1_計細線
  6
CONTINUOUS
 62
    3
 10
1129.482939430445
 20
795.03899648553124
 11
1129.482939430445
 21
819.53899648553136
  0
LINE
  8
_0-5_寸法線
  6
CONTINUOUS
 62
    7
 10
1126.4829394304447
 20
757.03899648553147
 11
1126.482939430444
 21
693.71627753241376
  0
LINE
  8
_0-5_寸法線
  6
CONTINUOUS
 62
    7
 10
1126.482939430444
 20
699.71627753241376
 11
1138.074049345913
 21
702.82210607364402
  0
LINE
  8
_0-5_寸法線
  6
CONTINUOUS
 62
    7
 10
1126.482939430444
 20
699.71627753241376
 11
1138.074049345913
 21
696.61044899118338
  0
LINE
  8
_0-5_寸法線
  6
CONTINUOUS
 62
    7
 10
1156.4829394304447
 20
780.03899648553124
 11
1156.4829394304436
 21
693.71627753241376
  0
LINE
  8
_0-5_寸法線
  6
CONTINUOUS
 62
    7
 10
1156.4829394304436
 20
699.71627753241376
 11
1144.8918295149747
 21
696.6104489911836
  0
LINE
  8
_0-5_寸法線
  6
CONTINUOUS
 62
    7
 10
1156.4829394304436
 20
699.71627753241376
 11
1144.8918295149747
 21
702.82210607364402
  0
LINE
  8
_0-5_寸法線
  6
CONTINUOUS
 62
    7
 10
1126.482939430444
 20
699.71627753241376
 11
1156.4829394304436
 21
699.71627753241376
  0
TEXT
  8
_0-5_寸法線
 62
    7
 10
1132.482939430444
 20
699.71627753241376
 40
18
 41
1
 50
0
  1
30
  0
LINE
  8
_0-0_計極細
  6
CONTINUOUS
 62
    2
 10
1586.4829394304447
 20
820.03899648553158
 11
1644.9895877175136
 21
820.03899648553158
  0
CIRCLE
  8
_0-0_計極細
  6
CONTINUOUS
 62
    2
 10
1591.2530831085339
 20
803.74493162441604
 40
0.3318518518518431
  0
LINE
  8
_0-0_計極細
  6
CONTINUOUS
 62
    2
 10
1632.5564226706263
 20
813.03899648553147
 11
1639.5564222945529
 21
820.03899610945814
  0
LINE
  8
_0-0_計極細
  6
CONTINUOUS
 62
    2
 10
1619.828500609269
 20
813.03899648553147
 11
1626.8285003327642
 21
820.038996209027
  0
LINE
  8
_0-0_計極細
  6
CONTINUOUS
 62
    2
 10
1607.1005785479106
 20
813.03899648553147
 11
1614.1005783709757
 21
820.03899630859621
  0
LINE
  8
_0-0_計極細
  6
CONTINUOUS
 62
    2
 10
1594.3726564865533
 20
813.03899648553147
 11
1601.3726564091874
 21
820.03899640816542
  0
LINE
  8
_0-0_計極細
  6
DASHED2
 62
    2
 10
1638.9203837013051
 20
813.03899648553147
 11
1644.9895877175136
 21
819.10820050173925
  0
LINE
  8
_0-0_計極細
  6
DASHED2
 62
    2
 10
1626.1924616399469
 20
813.03899648553147
 11
1633.1924613136584
 21
820.0389961592424
  0
LINE
  8
_0-0_計極細
  6
DASHED2
 62
    2
 10
1613.4645395785897
 20
813.03899648553147
 11
1620.4645393518701
 21
820.03899625881161
  0
LINE
  8
_0-0_計極細
  6
DASHED2
 62
    2
 10
1600.7366175172317
 20
813.03899648553147
 11
1607.7366173900807
 21
820.03899635838081
  0
LINE
  8
_0-0_計極細
  6
DASHED2
 62
    2
 10
1591.4829394304447
 20
816.51324046010222
 11
1595.008695428292
 21
820.03899645795002
  0
LINE
  8
_0-0_計極細
  6
CONTINUOUS
 62
    2
 10
1591.4829394304447
 20
815.24044825396595
 11
1589.2814876620093
 21
813.03899648553147
  0
LINE
  8
_0-0_計極細
  6
CONTINUOUS
 62
    2
 10
1591.4829394304447
 20
817.78603266623759
 11
1586.7359032497384
 21
813.03899648553147
  0
LINE
  8
_0-0_計極細
  6
CONTINUOUS
 62
    2
 10
1586.4829394304447
 20
815.33161707850945
 11
1591.1903188374667
 21
820.03899648553158
  0
LINE
  8
_0-0_計極細
  6
CONTINUOUS
 62
    2
 10
1586.4829394304447
 20
817.87720149078109
 11
1588.6447344251951
 21
820.03899648553124
  0
LINE
  8
_0-0_計極細
  6
CONTINUOUS
 62
    2
 10
1591.4829394304447
 20
819.13340315982828
 11
1590.5773461047418
 21
820.03899648553158
  0
LINE
  8
_0-0_計極細
  6
CONTINUOUS
 62
    2
 10
1591.4829394304447
 20
816.58781874755641
 11
1588.0317616924699
 21
820.03899648553158
  0
LINE
  8
_0-0_計極細
  6
CONTINUOUS
 62
    2
 10
1591.4829394304447
 20
814.042234335285
 11
1586.4829394304447
 21
819.04223433528512
  0
LINE
  8
_0-0_計極細
  6
CONTINUOUS
 62
    2
 10
1589.9405928679266
 20
813.03899648553147
 11
1586.4829394304447
 21
816.49664992301325
  0
LINE
  8
_0-0_計極細
  6
CONTINUOUS
 62
    2
 10
1587.395008455655
 20
813.03899648553147
 11
1586.4829394304447
 21
813.9510655107415
  0
LINE
  8
_0-0_計極細
  6
CONTINUOUS
 62
    2
 10
1586.4829394304447
 20
819.53899648553136
 11
1586.4829394304447
 21
820.03899648553158
  0
LINE
  8
_0-0_計極細
  6
CONTINUOUS
 62
    2
 10
1586.4829394304447
 20
813.03899648553147
 11
1644.9895877175136
 21
813.03899648553147
  0
LINE
  8
_0-0_計極細
  6
CONTINUOUS
 62
    2
 10
1591.4829394304447
 20
820.03899648553158
 11
1591.4829394304447
 21
813.03899648553147
  0
CIRCLE
  8
_0-0_計極細
  6
CONTINUOUS
 62
    2
 10
1598.4797497752002
 20
811.75826495774982
 40
0.3318518518518431
  0
CIRCLE
  8
_0-0_計極細
  6
CONTINUOUS
 62
    2
 10
1611.1997497751995
 20
808.15826495774968
 40
0.3318518518518431
  0
CIRCLE
  8
_0-0_計極細
  6
CONTINUOUS
 62
    2
 10
1629.6797497752002
 20
811.19826495774964
 40
0.3318518518518431
  0
CIRCLE
  8
_0-0_計極細
  6
CONTINUOUS
 62
    2
 10
1602.8797497752
 20
780.15085755034249
 40
0.3318518518518431
  0
CIRCLE
  8
_0-0_計極細
  6
CONTINUOUS
 62
    2
 10
1614.6397497752002
 20
776.79085755034214
 40
0.3318518518518431
  0
LINE
  8
_0-0_計極細
  6
CONTINUOUS
 62
    2
 10
1601.4829394304447
 20
773.49033329452072
 11
1610.4829394304447
 21
773.49033329452072
  0
LINE
  8
_0-0_計極細
  6
CENTER1
 62
    2
 10
1605.9829394304447
 20
742.07295231485955
 11
1605.9829394304447
 21
776.05576539328638
  0
LINE
  8
_0-0_計極細
  6
CONTINUOUS
 62
    2
 10
1610.4829394304447
 20
773.49033329452072
 11
1610.4829394304447
 21
747.03899648553124
  0
LINE
  8
_0-0_計極細
  6
CONTINUOUS
 62
    2
 10
1601.4829394304447
 20
747.03899648553124
 11
1601.4829394304447
 21
773.49033329452072
  0
LINE
  8
_0-0_計極細
  6
CENTER1
 62
    2
 10
1617.179331042897
 20
765.11445595255225
 11
1578.7607187533572
 21
779.09768724357309
  0
LINE
  8
_0-0_計極細
  6
CONTINUOUS
 62
    2
 10
1612.6669803627362
 20
761.96801718303323
 11
1579.5923734685271
 21
774.006189602581
  0
LINE
  8
_0-0_計極細
  6
CONTINUOUS
 62
    2
 10
1615.7451616526673
 20
770.42525077010646
 11
1582.6705547584577
 21
782.46342318965435
  0
LINE
  8
_0-0_計極細
  6
CONTINUOUS
 62
    2
 10
1582.6705547584577
 20
782.46342318965435
 11
1579.5923734685271
 21
774.006189602581
  0
LINE
  8
_0-0_計極細
  6
CONTINUOUS
 62
    2
 10
1612.6669803627362
 20
761.96801718303323
 11
1615.7451616526673
 21
770.42525077010646
  0
CIRCLE
  8
_0-0_計極細
  6
CONTINUOUS
 62
    2
 10
1562.2430831085337
 20
740.45030199478708
 40
1.0953188836088352
  0
CIRCLE
  8
_0-0_計極細
  6
CONTINUOUS
 62
    2
 10
1560.4741942196449
 20
784.02363532812046
 40
1.0953188836088352
  0
CIRCLE
  8
_0-0_計極細
  6
CONTINUOUS
 62
    2
 10
1560.8575275529781
 20
744.45159829108354
 40
0.3318518518518431
  0
CIRCLE
  8
_0-0_計極細
  6
CONTINUOUS
 62
    2
 10
1560.0735769356947
 20
768.00493162441649
 40
0.3318518518518431
  0
LINE
  8
_0-0_計極細
  6
CONTINUOUS
 62
    2
 10
1556.4829394304447
 20
792.03899648553124
 11
1556.4829394304447
 21
731.29403630866432
  0
LINE
  8
_0-0_計極細
  6
CONTINUOUS
 62
    2
 10
1556.982939430444
 20
792.03899648553124
 11
1556.4829394304447
 21
792.03899648553124
  0
CIRCLE
  8
_0-0_計極細
  6
CONTINUOUS
 62
    2
 10
1611.2797497751994
 20
799.36696866145337
 40
1.0953188836088352
  0
CIRCLE
  8
_0-0_計極細
  6
CONTINUOUS
 62
    2
 10
1565.0567868122378
 20
762.92971208389872
 40
0.3318518518518431
  0
CIRCLE
  8
_0-0_計極細
  6
CONTINUOUS
 62
    2
 10
1564.9367868122379
 20
777.30304541723183
 40
0.3318518518518431
  0
CIRCLE
  8
_0-0_計極細
  6
CONTINUOUS
 62
    2
 10
1593.4164164418669
 20
780.55696866145354
 40
1.0953188836088352
  0
CIRCLE
  8
_0-0_計極細
  6
CONTINUOUS
 62
    2
 10
1623.8155320230369
 20
748.52473722627224
 40
1.0953188836088352
  0
CIRCLE
  8
_0-0_計極細
  6
CONTINUOUS
 62
    2
 10
1596.0564164418672
 20
754.63696866145392
 40
1.0953188836088352
  0
CIRCLE
  8
_0-0_計極細
  6
CONTINUOUS
 62
    2
 10
1574.9364164418673
 20
768.07696866145375
 40
1.0953188836088352
  0
CIRCLE
  8
_0-0_計極細
  6
CONTINUOUS
 62
    2
 10
1568.8030831085339
 20
750.1569686614539
 40
1.0953188836088352
  0
CIRCLE
  8
_0-0_計極細
  6
CONTINUOUS
 62
    2
 10
1611.0397497751997
 20
776.88696866145335
 40
1.0953188836088352
  0
CIRCLE
  8
_0-0_計極細
  6
CONTINUOUS
 62
    2
 10
1591.8397497751998
 20
796.08696866145362
 40
1.0953188836088352
  0
CIRCLE
  8
_0-0_計極細
  6
CONTINUOUS
 62
    2
 10
1625.0930831085332
 20
792.1403019947868
 40
1.0953188836088352
  0
CIRCLE
  8
_0-0_計極細
  6
CONTINUOUS
 62
    2
 10
1634.4797497751993
 20
801.42030199478677
 40
1.0953188836088352
  0
CIRCLE
  8
_0-0_計極細
  6
CONTINUOUS
 62
    2
 10
1637.3597497751994
 20
793.15826495774945
 40
0.3318518518518431
  0
CIRCLE
  8
_0-0_計極細
  6
CONTINUOUS
 62
    2
 10
1619.5997497752001
 20
780.43826495774988
 40
0.3318518518518431
  0
CIRCLE
  8
_0-0_計極細
  6
CONTINUOUS
 62
    2
 10
1621.2797497751997
 20
796.51826495774969
 40
0.3318518518518431
  0
CIRCLE
  8
_0-0_計極細
  6
CONTINUOUS
 62
    2
 10
1611.1997497751995
 20
784.75826495774982
 40
0.3318518518518431
  0
CIRCLE
  8
_0-0_計極細
  6
CONTINUOUS
 62
    2
 10
1621.9997497751997
 20
772.03826495774979
 40
0.3318518518518431
  0
CIRCLE
  8
_0-0_計極細
  6
CONTINUOUS
 62
    2
 10
1622.9597497751997
 20
759.55826495775
 40
0.3318518518518431
  0
CIRCLE
  8
_0-0_計極細
  6
CONTINUOUS
 62
    2
 10
1618.6397497751993
 20
751.15826495775002
 40
0.3318518518518431
  0
CIRCLE
  8
_0-0_計極細
  6
CONTINUOUS
 62
    2
 10
1595.1197497751996
 20
783.07826495774998
 40
0.3318518518518431
  0
CIRCLE
  8
_0-0_計極細
  6
CONTINUOUS
 62
    2
 10
1589.7597497751999
 20
791.90493162441635
 40
0.3318518518518431
  0
CIRCLE
  8
_0-0_計極細
  6
CONTINUOUS
 62
    2
 10
1596.9464164418673
 20
759.33159829108342
 40
0.3318518518518431
  0
CIRCLE
  8
_0-0_計極細
  6
CONTINUOUS
 62
    2
 10
1590.2264164418671
 20
755.97159829108341
 40
0.3318518518518431
  0
CIRCLE
  8
_0-0_計極細
  6
CONTINUOUS
 62
    2
 10
1597.4264164418669
 20
750.53159829108347
 40
0.3318518518518431
  0
CIRCLE
  8
_0-0_計極細
  6
CONTINUOUS
 62
    2
 10
1581.266416441867
 20
750.37159829108339
 40
0.3318518518518431
  0
CIRCLE
  8
_0-0_計極細
  6
CONTINUOUS
 62
    2
 10
1572.9464164418664
 20
753.2515982910835
 40
0.3318518518518431
  0
CIRCLE
  8
_0-0_計極細
  6
CONTINUOUS
 62
    2
 10
1566.0664164418672
 20
735.33159829108365
 40
0.3318518518518431
  0
CIRCLE
  8
_0-0_計極細
  6
CONTINUOUS
 62
    2
 10
1571.6664164418669
 20
746.05159829108356
 40
0.3318518518518431
  0
CIRCLE
  8
_0-0_計極細
  6
CONTINUOUS
 62
    2
 10
1582.3664164418667
 20
760.03159829108336
 40
0.3318518518518431
  0
CIRCLE
  8
_0-0_計極細
  6
CONTINUOUS
 62
    2
 10
1571.8464164418669
 20
770.24493162441684
 40
0.3318518518518431
  0
CIRCLE
  8
_0-0_計極細
  6
CONTINUOUS
 62
    2
 10
1574.2997497752001
 20
785.23159829108295
 40
0.3318518518518431
  0
CIRCLE
  8
_0-0_計極細
  6
CONTINUOUS
 62
    2
 10
1568.3264164418665
 20
782.35159829108318
 40
0.3318518518518431
  0
LINE
  8
_0-0_計極細
  6
CONTINUOUS
 62
    2
 10
1631.4569408792001
 20
731.29403630866432
 11
1644.9895877424374
 21
744.82668317190144
  0
LINE
  8
_0-0_計極細
  6
CONTINUOUS
 62
    2
 10
1589.0305340080072
 20
731.29403630866432
 11
1604.7754941848748
 21
747.03899648553124
  0
LINE
  8
_0-0_計極細
  6
CONTINUOUS
 62
    2
 10
1626.482939430445
 20
768.74644173110119
 11
1644.9895877179665
 21
787.25309001862286
  0
LINE
  8
_0-0_計極細
  6
CONTINUOUS
 62
    2
 10
1627.2143001920808
 20
731.29403630866432
 11
1644.9895877399908
 21
749.06932385657365
  0
LINE
  8
_0-0_計極細
  6
CONTINUOUS
 62
    2
 10
1584.7878933208883
 20
731.29403630866432
 11
1600.5328534977559
 21
747.03899648553124
  0
LINE
  8
_0-0_計極細
  6
CONTINUOUS
 62
    2
 10
1626.482939430445
 20
772.98908241822028
 11
1641.5328533900254
 21
788.03899637780125
  0
LINE
  8
_0-0_計極細
  6
CONTINUOUS
 62
    2
 10
1622.9716595049617
 20
731.29403630866432
 11
1644.9895877375434
 21
753.31196454124586
  0
LINE
  8
_0-0_計極細
  6
CONTINUOUS
 62
    2
 10
1580.545252633769
 20
731.29403630866432
 11
1596.2902128106366
 21
747.03899648553124
  0
LINE
  8
_0-0_計極細
  6
CONTINUOUS
 62
    2
 10
1626.482939430445
 20
777.23172310533982
 11
1637.2902127332761
 21
788.03899640817099
  0
LINE
  8
_0-0_計極細
  6
CONTINUOUS
 62
    2
 10
1576.4829394304447
 20
747.03899648553124
 11
1576.4829394304447
 21
731.29403630866432
  0
LINE
  8
_0-0_計極細
  6
CONTINUOUS
 62
    2
 10
1626.482939430445
 20
788.0389964855317
 11
1644.9895877175136
 21
788.0389964855317
  0
LINE
  8
_0-0_計極細
  6
CONTINUOUS
 62
    2
 10
1576.4829394304447
 20
747.03899648553124
 11
1626.482939430445
 21
747.03899648553124
  0
LINE
  8
_0-0_計極細
  6
CONTINUOUS
 62
    2
 10
1626.482939430445
 20
788.0389964855317
 11
1626.482939430445
 21
747.03899648553124
  0
ARC
  8
_0-1_計細線
  6
CONTINUOUS
 62
    3
 10
1583.4829394304447
 20
795.03899648553124
 40
3
 50
269.99999999999977
 51
359.99999999999966
  0
LINE
  8
_0-1_計細線
  6
CONTINUOUS
 62
    3
 10
1586.4829394304447
 20
795.03899648553124
 11
1586.4829394304447
 21
819.53899648553136
  0
LINE
  8
_0-1_計細線
  6
CONTINUOUS
 62
    3
 10
1583.4829394304447
 20
792.03899648553124
 11
1556.982939430444
 21
792.03899648553124
  0
LINE
  8
_0-1_計細線
  6
CONTINUOUS
 62
    3
 10
1556.4829394304447
 20
792.5389964855317
 11
1556.982939430444
 21
792.03899648553124
  0
LINE
  8
_0-1_計細線
  6
CONTINUOUS
 62
    3
 10
1556.4829394304447
 20
794.53899648553158
 11
1556.4829394304447
 21
792.5389964855317
  0
LINE
  8
_0-1_計細線
  6
CONTINUOUS
 62
    3
 10
1556.982939430444
 20
795.03899648553124
 11
1556.4829394304447
 21
794.53899648553158
  0
LINE
  8
_0-1_計細線
  6
CONTINUOUS
 62
    3
 10
1583.4829394304447
 20
795.03899648553124
 11
1556.982939430444
 21
795.03899648553124
  0
LINE
  8
_0-1_計細線
  6
CONTINUOUS
 62
    3
 10
1585.982939430445
 20
820.03899648553158
 11
1586.4829394304447
 21
819.53899648553136
  0
LINE
  8
_0-1_計細線
  6
CONTINUOUS
 62
    3
 10
1583.9829394304447
 20
820.03899648553158
 11
1585.982939430445
 21
820.03899648553158
  0
LINE
  8
_0-1_計細線
  6
CONTINUOUS
 62
    3
 10
1583.4829394304447
 20
819.53899648553136
 11
1583.9829394304447
 21
820.03899648553158
  0
LINE
  8
_0-1_計細線
  6
CONTINUOUS
 62
    3
 10
1583.4829394304447
 20
795.03899648553124
 11
1583.4829394304447
 21
819.53899648553136
  0
LINE
  8
_0-5_寸法線
  6
CONTINUOUS
 62
    7
 10
1586.4829394304447
 20
757.03899648553147
 11
1586.4829394304447
 21
693.71627753241376
  0
LINE
  8
_0-5_寸法線
  6
CONTINUOUS
 62
    7
 10
1586.4829394304447
 20
699.71627753241376
 11
1574.8918295149761
 21
696.6104489911836
  0
LINE
  8
_0-5_寸法線
  6
CONTINUOUS
 62
    7
 10
1586.4829394304447
 20
699.71627753241376
 11
1574.8918295149761
 21
702.82210607364402
  0
LINE
  8
_0-5_寸法線
  6
CONTINUOUS
 62
    7
 10
1556.4829394304447
 20
780.03899648553124
 11
1556.4829394304447
 21
693.71627753241376
  0
LINE
  8
_0-5_寸法線
  6
CONTINUOUS
 62
    7
 10
1556.4829394304447
 20
699.71627753241376
 11
1568.0740493459136
 21
702.82210607364402
  0
LINE
  8
_0-5_寸法線
  6
CONTINUOUS
 62
    7
 10
1556.4829394304447
 20
699.71627753241376
 11
1568.0740493459136
 21
696.61044899118338
  0
LINE
  8
_0-5_寸法線
  6
CONTINUOUS
 62
    7
 10
1586.4829394304447
 20
699.71627753241376
 11
1556.4829394304447
 21
699.71627753241376
  0
TEXT
  8
_0-5_寸法線
 62
    7
 10
1562.4829394304447
 20
699.71627753241376
 40
18
 41
1
 50
0
  1
30
  0
LINE
  8
_0-0_計極細
  6
CENTER1
 62
    2
 10
1587.6829394304448
 20
808.83877748452426
 11
1123.4714696659264
 21
808.83877748452426
  0
LINE
  8
_0-5_寸法線
  6
CONTINUOUS
 62
    7
 10
1156.482939430445
 20
786.03899648553124
 11
1156.482939430445
 21
693.71627753241376
  0
LINE
  8
_0-5_寸法線
  6
CONTINUOUS
 62
    7
 10
1156.482939430445
 20
699.71627753241376
 11
1168.0740493459139
 21
702.82210607364402
  0
LINE
  8
_0-5_寸法線
  6
CONTINUOUS
 62
    7
 10
1156.482939430445
 20
699.71627753241376
 11
1168.0740493459139
 21
696.61044899118338
  0
LINE
  8
_0-5_寸法線
  6
CONTINUOUS
 62
    7
 10
1556.4829394304447
 20
786.03899648553124
 11
1556.4829394304438
 21
693.71627753241376
  0
LINE
  8
_0-5_寸法線
  6
CONTINUOUS
 62
    7
 10
1556.4829394304438
 20
699.71627753241376
 11
1544.8918295149751
 21
696.6104489911836
  0
LINE
  8
_0-5_寸法線
  6
CONTINUOUS
 62
    7
 10
1556.4829394304438
 20
699.71627753241376
 11
1544.8918295149751
 21
702.82210607364402
  0
LINE
  8
_0-5_寸法線
  6
CONTINUOUS
 62
    7
 10
1156.482939430445
 20
699.71627753241376
 11
1556.4829394304438
 21
699.71627753241376
  0
TEXT
  8
_0-5_寸法線
 62
    7
 10
1342.9829394304445
 20
699.71627753241376
 40
18
 41
1
 50
0
  1
400
  0
ARC
  8
_0-1_計細線
  6
CONTINUOUS
 62
    3
 10
1135.6829394290592
 20
802.53877748452419
 40
0.2
 50
179.99999999999983
 51
269.99999999999977
  0
ARC
  8
_0-1_計細線
  6
CONTINUOUS
 62
    3
 10
1135.6829394290592
 20
815.13877748452433
 40
0.2
 50
89.999999999999915
 51
179.99999999999983
  0
LINE
  8
_0-1_計細線
  6
CONTINUOUS
 62
    3
 10
1135.4829394290589
 20
808.33877748452437
 11
1135.4829394290589
 21
802.53877748452419
  0
LINE
  8
_0-1_計細線
  6
CONTINUOUS
 62
    3
 10
1135.4829394290589
 20
815.13877748452433
 11
1135.4829394290589
 21
808.33877748452437
  0
LINE
  8
_0-1_計細線
  6
CONTINUOUS
 62
    3
 10
1136.4829394282381
 20
815.33877748452448
 11
1135.6829394290592
 21
815.33877748452448
  0
LINE
  8
_0-1_計細線
  6
CONTINUOUS
 62
    3
 10
1136.482939428952
 20
802.33877748452437
 11
1135.6829394290592
 21
802.33877748452437
  0
LINE
  8
_0-1_計細線
  6
CONTINUOUS
 62
    3
 10
1135.4829394290589
 20
808.83877748452426
 11
1132.4784234290587
 21
808.83877748452426
  0
LINE
  8
_0-1_計細線
  6
CONTINUOUS
 62
    3
 10
1135.4829394290589
 20
805.33877748452437
 11
1132.4784114290594
 21
805.33877748452437
  0
ARC
  8
_0-1_計細線
  6
CONTINUOUS
 62
    3
 10
1132.4784114290594
 20
805.53877748452419
 40
0.2
 50
179.99999999999983
 51
269.99999999999977
  0
ARC
  8
_0-1_計細線
  6
CONTINUOUS
 62
    3
 10
1140.036391429059
 20
807.08863148452485
 40
7.7579560000000001
 50
166.96197800000661
 51
193.03566999999961
  0
ARC
  8
_0-1_計細線
  6
CONTINUOUS
 62
    3
 10
1132.4784114290594
 20
812.13877748452478
 40
0.2
 50
89.999999999999915
 51
179.99999999999983
  0
ARC
  8
_0-1_計細線
  6
CONTINUOUS
 62
    3
 10
1140.036391429059
 20
810.58892148452401
 40
7.7579560000000001
 50
166.96433000000002
 51
193.03802199999794
  0
LINE
  8
_0-1_計細線
  6
CONTINUOUS
 62
    3
 10
1135.4829394290589
 20
812.3387774845246
 11
1132.4784114290594
 21
812.3387774845246
  0
LINE
  8
_0-1_計細線
  6
CONTINUOUS
 62
    3
 10
1132.2784114290596
 20
805.53877748452419
 11
1132.2784114290596
 21
812.13877748452478
  0
ARC
  8
_0-1_計細線
  6
CONTINUOUS
 62
    3
 10
1577.2829394324078
 20
802.53877748452419
 40
0.2
 50
269.99999999999977
 51
359.99999999999966
  0
ARC
  8
_0-1_計細線
  6
CONTINUOUS
 62
    3
 10
1577.2829394324078
 20
815.13877748452433
 40
0.2
 50
0
 51
89.999999999999915
  0
LINE
  8
_0-1_計細線
  6
CONTINUOUS
 62
    3
 10
1577.4829394324076
 20
808.33877748452437
 11
1577.4829394324076
 21
802.53877748452419
  0
LINE
  8
_0-1_計細線
  6
CONTINUOUS
 62
    3
 10
1577.4829394324076
 20
815.13877748452433
 11
1577.4829394324076
 21
808.33877748452437
  0
LINE
  8
_0-1_計細線
  6
CONTINUOUS
 62
    3
 10
1576.4829394319381
 20
802.33877748452437
 11
1577.2829394324078
 21
802.33877748452437
  0
LINE
  8
_0-1_計細線
  6
CONTINUOUS
 62
    3
 10
1576.4829394326521
 20
815.33877748452448
 11
1577.2829394324078
 21
815.33877748452448
  0
LINE
  8
_0-1_計細線
  6
CONTINUOUS
 62
    3
 10
1577.4829394324076
 20
808.83877748452426
 11
1580.4874554324074
 21
808.83877748452426
  0
LINE
  8
_0-1_計細線
  6
CONTINUOUS
 62
    3
 10
1577.4829394324076
 20
805.33877748452437
 11
1580.4874674324071
 21
805.33877748452437
  0
ARC
  8
_0-1_計細線
  6
CONTINUOUS
 62
    3
 10
1580.4874674324071
 20
805.53877748452419
 40
0.2
 50
269.99999999999977
 51
359.99999999999966
  0
ARC
  8
_0-1_計細線
  6
CONTINUOUS
 62
    3
 10
1572.9294874324075
 20
807.08863148452485
 40
7.7579560000000001
 50
346.96433000000042
 51
13.038021999993047
  0
ARC
  8
_0-1_計細線
  6
CONTINUOUS
 62
    3
 10
1580.4874674324071
 20
812.13877748452478
 40
0.2
 50
0
 51
89.999999999999915
  0
ARC
  8
_0-1_計細線
  6
CONTINUOUS
 62
    3
 10
1572.9294874324075
 20
810.58892148452401
 40
7.7579560000000001
 50
346.96197800000135
 51
13.035669999998861
  0
LINE
  8
_0-1_計細線
  6
CONTINUOUS
 62
    3
 10
1577.4829394324076
 20
812.3387774845246
 11
1580.4874674324071
 21
812.3387774845246
  0
LINE
  8
_0-1_計細線
  6
CONTINUOUS
 62
    3
 10
1580.6874674324076
 20
805.53877748452419
 11
1580.6874674324076
 21
812.13877748452478
  0
LINE
  8
_0-1_計細線
  6
CONTINUOUS
 62
    3
 10
1349.4829394304447
 20
802.33877748452437
 11
1354.1329394309964
 21
802.33877748452437
  0
LINE
  8
_0-1_計細線
  6
CONTINUOUS
 62
    3
 10
1349.4829394304447
 20
815.33877748452414
 11
1354.1329394309971
 21
815.33877748452414
  0
LINE
  8
_0-1_計細線
  6
CONTINUOUS
 62
    3
 10
1358.8329394309974
 20
815.33877748452414
 11
1363.4829394298822
 21
815.33877748452414
  0
LINE
  8
_0-1_計細線
  6
CONTINUOUS
 62
    3
 10
1358.8329394309974
 20
802.33877748452437
 11
1363.4829394305957
 21
802.33877748452437
  0
ARC
  8
_0-1_計細線
  6
CONTINUOUS
 62
    3
 10
1369.8829394298934
 20
818.03877748452442
 40
1
 50
0
 51
89.999999999999915
  0
ARC
  8
_0-1_計細線
  6
CONTINUOUS
 62
    3
 10
1369.4149902385657
 20
820.03877748452396
 40
1
 50
209.99999999999866
 51
269.99999999999977
  0
ARC
  8
_0-1_計細線
  6
CONTINUOUS
 62
    3
 10
1367.6829394309968
 20
819.03877748452442
 40
1
 50
29.99999999997862
 51
89.999999999999915
  0
LINE
  8
_0-1_計細線
  6
CONTINUOUS
 62
    3
 10
1369.8829394298934
 20
819.03877748452442
 11
1369.4149902385657
 21
819.03877748452442
  0
ARC
  8
_0-1_計細線
  6
CONTINUOUS
 62
    3
 10
1360.4829394321005
 20
818.03877748452442
 40
1
 50
89.999999999999915
 51
179.99999999999983
  0
ARC
  8
_0-1_計細線
  6
CONTINUOUS
 62
    3
 10
1360.9508886234275
 20
820.03877748452396
 40
1
 50
269.99999999999977
 51
330.00000000002666
  0
ARC
  8
_0-1_計細線
  6
CONTINUOUS
 62
    3
 10
1362.6829394309973
 20
819.03877748452442
 40
1
 50
89.999999999999915
 51
150.00000000000836
  0
LINE
  8
_0-1_計細線
  6
CONTINUOUS
 62
    3
 10
1360.4829394321005
 20
819.03877748452442
 11
1360.9508886234275
 21
819.03877748452442
  0
ARC
  8
_0-1_計細線
  6
CONTINUOUS
 62
    3
 10
1370.3829394298934
 20
816.63877748452467
 40
0.5
 50
269.99999999999977
 51
359.99999999999966
  0
LINE
  8
_0-1_計細線
  6
CONTINUOUS
 62
    3
 10
1370.8829394298932
 20
818.03877748452442
 11
1370.8829394298932
 21
816.63877748452467
  0
ARC
  8
_0-1_計細線
  6
CONTINUOUS
 62
    3
 10
1359.9829394321007
 20
816.63877748452467
 40
0.5
 50
179.99999999999983
 51
269.99999999999977
  0
LINE
  8
_0-1_計細線
  6
CONTINUOUS
 62
    3
 10
1359.4829394321
 20
818.03877748452442
 11
1359.4829394321
 21
816.63877748452467
  0
ARC
  8
_0-1_計細線
  6
CONTINUOUS
 62
    3
 10
1367.8829394298932
 20
815.13877748452455
 40
1
 50
89.999999999999915
 51
179.99999999999983
  0
LINE
  8
_0-1_計細線
  6
CONTINUOUS
 62
    3
 10
1367.8829394298932
 20
816.1387774845241
 11
1370.3829394298934
 21
816.1387774845241
  0
ARC
  8
_0-1_計細線
  6
CONTINUOUS
 62
    3
 10
1362.4829394298938
 20
815.13877748452455
 40
1
 50
0
 51
89.999999999999915
  0
LINE
  8
_0-1_計細線
  6
CONTINUOUS
 62
    3
 10
1362.4829394321011
 20
816.1387774845241
 11
1359.9829394321007
 21
816.1387774845241
  0
LINE
  8
_0-1_計細線
  6
CONTINUOUS
 62
    3
 10
1362.6829394309973
 20
820.03877748452396
 11
1367.6829394309968
 21
820.03877748452396
  0
LINE
  8
_0-1_計細線
  6
CONTINUOUS
 62
    3
 10
1366.8829394309964
 20
795.03877748452419
 11
1366.8829394298934
 21
815.13877748452455
  0
LINE
  8
_0-1_計細線
  6
CONTINUOUS
 62
    3
 10
1363.4829394309968
 20
795.03877748452419
 11
1363.4829394298931
 21
815.13877748452455
  0
LINE
  8
_0-1_計細線
  6
CONTINUOUS
 62
    3
 10
1363.4829394309968
 20
795.03877748452419
 11
1366.8829394309964
 21
795.03877748452419
  0
ARC
  8
_0-1_計細線
  6
CONTINUOUS
 62
    3
 10
1325.6829394316123
 20
818.03877748452442
 40
1
 50
89.999999999999915
 51
179.99999999999983
  0
ARC
  8
_0-1_計細線
  6
CONTINUOUS
 62
    3
 10
1326.1508886229401
 20
820.03877748452396
 40
1
 50
269.99999999999977
 51
330.00000000001364
  0
ARC
  8
_0-1_計細線
  6
CONTINUOUS
 62
    3
 10
1327.8829394305092
 20
819.03877748452442
 40
1
 50
89.999999999999915
 51
150.00000000000836
  0
LINE
  8
_0-1_計細線
  6
CONTINUOUS
 62
    3
 10
1325.6829394316123
 20
819.03877748452442
 11
1326.1508886229401
 21
819.03877748452442
  0
ARC
  8
_0-1_計細線
  6
CONTINUOUS
 62
    3
 10
1335.0829394294053
 20
818.03877748452442
 40
1
 50
0
 51
89.999999999999915
  0
ARC
  8
_0-1_計細線
  6
CONTINUOUS
 62
    3
 10
1334.6149902380776
 20
820.03877748452396
 40
1
 50
209.99999999998565
 51
269.99999999999977
  0
ARC
  8
_0-1_計細線
  6
CONTINUOUS
 62
    3
 10
1332.8829394305089
 20
819.03877748452442
 40
1
 50
30.000000000004672
 51
89.999999999999915
  0
LINE
  8
_0-1_計細線
  6
CONTINUOUS
 62
    3
 10
1335.0829394294053
 20
819.03877748452442
 11
1334.6149902380776
 21
819.03877748452442
  0
ARC
  8
_0-1_計細線
  6
CONTINUOUS
 62
    3
 10
1325.1829394316126
 20
816.63877748452467
 40
0.5
 50
179.99999999999983
 51
269.99999999999977
  0
LINE
  8
_0-1_計細線
  6
CONTINUOUS
 62
    3
 10
1324.6829394316126
 20
818.03877748452442
 11
1324.6829394316126
 21
816.63877748452467
  0
ARC
  8
_0-1_計細線
  6
CONTINUOUS
 62
    3
 10
1335.5829394294055
 20
816.63877748452467
 40
0.5
 50
269.99999999999977
 51
359.99999999999966
  0
LINE
  8
_0-1_計細線
  6
CONTINUOUS
 62
    3
 10
1336.0829394294058
 20
818.03877748452442
 11
1336.0829394294058
 21
816.63877748452467
  0
ARC
  8
_0-1_計細線
  6
CONTINUOUS
 62
    3
 10
1327.6829394316126
 20
815.13877748452455
 40
1
 50
0
 51
89.999999999999915
  0
LINE
  8
_0-1_計細線
  6
CONTINUOUS
 62
    3
 10
1327.6829394316126
 20
816.1387774845241
 11
1325.1829394316126
 21
816.1387774845241
  0
ARC
  8
_0-1_計細線
  6
CONTINUOUS
 62
    3
 10
1333.0829394316124
 20
815.13877748452455
 40
1
 50
89.999999999999915
 51
179.99999999999983
  0
LINE
  8
_0-1_計細線
  6
CONTINUOUS
 62
    3
 10
1333.0829394294049
 20
816.1387774845241
 11
1335.5829394294055
 21
816.1387774845241
  0
LINE
  8
_0-1_計細線
  6
CONTINUOUS
 62
    3
 10
1332.8829394305089
 20
820.03877748452396
 11
1327.8829394305092
 21
820.03877748452396
  0
LINE
  8
_0-1_計細線
  6
CONTINUOUS
 62
    3
 10
1328.6829394305087
 20
795.03877748452419
 11
1328.6829394316123
 21
815.13877748452455
  0
LINE
  8
_0-1_計細線
  6
CONTINUOUS
 62
    3
 10
1332.082939430509
 20
795.03877748452419
 11
1332.0829394316127
 21
815.13877748452455
  0
LINE
  8
_0-1_計細線
  6
CONTINUOUS
 62
    3
 10
1332.082939430509
 20
795.03877748452419
 11
1328.6829394305087
 21
795.03877748452419
  0
LINE
  8
_0-1_計細線
  6
CONTINUOUS
 62
    3
 10
1332.0829394310608
 20
815.33877748452414
 11
1346.0829394310083
 21
815.33877748452414
  0
ARC
  8
_0-1_計細線
  6
CONTINUOUS
 62
    3
 10
1343.0829394309962
 20
818.03877748452442
 40
1
 50
89.999999999999915
 51
179.99999999999983
  0
ARC
  8
_0-1_計細線
  6
CONTINUOUS
 62
    3
 10
1343.5508886223245
 20
820.03877748452396
 40
1
 50
269.99999999999977
 51
330.00000000001364
  0
ARC
  8
_0-1_計細線
  6
CONTINUOUS
 62
    3
 10
1345.2829394298931
 20
819.03877748452442
 40
1
 50
89.999999999999915
 51
149.99999999999534
  0
LINE
  8
_0-1_計細線
  6
CONTINUOUS
 62
    3
 10
1343.0829394309962
 20
819.03877748452442
 11
1343.5508886223245
 21
819.03877748452442
  0
ARC
  8
_0-1_計細線
  6
CONTINUOUS
 62
    3
 10
1352.4829394287897
 20
818.03877748452442
 40
1
 50
0
 51
89.999999999999915
  0
ARC
  8
_0-1_計細線
  6
CONTINUOUS
 62
    3
 10
1352.0149902374626
 20
820.03877748452396
 40
1
 50
209.9999999999726
 51
269.99999999999977
  0
ARC
  8
_0-1_計細線
  6
CONTINUOUS
 62
    3
 10
1350.2829394298928
 20
819.03877748452442
 40
1
 50
29.999999999991644
 51
89.999999999999915
  0
LINE
  8
_0-1_計細線
  6
CONTINUOUS
 62
    3
 10
1352.4829394287897
 20
819.03877748452442
 11
1352.0149902374626
 21
819.03877748452442
  0
ARC
  8
_0-1_計細線
  6
CONTINUOUS
 62
    3
 10
1342.5829394309967
 20
816.63877748452467
 40
0.5
 50
179.99999999999983
 51
269.99999999999977
  0
LINE
  8
_0-1_計細線
  6
CONTINUOUS
 62
    3
 10
1342.0829394309969
 20
818.03877748452442
 11
1342.0829394309969
 21
816.63877748452467
  0
ARC
  8
_0-1_計細線
  6
CONTINUOUS
 62
    3
 10
1352.9829394287895
 20
816.63877748452467
 40
0.5
 50
269.99999999999977
 51
359.99999999999966
  0
LINE
  8
_0-1_計細線
  6
CONTINUOUS
 62
    3
 10
1353.4829394287897
 20
818.03877748452442
 11
1353.4829394287897
 21
816.63877748452467
  0
ARC
  8
_0-1_計細線
  6
CONTINUOUS
 62
    3
 10
1345.0829394309965
 20
815.13877748452455
 40
1
 50
0
 51
89.999999999999915
  0
LINE
  8
_0-1_計細線
  6
CONTINUOUS
 62
    3
 10
1345.0829394309965
 20
816.1387774845241
 11
1342.5829394309967
 21
816.1387774845241
  0
ARC
  8
_0-1_計細線
  6
CONTINUOUS
 62
    3
 10
1350.482939430997
 20
815.13877748452455
 40
1
 50
89.999999999999915
 51
179.99999999999983
  0
LINE
  8
_0-1_計細線
  6
CONTINUOUS
 62
    3
 10
1350.4829394287897
 20
816.1387774845241
 11
1352.9829394287895
 21
816.1387774845241
  0
LINE
  8
_0-1_計細線
  6
CONTINUOUS
 62
    3
 10
1350.2829394298928
 20
820.03877748452396
 11
1345.2829394298931
 21
820.03877748452396
  0
LINE
  8
_0-1_計細線
  6
CONTINUOUS
 62
    3
 10
1346.0829394298937
 20
795.03877748452419
 11
1346.0829394309974
 21
815.13877748452455
  0
LINE
  8
_0-1_計細線
  6
CONTINUOUS
 62
    3
 10
1349.4829394298933
 20
795.03877748452419
 11
1349.482939430997
 21
815.13877748452455
  0
LINE
  8
_0-1_計細線
  6
CONTINUOUS
 62
    3
 10
1349.4829394298933
 20
795.03877748452419
 11
1346.0829394298937
 21
795.03877748452419
  0
LINE
  8
_0-1_計細線
  6
CONTINUOUS
 62
    3
 10
1332.0829394310608
 20
802.33877748452437
 11
1346.0829394302943
 21
802.33877748452437
  0
ARC
  8
_0-1_計細線
  6
CONTINUOUS
 62
    3
 10
1308.2829394322277
 20
818.03877748452442
 40
1
 50
89.999999999999915
 51
179.99999999999983
  0
ARC
  8
_0-1_計細線
  6
CONTINUOUS
 62
    3
 10
1308.7508886235553
 20
820.03877748452396
 40
1
 50
269.99999999999977
 51
330.00000000001364
  0
ARC
  8
_0-1_計細線
  6
CONTINUOUS
 62
    3
 10
1310.4829394311241
 20
819.03877748452442
 40
1
 50
89.999999999999915
 51
150.00000000000836
  0
LINE
  8
_0-1_計細線
  6
CONTINUOUS
 62
    3
 10
1308.2829394322277
 20
819.03877748452442
 11
1308.7508886235553
 21
819.03877748452442
  0
ARC
  8
_0-1_計細線
  6
CONTINUOUS
 62
    3
 10
1317.6829394300205
 20
818.03877748452442
 40
1
 50
0
 51
89.999999999999915
  0
ARC
  8
_0-1_計細線
  6
CONTINUOUS
 62
    3
 10
1317.214990238693
 20
820.03877748452396
 40
1
 50
209.99999999998565
 51
269.99999999999977
  0
ARC
  8
_0-1_計細線
  6
CONTINUOUS
 62
    3
 10
1315.4829394311244
 20
819.03877748452442
 40
1
 50
30.000000000004672
 51
89.999999999999915
  0
LINE
  8
_0-1_計細線
  6
CONTINUOUS
 62
    3
 10
1317.6829394300205
 20
819.03877748452442
 11
1317.214990238693
 21
819.03877748452442
  0
ARC
  8
_0-1_計細線
  6
CONTINUOUS
 62
    3
 10
1307.7829394322275
 20
816.63877748452467
 40
0.5
 50
179.99999999999983
 51
269.99999999999977
  0
LINE
  8
_0-1_計細線
  6
CONTINUOUS
 62
    3
 10
1307.2829394322277
 20
818.03877748452442
 11
1307.2829394322277
 21
816.63877748452467
  0
ARC
  8
_0-1_計細線
  6
CONTINUOUS
 62
    3
 10
1318.182939430021
 20
816.63877748452467
 40
0.5
 50
269.99999999999977
 51
359.99999999999966
  0
LINE
  8
_0-1_計細線
  6
CONTINUOUS
 62
    3
 10
1318.682939430021
 20
818.03877748452442
 11
1318.682939430021
 21
816.63877748452467
  0
ARC
  8
_0-1_計細線
  6
CONTINUOUS
 62
    3
 10
1310.2829394322277
 20
815.13877748452455
 40
1
 50
0
 51
89.999999999999915
  0
LINE
  8
_0-1_計細線
  6
CONTINUOUS
 62
    3
 10
1310.2829394322277
 20
816.1387774845241
 11
1307.7829394322275
 21
816.1387774845241
  0
ARC
  8
_0-1_計細線
  6
CONTINUOUS
 62
    3
 10
1315.6829394322278
 20
815.13877748452455
 40
1
 50
89.999999999999915
 51
179.99999999999983
  0
LINE
  8
_0-1_計細線
  6
CONTINUOUS
 62
    3
 10
1315.6829394300198
 20
816.1387774845241
 11
1318.182939430021
 21
816.1387774845241
  0
LINE
  8
_0-1_計細線
  6
CONTINUOUS
 62
    3
 10
1315.4829394311244
 20
820.03877748452396
 11
1310.4829394311241
 21
820.03877748452396
  0
LINE
  8
_0-1_計細線
  6
CONTINUOUS
 62
    3
 10
1311.2829394311241
 20
795.03877748452419
 11
1311.2829394322277
 21
815.13877748452455
  0
LINE
  8
_0-1_計細線
  6
CONTINUOUS
 62
    3
 10
1314.6829394311242
 20
795.03877748452419
 11
1314.6829394322278
 21
815.13877748452455
  0
LINE
  8
_0-1_計細線
  6
CONTINUOUS
 62
    3
 10
1314.6829394311242
 20
795.03877748452419
 11
1311.2829394311241
 21
795.03877748452419
  0
LINE
  8
_0-1_計細線
  6
CONTINUOUS
 62
    3
 10
1314.6829394316762
 20
815.33877748452414
 11
1328.6829394316233
 21
815.33877748452414
  0
LINE
  8
_0-1_計細線
  6
CONTINUOUS
 62
    3
 10
1314.6829394316762
 20
802.33877748452437
 11
1328.6829394309095
 21
802.33877748452437
  0
ARC
  8
_0-1_計細線
  6
CONTINUOUS
 62
    3
 10
1290.8829394328429
 20
818.03877748452442
 40
1
 50
89.999999999999915
 51
179.99999999999983
  0
ARC
  8
_0-1_計細線
  6
CONTINUOUS
 62
    3
 10
1291.3508886241702
 20
820.03877748452396
 40
1
 50
269.99999999999977
 51
330.00000000001364
  0
ARC
  8
_0-1_計細線
  6
CONTINUOUS
 62
    3
 10
1293.0829394317395
 20
819.03877748452442
 40
1
 50
89.999999999999915
 51
150.00000000000836
  0
LINE
  8
_0-1_計細線
  6
CONTINUOUS
 62
    3
 10
1290.8829394328429
 20
819.03877748452442
 11
1291.3508886241702
 21
819.03877748452442
  0
ARC
  8
_0-1_計細線
  6
CONTINUOUS
 62
    3
 10
1300.2829394306355
 20
818.03877748452442
 40
1
 50
0
 51
89.999999999999915
  0
ARC
  8
_0-1_計細線
  6
CONTINUOUS
 62
    3
 10
1299.8149902393081
 20
820.03877748452396
 40
1
 50
209.99999999998565
 51
269.99999999999977
  0
ARC
  8
_0-1_計細線
  6
CONTINUOUS
 62
    3
 10
1298.0829394317395
 20
819.03877748452442
 40
1
 50
30.000000000004672
 51
89.999999999999915
  0
LINE
  8
_0-1_計細線
  6
CONTINUOUS
 62
    3
 10
1300.2829394306355
 20
819.03877748452442
 11
1299.8149902393081
 21
819.03877748452442
  0
ARC
  8
_0-1_計細線
  6
CONTINUOUS
 62
    3
 10
1290.3829394328429
 20
816.63877748452467
 40
0.5
 50
179.99999999999983
 51
269.99999999999977
  0
LINE
  8
_0-1_計細線
  6
CONTINUOUS
 62
    3
 10
1289.8829394328427
 20
818.03877748452442
 11
1289.8829394328427
 21
816.63877748452467
  0
ARC
  8
_0-1_計細線
  6
CONTINUOUS
 62
    3
 10
1300.7829394306361
 20
816.63877748452467
 40
0.5
 50
269.99999999999977
 51
359.99999999999966
  0
LINE
  8
_0-1_計細線
  6
CONTINUOUS
 62
    3
 10
1301.2829394306359
 20
818.03877748452442
 11
1301.2829394306359
 21
816.63877748452467
  0
ARC
  8
_0-1_計細線
  6
CONTINUOUS
 62
    3
 10
1292.8829394328427
 20
815.13877748452455
 40
1
 50
0
 51
89.999999999999915
  0
LINE
  8
_0-1_計細線
  6
CONTINUOUS
 62
    3
 10
1292.8829394328427
 20
816.1387774845241
 11
1290.3829394328429
 21
816.1387774845241
  0
ARC
  8
_0-1_計細線
  6
CONTINUOUS
 62
    3
 10
1298.282939432843
 20
815.13877748452455
 40
1
 50
89.999999999999915
 51
179.99999999999983
  0
LINE
  8
_0-1_計細線
  6
CONTINUOUS
 62
    3
 10
1298.2829394306352
 20
816.1387774845241
 11
1300.7829394306361
 21
816.1387774845241
  0
LINE
  8
_0-1_計細線
  6
CONTINUOUS
 62
    3
 10
1298.0829394317395
 20
820.03877748452396
 11
1293.0829394317395
 21
820.03877748452396
  0
LINE
  8
_0-1_計細線
  6
CONTINUOUS
 62
    3
 10
1293.8829394317393
 20
795.03877748452419
 11
1293.8829394328429
 21
815.13877748452455
  0
LINE
  8
_0-1_計細線
  6
CONTINUOUS
 62
    3
 10
1297.2829394317391
 20
795.03877748452419
 11
1297.2829394328428
 21
815.13877748452455
  0
LINE
  8
_0-1_計細線
  6
CONTINUOUS
 62
    3
 10
1297.2829394317391
 20
795.03877748452419
 11
1293.8829394317393
 21
795.03877748452419
  0
LINE
  8
_0-1_計細線
  6
CONTINUOUS
 62
    3
 10
1297.2829394322914
 20
815.33877748452414
 11
1311.2829394322387
 21
815.33877748452414
  0
LINE
  8
_0-1_計細線
  6
CONTINUOUS
 62
    3
 10
1297.2829394322914
 20
802.33877748452437
 11
1311.2829394315245
 21
802.33877748452437
  0
ARC
  8
_0-1_計細線
  6
CONTINUOUS
 62
    3
 10
1273.4829394334579
 20
818.03877748452442
 40
1
 50
89.999999999999915
 51
179.99999999999983
  0
ARC
  8
_0-1_計細線
  6
CONTINUOUS
 62
    3
 10
1273.9508886247856
 20
820.03877748452396
 40
1
 50
269.99999999999977
 51
330.00000000001364
  0
ARC
  8
_0-1_計細線
  6
CONTINUOUS
 62
    3
 10
1275.6829394323547
 20
819.03877748452442
 40
1
 50
89.999999999999915
 51
150.00000000000836
  0
LINE
  8
_0-1_計細線
  6
CONTINUOUS
 62
    3
 10
1273.4829394334579
 20
819.03877748452442
 11
1273.9508886247856
 21
819.03877748452442
  0
ARC
  8
_0-1_計細線
  6
CONTINUOUS
 62
    3
 10
1282.8829394312509
 20
818.03877748452442
 40
1
 50
0
 51
89.999999999999915
  0
ARC
  8
_0-1_計細線
  6
CONTINUOUS
 62
    3
 10
1282.4149902399231
 20
820.03877748452396
 40
1
 50
209.99999999998565
 51
269.99999999999977
  0
ARC
  8
_0-1_計細線
  6
CONTINUOUS
 62
    3
 10
1280.6829394323545
 20
819.03877748452442
 40
1
 50
30.000000000004672
 51
89.999999999999915
  0
LINE
  8
_0-1_計細線
  6
CONTINUOUS
 62
    3
 10
1282.8829394312509
 20
819.03877748452442
 11
1282.4149902399231
 21
819.03877748452442
  0
ARC
  8
_0-1_計細線
  6
CONTINUOUS
 62
    3
 10
1272.9829394334581
 20
816.63877748452467
 40
0.5
 50
179.99999999999983
 51
269.99999999999977
  0
LINE
  8
_0-1_計細線
  6
CONTINUOUS
 62
    3
 10
1272.4829394334581
 20
818.03877748452442
 11
1272.4829394334581
 21
816.63877748452467
  0
ARC
  8
_0-1_計細線
  6
CONTINUOUS
 62
    3
 10
1283.3829394312511
 20
816.63877748452467
 40
0.5
 50
269.99999999999977
 51
359.99999999999966
  0
LINE
  8
_0-1_計細線
  6
CONTINUOUS
 62
    3
 10
1283.8829394312513
 20
818.03877748452442
 11
1283.8829394312513
 21
816.63877748452467
  0
ARC
  8
_0-1_計細線
  6
CONTINUOUS
 62
    3
 10
1275.4829394334581
 20
815.13877748452455
 40
1
 50
0
 51
89.999999999999915
  0
LINE
  8
_0-1_計細線
  6
CONTINUOUS
 62
    3
 10
1275.4829394334581
 20
816.1387774845241
 11
1272.9829394334581
 21
816.1387774845241
  0
ARC
  8
_0-1_計細線
  6
CONTINUOUS
 62
    3
 10
1280.882939433458
 20
815.13877748452455
 40
1
 50
89.999999999999915
 51
179.99999999999983
  0
LINE
  8
_0-1_計細線
  6
CONTINUOUS
 62
    3
 10
1280.8829394312504
 20
816.1387774845241
 11
1283.3829394312511
 21
816.1387774845241
  0
LINE
  8
_0-1_計細線
  6
CONTINUOUS
 62
    3
 10
1280.6829394323545
 20
820.03877748452396
 11
1275.6829394323547
 21
820.03877748452396
  0
LINE
  8
_0-1_計細線
  6
CONTINUOUS
 62
    3
 10
1276.4829394323542
 20
795.03877748452419
 11
1276.4829394334579
 21
815.13877748452455
  0
LINE
  8
_0-1_計細線
  6
CONTINUOUS
 62
    3
 10
1279.8829394323545
 20
795.03877748452419
 11
1279.8829394334582
 21
815.13877748452455
  0
LINE
  8
_0-1_計細線
  6
CONTINUOUS
 62
    3
 10
1279.8829394323545
 20
795.03877748452419
 11
1276.4829394323542
 21
795.03877748452419
  0
LINE
  8
_0-1_計細線
  6
CONTINUOUS
 62
    3
 10
1279.8829394329064
 20
815.33877748452414
 11
1293.8829394328538
 21
815.33877748452414
  0
LINE
  8
_0-1_計細線
  6
CONTINUOUS
 62
    3
 10
1279.8829394329064
 20
802.33877748452437
 11
1293.8829394321399
 21
802.33877748452437
  0
ARC
  8
_0-1_計細線
  6
CONTINUOUS
 62
    3
 10
1256.0829394340733
 20
818.03877748452442
 40
1
 50
89.999999999999915
 51
179.99999999999983
  0
ARC
  8
_0-1_計細線
  6
CONTINUOUS
 62
    3
 10
1256.5508886254008
 20
820.03877748452396
 40
1
 50
269.99999999999977
 51
330.00000000001364
  0
ARC
  8
_0-1_計細線
  6
CONTINUOUS
 62
    3
 10
1258.2829394329697
 20
819.03877748452442
 40
1
 50
89.999999999999915
 51
150.00000000000836
  0
LINE
  8
_0-1_計細線
  6
CONTINUOUS
 62
    3
 10
1256.0829394340733
 20
819.03877748452442
 11
1256.5508886254008
 21
819.03877748452442
  0
ARC
  8
_0-1_計細線
  6
CONTINUOUS
 62
    3
 10
1265.482939431866
 20
818.03877748452442
 40
1
 50
0
 51
89.999999999999915
  0
ARC
  8
_0-1_計細線
  6
CONTINUOUS
 62
    3
 10
1265.0149902405385
 20
820.03877748452396
 40
1
 50
209.99999999998565
 51
269.99999999999977
  0
ARC
  8
_0-1_計細線
  6
CONTINUOUS
 62
    3
 10
1263.2829394329699
 20
819.03877748452442
 40
1
 50
30.000000000004672
 51
89.999999999999915
  0
LINE
  8
_0-1_計細線
  6
CONTINUOUS
 62
    3
 10
1265.482939431866
 20
819.03877748452442
 11
1265.0149902405385
 21
819.03877748452442
  0
ARC
  8
_0-1_計細線
  6
CONTINUOUS
 62
    3
 10
1255.5829394340731
 20
816.63877748452467
 40
0.5
 50
179.99999999999983
 51
269.99999999999977
  0
LINE
  8
_0-1_計細線
  6
CONTINUOUS
 62
    3
 10
1255.0829394340733
 20
818.03877748452442
 11
1255.0829394340733
 21
816.63877748452467
  0
ARC
  8
_0-1_計細線
  6
CONTINUOUS
 62
    3
 10
1265.9829394318665
 20
816.63877748452467
 40
0.5
 50
269.99999999999977
 51
359.99999999999966
  0
LINE
  8
_0-1_計細線
  6
CONTINUOUS
 62
    3
 10
1266.4829394318665
 20
818.03877748452442
 11
1266.4829394318665
 21
816.63877748452467
  0
ARC
  8
_0-1_計細線
  6
CONTINUOUS
 62
    3
 10
1258.0829394340733
 20
815.13877748452455
 40
1
 50
0
 51
89.999999999999915
  0
LINE
  8
_0-1_計細線
  6
CONTINUOUS
 62
    3
 10
1258.0829394340733
 20
816.1387774845241
 11
1255.5829394340731
 21
816.1387774845241
  0
ARC
  8
_0-1_計細線
  6
CONTINUOUS
 62
    3
 10
1263.4829394340734
 20
815.13877748452455
 40
1
 50
89.999999999999915
 51
179.99999999999983
  0
LINE
  8
_0-1_計細線
  6
CONTINUOUS
 62
    3
 10
1263.4829394318654
 20
816.1387774845241
 11
1265.9829394318665
 21
816.1387774845241
  0
LINE
  8
_0-1_計細線
  6
CONTINUOUS
 62
    3
 10
1263.2829394329699
 20
820.03877748452396
 11
1258.2829394329697
 21
820.03877748452396
  0
LINE
  8
_0-1_計細線
  6
CONTINUOUS
 62
    3
 10
1259.0829394329696
 20
795.03877748452419
 11
1259.0829394340733
 21
815.13877748452455
  0
LINE
  8
_0-1_計細線
  6
CONTINUOUS
 62
    3
 10
1262.4829394329697
 20
795.03877748452419
 11
1262.4829394340734
 21
815.13877748452455
  0
LINE
  8
_0-1_計細線
  6
CONTINUOUS
 62
    3
 10
1262.4829394329697
 20
795.03877748452419
 11
1259.0829394329696
 21
795.03877748452419
  0
LINE
  8
_0-1_計細線
  6
CONTINUOUS
 62
    3
 10
1262.4829394335218
 20
815.33877748452414
 11
1276.4829394334688
 21
815.33877748452414
  0
LINE
  8
_0-1_計細線
  6
CONTINUOUS
 62
    3
 10
1262.4829394335218
 20
802.33877748452437
 11
1276.4829394327551
 21
802.33877748452437
  0
ARC
  8
_0-1_計細線
  6
CONTINUOUS
 62
    3
 10
1238.6829394346885
 20
818.03877748452442
 40
1
 50
89.999999999999915
 51
179.99999999999983
  0
ARC
  8
_0-1_計細線
  6
CONTINUOUS
 62
    3
 10
1239.1508886260158
 20
820.03877748452396
 40
1
 50
269.99999999999977
 51
330.00000000001364
  0
ARC
  8
_0-1_計細線
  6
CONTINUOUS
 62
    3
 10
1240.8829394335851
 20
819.03877748452442
 40
1
 50
89.999999999999915
 51
150.00000000000836
  0
LINE
  8
_0-1_計細線
  6
CONTINUOUS
 62
    3
 10
1238.6829394346885
 20
819.03877748452442
 11
1239.1508886260158
 21
819.03877748452442
  0
ARC
  8
_0-1_計細線
  6
CONTINUOUS
 62
    3
 10
1248.082939432481
 20
818.03877748452442
 40
1
 50
0
 51
89.999999999999915
  0
ARC
  8
_0-1_計細線
  6
CONTINUOUS
 62
    3
 10
1247.6149902411537
 20
820.03877748452396
 40
1
 50
209.99999999998565
 51
269.99999999999977
  0
ARC
  8
_0-1_計細線
  6
CONTINUOUS
 62
    3
 10
1245.8829394335851
 20
819.03877748452442
 40
1
 50
30.000000000004672
 51
89.999999999999915
  0
LINE
  8
_0-1_計細線
  6
CONTINUOUS
 62
    3
 10
1248.082939432481
 20
819.03877748452442
 11
1247.6149902411537
 21
819.03877748452442
  0
ARC
  8
_0-1_計細線
  6
CONTINUOUS
 62
    3
 10
1238.1829394346885
 20
816.63877748452467
 40
0.5
 50
179.99999999999983
 51
269.99999999999977
  0
LINE
  8
_0-1_計細線
  6
CONTINUOUS
 62
    3
 10
1237.6829394346883
 20
818.03877748452442
 11
1237.6829394346883
 21
816.63877748452467
  0
ARC
  8
_0-1_計細線
  6
CONTINUOUS
 62
    3
 10
1248.5829394324817
 20
816.63877748452467
 40
0.5
 50
269.99999999999977
 51
359.99999999999966
  0
LINE
  8
_0-1_計細線
  6
CONTINUOUS
 62
    3
 10
1249.0829394324815
 20
818.03877748452442
 11
1249.0829394324815
 21
816.63877748452467
  0
ARC
  8
_0-1_計細線
  6
CONTINUOUS
 62
    3
 10
1240.6829394346883
 20
815.13877748452455
 40
1
 50
0
 51
89.999999999999915
  0
LINE
  8
_0-1_計細線
  6
CONTINUOUS
 62
    3
 10
1240.6829394346883
 20
816.1387774845241
 11
1238.1829394346885
 21
816.1387774845241
  0
ARC
  8
_0-1_計細線
  6
CONTINUOUS
 62
    3
 10
1246.0829394346886
 20
815.13877748452455
 40
1
 50
89.999999999999915
 51
179.99999999999983
  0
LINE
  8
_0-1_計細線
  6
CONTINUOUS
 62
    3
 10
1246.0829394324808
 20
816.1387774845241
 11
1248.5829394324817
 21
816.1387774845241
  0
LINE
  8
_0-1_計細線
  6
CONTINUOUS
 62
    3
 10
1245.8829394335851
 20
820.03877748452396
 11
1240.8829394335851
 21
820.03877748452396
  0
LINE
  8
_0-1_計細線
  6
CONTINUOUS
 62
    3
 10
1241.6829394335848
 20
795.03877748452419
 11
1241.6829394346885
 21
815.13877748452455
  0
LINE
  8
_0-1_計細線
  6
CONTINUOUS
 62
    3
 10
1245.0829394335847
 20
795.03877748452419
 11
1245.0829394346883
 21
815.13877748452455
  0
LINE
  8
_0-1_計細線
  6
CONTINUOUS
 62
    3
 10
1245.0829394335847
 20
795.03877748452419
 11
1241.6829394335848
 21
795.03877748452419
  0
LINE
  8
_0-1_計細線
  6
CONTINUOUS
 62
    3
 10
1245.082939434137
 20
815.33877748452414
 11
1259.0829394340842
 21
815.33877748452414
  0
LINE
  8
_0-1_計細線
  6
CONTINUOUS
 62
    3
 10
1245.082939434137
 20
802.33877748452437
 11
1259.08293943337
 21
802.33877748452437
  0
ARC
  8
_0-1_計細線
  6
CONTINUOUS
 62
    3
 10
1221.2829394353034
 20
818.03877748452442
 40
1
 50
89.999999999999915
 51
179.99999999999983
  0
ARC
  8
_0-1_計細線
  6
CONTINUOUS
 62
    3
 10
1221.7508886266312
 20
820.03877748452396
 40
1
 50
269.99999999999977
 51
330.00000000001364
  0
ARC
  8
_0-1_計細線
  6
CONTINUOUS
 62
    3
 10
1223.4829394342003
 20
819.03877748452442
 40
1
 50
89.999999999999915
 51
150.00000000000836
  0
LINE
  8
_0-1_計細線
  6
CONTINUOUS
 62
    3
 10
1221.2829394353034
 20
819.03877748452442
 11
1221.7508886266312
 21
819.03877748452442
  0
ARC
  8
_0-1_計細線
  6
CONTINUOUS
 62
    3
 10
1230.6829394330964
 20
818.03877748452442
 40
1
 50
0
 51
89.999999999999915
  0
ARC
  8
_0-1_計細線
  6
CONTINUOUS
 62
    3
 10
1230.2149902417686
 20
820.03877748452396
 40
1
 50
209.99999999998565
 51
269.99999999999977
  0
ARC
  8
_0-1_計細線
  6
CONTINUOUS
 62
    3
 10
1228.4829394342
 20
819.03877748452442
 40
1
 50
30.000000000004672
 51
89.999999999999915
  0
LINE
  8
_0-1_計細線
  6
CONTINUOUS
 62
    3
 10
1230.6829394330964
 20
819.03877748452442
 11
1230.2149902417686
 21
819.03877748452442
  0
ARC
  8
_0-1_計細線
  6
CONTINUOUS
 62
    3
 10
1220.7829394353037
 20
816.63877748452467
 40
0.5
 50
179.99999999999983
 51
269.99999999999977
  0
LINE
  8
_0-1_計細線
  6
CONTINUOUS
 62
    3
 10
1220.2829394353037
 20
818.03877748452442
 11
1220.2829394353037
 21
816.63877748452467
  0
ARC
  8
_0-1_計細線
  6
CONTINUOUS
 62
    3
 10
1231.1829394330966
 20
816.63877748452467
 40
0.5
 50
269.99999999999977
 51
359.99999999999966
  0
LINE
  8
_0-1_計細線
  6
CONTINUOUS
 62
    3
 10
1231.6829394330969
 20
818.03877748452442
 11
1231.6829394330969
 21
816.63877748452467
  0
ARC
  8
_0-1_計細線
  6
CONTINUOUS
 62
    3
 10
1223.2829394353037
 20
815.13877748452455
 40
1
 50
0
 51
89.999999999999915
  0
LINE
  8
_0-1_計細線
  6
CONTINUOUS
 62
    3
 10
1223.2829394353037
 20
816.1387774845241
 11
1220.7829394353037
 21
816.1387774845241
  0
ARC
  8
_0-1_計細線
  6
CONTINUOUS
 62
    3
 10
1228.6829394353035
 20
815.13877748452455
 40
1
 50
89.999999999999915
 51
179.99999999999983
  0
LINE
  8
_0-1_計細線
  6
CONTINUOUS
 62
    3
 10
1228.682939433096
 20
816.1387774845241
 11
1231.1829394330966
 21
816.1387774845241
  0
LINE
  8
_0-1_計細線
  6
CONTINUOUS
 62
    3
 10
1228.4829394342
 20
820.03877748452396
 11
1223.4829394342003
 21
820.03877748452396
  0
LINE
  8
_0-1_計細線
  6
CONTINUOUS
 62
    3
 10
1224.2829394341998
 20
795.03877748452419
 11
1224.2829394353034
 21
815.13877748452455
  0
LINE
  8
_0-1_計細線
  6
CONTINUOUS
 62
    3
 10
1227.6829394342001
 20
795.03877748452419
 11
1227.6829394353038
 21
815.13877748452455
  0
LINE
  8
_0-1_計細線
  6
CONTINUOUS
 62
    3
 10
1227.6829394342001
 20
795.03877748452419
 11
1224.2829394341998
 21
795.03877748452419
  0
LINE
  8
_0-1_計細線
  6
CONTINUOUS
 62
    3
 10
1227.6829394347519
 20
815.33877748452414
 11
1241.6829394346994
 21
815.33877748452414
  0
LINE
  8
_0-1_計細線
  6
CONTINUOUS
 62
    3
 10
1227.6829394347519
 20
802.33877748452437
 11
1241.6829394339854
 21
802.33877748452437
  0
ARC
  8
_0-1_計細線
  6
CONTINUOUS
 62
    3
 10
1203.8829394359188
 20
818.03877748452442
 40
1
 50
89.999999999999915
 51
179.99999999999983
  0
ARC
  8
_0-1_計細線
  6
CONTINUOUS
 62
    3
 10
1204.3508886272464
 20
820.03877748452396
 40
1
 50
269.99999999999977
 51
330.00000000001364
  0
ARC
  8
_0-1_計細線
  6
CONTINUOUS
 62
    3
 10
1206.0829394348152
 20
819.03877748452442
 40
1
 50
89.999999999999915
 51
150.00000000000836
  0
LINE
  8
_0-1_計細線
  6
CONTINUOUS
 62
    3
 10
1203.8829394359188
 20
819.03877748452442
 11
1204.3508886272464
 21
819.03877748452442
  0
ARC
  8
_0-1_計細線
  6
CONTINUOUS
 62
    3
 10
1213.2829394337116
 20
818.03877748452442
 40
1
 50
0
 51
89.999999999999915
  0
ARC
  8
_0-1_計細線
  6
CONTINUOUS
 62
    3
 10
1212.8149902423841
 20
820.03877748452396
 40
1
 50
209.99999999998565
 51
269.99999999999977
  0
ARC
  8
_0-1_計細線
  6
CONTINUOUS
 62
    3
 10
1211.0829394348154
 20
819.03877748452442
 40
1
 50
30.000000000004672
 51
89.999999999999915
  0
LINE
  8
_0-1_計細線
  6
CONTINUOUS
 62
    3
 10
1213.2829394337116
 20
819.03877748452442
 11
1212.8149902423841
 21
819.03877748452442
  0
ARC
  8
_0-1_計細線
  6
CONTINUOUS
 62
    3
 10
1203.3829394359186
 20
816.63877748452467
 40
0.5
 50
179.99999999999983
 51
269.99999999999977
  0
LINE
  8
_0-1_計細線
  6
CONTINUOUS
 62
    3
 10
1202.8829394359188
 20
818.03877748452442
 11
1202.8829394359188
 21
816.63877748452467
  0
ARC
  8
_0-1_計細線
  6
CONTINUOUS
 62
    3
 10
1213.782939433712
 20
816.63877748452467
 40
0.5
 50
269.99999999999977
 51
359.99999999999966
  0
LINE
  8
_0-1_計細線
  6
CONTINUOUS
 62
    3
 10
1214.282939433712
 20
818.03877748452442
 11
1214.282939433712
 21
816.63877748452467
  0
ARC
  8
_0-1_計細線
  6
CONTINUOUS
 62
    3
 10
1205.8829394359188
 20
815.13877748452455
 40
1
 50
0
 51
89.999999999999915
  0
LINE
  8
_0-1_計細線
  6
CONTINUOUS
 62
    3
 10
1205.8829394359188
 20
816.1387774845241
 11
1203.3829394359186
 21
816.1387774845241
  0
ARC
  8
_0-1_計細線
  6
CONTINUOUS
 62
    3
 10
1211.2829394359189
 20
815.13877748452455
 40
1
 50
89.999999999999915
 51
179.99999999999983
  0
LINE
  8
_0-1_計細線
  6
CONTINUOUS
 62
    3
 10
1211.2829394337109
 20
816.1387774845241
 11
1213.782939433712
 21
816.1387774845241
  0
LINE
  8
_0-1_計細線
  6
CONTINUOUS
 62
    3
 10
1211.0829394348154
 20
820.03877748452396
 11
1206.0829394348152
 21
820.03877748452396
  0
LINE
  8
_0-1_計細線
  6
CONTINUOUS
 62
    3
 10
1206.8829394348152
 20
795.03877748452419
 11
1206.8829394359188
 21
815.13877748452455
  0
LINE
  8
_0-1_計細線
  6
CONTINUOUS
 62
    3
 10
1210.2829394348153
 20
795.03877748452419
 11
1210.2829394359189
 21
815.13877748452455
  0
LINE
  8
_0-1_計細線
  6
CONTINUOUS
 62
    3
 10
1210.2829394348153
 20
795.03877748452419
 11
1206.8829394348152
 21
795.03877748452419
  0
LINE
  8
_0-1_計細線
  6
CONTINUOUS
 62
    3
 10
1210.2829394353673
 20
815.33877748452414
 11
1224.2829394353143
 21
815.33877748452414
  0
LINE
  8
_0-1_計細線
  6
CONTINUOUS
 62
    3
 10
1210.2829394353673
 20
802.33877748452437
 11
1224.2829394346006
 21
802.33877748452437
  0
ARC
  8
_0-1_計細線
  6
CONTINUOUS
 62
    3
 10
1186.482939436534
 20
818.03877748452442
 40
1
 50
89.999999999999915
 51
179.99999999999983
  0
ARC
  8
_0-1_計細線
  6
CONTINUOUS
 62
    3
 10
1186.9508886278613
 20
820.03877748452396
 40
1
 50
269.99999999999977
 51
330.00000000001364
  0
ARC
  8
_0-1_計細線
  6
CONTINUOUS
 62
    3
 10
1188.6829394354306
 20
819.03877748452442
 40
1
 50
89.999999999999915
 51
150.00000000000836
  0
LINE
  8
_0-1_計細線
  6
CONTINUOUS
 62
    3
 10
1186.482939436534
 20
819.03877748452442
 11
1186.9508886278613
 21
819.03877748452442
  0
ARC
  8
_0-1_計細線
  6
CONTINUOUS
 62
    3
 10
1195.8829394343265
 20
818.03877748452442
 40
1
 50
0
 51
89.999999999999915
  0
ARC
  8
_0-1_計細線
  6
CONTINUOUS
 62
    3
 10
1195.4149902429992
 20
820.03877748452396
 40
1
 50
209.99999999998565
 51
269.99999999999977
  0
ARC
  8
_0-1_計細線
  6
CONTINUOUS
 62
    3
 10
1193.6829394354306
 20
819.03877748452442
 40
1
 50
30.000000000004672
 51
89.999999999999915
  0
LINE
  8
_0-1_計細線
  6
CONTINUOUS
 62
    3
 10
1195.8829394343265
 20
819.03877748452442
 11
1195.4149902429992
 21
819.03877748452442
  0
ARC
  8
_0-1_計細線
  6
CONTINUOUS
 62
    3
 10
1185.982939436534
 20
816.63877748452467
 40
0.5
 50
179.99999999999983
 51
269.99999999999977
  0
LINE
  8
_0-1_計細線
  6
CONTINUOUS
 62
    3
 10
1185.4829394365338
 20
818.03877748452442
 11
1185.4829394365338
 21
816.63877748452467
  0
ARC
  8
_0-1_計細線
  6
CONTINUOUS
 62
    3
 10
1196.3829394343272
 20
816.63877748452467
 40
0.5
 50
269.99999999999977
 51
359.99999999999966
  0
LINE
  8
_0-1_計細線
  6
CONTINUOUS
 62
    3
 10
1196.882939434327
 20
818.03877748452442
 11
1196.882939434327
 21
816.63877748452467
  0
ARC
  8
_0-1_計細線
  6
CONTINUOUS
 62
    3
 10
1188.4829394365338
 20
815.13877748452455
 40
1
 50
0
 51
89.999999999999915
  0
LINE
  8
_0-1_計細線
  6
CONTINUOUS
 62
    3
 10
1188.4829394365338
 20
816.1387774845241
 11
1185.982939436534
 21
816.1387774845241
  0
ARC
  8
_0-1_計細線
  6
CONTINUOUS
 62
    3
 10
1193.8829394365341
 20
815.13877748452455
 40
1
 50
89.999999999999915
 51
179.99999999999983
  0
LINE
  8
_0-1_計細線
  6
CONTINUOUS
 62
    3
 10
1193.8829394343263
 20
816.1387774845241
 11
1196.3829394343272
 21
816.1387774845241
  0
LINE
  8
_0-1_計細線
  6
CONTINUOUS
 62
    3
 10
1193.6829394354306
 20
820.03877748452396
 11
1188.6829394354306
 21
820.03877748452396
  0
LINE
  8
_0-1_計細線
  6
CONTINUOUS
 62
    3
 10
1189.4829394354304
 20
795.03877748452419
 11
1189.482939436534
 21
815.13877748452455
  0
LINE
  8
_0-1_計細線
  6
CONTINUOUS
 62
    3
 10
1192.8829394354302
 20
795.03877748452419
 11
1192.8829394365339
 21
815.13877748452455
  0
LINE
  8
_0-1_計細線
  6
CONTINUOUS
 62
    3
 10
1192.8829394354302
 20
795.03877748452419
 11
1189.4829394354304
 21
795.03877748452419
  0
LINE
  8
_0-1_計細線
  6
CONTINUOUS
 62
    3
 10
1192.8829394359825
 20
815.33877748452414
 11
1206.8829394359298
 21
815.33877748452414
  0
LINE
  8
_0-1_計細線
  6
CONTINUOUS
 62
    3
 10
1192.8829394359825
 20
802.33877748452437
 11
1206.8829394352156
 21
802.33877748452437
  0
ARC
  8
_0-1_計細線
  6
CONTINUOUS
 62
    3
 10
1169.082939437149
 20
818.03877748452442
 40
1
 50
89.999999999999915
 51
179.99999999999983
  0
ARC
  8
_0-1_計細線
  6
CONTINUOUS
 62
    3
 10
1169.5508886284767
 20
820.03877748452396
 40
1
 50
269.99999999999977
 51
330.00000000001364
  0
ARC
  8
_0-1_計細線
  6
CONTINUOUS
 62
    3
 10
1171.2829394360458
 20
819.03877748452442
 40
1
 50
89.999999999999915
 51
150.00000000000836
  0
LINE
  8
_0-1_計細線
  6
CONTINUOUS
 62
    3
 10
1169.082939437149
 20
819.03877748452442
 11
1169.5508886284767
 21
819.03877748452442
  0
ARC
  8
_0-1_計細線
  6
CONTINUOUS
 62
    3
 10
1178.482939434942
 20
818.03877748452442
 40
1
 50
0
 51
89.999999999999915
  0
ARC
  8
_0-1_計細線
  6
CONTINUOUS
 62
    3
 10
1178.0149902436142
 20
820.03877748452396
 40
1
 50
209.99999999998565
 51
269.99999999999977
  0
ARC
  8
_0-1_計細線
  6
CONTINUOUS
 62
    3
 10
1176.2829394360456
 20
819.03877748452442
 40
1
 50
30.000000000004672
 51
89.999999999999915
  0
LINE
  8
_0-1_計細線
  6
CONTINUOUS
 62
    3
 10
1178.482939434942
 20
819.03877748452442
 11
1178.0149902436142
 21
819.03877748452442
  0
ARC
  8
_0-1_計細線
  6
CONTINUOUS
 62
    3
 10
1168.5829394371492
 20
816.63877748452467
 40
0.5
 50
179.99999999999983
 51
269.99999999999977
  0
LINE
  8
_0-1_計細線
  6
CONTINUOUS
 62
    3
 10
1168.0829394371492
 20
818.03877748452442
 11
1168.0829394371492
 21
816.63877748452467
  0
ARC
  8
_0-1_計細線
  6
CONTINUOUS
 62
    3
 10
1178.9829394349422
 20
816.63877748452467
 40
0.5
 50
269.99999999999977
 51
359.99999999999966
  0
LINE
  8
_0-1_計細線
  6
CONTINUOUS
 62
    3
 10
1179.4829394349424
 20
818.03877748452442
 11
1179.4829394349424
 21
816.63877748452467
  0
ARC
  8
_0-1_計細線
  6
CONTINUOUS
 62
    3
 10
1171.0829394371492
 20
815.13877748452455
 40
1
 50
0
 51
89.999999999999915
  0
LINE
  8
_0-1_計細線
  6
CONTINUOUS
 62
    3
 10
1171.0829394371492
 20
816.1387774845241
 11
1168.5829394371492
 21
816.1387774845241
  0
ARC
  8
_0-1_計細線
  6
CONTINUOUS
 62
    3
 10
1176.4829394371491
 20
815.13877748452455
 40
1
 50
89.999999999999915
 51
179.99999999999983
  0
LINE
  8
_0-1_計細線
  6
CONTINUOUS
 62
    3
 10
1176.4829394349415
 20
816.1387774845241
 11
1178.9829394349422
 21
816.1387774845241
  0
LINE
  8
_0-1_計細線
  6
CONTINUOUS
 62
    3
 10
1176.2829394360456
 20
820.03877748452396
 11
1171.2829394360458
 21
820.03877748452396
  0
LINE
  8
_0-1_計細線
  6
CONTINUOUS
 62
    3
 10
1172.0829394360453
 20
795.03877748452419
 11
1172.082939437149
 21
815.13877748452455
  0
LINE
  8
_0-1_計細線
  6
CONTINUOUS
 62
    3
 10
1175.4829394360456
 20
795.03877748452419
 11
1175.4829394371493
 21
815.13877748452455
  0
LINE
  8
_0-1_計細線
  6
CONTINUOUS
 62
    3
 10
1175.4829394360456
 20
795.03877748452419
 11
1172.0829394360453
 21
795.03877748452419
  0
LINE
  8
_0-1_計細線
  6
CONTINUOUS
 62
    3
 10
1175.4829394365975
 20
815.33877748452414
 11
1189.4829394365449
 21
815.33877748452414
  0
LINE
  8
_0-1_計細線
  6
CONTINUOUS
 62
    3
 10
1175.4829394365975
 20
802.33877748452437
 11
1189.482939435831
 21
802.33877748452437
  0
ARC
  8
_0-1_計細線
  6
CONTINUOUS
 62
    3
 10
1151.6829394377644
 20
818.03877748452442
 40
1
 50
89.999999999999915
 51
179.99999999999983
  0
ARC
  8
_0-1_計細線
  6
CONTINUOUS
 62
    3
 10
1152.1508886290919
 20
820.03877748452396
 40
1
 50
269.99999999999977
 51
330.00000000001364
  0
ARC
  8
_0-1_計細線
  6
CONTINUOUS
 62
    3
 10
1153.8829394366608
 20
819.03877748452442
 40
1
 50
89.999999999999915
 51
150.00000000000836
  0
LINE
  8
_0-1_計細線
  6
CONTINUOUS
 62
    3
 10
1151.6829394377644
 20
819.03877748452442
 11
1152.1508886290919
 21
819.03877748452442
  0
ARC
  8
_0-1_計細線
  6
CONTINUOUS
 62
    3
 10
1161.0829394355571
 20
818.03877748452442
 40
1
 50
0
 51
89.999999999999915
  0
ARC
  8
_0-1_計細線
  6
CONTINUOUS
 62
    3
 10
1160.6149902442296
 20
820.03877748452396
 40
1
 50
209.99999999998565
 51
269.99999999999977
  0
ARC
  8
_0-1_計細線
  6
CONTINUOUS
 62
    3
 10
1158.882939436661
 20
819.03877748452442
 40
1
 50
30.000000000004672
 51
89.999999999999915
  0
LINE
  8
_0-1_計細線
  6
CONTINUOUS
 62
    3
 10
1161.0829394355571
 20
819.03877748452442
 11
1160.6149902442296
 21
819.03877748452442
  0
ARC
  8
_0-1_計細線
  6
CONTINUOUS
 62
    3
 10
1151.1829394377642
 20
816.63877748452467
 40
0.5
 50
179.99999999999983
 51
269.99999999999977
  0
LINE
  8
_0-1_計細線
  6
CONTINUOUS
 62
    3
 10
1150.6829394377644
 20
818.03877748452442
 11
1150.6829394377644
 21
816.63877748452467
  0
ARC
  8
_0-1_計細線
  6
CONTINUOUS
 62
    3
 10
1161.5829394355576
 20
816.63877748452467
 40
0.5
 50
269.99999999999977
 51
359.99999999999966
  0
LINE
  8
_0-1_計細線
  6
CONTINUOUS
 62
    3
 10
1162.0829394355576
 20
818.03877748452442
 11
1162.0829394355576
 21
816.63877748452467
  0
ARC
  8
_0-1_計細線
  6
CONTINUOUS
 62
    3
 10
1153.6829394377644
 20
815.13877748452455
 40
1
 50
0
 51
89.999999999999915
  0
LINE
  8
_0-1_計細線
  6
CONTINUOUS
 62
    3
 10
1153.6829394377644
 20
816.1387774845241
 11
1151.1829394377642
 21
816.1387774845241
  0
ARC
  8
_0-1_計細線
  6
CONTINUOUS
 62
    3
 10
1159.0829394377645
 20
815.13877748452455
 40
1
 50
89.999999999999915
 51
179.99999999999983
  0
LINE
  8
_0-1_計細線
  6
CONTINUOUS
 62
    3
 10
1159.0829394355565
 20
816.1387774845241
 11
1161.5829394355576
 21
816.1387774845241
  0
LINE
  8
_0-1_計細線
  6
CONTINUOUS
 62
    3
 10
1158.882939436661
 20
820.03877748452396
 11
1153.8829394366608
 21
820.03877748452396
  0
LINE
  8
_0-1_計細線
  6
CONTINUOUS
 62
    3
 10
1154.6829394366607
 20
795.03877748452419
 11
1154.6829394377644
 21
815.13877748452455
  0
LINE
  8
_0-1_計細線
  6
CONTINUOUS
 62
    3
 10
1158.0829394366608
 20
795.03877748452419
 11
1158.0829394377645
 21
815.13877748452455
  0
LINE
  8
_0-1_計細線
  6
CONTINUOUS
 62
    3
 10
1158.0829394366608
 20
795.03877748452419
 11
1154.6829394366607
 21
795.03877748452419
  0
LINE
  8
_0-1_計細線
  6
CONTINUOUS
 62
    3
 10
1158.0829394372129
 20
815.33877748452414
 11
1172.0829394371599
 21
815.33877748452414
  0
LINE
  8
_0-1_計細線
  6
CONTINUOUS
 62
    3
 10
1158.0829394372129
 20
802.33877748452437
 11
1172.0829394364462
 21
802.33877748452437
  0
LINE
  8
_0-1_計細線
  6
CONTINUOUS
 62
    3
 10
1139.882939428941
 20
802.33877748452437
 11
1154.6829394370611
 21
802.33877748452437
  0
LINE
  8
_0-1_計細線
  6
CONTINUOUS
 62
    3
 10
1139.8829394282272
 20
815.33877748452414
 11
1154.6829394377753
 21
815.33877748452414
  0
ARC
  8
_0-1_計細線
  6
CONTINUOUS
 62
    3
 10
1142.8829394282382
 20
818.03877748452442
 40
1
 50
0
 51
89.999999999999915
  0
ARC
  8
_0-1_計細線
  6
CONTINUOUS
 62
    3
 10
1142.4149902369106
 20
820.03877748452396
 40
1
 50
209.99999999998565
 51
269.99999999999977
  0
ARC
  8
_0-1_計細線
  6
CONTINUOUS
 62
    3
 10
1140.682939429342
 20
819.03877748452442
 40
1
 50
30.000000000004672
 51
89.999999999999915
  0
LINE
  8
_0-1_計細線
  6
CONTINUOUS
 62
    3
 10
1142.8829394282382
 20
819.03877748452442
 11
1142.4149902369106
 21
819.03877748452442
  0
ARC
  8
_0-1_計細線
  6
CONTINUOUS
 62
    3
 10
1133.4829394304447
 20
818.03877748452442
 40
1
 50
89.999999999999915
 51
179.99999999999983
  0
ARC
  8
_0-1_計細線
  6
CONTINUOUS
 62
    3
 10
1133.9508886217729
 20
820.03877748452396
 40
1
 50
269.99999999999977
 51
330.00000000001364
  0
ARC
  8
_0-1_計細線
  6
CONTINUOUS
 62
    3
 10
1135.6829394293416
 20
819.03877748452442
 40
1
 50
89.999999999999915
 51
149.99999999999534
  0
LINE
  8
_0-1_計細線
  6
CONTINUOUS
 62
    3
 10
1133.4829394304447
 20
819.03877748452442
 11
1133.9508886217729
 21
819.03877748452442
  0
ARC
  8
_0-1_計細線
  6
CONTINUOUS
 62
    3
 10
1143.3829394282379
 20
816.63877748452467
 40
0.5
 50
269.99999999999977
 51
359.99999999999966
  0
LINE
  8
_0-1_計細線
  6
CONTINUOUS
 62
    3
 10
1143.8829394282382
 20
818.03877748452442
 11
1143.8829394282382
 21
816.63877748452467
  0
ARC
  8
_0-1_計細線
  6
CONTINUOUS
 62
    3
 10
1132.982939430445
 20
816.63877748452467
 40
0.5
 50
179.99999999999983
 51
269.99999999999977
  0
LINE
  8
_0-1_計細線
  6
CONTINUOUS
 62
    3
 10
1132.4829394304454
 20
818.03877748452442
 11
1132.4829394304454
 21
816.63877748452467
  0
ARC
  8
_0-1_計細線
  6
CONTINUOUS
 62
    3
 10
1140.8829394282382
 20
815.13877748452455
 40
1
 50
89.999999999999915
 51
179.99999999999983
  0
LINE
  8
_0-1_計細線
  6
CONTINUOUS
 62
    3
 10
1140.8829394282382
 20
816.1387774845241
 11
1143.3829394282379
 21
816.1387774845241
  0
ARC
  8
_0-1_計細線
  6
CONTINUOUS
 62
    3
 10
1135.4829394282381
 20
815.13877748452455
 40
1
 50
0
 51
89.999999999999915
  0
LINE
  8
_0-1_計細線
  6
CONTINUOUS
 62
    3
 10
1135.4829394304456
 20
816.1387774845241
 11
1132.982939430445
 21
816.1387774845241
  0
LINE
  8
_0-1_計細線
  6
CONTINUOUS
 62
    3
 10
1135.6829394293416
 20
820.03877748452396
 11
1140.682939429342
 21
820.03877748452396
  0
LINE
  8
_0-1_計細線
  6
CONTINUOUS
 62
    3
 10
1139.8829394293418
 20
795.03877748452419
 11
1139.8829394282382
 21
815.13877748452455
  0
LINE
  8
_0-1_計細線
  6
CONTINUOUS
 62
    3
 10
1136.4829394293417
 20
795.03877748452419
 11
1136.4829394282381
 21
815.13877748452455
  0
LINE
  8
_0-1_計細線
  6
CONTINUOUS
 62
    3
 10
1136.4829394293417
 20
795.03877748452419
 11
1139.8829394293418
 21
795.03877748452419
  0
ARC
  8
_0-1_計細線
  6
CONTINUOUS
 62
    3
 10
1387.2829394292778
 20
818.03877748452442
 40
1
 50
0
 51
89.999999999999915
  0
ARC
  8
_0-1_計細線
  6
CONTINUOUS
 62
    3
 10
1386.8149902379503
 20
820.03877748452396
 40
1
 50
209.99999999998565
 51
269.99999999999977
  0
ARC
  8
_0-1_計細線
  6
CONTINUOUS
 62
    3
 10
1385.082939430381
 20
819.03877748452442
 40
1
 50
29.999999999991644
 51
89.999999999999915
  0
LINE
  8
_0-1_計細線
  6
CONTINUOUS
 62
    3
 10
1387.2829394292778
 20
819.03877748452442
 11
1386.8149902379503
 21
819.03877748452442
  0
ARC
  8
_0-1_計細線
  6
CONTINUOUS
 62
    3
 10
1377.8829394314851
 20
818.03877748452442
 40
1
 50
89.999999999999915
 51
179.99999999999983
  0
ARC
  8
_0-1_計細線
  6
CONTINUOUS
 62
    3
 10
1378.3508886228126
 20
820.03877748452396
 40
1
 50
269.99999999999977
 51
330.00000000001364
  0
ARC
  8
_0-1_計細線
  6
CONTINUOUS
 62
    3
 10
1380.0829394303814
 20
819.03877748452442
 40
1
 50
90.000000000026048
 51
150.00000000000836
  0
LINE
  8
_0-1_計細線
  6
CONTINUOUS
 62
    3
 10
1377.8829394314851
 20
819.03877748452442
 11
1378.3508886228126
 21
819.03877748452442
  0
ARC
  8
_0-1_計細線
  6
CONTINUOUS
 62
    3
 10
1387.7829394292773
 20
816.63877748452467
 40
0.5
 50
269.99999999999977
 51
359.99999999999966
  0
LINE
  8
_0-1_計細線
  6
CONTINUOUS
 62
    3
 10
1388.2829394292778
 20
818.03877748452442
 11
1388.2829394292778
 21
816.63877748452467
  0
ARC
  8
_0-1_計細線
  6
CONTINUOUS
 62
    3
 10
1377.3829394314846
 20
816.63877748452467
 40
0.5
 50
179.99999999999983
 51
269.99999999999977
  0
LINE
  8
_0-1_計細線
  6
CONTINUOUS
 62
    3
 10
1376.8829394314846
 20
818.03877748452442
 11
1376.8829394314846
 21
816.63877748452467
  0
ARC
  8
_0-1_計細線
  6
CONTINUOUS
 62
    3
 10
1385.2829394292778
 20
815.13877748452455
 40
1
 50
89.999999999999915
 51
179.99999999999983
  0
LINE
  8
_0-1_計細線
  6
CONTINUOUS
 62
    3
 10
1385.2829394292778
 20
816.1387774845241
 11
1387.7829394292773
 21
816.1387774845241
  0
ARC
  8
_0-1_計細線
  6
CONTINUOUS
 62
    3
 10
1379.8829394292777
 20
815.13877748452455
 40
1
 50
0
 51
89.999999999999915
  0
LINE
  8
_0-1_計細線
  6
CONTINUOUS
 62
    3
 10
1379.8829394314851
 20
816.1387774845241
 11
1377.3829394314846
 21
816.1387774845241
  0
LINE
  8
_0-1_計細線
  6
CONTINUOUS
 62
    3
 10
1380.0829394303814
 20
820.03877748452396
 11
1385.082939430381
 21
820.03877748452396
  0
LINE
  8
_0-1_計細線
  6
CONTINUOUS
 62
    3
 10
1384.2829394303815
 20
795.03877748452419
 11
1384.282939429278
 21
815.13877748452455
  0
LINE
  8
_0-1_計細線
  6
CONTINUOUS
 62
    3
 10
1380.8829394303814
 20
795.03877748452419
 11
1380.8829394292777
 21
815.13877748452455
  0
LINE
  8
_0-1_計細線
  6
CONTINUOUS
 62
    3
 10
1380.8829394303814
 20
795.03877748452419
 11
1384.2829394303815
 21
795.03877748452419
  0
LINE
  8
_0-1_計細線
  6
CONTINUOUS
 62
    3
 10
1380.8829394298295
 20
815.33877748452414
 11
1366.8829394298818
 21
815.33877748452414
  0
LINE
  8
_0-1_計細線
  6
CONTINUOUS
 62
    3
 10
1380.8829394298295
 20
802.33877748452437
 11
1366.8829394305953
 21
802.33877748452437
  0
ARC
  8
_0-1_計細線
  6
CONTINUOUS
 62
    3
 10
1404.6829394286626
 20
818.03877748452442
 40
1
 50
0
 51
89.999999999999915
  0
ARC
  8
_0-1_計細線
  6
CONTINUOUS
 62
    3
 10
1404.2149902373349
 20
820.03877748452396
 40
1
 50
209.99999999998565
 51
269.99999999999977
  0
ARC
  8
_0-1_計細線
  6
CONTINUOUS
 62
    3
 10
1402.482939429766
 20
819.03877748452442
 40
1
 50
29.999999999991644
 51
89.999999999999915
  0
LINE
  8
_0-1_計細線
  6
CONTINUOUS
 62
    3
 10
1404.6829394286626
 20
819.03877748452442
 11
1404.2149902373349
 21
819.03877748452442
  0
ARC
  8
_0-1_計細線
  6
CONTINUOUS
 62
    3
 10
1395.2829394308696
 20
818.03877748452442
 40
1
 50
89.999999999999915
 51
179.99999999999983
  0
ARC
  8
_0-1_計細線
  6
CONTINUOUS
 62
    3
 10
1395.7508886221974
 20
820.03877748452396
 40
1
 50
269.99999999999977
 51
330.00000000001364
  0
ARC
  8
_0-1_計細線
  6
CONTINUOUS
 62
    3
 10
1397.4829394297665
 20
819.03877748452442
 40
1
 50
90.000000000026048
 51
150.00000000000836
  0
LINE
  8
_0-1_計細線
  6
CONTINUOUS
 62
    3
 10
1395.2829394308696
 20
819.03877748452442
 11
1395.7508886221974
 21
819.03877748452442
  0
ARC
  8
_0-1_計細線
  6
CONTINUOUS
 62
    3
 10
1405.1829394286622
 20
816.63877748452467
 40
0.5
 50
269.99999999999977
 51
359.99999999999966
  0
LINE
  8
_0-1_計細線
  6
CONTINUOUS
 62
    3
 10
1405.6829394286624
 20
818.03877748452442
 11
1405.6829394286624
 21
816.63877748452467
  0
ARC
  8
_0-1_計細線
  6
CONTINUOUS
 62
    3
 10
1394.7829394308694
 20
816.63877748452467
 40
0.5
 50
179.99999999999983
 51
269.99999999999977
  0
LINE
  8
_0-1_計細線
  6
CONTINUOUS
 62
    3
 10
1394.2829394308692
 20
818.03877748452442
 11
1394.2829394308692
 21
816.63877748452467
  0
ARC
  8
_0-1_計細線
  6
CONTINUOUS
 62
    3
 10
1402.6829394286624
 20
815.13877748452455
 40
1
 50
89.999999999999915
 51
179.99999999999983
  0
LINE
  8
_0-1_計細線
  6
CONTINUOUS
 62
    3
 10
1402.6829394286624
 20
816.1387774845241
 11
1405.1829394286622
 21
816.1387774845241
  0
ARC
  8
_0-1_計細線
  6
CONTINUOUS
 62
    3
 10
1397.2829394286625
 20
815.13877748452455
 40
1
 50
0
 51
89.999999999999915
  0
LINE
  8
_0-1_計細線
  6
CONTINUOUS
 62
    3
 10
1397.2829394308699
 20
816.1387774845241
 11
1394.7829394308694
 21
816.1387774845241
  0
LINE
  8
_0-1_計細線
  6
CONTINUOUS
 62
    3
 10
1397.4829394297665
 20
820.03877748452396
 11
1402.482939429766
 21
820.03877748452396
  0
LINE
  8
_0-1_計細線
  6
CONTINUOUS
 62
    3
 10
1401.6829394297663
 20
795.03877748452419
 11
1401.6829394286631
 21
815.13877748452455
  0
LINE
  8
_0-1_計細線
  6
CONTINUOUS
 62
    3
 10
1398.282939429766
 20
795.03877748452419
 11
1398.2829394286623
 21
815.13877748452455
  0
LINE
  8
_0-1_計細線
  6
CONTINUOUS
 62
    3
 10
1398.282939429766
 20
795.03877748452419
 11
1401.6829394297663
 21
795.03877748452419
  0
LINE
  8
_0-1_計細線
  6
CONTINUOUS
 62
    3
 10
1398.2829394292146
 20
815.33877748452414
 11
1384.2829394292669
 21
815.33877748452414
  0
LINE
  8
_0-1_計細線
  6
CONTINUOUS
 62
    3
 10
1398.2829394292146
 20
802.33877748452437
 11
1384.2829394299804
 21
802.33877748452437
  0
ARC
  8
_0-1_計細線
  6
CONTINUOUS
 62
    3
 10
1422.0829394280472
 20
818.03877748452442
 40
1
 50
0
 51
89.999999999999915
  0
ARC
  8
_0-1_計細線
  6
CONTINUOUS
 62
    3
 10
1421.6149902367199
 20
820.03877748452396
 40
1
 50
209.99999999998565
 51
269.99999999999977
  0
ARC
  8
_0-1_計細線
  6
CONTINUOUS
 62
    3
 10
1419.8829394291508
 20
819.03877748452442
 40
1
 50
29.999999999991644
 51
89.999999999999915
  0
LINE
  8
_0-1_計細線
  6
CONTINUOUS
 62
    3
 10
1422.0829394280472
 20
819.03877748452442
 11
1421.6149902367199
 21
819.03877748452442
  0
ARC
  8
_0-1_計細線
  6
CONTINUOUS
 62
    3
 10
1412.6829394302547
 20
818.03877748452442
 40
1
 50
89.999999999999915
 51
179.99999999999983
  0
ARC
  8
_0-1_計細線
  6
CONTINUOUS
 62
    3
 10
1413.150888621582
 20
820.03877748452396
 40
1
 50
269.99999999999977
 51
330.00000000001364
  0
ARC
  8
_0-1_計細線
  6
CONTINUOUS
 62
    3
 10
1414.8829394291513
 20
819.03877748452442
 40
1
 50
90.000000000026048
 51
150.00000000000836
  0
LINE
  8
_0-1_計細線
  6
CONTINUOUS
 62
    3
 10
1412.6829394302547
 20
819.03877748452442
 11
1413.150888621582
 21
819.03877748452442
  0
ARC
  8
_0-1_計細線
  6
CONTINUOUS
 62
    3
 10
1422.5829394280468
 20
816.63877748452467
 40
0.5
 50
269.99999999999977
 51
359.99999999999966
  0
LINE
  8
_0-1_計細線
  6
CONTINUOUS
 62
    3
 10
1423.0829394280474
 20
818.03877748452442
 11
1423.0829394280474
 21
816.63877748452467
  0
ARC
  8
_0-1_計細線
  6
CONTINUOUS
 62
    3
 10
1412.182939430254
 20
816.63877748452467
 40
0.5
 50
179.99999999999983
 51
269.99999999999977
  0
LINE
  8
_0-1_計細線
  6
CONTINUOUS
 62
    3
 10
1411.6829394302542
 20
818.03877748452442
 11
1411.6829394302542
 21
816.63877748452467
  0
ARC
  8
_0-1_計細線
  6
CONTINUOUS
 62
    3
 10
1420.0829394280474
 20
815.13877748452455
 40
1
 50
89.999999999999915
 51
179.99999999999983
  0
LINE
  8
_0-1_計細線
  6
CONTINUOUS
 62
    3
 10
1420.0829394280474
 20
816.1387774845241
 11
1422.5829394280468
 21
816.1387774845241
  0
ARC
  8
_0-1_計細線
  6
CONTINUOUS
 62
    3
 10
1414.6829394280471
 20
815.13877748452455
 40
1
 50
0
 51
89.999999999999915
  0
LINE
  8
_0-1_計細線
  6
CONTINUOUS
 62
    3
 10
1414.6829394302545
 20
816.1387774845241
 11
1412.182939430254
 21
816.1387774845241
  0
LINE
  8
_0-1_計細線
  6
CONTINUOUS
 62
    3
 10
1414.8829394291513
 20
820.03877748452396
 11
1419.8829394291508
 21
820.03877748452396
  0
LINE
  8
_0-1_計細線
  6
CONTINUOUS
 62
    3
 10
1419.0829394291509
 20
795.03877748452419
 11
1419.0829394280479
 21
815.13877748452455
  0
LINE
  8
_0-1_計細線
  6
CONTINUOUS
 62
    3
 10
1415.682939429151
 20
795.03877748452419
 11
1415.6829394280473
 21
815.13877748452455
  0
LINE
  8
_0-1_計細線
  6
CONTINUOUS
 62
    3
 10
1415.682939429151
 20
795.03877748452419
 11
1419.0829394291509
 21
795.03877748452419
  0
LINE
  8
_0-1_計細線
  6
CONTINUOUS
 62
    3
 10
1415.6829394285994
 20
815.33877748452414
 11
1401.6829394286517
 21
815.33877748452414
  0
LINE
  8
_0-1_計細線
  6
CONTINUOUS
 62
    3
 10
1415.6829394285994
 20
802.33877748452437
 11
1401.6829394293652
 21
802.33877748452437
  0
ARC
  8
_0-1_計細線
  6
CONTINUOUS
 62
    3
 10
1439.4829394274323
 20
818.03877748452442
 40
1
 50
0
 51
89.999999999999915
  0
ARC
  8
_0-1_計細線
  6
CONTINUOUS
 62
    3
 10
1439.0149902361047
 20
820.03877748452396
 40
1
 50
209.99999999998565
 51
269.99999999999977
  0
ARC
  8
_0-1_計細線
  6
CONTINUOUS
 62
    3
 10
1437.2829394285354
 20
819.03877748452442
 40
1
 50
29.999999999991644
 51
89.999999999999915
  0
LINE
  8
_0-1_計細線
  6
CONTINUOUS
 62
    3
 10
1439.4829394274323
 20
819.03877748452442
 11
1439.0149902361047
 21
819.03877748452442
  0
ARC
  8
_0-1_計細線
  6
CONTINUOUS
 62
    3
 10
1430.0829394296395
 20
818.03877748452442
 40
1
 50
89.999999999999915
 51
179.99999999999983
  0
ARC
  8
_0-1_計細線
  6
CONTINUOUS
 62
    3
 10
1430.550888620967
 20
820.03877748452396
 40
1
 50
269.99999999999977
 51
330.00000000001364
  0
ARC
  8
_0-1_計細線
  6
CONTINUOUS
 62
    3
 10
1432.2829394285359
 20
819.03877748452442
 40
1
 50
90.000000000026048
 51
150.00000000000836
  0
LINE
  8
_0-1_計細線
  6
CONTINUOUS
 62
    3
 10
1430.0829394296395
 20
819.03877748452442
 11
1430.550888620967
 21
819.03877748452442
  0
ARC
  8
_0-1_計細線
  6
CONTINUOUS
 62
    3
 10
1439.9829394274318
 20
816.63877748452467
 40
0.5
 50
269.99999999999977
 51
359.99999999999966
  0
LINE
  8
_0-1_計細線
  6
CONTINUOUS
 62
    3
 10
1440.4829394274323
 20
818.03877748452442
 11
1440.4829394274323
 21
816.63877748452467
  0
ARC
  8
_0-1_計細線
  6
CONTINUOUS
 62
    3
 10
1429.5829394296391
 20
816.63877748452467
 40
0.5
 50
179.99999999999983
 51
269.99999999999977
  0
LINE
  8
_0-1_計細線
  6
CONTINUOUS
 62
    3
 10
1429.0829394296391
 20
818.03877748452442
 11
1429.0829394296391
 21
816.63877748452467
  0
ARC
  8
_0-1_計細線
  6
CONTINUOUS
 62
    3
 10
1437.4829394274323
 20
815.13877748452455
 40
1
 50
89.999999999999915
 51
179.99999999999983
  0
LINE
  8
_0-1_計細線
  6
CONTINUOUS
 62
    3
 10
1437.4829394274323
 20
816.1387774845241
 11
1439.9829394274318
 21
816.1387774845241
  0
ARC
  8
_0-1_計細線
  6
CONTINUOUS
 62
    3
 10
1432.0829394274322
 20
815.13877748452455
 40
1
 50
0
 51
89.999999999999915
  0
LINE
  8
_0-1_計細線
  6
CONTINUOUS
 62
    3
 10
1432.0829394296395
 20
816.1387774845241
 11
1429.5829394296391
 21
816.1387774845241
  0
LINE
  8
_0-1_計細線
  6
CONTINUOUS
 62
    3
 10
1432.2829394285359
 20
820.03877748452396
 11
1437.2829394285354
 21
820.03877748452396
  0
LINE
  8
_0-1_計細線
  6
CONTINUOUS
 62
    3
 10
1436.4829394285359
 20
795.03877748452419
 11
1436.4829394274325
 21
815.13877748452455
  0
LINE
  8
_0-1_計細線
  6
CONTINUOUS
 62
    3
 10
1433.0829394285358
 20
795.03877748452419
 11
1433.0829394274322
 21
815.13877748452455
  0
LINE
  8
_0-1_計細線
  6
CONTINUOUS
 62
    3
 10
1433.0829394285358
 20
795.03877748452419
 11
1436.4829394285359
 21
795.03877748452419
  0
LINE
  8
_0-1_計細線
  6
CONTINUOUS
 62
    3
 10
1433.082939427984
 20
815.33877748452414
 11
1419.0829394280363
 21
815.33877748452414
  0
LINE
  8
_0-1_計細線
  6
CONTINUOUS
 62
    3
 10
1433.082939427984
 20
802.33877748452437
 11
1419.0829394287498
 21
802.33877748452437
  0
ARC
  8
_0-1_計細線
  6
CONTINUOUS
 62
    3
 10
1456.8829394268171
 20
818.03877748452442
 40
1
 50
0
 51
89.999999999999915
  0
ARC
  8
_0-1_計細線
  6
CONTINUOUS
 62
    3
 10
1456.4149902354893
 20
820.03877748452396
 40
1
 50
209.99999999998565
 51
269.99999999999977
  0
ARC
  8
_0-1_計細線
  6
CONTINUOUS
 62
    3
 10
1454.6829394279205
 20
819.03877748452442
 40
1
 50
29.999999999991644
 51
89.999999999999915
  0
LINE
  8
_0-1_計細線
  6
CONTINUOUS
 62
    3
 10
1456.8829394268171
 20
819.03877748452442
 11
1456.4149902354893
 21
819.03877748452442
  0
ARC
  8
_0-1_計細線
  6
CONTINUOUS
 62
    3
 10
1447.4829394290241
 20
818.03877748452442
 40
1
 50
89.999999999999915
 51
179.99999999999983
  0
ARC
  8
_0-1_計細線
  6
CONTINUOUS
 62
    3
 10
1447.9508886203519
 20
820.03877748452396
 40
1
 50
269.99999999999977
 51
330.00000000001364
  0
ARC
  8
_0-1_計細線
  6
CONTINUOUS
 62
    3
 10
1449.6829394279209
 20
819.03877748452442
 40
1
 50
90.000000000026048
 51
150.00000000000836
  0
LINE
  8
_0-1_計細線
  6
CONTINUOUS
 62
    3
 10
1447.4829394290241
 20
819.03877748452442
 11
1447.9508886203519
 21
819.03877748452442
  0
ARC
  8
_0-1_計細線
  6
CONTINUOUS
 62
    3
 10
1457.3829394268166
 20
816.63877748452467
 40
0.5
 50
269.99999999999977
 51
359.99999999999966
  0
LINE
  8
_0-1_計細線
  6
CONTINUOUS
 62
    3
 10
1457.8829394268168
 20
818.03877748452442
 11
1457.8829394268168
 21
816.63877748452467
  0
ARC
  8
_0-1_計細線
  6
CONTINUOUS
 62
    3
 10
1446.9829394290239
 20
816.63877748452467
 40
0.5
 50
179.99999999999983
 51
269.99999999999977
  0
LINE
  8
_0-1_計細線
  6
CONTINUOUS
 62
    3
 10
1446.4829394290236
 20
818.03877748452442
 11
1446.4829394290236
 21
816.63877748452467
  0
ARC
  8
_0-1_計細線
  6
CONTINUOUS
 62
    3
 10
1454.8829394268168
 20
815.13877748452455
 40
1
 50
89.999999999999915
 51
179.99999999999983
  0
LINE
  8
_0-1_計細線
  6
CONTINUOUS
 62
    3
 10
1454.8829394268168
 20
816.1387774845241
 11
1457.3829394268166
 21
816.1387774845241
  0
ARC
  8
_0-1_計細線
  6
CONTINUOUS
 62
    3
 10
1449.482939426817
 20
815.13877748452455
 40
1
 50
0
 51
89.999999999999915
  0
LINE
  8
_0-1_計細線
  6
CONTINUOUS
 62
    3
 10
1449.4829394290243
 20
816.1387774845241
 11
1446.9829394290239
 21
816.1387774845241
  0
LINE
  8
_0-1_計細線
  6
CONTINUOUS
 62
    3
 10
1449.6829394279209
 20
820.03877748452396
 11
1454.6829394279205
 21
820.03877748452396
  0
LINE
  8
_0-1_計細線
  6
CONTINUOUS
 62
    3
 10
1453.8829394279207
 20
795.03877748452419
 11
1453.8829394268175
 21
815.13877748452455
  0
LINE
  8
_0-1_計細線
  6
CONTINUOUS
 62
    3
 10
1450.4829394279204
 20
795.03877748452419
 11
1450.4829394268168
 21
815.13877748452455
  0
LINE
  8
_0-1_計細線
  6
CONTINUOUS
 62
    3
 10
1450.4829394279204
 20
795.03877748452419
 11
1453.8829394279207
 21
795.03877748452419
  0
LINE
  8
_0-1_計細線
  6
CONTINUOUS
 62
    3
 10
1450.482939427369
 20
815.33877748452414
 11
1436.4829394274213
 21
815.33877748452414
  0
LINE
  8
_0-1_計細線
  6
CONTINUOUS
 62
    3
 10
1450.482939427369
 20
802.33877748452437
 11
1436.4829394281348
 21
802.33877748452437
  0
ARC
  8
_0-1_計細線
  6
CONTINUOUS
 62
    3
 10
1474.2829394262017
 20
818.03877748452442
 40
1
 50
0
 51
89.999999999999915
  0
ARC
  8
_0-1_計細線
  6
CONTINUOUS
 62
    3
 10
1473.8149902348744
 20
820.03877748452396
 40
1
 50
209.99999999998565
 51
269.99999999999977
  0
ARC
  8
_0-1_計細線
  6
CONTINUOUS
 62
    3
 10
1472.0829394273053
 20
819.03877748452442
 40
1
 50
29.999999999991644
 51
89.999999999999915
  0
LINE
  8
_0-1_計細線
  6
CONTINUOUS
 62
    3
 10
1474.2829394262017
 20
819.03877748452442
 11
1473.8149902348744
 21
819.03877748452442
  0
ARC
  8
_0-1_計細線
  6
CONTINUOUS
 62
    3
 10
1464.8829394284091
 20
818.03877748452442
 40
1
 50
89.999999999999915
 51
179.99999999999983
  0
ARC
  8
_0-1_計細線
  6
CONTINUOUS
 62
    3
 10
1465.3508886197365
 20
820.03877748452396
 40
1
 50
269.99999999999977
 51
330.00000000001364
  0
ARC
  8
_0-1_計細線
  6
CONTINUOUS
 62
    3
 10
1467.0829394273057
 20
819.03877748452442
 40
1
 50
90.000000000026048
 51
150.00000000000836
  0
LINE
  8
_0-1_計細線
  6
CONTINUOUS
 62
    3
 10
1464.8829394284091
 20
819.03877748452442
 11
1465.3508886197365
 21
819.03877748452442
  0
ARC
  8
_0-1_計細線
  6
CONTINUOUS
 62
    3
 10
1474.7829394262012
 20
816.63877748452467
 40
0.5
 50
269.99999999999977
 51
359.99999999999966
  0
LINE
  8
_0-1_計細線
  6
CONTINUOUS
 62
    3
 10
1475.2829394262019
 20
818.03877748452442
 11
1475.2829394262019
 21
816.63877748452467
  0
ARC
  8
_0-1_計細線
  6
CONTINUOUS
 62
    3
 10
1464.3829394284085
 20
816.63877748452467
 40
0.5
 50
179.99999999999983
 51
269.99999999999977
  0
LINE
  8
_0-1_計細線
  6
CONTINUOUS
 62
    3
 10
1463.8829394284087
 20
818.03877748452442
 11
1463.8829394284087
 21
816.63877748452467
  0
ARC
  8
_0-1_計細線
  6
CONTINUOUS
 62
    3
 10
1472.2829394262019
 20
815.13877748452455
 40
1
 50
89.999999999999915
 51
179.99999999999983
  0
LINE
  8
_0-1_計細線
  6
CONTINUOUS
 62
    3
 10
1472.2829394262019
 20
816.1387774845241
 11
1474.7829394262012
 21
816.1387774845241
  0
ARC
  8
_0-1_計細線
  6
CONTINUOUS
 62
    3
 10
1466.8829394262016
 20
815.13877748452455
 40
1
 50
0
 51
89.999999999999915
  0
LINE
  8
_0-1_計細線
  6
CONTINUOUS
 62
    3
 10
1466.8829394284089
 20
816.1387774845241
 11
1464.3829394284085
 21
816.1387774845241
  0
LINE
  8
_0-1_計細線
  6
CONTINUOUS
 62
    3
 10
1467.0829394273057
 20
820.03877748452396
 11
1472.0829394273053
 21
820.03877748452396
  0
LINE
  8
_0-1_計細線
  6
CONTINUOUS
 62
    3
 10
1471.2829394273053
 20
795.03877748452419
 11
1471.2829394262023
 21
815.13877748452455
  0
LINE
  8
_0-1_計細線
  6
CONTINUOUS
 62
    3
 10
1467.8829394273055
 20
795.03877748452419
 11
1467.8829394262018
 21
815.13877748452455
  0
LINE
  8
_0-1_計細線
  6
CONTINUOUS
 62
    3
 10
1467.8829394273055
 20
795.03877748452419
 11
1471.2829394273053
 21
795.03877748452419
  0
LINE
  8
_0-1_計細線
  6
CONTINUOUS
 62
    3
 10
1467.8829394267539
 20
815.33877748452414
 11
1453.8829394268062
 21
815.33877748452414
  0
LINE
  8
_0-1_計細線
  6
CONTINUOUS
 62
    3
 10
1467.8829394267539
 20
802.33877748452437
 11
1453.8829394275197
 21
802.33877748452437
  0
ARC
  8
_0-1_計細線
  6
CONTINUOUS
 62
    3
 10
1491.6829394255867
 20
818.03877748452442
 40
1
 50
0
 51
89.999999999999915
  0
ARC
  8
_0-1_計細線
  6
CONTINUOUS
 62
    3
 10
1491.2149902342592
 20
820.03877748452396
 40
1
 50
209.99999999998565
 51
269.99999999999977
  0
ARC
  8
_0-1_計細線
  6
CONTINUOUS
 62
    3
 10
1489.4829394266899
 20
819.03877748452442
 40
1
 50
29.999999999991644
 51
89.999999999999915
  0
LINE
  8
_0-1_計細線
  6
CONTINUOUS
 62
    3
 10
1491.6829394255867
 20
819.03877748452442
 11
1491.2149902342592
 21
819.03877748452442
  0
ARC
  8
_0-1_計細線
  6
CONTINUOUS
 62
    3
 10
1482.282939427794
 20
818.03877748452442
 40
1
 50
89.999999999999915
 51
179.99999999999983
  0
ARC
  8
_0-1_計細線
  6
CONTINUOUS
 62
    3
 10
1482.7508886191215
 20
820.03877748452396
 40
1
 50
269.99999999999977
 51
330.00000000001364
  0
ARC
  8
_0-1_計細線
  6
CONTINUOUS
 62
    3
 10
1484.4829394266903
 20
819.03877748452442
 40
1
 50
90.000000000026048
 51
150.00000000000836
  0
LINE
  8
_0-1_計細線
  6
CONTINUOUS
 62
    3
 10
1482.282939427794
 20
819.03877748452442
 11
1482.7508886191215
 21
819.03877748452442
  0
ARC
  8
_0-1_計細線
  6
CONTINUOUS
 62
    3
 10
1492.1829394255863
 20
816.63877748452467
 40
0.5
 50
269.99999999999977
 51
359.99999999999966
  0
LINE
  8
_0-1_計細線
  6
CONTINUOUS
 62
    3
 10
1492.6829394255867
 20
818.03877748452442
 11
1492.6829394255867
 21
816.63877748452467
  0
ARC
  8
_0-1_計細線
  6
CONTINUOUS
 62
    3
 10
1481.7829394277935
 20
816.63877748452467
 40
0.5
 50
179.99999999999983
 51
269.99999999999977
  0
LINE
  8
_0-1_計細線
  6
CONTINUOUS
 62
    3
 10
1481.2829394277935
 20
818.03877748452442
 11
1481.2829394277935
 21
816.63877748452467
  0
ARC
  8
_0-1_計細線
  6
CONTINUOUS
 62
    3
 10
1489.6829394255867
 20
815.13877748452455
 40
1
 50
89.999999999999915
 51
179.99999999999983
  0
LINE
  8
_0-1_計細線
  6
CONTINUOUS
 62
    3
 10
1489.6829394255867
 20
816.1387774845241
 11
1492.1829394255863
 21
816.1387774845241
  0
ARC
  8
_0-1_計細線
  6
CONTINUOUS
 62
    3
 10
1484.2829394255866
 20
815.13877748452455
 40
1
 50
0
 51
89.999999999999915
  0
LINE
  8
_0-1_計細線
  6
CONTINUOUS
 62
    3
 10
1484.282939427794
 20
816.1387774845241
 11
1481.7829394277935
 21
816.1387774845241
  0
LINE
  8
_0-1_計細線
  6
CONTINUOUS
 62
    3
 10
1484.4829394266903
 20
820.03877748452396
 11
1489.4829394266899
 21
820.03877748452396
  0
LINE
  8
_0-1_計細線
  6
CONTINUOUS
 62
    3
 10
1488.6829394266904
 20
795.03877748452419
 11
1488.6829394255869
 21
815.13877748452455
  0
LINE
  8
_0-1_計細線
  6
CONTINUOUS
 62
    3
 10
1485.2829394266903
 20
795.03877748452419
 11
1485.2829394255866
 21
815.13877748452455
  0
LINE
  8
_0-1_計細線
  6
CONTINUOUS
 62
    3
 10
1485.2829394266903
 20
795.03877748452419
 11
1488.6829394266904
 21
795.03877748452419
  0
LINE
  8
_0-1_計細線
  6
CONTINUOUS
 62
    3
 10
1485.2829394261385
 20
815.33877748452414
 11
1471.2829394261908
 21
815.33877748452414
  0
LINE
  8
_0-1_計細線
  6
CONTINUOUS
 62
    3
 10
1485.2829394261385
 20
802.33877748452437
 11
1471.2829394269042
 21
802.33877748452437
  0
ARC
  8
_0-1_計細線
  6
CONTINUOUS
 62
    3
 10
1509.0829394249715
 20
818.03877748452442
 40
1
 50
0
 51
89.999999999999915
  0
ARC
  8
_0-1_計細線
  6
CONTINUOUS
 62
    3
 10
1508.6149902336438
 20
820.03877748452396
 40
1
 50
209.99999999998565
 51
269.99999999999977
  0
ARC
  8
_0-1_計細線
  6
CONTINUOUS
 62
    3
 10
1506.8829394260749
 20
819.03877748452442
 40
1
 50
29.999999999991644
 51
89.999999999999915
  0
LINE
  8
_0-1_計細線
  6
CONTINUOUS
 62
    3
 10
1509.0829394249715
 20
819.03877748452442
 11
1508.6149902336438
 21
819.03877748452442
  0
ARC
  8
_0-1_計細線
  6
CONTINUOUS
 62
    3
 10
1499.6829394271786
 20
818.03877748452442
 40
1
 50
89.999999999999915
 51
179.99999999999983
  0
ARC
  8
_0-1_計細線
  6
CONTINUOUS
 62
    3
 10
1500.1508886185063
 20
820.03877748452396
 40
1
 50
269.99999999999977
 51
330.00000000001364
  0
ARC
  8
_0-1_計細線
  6
CONTINUOUS
 62
    3
 10
1501.8829394260754
 20
819.03877748452442
 40
1
 50
90.000000000026048
 51
150.00000000000836
  0
LINE
  8
_0-1_計細線
  6
CONTINUOUS
 62
    3
 10
1499.6829394271786
 20
819.03877748452442
 11
1500.1508886185063
 21
819.03877748452442
  0
ARC
  8
_0-1_計細線
  6
CONTINUOUS
 62
    3
 10
1509.5829394249711
 20
816.63877748452467
 40
0.5
 50
269.99999999999977
 51
359.99999999999966
  0
LINE
  8
_0-1_計細線
  6
CONTINUOUS
 62
    3
 10
1510.0829394249713
 20
818.03877748452442
 11
1510.0829394249713
 21
816.63877748452467
  0
ARC
  8
_0-1_計細線
  6
CONTINUOUS
 62
    3
 10
1499.1829394271783
 20
816.63877748452467
 40
0.5
 50
179.99999999999983
 51
269.99999999999977
  0
LINE
  8
_0-1_計細線
  6
CONTINUOUS
 62
    3
 10
1498.6829394271781
 20
818.03877748452442
 11
1498.6829394271781
 21
816.63877748452467
  0
ARC
  8
_0-1_計細線
  6
CONTINUOUS
 62
    3
 10
1507.0829394249713
 20
815.13877748452455
 40
1
 50
89.999999999999915
 51
179.99999999999983
  0
LINE
  8
_0-1_計細線
  6
CONTINUOUS
 62
    3
 10
1507.0829394249713
 20
816.1387774845241
 11
1509.5829394249711
 21
816.1387774845241
  0
ARC
  8
_0-1_計細線
  6
CONTINUOUS
 62
    3
 10
1501.6829394249714
 20
815.13877748452455
 40
1
 50
0
 51
89.999999999999915
  0
LINE
  8
_0-1_計細線
  6
CONTINUOUS
 62
    3
 10
1501.6829394271788
 20
816.1387774845241
 11
1499.1829394271783
 21
816.1387774845241
  0
LINE
  8
_0-1_計細線
  6
CONTINUOUS
 62
    3
 10
1501.8829394260754
 20
820.03877748452396
 11
1506.8829394260749
 21
820.03877748452396
  0
LINE
  8
_0-1_計細線
  6
CONTINUOUS
 62
    3
 10
1506.0829394260752
 20
795.03877748452419
 11
1506.082939424972
 21
815.13877748452455
  0
LINE
  8
_0-1_計細線
  6
CONTINUOUS
 62
    3
 10
1502.6829394260749
 20
795.03877748452419
 11
1502.6829394249712
 21
815.13877748452455
  0
LINE
  8
_0-1_計細線
  6
CONTINUOUS
 62
    3
 10
1502.6829394260749
 20
795.03877748452419
 11
1506.0829394260752
 21
795.03877748452419
  0
LINE
  8
_0-1_計細線
  6
CONTINUOUS
 62
    3
 10
1502.6829394255235
 20
815.33877748452414
 11
1488.6829394255758
 21
815.33877748452414
  0
LINE
  8
_0-1_計細線
  6
CONTINUOUS
 62
    3
 10
1502.6829394255235
 20
802.33877748452437
 11
1488.6829394262893
 21
802.33877748452437
  0
ARC
  8
_0-1_計細線
  6
CONTINUOUS
 62
    3
 10
1526.4829394243561
 20
818.03877748452442
 40
1
 50
0
 51
89.999999999999915
  0
ARC
  8
_0-1_計細線
  6
CONTINUOUS
 62
    3
 10
1526.0149902330288
 20
820.03877748452396
 40
1
 50
209.99999999998565
 51
269.99999999999977
  0
ARC
  8
_0-1_計細線
  6
CONTINUOUS
 62
    3
 10
1524.2829394254597
 20
819.03877748452442
 40
1
 50
29.999999999991644
 51
89.999999999999915
  0
LINE
  8
_0-1_計細線
  6
CONTINUOUS
 62
    3
 10
1526.4829394243561
 20
819.03877748452442
 11
1526.0149902330288
 21
819.03877748452442
  0
ARC
  8
_0-1_計細線
  6
CONTINUOUS
 62
    3
 10
1517.0829394265636
 20
818.03877748452442
 40
1
 50
89.999999999999915
 51
179.99999999999983
  0
ARC
  8
_0-1_計細線
  6
CONTINUOUS
 62
    3
 10
1517.5508886178909
 20
820.03877748452396
 40
1
 50
269.99999999999977
 51
330.00000000001364
  0
ARC
  8
_0-1_計細線
  6
CONTINUOUS
 62
    3
 10
1519.2829394254602
 20
819.03877748452442
 40
1
 50
90.000000000026048
 51
150.00000000000836
  0
LINE
  8
_0-1_計細線
  6
CONTINUOUS
 62
    3
 10
1517.0829394265636
 20
819.03877748452442
 11
1517.5508886178909
 21
819.03877748452442
  0
ARC
  8
_0-1_計細線
  6
CONTINUOUS
 62
    3
 10
1526.9829394243557
 20
816.63877748452467
 40
0.5
 50
269.99999999999977
 51
359.99999999999966
  0
LINE
  8
_0-1_計細線
  6
CONTINUOUS
 62
    3
 10
1527.4829394243559
 20
818.03877748452442
 11
1527.4829394243559
 21
816.63877748452467
  0
ARC
  8
_0-1_計細線
  6
CONTINUOUS
 62
    3
 10
1516.5829394265629
 20
816.63877748452467
 40
0.5
 50
179.99999999999983
 51
269.99999999999977
  0
LINE
  8
_0-1_計細線
  6
CONTINUOUS
 62
    3
 10
1516.0829394265631
 20
818.03877748452442
 11
1516.0829394265631
 21
816.63877748452467
  0
ARC
  8
_0-1_計細線
  6
CONTINUOUS
 62
    3
 10
1524.4829394243563
 20
815.13877748452455
 40
1
 50
89.999999999999915
 51
179.99999999999983
  0
LINE
  8
_0-1_計細線
  6
CONTINUOUS
 62
    3
 10
1524.4829394243563
 20
816.1387774845241
 11
1526.9829394243557
 21
816.1387774845241
  0
ARC
  8
_0-1_計細線
  6
CONTINUOUS
 62
    3
 10
1519.082939424356
 20
815.13877748452455
 40
1
 50
0
 51
89.999999999999915
  0
LINE
  8
_0-1_計細線
  6
CONTINUOUS
 62
    3
 10
1519.0829394265634
 20
816.1387774845241
 11
1516.5829394265629
 21
816.1387774845241
  0
LINE
  8
_0-1_計細線
  6
CONTINUOUS
 62
    3
 10
1519.2829394254602
 20
820.03877748452396
 11
1524.2829394254597
 21
820.03877748452396
  0
LINE
  8
_0-1_計細線
  6
CONTINUOUS
 62
    3
 10
1523.4829394254598
 20
795.03877748452419
 11
1523.4829394243568
 21
815.13877748452455
  0
LINE
  8
_0-1_計細線
  6
CONTINUOUS
 62
    3
 10
1520.0829394254599
 20
795.03877748452419
 11
1520.0829394243563
 21
815.13877748452455
  0
LINE
  8
_0-1_計細線
  6
CONTINUOUS
 62
    3
 10
1520.0829394254599
 20
795.03877748452419
 11
1523.4829394254598
 21
795.03877748452419
  0
LINE
  8
_0-1_計細線
  6
CONTINUOUS
 62
    3
 10
1520.0829394249083
 20
815.33877748452414
 11
1506.0829394249606
 21
815.33877748452414
  0
LINE
  8
_0-1_計細線
  6
CONTINUOUS
 62
    3
 10
1520.0829394249083
 20
802.33877748452437
 11
1506.0829394256741
 21
802.33877748452437
  0
ARC
  8
_0-1_計細線
  6
CONTINUOUS
 62
    3
 10
1543.8829394237405
 20
818.03877748452442
 40
1
 50
0
 51
89.999999999999915
  0
ARC
  8
_0-1_計細線
  6
CONTINUOUS
 62
    3
 10
1543.4149902324129
 20
820.03877748452396
 40
1
 50
209.99999999999866
 51
269.99999999999977
  0
ARC
  8
_0-1_計細線
  6
CONTINUOUS
 62
    3
 10
1541.6829394248441
 20
819.03877748452442
 40
1
 50
29.99999999997862
 51
89.999999999999915
  0
LINE
  8
_0-1_計細線
  6
CONTINUOUS
 62
    3
 10
1543.8829394237405
 20
819.03877748452442
 11
1543.4149902324129
 21
819.03877748452442
  0
ARC
  8
_0-1_計細線
  6
CONTINUOUS
 62
    3
 10
1534.4829394259484
 20
818.03877748452442
 40
1
 50
89.999999999999915
 51
179.99999999999983
  0
ARC
  8
_0-1_計細線
  6
CONTINUOUS
 62
    3
 10
1534.950888617276
 20
820.03877748452396
 40
1
 50
269.99999999999977
 51
330.00000000000057
  0
ARC
  8
_0-1_計細線
  6
CONTINUOUS
 62
    3
 10
1536.6829394248448
 20
819.03877748452442
 40
1
 50
90.000000000052111
 51
150.00000000002137
  0
LINE
  8
_0-1_計細線
  6
CONTINUOUS
 62
    3
 10
1534.4829394259484
 20
819.03877748452442
 11
1534.950888617276
 21
819.03877748452442
  0
ARC
  8
_0-1_計細線
  6
CONTINUOUS
 62
    3
 10
1544.3829394237407
 20
816.63877748452467
 40
0.5
 50
269.99999999999977
 51
359.99999999999966
  0
LINE
  8
_0-1_計細線
  6
CONTINUOUS
 62
    3
 10
1544.8829394237405
 20
818.03877748452442
 11
1544.8829394237405
 21
816.63877748452467
  0
ARC
  8
_0-1_計細線
  6
CONTINUOUS
 62
    3
 10
1533.9829394259475
 20
816.63877748452467
 40
0.5
 50
179.99999999999983
 51
269.99999999999977
  0
LINE
  8
_0-1_計細線
  6
CONTINUOUS
 62
    3
 10
1533.4829394259473
 20
818.03877748452442
 11
1533.4829394259473
 21
816.63877748452467
  0
ARC
  8
_0-1_計細線
  6
CONTINUOUS
 62
    3
 10
1541.8829394237405
 20
815.13877748452455
 40
1
 50
89.999999999999915
 51
179.99999999999983
  0
LINE
  8
_0-1_計細線
  6
CONTINUOUS
 62
    3
 10
1541.8829394237405
 20
816.1387774845241
 11
1544.3829394237407
 21
816.1387774845241
  0
ARC
  8
_0-1_計細線
  6
CONTINUOUS
 62
    3
 10
1536.4829394237411
 20
815.13877748452455
 40
1
 50
0
 51
89.999999999999915
  0
LINE
  8
_0-1_計細線
  6
CONTINUOUS
 62
    3
 10
1536.4829394259484
 20
816.1387774845241
 11
1533.9829394259475
 21
816.1387774845241
  0
LINE
  8
_0-1_計細線
  6
CONTINUOUS
 62
    3
 10
1536.6829394248448
 20
820.03877748452396
 11
1541.6829394248441
 21
820.03877748452396
  0
LINE
  8
_0-1_計細線
  6
CONTINUOUS
 62
    3
 10
1540.8829394248448
 20
795.03877748452419
 11
1540.8829394237414
 21
815.13877748452455
  0
LINE
  8
_0-1_計細線
  6
CONTINUOUS
 62
    3
 10
1537.4829394248441
 20
795.03877748452419
 11
1537.4829394237408
 21
815.13877748452455
  0
LINE
  8
_0-1_計細線
  6
CONTINUOUS
 62
    3
 10
1537.4829394248441
 20
795.03877748452419
 11
1540.8829394248448
 21
795.03877748452419
  0
LINE
  8
_0-1_計細線
  6
CONTINUOUS
 62
    3
 10
1537.4829394242929
 20
815.33877748452414
 11
1523.4829394243452
 21
815.33877748452414
  0
LINE
  8
_0-1_計細線
  6
CONTINUOUS
 62
    3
 10
1537.4829394242929
 20
802.33877748452437
 11
1523.4829394250587
 21
802.33877748452437
  0
ARC
  8
_0-1_計細線
  6
CONTINUOUS
 62
    3
 10
1561.2829394231253
 20
818.03877748452442
 40
1
 50
0
 51
89.999999999999915
  0
ARC
  8
_0-1_計細線
  6
CONTINUOUS
 62
    3
 10
1560.814990231798
 20
820.03877748452396
 40
1
 50
209.99999999999866
 51
269.99999999999977
  0
ARC
  8
_0-1_計細線
  6
CONTINUOUS
 62
    3
 10
1559.0829394242287
 20
819.03877748452442
 40
1
 50
29.99999999997862
 51
89.999999999999915
  0
LINE
  8
_0-1_計細線
  6
CONTINUOUS
 62
    3
 10
1561.2829394231253
 20
819.03877748452442
 11
1560.814990231798
 21
819.03877748452442
  0
ARC
  8
_0-1_計細線
  6
CONTINUOUS
 62
    3
 10
1551.882939425333
 20
818.03877748452442
 40
1
 50
89.999999999999915
 51
179.99999999999983
  0
ARC
  8
_0-1_計細線
  6
CONTINUOUS
 62
    3
 10
1552.3508886166605
 20
820.03877748452396
 40
1
 50
269.99999999999977
 51
330.00000000000057
  0
ARC
  8
_0-1_計細線
  6
CONTINUOUS
 62
    3
 10
1554.0829394242298
 20
819.03877748452442
 40
1
 50
90.000000000052111
 51
150.00000000002137
  0
LINE
  8
_0-1_計細線
  6
CONTINUOUS
 62
    3
 10
1551.882939425333
 20
819.03877748452442
 11
1552.3508886166605
 21
819.03877748452442
  0
ARC
  8
_0-1_計細線
  6
CONTINUOUS
 62
    3
 10
1561.7829394231253
 20
816.63877748452467
 40
0.5
 50
269.99999999999977
 51
359.99999999999966
  0
LINE
  8
_0-1_計細線
  6
CONTINUOUS
 62
    3
 10
1562.2829394231255
 20
818.03877748452442
 11
1562.2829394231255
 21
816.63877748452467
  0
ARC
  8
_0-1_計細線
  6
CONTINUOUS
 62
    3
 10
1551.3829394253321
 20
816.63877748452467
 40
0.5
 50
179.99999999999983
 51
269.99999999999977
  0
LINE
  8
_0-1_計細線
  6
CONTINUOUS
 62
    3
 10
1550.8829394253323
 20
818.03877748452442
 11
1550.8829394253323
 21
816.63877748452467
  0
ARC
  8
_0-1_計細線
  6
CONTINUOUS
 62
    3
 10
1559.2829394231255
 20
815.13877748452455
 40
1
 50
89.999999999999915
 51
179.99999999999983
  0
LINE
  8
_0-1_計細線
  6
CONTINUOUS
 62
    3
 10
1559.2829394231255
 20
816.1387774845241
 11
1561.7829394231253
 21
816.1387774845241
  0
ARC
  8
_0-1_計細線
  6
CONTINUOUS
 62
    3
 10
1553.8829394231257
 20
815.13877748452455
 40
1
 50
0
 51
89.999999999999915
  0
LINE
  8
_0-1_計細線
  6
CONTINUOUS
 62
    3
 10
1553.882939425333
 20
816.1387774845241
 11
1551.3829394253321
 21
816.1387774845241
  0
LINE
  8
_0-1_計細線
  6
CONTINUOUS
 62
    3
 10
1554.0829394242298
 20
820.03877748452396
 11
1559.0829394242287
 21
820.03877748452396
  0
LINE
  8
_0-1_計細線
  6
CONTINUOUS
 62
    3
 10
1558.2829394242294
 20
795.03877748452419
 11
1558.2829394231264
 21
815.13877748452455
  0
LINE
  8
_0-1_計細線
  6
CONTINUOUS
 62
    3
 10
1554.8829394242291
 20
795.03877748452419
 11
1554.8829394231257
 21
815.13877748452455
  0
LINE
  8
_0-1_計細線
  6
CONTINUOUS
 62
    3
 10
1554.8829394242291
 20
795.03877748452419
 11
1558.2829394242294
 21
795.03877748452419
  0
LINE
  8
_0-1_計細線
  6
CONTINUOUS
 62
    3
 10
1554.882939423678
 20
815.33877748452414
 11
1540.8829394237296
 21
815.33877748452414
  0
LINE
  8
_0-1_計細線
  6
CONTINUOUS
 62
    3
 10
1554.882939423678
 20
802.33877748452437
 11
1540.8829394244437
 21
802.33877748452437
  0
LINE
  8
_0-1_計細線
  6
CONTINUOUS
 62
    3
 10
1573.0829394319494
 20
802.33877748452437
 11
1558.2829394238283
 21
802.33877748452437
  0
LINE
  8
_0-1_計細線
  6
CONTINUOUS
 62
    3
 10
1573.0829394326627
 20
815.33877748452414
 11
1558.2829394231144
 21
815.33877748452414
  0
ARC
  8
_0-1_計細線
  6
CONTINUOUS
 62
    3
 10
1570.0829394326518
 20
818.03877748452442
 40
1
 50
89.999999999999915
 51
179.99999999999983
  0
ARC
  8
_0-1_計細線
  6
CONTINUOUS
 62
    3
 10
1570.5508886239802
 20
820.03877748452396
 40
1
 50
269.99999999999977
 51
330.00000000000057
  0
ARC
  8
_0-1_計細線
  6
CONTINUOUS
 62
    3
 10
1572.2829394315481
 20
819.03877748452442
 40
1
 50
89.999999999999915
 51
149.99999999999534
  0
LINE
  8
_0-1_計細線
  6
CONTINUOUS
 62
    3
 10
1570.0829394326518
 20
819.03877748452442
 11
1570.5508886239802
 21
819.03877748452442
  0
ARC
  8
_0-1_計細線
  6
CONTINUOUS
 62
    3
 10
1579.4829394304447
 20
818.03877748452442
 40
1
 50
0
 51
89.999999999999915
  0
ARC
  8
_0-1_計細線
  6
CONTINUOUS
 62
    3
 10
1579.0149902391172
 20
820.03877748452396
 40
1
 50
209.99999999999866
 51
269.99999999999977
  0
ARC
  8
_0-1_計細線
  6
CONTINUOUS
 62
    3
 10
1577.2829394315484
 20
819.03877748452442
 40
1
 50
29.99999999997862
 51
89.999999999947889
  0
LINE
  8
_0-1_計細線
  6
CONTINUOUS
 62
    3
 10
1579.4829394304447
 20
819.03877748452442
 11
1579.0149902391172
 21
819.03877748452442
  0
ARC
  8
_0-1_計細線
  6
CONTINUOUS
 62
    3
 10
1569.5829394326515
 20
816.63877748452467
 40
0.5
 50
179.99999999999983
 51
269.99999999999977
  0
LINE
  8
_0-1_計細線
  6
CONTINUOUS
 62
    3
 10
1569.0829394326527
 20
818.03877748452442
 11
1569.0829394326527
 21
816.63877748452467
  0
ARC
  8
_0-1_計細線
  6
CONTINUOUS
 62
    3
 10
1579.982939430445
 20
816.63877748452467
 40
0.5
 50
269.99999999999977
 51
359.99999999999966
  0
LINE
  8
_0-1_計細線
  6
CONTINUOUS
 62
    3
 10
1580.4829394304447
 20
818.03877748452442
 11
1580.4829394304447
 21
816.63877748452467
  0
ARC
  8
_0-1_計細線
  6
CONTINUOUS
 62
    3
 10
1572.0829394326527
 20
815.13877748452455
 40
1
 50
0
 51
89.999999999999915
  0
LINE
  8
_0-1_計細線
  6
CONTINUOUS
 62
    3
 10
1572.0829394326527
 20
816.1387774845241
 11
1569.5829394326515
 21
816.1387774845241
  0
ARC
  8
_0-1_計細線
  6
CONTINUOUS
 62
    3
 10
1577.4829394326521
 20
815.13877748452455
 40
1
 50
89.999999999999915
 51
179.99999999999983
  0
LINE
  8
_0-1_計細線
  6
CONTINUOUS
 62
    3
 10
1577.4829394304447
 20
816.1387774845241
 11
1579.982939430445
 21
816.1387774845241
  0
LINE
  8
_0-1_計細線
  6
CONTINUOUS
 62
    3
 10
1577.2829394315484
 20
820.03877748452396
 11
1572.2829394315481
 21
820.03877748452396
  0
LINE
  8
_0-1_計細線
  6
CONTINUOUS
 62
    3
 10
1573.0829394315483
 20
795.03877748452419
 11
1573.0829394326518
 21
815.13877748452455
  0
LINE
  8
_0-1_計細線
  6
CONTINUOUS
 62
    3
 10
1576.4829394315491
 20
795.03877748452419
 11
1576.4829394326521
 21
815.13877748452455
  0
LINE
  8
_0-1_計細線
  6
CONTINUOUS
 62
    3
 10
1576.4829394315491
 20
795.03877748452419
 11
1573.0829394315483
 21
795.03877748452419
  0
TEXT
  8
_0-7_枠細線
 62
    5
 10
1294.9682917162104
 20
646.01796802748174
 40
30
 41
0.8
 50
0
  1
断面詳細図
  0
TEXT
  8
_0-7_枠細線
 62
    5
 10
1432.9070554152122
 20
650.01454800139231
 40
24.000000000000007
 41
0.5999999999999999
 50
0
  1
Ｓ＝１：６
  0
LINE
  8
_0-5_寸法線
  6
CONTINUOUS
 62
    7
 10
1346.653114898977
 20
801.92169472073692
 11
1320.7311741319015
 21
820.07243305086888
  0
LINE
  8
_0-5_寸法線
  6
CONTINUOUS
 62
    7
 10
1325.6460863976354
 20
816.63097443276251
 11
1322.5402578564051
 21
828.22208434823131
  0
LINE
  8
_0-5_寸法線
  6
CONTINUOUS
 62
    7
 10
1325.6460863976354
 20
816.63097443276251
 11
1328.7519149388656
 21
828.22208434823131
  0
LINE
  8
_0-5_寸法線
  6
CONTINUOUS
 62
    7
 10
1346.653114898977
 20
826.9216947207367
 11
1320.7311741319015
 21
845.07243305086865
  0
LINE
  8
_0-5_寸法線
  6
CONTINUOUS
 62
    7
 10
1325.6460863976354
 20
841.63097443276229
 11
1328.7519149388656
 21
830.03986451729349
  0
LINE
  8
_0-5_寸法線
  6
CONTINUOUS
 62
    7
 10
1325.6460863976354
 20
841.63097443276229
 11
1322.5402578564051
 21
830.03986451729349
  0
LINE
  8
_0-5_寸法線
  6
CONTINUOUS
 62
    7
 10
1325.6460863976354
 20
816.63097443276251
 11
1325.6460863976354
 21
841.63097443276229
  0
TEXT
  8
_0-5_寸法線
 62
    7
 10
1325.6460863976356
 20
820.13097443276251
 40
18
 41
1
 50
90
  1
25
  0
LINE
  8
_0-7_枠細線
  6
CONTINUOUS
 62
    5
 10
1607.6197740154291
 20
786.21669708280876
 11
1598.6197740154291
 21
804.21669708280876
  0
LINE
  8
_0-7_枠細線
  6
CONTINUOUS
 62
    5
 10
1589.6197740154291
 20
786.21669708280876
 11
1607.6197740154291
 21
786.21669708280876
  0
LINE
  8
_0-7_枠細線
  6
CONTINUOUS
 62
    5
 10
1598.6197740154291
 20
804.21669708280876
 11
1589.6197740154291
 21
786.21669708280876
  0
TEXT
  8
_0-7_枠細線
 62
    5
 10
1592.4579555372065
 20
785.07811312498893
 40
15
 41
0.8
 50
0
  1
５
  0
LINE
  8
_0-0_計極細
  6
CONTINUOUS
 62
    2
 10
1588.7829394304449
 20
788.03899648553136
 11
1586.4829394304447
 21
788.03899648553136
  0
LINE
  8
_0-0_計極細
  6
CONTINUOUS
 62
    2
 10
1588.7829394304449
 20
790.03899648553158
 11
1586.4829394304447
 21
790.03899648553158
  0
LINE
  8
_0-0_計極細
  6
CONTINUOUS
 62
    2
 10
1588.7829394304449
 20
786.03899648553124
 11
1586.4829394304447
 21
786.03899648553124
  0
LINE
  8
_0-0_計極細
  6
CONTINUOUS
 62
    2
 10
1588.7829394304449
 20
792.03899648553124
 11
1586.4829394304447
 21
792.03899648553124
  0
LINE
  8
_0-0_計極細
  6
CONTINUOUS
 62
    2
 10
1586.4829394304447
 20
772.03899648553158
 11
1588.7829394304449
 21
772.03899648553158
  0
LINE
  8
_0-0_計極細
  6
CONTINUOUS
 62
    2
 10
1588.7829394304449
 20
802.03899648553158
 11
1586.4829394304447
 21
802.03899648553158
  0
LINE
  8
_0-1_計細線
  6
CONTINUOUS
 62
    3
 10
1586.4829394304447
 20
804.03899648553147
 11
1586.4829394304447
 21
769.03899648553147
  0
LINE
  8
_0-1_計細線
  6
CONTINUOUS
 62
    3
 10
1586.4829394304447
 20
769.03899648553147
 11
1588.7829394304449
 21
769.03899648553147
  0
LINE
  8
_0-1_計細線
  6
CONTINUOUS
 62
    3
 10
1588.7829394304449
 20
769.03899648553147
 11
1588.7829394304449
 21
804.03899648553147
  0
LINE
  8
_0-1_計細線
  6
CONTINUOUS
 62
    3
 10
1588.7829394304449
 20
804.03899648553147
 11
1586.4829394304447
 21
804.03899648553147
  0
LINE
  8
_0-5_寸法線
  6
CONTINUOUS
 62
    7
 10
1114.482939430445
 20
820.03899648553124
 11
1048.6240273934077
 21
820.03899648553124
  0
LINE
  8
_0-5_寸法線
  6
CONTINUOUS
 62
    7
 10
1054.6240273934077
 20
820.03899648553124
 11
1057.7298559346382
 21
808.44788657006245
  0
LINE
  8
_0-5_寸法線
  6
CONTINUOUS
 62
    7
 10
1054.6240273934077
 20
820.03899648553124
 11
1051.5181988521776
 21
808.44788657006245
  0
LINE
  8
_0-5_寸法線
  6
CONTINUOUS
 62
    7
 10
1112.182939430445
 20
792.03899648553124
 11
1048.6240273934077
 21
792.03899648553124
  0
LINE
  8
_0-5_寸法線
  6
CONTINUOUS
 62
    7
 10
1054.6240273934077
 20
792.03899648553124
 11
1051.5181988521776
 21
803.63010640100015
  0
LINE
  8
_0-5_寸法線
  6
CONTINUOUS
 62
    7
 10
1054.6240273934077
 20
792.03899648553124
 11
1057.7298559346382
 21
803.63010640100015
  0
LINE
  8
_0-5_寸法線
  6
CONTINUOUS
 62
    7
 10
1054.6240273934077
 20
820.03899648553124
 11
1054.6240273934077
 21
792.03899648553124
  0
TEXT
  8
_0-5_寸法線
 62
    7
 10
1054.6240273934077
 20
797.03899648553136
 40
18
 41
1
 50
90
  1
28
  0
LINE
  8
_0-5_寸法線
  6
CONTINUOUS
 62
    7
 10
1114.482939430445
 20
792.03899648553124
 11
1048.6240273934077
 21
792.03899648553124
  0
LINE
  8
_0-5_寸法線
  6
CONTINUOUS
 62
    7
 10
1054.6240273934077
 20
792.03899648553124
 11
1057.7298559346382
 21
780.44788657006256
  0
LINE
  8
_0-5_寸法線
  6
CONTINUOUS
 62
    7
 10
1054.6240273934077
 20
792.03899648553124
 11
1051.5181988521776
 21
780.44788657006256
  0
LINE
  8
_0-5_寸法線
  6
CONTINUOUS
 62
    7
 10
1112.182939430445
 20
769.03899648553102
 11
1048.6240273934077
 21
769.03899648553102
  0
LINE
  8
_0-5_寸法線
  6
CONTINUOUS
 62
    7
 10
1054.6240273934077
 20
769.03899648553102
 11
1051.5181988521776
 21
780.63010640099992
  0
LINE
  8
_0-5_寸法線
  6
CONTINUOUS
 62
    7
 10
1054.6240273934077
 20
769.03899648553102
 11
1057.7298559346382
 21
780.63010640099992
  0
LINE
  8
_0-5_寸法線
  6
CONTINUOUS
 62
    7
 10
1054.6240273934077
 20
792.03899648553124
 11
1054.6240273934077
 21
769.03899648553102
  0
TEXT
  8
_0-5_寸法線
 62
    7
 10
1054.6240273934077
 20
771.53899648553124
 40
18
 41
1
 50
90
  1
23
  0
LINE
  8
_0-0_計極細
  6
CONTINUOUS
 62
    2
 10
1124.182939430445
 20
788.03899648553136
 11
1126.482939430445
 21
788.03899648553136
  0
LINE
  8
_0-0_計極細
  6
CONTINUOUS
 62
    2
 10
1124.182939430445
 20
790.03899648553158
 11
1126.482939430445
 21
790.03899648553158
  0
LINE
  8
_0-0_計極細
  6
CONTINUOUS
 62
    2
 10
1124.182939430445
 20
786.03899648553124
 11
1126.482939430445
 21
786.03899648553124
  0
LINE
  8
_0-0_計極細
  6
CONTINUOUS
 62
    2
 10
1124.182939430445
 20
792.03899648553124
 11
1126.482939430445
 21
792.03899648553124
  0
LINE
  8
_0-0_計極細
  6
CONTINUOUS
 62
    2
 10
1126.482939430445
 20
772.03899648553158
 11
1124.182939430445
 21
772.03899648553158
  0
LINE
  8
_0-0_計極細
  6
CONTINUOUS
 62
    2
 10
1124.182939430445
 20
802.03899648553158
 11
1126.482939430445
 21
802.03899648553158
  0
LINE
  8
_0-1_計細線
  6
CONTINUOUS
 62
    3
 10
1126.482939430445
 20
804.03899648553147
 11
1126.482939430445
 21
769.03899648553147
  0
LINE
  8
_0-1_計細線
  6
CONTINUOUS
 62
    3
 10
1126.482939430445
 20
769.03899648553147
 11
1124.182939430445
 21
769.03899648553147
  0
LINE
  8
_0-1_計細線
  6
CONTINUOUS
 62
    3
 10
1124.182939430445
 20
769.03899648553147
 11
1124.182939430445
 21
804.03899648553147
  0
LINE
  8
_0-1_計細線
  6
CONTINUOUS
 62
    3
 10
1124.182939430445
 20
804.03899648553147
 11
1126.482939430445
 21
804.03899648553147
  0
TEXT
  8
_0-7_枠細線
 62
    5
 10
1116.0000000000005
 20
514.47600000000057
 40
18.000000000000004
 41
0.5
 50
0
  1
ＧＲＳ－２５Ｋ４５０－Ｂ
  0
TEXT
  8
_0-7_枠細線
 62
    5
 10
1116.0000000000005
 20
484.47600000000057
 40
18.000000000000004
 41
0.5
 50
0
  1
ＧＲＳ－２５Ｋ４５０－Ｇ
  0
TEXT
  8
_0-7_枠細線
 62
    5
 10
1116.0000000000005
 20
454.47600000000091
 40
18.000000000000004
 41
0.5
 50
0
  1
ＧＲＳ－２５Ｋ４５０－Ｓ
  0
TEXT
  8
_0-7_枠細線
 62
    5
 10
1116.0000000000005
 20
424.47600000000057
 40
18.000000000000004
 41
0.5
 50
0
  1
ＧＲＳ－２５Ｋ４５０－Ｐ
  0
TEXT
  8
_0-7_枠細線
 62
    5
 10
1116.0000000000005
 20
394.47600000000057
 40
18.000000000000004
 41
0.5
 50
0
  1
ＧＲＳ－２５Ｋ４５０－Ａ
  0
TEXT
  8
_0-7_枠細線
 62
    5
 10
1116.0000000000005
 20
364.47600000000074
 40
18.000000000000004
 41
0.5
 50
0
  1
ＧＲＳ－２５Ｋ４５０－Ｄ
  0
TEXT
  8
_0-7_枠細線
 62
    5
 10
1116.0000000000005
 20
334.47600000000079
 40
18.000000000000004
 41
0.5
 50
0
  1
ＧＲＳ－２５Ｋ４５０－Ｍ
  0
TEXT
  8
_0-7_枠細線
 62
    5
 10
1116.0000000000005
 20
304.47600000000045
 40
18.000000000000004
 41
0.5
 50
0
  1
ＧＲＳ－２５Ｋ４５０－Ｃ
  0
TEXT
  8
_0-7_枠細線
 62
    5
 10
1116.0000000000005
 20
274.47600000000011
 40
18.000000000000004
 41
0.5
 50
0
  1
ＧＲＳ－２５Ｋ４５０－Ｋ
  0
LINE
  8
_0-5_寸法線
  6
CONTINUOUS
 62
    7
 10
1126.482939430445
 20
826.03899648553158
 11
1126.4829394304452
 21
970.03877748452396
  0
LINE
  8
_0-5_寸法線
  6
CONTINUOUS
 62
    7
 10
1126.4829394304452
 20
964.03877748452396
 11
1138.0740493459141
 21
967.14460602575423
  0
LINE
  8
_0-5_寸法線
  6
CONTINUOUS
 62
    7
 10
1126.4829394304452
 20
964.03877748452396
 11
1138.0740493459141
 21
960.93294894329381
  0
LINE
  8
_0-5_寸法線
  6
CONTINUOUS
 62
    7
 10
1586.4829394304447
 20
826.03899648553158
 11
1586.4829394304452
 21
970.03877748452396
  0
LINE
  8
_0-5_寸法線
  6
CONTINUOUS
 62
    7
 10
1586.4829394304452
 20
964.03877748452396
 11
1574.8918295149761
 21
960.93294894329381
  0
LINE
  8
_0-5_寸法線
  6
CONTINUOUS
 62
    7
 10
1586.4829394304452
 20
964.03877748452396
 11
1574.8918295149761
 21
967.14460602575423
  0
LINE
  8
_0-5_寸法線
  6
CONTINUOUS
 62
    7
 10
1126.4829394304452
 20
964.03877748452396
 11
1586.4829394304452
 21
964.03877748452396
  0
TEXT
  8
_0-5_寸法線
 62
    7
 10
1342.9829394304452
 20
964.03877748452396
 40
18
 41
1
 50
0
  1
460
  0
LINE
  8
_0-5_寸法線
  6
CONTINUOUS
 62
    7
 10
1132.4829394304454
 20
832.03899648553158
 11
1132.4829394304454
 21
886.03899648553158
  0
LINE
  8
_0-5_寸法線
  6
CONTINUOUS
 62
    7
 10
1132.4829394304454
 20
880.03899648553158
 11
1144.0740493459143
 21
883.14482502676174
  0
LINE
  8
_0-5_寸法線
  6
CONTINUOUS
 62
    7
 10
1132.4829394304454
 20
880.03899648553158
 11
1144.0740493459143
 21
876.9331679443012
  0
LINE
  8
_0-5_寸法線
  6
CONTINUOUS
 62
    7
 10
1580.4829394304447
 20
832.03899648553158
 11
1580.4829394304447
 21
886.03899648553158
  0
LINE
  8
_0-5_寸法線
  6
CONTINUOUS
 62
    7
 10
1580.4829394304447
 20
880.03899648553158
 11
1568.8918295149761
 21
876.93316794430143
  0
LINE
  8
_0-5_寸法線
  6
CONTINUOUS
 62
    7
 10
1580.4829394304447
 20
880.03899648553158
 11
1568.8918295149761
 21
883.14482502676174
  0
LINE
  8
_0-5_寸法線
  6
CONTINUOUS
 62
    7
 10
1132.4829394304454
 20
880.03899648553158
 11
1580.4829394304447
 21
880.03899648553158
  0
TEXT
  8
_0-5_寸法線
 62
    7
 10
1342.9829394304452
 20
880.03899648553158
 40
18
 41
1
 50
0
  1
448
  0
LINE
  8
_0-5_寸法線
  6
CONTINUOUS
 62
    7
 10
1586.4829394304447
 20
832.03899648553158
 11
1586.4829394304452
 21
928.03899648553158
  0
LINE
  8
_0-5_寸法線
  6
CONTINUOUS
 62
    7
 10
1586.4829394304452
 20
922.03899648553158
 11
1598.0740493459143
 21
925.14482502676174
  0
LINE
  8
_0-5_寸法線
  6
CONTINUOUS
 62
    7
 10
1586.4829394304452
 20
922.03899648553158
 11
1598.0740493459143
 21
918.93316794430143
  0
LINE
  8
_0-5_寸法線
  6
CONTINUOUS
 62
    7
 10
1583.4829394304447
 20
832.03899648553158
 11
1583.4829394304452
 21
928.03899648553158
  0
LINE
  8
_0-5_寸法線
  6
CONTINUOUS
 62
    7
 10
1616.4829394304452
 20
922.03899648553158
 11
1583.4829394304452
 21
922.03899648553158
  0
TEXT
  8
_0-5_寸法線
 62
    7
 10
1605.5896584023603
 20
922.03899648553158
 40
18
 41
1
 50
0
  1
3
  0
LINE
  8
_0-5_寸法線
  6
CONTINUOUS
 62
    7
 10
1583.4829394304452
 20
922.03899648553158
 11
1571.8918295149765
 21
918.93316794430143
  0
LINE
  8
_0-5_寸法線
  6
CONTINUOUS
 62
    7
 10
1583.4829394304452
 20
922.03899648553158
 11
1571.8918295149765
 21
925.14482502676196
  0
LINE
  8
_0-5_寸法線
  6
CONTINUOUS
 62
    7
 10
1129.482939430445
 20
832.03899648553158
 11
1129.4829394304454
 21
928.03899648553158
  0
LINE
  8
_0-5_寸法線
  6
CONTINUOUS
 62
    7
 10
1129.4829394304454
 20
922.03899648553158
 11
1141.0740493459143
 21
925.14482502676196
  0
LINE
  8
_0-5_寸法線
  6
CONTINUOUS
 62
    7
 10
1129.4829394304454
 20
922.03899648553158
 11
1141.0740493459143
 21
918.93316794430143
  0
LINE
  8
_0-5_寸法線
  6
CONTINUOUS
 62
    7
 10
1583.4829394304452
 20
922.03899648553158
 11
1129.4829394304454
 21
922.03899648553158
  0
TEXT
  8
_0-5_寸法線
 62
    7
 10
1342.9829394304452
 20
922.03899648553158
 40
18
 41
1
 50
0
  1
454
  0
LINE
  8
_0-5_寸法線
  6
CONTINUOUS
 62
    7
 10
1126.482939430445
 20
832.03899648553158
 11
1126.4829394304454
 21
928.03899648553158
  0
LINE
  8
_0-5_寸法線
  6
CONTINUOUS
 62
    7
 10
1126.4829394304454
 20
922.03899648553158
 11
1114.8918295149765
 21
918.93316794430143
  0
LINE
  8
_0-5_寸法線
  6
CONTINUOUS
 62
    7
 10
1126.4829394304454
 20
922.03899648553158
 11
1114.8918295149765
 21
925.14482502676196
  0
LINE
  8
_0-5_寸法線
  6
CONTINUOUS
 62
    7
 10
1129.4829394304454
 20
922.03899648553158
 11
1096.4829394304454
 21
922.03899648553158
  0
TEXT
  8
_0-5_寸法線
 62
    7
 10
1101.0647463042251
 20
922.03899648553158
 40
18
 41
1
 50
0
  1
3
  0
ENDSEC
  0
EOF
