  0
SECTION
  2
HEADER
  9
$ACADVER
  1
AC1009
  9
$INSBASE
 10
0
 20
0
 30
0
  9
$EXTMIN
 10
0
 20
0
  9
$EXTMAX
 10
1485
 20
1050
  9
$LIMMIN
 10
0
 20
0
  9
$LIMMAX
 10
1485
 20
1050
  9
$LTSCALE
 40
5
  0
ENDSEC
  0
SECTION
  2
TABLES
  0
TABLE
  2
LTYPE
 70
     9
  0
LTYPE
  2
CONTINUOUS
 70
    64
  3
実線
 72
    65
 73
     0
 40
0.0
  0
LTYPE
  2
DASHED1
 70
    64
  3
--  --  --  --  --  --  --  --  
 72
    65
 73
     2
 40
2.5
 49
1.25
 49
-1.25
  0
LTYPE
  2
DASHED2
 70
    64
  3
----    ----    ----    ----    
 72
    65
 73
     2
 40
5.0
 49
2.5
 49
-2.5
  0
LTYPE
  2
DASHED3
 70
    64
  3
------  ------  ------  ------  
 72
    65
 73
     2
 40
5.0
 49
3.75
 49
-1.25
  0
LTYPE
  2
CENTER1
 70
    64
  3
----- - ----- - ----- - ----- - 
 72
    65
 73
     4
 40
10.0
 49
6.25
 49
-1.25
 49
1.25
 49
-1.25
  0
LTYPE
  2
CENTER2
 70
    64
  3
----------  --  ----------  --  
 72
    65
 73
     4
 40
20.0
 49
12.5
 49
-2.5
 49
2.5
 49
-2.5
  0
LTYPE
  2
PHANTOM1
 70
    64
  3
--- - - --- - - --- - - --- - - 
 72
    65
 73
     6
 40
10.0
 49
3.25
 49
-1.25
 49
1.25
 49
-1.25
 49
1.25
 49
-1.25
  0
LTYPE
  2
PHANTOM2
 70
    64
  3
--------  -  -  --------  -  -  
 72
    65
 73
     6
 40
20.0
 49
10.0
 49
-2.5
 49
1.25
 49
-2.5
 49
1.25
 49
-2.5
  0
LTYPE
  2
DOT
 70
    64
  3
-   -   -   -   -   -   -   -   
 72
    65
 73
     2
 40
2.5
 49
0.625
 49
-1.875
  0
LTYPE
  2
DUMMY
 70
    64
  3
ダミー
 72
    65
 73
     0
 40
0.0
  0
LTYPE
  2
RAND1
 70
    64
  3
ランダム線1
 72
    65
 73
     4
 40
10.0
 49
1.0
 49
-2.0
 49
3.0
 49
-4.0
  0
LTYPE
  2
RAND2
 70
    64
  3
ランダム線2
 72
    65
 73
     4
 40
14.0
 49
2.0
 49
-3.0
 49
4.0
 49
-5.0
  0
LTYPE
  2
RAND3
 70
    64
  3
ランダム線3
 72
    65
 73
     4
 40
18.0
 49
3.0
 49
-4.0
 49
5.0
 49
-6.0
  0
LTYPE
  2
RAND4
 70
    64
  3
ランダム線4
 72
    65
 73
     4
 40
22.0
 49
4.0
 49
-5.0
 49
6.0
 49
-7.0
  0
LTYPE
  2
RAND5
 70
    64
  3
ランダム線5
 72
    65
 73
     4
 40
26.0
 49
5.0
 49
-6.0
 49
7.0
 49
-8.0
  0
LTYPE
  2
LONG1
 70
    64
  3
----------  --  ----------  --  
 72
    65
 73
     4
 40
40.0
 49
32.5
 49
-2.5
 49
2.5
 49
-2.5
  0
LTYPE
  2
LONG2
 70
    64
  3
--------  -  -  --------  -  -  
 72
    65
 73
     6
 40
40.0
 49
30.0
 49
-2.5
 49
1.25
 49
-2.5
 49
1.25
 49
-2.5
  0
LTYPE
  2
LONG3
 70
    64
  3
+++++++++++++++..+++++++++++++++
 72
    65
 73
     2
 40
40.0
 49
37.5
 49
-2.5
  0
LTYPE
  2
LONG4
 70
    64
  3
+++++++++++++++..+++++++++++++++
 72
    65
 73
     2
 40
80.0
 49
75.0
 49
-5.0
  0
LTYPE
  2
LONG5
 70
    64
  3
----------  --  ----------  --  
 72
    65
 73
     4
 40
60.0
 49
37.5
 49
-7.5
 49
7.5
 49
-7.5
  0
LTYPE
  2
dashed
 70
   64
  3
-------   -------------   ------
 72
   65
 73
    2
 40
7.5
 49
6
 49
-1.5
  0
LTYPE
  2
dashed_spaced
 70
   64
  3
----        --------        ----
 72
   65
 73
    2
 40
12
 49
6
 49
-6
  0
LTYPE
  2
long_dashed_dotted
 70
   64
  3
------------- --- --------------
 72
   65
 73
    4
 40
15.25
 49
12
 49
-1.5
 49
0.25
 49
-1.5
  0
LTYPE
  2
long_dashed_double-dotted
 70
   64
  3
----------- --- --- ------------
 72
   65
 73
    6
 40
17
 49
12
 49
-1.5
 49
0.25
 49
-1.5
 49
0.25
 49
-1.5
  0
LTYPE
  2
long_dashed_triplicate-dotted
 70
   64
  3
--------- --- --- --- ----------
 72
   65
 73
    8
 40
18.75
 49
12
 49
-1.5
 49
0.25
 49
-1.5
 49
0.25
 49
-1.5
 49
0.25
 49
-1.5
  0
LTYPE
  2
dotted
 70
   64
  3
   -       -       -       -    
 72
   65
 73
    2
 40
1.75
 49
0.25
 49
-1.5
  0
LTYPE
  2
chain
 70
   64
  3
-------------- -- --------------
 72
   65
 73
    4
 40
18.5
 49
12
 49
-1.5
 49
3.5
 49
-1.5
  0
LTYPE
  2
chain_double_dash
 70
   64
  3
------------ -- -- -------------
 72
   65
 73
    6
 40
23.5
 49
12
 49
-1.5
 49
3.5
 49
-1.5
 49
3.5
 49
-1.5
  0
LTYPE
  2
dashed_dotted
 70
   64
  3
-----------     -     ----------
 72
   65
 73
    4
 40
9.25
 49
6
 49
-1.5
 49
0.25
 49
-1.5
  0
LTYPE
  2
double-dashed_dotted
 70
   64
  3
------   -----------   -   -----
 72
   65
 73
    6
 40
16.75
 49
6
 49
-1.5
 49
6
 49
-1.5
 49
0.25
 49
-1.5
  0
LTYPE
  2
dashed_double-dotted
 70
   64
  3
---------    -    -    ---------
 72
   65
 73
    6
 40
11
 49
6
 49
-1.5
 49
0.25
 49
-1.5
 49
0.25
 49
-1.5
  0
LTYPE
  2
double-dashed_double-dotted
 70
   64
  3
-----   ---------   -   -   ----
 72
   65
 73
    8
 40
18.5
 49
6
 49
-1.5
 49
6
 49
-1.5
 49
0.25
 49
-1.5
 49
0.25
 49
-1.5
  0
LTYPE
  2
dashed_triplicate-dotted
 70
   64
  3
-------    -    -    -    ------
 72
   65
 73
    8
 40
12.75
 49
6
 49
-1.5
 49
0.25
 49
-1.5
 49
0.25
 49
-1.5
 49
0.25
 49
-1.5
  0
LTYPE
  2
double-dashed_triplicate-dotted
 70
   64
  3
-----  ---------  -  -  -  -----
 72
   65
 73
   10
 40
20.25
 49
6
 49
-1.5
 49
6
 49
-1.5
 49
0.25
 49
-1.5
 49
0.25
 49
-1.5
 49
0.25
 49
-1.5
  0
LTYPE
  2
undefined
 70
   64
  3
--------------------------------
 72
   65
 73
    0
 40
0
  0
ENDTAB
  0
TABLE
  2
STYLE
  5
3
100
AcDbSymbolTable
 70
     1
  0
STYLE
  5
10
100
AcDbSymbolTableRecord
100
AcDbTextStyleTableRecord
  2
STANDARD
 70
     0
 40
0.0
 41
1.0
 50
0.0
 71
     0
 42
0.2
  3
txt
  4
bigfont.shx
  0
STYLE
  5
26
100
AcDbSymbolTableRecord
100
AcDbTextStyleTableRecord
  2
TATEGAKI
 70
    68
 40
0.0
 41
1.0
 50
0.0
 71
     0
 42
1.0
  3
txt
  4
bigfont.shx
  0
ENDTAB
  0
TABLE
  2
LAYER
 70
    7
  0
LAYER
  2
_0-0_計極細
 70
   64
 62
    7
  6
CONTINUOUS
  0
LAYER
  2
_0-1_計細線
 70
   64
 62
    7
  6
CONTINUOUS
  0
LAYER
  2
_0-5_寸法線
 70
   64
 62
    7
  6
CONTINUOUS
  0
LAYER
  2
_0-7_枠細線
 70
   64
 62
    7
  6
CONTINUOUS
  0
LAYER
  2
_0-8_枠中線
 70
   64
 62
    7
  6
CONTINUOUS
  0
LAYER
  2
_0-9_枠極太
 70
   64
 62
    7
  6
CONTINUOUS
  0
LAYER
  2
ADD_LINE
 70
   64
 62
    7
  6
CONTINUOUS
  0
ENDTAB
  0
ENDSEC
  0
SECTION
  2
BLOCKS
  0
ENDSEC
  0
SECTION
  2
ENTITIES
  0
LINE
  8
_0-7_枠細線
  6
CONTINUOUS
 62
    5
 10
1185
 20
180
 11
1185
 21
100
  0
TEXT
  8
_0-7_枠細線
 62
    5
 10
937.5
 20
97.5
 40
17.5
 41
1
 50
0
  1
備考
  7
TATEGAKI
  0
TEXT
  8
_0-7_枠細線
 62
    5
 10
937.5
 20
137.5
 40
17.5
 41
1
 50
0
  1
品番
  7
TATEGAKI
  0
TEXT
  8
_0-7_枠細線
 62
    5
 10
937.5
 20
177.5
 40
17.5
 41
1
 50
0
  1
品名
  7
TATEGAKI
  0
LINE
  8
_0-7_枠細線
  6
CONTINUOUS
 62
    5
 10
1185
 20
140
 11
925
 21
140
  0
LINE
  8
_0-7_枠細線
  6
CONTINUOUS
 62
    5
 10
950
 20
180
 11
950
 21
60
  0
LINE
  8
_0-8_枠中線
  6
CONTINUOUS
 62
    5
 10
1425
 20
180
 11
925
 21
180
  0
LINE
  8
_0-8_枠中線
  6
CONTINUOUS
 62
    5
 10
925
 20
180
 11
925
 21
60
  0
LINE
  8
_0-7_枠細線
  6
CONTINUOUS
 62
    5
 10
1245
 20
180
 11
1245
 21
60
  0
TEXT
  8
_0-7_枠細線
 62
    5
 10
1192.5
 20
160
 40
15
 41
1
 50
0
  1
縮　尺
  0
LINE
  8
_0-7_枠細線
  6
CONTINUOUS
 62
    5
 10
1185
 20
155
 11
1245
 21
155
  0
LINE
  8
_0-7_枠細線
  6
CONTINUOUS
 62
    5
 10
1245
 20
100
 11
925
 21
100
  0
LINE
  8
_0-7_枠細線
  6
CONTINUOUS
 62
    5
 10
1425
 20
90
 11
1245
 21
90
  0
LINE
  8
_0-7_枠細線
  6
CONTINUOUS
 62
    5
 10
1245
 20
120
 11
1425
 21
120
  0
LINE
  8
_0-7_枠細線
  6
CONTINUOUS
 62
    5
 10
1425
 20
140
 11
1245
 21
140
  0
TEXT
  8
_0-7_枠細線
 62
    5
 10
1255
 20
147.5
 40
25
 41
0.8
 50
0
  1
株式会社シマブン
  0
TEXT
  8
_0-7_枠細線
 62
    5
 10
1252.5
 20
60
 40
15
 41
1
 50
0
  1
年月日
  0
TEXT
  8
_0-7_枠細線
 62
    5
 10
1252.5
 20
75
 40
15
 41
1
 50
0
  1
作　成
  0
TEXT
  8
_0-7_枠細線
 62
    5
 10
1256.25
 20
122.5
 40
15
 41
1
 50
0
  1
承 認
  0
LINE
  8
_0-7_枠細線
  6
CONTINUOUS
 62
    5
 10
1305
 20
140
 11
1305
 21
60
  0
TEXT
  8
_0-7_枠細線
 62
    5
 10
1316.25
 20
122.5
 40
15
 41
1
 50
0
  1
検 図
  0
LINE
  8
_0-7_枠細線
  6
CONTINUOUS
 62
    5
 10
1365
 20
140
 11
1365
 21
90
  0
TEXT
  8
_0-7_枠細線
 62
    5
 10
1375
 20
95
 40
20
 41
1
 50
0
  1
藤戸
  0
TEXT
  8
_0-7_枠細線
 62
    5
 10
1376.25
 20
122.5
 40
15
 41
1
 50
0
  1
設 計
  0
TEXT
  8
_0-7_枠細線
 62
    5
 10
1193.9999999999998
 20
117.5
 40
20
 41
0.7000000000000001
 50
0
  1
１：５
  0
TEXT
  8
_0-7_枠細線
 62
    5
 10
960.5
 20
158.74999999999994
 40
20.000000000000007
 41
0.5999999999999998
 50
0
  1
セーフティグレーチングＨ２０タイプ
  0
TEXT
  8
_0-7_枠細線
 62
    5
 10
1068.5
 20
141.25
 40
20.000000000000007
 41
0.5999999999999998
 50
0
  1
集水マス　補強仕様
  0
TEXT
  8
_0-7_枠細線
 62
    5
 10
960.5
 20
69.999999999999858
 40
20
 41
0.5999999999999998
 50
0
  1
色については表参照のこと
  0
TEXT
  8
_0-7_枠細線
 62
    5
 10
960.5
 20
109.99999999999993
 40
20.000000000000007
 41
0.5999999999999998
 50
0
  1
ＧＲＳＫ－２０Ｋ２５０
  0
LINE
  8
_0-7_枠細線
  6
CONTINUOUS
 62
    5
 10
1425
 20
942.5
 11
890
 21
942.5
  0
TEXT
  8
_0-7_枠細線
 62
    5
 10
895
 20
945
 40
12.5
 41
1
 50
0
  1
記号
  0
TEXT
  8
_0-7_枠細線
 62
    5
 10
996.875
 20
945
 40
12.5
 41
1
 50
0
  1
訂　 正　 記　 事
  0
TEXT
  8
_0-7_枠細線
 62
    5
 10
1181.25
 20
945
 40
12.5
 41
1
 50
0
  1
訂 正 年 月 日
  0
TEXT
  8
_0-7_枠細線
 62
    5
 10
1306.25
 20
945
 40
12.5
 41
1
 50
0
  1
備　　　　　考
  0
LINE
  8
_0-7_枠細線
  6
CONTINUOUS
 62
    5
 10
1425
 20
925
 11
890
 21
925
  0
TEXT
  8
_0-7_枠細線
 62
    5
 10
961.00000000000023
 20
453.73352999148574
 40
15
 41
0.8000000000000001
 50
0
  1
品　　番
  0
LINE
  8
_0-7_枠細線
  6
CONTINUOUS
 62
    5
 10
925
 20
398.73352999148574
 11
1245.0000000000002
 21
398.73352999148574
  0
LINE
  8
_0-7_枠細線
  6
CONTINUOUS
 62
    5
 10
925
 20
423.73352999148574
 11
1245.0000000000002
 21
423.73352999148574
  0
LINE
  8
_0-7_枠細線
  6
CONTINUOUS
 62
    5
 10
925
 20
448.73352999148574
 11
1245.0000000000002
 21
448.73352999148574
  0
TEXT
  8
_0-7_枠細線
 62
    5
 10
1089.0000000000005
 20
453.73352999148574
 40
15
 41
0.8000000000000001
 50
0
  1
色
  0
TEXT
  8
_0-7_枠細線
 62
    5
 10
1171.0000000000005
 20
453.73352999148574
 40
15
 41
0.8000000000000001
 50
0
  1
備　　考
  0
LINE
  8
_0-7_枠細線
  6
CONTINUOUS
 62
    5
 10
925
 20
473.73352999148574
 11
1245.0000000000002
 21
473.73352999148574
  0
LINE
  8
_0-7_枠細線
  6
CONTINUOUS
 62
    5
 10
925
 20
248.73352999148568
 11
1245.0000000000002
 21
248.73352999148568
  0
LINE
  8
_0-7_枠細線
  6
CONTINUOUS
 62
    5
 10
925
 20
373.73352999148574
 11
1245.0000000000002
 21
373.73352999148574
  0
LINE
  8
_0-7_枠細線
  6
CONTINUOUS
 62
    5
 10
925
 20
348.73352999148574
 11
1245.0000000000002
 21
348.73352999148574
  0
LINE
  8
_0-7_枠細線
  6
CONTINUOUS
 62
    5
 10
925
 20
323.73352999148574
 11
1245.0000000000002
 21
323.73352999148574
  0
LINE
  8
_0-7_枠細線
  6
CONTINUOUS
 62
    5
 10
925
 20
298.73352999148568
 11
1245.0000000000002
 21
298.73352999148568
  0
LINE
  8
_0-7_枠細線
  6
CONTINUOUS
 62
    5
 10
925
 20
273.73352999148568
 11
1245.0000000000002
 21
273.73352999148568
  0
TEXT
  8
_0-7_枠細線
 62
    5
 10
1023.75
 20
478.73352999148574
 40
17.5
 41
1
 50
0
  1
品番表
  0
LINE
  8
_0-7_枠細線
  6
CONTINUOUS
 62
    5
 10
925
 20
223.73352999148568
 11
1245.0000000000002
 21
223.73352999148568
  0
LINE
  8
_0-7_枠細線
  6
CONTINUOUS
 62
    5
 10
1245.0000000000002
 20
473.73352999148574
 11
1245.0000000000002
 21
223.73352999148568
  0
LINE
  8
_0-7_枠細線
  6
CONTINUOUS
 62
    5
 10
1145
 20
473.73352999148574
 11
1145
 21
223.73352999148568
  0
LINE
  8
_0-7_枠細線
  6
CONTINUOUS
 62
    5
 10
1045.0000000000005
 20
473.73352999148574
 11
1045.0000000000005
 21
223.73352999148568
  0
LINE
  8
_0-7_枠細線
  6
CONTINUOUS
 62
    5
 10
925
 20
473.73352999148574
 11
925
 21
223.73352999148568
  0
LINE
  8
_0-7_枠細線
  6
CONTINUOUS
 62
    5
 10
1290.7925839968264
 20
393.73352999148574
 11
1290.7925839968264
 21
473.73352999148574
  0
TEXT
  8
_0-7_枠細線
 62
    5
 10
1313.2925839968264
 20
451.23352999148574
 40
15.000000000000004
 41
1
 50
0
  1
耐荷重
  0
TEXT
  8
_0-7_枠細線
 62
    5
 10
1298.2925839968264
 20
401.23352999148574
 40
15.000000000000004
 41
1
 50
0
  1
（歩道用）
  0
LINE
  8
_0-7_枠細線
  6
CONTINUOUS
 62
    5
 10
1380.7925839968264
 20
393.73352999148574
 11
1380.7925839968264
 21
473.73352999148574
  0
LINE
  8
_0-7_枠細線
  6
CONTINUOUS
 62
    5
 10
1290.7925839968264
 20
473.73352999148574
 11
1380.7925839968264
 21
473.73352999148574
  0
LINE
  8
_0-7_枠細線
  6
CONTINUOUS
 62
    5
 10
1290.7925839968264
 20
443.73352999148574
 11
1380.7925839968264
 21
443.73352999148574
  0
LINE
  8
_0-7_枠細線
  6
CONTINUOUS
 62
    5
 10
1290.7925839968264
 20
393.73352999148574
 11
1380.7925839968264
 21
393.73352999148574
  0
TEXT
  8
_0-7_枠細線
 62
    5
 10
1305.7925839968264
 20
421.23352999148574
 40
15.000000000000004
 41
1
 50
0
  1
5.0kN/㎡
  0
TEXT
  8
_0-7_枠細線
 62
    5
 10
929.75000000000045
 20
428.73352999148574
 40
15
 41
0.5666666666666667
 50
0
  1
ＧＲＳＫ－２０Ｋ２５０－Ｂ
  0
TEXT
  8
_0-7_枠細線
 62
    5
 10
929.75000000000045
 20
403.73352999148574
 40
15
 41
0.5666666666666667
 50
0
  1
ＧＲＳＫ－２０Ｋ２５０－Ｇ
  0
TEXT
  8
_0-7_枠細線
 62
    5
 10
929.75000000000045
 20
378.73352999148574
 40
15
 41
0.5666666666666667
 50
0
  1
ＧＲＳＫ－２０Ｋ２５０－Ｓ
  0
TEXT
  8
_0-7_枠細線
 62
    5
 10
929.75000000000045
 20
353.73352999148574
 40
15
 41
0.5666666666666667
 50
0
  1
ＧＲＳＫ－２０Ｋ２５０－Ｐ
  0
TEXT
  8
_0-7_枠細線
 62
    5
 10
929.75000000000045
 20
328.73352999148574
 40
15
 41
0.5666666666666667
 50
0
  1
ＧＲＳＫ－２０Ｋ２５０－Ａ
  0
TEXT
  8
_0-7_枠細線
 62
    5
 10
929.75000000000045
 20
303.73352999148568
 40
15
 41
0.5666666666666667
 50
0
  1
ＧＲＳＫ－２０Ｋ２５０－Ｄ
  0
TEXT
  8
_0-7_枠細線
 62
    5
 10
929.75000000000045
 20
278.73352999148568
 40
15
 41
0.5666666666666667
 50
0
  1
ＧＲＳＫ－２０Ｋ２５０－Ｍ
  0
TEXT
  8
_0-7_枠細線
 62
    5
 10
929.75000000000045
 20
253.73352999148568
 40
15
 41
0.5666666666666667
 50
0
  1
ＧＲＳＫ－２０Ｋ２５０－Ｃ
  0
TEXT
  8
_0-7_枠細線
 62
    5
 10
929.75000000000045
 20
228.73352999148568
 40
15
 41
0.5666666666666667
 50
0
  1
ＧＲＳＫ－２０Ｋ２５０－Ｋ
  0
TEXT
  8
_0-7_枠細線
 62
    5
 10
1255
 20
95
 40
20
 41
1
 50
0
  1
大野
  0
TEXT
  8
_0-7_枠細線
 62
    5
 10
1315
 20
95
 40
20
 41
1
 50
0
  1
深川
  0
TEXT
  8
_0-7_枠細線
 62
    5
 10
1309.9999999999998
 20
67.499999999999929
 40
15.000000000000009
 41
0.6666666666666665
 50
0
  1
２０１７年０４月０１日
  0
LINE
  8
_0-9_枠極太
  6
CONTINUOUS
 62
    5
 10
60
 20
60
 11
60
 21
960
  0
LINE
  8
_0-9_枠極太
  6
CONTINUOUS
 62
    5
 10
60
 20
960
 11
1425
 21
960
  0
LINE
  8
_0-9_枠極太
  6
CONTINUOUS
 62
    5
 10
1425
 20
960
 11
1425
 21
60
  0
LINE
  8
_0-9_枠極太
  6
CONTINUOUS
 62
    5
 10
1425
 20
60
 11
60
 21
60
  0
LINE
  8
_0-7_枠細線
  6
CONTINUOUS
 62
    5
 10
915
 20
926.44233397174685
 11
907.5
 21
941.44233397174685
  0
LINE
  8
_0-7_枠細線
  6
CONTINUOUS
 62
    5
 10
900
 20
926.44233397174685
 11
915
 21
926.44233397174685
  0
LINE
  8
_0-7_枠細線
  6
CONTINUOUS
 62
    5
 10
907.5
 20
941.44233397174685
 11
900
 21
926.44233397174685
  0
TEXT
  8
_0-7_枠細線
 62
    5
 10
1180
 20
927.5
 40
12.5
 41
0.7199999999999999
 50
0
  1
２０１９．０９．０１
  0
TEXT
  8
_0-7_枠細線
 62
    5
 10
938.85037037037023
 20
927.5
 40
12.5
 41
1
 50
0
  1
アンカー材質･厚み変更
  0
TEXT
  8
_0-7_枠細線
 62
    5
 10
902.36515126814822
 20
925.49351400689704
 40
12.5
 41
0.8
 50
0
  1
１
  0
LINE
  8
_0-7_枠細線
  6
CONTINUOUS
 62
    5
 10
1425
 20
907.5
 11
890
 21
907.5
  0
LINE
  8
_0-7_枠細線
  6
CONTINUOUS
 62
    5
 10
1425
 20
890
 11
890
 21
890
  0
TEXT
  8
_0-7_枠細線
 62
    5
 10
902.36515126814822
 20
908.63533172636664
 40
12.5
 41
0.8
 50
0
  1
２
  0
LINE
  8
_0-7_枠細線
  6
CONTINUOUS
 62
    5
 10
907.5
 20
923.94233397174685
 11
900
 21
908.94233397174685
  0
LINE
  8
_0-7_枠細線
  6
CONTINUOUS
 62
    5
 10
900
 20
908.94233397174685
 11
915
 21
908.94233397174685
  0
LINE
  8
_0-7_枠細線
  6
CONTINUOUS
 62
    5
 10
915
 20
908.94233397174685
 11
907.5
 21
923.94233397174685
  0
TEXT
  8
_0-7_枠細線
 62
    5
 10
902.36515126814822
 20
890.89465008156549
 40
12.5
 41
0.8
 50
0
  1
３
  0
LINE
  8
_0-7_枠細線
  6
CONTINUOUS
 62
    5
 10
907.5
 20
906.44233397174685
 11
900
 21
891.44233397174685
  0
LINE
  8
_0-7_枠細線
  6
CONTINUOUS
 62
    5
 10
900
 20
891.44233397174685
 11
915
 21
891.44233397174685
  0
LINE
  8
_0-7_枠細線
  6
CONTINUOUS
 62
    5
 10
915
 20
891.44233397174685
 11
907.5
 21
906.44233397174685
  0
LINE
  8
_0-7_枠細線
  6
CONTINUOUS
 62
    5
 10
1275
 20
890
 11
1275
 21
959.99999999999909
  0
LINE
  8
_0-7_枠細線
  6
CONTINUOUS
 62
    5
 10
1175
 20
890
 11
1175
 21
959.99999999999909
  0
LINE
  8
_0-7_枠細線
  6
CONTINUOUS
 62
    5
 10
925
 20
890
 11
925
 21
959.99999999999909
  0
LINE
  8
_0-7_枠細線
  6
CONTINUOUS
 62
    5
 10
890
 20
890
 11
890
 21
959.99999999999909
  0
TEXT
  8
_0-7_枠細線
 62
    5
 10
1059.0000000000005
 20
403.73352999148574
 40
15
 41
0.8000000000000001
 50
0
  1
ライトグレー
  0
TEXT
  8
_0-7_枠細線
 62
    5
 10
1071.0000000000005
 20
428.73352999148574
 40
15
 41
0.8000000000000001
 50
0
  1
ベージュ
  0
TEXT
  8
_0-7_枠細線
 62
    5
 10
1071.0000000000005
 20
378.73352999148574
 40
15
 41
0.8000000000000001
 50
0
  1
ホワイト
  0
TEXT
  8
_0-7_枠細線
 62
    5
 10
1077.0000000000005
 20
353.73352999148574
 40
15
 41
0.8000000000000001
 50
0
  1
ピンク
  0
TEXT
  8
_0-7_枠細線
 62
    5
 10
1077.0000000000005
 20
328.73352999148574
 40
15
 41
0.8000000000000001
 50
0
  1
ブルー
  0
TEXT
  8
_0-7_枠細線
 62
    5
 10
1059.0000000000005
 20
303.73352999148568
 40
15
 41
0.8000000000000001
 50
0
  1
ダークグレー
  0
TEXT
  8
_0-7_枠細線
 62
    5
 10
1077.0000000000005
 20
278.73352999148568
 40
15
 41
0.8000000000000001
 50
0
  1
ウッド
  0
TEXT
  8
_0-7_枠細線
 62
    5
 10
1071.0000000000005
 20
228.73352999148568
 40
15
 41
0.8000000000000001
 50
0
  1
ブラック
  0
TEXT
  8
_0-7_枠細線
 62
    5
 10
1071.0000000000005
 20
253.73352999148568
 40
15
 41
0.8000000000000001
 50
0
  1
ブラウン
  0
LINE
  8
_0-1_計細線
  6
CONTINUOUS
 62
    3
 10
346.68632075471839
 20
402.91981132075529
 11
596.68632075471794
 21
402.91981132075529
  0
LINE
  8
_0-1_計細線
  6
CONTINUOUS
 62
    3
 10
346.68632075471839
 20
414.31981132075578
 11
596.68632075471794
 21
414.31981132075578
  0
LINE
  8
_0-1_計細線
  6
CONTINUOUS
 62
    3
 10
346.68632075471839
 20
402.91981132075529
 11
346.68632075471839
 21
414.31981132075578
  0
LINE
  8
_0-1_計細線
  6
CONTINUOUS
 62
    3
 10
596.68632075471794
 20
402.91981132075529
 11
596.68632075471794
 21
414.31981132075578
  0
LINE
  8
_0-0_計極細
  6
CONTINUOUS
 62
    2
 10
346.68632075471839
 20
411.11981132075556
 11
596.68632075471794
 21
411.11981132075556
  0
LINE
  8
_0-0_計極細
  6
CONTINUOUS
 62
    2
 10
346.68632075471839
 20
406.11981132075556
 11
596.68632075471794
 21
406.11981132075556
  0
LINE
  8
_0-1_計細線
  6
CONTINUOUS
 62
    3
 10
346.68632075471839
 20
419.91981132075574
 11
596.68632075471794
 21
419.91981132075574
  0
LINE
  8
_0-1_計細線
  6
CONTINUOUS
 62
    3
 10
346.68632075471839
 20
431.31981132075623
 11
596.68632075471794
 21
431.31981132075623
  0
LINE
  8
_0-1_計細線
  6
CONTINUOUS
 62
    3
 10
346.68632075471839
 20
419.91981132075574
 11
346.68632075471839
 21
431.31981132075623
  0
LINE
  8
_0-1_計細線
  6
CONTINUOUS
 62
    3
 10
596.68632075471794
 20
419.91981132075574
 11
596.68632075471794
 21
431.31981132075623
  0
LINE
  8
_0-0_計極細
  6
CONTINUOUS
 62
    2
 10
346.68632075471839
 20
428.11981132075641
 11
596.68632075471794
 21
428.11981132075641
  0
LINE
  8
_0-0_計極細
  6
CONTINUOUS
 62
    2
 10
346.68632075471839
 20
423.11981132075641
 11
596.68632075471794
 21
423.11981132075641
  0
LINE
  8
_0-1_計細線
  6
CONTINUOUS
 62
    3
 10
346.68632075471839
 20
482.31981132075396
 11
596.68632075471794
 21
482.31981132075396
  0
LINE
  8
_0-1_計細線
  6
CONTINUOUS
 62
    3
 10
346.68632075471839
 20
470.91981132075347
 11
596.68632075471794
 21
470.91981132075347
  0
LINE
  8
_0-1_計細線
  6
CONTINUOUS
 62
    3
 10
346.68632075471839
 20
482.31981132075396
 11
346.68632075471839
 21
470.91981132075347
  0
LINE
  8
_0-1_計細線
  6
CONTINUOUS
 62
    3
 10
596.68632075471794
 20
482.31981132075396
 11
596.68632075471794
 21
470.91981132075347
  0
LINE
  8
_0-0_計極細
  6
CONTINUOUS
 62
    2
 10
346.68632075471839
 20
474.11981132075368
 11
596.68632075471794
 21
474.11981132075368
  0
LINE
  8
_0-0_計極細
  6
CONTINUOUS
 62
    2
 10
346.68632075471839
 20
479.11981132075368
 11
596.68632075471794
 21
479.11981132075368
  0
LINE
  8
_0-0_計極細
  6
CENTER2
 62
    2
 10
330.79772121769918
 20
442.61981132075459
 11
612.73105455107623
 21
442.61981132075459
  0
LINE
  8
_0-1_計細線
  6
CONTINUOUS
 62
    3
 10
346.68632075471839
 20
550.31981132075441
 11
596.68632075471794
 21
550.31981132075441
  0
LINE
  8
_0-1_計細線
  6
CONTINUOUS
 62
    3
 10
346.68632075471839
 20
538.91981132075387
 11
596.68632075471794
 21
538.91981132075387
  0
LINE
  8
_0-1_計細線
  6
CONTINUOUS
 62
    3
 10
346.68632075471839
 20
550.31981132075441
 11
346.68632075471839
 21
538.91981132075387
  0
LINE
  8
_0-1_計細線
  6
CONTINUOUS
 62
    3
 10
596.68632075471794
 20
550.31981132075441
 11
596.68632075471794
 21
538.91981132075387
  0
LINE
  8
_0-0_計極細
  6
CONTINUOUS
 62
    2
 10
346.68632075471839
 20
542.11981132075414
 11
596.68632075471794
 21
542.11981132075414
  0
LINE
  8
_0-0_計極細
  6
CONTINUOUS
 62
    2
 10
346.68632075471839
 20
547.11981132075414
 11
596.68632075471794
 21
547.11981132075414
  0
LINE
  8
_0-1_計細線
  6
CONTINUOUS
 62
    3
 10
346.68632075471839
 20
567.61981132075459
 11
596.68632075471794
 21
567.61981132075459
  0
LINE
  8
_0-1_計細線
  6
CONTINUOUS
 62
    3
 10
346.68632075471839
 20
556.21981132075405
 11
596.68632075471794
 21
556.21981132075405
  0
LINE
  8
_0-1_計細線
  6
CONTINUOUS
 62
    3
 10
346.68632075471839
 20
567.61981132075459
 11
346.68632075471839
 21
556.21981132075405
  0
LINE
  8
_0-1_計細線
  6
CONTINUOUS
 62
    3
 10
596.68632075471794
 20
567.61981132075459
 11
596.68632075471794
 21
556.21981132075405
  0
LINE
  8
_0-0_計極細
  6
CONTINUOUS
 62
    2
 10
346.68632075471839
 20
559.41981132075432
 11
596.68632075471794
 21
559.41981132075432
  0
LINE
  8
_0-0_計極細
  6
CONTINUOUS
 62
    2
 10
346.68632075471839
 20
564.41981132075432
 11
596.68632075471794
 21
564.41981132075432
  0
LINE
  8
_0-1_計細線
  6
CONTINUOUS
 62
    3
 10
346.68632075471839
 20
334.91981132075477
 11
596.68632075471794
 21
334.91981132075477
  0
LINE
  8
_0-1_計細線
  6
CONTINUOUS
 62
    3
 10
346.68632075471839
 20
346.31981132075532
 11
596.68632075471794
 21
346.31981132075532
  0
LINE
  8
_0-1_計細線
  6
CONTINUOUS
 62
    3
 10
346.68632075471839
 20
334.91981132075477
 11
346.68632075471839
 21
346.31981132075532
  0
LINE
  8
_0-1_計細線
  6
CONTINUOUS
 62
    3
 10
596.68632075471794
 20
334.91981132075477
 11
596.68632075471794
 21
346.31981132075532
  0
LINE
  8
_0-0_計極細
  6
CONTINUOUS
 62
    2
 10
346.68632075471839
 20
343.1198113207551
 11
596.68632075471794
 21
343.1198113207551
  0
LINE
  8
_0-0_計極細
  6
CONTINUOUS
 62
    2
 10
346.68632075471839
 20
338.1198113207551
 11
596.68632075471794
 21
338.1198113207551
  0
LINE
  8
_0-1_計細線
  6
CONTINUOUS
 62
    3
 10
346.68632075471839
 20
317.61981132075459
 11
596.68632075471794
 21
317.61981132075459
  0
LINE
  8
_0-1_計細線
  6
CONTINUOUS
 62
    3
 10
346.68632075471839
 20
329.01981132075514
 11
596.68632075471794
 21
329.01981132075514
  0
LINE
  8
_0-1_計細線
  6
CONTINUOUS
 62
    3
 10
346.68632075471839
 20
317.61981132075459
 11
346.68632075471839
 21
329.01981132075514
  0
LINE
  8
_0-1_計細線
  6
CONTINUOUS
 62
    3
 10
596.68632075471794
 20
317.61981132075459
 11
596.68632075471794
 21
329.01981132075514
  0
LINE
  8
_0-0_計極細
  6
CONTINUOUS
 62
    2
 10
346.68632075471839
 20
325.81981132075492
 11
596.68632075471794
 21
325.81981132075492
  0
LINE
  8
_0-0_計極細
  6
CONTINUOUS
 62
    2
 10
346.68632075471839
 20
320.81981132075492
 11
596.68632075471794
 21
320.81981132075492
  0
LINE
  8
_0-1_計細線
  6
CONTINUOUS
 62
    3
 10
346.68632075471839
 20
499.31981132075441
 11
596.68632075471794
 21
499.31981132075441
  0
LINE
  8
_0-1_計細線
  6
CONTINUOUS
 62
    3
 10
346.68632075471839
 20
487.91981132075392
 11
596.68632075471794
 21
487.91981132075392
  0
LINE
  8
_0-1_計細線
  6
CONTINUOUS
 62
    3
 10
346.68632075471839
 20
499.31981132075441
 11
346.68632075471839
 21
487.91981132075392
  0
LINE
  8
_0-1_計細線
  6
CONTINUOUS
 62
    3
 10
596.68632075471794
 20
499.31981132075441
 11
596.68632075471794
 21
487.91981132075392
  0
LINE
  8
_0-0_計極細
  6
CONTINUOUS
 62
    2
 10
346.68632075471839
 20
491.11981132075465
 11
596.68632075471794
 21
491.11981132075465
  0
LINE
  8
_0-0_計極細
  6
CONTINUOUS
 62
    2
 10
346.68632075471839
 20
496.11981132075465
 11
596.68632075471794
 21
496.11981132075465
  0
LINE
  8
_0-1_計細線
  6
CONTINUOUS
 62
    3
 10
346.68632075471839
 20
516.31981132075543
 11
596.68632075471794
 21
516.31981132075543
  0
LINE
  8
_0-1_計細線
  6
CONTINUOUS
 62
    3
 10
346.68632075471839
 20
504.91981132075477
 11
596.68632075471794
 21
504.91981132075477
  0
LINE
  8
_0-1_計細線
  6
CONTINUOUS
 62
    3
 10
346.68632075471839
 20
516.31981132075543
 11
346.68632075471839
 21
504.91981132075477
  0
LINE
  8
_0-1_計細線
  6
CONTINUOUS
 62
    3
 10
596.68632075471794
 20
516.31981132075543
 11
596.68632075471794
 21
504.91981132075477
  0
LINE
  8
_0-0_計極細
  6
CONTINUOUS
 62
    2
 10
346.68632075471839
 20
508.1198113207551
 11
596.68632075471794
 21
508.1198113207551
  0
LINE
  8
_0-0_計極細
  6
CONTINUOUS
 62
    2
 10
346.68632075471839
 20
513.11981132075505
 11
596.68632075471794
 21
513.11981132075505
  0
LINE
  8
_0-1_計細線
  6
CONTINUOUS
 62
    3
 10
346.68632075471839
 20
533.31981132075623
 11
596.68632075471794
 21
533.31981132075623
  0
LINE
  8
_0-1_計細線
  6
CONTINUOUS
 62
    3
 10
346.68632075471839
 20
521.91981132075568
 11
596.68632075471794
 21
521.91981132075568
  0
LINE
  8
_0-1_計細線
  6
CONTINUOUS
 62
    3
 10
346.68632075471839
 20
533.31981132075623
 11
346.68632075471839
 21
521.91981132075568
  0
LINE
  8
_0-1_計細線
  6
CONTINUOUS
 62
    3
 10
596.68632075471794
 20
533.31981132075623
 11
596.68632075471794
 21
521.91981132075568
  0
LINE
  8
_0-0_計極細
  6
CONTINUOUS
 62
    2
 10
346.68632075471839
 20
525.1198113207555
 11
596.68632075471794
 21
525.1198113207555
  0
LINE
  8
_0-0_計極細
  6
CONTINUOUS
 62
    2
 10
346.68632075471839
 20
530.1198113207555
 11
596.68632075471794
 21
530.1198113207555
  0
LINE
  8
_0-1_計細線
  6
CONTINUOUS
 62
    3
 10
346.68632075471839
 20
385.91981132075483
 11
596.68632075471794
 21
385.91981132075483
  0
LINE
  8
_0-1_計細線
  6
CONTINUOUS
 62
    3
 10
346.68632075471839
 20
397.31981132075532
 11
596.68632075471794
 21
397.31981132075532
  0
LINE
  8
_0-1_計細線
  6
CONTINUOUS
 62
    3
 10
346.68632075471839
 20
385.91981132075483
 11
346.68632075471839
 21
397.31981132075532
  0
LINE
  8
_0-1_計細線
  6
CONTINUOUS
 62
    3
 10
596.68632075471794
 20
385.91981132075483
 11
596.68632075471794
 21
397.31981132075532
  0
LINE
  8
_0-0_計極細
  6
CONTINUOUS
 62
    2
 10
346.68632075471839
 20
394.11981132075459
 11
596.68632075471794
 21
394.11981132075459
  0
LINE
  8
_0-0_計極細
  6
CONTINUOUS
 62
    2
 10
346.68632075471839
 20
389.11981132075459
 11
596.68632075471794
 21
389.11981132075459
  0
LINE
  8
_0-1_計細線
  6
CONTINUOUS
 62
    3
 10
346.68632075471839
 20
368.91981132075387
 11
596.68632075471794
 21
368.91981132075387
  0
LINE
  8
_0-1_計細線
  6
CONTINUOUS
 62
    3
 10
346.68632075471839
 20
380.31981132075441
 11
596.68632075471794
 21
380.31981132075441
  0
LINE
  8
_0-1_計細線
  6
CONTINUOUS
 62
    3
 10
346.68632075471839
 20
368.91981132075387
 11
346.68632075471839
 21
380.31981132075441
  0
LINE
  8
_0-1_計細線
  6
CONTINUOUS
 62
    3
 10
596.68632075471794
 20
368.91981132075387
 11
596.68632075471794
 21
380.31981132075441
  0
LINE
  8
_0-0_計極細
  6
CONTINUOUS
 62
    2
 10
346.68632075471839
 20
377.11981132075414
 11
596.68632075471794
 21
377.11981132075414
  0
LINE
  8
_0-0_計極細
  6
CONTINUOUS
 62
    2
 10
346.68632075471839
 20
372.11981132075414
 11
596.68632075471794
 21
372.11981132075414
  0
LINE
  8
_0-1_計細線
  6
CONTINUOUS
 62
    3
 10
346.68632075471839
 20
351.91981132075296
 11
596.68632075471794
 21
351.91981132075296
  0
LINE
  8
_0-1_計細線
  6
CONTINUOUS
 62
    3
 10
346.68632075471839
 20
363.3198113207535
 11
596.68632075471794
 21
363.3198113207535
  0
LINE
  8
_0-1_計細線
  6
CONTINUOUS
 62
    3
 10
346.68632075471839
 20
351.91981132075296
 11
346.68632075471839
 21
363.3198113207535
  0
LINE
  8
_0-1_計細線
  6
CONTINUOUS
 62
    3
 10
596.68632075471794
 20
351.91981132075296
 11
596.68632075471794
 21
363.3198113207535
  0
LINE
  8
_0-0_計極細
  6
CONTINUOUS
 62
    2
 10
346.68632075471839
 20
360.11981132075368
 11
596.68632075471794
 21
360.11981132075368
  0
LINE
  8
_0-0_計極細
  6
CONTINUOUS
 62
    2
 10
346.68632075471839
 20
355.11981132075368
 11
596.68632075471794
 21
355.11981132075368
  0
LINE
  8
_0-1_計細線
  6
CONTINUOUS
 62
    3
 10
346.68632075471839
 20
465.3198113207535
 11
596.68632075471794
 21
465.3198113207535
  0
LINE
  8
_0-1_計細線
  6
CONTINUOUS
 62
    3
 10
596.68632075471794
 20
465.3198113207535
 11
596.68632075471794
 21
453.91981132075301
  0
LINE
  8
_0-0_計極細
  6
CONTINUOUS
 62
    2
 10
346.68632075471839
 20
457.11981132075277
 11
596.68632075471794
 21
457.11981132075277
  0
LINE
  8
_0-0_計極細
  6
CONTINUOUS
 62
    2
 10
346.68632075471839
 20
462.11981132075277
 11
596.68632075471794
 21
462.11981132075277
  0
LINE
  8
_0-1_計細線
  6
CONTINUOUS
 62
    3
 10
346.68632075471839
 20
465.3198113207535
 11
346.68632075471839
 21
453.91981132075301
  0
LINE
  8
_0-1_計細線
  6
CONTINUOUS
 62
    3
 10
346.68632075471839
 20
453.91981132075301
 11
596.68632075471794
 21
453.91981132075301
  0
LINE
  8
_0-1_計細線
  6
CONTINUOUS
 62
    3
 10
346.68632075471839
 20
436.91981132075205
 11
596.68632075471794
 21
436.91981132075205
  0
LINE
  8
_0-1_計細線
  6
CONTINUOUS
 62
    3
 10
596.68632075471794
 20
448.31981132075265
 11
596.68632075471794
 21
436.91981132075205
  0
LINE
  8
_0-0_計極細
  6
CONTINUOUS
 62
    2
 10
346.68632075471839
 20
440.11981132075232
 11
596.68632075471794
 21
440.11981132075232
  0
LINE
  8
_0-0_計極細
  6
CONTINUOUS
 62
    2
 10
346.68632075471839
 20
445.11981132075232
 11
596.68632075471794
 21
445.11981132075232
  0
LINE
  8
_0-1_計細線
  6
CONTINUOUS
 62
    3
 10
346.68632075471839
 20
448.31981132075265
 11
596.68632075471794
 21
448.31981132075265
  0
LINE
  8
_0-1_計細線
  6
CONTINUOUS
 62
    3
 10
346.68632075471839
 20
448.31981132075265
 11
346.68632075471839
 21
436.91981132075205
  0
LINE
  8
_0-0_計極細
  6
CONTINUOUS
 62
    2
 10
347.18632075471885
 20
414.31981132075578
 11
347.18632075471885
 21
419.91981132075574
  0
LINE
  8
_0-0_計極細
  6
CONTINUOUS
 62
    2
 10
360.18632075471885
 20
414.31981132075578
 11
360.18632075471885
 21
419.91981132075574
  0
LINE
  8
_0-0_計極細
  6
CONTINUOUS
 62
    2
 10
347.18632075471885
 20
436.91981132075205
 11
347.18632075471885
 21
431.31981132075168
  0
LINE
  8
_0-0_計極細
  6
CONTINUOUS
 62
    2
 10
360.18632075471885
 20
436.91981132075205
 11
360.18632075471885
 21
431.31981132075168
  0
LINE
  8
_0-0_計極細
  6
CONTINUOUS
 62
    2
 10
347.18632075471885
 20
453.91981132075301
 11
347.18632075471885
 21
448.31981132075265
  0
LINE
  8
_0-0_計極細
  6
CONTINUOUS
 62
    2
 10
360.18632075471885
 20
453.91981132075301
 11
360.18632075471885
 21
448.31981132075265
  0
LINE
  8
_0-0_計極細
  6
CONTINUOUS
 62
    2
 10
347.18632075471885
 20
470.91981132075347
 11
347.18632075471885
 21
465.3198113207535
  0
LINE
  8
_0-0_計極細
  6
CONTINUOUS
 62
    2
 10
360.18632075471885
 20
470.91981132075347
 11
360.18632075471885
 21
465.3198113207535
  0
LINE
  8
_0-0_計極細
  6
CONTINUOUS
 62
    2
 10
347.18632075471885
 20
556.21981132075405
 11
347.18632075471885
 21
550.31981132075407
  0
LINE
  8
_0-0_計極細
  6
CONTINUOUS
 62
    2
 10
360.18632075471885
 20
556.21981132075405
 11
360.18632075471885
 21
550.31981132075407
  0
LINE
  8
_0-0_計極細
  6
CONTINUOUS
 62
    2
 10
347.18632075471885
 20
329.01981132075514
 11
347.18632075471885
 21
334.91981132075523
  0
LINE
  8
_0-0_計極細
  6
CONTINUOUS
 62
    2
 10
360.18632075471885
 20
329.01981132075514
 11
360.18632075471885
 21
334.91981132075523
  0
LINE
  8
_0-0_計極細
  6
CENTER1
 62
    2
 10
353.68632075471885
 20
576.3705307452168
 11
353.68632075471885
 21
309.8619875797425
  0
LINE
  8
_0-0_計極細
  6
CONTINUOUS
 62
    2
 10
347.18632075471885
 20
487.91981132075392
 11
347.18632075471885
 21
482.31981132075396
  0
LINE
  8
_0-0_計極細
  6
CONTINUOUS
 62
    2
 10
360.18632075471885
 20
487.91981132075392
 11
360.18632075471885
 21
482.31981132075396
  0
LINE
  8
_0-0_計極細
  6
CONTINUOUS
 62
    2
 10
347.18632075471885
 20
504.91981132075477
 11
347.18632075471885
 21
499.31981132075441
  0
LINE
  8
_0-0_計極細
  6
CONTINUOUS
 62
    2
 10
360.18632075471885
 20
504.91981132075477
 11
360.18632075471885
 21
499.31981132075441
  0
LINE
  8
_0-0_計極細
  6
CONTINUOUS
 62
    2
 10
347.18632075471885
 20
521.91981132075568
 11
347.18632075471885
 21
516.31981132075543
  0
LINE
  8
_0-0_計極細
  6
CONTINUOUS
 62
    2
 10
360.18632075471885
 20
521.91981132075568
 11
360.18632075471885
 21
516.31981132075543
  0
LINE
  8
_0-0_計極細
  6
CONTINUOUS
 62
    2
 10
347.18632075471885
 20
538.91981132075614
 11
347.18632075471885
 21
533.31981132075623
  0
LINE
  8
_0-0_計極細
  6
CONTINUOUS
 62
    2
 10
360.18632075471885
 20
538.91981132075614
 11
360.18632075471885
 21
533.31981132075623
  0
LINE
  8
_0-0_計極細
  6
CONTINUOUS
 62
    2
 10
347.18632075471885
 20
397.31981132075532
 11
347.18632075471885
 21
402.91981132075529
  0
LINE
  8
_0-0_計極細
  6
CONTINUOUS
 62
    2
 10
360.18632075471885
 20
397.31981132075532
 11
360.18632075471885
 21
402.91981132075529
  0
LINE
  8
_0-0_計極細
  6
CONTINUOUS
 62
    2
 10
347.18632075471885
 20
380.31981132075441
 11
347.18632075471885
 21
385.91981132075483
  0
LINE
  8
_0-0_計極細
  6
CONTINUOUS
 62
    2
 10
360.18632075471885
 20
380.31981132075441
 11
360.18632075471885
 21
385.91981132075483
  0
LINE
  8
_0-0_計極細
  6
CONTINUOUS
 62
    2
 10
347.18632075471885
 20
363.3198113207535
 11
347.18632075471885
 21
368.91981132075387
  0
LINE
  8
_0-0_計極細
  6
CONTINUOUS
 62
    2
 10
360.18632075471885
 20
363.3198113207535
 11
360.18632075471885
 21
368.91981132075387
  0
LINE
  8
_0-0_計極細
  6
CONTINUOUS
 62
    2
 10
347.18632075471885
 20
346.31981132075305
 11
347.18632075471885
 21
351.91981132075296
  0
LINE
  8
_0-0_計極細
  6
CONTINUOUS
 62
    2
 10
360.18632075471885
 20
346.31981132075305
 11
360.18632075471885
 21
351.91981132075296
  0
LINE
  8
_0-0_計極細
  6
CONTINUOUS
 62
    2
 10
444.18632075471891
 20
414.31981132075578
 11
444.18632075471891
 21
419.91981132075574
  0
LINE
  8
_0-0_計極細
  6
CONTINUOUS
 62
    2
 10
457.18632075471885
 20
414.31981132075578
 11
457.18632075471885
 21
419.91981132075574
  0
LINE
  8
_0-0_計極細
  6
CONTINUOUS
 62
    2
 10
444.18632075471891
 20
436.91981132075205
 11
444.18632075471891
 21
431.31981132075168
  0
LINE
  8
_0-0_計極細
  6
CONTINUOUS
 62
    2
 10
457.18632075471885
 20
436.91981132075205
 11
457.18632075471885
 21
431.31981132075168
  0
LINE
  8
_0-0_計極細
  6
CONTINUOUS
 62
    2
 10
444.18632075471891
 20
470.91981132075347
 11
444.18632075471891
 21
465.3198113207535
  0
LINE
  8
_0-0_計極細
  6
CONTINUOUS
 62
    2
 10
457.18632075471885
 20
470.91981132075347
 11
457.18632075471885
 21
465.3198113207535
  0
LINE
  8
_0-0_計極細
  6
CONTINUOUS
 62
    2
 10
444.18632075471891
 20
556.21981132075405
 11
444.18632075471891
 21
550.31981132075407
  0
LINE
  8
_0-0_計極細
  6
CONTINUOUS
 62
    2
 10
457.18632075471885
 20
556.21981132075405
 11
457.18632075471885
 21
550.31981132075407
  0
LINE
  8
_0-0_計極細
  6
CONTINUOUS
 62
    2
 10
444.18632075471891
 20
329.01981132075514
 11
444.18632075471891
 21
334.91981132075523
  0
LINE
  8
_0-0_計極細
  6
CONTINUOUS
 62
    2
 10
457.18632075471885
 20
329.01981132075514
 11
457.18632075471885
 21
334.91981132075523
  0
LINE
  8
_0-0_計極細
  6
CENTER1
 62
    2
 10
450.68632075471891
 20
576.3705307452168
 11
450.68632075471891
 21
309.8619875797425
  0
LINE
  8
_0-0_計極細
  6
CONTINUOUS
 62
    2
 10
444.18632075471891
 20
487.91981132075392
 11
444.18632075471891
 21
482.31981132075396
  0
LINE
  8
_0-0_計極細
  6
CONTINUOUS
 62
    2
 10
457.18632075471885
 20
487.91981132075392
 11
457.18632075471885
 21
482.31981132075396
  0
LINE
  8
_0-0_計極細
  6
CONTINUOUS
 62
    2
 10
444.18632075471891
 20
504.91981132075477
 11
444.18632075471891
 21
499.31981132075441
  0
LINE
  8
_0-0_計極細
  6
CONTINUOUS
 62
    2
 10
457.18632075471885
 20
504.91981132075477
 11
457.18632075471885
 21
499.31981132075441
  0
LINE
  8
_0-0_計極細
  6
CONTINUOUS
 62
    2
 10
444.18632075471891
 20
521.91981132075568
 11
444.18632075471891
 21
516.31981132075543
  0
LINE
  8
_0-0_計極細
  6
CONTINUOUS
 62
    2
 10
457.18632075471885
 20
521.91981132075568
 11
457.18632075471885
 21
516.31981132075543
  0
LINE
  8
_0-0_計極細
  6
CONTINUOUS
 62
    2
 10
444.18632075471891
 20
538.91981132075614
 11
444.18632075471891
 21
533.31981132075623
  0
LINE
  8
_0-0_計極細
  6
CONTINUOUS
 62
    2
 10
457.18632075471885
 20
538.91981132075614
 11
457.18632075471885
 21
533.31981132075623
  0
LINE
  8
_0-0_計極細
  6
CONTINUOUS
 62
    2
 10
444.18632075471891
 20
397.31981132075532
 11
444.18632075471891
 21
402.91981132075529
  0
LINE
  8
_0-0_計極細
  6
CONTINUOUS
 62
    2
 10
457.18632075471885
 20
397.31981132075532
 11
457.18632075471885
 21
402.91981132075529
  0
LINE
  8
_0-0_計極細
  6
CONTINUOUS
 62
    2
 10
444.18632075471891
 20
380.31981132075441
 11
444.18632075471891
 21
385.91981132075483
  0
LINE
  8
_0-0_計極細
  6
CONTINUOUS
 62
    2
 10
457.18632075471885
 20
380.31981132075441
 11
457.18632075471885
 21
385.91981132075483
  0
LINE
  8
_0-0_計極細
  6
CONTINUOUS
 62
    2
 10
444.18632075471891
 20
363.3198113207535
 11
444.18632075471891
 21
368.91981132075387
  0
LINE
  8
_0-0_計極細
  6
CONTINUOUS
 62
    2
 10
457.18632075471885
 20
363.3198113207535
 11
457.18632075471885
 21
368.91981132075387
  0
LINE
  8
_0-0_計極細
  6
CONTINUOUS
 62
    2
 10
444.18632075471891
 20
346.31981132075305
 11
444.18632075471891
 21
351.91981132075296
  0
LINE
  8
_0-0_計極細
  6
CONTINUOUS
 62
    2
 10
457.18632075471885
 20
346.31981132075305
 11
457.18632075471885
 21
351.91981132075296
  0
LINE
  8
_0-0_計極細
  6
CONTINUOUS
 62
    2
 10
444.18632075471891
 20
453.91981132075301
 11
444.18632075471891
 21
453.46981132075268
  0
LINE
  8
_0-0_計極細
  6
CONTINUOUS
 62
    2
 10
444.18632075471891
 20
448.76981132075286
 11
444.18632075471891
 21
448.31981132075265
  0
LINE
  8
_0-0_計極細
  6
CONTINUOUS
 62
    2
 10
457.18632075471885
 20
453.91981132075301
 11
457.18632075471885
 21
453.46981132075268
  0
LINE
  8
_0-0_計極細
  6
CONTINUOUS
 62
    2
 10
457.18632075471885
 20
448.76981132075286
 11
457.18632075471885
 21
448.31981132075265
  0
LINE
  8
_0-0_計極細
  6
CONTINUOUS
 62
    2
 10
583.18632075471794
 20
414.31981132075578
 11
583.18632075471794
 21
419.91981132075574
  0
LINE
  8
_0-0_計極細
  6
CONTINUOUS
 62
    2
 10
596.18632075471794
 20
414.31981132075578
 11
596.18632075471794
 21
419.91981132075574
  0
LINE
  8
_0-0_計極細
  6
CONTINUOUS
 62
    2
 10
583.18632075471794
 20
436.91981132075205
 11
583.18632075471794
 21
431.31981132075168
  0
LINE
  8
_0-0_計極細
  6
CONTINUOUS
 62
    2
 10
596.18632075471794
 20
436.91981132075205
 11
596.18632075471794
 21
431.31981132075168
  0
LINE
  8
_0-0_計極細
  6
CONTINUOUS
 62
    2
 10
583.18632075471794
 20
453.91981132075301
 11
583.18632075471794
 21
448.31981132075265
  0
LINE
  8
_0-0_計極細
  6
CONTINUOUS
 62
    2
 10
596.18632075471794
 20
453.91981132075301
 11
596.18632075471794
 21
448.31981132075265
  0
LINE
  8
_0-0_計極細
  6
CONTINUOUS
 62
    2
 10
583.18632075471794
 20
470.91981132075347
 11
583.18632075471794
 21
465.3198113207535
  0
LINE
  8
_0-0_計極細
  6
CONTINUOUS
 62
    2
 10
596.18632075471794
 20
470.91981132075347
 11
596.18632075471794
 21
465.3198113207535
  0
LINE
  8
_0-0_計極細
  6
CONTINUOUS
 62
    2
 10
583.18632075471794
 20
556.21981132075405
 11
583.18632075471794
 21
550.31981132075407
  0
LINE
  8
_0-0_計極細
  6
CONTINUOUS
 62
    2
 10
596.18632075471794
 20
556.21981132075405
 11
596.18632075471794
 21
550.31981132075407
  0
LINE
  8
_0-0_計極細
  6
CONTINUOUS
 62
    2
 10
583.18632075471794
 20
329.01981132075514
 11
583.18632075471794
 21
334.91981132075523
  0
LINE
  8
_0-0_計極細
  6
CONTINUOUS
 62
    2
 10
596.18632075471794
 20
329.01981132075514
 11
596.18632075471794
 21
334.91981132075523
  0
LINE
  8
_0-0_計極細
  6
CENTER1
 62
    2
 10
589.68632075471794
 20
576.3705307452168
 11
589.68632075471794
 21
309.8619875797425
  0
LINE
  8
_0-0_計極細
  6
CONTINUOUS
 62
    2
 10
583.18632075471794
 20
487.91981132075392
 11
583.18632075471794
 21
482.31981132075396
  0
LINE
  8
_0-0_計極細
  6
CONTINUOUS
 62
    2
 10
596.18632075471794
 20
487.91981132075392
 11
596.18632075471794
 21
482.31981132075396
  0
LINE
  8
_0-0_計極細
  6
CONTINUOUS
 62
    2
 10
583.18632075471794
 20
504.91981132075477
 11
583.18632075471794
 21
499.31981132075441
  0
LINE
  8
_0-0_計極細
  6
CONTINUOUS
 62
    2
 10
596.18632075471794
 20
504.91981132075477
 11
596.18632075471794
 21
499.31981132075441
  0
LINE
  8
_0-0_計極細
  6
CONTINUOUS
 62
    2
 10
583.18632075471794
 20
521.91981132075568
 11
583.18632075471794
 21
516.31981132075543
  0
LINE
  8
_0-0_計極細
  6
CONTINUOUS
 62
    2
 10
596.18632075471794
 20
521.91981132075568
 11
596.18632075471794
 21
516.31981132075543
  0
LINE
  8
_0-0_計極細
  6
CONTINUOUS
 62
    2
 10
583.18632075471794
 20
538.91981132075614
 11
583.18632075471794
 21
533.31981132075623
  0
LINE
  8
_0-0_計極細
  6
CONTINUOUS
 62
    2
 10
596.18632075471794
 20
538.91981132075614
 11
596.18632075471794
 21
533.31981132075623
  0
LINE
  8
_0-0_計極細
  6
CONTINUOUS
 62
    2
 10
583.18632075471794
 20
397.31981132075532
 11
583.18632075471794
 21
402.91981132075529
  0
LINE
  8
_0-0_計極細
  6
CONTINUOUS
 62
    2
 10
596.18632075471794
 20
397.31981132075532
 11
596.18632075471794
 21
402.91981132075529
  0
LINE
  8
_0-0_計極細
  6
CONTINUOUS
 62
    2
 10
583.18632075471794
 20
380.31981132075441
 11
583.18632075471794
 21
385.91981132075483
  0
LINE
  8
_0-0_計極細
  6
CONTINUOUS
 62
    2
 10
596.18632075471794
 20
380.31981132075441
 11
596.18632075471794
 21
385.91981132075483
  0
LINE
  8
_0-0_計極細
  6
CONTINUOUS
 62
    2
 10
583.18632075471794
 20
363.3198113207535
 11
583.18632075471794
 21
368.91981132075387
  0
LINE
  8
_0-0_計極細
  6
CONTINUOUS
 62
    2
 10
596.18632075471794
 20
363.3198113207535
 11
596.18632075471794
 21
368.91981132075387
  0
LINE
  8
_0-0_計極細
  6
CONTINUOUS
 62
    2
 10
583.18632075471794
 20
346.31981132075305
 11
583.18632075471794
 21
351.91981132075296
  0
LINE
  8
_0-0_計極細
  6
CONTINUOUS
 62
    2
 10
596.18632075471794
 20
346.31981132075305
 11
596.18632075471794
 21
351.91981132075296
  0
LINE
  8
_0-0_計極細
  6
CONTINUOUS
 62
    2
 10
486.18632075471794
 20
414.31981132075578
 11
486.18632075471794
 21
419.91981132075574
  0
LINE
  8
_0-0_計極細
  6
CONTINUOUS
 62
    2
 10
499.186320754718
 20
414.31981132075578
 11
499.186320754718
 21
419.91981132075574
  0
LINE
  8
_0-0_計極細
  6
CONTINUOUS
 62
    2
 10
486.18632075471794
 20
436.91981132075205
 11
486.18632075471794
 21
431.31981132075168
  0
LINE
  8
_0-0_計極細
  6
CONTINUOUS
 62
    2
 10
499.186320754718
 20
436.91981132075205
 11
499.186320754718
 21
431.31981132075168
  0
LINE
  8
_0-0_計極細
  6
CONTINUOUS
 62
    2
 10
486.18632075471794
 20
453.91981132075301
 11
486.18632075471794
 21
448.31981132075265
  0
LINE
  8
_0-0_計極細
  6
CONTINUOUS
 62
    2
 10
499.186320754718
 20
453.91981132075301
 11
499.186320754718
 21
448.31981132075265
  0
LINE
  8
_0-0_計極細
  6
CONTINUOUS
 62
    2
 10
486.18632075471794
 20
470.91981132075347
 11
486.18632075471794
 21
465.3198113207535
  0
LINE
  8
_0-0_計極細
  6
CONTINUOUS
 62
    2
 10
499.186320754718
 20
470.91981132075347
 11
499.186320754718
 21
465.3198113207535
  0
LINE
  8
_0-0_計極細
  6
CONTINUOUS
 62
    2
 10
486.18632075471794
 20
556.21981132075405
 11
486.18632075471794
 21
550.31981132075407
  0
LINE
  8
_0-0_計極細
  6
CONTINUOUS
 62
    2
 10
499.186320754718
 20
556.21981132075405
 11
499.186320754718
 21
550.31981132075407
  0
LINE
  8
_0-0_計極細
  6
CONTINUOUS
 62
    2
 10
486.18632075471794
 20
329.01981132075514
 11
486.18632075471794
 21
334.91981132075523
  0
LINE
  8
_0-0_計極細
  6
CONTINUOUS
 62
    2
 10
499.186320754718
 20
329.01981132075514
 11
499.186320754718
 21
334.91981132075523
  0
LINE
  8
_0-0_計極細
  6
CENTER1
 62
    2
 10
492.686320754718
 20
576.3705307452168
 11
492.686320754718
 21
309.8619875797425
  0
LINE
  8
_0-0_計極細
  6
CONTINUOUS
 62
    2
 10
486.18632075471794
 20
487.91981132075392
 11
486.18632075471794
 21
482.31981132075396
  0
LINE
  8
_0-0_計極細
  6
CONTINUOUS
 62
    2
 10
499.186320754718
 20
487.91981132075392
 11
499.186320754718
 21
482.31981132075396
  0
LINE
  8
_0-0_計極細
  6
CONTINUOUS
 62
    2
 10
486.18632075471794
 20
504.91981132075477
 11
486.18632075471794
 21
499.31981132075441
  0
LINE
  8
_0-0_計極細
  6
CONTINUOUS
 62
    2
 10
499.186320754718
 20
504.91981132075477
 11
499.186320754718
 21
499.31981132075441
  0
LINE
  8
_0-0_計極細
  6
CONTINUOUS
 62
    2
 10
486.18632075471794
 20
521.91981132075568
 11
486.18632075471794
 21
516.31981132075543
  0
LINE
  8
_0-0_計極細
  6
CONTINUOUS
 62
    2
 10
499.186320754718
 20
521.91981132075568
 11
499.186320754718
 21
516.31981132075543
  0
LINE
  8
_0-0_計極細
  6
CONTINUOUS
 62
    2
 10
486.18632075471794
 20
538.91981132075614
 11
486.18632075471794
 21
533.31981132075623
  0
LINE
  8
_0-0_計極細
  6
CONTINUOUS
 62
    2
 10
499.186320754718
 20
538.91981132075614
 11
499.186320754718
 21
533.31981132075623
  0
LINE
  8
_0-0_計極細
  6
CONTINUOUS
 62
    2
 10
486.18632075471794
 20
397.31981132075532
 11
486.18632075471794
 21
402.91981132075529
  0
LINE
  8
_0-0_計極細
  6
CONTINUOUS
 62
    2
 10
499.186320754718
 20
397.31981132075532
 11
499.186320754718
 21
402.91981132075529
  0
LINE
  8
_0-0_計極細
  6
CONTINUOUS
 62
    2
 10
486.18632075471794
 20
380.31981132075441
 11
486.18632075471794
 21
385.91981132075483
  0
LINE
  8
_0-0_計極細
  6
CONTINUOUS
 62
    2
 10
499.186320754718
 20
380.31981132075441
 11
499.186320754718
 21
385.91981132075483
  0
LINE
  8
_0-0_計極細
  6
CONTINUOUS
 62
    2
 10
486.18632075471794
 20
363.3198113207535
 11
486.18632075471794
 21
368.91981132075387
  0
LINE
  8
_0-0_計極細
  6
CONTINUOUS
 62
    2
 10
499.186320754718
 20
363.3198113207535
 11
499.186320754718
 21
368.91981132075387
  0
LINE
  8
_0-0_計極細
  6
CONTINUOUS
 62
    2
 10
486.18632075471794
 20
346.31981132075305
 11
486.18632075471794
 21
351.91981132075296
  0
LINE
  8
_0-0_計極細
  6
CONTINUOUS
 62
    2
 10
499.186320754718
 20
346.31981132075305
 11
499.186320754718
 21
351.91981132075296
  0
LINE
  8
_0-1_計細線
  6
CONTINUOUS
 62
    3
 10
341.686320754718
 20
572.61981132075425
 11
341.686320754718
 21
312.6198113207555
  0
LINE
  8
_0-1_計細線
  6
CONTINUOUS
 62
    3
 10
341.686320754718
 20
312.6198113207555
 11
601.68632075471794
 21
312.6198113207555
  0
LINE
  8
_0-1_計細線
  6
CONTINUOUS
 62
    3
 10
601.68632075471794
 20
312.6198113207555
 11
601.68632075471794
 21
572.61981132075425
  0
LINE
  8
_0-1_計細線
  6
CONTINUOUS
 62
    3
 10
601.68632075471794
 20
572.61981132075425
 11
341.686320754718
 21
572.61981132075425
  0
LINE
  8
_0-1_計細線
  6
CONTINUOUS
 62
    3
 10
598.68632075471794
 20
315.6198113207555
 11
598.68632075471794
 21
569.61981132075414
  0
LINE
  8
_0-1_計細線
  6
CONTINUOUS
 62
    3
 10
598.68632075471794
 20
569.61981132075414
 11
344.68632075471839
 21
569.61981132075414
  0
LINE
  8
_0-1_計細線
  6
CONTINUOUS
 62
    3
 10
344.68632075471839
 20
569.61981132075414
 11
344.68632075471839
 21
315.6198113207555
  0
LINE
  8
_0-1_計細線
  6
CONTINUOUS
 62
    3
 10
344.68632075471839
 20
315.6198113207555
 11
598.68632075471794
 21
315.6198113207555
  0
LINE
  8
_0-5_寸法線
  6
CONTINUOUS
 62
    7
 10
601.68632075471794
 20
395.5286235998289
 11
608.75738856658347
 21
402.59969141169438
  0
LINE
  8
_0-5_寸法線
  6
CONTINUOUS
 62
    7
 10
601.68632075471794
 20
395.5286235998289
 11
611.34557901760877
 21
398.11681405085409
  0
LINE
  8
_0-5_寸法線
  6
CONTINUOUS
 62
    7
 10
601.68632075471794
 20
395.5286235998289
 11
643.08632075471803
 21
419.43092474427942
  0
LINE
  8
_0-5_寸法線
  6
CONTINUOUS
 62
    7
 10
643.08632075471803
 20
419.43092474427942
 11
751.08632075471803
 21
419.43092474427942
  0
TEXT
  8
_0-5_寸法線
 62
    7
 10
643.08632075471803
 20
419.43092474427942
 40
15
 41
0.8000000000000001
 50
0
  1
ＳＵＳアングル受枠
  0
TEXT
  8
_0-5_寸法線
 62
    7
 10
643.08632075471803
 20
404.43092474427942
 40
15
 41
0.8000000000000001
 50
0
  1
ＧＳＬ－２０
  0
LINE
  8
_0-5_寸法線
  6
CONTINUOUS
 62
    7
 10
563.20586915429237
 20
477.40892316251887
 11
570.2769369661579
 21
484.47999097438435
  0
LINE
  8
_0-5_寸法線
  6
CONTINUOUS
 62
    7
 10
563.20586915429237
 20
477.40892316251887
 11
572.86512741718309
 21
479.997113613544
  0
LINE
  8
_0-5_寸法線
  6
CONTINUOUS
 62
    7
 10
563.20586915429237
 20
477.40892316251887
 11
643.08632075471803
 21
523.52792339701341
  0
LINE
  8
_0-5_寸法線
  6
CONTINUOUS
 62
    7
 10
643.08632075471803
 20
523.52792339701341
 11
775.08632075471792
 21
523.52792339701341
  0
TEXT
  8
_0-5_寸法線
 62
    7
 10
643.08632075471803
 20
523.52792339701341
 40
15
 41
0.8000000000000001
 50
0
  1
セーフティグレーチング
  0
TEXT
  8
_0-5_寸法線
 62
    7
 10
646.60091154219845
 20
506.04885816523688
 40
15
 41
0.8000000000000001
 50
0
  1
補強仕様
  0
LINE
  8
_0-0_計極細
  6
CONTINUOUS
 62
    2
 10
395.68632075471891
 20
414.31981132075578
 11
395.68632075471891
 21
419.91981132075574
  0
LINE
  8
_0-0_計極細
  6
CONTINUOUS
 62
    2
 10
408.68632075471885
 20
414.31981132075578
 11
408.68632075471885
 21
419.91981132075574
  0
LINE
  8
_0-0_計極細
  6
CONTINUOUS
 62
    2
 10
395.68632075471891
 20
436.91981132075205
 11
395.68632075471891
 21
431.31981132075168
  0
LINE
  8
_0-0_計極細
  6
CONTINUOUS
 62
    2
 10
408.68632075471885
 20
436.91981132075205
 11
408.68632075471885
 21
431.31981132075168
  0
LINE
  8
_0-0_計極細
  6
CONTINUOUS
 62
    2
 10
395.68632075471891
 20
453.91981132075301
 11
395.68632075471891
 21
448.31981132075265
  0
LINE
  8
_0-0_計極細
  6
CONTINUOUS
 62
    2
 10
408.68632075471885
 20
453.91981132075301
 11
408.68632075471885
 21
448.31981132075265
  0
LINE
  8
_0-0_計極細
  6
CONTINUOUS
 62
    2
 10
395.68632075471891
 20
470.91981132075347
 11
395.68632075471891
 21
465.3198113207535
  0
LINE
  8
_0-0_計極細
  6
CONTINUOUS
 62
    2
 10
408.68632075471885
 20
470.91981132075347
 11
408.68632075471885
 21
465.3198113207535
  0
LINE
  8
_0-0_計極細
  6
CONTINUOUS
 62
    2
 10
395.68632075471891
 20
556.21981132075405
 11
395.68632075471891
 21
550.31981132075407
  0
LINE
  8
_0-0_計極細
  6
CONTINUOUS
 62
    2
 10
408.68632075471885
 20
556.21981132075405
 11
408.68632075471885
 21
550.31981132075407
  0
LINE
  8
_0-0_計極細
  6
CONTINUOUS
 62
    2
 10
395.68632075471891
 20
329.01981132075514
 11
395.68632075471891
 21
334.91981132075523
  0
LINE
  8
_0-0_計極細
  6
CONTINUOUS
 62
    2
 10
408.68632075471885
 20
329.01981132075514
 11
408.68632075471885
 21
334.91981132075523
  0
LINE
  8
_0-0_計極細
  6
CENTER1
 62
    2
 10
402.18632075471885
 20
576.3705307452168
 11
402.18632075471885
 21
309.8619875797425
  0
LINE
  8
_0-0_計極細
  6
CONTINUOUS
 62
    2
 10
395.68632075471891
 20
487.91981132075392
 11
395.68632075471891
 21
482.31981132075396
  0
LINE
  8
_0-0_計極細
  6
CONTINUOUS
 62
    2
 10
408.68632075471885
 20
487.91981132075392
 11
408.68632075471885
 21
482.31981132075396
  0
LINE
  8
_0-0_計極細
  6
CONTINUOUS
 62
    2
 10
395.68632075471891
 20
504.91981132075477
 11
395.68632075471891
 21
499.31981132075441
  0
LINE
  8
_0-0_計極細
  6
CONTINUOUS
 62
    2
 10
408.68632075471885
 20
504.91981132075477
 11
408.68632075471885
 21
499.31981132075441
  0
LINE
  8
_0-0_計極細
  6
CONTINUOUS
 62
    2
 10
395.68632075471891
 20
521.91981132075568
 11
395.68632075471891
 21
516.31981132075543
  0
LINE
  8
_0-0_計極細
  6
CONTINUOUS
 62
    2
 10
408.68632075471885
 20
521.91981132075568
 11
408.68632075471885
 21
516.31981132075543
  0
LINE
  8
_0-0_計極細
  6
CONTINUOUS
 62
    2
 10
395.68632075471891
 20
538.91981132075614
 11
395.68632075471891
 21
533.31981132075623
  0
LINE
  8
_0-0_計極細
  6
CONTINUOUS
 62
    2
 10
408.68632075471885
 20
538.91981132075614
 11
408.68632075471885
 21
533.31981132075623
  0
LINE
  8
_0-0_計極細
  6
CONTINUOUS
 62
    2
 10
395.68632075471891
 20
397.31981132075532
 11
395.68632075471891
 21
402.91981132075529
  0
LINE
  8
_0-0_計極細
  6
CONTINUOUS
 62
    2
 10
408.68632075471885
 20
397.31981132075532
 11
408.68632075471885
 21
402.91981132075529
  0
LINE
  8
_0-0_計極細
  6
CONTINUOUS
 62
    2
 10
395.68632075471891
 20
380.31981132075441
 11
395.68632075471891
 21
385.91981132075483
  0
LINE
  8
_0-0_計極細
  6
CONTINUOUS
 62
    2
 10
408.68632075471885
 20
380.31981132075441
 11
408.68632075471885
 21
385.91981132075483
  0
LINE
  8
_0-0_計極細
  6
CONTINUOUS
 62
    2
 10
395.68632075471891
 20
363.3198113207535
 11
395.68632075471891
 21
368.91981132075387
  0
LINE
  8
_0-0_計極細
  6
CONTINUOUS
 62
    2
 10
408.68632075471885
 20
363.3198113207535
 11
408.68632075471885
 21
368.91981132075387
  0
LINE
  8
_0-0_計極細
  6
CONTINUOUS
 62
    2
 10
395.68632075471891
 20
346.31981132075305
 11
395.68632075471891
 21
351.91981132075296
  0
LINE
  8
_0-0_計極細
  6
CONTINUOUS
 62
    2
 10
408.68632075471885
 20
346.31981132075305
 11
408.68632075471885
 21
351.91981132075296
  0
LINE
  8
_0-0_計極細
  6
CONTINUOUS
 62
    2
 10
534.68632075471794
 20
414.31981132075578
 11
534.68632075471794
 21
419.91981132075574
  0
LINE
  8
_0-0_計極細
  6
CONTINUOUS
 62
    2
 10
547.68632075471805
 20
414.31981132075578
 11
547.68632075471805
 21
419.91981132075574
  0
LINE
  8
_0-0_計極細
  6
CONTINUOUS
 62
    2
 10
534.68632075471794
 20
436.91981132075205
 11
534.68632075471794
 21
431.31981132075168
  0
LINE
  8
_0-0_計極細
  6
CONTINUOUS
 62
    2
 10
547.68632075471805
 20
436.91981132075205
 11
547.68632075471805
 21
431.31981132075168
  0
LINE
  8
_0-0_計極細
  6
CONTINUOUS
 62
    2
 10
534.68632075471794
 20
453.91981132075301
 11
534.68632075471794
 21
448.31981132075265
  0
LINE
  8
_0-0_計極細
  6
CONTINUOUS
 62
    2
 10
547.68632075471805
 20
453.91981132075301
 11
547.68632075471805
 21
448.31981132075265
  0
LINE
  8
_0-0_計極細
  6
CONTINUOUS
 62
    2
 10
534.68632075471794
 20
470.91981132075347
 11
534.68632075471794
 21
465.3198113207535
  0
LINE
  8
_0-0_計極細
  6
CONTINUOUS
 62
    2
 10
547.68632075471805
 20
470.91981132075347
 11
547.68632075471805
 21
465.3198113207535
  0
LINE
  8
_0-0_計極細
  6
CONTINUOUS
 62
    2
 10
534.68632075471794
 20
556.21981132075405
 11
534.68632075471794
 21
550.31981132075407
  0
LINE
  8
_0-0_計極細
  6
CONTINUOUS
 62
    2
 10
547.68632075471805
 20
556.21981132075405
 11
547.68632075471805
 21
550.31981132075407
  0
LINE
  8
_0-0_計極細
  6
CONTINUOUS
 62
    2
 10
534.68632075471794
 20
329.01981132075514
 11
534.68632075471794
 21
334.91981132075523
  0
LINE
  8
_0-0_計極細
  6
CONTINUOUS
 62
    2
 10
547.68632075471805
 20
329.01981132075514
 11
547.68632075471805
 21
334.91981132075523
  0
LINE
  8
_0-0_計極細
  6
CENTER1
 62
    2
 10
541.18632075471794
 20
576.3705307452168
 11
541.18632075471794
 21
309.8619875797425
  0
LINE
  8
_0-0_計極細
  6
CONTINUOUS
 62
    2
 10
534.68632075471794
 20
487.91981132075392
 11
534.68632075471794
 21
482.31981132075396
  0
LINE
  8
_0-0_計極細
  6
CONTINUOUS
 62
    2
 10
547.68632075471805
 20
487.91981132075392
 11
547.68632075471805
 21
482.31981132075396
  0
LINE
  8
_0-0_計極細
  6
CONTINUOUS
 62
    2
 10
534.68632075471794
 20
504.91981132075477
 11
534.68632075471794
 21
499.31981132075441
  0
LINE
  8
_0-0_計極細
  6
CONTINUOUS
 62
    2
 10
547.68632075471805
 20
504.91981132075477
 11
547.68632075471805
 21
499.31981132075441
  0
LINE
  8
_0-0_計極細
  6
CONTINUOUS
 62
    2
 10
534.68632075471794
 20
521.91981132075568
 11
534.68632075471794
 21
516.31981132075543
  0
LINE
  8
_0-0_計極細
  6
CONTINUOUS
 62
    2
 10
547.68632075471805
 20
521.91981132075568
 11
547.68632075471805
 21
516.31981132075543
  0
LINE
  8
_0-0_計極細
  6
CONTINUOUS
 62
    2
 10
534.68632075471794
 20
538.91981132075614
 11
534.68632075471794
 21
533.31981132075623
  0
LINE
  8
_0-0_計極細
  6
CONTINUOUS
 62
    2
 10
547.68632075471805
 20
538.91981132075614
 11
547.68632075471805
 21
533.31981132075623
  0
LINE
  8
_0-0_計極細
  6
CONTINUOUS
 62
    2
 10
534.68632075471794
 20
397.31981132075532
 11
534.68632075471794
 21
402.91981132075529
  0
LINE
  8
_0-0_計極細
  6
CONTINUOUS
 62
    2
 10
547.68632075471805
 20
397.31981132075532
 11
547.68632075471805
 21
402.91981132075529
  0
LINE
  8
_0-0_計極細
  6
CONTINUOUS
 62
    2
 10
534.68632075471794
 20
380.31981132075441
 11
534.68632075471794
 21
385.91981132075483
  0
LINE
  8
_0-0_計極細
  6
CONTINUOUS
 62
    2
 10
547.68632075471805
 20
380.31981132075441
 11
547.68632075471805
 21
385.91981132075483
  0
LINE
  8
_0-0_計極細
  6
CONTINUOUS
 62
    2
 10
534.68632075471794
 20
363.3198113207535
 11
534.68632075471794
 21
368.91981132075387
  0
LINE
  8
_0-0_計極細
  6
CONTINUOUS
 62
    2
 10
547.68632075471805
 20
363.3198113207535
 11
547.68632075471805
 21
368.91981132075387
  0
LINE
  8
_0-0_計極細
  6
CONTINUOUS
 62
    2
 10
534.68632075471794
 20
346.31981132075305
 11
534.68632075471794
 21
351.91981132075296
  0
LINE
  8
_0-0_計極細
  6
CONTINUOUS
 62
    2
 10
547.68632075471805
 20
346.31981132075305
 11
547.68632075471805
 21
351.91981132075296
  0
LINE
  8
_0-7_枠細線
  6
CONTINUOUS
 62
    5
 10
382.58653034071028
 20
640.4225227067509
 11
375.08653034071028
 21
655.4225227067509
  0
LINE
  8
_0-7_枠細線
  6
CONTINUOUS
 62
    5
 10
367.58653034071028
 20
640.4225227067509
 11
382.58653034071028
 21
640.4225227067509
  0
LINE
  8
_0-7_枠細線
  6
CONTINUOUS
 62
    5
 10
375.08653034071028
 20
655.4225227067509
 11
367.58653034071028
 21
640.4225227067509
  0
LINE
  8
_0-5_寸法線
  6
CONTINUOUS
 62
    7
 10
341.68632075471851
 20
582.61981132075425
 11
341.68632075471885
 21
732.61981132075425
  0
LINE
  8
_0-5_寸法線
  6
CONTINUOUS
 62
    7
 10
341.68632075471885
 20
727.61981132075425
 11
351.34557901760951
 21
730.20800177177932
  0
LINE
  8
_0-5_寸法線
  6
CONTINUOUS
 62
    7
 10
341.68632075471885
 20
727.61981132075425
 11
351.34557901760951
 21
725.03162086972895
  0
LINE
  8
_0-5_寸法線
  6
CONTINUOUS
 62
    7
 10
601.68632075471794
 20
582.61981132075425
 11
601.68632075471794
 21
732.61981132075425
  0
LINE
  8
_0-5_寸法線
  6
CONTINUOUS
 62
    7
 10
601.68632075471794
 20
727.61981132075425
 11
592.02706249182722
 21
725.03162086972895
  0
LINE
  8
_0-5_寸法線
  6
CONTINUOUS
 62
    7
 10
601.68632075471794
 20
727.61981132075425
 11
592.02706249182722
 21
730.20800177177932
  0
LINE
  8
_0-5_寸法線
  6
CONTINUOUS
 62
    7
 10
341.68632075471885
 20
727.61981132075425
 11
601.68632075471794
 21
727.61981132075425
  0
TEXT
  8
_0-5_寸法線
 62
    7
 10
460.43632075471839
 20
727.61981132075425
 40
15
 41
1
 50
0
  1
260
  0
LINE
  8
_0-5_寸法線
  6
CONTINUOUS
 62
    7
 10
596.68632075471805
 20
582.61981132075425
 11
596.68632075471896
 21
662.61981132075425
  0
LINE
  8
_0-5_寸法線
  6
CONTINUOUS
 62
    7
 10
596.68632075471896
 20
657.61981132075425
 11
587.02706249182813
 21
655.03162086972895
  0
LINE
  8
_0-5_寸法線
  6
CONTINUOUS
 62
    7
 10
596.68632075471896
 20
657.61981132075425
 11
587.02706249182813
 21
660.20800177177932
  0
LINE
  8
_0-5_寸法線
  6
CONTINUOUS
 62
    7
 10
346.68632075471805
 20
582.61981132075425
 11
346.68632075471891
 21
662.61981132075425
  0
LINE
  8
_0-5_寸法線
  6
CONTINUOUS
 62
    7
 10
346.68632075471885
 20
657.61981132075425
 11
356.34557901760951
 21
660.20800177177932
  0
LINE
  8
_0-5_寸法線
  6
CONTINUOUS
 62
    7
 10
346.68632075471885
 20
657.61981132075425
 11
356.34557901760951
 21
655.03162086972895
  0
LINE
  8
_0-5_寸法線
  6
CONTINUOUS
 62
    7
 10
596.68632075471896
 20
657.61981132075425
 11
346.68632075471885
 21
657.61981132075425
  0
TEXT
  8
_0-5_寸法線
 62
    7
 10
460.43632075471839
 20
657.61981132075425
 40
15
 41
1
 50
0
  1
250
  0
LINE
  8
_0-5_寸法線
  6
CONTINUOUS
 62
    7
 10
341.686320754718
 20
582.61981132075425
 11
341.68632075471839
 21
697.61981132075425
  0
LINE
  8
_0-5_寸法線
  6
CONTINUOUS
 62
    7
 10
341.68632075471839
 20
692.61981132075425
 11
332.02706249182768
 21
690.03162086972895
  0
LINE
  8
_0-5_寸法線
  6
CONTINUOUS
 62
    7
 10
341.68632075471839
 20
692.61981132075425
 11
332.02706249182773
 21
695.20800177177932
  0
LINE
  8
_0-5_寸法線
  6
CONTINUOUS
 62
    7
 10
344.68632075471805
 20
582.61981132075425
 11
344.68632075471839
 21
697.61981132075425
  0
LINE
  8
_0-5_寸法線
  6
CONTINUOUS
 62
    7
 10
316.68632075471839
 20
692.61981132075425
 11
344.68632075471839
 21
692.61981132075425
  0
TEXT
  8
_0-5_寸法線
 62
    7
 10
318.497430516571
 20
692.61981132075425
 40
15
 41
1
 50
0
  1
3
  0
LINE
  8
_0-5_寸法線
  6
CONTINUOUS
 62
    7
 10
344.68632075471839
 20
692.61981132075425
 11
354.34557901760911
 21
695.20800177177932
  0
LINE
  8
_0-5_寸法線
  6
CONTINUOUS
 62
    7
 10
344.68632075471839
 20
692.61981132075425
 11
354.34557901760905
 21
690.03162086972895
  0
LINE
  8
_0-5_寸法線
  6
CONTINUOUS
 62
    7
 10
598.68632075471794
 20
582.61981132075402
 11
598.68632075471794
 21
697.61981132075425
  0
LINE
  8
_0-5_寸法線
  6
CONTINUOUS
 62
    7
 10
598.68632075471794
 20
692.61981132075425
 11
589.02706249182734
 21
690.03162086972895
  0
LINE
  8
_0-5_寸法線
  6
CONTINUOUS
 62
    7
 10
598.68632075471794
 20
692.61981132075425
 11
589.02706249182734
 21
695.20800177177932
  0
LINE
  8
_0-5_寸法線
  6
CONTINUOUS
 62
    7
 10
344.68632075471839
 20
692.61981132075425
 11
598.68632075471794
 21
692.61981132075425
  0
TEXT
  8
_0-5_寸法線
 62
    7
 10
460.43632075471839
 20
692.61981132075402
 40
15
 41
1
 50
0
  1
254
  0
LINE
  8
_0-5_寸法線
  6
CONTINUOUS
 62
    7
 10
601.68632075471794
 20
582.61981132075425
 11
601.68632075471794
 21
697.61981132075425
  0
LINE
  8
_0-5_寸法線
  6
CONTINUOUS
 62
    7
 10
601.68632075471794
 20
692.61981132075425
 11
611.34557901760877
 21
695.20800177177932
  0
LINE
  8
_0-5_寸法線
  6
CONTINUOUS
 62
    7
 10
601.68632075471794
 20
692.61981132075425
 11
611.34557901760877
 21
690.03162086972895
  0
LINE
  8
_0-5_寸法線
  6
CONTINUOUS
 62
    7
 10
598.68632075471794
 20
692.61981132075425
 11
626.68632075471794
 21
692.61981132075425
  0
TEXT
  8
_0-5_寸法線
 62
    7
 10
617.95792579959004
 20
692.61981132075425
 40
15
 41
1
 50
0
  1
3
  0
LINE
  8
_0-5_寸法線
  6
CONTINUOUS
 62
    7
 10
346.686320754718
 20
582.61981132075425
 11
346.686320754718
 21
627.61981132075425
  0
LINE
  8
_0-5_寸法線
  6
CONTINUOUS
 62
    7
 10
346.686320754718
 20
622.61981132075425
 11
356.34557901760866
 21
625.20800177177932
  0
LINE
  8
_0-5_寸法線
  6
CONTINUOUS
 62
    7
 10
346.686320754718
 20
622.61981132075425
 11
356.34557901760866
 21
620.03162086972895
  0
LINE
  8
_0-5_寸法線
  6
CONTINUOUS
 62
    7
 10
353.68632075471794
 20
582.61981132075425
 11
353.68632075471794
 21
627.61981132075425
  0
LINE
  8
_0-5_寸法線
  6
CONTINUOUS
 62
    7
 10
353.68632075471794
 20
622.61981132075425
 11
344.02706249182722
 21
620.03162086972895
  0
LINE
  8
_0-5_寸法線
  6
CONTINUOUS
 62
    7
 10
353.68632075471794
 20
622.61981132075425
 11
344.02706249182728
 21
625.20800177177932
  0
LINE
  8
_0-5_寸法線
  6
CONTINUOUS
 62
    7
 10
346.686320754718
 20
622.61981132075425
 11
361.18632075471794
 21
622.61981132075425
  0
TEXT
  8
_0-5_寸法線
 62
    7
 10
353.68632075471794
 20
605.99051766754837
 40
15
 41
1
 50
0
  1
7
  0
LINE
  8
_0-5_寸法線
  6
CONTINUOUS
 62
    7
 10
353.68632075471794
 20
622.61981132075425
 11
363.34557901760866
 21
625.20800177177932
  0
LINE
  8
_0-5_寸法線
  6
CONTINUOUS
 62
    7
 10
353.68632075471794
 20
622.61981132075425
 11
363.3455790176086
 21
620.03162086972884
  0
LINE
  8
_0-5_寸法線
  6
CONTINUOUS
 62
    7
 10
450.68632075471891
 20
582.61981132075425
 11
450.68632075471891
 21
627.61981132075425
  0
LINE
  8
_0-5_寸法線
  6
CONTINUOUS
 62
    7
 10
450.68632075471891
 20
622.61981132075425
 11
441.02706249182813
 21
620.03162086972895
  0
LINE
  8
_0-5_寸法線
  6
CONTINUOUS
 62
    7
 10
450.68632075471891
 20
622.61981132075425
 11
441.02706249182825
 21
625.20800177177932
  0
LINE
  8
_0-5_寸法線
  6
CONTINUOUS
 62
    7
 10
353.68632075471794
 20
622.61981132075425
 11
450.68632075471891
 21
622.61981132075425
  0
TEXT
  8
_0-5_寸法線
 62
    7
 10
368.43632075471839
 20
622.61981132075425
 40
15
 41
1
 50
0
  1
2@48.5=97
  0
LINE
  8
_0-5_寸法線
  6
CONTINUOUS
 62
    7
 10
450.68632075471891
 20
622.61981132075425
 11
460.34557901760962
 21
625.20800177177932
  0
LINE
  8
_0-5_寸法線
  6
CONTINUOUS
 62
    7
 10
450.68632075471891
 20
622.61981132075425
 11
460.34557901760957
 21
620.03162086972884
  0
LINE
  8
_0-5_寸法線
  6
CONTINUOUS
 62
    7
 10
492.686320754718
 20
582.61981132075425
 11
492.686320754718
 21
627.61981132075425
  0
LINE
  8
_0-5_寸法線
  6
CONTINUOUS
 62
    7
 10
492.686320754718
 20
622.61981132075425
 11
483.02706249182728
 21
620.03162086972895
  0
LINE
  8
_0-5_寸法線
  6
CONTINUOUS
 62
    7
 10
492.686320754718
 20
622.61981132075425
 11
483.02706249182734
 21
625.20800177177932
  0
LINE
  8
_0-5_寸法線
  6
CONTINUOUS
 62
    7
 10
450.68632075471891
 20
622.61981132075425
 11
492.686320754718
 21
622.61981132075425
  0
TEXT
  8
_0-5_寸法線
 62
    7
 10
464.18632075471839
 20
622.61981132075402
 40
15
 41
1
 50
0
  1
42
  0
LINE
  8
_0-5_寸法線
  6
CONTINUOUS
 62
    7
 10
492.686320754718
 20
622.61981132075425
 11
502.34557901760866
 21
625.20800177177932
  0
LINE
  8
_0-5_寸法線
  6
CONTINUOUS
 62
    7
 10
492.686320754718
 20
622.61981132075425
 11
502.34557901760866
 21
620.03162086972884
  0
LINE
  8
_0-5_寸法線
  6
CONTINUOUS
 62
    7
 10
589.68632075471794
 20
582.61981132075425
 11
589.68632075471794
 21
627.61981132075425
  0
LINE
  8
_0-5_寸法線
  6
CONTINUOUS
 62
    7
 10
589.68632075471794
 20
622.61981132075425
 11
580.02706249182722
 21
620.03162086972895
  0
LINE
  8
_0-5_寸法線
  6
CONTINUOUS
 62
    7
 10
589.68632075471794
 20
622.61981132075425
 11
580.02706249182722
 21
625.20800177177932
  0
LINE
  8
_0-5_寸法線
  6
CONTINUOUS
 62
    7
 10
492.686320754718
 20
622.61981132075425
 11
589.68632075471794
 21
622.61981132075425
  0
TEXT
  8
_0-5_寸法線
 62
    7
 10
507.43632075471794
 20
622.61981132075425
 40
15
 41
1
 50
0
  1
2@48.5=97
  0
LINE
  8
_0-5_寸法線
  6
CONTINUOUS
 62
    7
 10
589.68632075471794
 20
622.61981132075425
 11
599.34557901760866
 21
625.20800177177932
  0
LINE
  8
_0-5_寸法線
  6
CONTINUOUS
 62
    7
 10
589.68632075471794
 20
622.61981132075425
 11
599.34557901760866
 21
620.03162086972884
  0
LINE
  8
_0-5_寸法線
  6
CONTINUOUS
 62
    7
 10
596.68632075471794
 20
582.61981132075425
 11
596.68632075471794
 21
627.61981132075425
  0
LINE
  8
_0-5_寸法線
  6
CONTINUOUS
 62
    7
 10
596.68632075471794
 20
622.61981132075425
 11
587.02706249182722
 21
620.03162086972895
  0
LINE
  8
_0-5_寸法線
  6
CONTINUOUS
 62
    7
 10
596.68632075471794
 20
622.61981132075425
 11
587.02706249182722
 21
625.20800177177932
  0
LINE
  8
_0-5_寸法線
  6
CONTINUOUS
 62
    7
 10
581.32221408340445
 20
622.61981132075425
 11
596.68632075471794
 21
622.61981132075425
  0
TEXT
  8
_0-5_寸法線
 62
    7
 10
581.32221408340445
 20
606.06790563924665
 40
15
 41
1
 50
0
  1
7
  0
LINE
  8
_0-5_寸法線
  6
CONTINUOUS
 62
    7
 10
331.686320754718
 20
312.6198113207555
 11
251.68632075471791
 21
312.61981132075573
  0
LINE
  8
_0-5_寸法線
  6
CONTINUOUS
 62
    7
 10
256.68632075471794
 20
312.61981132075573
 11
254.09813030369278
 21
322.27906958364645
  0
LINE
  8
_0-5_寸法線
  6
CONTINUOUS
 62
    7
 10
256.68632075471794
 20
312.61981132075573
 11
259.27451120574318
 21
322.27906958364645
  0
LINE
  8
_0-5_寸法線
  6
CONTINUOUS
 62
    7
 10
331.686320754718
 20
572.61981132075425
 11
251.68632075471791
 21
572.61981132075437
  0
LINE
  8
_0-5_寸法線
  6
CONTINUOUS
 62
    7
 10
256.68632075471794
 20
572.61981132075437
 11
259.27451120574318
 21
562.96055305786365
  0
LINE
  8
_0-5_寸法線
  6
CONTINUOUS
 62
    7
 10
256.68632075471794
 20
572.61981132075437
 11
254.09813030369278
 21
562.96055305786365
  0
LINE
  8
_0-5_寸法線
  6
CONTINUOUS
 62
    7
 10
256.68632075471794
 20
312.61981132075573
 11
256.68632075471794
 21
572.61981132075437
  0
TEXT
  8
_0-5_寸法線
 62
    7
 10
256.68632075471794
 20
431.36981132075505
 40
15
 41
1
 50
90
  1
260
  0
LINE
  8
_0-5_寸法線
  6
CONTINUOUS
 62
    7
 10
331.686320754718
 20
312.61981132075556
 11
286.68632075471794
 21
312.6198113207555
  0
LINE
  8
_0-5_寸法線
  6
CONTINUOUS
 62
    7
 10
291.68632075471794
 20
312.6198113207555
 11
294.27451120574318
 21
302.96055305786479
  0
LINE
  8
_0-5_寸法線
  6
CONTINUOUS
 62
    7
 10
291.68632075471794
 20
312.6198113207555
 11
289.0981303036927
 21
302.96055305786484
  0
LINE
  8
_0-5_寸法線
  6
CONTINUOUS
 62
    7
 10
331.686320754718
 20
315.61981132075562
 11
286.68632075471794
 21
315.6198113207555
  0
CIRCLE
  8
_0-5_寸法線
  6
CONTINUOUS
 62
    1
 10
291.68632075471794
 20
315.6198113207555
 40
1.5000000000000002
  0
LINE
  8
_0-5_寸法線
  6
CONTINUOUS
 62
    7
 10
291.68632075471794
 20
287.6198113207555
 11
291.68632075471794
 21
315.6198113207555
  0
TEXT
  8
_0-5_寸法線
 62
    7
 10
291.68632075471794
 20
290.97869215015328
 40
15
 41
1
 50
90
  1
3
  0
LINE
  8
_0-5_寸法線
  6
CONTINUOUS
 62
    7
 10
331.686320754718
 20
317.6198113207551
 11
286.68632075471794
 21
317.61981132075528
  0
LINE
  8
_0-5_寸法線
  6
CONTINUOUS
 62
    7
 10
291.68632075471794
 20
315.6198113207555
 11
291.68632075471794
 21
317.61981132075528
  0
TEXT
  8
_0-5_寸法線
 62
    7
 10
309.11358617694793
 20
320.77247163129016
 40
15
 41
1
 50
90
  1
2
  0
LINE
  8
_0-5_寸法線
  6
CONTINUOUS
 62
    7
 10
291.68632075471794
 20
317.61981132075528
 11
289.09813030369276
 21
327.27906958364593
  0
LINE
  8
_0-5_寸法線
  6
CONTINUOUS
 62
    7
 10
291.68632075471794
 20
317.61981132075528
 11
294.27451120574318
 21
327.27906958364593
  0
LINE
  8
_0-5_寸法線
  6
CONTINUOUS
 62
    7
 10
331.686320754718
 20
567.61981132075505
 11
286.68632075471794
 21
567.61981132075516
  0
LINE
  8
_0-5_寸法線
  6
CONTINUOUS
 62
    7
 10
291.68632075471794
 20
567.61981132075516
 11
294.27451120574318
 21
557.96055305786444
  0
LINE
  8
_0-5_寸法線
  6
CONTINUOUS
 62
    7
 10
291.68632075471794
 20
567.61981132075516
 11
289.0981303036927
 21
557.96055305786444
  0
LINE
  8
_0-5_寸法線
  6
CONTINUOUS
 62
    7
 10
291.68632075471794
 20
317.61981132075528
 11
291.68632075471794
 21
567.61981132075516
  0
TEXT
  8
_0-5_寸法線
 62
    7
 10
291.68632075471794
 20
431.36981132075516
 40
15
 41
1
 50
90
  1
250
  0
LINE
  8
_0-5_寸法線
  6
CONTINUOUS
 62
    7
 10
331.686320754718
 20
569.61981132075414
 11
286.68632075471794
 21
569.61981132075425
  0
CIRCLE
  8
_0-5_寸法線
  6
CONTINUOUS
 62
    1
 10
291.68632075471794
 20
569.61981132075425
 40
1.5000000000000002
  0
LINE
  8
_0-5_寸法線
  6
CONTINUOUS
 62
    7
 10
291.68632075471794
 20
567.61981132075516
 11
291.68632075471794
 21
569.61981132075425
  0
TEXT
  8
_0-5_寸法線
 62
    7
 10
308.10754254487199
 20
559.05895453222377
 40
15
 41
1
 50
90
  1
2
  0
LINE
  8
_0-5_寸法線
  6
CONTINUOUS
 62
    7
 10
331.686320754718
 20
572.61981132075425
 11
286.68632075471794
 21
572.61981132075425
  0
LINE
  8
_0-5_寸法線
  6
CONTINUOUS
 62
    7
 10
291.68632075471794
 20
572.61981132075425
 11
289.09813030369276
 21
582.27906958364497
  0
LINE
  8
_0-5_寸法線
  6
CONTINUOUS
 62
    7
 10
291.68632075471794
 20
572.61981132075425
 11
294.27451120574318
 21
582.27906958364497
  0
LINE
  8
_0-5_寸法線
  6
CONTINUOUS
 62
    7
 10
291.68632075471794
 20
569.61981132075425
 11
291.68632075471794
 21
597.61981132075425
  0
TEXT
  8
_0-5_寸法線
 62
    7
 10
291.68632075471794
 20
586.72456479166146
 40
15
 41
1
 50
90
  1
3
  0
LINE
  8
_0-7_枠細線
  6
CONTINUOUS
 62
    5
 10
255.34335540952938
 20
657.56785947116146
 11
247.84335540952938
 21
672.56785947116146
  0
LINE
  8
_0-7_枠細線
  6
CONTINUOUS
 62
    5
 10
240.34335540952938
 20
657.56785947116146
 11
255.34335540952938
 21
657.56785947116146
  0
LINE
  8
_0-7_枠細線
  6
CONTINUOUS
 62
    5
 10
247.84335540952938
 20
672.56785947116146
 11
240.34335540952938
 21
657.56785947116146
  0
LINE
  8
_0-5_寸法線
  6
CONTINUOUS
 62
    7
 10
444.18632075471891
 20
452.36434887738136
 11
436.2688884387407
 21
458.47288925310971
  0
LINE
  8
_0-5_寸法線
  6
CONTINUOUS
 62
    7
 10
444.18632075471891
 20
452.36434887738136
 11
440.38389342420203
 21
461.6132161807941
  0
LINE
  8
_0-5_寸法線
  6
CONTINUOUS
 62
    7
 10
444.18632075471891
 20
452.36434887738136
 11
301.33347726338468
 21
639.555102162303
  0
LINE
  8
_0-5_寸法線
  6
CONTINUOUS
 62
    7
 10
301.33347726338468
 20
639.555102162303
 11
241.33347726338471
 21
639.555102162303
  0
TEXT
  8
_0-5_寸法線
 62
    7
 10
241.33347726338471
 20
639.555102162303
 40
15
 41
0.8000000000000001
 50
0
  1
取　外　具
  0
LINE
  8
_0-0_計極細
  6
CENTER1
 62
    2
 10
1245.269833822379
 20
693.74877127353318
 11
985.40527357841847
 21
693.74877127353318
  0
CIRCLE
  8
_0-0_計極細
  6
CONTINUOUS
 62
    2
 10
1263.3343970853718
 20
669.97108501324124
 40
0.3318518518518431
  0
CIRCLE
  8
_0-0_計極細
  6
CONTINUOUS
 62
    2
 10
1275.0943970853718
 20
666.61108501324122
 40
0.3318518518518431
  0
LINE
  8
_0-0_計極細
  6
CONTINUOUS
 62
    2
 10
1261.3976690451432
 20
663.40010808252248
 11
1270.3976690451432
 21
663.40010808252248
  0
LINE
  8
_0-0_計極細
  6
CENTER1
 62
    2
 10
1265.8976690451432
 20
631.9827271028613
 11
1265.8976690451432
 21
665.96554018128825
  0
LINE
  8
_0-0_計極細
  6
CONTINUOUS
 62
    2
 10
1270.3976690451432
 20
663.40010808252248
 11
1270.3976690451432
 21
636.948771273533
  0
LINE
  8
_0-0_計極細
  6
CONTINUOUS
 62
    2
 10
1261.3976690451432
 20
636.948771273533
 11
1261.3976690451432
 21
663.40010808252248
  0
LINE
  8
_0-0_計極細
  6
CENTER1
 62
    2
 10
1277.0940606575955
 20
655.02423074055389
 11
1238.6754483680559
 21
669.00746203157485
  0
LINE
  8
_0-0_計極細
  6
CONTINUOUS
 62
    2
 10
1272.581709977434
 20
651.87779197103498
 11
1239.5071030832255
 21
663.91596439058276
  0
LINE
  8
_0-0_計極細
  6
CONTINUOUS
 62
    2
 10
1275.6598912673651
 20
660.33502555810844
 11
1242.5852843731564
 21
672.3731979776561
  0
LINE
  8
_0-0_計極細
  6
CONTINUOUS
 62
    2
 10
1242.5852843731564
 20
672.3731979776561
 11
1239.5071030832255
 21
663.91596439058276
  0
LINE
  8
_0-0_計極細
  6
CONTINUOUS
 62
    2
 10
1272.581709977434
 20
651.87779197103498
 11
1275.6598912673651
 21
660.33502555810844
  0
LINE
  8
_0-0_計極細
  6
CENTER1
 62
    2
 10
966.89766904514272
 20
631.9827271028613
 11
966.89766904514272
 21
665.96554018128825
  0
LINE
  8
_0-0_計極細
  6
CONTINUOUS
 62
    2
 10
962.39766904514283
 20
663.40010808252248
 11
962.39766904514283
 21
636.948771273533
  0
LINE
  8
_0-0_計極細
  6
CONTINUOUS
 62
    2
 10
971.39766904514272
 20
663.40010808252248
 11
962.39766904514283
 21
663.40010808252248
  0
LINE
  8
_0-0_計極細
  6
CONTINUOUS
 62
    2
 10
971.39766904514272
 20
636.948771273533
 11
971.39766904514272
 21
663.40010808252248
  0
LINE
  8
_0-0_計極細
  6
CENTER1
 62
    2
 10
955.7012774326904
 20
655.02423074055389
 11
994.1198897222298
 21
669.00746203157485
  0
LINE
  8
_0-0_計極細
  6
CONTINUOUS
 62
    2
 10
960.21362811285144
 20
651.87779197103498
 11
993.28823500706051
 21
663.91596439058276
  0
LINE
  8
_0-0_計極細
  6
CONTINUOUS
 62
    2
 10
957.13544682292036
 20
660.33502555810844
 11
990.21005371712954
 21
672.3731979776561
  0
LINE
  8
_0-0_計極細
  6
CONTINUOUS
 62
    2
 10
990.21005371712954
 20
672.3731979776561
 11
993.28823500706051
 21
663.91596439058276
  0
LINE
  8
_0-0_計極細
  6
CONTINUOUS
 62
    2
 10
960.21362811285144
 20
651.87779197103498
 11
957.13544682292036
 21
660.33502555810844
  0
LINE
  8
_0-0_計極細
  6
CONTINUOUS
 62
    2
 10
1292.4711522853249
 20
697.94877127353334
 11
1299.4711519092514
 21
704.94877089746001
  0
LINE
  8
_0-0_計極細
  6
CONTINUOUS
 62
    2
 10
1279.7432302239667
 20
697.94877127353334
 11
1286.7432299474626
 21
704.94877099702887
  0
LINE
  8
_0-0_計極細
  6
CONTINUOUS
 62
    2
 10
1267.015308162609
 20
697.94877127353334
 11
1274.0153079856736
 21
704.94877109659785
  0
LINE
  8
_0-0_計極細
  6
CONTINUOUS
 62
    2
 10
1254.2873861012511
 20
697.94877127353334
 11
1261.2873860238851
 21
704.94877119616706
  0
LINE
  8
_0-0_計極細
  6
DASHED2
 62
    2
 10
1298.8351133160038
 20
697.94877127353334
 11
1304.9043173322116
 21
704.01797528974112
  0
LINE
  8
_0-0_計極細
  6
DASHED2
 62
    2
 10
1286.1071912546456
 20
697.94877127353334
 11
1293.1071909283571
 21
704.94877094724427
  0
LINE
  8
_0-0_計極細
  6
DASHED2
 62
    2
 10
1273.3792691932879
 20
697.94877127353334
 11
1280.3792689665681
 21
704.94877104681325
  0
LINE
  8
_0-0_計極細
  6
DASHED2
 62
    2
 10
1260.6513471319299
 20
697.94877127353334
 11
1267.6513470047794
 21
704.94877114638234
  0
LINE
  8
_0-0_計極細
  6
DASHED2
 62
    2
 10
1251.3976690451429
 20
701.42301524810364
 11
1254.9234250429909
 21
704.94877124595155
  0
LINE
  8
_0-0_計極細
  6
CONTINUOUS
 62
    2
 10
1251.3976690451429
 20
700.15022304196793
 11
1249.196217276708
 21
697.94877127353334
  0
LINE
  8
_0-0_計極細
  6
CONTINUOUS
 62
    2
 10
1251.3976690451429
 20
702.69580745423934
 11
1246.6506328644364
 21
697.94877127353334
  0
LINE
  8
_0-0_計極細
  6
CONTINUOUS
 62
    2
 10
1246.3976690451427
 20
700.24139186651098
 11
1251.105048452165
 21
704.94877127353323
  0
LINE
  8
_0-0_計極細
  6
CONTINUOUS
 62
    2
 10
1246.3976690451427
 20
702.7869762787825
 11
1248.5594640398931
 21
704.94877127353277
  0
LINE
  8
_0-0_計極細
  6
CONTINUOUS
 62
    2
 10
1251.3976690451429
 20
704.0431779478298
 11
1250.4920757194395
 21
704.94877127353323
  0
LINE
  8
_0-0_計極細
  6
CONTINUOUS
 62
    2
 10
1251.3976690451429
 20
701.49759353555794
 11
1247.9464913071681
 21
704.94877127353323
  0
LINE
  8
_0-0_計極細
  6
CONTINUOUS
 62
    2
 10
1251.3976690451429
 20
698.95200912328664
 11
1246.3976690451427
 21
703.95200912328664
  0
LINE
  8
_0-0_計極細
  6
CONTINUOUS
 62
    2
 10
1249.8553224826248
 20
697.94877127353334
 11
1246.3976690451427
 21
701.40642471101489
  0
LINE
  8
_0-0_計極細
  6
CONTINUOUS
 62
    2
 10
1247.3097380703534
 20
697.94877127353334
 11
1246.3976690451427
 21
698.8608402987436
  0
LINE
  8
_0-0_計極細
  6
CONTINUOUS
 62
    2
 10
1246.3976690451427
 20
704.44877127353311
 11
1246.3976690451427
 21
704.94877127353323
  0
LINE
  8
_0-0_計極細
  6
CONTINUOUS
 62
    2
 10
1246.3976690451427
 20
704.94877127353323
 11
1251.3976690451429
 21
704.94877127353323
  0
LINE
  8
_0-0_計極細
  6
CONTINUOUS
 62
    2
 10
1246.3976690451427
 20
697.94877127353334
 11
1304.9043173322116
 21
697.94877127353334
  0
LINE
  8
_0-0_計極細
  6
CONTINUOUS
 62
    2
 10
1251.3976690451429
 20
704.94877127353323
 11
1304.9043173322116
 21
704.94877127353323
  0
LINE
  8
_0-0_計極細
  6
CONTINUOUS
 62
    2
 10
1251.3976690451429
 20
704.94877127353323
 11
1251.3976690451429
 21
697.94877127353334
  0
CIRCLE
  8
_0-0_計極細
  6
CONTINUOUS
 62
    2
 10
1222.1578127232317
 20
630.36007678278884
 40
1.0953188836088352
  0
CIRCLE
  8
_0-0_計極細
  6
CONTINUOUS
 62
    2
 10
1220.3889238343431
 20
673.93341011612222
 40
1.0953188836088352
  0
CIRCLE
  8
_0-0_計極細
  6
CONTINUOUS
 62
    2
 10
1220.7722571676768
 20
634.36137307908496
 40
0.3318518518518431
  0
CIRCLE
  8
_0-0_計極細
  6
CONTINUOUS
 62
    2
 10
1219.9883065503927
 20
657.91470641241835
 40
0.3318518518518431
  0
LINE
  8
_0-0_計極細
  6
CONTINUOUS
 62
    2
 10
1216.3976690451427
 20
681.94877127353311
 11
1216.3976690451427
 21
621.20381109666573
  0
LINE
  8
_0-0_計極細
  6
CONTINUOUS
 62
    2
 10
1216.8976690451427
 20
681.94877127353311
 11
1216.3976690451427
 21
681.94877127353311
  0
CIRCLE
  8
_0-0_計極細
  6
CONTINUOUS
 62
    2
 10
1258.3944793898982
 20
696.66803974575123
 40
0.3318518518518431
  0
CIRCLE
  8
_0-0_計極細
  6
CONTINUOUS
 62
    2
 10
1271.1944793898983
 20
689.27674344945501
 40
1.0953188836088352
  0
CIRCLE
  8
_0-0_計極細
  6
CONTINUOUS
 62
    2
 10
1271.1144793898982
 20
693.06803974575143
 40
0.3318518518518431
  0
CIRCLE
  8
_0-0_計極細
  6
CONTINUOUS
 62
    2
 10
1289.594479389898
 20
696.10803974575117
 40
0.3318518518518431
  0
CIRCLE
  8
_0-0_計極細
  6
CONTINUOUS
 62
    2
 10
1224.9715164269364
 20
652.83948687190014
 40
0.3318518518518431
  0
CIRCLE
  8
_0-0_計極細
  6
CONTINUOUS
 62
    2
 10
1224.8515164269359
 20
667.21282020523358
 40
0.3318518518518431
  0
CIRCLE
  8
_0-0_計極細
  6
CONTINUOUS
 62
    2
 10
1253.3311460565649
 20
670.46674344945529
 40
1.0953188836088352
  0
CIRCLE
  8
_0-0_計極細
  6
CONTINUOUS
 62
    2
 10
1283.7302616377351
 20
638.43451201427354
 40
1.0953188836088352
  0
CIRCLE
  8
_0-0_計極細
  6
CONTINUOUS
 62
    2
 10
1255.971146056565
 20
644.54674344945545
 40
1.0953188836088352
  0
CIRCLE
  8
_0-0_計極細
  6
CONTINUOUS
 62
    2
 10
1234.8511460565653
 20
657.98674344945528
 40
1.0953188836088352
  0
CIRCLE
  8
_0-0_計極細
  6
CONTINUOUS
 62
    2
 10
1228.7178127232323
 20
640.06674344945566
 40
1.0953188836088352
  0
CIRCLE
  8
_0-0_計極細
  6
CONTINUOUS
 62
    2
 10
1270.9544793898981
 20
666.79674344945522
 40
1.0953188836088352
  0
CIRCLE
  8
_0-0_計極細
  6
CONTINUOUS
 62
    2
 10
1251.7544793898983
 20
685.99674344945515
 40
1.0953188836088352
  0
CIRCLE
  8
_0-0_計極細
  6
CONTINUOUS
 62
    2
 10
1285.0078127232312
 20
682.05007678278844
 40
1.0953188836088352
  0
CIRCLE
  8
_0-0_計極細
  6
CONTINUOUS
 62
    2
 10
1294.3944793898979
 20
691.33007678278864
 40
1.0953188836088352
  0
CIRCLE
  8
_0-0_計極細
  6
CONTINUOUS
 62
    2
 10
1297.274479389898
 20
683.06803974575121
 40
0.3318518518518431
  0
CIRCLE
  8
_0-0_計極細
  6
CONTINUOUS
 62
    2
 10
1279.514479389898
 20
670.34803974575141
 40
0.3318518518518431
  0
CIRCLE
  8
_0-0_計極細
  6
CONTINUOUS
 62
    2
 10
1281.1944793898979
 20
686.42803974575122
 40
0.3318518518518431
  0
CIRCLE
  8
_0-0_計極細
  6
CONTINUOUS
 62
    2
 10
1271.1144793898982
 20
674.66803974575123
 40
0.3318518518518431
  0
CIRCLE
  8
_0-0_計極細
  6
CONTINUOUS
 62
    2
 10
1281.9144793898981
 20
661.94803974575143
 40
0.3318518518518431
  0
CIRCLE
  8
_0-0_計極細
  6
CONTINUOUS
 62
    2
 10
1282.8744793898982
 20
649.46803974575175
 40
0.3318518518518431
  0
CIRCLE
  8
_0-0_計極細
  6
CONTINUOUS
 62
    2
 10
1278.5544793898982
 20
641.06803974575189
 40
0.3318518518518431
  0
CIRCLE
  8
_0-0_計極細
  6
CONTINUOUS
 62
    2
 10
1255.0344793898985
 20
672.98803974575139
 40
0.3318518518518431
  0
CIRCLE
  8
_0-0_計極細
  6
CONTINUOUS
 62
    2
 10
1249.6744793898986
 20
681.81470641241822
 40
0.3318518518518431
  0
CIRCLE
  8
_0-0_計極細
  6
CONTINUOUS
 62
    2
 10
1251.1678127232317
 20
693.65470641241791
 40
0.3318518518518431
  0
CIRCLE
  8
_0-0_計極細
  6
CONTINUOUS
 62
    2
 10
1256.8611460565651
 20
649.24137307908507
 40
0.3318518518518431
  0
CIRCLE
  8
_0-0_計極細
  6
CONTINUOUS
 62
    2
 10
1250.1411460565653
 20
645.88137307908494
 40
0.3318518518518431
  0
CIRCLE
  8
_0-0_計極細
  6
CONTINUOUS
 62
    2
 10
1257.3411460565653
 20
640.44137307908488
 40
0.3318518518518431
  0
CIRCLE
  8
_0-0_計極細
  6
CONTINUOUS
 62
    2
 10
1241.1811460565652
 20
640.28137307908514
 40
0.3318518518518431
  0
CIRCLE
  8
_0-0_計極細
  6
CONTINUOUS
 62
    2
 10
1232.8611460565653
 20
643.16137307908525
 40
0.3318518518518431
  0
CIRCLE
  8
_0-0_計極細
  6
CONTINUOUS
 62
    2
 10
1225.9811460565656
 20
625.24137307908507
 40
0.3318518518518431
  0
CIRCLE
  8
_0-0_計極細
  6
CONTINUOUS
 62
    2
 10
1231.5811460565656
 20
635.96137307908521
 40
0.3318518518518431
  0
CIRCLE
  8
_0-0_計極細
  6
CONTINUOUS
 62
    2
 10
1242.2811460565654
 20
649.94137307908477
 40
0.3318518518518431
  0
CIRCLE
  8
_0-0_計極細
  6
CONTINUOUS
 62
    2
 10
1231.7611460565656
 20
660.15470641241836
 40
0.3318518518518431
  0
CIRCLE
  8
_0-0_計極細
  6
CONTINUOUS
 62
    2
 10
1234.2144793898988
 20
675.1413730790847
 40
0.3318518518518431
  0
CIRCLE
  8
_0-0_計極細
  6
CONTINUOUS
 62
    2
 10
1228.2411460565654
 20
672.26137307908459
 40
0.3318518518518431
  0
LINE
  8
_0-0_計極細
  6
CONTINUOUS
 62
    2
 10
1291.3716704938988
 20
621.20381109666573
 11
1304.9043173571361
 21
634.73645795990308
  0
LINE
  8
_0-0_計極細
  6
CONTINUOUS
 62
    2
 10
1248.9452636227061
 20
621.20381109666573
 11
1264.6902237995732
 21
636.948771273533
  0
LINE
  8
_0-0_計極細
  6
CONTINUOUS
 62
    2
 10
1286.3976690451429
 20
658.6562165191026
 11
1304.9043173326652
 21
677.16286480662473
  0
LINE
  8
_0-0_計極細
  6
CONTINUOUS
 62
    2
 10
1287.1290298067793
 20
621.20381109666573
 11
1304.9043173546888
 21
638.97909864457506
  0
LINE
  8
_0-0_計極細
  6
CONTINUOUS
 62
    2
 10
1244.7026229355863
 20
621.20381109666573
 11
1260.4475831124541
 21
636.948771273533
  0
LINE
  8
_0-0_計極細
  6
CONTINUOUS
 62
    2
 10
1286.3976690451429
 20
662.89885720622215
 11
1301.4475830047238
 21
677.94877116580312
  0
LINE
  8
_0-0_計極細
  6
CONTINUOUS
 62
    2
 10
1282.8863891196602
 20
621.20381109666573
 11
1304.9043173522418
 21
643.22173932924727
  0
LINE
  8
_0-0_計極細
  6
CONTINUOUS
 62
    2
 10
1240.4599822484672
 20
621.20381109666573
 11
1256.2049424253348
 21
636.948771273533
  0
LINE
  8
_0-0_計極細
  6
CONTINUOUS
 62
    2
 10
1286.3976690451429
 20
667.14149789334124
 11
1297.2049423479743
 21
677.94877119617286
  0
LINE
  8
_0-0_計極細
  6
CONTINUOUS
 62
    2
 10
1236.3976690451429
 20
636.948771273533
 11
1236.3976690451429
 21
621.20381109666573
  0
LINE
  8
_0-0_計極細
  6
CONTINUOUS
 62
    2
 10
1286.3976690451429
 20
677.94877127353311
 11
1304.9043173322116
 21
677.94877127353311
  0
LINE
  8
_0-0_計極細
  6
CONTINUOUS
 62
    2
 10
1236.3976690451429
 20
636.948771273533
 11
1286.3976690451429
 21
636.948771273533
  0
LINE
  8
_0-0_計極細
  6
CONTINUOUS
 62
    2
 10
1286.3976690451429
 20
677.94877127353311
 11
1286.3976690451429
 21
636.948771273533
  0
CIRCLE
  8
_0-0_計極細
  6
CONTINUOUS
 62
    2
 10
968.50559050101151
 20
693.18341011612074
 40
1.0953188836088352
  0
LINE
  8
_0-0_計極細
  6
CONTINUOUS
 62
    2
 10
976.09647723856472
 20
697.94877126985682
 11
981.39766904514306
 21
703.24996307643505
  0
LINE
  8
_0-0_計極細
  6
CONTINUOUS
 62
    2
 10
963.36855516838
 20
697.94877126103006
 11
970.36855518088328
 21
704.94877127353277
  0
LINE
  8
_0-0_計極細
  6
CONTINUOUS
 62
    2
 10
950.64063309819505
 20
697.94877125220307
 11
957.64063311952498
 21
704.94877127353323
  0
LINE
  8
_0-0_計極細
  6
CONTINUOUS
 62
    2
 10
937.91271102801056
 20
697.94877124337643
 11
944.91271105816725
 21
704.94877127353323
  0
LINE
  8
_0-0_計極細
  6
CONTINUOUS
 62
    2
 10
927.89102075807386
 20
700.65500303479757
 11
932.18478899680917
 21
704.94877127353277
  0
LINE
  8
_0-0_計極細
  6
DASHED2
 62
    2
 10
969.73251620347196
 20
697.94877126544338
 11
976.73251621156226
 21
704.94877127353323
  0
LINE
  8
_0-0_計極細
  6
DASHED2
 62
    2
 10
957.00459413328758
 20
697.94877125661674
 11
964.00459415020453
 21
704.94877127353323
  0
LINE
  8
_0-0_計極細
  6
DASHED2
 62
    2
 10
944.27667206310298
 20
697.94877124779009
 11
951.276672088846
 21
704.94877127353323
  0
LINE
  8
_0-0_計極細
  6
DASHED2
 62
    2
 10
931.54874999291815
 20
697.9487712389631
 11
938.54875002748815
 21
704.94877127353323
  0
LINE
  8
_0-0_計極細
  6
CONTINUOUS
 62
    2
 10
986.27881489132733
 20
697.94877127353334
 11
986.39766904514272
 21
698.06762542734862
  0
LINE
  8
_0-0_計極細
  6
CONTINUOUS
 62
    2
 10
983.73323047905569
 20
697.94877127353334
 11
986.39766904514272
 21
700.61320983962014
  0
LINE
  8
_0-0_計極細
  6
CONTINUOUS
 62
    2
 10
981.39766904514306
 20
698.15879425189178
 11
986.39766904514272
 21
703.15879425189166
  0
LINE
  8
_0-0_計極細
  6
CONTINUOUS
 62
    2
 10
981.39766904514306
 20
700.7043786641633
 11
985.64206165451253
 21
704.94877127353323
  0
LINE
  8
_0-0_計極細
  6
CONTINUOUS
 62
    2
 10
981.39766904514306
 20
703.24996307643505
 11
983.09647724224101
 21
704.94877127353323
  0
LINE
  8
_0-0_計極細
  6
CONTINUOUS
 62
    2
 10
986.39766904514272
 20
703.58019115017771
 11
985.02908892178766
 21
704.94877127353323
  0
LINE
  8
_0-0_計極細
  6
CONTINUOUS
 62
    2
 10
986.39766904514272
 20
701.03460673790642
 11
982.48350450951637
 21
704.94877127353323
  0
LINE
  8
_0-0_計極細
  6
CONTINUOUS
 62
    2
 10
981.39766904514306
 20
703.48902232563478
 11
986.39766904514272
 21
698.48902232563489
  0
LINE
  8
_0-0_計極細
  6
CONTINUOUS
 62
    2
 10
981.39766904514306
 20
700.94343791336325
 11
984.39233568497298
 21
697.94877127353334
  0
LINE
  8
_0-0_計極細
  6
CONTINUOUS
 62
    2
 10
981.39766904514306
 20
698.39785350109184
 11
981.84675127270168
 21
697.94877127353334
  0
LINE
  8
_0-0_計極細
  6
CONTINUOUS
 62
    2
 10
986.39766904514272
 20
704.44877127353311
 11
986.39766904514272
 21
704.94877127353323
  0
LINE
  8
_0-0_計極細
  6
CONTINUOUS
 62
    2
 10
986.39766904514272
 20
704.94877127353323
 11
981.39766904514306
 21
704.94877127353323
  0
LINE
  8
_0-0_計極細
  6
CONTINUOUS
 62
    2
 10
986.39766904514272
 20
697.94877127353334
 11
927.89102075807386
 21
697.94877127353334
  0
LINE
  8
_0-0_計極細
  6
CONTINUOUS
 62
    2
 10
981.39766904514306
 20
704.94877127353323
 11
927.89102075807386
 21
704.94877127353323
  0
LINE
  8
_0-0_計極細
  6
CONTINUOUS
 62
    2
 10
981.39766904514306
 20
704.94877127353323
 11
981.39766904514306
 21
697.94877127353334
  0
CIRCLE
  8
_0-0_計極細
  6
CONTINUOUS
 62
    2
 10
1005.0478127232307
 20
660.89007678278892
 40
1.0953188836088352
  0
CIRCLE
  8
_0-0_計極細
  6
CONTINUOUS
 62
    2
 10
1012.4700349454556
 20
625.93717490362769
 40
0.3318518518518431
  0
CIRCLE
  8
_0-0_計極細
  6
CONTINUOUS
 62
    2
 10
1011.6700349454555
 20
639.53081752352955
 40
0.3318518518518431
  0
CIRCLE
  8
_0-0_計極細
  6
CONTINUOUS
 62
    2
 10
1012.2652085565655
 20
672.35674344945539
 40
1.0953188836088352
  0
LINE
  8
_0-0_計極細
  6
CONTINUOUS
 62
    2
 10
1016.3976690451427
 20
681.94877127353311
 11
1016.3976690451427
 21
621.20381109666573
  0
LINE
  8
_0-0_計極細
  6
CONTINUOUS
 62
    2
 10
1015.8976690451431
 20
681.94877127353311
 11
1016.3976690451427
 21
681.94877127353311
  0
CIRCLE
  8
_0-0_計極細
  6
CONTINUOUS
 62
    2
 10
932.71229317772497
 20
690.97007678278817
 40
1.0953188836088352
  0
CIRCLE
  8
_0-0_計極細
  6
CONTINUOUS
 62
    2
 10
1005.3811460565663
 20
628.75674344945571
 40
1.0953188836088352
  0
CIRCLE
  8
_0-0_計極細
  6
CONTINUOUS
 62
    2
 10
1002.5011460565662
 20
639.95674344945564
 40
1.0953188836088352
  0
CIRCLE
  8
_0-0_計極細
  6
CONTINUOUS
 62
    2
 10
980.91447938989995
 20
642.11674344945538
 40
1.0953188836088352
  0
CIRCLE
  8
_0-0_計極細
  6
CONTINUOUS
 62
    2
 10
948.99447938989988
 20
649.79674344945556
 40
1.0953188836088352
  0
CIRCLE
  8
_0-0_計極細
  6
CONTINUOUS
 62
    2
 10
960.7544793899001
 20
672.59674344945529
 40
1.0953188836088352
  0
CIRCLE
  8
_0-0_計極細
  6
CONTINUOUS
 62
    2
 10
974.19447938990004
 20
666.51674344945536
 40
1.0953188836088352
  0
CIRCLE
  8
_0-0_計極細
  6
CONTINUOUS
 62
    2
 10
944.83054090237215
 20
690.43451201427376
 40
1.0953188836088352
  0
CIRCLE
  8
_0-0_計極細
  6
CONTINUOUS
 62
    2
 10
975.88781272323331
 20
686.27674344945501
 40
1.0953188836088352
  0
CIRCLE
  8
_0-0_計極細
  6
CONTINUOUS
 62
    2
 10
988.06114605656671
 20
673.08637307908475
 40
0.3318518518518431
  0
CIRCLE
  8
_0-0_計極細
  6
CONTINUOUS
 62
    2
 10
1009.2078127232331
 20
655.24637307908506
 40
0.3318518518518431
  0
CIRCLE
  8
_0-0_計極細
  6
CONTINUOUS
 62
    2
 10
1008.8878127232334
 20
666.01970641241837
 40
0.3318518518518431
  0
CIRCLE
  8
_0-0_計極細
  6
CONTINUOUS
 62
    2
 10
999.82114605656648
 20
671.9930397457515
 40
0.3318518518518431
  0
CIRCLE
  8
_0-0_計極細
  6
CONTINUOUS
 62
    2
 10
990.96781272323324
 20
651.5130397457516
 40
0.3318518518518431
  0
CIRCLE
  8
_0-0_計極細
  6
CONTINUOUS
 62
    2
 10
1000.9678127232332
 20
625.34415085686305
 40
0.3318518518518431
  0
CIRCLE
  8
_0-0_計極細
  6
CONTINUOUS
 62
    2
 10
1005.1278127232333
 20
634.30415085686275
 40
0.3318518518518431
  0
CIRCLE
  8
_0-0_計極細
  6
CONTINUOUS
 62
    2
 10
996.91447938989995
 20
643.26415085686267
 40
0.3318518518518431
  0
CIRCLE
  8
_0-0_計極細
  6
CONTINUOUS
 62
    2
 10
989.12781272323309
 20
641.34415085686271
 40
0.3318518518518431
  0
CIRCLE
  8
_0-0_計極細
  6
CONTINUOUS
 62
    2
 10
977.18114605656694
 20
640.70415085686273
 40
0.3318518518518431
  0
CIRCLE
  8
_0-0_計極細
  6
CONTINUOUS
 62
    2
 10
979.31447938990027
 20
646.25081752352958
 40
0.3318518518518431
  0
CIRCLE
  8
_0-0_計極細
  6
CONTINUOUS
 62
    2
 10
975.58114605656669
 20
647.74415085686292
 40
0.3318518518518431
  0
CIRCLE
  8
_0-0_計極細
  6
CONTINUOUS
 62
    2
 10
982.30114605656649
 20
651.05081752352942
 40
0.3318518518518431
  0
CIRCLE
  8
_0-0_計極細
  6
CONTINUOUS
 62
    2
 10
958.72114605656702
 20
640.31748419019641
 40
0.3318518518518431
  0
CIRCLE
  8
_0-0_計極細
  6
CONTINUOUS
 62
    2
 10
954.98781272323356
 20
645.43748419019596
 40
0.3318518518518431
  0
CIRCLE
  8
_0-0_計極細
  6
CONTINUOUS
 62
    2
 10
949.76114605656699
 20
641.38415085686279
 40
0.3318518518518431
  0
CIRCLE
  8
_0-0_計極細
  6
CONTINUOUS
 62
    2
 10
953.17447938990028
 20
652.15748419019576
 40
0.3318518518518431
  0
CIRCLE
  8
_0-0_計極細
  6
CONTINUOUS
 62
    2
 10
977.84114605656657
 20
668.42415085686275
 40
0.3318518518518431
  0
CIRCLE
  8
_0-0_計極細
  6
CONTINUOUS
 62
    2
 10
961.41447938990041
 20
664.05081752352908
 40
0.3318518518518431
  0
CIRCLE
  8
_0-0_計極細
  6
CONTINUOUS
 62
    2
 10
970.26781272323319
 20
672.15748419019565
 40
0.3318518518518431
  0
CIRCLE
  8
_0-0_計極細
  6
CONTINUOUS
 62
    2
 10
977.84114605656657
 20
675.57081752352906
 40
0.3318518518518431
  0
CIRCLE
  8
_0-0_計極細
  6
CONTINUOUS
 62
    2
 10
962.80114605656649
 20
677.81081752352918
 40
0.3318518518518431
  0
CIRCLE
  8
_0-0_計極細
  6
CONTINUOUS
 62
    2
 10
950.53447938990064
 20
678.55748419019596
 40
0.3318518518518431
  0
CIRCLE
  8
_0-0_計極細
  6
CONTINUOUS
 62
    2
 10
959.80781272323372
 20
694.85748419019546
 40
0.3318518518518431
  0
CIRCLE
  8
_0-0_計極細
  6
CONTINUOUS
 62
    2
 10
966.84781272323335
 20
685.89748419019588
 40
0.3318518518518431
  0
CIRCLE
  8
_0-0_計極細
  6
CONTINUOUS
 62
    2
 10
981.78114605656663
 20
686.21748419019571
 40
0.3318518518518431
  0
CIRCLE
  8
_0-0_計極細
  6
CONTINUOUS
 62
    2
 10
978.36781272323321
 20
695.92415085686241
 40
0.3318518518518431
  0
CIRCLE
  8
_0-0_計極細
  6
CONTINUOUS
 62
    2
 10
963.43447938989993
 20
689.95081752352905
 40
0.3318518518518431
  0
CIRCLE
  8
_0-0_計極細
  6
CONTINUOUS
 62
    2
 10
946.3678127232339
 20
682.91081752352909
 40
0.3318518518518431
  0
CIRCLE
  8
_0-0_計極細
  6
CONTINUOUS
 62
    2
 10
938.79447938990052
 20
681.73748419019591
 40
0.3318518518518431
  0
CIRCLE
  8
_0-0_計極細
  6
CONTINUOUS
 62
    2
 10
932.43003494545587
 20
681.09748419019616
 40
0.3318518518518431
  0
CIRCLE
  8
_0-0_計極細
  6
CONTINUOUS
 62
    2
 10
938.62855346397453
 20
687.07081752352917
 40
0.3318518518518431
  0
LINE
  8
_0-0_計極細
  6
CONTINUOUS
 62
    2
 10
973.94448430614898
 20
621.20381116652777
 11
989.68944441315443
 21
636.948771273533
  0
LINE
  8
_0-0_計極細
  6
CONTINUOUS
 62
    2
 10
931.51807756696394
 20
621.20381129853558
 11
947.26303754196147
 21
636.948771273533
  0
LINE
  8
_0-0_計極細
  6
CONTINUOUS
 62
    2
 10
927.89102075807386
 20
660.00316136083836
 11
945.83663067076895
 21
677.94877127353311
  0
LINE
  8
_0-0_計極細
  6
CONTINUOUS
 62
    2
 10
969.70184363223052
 20
621.20381117972875
 11
985.44680372603489
 21
636.948771273533
  0
LINE
  8
_0-0_計極細
  6
CONTINUOUS
 62
    2
 10
927.89102075807386
 20
621.81939517676494
 11
946.39766904514261
 21
640.32604346383368
  0
LINE
  8
_0-0_計極細
  6
CONTINUOUS
 62
    2
 10
927.89102075807386
 20
664.24580204795791
 11
941.59398998364952
 21
677.94877127353311
  0
LINE
  8
_0-0_計極細
  6
CONTINUOUS
 62
    2
 10
965.45920295831206
 20
621.20381119292927
 11
981.20416303891602
 21
636.948771273533
  0
LINE
  8
_0-0_計極細
  6
CONTINUOUS
 62
    2
 10
927.89102075807386
 20
626.06203586388403
 11
946.39766904514261
 21
644.56868415095312
  0
LINE
  8
_0-0_計極細
  6
CONTINUOUS
 62
    2
 10
927.89102075807386
 20
668.48844273507711
 11
937.35134929652986
 21
677.94877127353311
  0
LINE
  8
_0-0_計極細
  6
CONTINUOUS
 62
    2
 10
996.39766904514306
 20
636.948771273533
 11
996.39766904514306
 21
621.20381109666573
  0
LINE
  8
_0-0_計極細
  6
CONTINUOUS
 62
    2
 10
946.39766904514261
 20
677.94877127353311
 11
927.89102075807386
 21
677.94877127353311
  0
LINE
  8
_0-0_計極細
  6
CONTINUOUS
 62
    2
 10
996.39766904514306
 20
636.948771273533
 11
946.39766904514261
 21
636.948771273533
  0
LINE
  8
_0-0_計極細
  6
CONTINUOUS
 62
    2
 10
946.39766904514261
 20
677.94877127353311
 11
946.39766904514261
 21
636.948771273533
  0
LINE
  8
_0-0_計極細
  6
CENTER1
 62
    2
 10
1116.3976690451429
 20
675.23727358226324
 11
1116.3976690451429
 21
713.30727358226693
  0
LINE
  8
_0-1_計細線
  6
CONTINUOUS
 62
    3
 10
1127.2476690458757
 20
700.24877127353295
 11
1131.6976690456945
 21
700.24877127353295
  0
LINE
  8
_0-1_計細線
  6
CONTINUOUS
 62
    3
 10
1127.2476690458757
 20
687.24877127353295
 11
1131.697669045695
 21
687.24877127353295
  0
LINE
  8
_0-1_計細線
  6
CONTINUOUS
 62
    3
 10
1127.2476690458757
 20
705.20260237167872
 11
1127.2476690458757
 21
685.20260237167849
  0
LINE
  8
_0-1_計細線
  6
CONTINUOUS
 62
    3
 10
1122.5476690458752
 20
685.20260237167849
 11
1122.5476690458752
 21
705.20260237167872
  0
LINE
  8
_0-1_計細線
  6
CONTINUOUS
 62
    3
 10
1127.2476690458757
 20
685.20260237167849
 11
1122.5476690458752
 21
685.20260237167849
  0
LINE
  8
_0-1_計細線
  6
CONTINUOUS
 62
    3
 10
1122.5476690458752
 20
705.20260237167872
 11
1127.2476690458757
 21
705.20260237167872
  0
LINE
  8
_0-1_計細線
  6
DASHED2
 62
    3
 10
1122.5476690458752
 20
688.20260237167849
 11
1127.2476690458757
 21
688.20260237167849
  0
LINE
  8
_0-1_計細線
  6
DASHED2
 62
    3
 10
1122.5476690458752
 20
702.20260237167872
 11
1127.2476690458757
 21
702.20260237167872
  0
LINE
  8
_0-1_計細線
  6
CONTINUOUS
 62
    3
 10
1118.0976690462608
 20
700.24877127353295
 11
1122.5476690458752
 21
700.24877127353295
  0
LINE
  8
_0-1_計細線
  6
CONTINUOUS
 62
    3
 10
1118.0976690452962
 20
687.24877127353295
 11
1122.5476690458752
 21
687.24877127353295
  0
ARC
  8
_0-1_計細線
  6
CONTINUOUS
 62
    3
 10
1111.6976690462461
 20
702.948771273533
 40
1
 50
89.999999999999915
 51
179.99999999999983
  0
ARC
  8
_0-1_計細線
  6
CONTINUOUS
 62
    3
 10
1112.1656182375739
 20
704.94877127353323
 40
1
 50
269.99999999999977
 51
329.99999999999022
  0
ARC
  8
_0-1_計細線
  6
CONTINUOUS
 62
    3
 10
1113.8976690451427
 20
703.94877127353323
 40
1
 50
89.999999999999915
 51
150.00000000001401
  0
LINE
  8
_0-1_計細線
  6
CONTINUOUS
 62
    3
 10
1111.6976690462461
 20
703.94877127353323
 11
1112.1656182375739
 21
703.94877127353323
  0
ARC
  8
_0-1_計細線
  6
CONTINUOUS
 62
    3
 10
1121.0976690440393
 20
702.948771273533
 40
1
 50
0
 51
89.999999999999915
  0
ARC
  8
_0-1_計細線
  6
CONTINUOUS
 62
    3
 10
1120.6297198527118
 20
704.94877127353323
 40
1
 50
210.00000000000256
 51
269.99999999999977
  0
ARC
  8
_0-1_計細線
  6
CONTINUOUS
 62
    3
 10
1118.8976690451427
 20
703.94877127353323
 40
1
 50
29.999999999986002
 51
89.999999999999901
  0
LINE
  8
_0-1_計細線
  6
CONTINUOUS
 62
    3
 10
1121.0976690440393
 20
703.94877127353323
 11
1120.6297198527118
 21
703.94877127353323
  0
ARC
  8
_0-1_計細線
  6
CONTINUOUS
 62
    3
 10
1111.1976690462463
 20
701.54877127353313
 40
0.5
 50
179.99999999999983
 51
269.99999999999977
  0
LINE
  8
_0-1_計細線
  6
CONTINUOUS
 62
    3
 10
1110.6976690462463
 20
702.948771273533
 11
1110.6976690462463
 21
701.54877127353313
  0
ARC
  8
_0-1_計細線
  6
CONTINUOUS
 62
    3
 10
1121.5976690440393
 20
701.54877127353313
 40
0.5
 50
269.99999999999977
 51
359.99999999999966
  0
LINE
  8
_0-1_計細線
  6
CONTINUOUS
 62
    3
 10
1122.0976690440393
 20
702.948771273533
 11
1122.0976690440393
 21
701.54877127353313
  0
ARC
  8
_0-1_計細線
  6
CONTINUOUS
 62
    3
 10
1113.6976690462463
 20
700.04877127353313
 40
1
 50
0
 51
89.999999999999915
  0
LINE
  8
_0-1_計細線
  6
CONTINUOUS
 62
    3
 10
1113.6976690462463
 20
701.04877127353325
 11
1111.1976690462463
 21
701.04877127353325
  0
ARC
  8
_0-1_計細線
  6
CONTINUOUS
 62
    3
 10
1119.0976690462462
 20
700.04877127353313
 40
1
 50
89.999999999999915
 51
179.99999999999983
  0
LINE
  8
_0-1_計細線
  6
CONTINUOUS
 62
    3
 10
1119.0976690440389
 20
701.04877127353325
 11
1121.5976690440393
 21
701.04877127353325
  0
LINE
  8
_0-1_計細線
  6
CONTINUOUS
 62
    3
 10
1118.8976690451427
 20
704.94877127353323
 11
1113.8976690451427
 21
704.94877127353323
  0
LINE
  8
_0-1_計細線
  6
CONTINUOUS
 62
    3
 10
1114.6976690451429
 20
684.94877127353311
 11
1114.6976690462461
 21
700.04877127353313
  0
LINE
  8
_0-1_計細線
  6
CONTINUOUS
 62
    3
 10
1118.0976690451428
 20
684.94877127353311
 11
1118.0976690462464
 21
700.04877127353313
  0
LINE
  8
_0-1_計細線
  6
CONTINUOUS
 62
    3
 10
1118.0976690451428
 20
684.94877127353311
 11
1114.6976690451429
 21
684.94877127353311
  0
LINE
  8
_0-1_計細線
  6
CONTINUOUS
 62
    3
 10
1238.8944170471423
 20
693.74877127353318
 11
1241.8989330471427
 21
693.74877127353318
  0
LINE
  8
_0-1_計細線
  6
CONTINUOUS
 62
    3
 10
1238.8944170471423
 20
690.24877127353352
 11
1241.8989450471418
 21
690.24877127353352
  0
ARC
  8
_0-1_計細線
  6
CONTINUOUS
 62
    3
 10
1241.8989450471418
 20
690.44877127353334
 40
0.2000000000000001
 50
269.99999999999977
 51
359.99999999999966
  0
ARC
  8
_0-1_計細線
  6
CONTINUOUS
 62
    3
 10
1234.3409650471422
 20
691.99862527353378
 40
7.7579560000000001
 50
346.96433000000002
 51
13.038021999994218
  0
ARC
  8
_0-1_計細線
  6
CONTINUOUS
 62
    3
 10
1241.8989450471418
 20
697.04877127353359
 40
0.2000000000000001
 50
0
 51
89.999999999999915
  0
ARC
  8
_0-1_計細線
  6
CONTINUOUS
 62
    3
 10
1234.3409650471422
 20
695.49891527353327
 40
7.7579560000000001
 50
346.96197800000101
 51
13.035669999999268
  0
LINE
  8
_0-1_計細線
  6
CONTINUOUS
 62
    3
 10
1238.8944170471423
 20
697.24877127353341
 11
1241.8989450471418
 21
697.24877127353341
  0
LINE
  8
_0-1_計細線
  6
CONTINUOUS
 62
    3
 10
1242.098945047142
 20
690.44877127353334
 11
1242.098945047142
 21
697.04877127353359
  0
ARC
  8
_0-1_計細線
  6
CONTINUOUS
 62
    3
 10
1238.6944170471425
 20
687.44877127353323
 40
0.2000000000000001
 50
269.99999999999977
 51
359.99999999999966
  0
LINE
  8
_0-1_計細線
  6
CONTINUOUS
 62
    3
 10
1237.397669047142
 20
687.24877127353329
 11
1238.6944170471425
 21
687.24877127353329
  0
ARC
  8
_0-1_計細線
  6
CONTINUOUS
 62
    3
 10
1238.6944170471425
 20
700.04877127353313
 40
0.2000000000000001
 50
0
 51
89.999999999999915
  0
LINE
  8
_0-1_計細線
  6
CONTINUOUS
 62
    3
 10
1237.397669047142
 20
700.24877127353352
 11
1238.6944170471425
 21
700.24877127353352
  0
LINE
  8
_0-1_計細線
  6
CONTINUOUS
 62
    3
 10
1238.8944170471423
 20
693.24877127353318
 11
1238.8944170471423
 21
687.44877127353323
  0
LINE
  8
_0-1_計細線
  6
CONTINUOUS
 62
    3
 10
1238.8944170471423
 20
700.04877127353313
 11
1238.8944170471423
 21
693.24877127353318
  0
LINE
  8
_0-1_計細線
  6
CONTINUOUS
 62
    3
 10
993.90092104314317
 20
693.74877127353318
 11
990.89640504314332
 21
693.74877127353318
  0
LINE
  8
_0-1_計細線
  6
CONTINUOUS
 62
    3
 10
993.90092104314317
 20
690.24877127353352
 11
990.89639304314369
 21
690.24877127353352
  0
ARC
  8
_0-1_計細線
  6
CONTINUOUS
 62
    3
 10
990.89639304314369
 20
690.44877127353334
 40
0.2000000000000001
 50
179.99999999999983
 51
269.99999999999977
  0
ARC
  8
_0-1_計細線
  6
CONTINUOUS
 62
    3
 10
998.45437304314328
 20
691.99862527353378
 40
7.7579560000000001
 50
166.96197800000505
 51
193.03566999999961
  0
ARC
  8
_0-1_計細線
  6
CONTINUOUS
 62
    3
 10
990.89639304314369
 20
697.04877127353359
 40
0.2000000000000001
 50
89.999999999999915
 51
179.99999999999983
  0
ARC
  8
_0-1_計細線
  6
CONTINUOUS
 62
    3
 10
998.45437304314328
 20
695.49891527353327
 40
7.7579560000000001
 50
166.96433000000002
 51
193.03802199999868
  0
LINE
  8
_0-1_計細線
  6
CONTINUOUS
 62
    3
 10
993.90092104314317
 20
697.24877127353341
 11
990.89639304314369
 21
697.24877127353341
  0
LINE
  8
_0-1_計細線
  6
CONTINUOUS
 62
    3
 10
990.69639304314353
 20
690.44877127353334
 11
990.69639304314353
 21
697.04877127353359
  0
ARC
  8
_0-1_計細線
  6
CONTINUOUS
 62
    3
 10
994.10092104314367
 20
687.44877127353323
 40
0.2000000000000001
 50
179.99999999999983
 51
269.99999999999977
  0
LINE
  8
_0-1_計細線
  6
CONTINUOUS
 62
    3
 10
995.39766904314388
 20
687.24877127353329
 11
994.10092104314367
 21
687.24877127353329
  0
ARC
  8
_0-1_計細線
  6
CONTINUOUS
 62
    3
 10
994.10092104314367
 20
700.04877127353313
 40
0.2000000000000001
 50
89.999999999999915
 51
179.99999999999983
  0
LINE
  8
_0-1_計細線
  6
CONTINUOUS
 62
    3
 10
995.39766904314388
 20
700.24877127353352
 11
994.10092104314367
 21
700.24877127353352
  0
LINE
  8
_0-1_計細線
  6
CONTINUOUS
 62
    3
 10
993.90092104314317
 20
693.24877127353318
 11
993.90092104314317
 21
687.44877127353323
  0
LINE
  8
_0-1_計細線
  6
CONTINUOUS
 62
    3
 10
993.90092104314317
 20
700.04877127353313
 11
993.90092104314317
 21
693.24877127353318
  0
LINE
  8
_0-1_計細線
  6
CONTINUOUS
 62
    3
 10
1220.0976690478656
 20
700.24877127353295
 11
1233.9976690478657
 21
700.24877127353295
  0
LINE
  8
_0-1_計細線
  6
CONTINUOUS
 62
    3
 10
998.79766904221242
 20
700.24877127353295
 11
1012.6976690422129
 21
700.24877127353295
  0
LINE
  8
_0-1_計細線
  6
CONTINUOUS
 62
    3
 10
1016.0976690429538
 20
700.24877127353295
 11
1029.6976690429542
 21
700.24877127353295
  0
LINE
  8
_0-1_計細線
  6
CONTINUOUS
 62
    3
 10
1033.0976690435057
 20
700.24877127353295
 11
1046.6976690435058
 21
700.24877127353295
  0
LINE
  8
_0-1_計細線
  6
CONTINUOUS
 62
    3
 10
1050.0976690440575
 20
700.24877127353295
 11
1063.6976690440576
 21
700.24877127353295
  0
LINE
  8
_0-1_計細線
  6
CONTINUOUS
 62
    3
 10
1203.0976690475036
 20
700.24877127353295
 11
1216.6976690475037
 21
700.24877127353295
  0
LINE
  8
_0-1_計細線
  6
CONTINUOUS
 62
    3
 10
1186.0976690471421
 20
700.24877127353295
 11
1199.697669047142
 21
700.24877127353295
  0
LINE
  8
_0-1_計細線
  6
CONTINUOUS
 62
    3
 10
1169.0976690467801
 20
700.24877127353295
 11
1182.69766904678
 21
700.24877127353295
  0
LINE
  8
_0-1_計細線
  6
CONTINUOUS
 62
    3
 10
1067.0976690446091
 20
700.24877127353295
 11
1080.6976690446093
 21
700.24877127353295
  0
LINE
  8
_0-1_計細線
  6
CONTINUOUS
 62
    3
 10
1084.0976690449711
 20
700.24877127353295
 11
1097.697669044971
 21
700.24877127353295
  0
LINE
  8
_0-1_計細線
  6
CONTINUOUS
 62
    3
 10
1101.0976690453329
 20
700.24877127353295
 11
1114.697669045333
 21
700.24877127353295
  0
LINE
  8
_0-1_計細線
  6
CONTINUOUS
 62
    3
 10
1135.0976690460564
 20
700.24877127353295
 11
1148.6976690460563
 21
700.24877127353295
  0
LINE
  8
_0-1_計細線
  6
CONTINUOUS
 62
    3
 10
1152.0976690464181
 20
700.24877127353295
 11
1165.6976690464185
 21
700.24877127353295
  0
LINE
  8
_0-1_計細線
  6
CONTINUOUS
 62
    3
 10
1220.0976690478651
 20
687.24877127353295
 11
1233.9976690478654
 21
687.24877127353295
  0
LINE
  8
_0-1_計細線
  6
CONTINUOUS
 62
    3
 10
998.79766904221299
 20
687.24877127353295
 11
1012.697669042213
 21
687.24877127353295
  0
LINE
  8
_0-1_計細線
  6
CONTINUOUS
 62
    3
 10
1016.0976690429544
 20
687.24877127353295
 11
1029.6976690429542
 21
687.24877127353295
  0
LINE
  8
_0-1_計細線
  6
CONTINUOUS
 62
    3
 10
1033.0976690435057
 20
687.24877127353295
 11
1046.6976690435058
 21
687.24877127353295
  0
LINE
  8
_0-1_計細線
  6
CONTINUOUS
 62
    3
 10
1050.0976690440575
 20
687.24877127353295
 11
1063.6976690440576
 21
687.24877127353295
  0
LINE
  8
_0-1_計細線
  6
CONTINUOUS
 62
    3
 10
1203.0976690475036
 20
687.24877127353295
 11
1216.6976690475037
 21
687.24877127353295
  0
LINE
  8
_0-1_計細線
  6
CONTINUOUS
 62
    3
 10
1186.0976690471421
 20
687.24877127353295
 11
1199.6976690471415
 21
687.24877127353295
  0
LINE
  8
_0-1_計細線
  6
CONTINUOUS
 62
    3
 10
1169.0976690467799
 20
687.24877127353295
 11
1182.69766904678
 21
687.24877127353295
  0
LINE
  8
_0-1_計細線
  6
CONTINUOUS
 62
    3
 10
1067.0976690446091
 20
687.24877127353295
 11
1080.6976690446093
 21
687.24877127353295
  0
LINE
  8
_0-1_計細線
  6
CONTINUOUS
 62
    3
 10
1084.0976690449711
 20
687.24877127353295
 11
1097.697669044971
 21
687.24877127353295
  0
LINE
  8
_0-1_計細線
  6
CONTINUOUS
 62
    3
 10
1101.0976690453329
 20
687.24877127353295
 11
1114.697669045333
 21
687.24877127353295
  0
LINE
  8
_0-1_計細線
  6
CONTINUOUS
 62
    3
 10
1135.0976690460564
 20
687.24877127353295
 11
1148.6976690460563
 21
687.24877127353295
  0
LINE
  8
_0-1_計細線
  6
CONTINUOUS
 62
    3
 10
1152.0976690464181
 20
687.24877127353295
 11
1165.6976690464185
 21
687.24877127353295
  0
ARC
  8
_0-1_計細線
  6
CONTINUOUS
 62
    3
 10
1230.9976690476935
 20
702.948771273533
 40
1
 50
89.999999999999915
 51
179.99999999999983
  0
ARC
  8
_0-1_計細線
  6
CONTINUOUS
 62
    3
 10
1231.4656182390213
 20
704.94877127353323
 40
1
 50
269.99999999999977
 51
329.9999999999967
  0
ARC
  8
_0-1_計細線
  6
CONTINUOUS
 62
    3
 10
1233.1976690465897
 20
703.94877127353323
 40
1
 50
89.999999999999915
 51
150.00000000000097
  0
LINE
  8
_0-1_計細線
  6
CONTINUOUS
 62
    3
 10
1230.9976690476935
 20
703.94877127353323
 11
1231.4656182390213
 21
703.94877127353323
  0
ARC
  8
_0-1_計細線
  6
CONTINUOUS
 62
    3
 10
1240.3976690454863
 20
702.948771273533
 40
1
 50
0
 51
89.999999999999915
  0
ARC
  8
_0-1_計細線
  6
CONTINUOUS
 62
    3
 10
1239.9297198541587
 20
704.94877127353323
 40
1
 50
210.00000000000256
 51
269.99999999999977
  0
ARC
  8
_0-1_計細線
  6
CONTINUOUS
 62
    3
 10
1238.1976690465899
 20
703.94877127353323
 40
1
 50
29.999999999992518
 51
89.999999999999901
  0
LINE
  8
_0-1_計細線
  6
CONTINUOUS
 62
    3
 10
1240.3976690454863
 20
703.94877127353323
 11
1239.9297198541587
 21
703.94877127353323
  0
ARC
  8
_0-1_計細線
  6
CONTINUOUS
 62
    3
 10
1230.4976690476933
 20
701.54877127353313
 40
0.5
 50
179.99999999999983
 51
269.99999999999977
  0
LINE
  8
_0-1_計細線
  6
CONTINUOUS
 62
    3
 10
1229.9976690476935
 20
702.948771273533
 11
1229.9976690476935
 21
701.54877127353313
  0
ARC
  8
_0-1_計細線
  6
CONTINUOUS
 62
    3
 10
1240.8976690454865
 20
701.54877127353313
 40
0.5
 50
269.99999999999977
 51
359.99999999999966
  0
LINE
  8
_0-1_計細線
  6
CONTINUOUS
 62
    3
 10
1241.3976690454863
 20
702.948771273533
 11
1241.3976690454863
 21
701.54877127353313
  0
ARC
  8
_0-1_計細線
  6
CONTINUOUS
 62
    3
 10
1232.9976690476935
 20
700.04877127353313
 40
1
 50
0
 51
89.999999999999915
  0
LINE
  8
_0-1_計細線
  6
CONTINUOUS
 62
    3
 10
1232.9976690476935
 20
701.04877127353325
 11
1230.4976690476933
 21
701.04877127353325
  0
ARC
  8
_0-1_計細線
  6
CONTINUOUS
 62
    3
 10
1238.3976690476936
 20
700.04877127353313
 40
1
 50
89.999999999999915
 51
179.99999999999983
  0
LINE
  8
_0-1_計細線
  6
CONTINUOUS
 62
    3
 10
1238.3976690454865
 20
701.04877127353325
 11
1240.8976690454865
 21
701.04877127353325
  0
LINE
  8
_0-1_計細線
  6
CONTINUOUS
 62
    3
 10
1238.1976690465899
 20
704.94877127353323
 11
1233.1976690465897
 21
704.94877127353323
  0
LINE
  8
_0-1_計細線
  6
CONTINUOUS
 62
    3
 10
1233.9976690465899
 20
684.94877127353311
 11
1233.9976690476938
 21
700.04877127353313
  0
LINE
  8
_0-1_計細線
  6
CONTINUOUS
 62
    3
 10
1237.3976690465902
 20
684.94877127353311
 11
1237.3976690476936
 21
700.04877127353313
  0
LINE
  8
_0-1_計細線
  6
CONTINUOUS
 62
    3
 10
1237.3976690465902
 20
684.94877127353311
 11
1233.9976690465899
 21
684.94877127353311
  0
ARC
  8
_0-1_計細線
  6
CONTINUOUS
 62
    3
 10
992.39766904479916
 20
702.948771273533
 40
1
 50
89.999999999999915
 51
179.99999999999983
  0
ARC
  8
_0-1_計細線
  6
CONTINUOUS
 62
    3
 10
992.86561823612658
 20
704.94877127353323
 40
1
 50
269.99999999999977
 51
329.9999999999967
  0
ARC
  8
_0-1_計細線
  6
CONTINUOUS
 62
    3
 10
994.59766904369553
 20
703.94877127353323
 40
1
 50
89.999999999999915
 51
150.00000000001401
  0
LINE
  8
_0-1_計細線
  6
CONTINUOUS
 62
    3
 10
992.39766904479916
 20
703.94877127353323
 11
992.86561823612658
 21
703.94877127353323
  0
ARC
  8
_0-1_計細線
  6
CONTINUOUS
 62
    3
 10
1001.7976690425922
 20
702.948771273533
 40
1
 50
0
 51
89.999999999999915
  0
ARC
  8
_0-1_計細線
  6
CONTINUOUS
 62
    3
 10
1001.3297198512645
 20
704.94877127353323
 40
1
 50
210.00000000000907
 51
269.99999999999977
  0
ARC
  8
_0-1_計細線
  6
CONTINUOUS
 62
    3
 10
999.59766904369553
 20
703.94877127353323
 40
1
 50
29.999999999986002
 51
89.999999999999901
  0
LINE
  8
_0-1_計細線
  6
CONTINUOUS
 62
    3
 10
1001.7976690425922
 20
703.94877127353323
 11
1001.3297198512645
 21
703.94877127353323
  0
ARC
  8
_0-1_計細線
  6
CONTINUOUS
 62
    3
 10
991.89766904479927
 20
701.54877127353313
 40
0.5
 50
179.99999999999983
 51
269.99999999999977
  0
LINE
  8
_0-1_計細線
  6
CONTINUOUS
 62
    3
 10
991.39766904479893
 20
702.948771273533
 11
991.39766904479893
 21
701.54877127353313
  0
ARC
  8
_0-1_計細線
  6
CONTINUOUS
 62
    3
 10
1002.2976690425922
 20
701.54877127353313
 40
0.5
 50
269.99999999999977
 51
359.99999999999966
  0
LINE
  8
_0-1_計細線
  6
CONTINUOUS
 62
    3
 10
1002.7976690425919
 20
702.948771273533
 11
1002.7976690425919
 21
701.54877127353313
  0
ARC
  8
_0-1_計細線
  6
CONTINUOUS
 62
    3
 10
994.39766904479893
 20
700.04877127353313
 40
1
 50
0
 51
89.999999999999915
  0
LINE
  8
_0-1_計細線
  6
CONTINUOUS
 62
    3
 10
994.39766904479893
 20
701.04877127353325
 11
991.89766904479927
 21
701.04877127353325
  0
ARC
  8
_0-1_計細線
  6
CONTINUOUS
 62
    3
 10
999.79766904479925
 20
700.04877127353313
 40
1
 50
89.999999999999915
 51
179.99999999999983
  0
LINE
  8
_0-1_計細線
  6
CONTINUOUS
 62
    3
 10
999.79766904259191
 20
701.04877127353325
 11
1002.2976690425922
 21
701.04877127353325
  0
LINE
  8
_0-1_計細線
  6
CONTINUOUS
 62
    3
 10
999.59766904369553
 20
704.94877127353323
 11
994.59766904369553
 21
704.94877127353323
  0
LINE
  8
_0-1_計細線
  6
CONTINUOUS
 62
    3
 10
995.3976690436956
 20
684.94877127353311
 11
995.39766904479916
 21
700.04877127353313
  0
LINE
  8
_0-1_計細線
  6
CONTINUOUS
 62
    3
 10
998.79766904369546
 20
684.94877127353311
 11
998.79766904479902
 21
700.04877127353313
  0
LINE
  8
_0-1_計細線
  6
CONTINUOUS
 62
    3
 10
998.79766904369546
 20
684.94877127353311
 11
995.3976690436956
 21
684.94877127353311
  0
ARC
  8
_0-1_計細線
  6
CONTINUOUS
 62
    3
 10
1009.697669043506
 20
702.948771273533
 40
1
 50
89.999999999999915
 51
179.99999999999983
  0
ARC
  8
_0-1_計細線
  6
CONTINUOUS
 62
    3
 10
1010.1656182348335
 20
704.94877127353323
 40
1
 50
269.99999999999977
 51
329.9999999999967
  0
ARC
  8
_0-1_計細線
  6
CONTINUOUS
 62
    3
 10
1011.8976690424023
 20
703.94877127353323
 40
1
 50
89.999999999999915
 51
150.00000000000747
  0
LINE
  8
_0-1_計細線
  6
CONTINUOUS
 62
    3
 10
1009.697669043506
 20
703.94877127353323
 11
1010.1656182348335
 21
703.94877127353323
  0
ARC
  8
_0-1_計細線
  6
CONTINUOUS
 62
    3
 10
1019.0976690412988
 20
702.948771273533
 40
1
 50
0
 51
89.999999999999915
  0
ARC
  8
_0-1_計細線
  6
CONTINUOUS
 62
    3
 10
1018.6297198499716
 20
704.94877127353323
 40
1
 50
209.99999999998954
 51
269.99999999999977
  0
ARC
  8
_0-1_計細線
  6
CONTINUOUS
 62
    3
 10
1016.897669042402
 20
703.94877127353323
 40
1
 50
29.999999999986002
 51
89.99999999996092
  0
LINE
  8
_0-1_計細線
  6
CONTINUOUS
 62
    3
 10
1019.0976690412988
 20
703.94877127353323
 11
1018.6297198499716
 21
703.94877127353323
  0
ARC
  8
_0-1_計細線
  6
CONTINUOUS
 62
    3
 10
1009.1976690435064
 20
701.54877127353313
 40
0.5
 50
179.99999999999983
 51
269.99999999999977
  0
LINE
  8
_0-1_計細線
  6
CONTINUOUS
 62
    3
 10
1008.6976690435058
 20
702.948771273533
 11
1008.6976690435058
 21
701.54877127353313
  0
ARC
  8
_0-1_計細線
  6
CONTINUOUS
 62
    3
 10
1019.5976690412987
 20
701.54877127353313
 40
0.5
 50
269.99999999999977
 51
359.99999999999966
  0
LINE
  8
_0-1_計細線
  6
CONTINUOUS
 62
    3
 10
1020.097669041299
 20
702.948771273533
 11
1020.097669041299
 21
701.54877127353313
  0
ARC
  8
_0-1_計細線
  6
CONTINUOUS
 62
    3
 10
1011.6976690435058
 20
700.04877127353313
 40
1
 50
0
 51
89.999999999999915
  0
LINE
  8
_0-1_計細線
  6
CONTINUOUS
 62
    3
 10
1011.6976690435058
 20
701.04877127353325
 11
1009.1976690435064
 21
701.04877127353325
  0
ARC
  8
_0-1_計細線
  6
CONTINUOUS
 62
    3
 10
1017.097669043506
 20
700.04877127353313
 40
1
 50
89.999999999999915
 51
179.99999999999983
  0
LINE
  8
_0-1_計細線
  6
CONTINUOUS
 62
    3
 10
1017.0976690412987
 20
701.04877127353325
 11
1019.5976690412987
 21
701.04877127353325
  0
LINE
  8
_0-1_計細線
  6
CONTINUOUS
 62
    3
 10
1016.897669042402
 20
704.94877127353323
 11
1011.8976690424023
 21
704.94877127353323
  0
LINE
  8
_0-1_計細線
  6
CONTINUOUS
 62
    3
 10
1012.6976690424027
 20
684.94877127353311
 11
1012.697669043506
 21
700.04877127353313
  0
LINE
  8
_0-1_計細線
  6
CONTINUOUS
 62
    3
 10
1016.0976690424023
 20
684.94877127353311
 11
1016.0976690435062
 21
700.04877127353313
  0
LINE
  8
_0-1_計細線
  6
CONTINUOUS
 62
    3
 10
1016.0976690424023
 20
684.94877127353311
 11
1012.6976690424027
 21
684.94877127353311
  0
ARC
  8
_0-1_計細線
  6
CONTINUOUS
 62
    3
 10
1026.6976690440574
 20
702.948771273533
 40
1
 50
89.999999999999915
 51
179.99999999999983
  0
ARC
  8
_0-1_計細線
  6
CONTINUOUS
 62
    3
 10
1027.1656182353852
 20
704.94877127353323
 40
1
 50
269.99999999999977
 51
329.99999999999022
  0
ARC
  8
_0-1_計細線
  6
CONTINUOUS
 62
    3
 10
1028.897669042954
 20
703.94877127353323
 40
1
 50
89.999999999999915
 51
150.00000000001401
  0
LINE
  8
_0-1_計細線
  6
CONTINUOUS
 62
    3
 10
1026.6976690440574
 20
703.94877127353323
 11
1027.1656182353852
 21
703.94877127353323
  0
ARC
  8
_0-1_計細線
  6
CONTINUOUS
 62
    3
 10
1036.0976690418506
 20
702.948771273533
 40
1
 50
0
 51
89.999999999999915
  0
ARC
  8
_0-1_計細線
  6
CONTINUOUS
 62
    3
 10
1035.6297198505231
 20
704.94877127353323
 40
1
 50
209.99999999999605
 51
269.99999999999977
  0
ARC
  8
_0-1_計細線
  6
CONTINUOUS
 62
    3
 10
1033.8976690429538
 20
703.94877127353323
 40
1
 50
29.999999999986002
 51
89.999999999986969
  0
LINE
  8
_0-1_計細線
  6
CONTINUOUS
 62
    3
 10
1036.0976690418506
 20
703.94877127353323
 11
1035.6297198505231
 21
703.94877127353323
  0
ARC
  8
_0-1_計細線
  6
CONTINUOUS
 62
    3
 10
1026.1976690440576
 20
701.54877127353313
 40
0.5
 50
179.99999999999983
 51
269.99999999999977
  0
LINE
  8
_0-1_計細線
  6
CONTINUOUS
 62
    3
 10
1025.6976690440576
 20
702.948771273533
 11
1025.6976690440576
 21
701.54877127353313
  0
ARC
  8
_0-1_計細線
  6
CONTINUOUS
 62
    3
 10
1036.5976690418504
 20
701.54877127353313
 40
0.5
 50
269.99999999999977
 51
359.99999999999966
  0
LINE
  8
_0-1_計細線
  6
CONTINUOUS
 62
    3
 10
1037.0976690418506
 20
702.948771273533
 11
1037.0976690418506
 21
701.54877127353313
  0
ARC
  8
_0-1_計細線
  6
CONTINUOUS
 62
    3
 10
1028.6976690440576
 20
700.04877127353313
 40
1
 50
0
 51
89.999999999999915
  0
LINE
  8
_0-1_計細線
  6
CONTINUOUS
 62
    3
 10
1028.6976690440576
 20
701.04877127353325
 11
1026.1976690440576
 21
701.04877127353325
  0
ARC
  8
_0-1_計細線
  6
CONTINUOUS
 62
    3
 10
1034.0976690440575
 20
700.04877127353313
 40
1
 50
89.999999999999915
 51
179.99999999999983
  0
LINE
  8
_0-1_計細線
  6
CONTINUOUS
 62
    3
 10
1034.0976690418502
 20
701.04877127353325
 11
1036.5976690418504
 21
701.04877127353325
  0
LINE
  8
_0-1_計細線
  6
CONTINUOUS
 62
    3
 10
1033.8976690429538
 20
704.94877127353323
 11
1028.897669042954
 21
704.94877127353323
  0
LINE
  8
_0-1_計細線
  6
CONTINUOUS
 62
    3
 10
1029.6976690429542
 20
684.94877127353311
 11
1029.6976690440574
 21
700.04877127353313
  0
LINE
  8
_0-1_計細線
  6
CONTINUOUS
 62
    3
 10
1033.0976690429541
 20
684.94877127353311
 11
1033.0976690440577
 21
700.04877127353313
  0
LINE
  8
_0-1_計細線
  6
CONTINUOUS
 62
    3
 10
1033.0976690429541
 20
684.94877127353311
 11
1029.6976690429542
 21
684.94877127353311
  0
ARC
  8
_0-1_計細線
  6
CONTINUOUS
 62
    3
 10
1043.697669044609
 20
702.948771273533
 40
1
 50
89.999999999999915
 51
179.99999999999983
  0
ARC
  8
_0-1_計細線
  6
CONTINUOUS
 62
    3
 10
1044.165618235937
 20
704.94877127353323
 40
1
 50
269.99999999999977
 51
329.99999999999022
  0
ARC
  8
_0-1_計細線
  6
CONTINUOUS
 62
    3
 10
1045.8976690435061
 20
703.94877127353323
 40
1
 50
89.999999999999915
 51
150.00000000001401
  0
LINE
  8
_0-1_計細線
  6
CONTINUOUS
 62
    3
 10
1043.697669044609
 20
703.94877127353323
 11
1044.165618235937
 21
703.94877127353323
  0
ARC
  8
_0-1_計細線
  6
CONTINUOUS
 62
    3
 10
1053.0976690424018
 20
702.948771273533
 40
1
 50
0
 51
89.999999999999915
  0
ARC
  8
_0-1_計細線
  6
CONTINUOUS
 62
    3
 10
1052.6297198510745
 20
704.94877127353323
 40
1
 50
210.00000000000907
 51
269.99999999999977
  0
ARC
  8
_0-1_計細線
  6
CONTINUOUS
 62
    3
 10
1050.8976690435056
 20
703.94877127353323
 40
1
 50
29.999999999986002
 51
89.999999999999901
  0
LINE
  8
_0-1_計細線
  6
CONTINUOUS
 62
    3
 10
1053.0976690424018
 20
703.94877127353323
 11
1052.6297198510745
 21
703.94877127353323
  0
ARC
  8
_0-1_計細線
  6
CONTINUOUS
 62
    3
 10
1043.1976690446093
 20
701.54877127353313
 40
0.5
 50
179.99999999999983
 51
269.99999999999977
  0
LINE
  8
_0-1_計細線
  6
CONTINUOUS
 62
    3
 10
1042.6976690446095
 20
702.948771273533
 11
1042.6976690446095
 21
701.54877127353313
  0
ARC
  8
_0-1_計細線
  6
CONTINUOUS
 62
    3
 10
1053.5976690424022
 20
701.54877127353313
 40
0.5
 50
269.99999999999977
 51
359.99999999999966
  0
LINE
  8
_0-1_計細線
  6
CONTINUOUS
 62
    3
 10
1054.097669042402
 20
702.948771273533
 11
1054.097669042402
 21
701.54877127353313
  0
ARC
  8
_0-1_計細線
  6
CONTINUOUS
 62
    3
 10
1045.6976690446095
 20
700.04877127353313
 40
1
 50
0
 51
89.999999999999915
  0
LINE
  8
_0-1_計細線
  6
CONTINUOUS
 62
    3
 10
1045.6976690446095
 20
701.04877127353325
 11
1043.1976690446093
 21
701.04877127353325
  0
ARC
  8
_0-1_計細線
  6
CONTINUOUS
 62
    3
 10
1051.0976690446093
 20
700.04877127353313
 40
1
 50
89.999999999999915
 51
179.99999999999983
  0
LINE
  8
_0-1_計細線
  6
CONTINUOUS
 62
    3
 10
1051.097669042402
 20
701.04877127353325
 11
1053.5976690424022
 21
701.04877127353325
  0
LINE
  8
_0-1_計細線
  6
CONTINUOUS
 62
    3
 10
1050.8976690435056
 20
704.94877127353323
 11
1045.8976690435061
 21
704.94877127353323
  0
LINE
  8
_0-1_計細線
  6
CONTINUOUS
 62
    3
 10
1046.6976690435056
 20
684.94877127353311
 11
1046.697669044609
 21
700.04877127353313
  0
LINE
  8
_0-1_計細線
  6
CONTINUOUS
 62
    3
 10
1050.0976690435059
 20
684.94877127353311
 11
1050.0976690446091
 21
700.04877127353313
  0
LINE
  8
_0-1_計細線
  6
CONTINUOUS
 62
    3
 10
1050.0976690435059
 20
684.94877127353311
 11
1046.6976690435056
 21
684.94877127353311
  0
ARC
  8
_0-1_計細線
  6
CONTINUOUS
 62
    3
 10
1213.6976690484173
 20
702.948771273533
 40
1
 50
89.999999999999915
 51
179.99999999999983
  0
ARC
  8
_0-1_計細線
  6
CONTINUOUS
 62
    3
 10
1214.1656182397446
 20
704.94877127353323
 40
1
 50
269.99999999999977
 51
329.9999999999967
  0
ARC
  8
_0-1_計細線
  6
CONTINUOUS
 62
    3
 10
1215.8976690473135
 20
703.94877127353323
 40
1
 50
89.999999999999915
 51
150.00000000000747
  0
LINE
  8
_0-1_計細線
  6
CONTINUOUS
 62
    3
 10
1213.6976690484173
 20
703.94877127353323
 11
1214.1656182397446
 21
703.94877127353323
  0
ARC
  8
_0-1_計細線
  6
CONTINUOUS
 62
    3
 10
1223.0976690462101
 20
702.948771273533
 40
1
 50
0
 51
89.999999999999915
  0
ARC
  8
_0-1_計細線
  6
CONTINUOUS
 62
    3
 10
1222.6297198548828
 20
704.94877127353323
 40
1
 50
210.00000000000256
 51
269.99999999999977
  0
ARC
  8
_0-1_計細線
  6
CONTINUOUS
 62
    3
 10
1220.8976690473137
 20
703.94877127353323
 40
1
 50
29.999999999992518
 51
89.999999999986969
  0
LINE
  8
_0-1_計細線
  6
CONTINUOUS
 62
    3
 10
1223.0976690462101
 20
703.94877127353323
 11
1222.6297198548828
 21
703.94877127353323
  0
ARC
  8
_0-1_計細線
  6
CONTINUOUS
 62
    3
 10
1213.1976690484171
 20
701.54877127353313
 40
0.5
 50
179.99999999999983
 51
269.99999999999977
  0
LINE
  8
_0-1_計細線
  6
CONTINUOUS
 62
    3
 10
1212.6976690484171
 20
702.948771273533
 11
1212.6976690484171
 21
701.54877127353313
  0
ARC
  8
_0-1_計細線
  6
CONTINUOUS
 62
    3
 10
1223.5976690462098
 20
701.54877127353313
 40
0.5
 50
269.99999999999977
 51
359.99999999999966
  0
LINE
  8
_0-1_計細線
  6
CONTINUOUS
 62
    3
 10
1224.0976690462101
 20
702.948771273533
 11
1224.0976690462101
 21
701.54877127353313
  0
ARC
  8
_0-1_計細線
  6
CONTINUOUS
 62
    3
 10
1215.6976690484171
 20
700.04877127353313
 40
1
 50
0
 51
89.999999999999915
  0
LINE
  8
_0-1_計細線
  6
CONTINUOUS
 62
    3
 10
1215.6976690484171
 20
701.04877127353325
 11
1213.1976690484171
 21
701.04877127353325
  0
ARC
  8
_0-1_計細線
  6
CONTINUOUS
 62
    3
 10
1221.0976690484172
 20
700.04877127353313
 40
1
 50
89.999999999999915
 51
179.99999999999983
  0
LINE
  8
_0-1_計細線
  6
CONTINUOUS
 62
    3
 10
1221.0976690462098
 20
701.04877127353325
 11
1223.5976690462098
 21
701.04877127353325
  0
LINE
  8
_0-1_計細線
  6
CONTINUOUS
 62
    3
 10
1220.8976690473137
 20
704.94877127353323
 11
1215.8976690473135
 21
704.94877127353323
  0
LINE
  8
_0-1_計細線
  6
CONTINUOUS
 62
    3
 10
1216.6976690473139
 20
684.94877127353311
 11
1216.6976690484173
 21
700.04877127353313
  0
LINE
  8
_0-1_計細線
  6
CONTINUOUS
 62
    3
 10
1220.0976690473135
 20
684.94877127353311
 11
1220.0976690484174
 21
700.04877127353313
  0
LINE
  8
_0-1_計細線
  6
CONTINUOUS
 62
    3
 10
1220.0976690473135
 20
684.94877127353311
 11
1216.6976690473139
 21
684.94877127353311
  0
ARC
  8
_0-1_計細線
  6
CONTINUOUS
 62
    3
 10
1179.6976690476936
 20
702.948771273533
 40
1
 50
89.999999999999915
 51
179.99999999999983
  0
ARC
  8
_0-1_計細線
  6
CONTINUOUS
 62
    3
 10
1180.1656182390211
 20
704.94877127353323
 40
1
 50
269.99999999999977
 51
329.9999999999967
  0
ARC
  8
_0-1_計細線
  6
CONTINUOUS
 62
    3
 10
1181.8976690465897
 20
703.94877127353323
 40
1
 50
89.999999999999915
 51
150.00000000000097
  0
LINE
  8
_0-1_計細線
  6
CONTINUOUS
 62
    3
 10
1179.6976690476936
 20
703.94877127353323
 11
1180.1656182390211
 21
703.94877127353323
  0
ARC
  8
_0-1_計細線
  6
CONTINUOUS
 62
    3
 10
1189.0976690454863
 20
702.948771273533
 40
1
 50
0
 51
89.999999999999915
  0
ARC
  8
_0-1_計細線
  6
CONTINUOUS
 62
    3
 10
1188.629719854159
 20
704.94877127353323
 40
1
 50
210.00000000000256
 51
269.99999999999977
  0
ARC
  8
_0-1_計細線
  6
CONTINUOUS
 62
    3
 10
1186.8976690465902
 20
703.94877127353323
 40
1
 50
29.999999999992518
 51
89.999999999999901
  0
LINE
  8
_0-1_計細線
  6
CONTINUOUS
 62
    3
 10
1189.0976690454863
 20
703.94877127353323
 11
1188.629719854159
 21
703.94877127353323
  0
ARC
  8
_0-1_計細線
  6
CONTINUOUS
 62
    3
 10
1179.1976690476936
 20
701.54877127353313
 40
0.5
 50
179.99999999999983
 51
269.99999999999977
  0
LINE
  8
_0-1_計細線
  6
CONTINUOUS
 62
    3
 10
1178.6976690476936
 20
702.948771273533
 11
1178.6976690476936
 21
701.54877127353313
  0
ARC
  8
_0-1_計細線
  6
CONTINUOUS
 62
    3
 10
1189.5976690454863
 20
701.54877127353313
 40
0.5
 50
269.99999999999977
 51
359.99999999999966
  0
LINE
  8
_0-1_計細線
  6
CONTINUOUS
 62
    3
 10
1190.0976690454866
 20
702.948771273533
 11
1190.0976690454866
 21
701.54877127353313
  0
ARC
  8
_0-1_計細線
  6
CONTINUOUS
 62
    3
 10
1181.6976690476936
 20
700.04877127353313
 40
1
 50
0
 51
89.999999999999915
  0
LINE
  8
_0-1_計細線
  6
CONTINUOUS
 62
    3
 10
1181.6976690476936
 20
701.04877127353325
 11
1179.1976690476936
 21
701.04877127353325
  0
ARC
  8
_0-1_計細線
  6
CONTINUOUS
 62
    3
 10
1187.0976690476937
 20
700.04877127353313
 40
1
 50
89.999999999999915
 51
179.99999999999983
  0
LINE
  8
_0-1_計細線
  6
CONTINUOUS
 62
    3
 10
1187.0976690454863
 20
701.04877127353325
 11
1189.5976690454863
 21
701.04877127353325
  0
LINE
  8
_0-1_計細線
  6
CONTINUOUS
 62
    3
 10
1186.8976690465902
 20
704.94877127353323
 11
1181.8976690465897
 21
704.94877127353323
  0
LINE
  8
_0-1_計細線
  6
CONTINUOUS
 62
    3
 10
1182.6976690465901
 20
684.94877127353311
 11
1182.6976690476936
 21
700.04877127353313
  0
LINE
  8
_0-1_計細線
  6
CONTINUOUS
 62
    3
 10
1186.09766904659
 20
684.94877127353311
 11
1186.0976690476937
 21
700.04877127353313
  0
LINE
  8
_0-1_計細線
  6
CONTINUOUS
 62
    3
 10
1186.09766904659
 20
684.94877127353311
 11
1182.6976690465901
 21
684.94877127353311
  0
ARC
  8
_0-1_計細線
  6
CONTINUOUS
 62
    3
 10
1060.6976690451609
 20
702.948771273533
 40
1
 50
89.999999999999915
 51
179.99999999999983
  0
ARC
  8
_0-1_計細線
  6
CONTINUOUS
 62
    3
 10
1061.1656182364886
 20
704.94877127353323
 40
1
 50
269.99999999999977
 51
329.9999999999967
  0
ARC
  8
_0-1_計細線
  6
CONTINUOUS
 62
    3
 10
1062.8976690440572
 20
703.94877127353323
 40
1
 50
89.999999999999915
 51
150.00000000000747
  0
LINE
  8
_0-1_計細線
  6
CONTINUOUS
 62
    3
 10
1060.6976690451609
 20
703.94877127353323
 11
1061.1656182364886
 21
703.94877127353323
  0
ARC
  8
_0-1_計細線
  6
CONTINUOUS
 62
    3
 10
1070.0976690429536
 20
702.948771273533
 40
1
 50
0
 51
89.999999999999915
  0
ARC
  8
_0-1_計細線
  6
CONTINUOUS
 62
    3
 10
1069.6297198516263
 20
704.94877127353323
 40
1
 50
209.99999999999605
 51
269.99999999999977
  0
ARC
  8
_0-1_計細線
  6
CONTINUOUS
 62
    3
 10
1067.8976690440572
 20
703.94877127353323
 40
1
 50
29.999999999992518
 51
89.999999999986969
  0
LINE
  8
_0-1_計細線
  6
CONTINUOUS
 62
    3
 10
1070.0976690429536
 20
703.94877127353323
 11
1069.6297198516263
 21
703.94877127353323
  0
ARC
  8
_0-1_計細線
  6
CONTINUOUS
 62
    3
 10
1060.1976690451611
 20
701.54877127353313
 40
0.5
 50
179.99999999999983
 51
269.99999999999977
  0
LINE
  8
_0-1_計細線
  6
CONTINUOUS
 62
    3
 10
1059.6976690451609
 20
702.948771273533
 11
1059.6976690451609
 21
701.54877127353313
  0
ARC
  8
_0-1_計細線
  6
CONTINUOUS
 62
    3
 10
1070.5976690429538
 20
701.54877127353313
 40
0.5
 50
269.99999999999977
 51
359.99999999999966
  0
LINE
  8
_0-1_計細線
  6
CONTINUOUS
 62
    3
 10
1071.0976690429538
 20
702.948771273533
 11
1071.0976690429538
 21
701.54877127353313
  0
ARC
  8
_0-1_計細線
  6
CONTINUOUS
 62
    3
 10
1062.6976690451609
 20
700.04877127353313
 40
1
 50
0
 51
89.999999999999915
  0
LINE
  8
_0-1_計細線
  6
CONTINUOUS
 62
    3
 10
1062.6976690451609
 20
701.04877127353325
 11
1060.1976690451611
 21
701.04877127353325
  0
ARC
  8
_0-1_計細線
  6
CONTINUOUS
 62
    3
 10
1068.097669045161
 20
700.04877127353313
 40
1
 50
89.999999999999915
 51
179.99999999999983
  0
LINE
  8
_0-1_計細線
  6
CONTINUOUS
 62
    3
 10
1068.0976690429538
 20
701.04877127353325
 11
1070.5976690429538
 21
701.04877127353325
  0
LINE
  8
_0-1_計細線
  6
CONTINUOUS
 62
    3
 10
1067.8976690440572
 20
704.94877127353323
 11
1062.8976690440572
 21
704.94877127353323
  0
LINE
  8
_0-1_計細線
  6
CONTINUOUS
 62
    3
 10
1063.6976690440574
 20
684.94877127353311
 11
1063.6976690451611
 21
700.04877127353313
  0
LINE
  8
_0-1_計細線
  6
CONTINUOUS
 62
    3
 10
1067.0976690440575
 20
684.94877127353311
 11
1067.097669045161
 21
700.04877127353313
  0
LINE
  8
_0-1_計細線
  6
CONTINUOUS
 62
    3
 10
1067.0976690440575
 20
684.94877127353311
 11
1063.6976690440574
 21
684.94877127353311
  0
ARC
  8
_0-1_計細線
  6
CONTINUOUS
 62
    3
 10
1077.6976690455226
 20
702.948771273533
 40
1
 50
89.999999999999915
 51
179.99999999999983
  0
ARC
  8
_0-1_計細線
  6
CONTINUOUS
 62
    3
 10
1078.1656182368506
 20
704.94877127353323
 40
1
 50
269.99999999999977
 51
329.99999999999022
  0
ARC
  8
_0-1_計細線
  6
CONTINUOUS
 62
    3
 10
1079.8976690444192
 20
703.94877127353323
 40
1
 50
89.999999999999915
 51
150.00000000001401
  0
LINE
  8
_0-1_計細線
  6
CONTINUOUS
 62
    3
 10
1077.6976690455226
 20
703.94877127353323
 11
1078.1656182368506
 21
703.94877127353323
  0
ARC
  8
_0-1_計細線
  6
CONTINUOUS
 62
    3
 10
1087.0976690433156
 20
702.948771273533
 40
1
 50
0
 51
89.999999999999915
  0
ARC
  8
_0-1_計細線
  6
CONTINUOUS
 62
    3
 10
1086.6297198519878
 20
704.94877127353323
 40
1
 50
210.00000000000907
 51
269.99999999999977
  0
ARC
  8
_0-1_計細線
  6
CONTINUOUS
 62
    3
 10
1084.8976690444192
 20
703.94877127353323
 40
1
 50
29.999999999992518
 51
89.999999999999901
  0
LINE
  8
_0-1_計細線
  6
CONTINUOUS
 62
    3
 10
1087.0976690433156
 20
703.94877127353323
 11
1086.6297198519878
 21
703.94877127353323
  0
ARC
  8
_0-1_計細線
  6
CONTINUOUS
 62
    3
 10
1077.1976690455228
 20
701.54877127353313
 40
0.5
 50
179.99999999999983
 51
269.99999999999977
  0
LINE
  8
_0-1_計細線
  6
CONTINUOUS
 62
    3
 10
1076.6976690455228
 20
702.948771273533
 11
1076.6976690455228
 21
701.54877127353313
  0
ARC
  8
_0-1_計細線
  6
CONTINUOUS
 62
    3
 10
1087.5976690433158
 20
701.54877127353313
 40
0.5
 50
269.99999999999977
 51
359.99999999999966
  0
LINE
  8
_0-1_計細線
  6
CONTINUOUS
 62
    3
 10
1088.0976690433154
 20
702.948771273533
 11
1088.0976690433154
 21
701.54877127353313
  0
ARC
  8
_0-1_計細線
  6
CONTINUOUS
 62
    3
 10
1079.6976690455228
 20
700.04877127353313
 40
1
 50
0
 51
89.999999999999915
  0
LINE
  8
_0-1_計細線
  6
CONTINUOUS
 62
    3
 10
1079.6976690455228
 20
701.04877127353325
 11
1077.1976690455228
 21
701.04877127353325
  0
ARC
  8
_0-1_計細線
  6
CONTINUOUS
 62
    3
 10
1085.0976690455227
 20
700.04877127353313
 40
1
 50
89.999999999999915
 51
179.99999999999983
  0
LINE
  8
_0-1_計細線
  6
CONTINUOUS
 62
    3
 10
1085.0976690433154
 20
701.04877127353325
 11
1087.5976690433158
 21
701.04877127353325
  0
LINE
  8
_0-1_計細線
  6
CONTINUOUS
 62
    3
 10
1084.8976690444192
 20
704.94877127353323
 11
1079.8976690444192
 21
704.94877127353323
  0
LINE
  8
_0-1_計細線
  6
CONTINUOUS
 62
    3
 10
1080.6976690444189
 20
684.94877127353311
 11
1080.6976690455226
 21
700.04877127353313
  0
LINE
  8
_0-1_計細線
  6
CONTINUOUS
 62
    3
 10
1084.0976690444195
 20
684.94877127353311
 11
1084.0976690455229
 21
700.04877127353313
  0
LINE
  8
_0-1_計細線
  6
CONTINUOUS
 62
    3
 10
1084.0976690444195
 20
684.94877127353311
 11
1080.6976690444189
 21
684.94877127353311
  0
ARC
  8
_0-1_計細線
  6
CONTINUOUS
 62
    3
 10
1094.6976690458846
 20
702.948771273533
 40
1
 50
89.999999999999915
 51
179.99999999999983
  0
ARC
  8
_0-1_計細線
  6
CONTINUOUS
 62
    3
 10
1095.1656182372121
 20
704.94877127353323
 40
1
 50
269.99999999999977
 51
329.9999999999967
  0
ARC
  8
_0-1_計細線
  6
CONTINUOUS
 62
    3
 10
1096.8976690447812
 20
703.94877127353323
 40
1
 50
89.999999999999915
 51
150.00000000001401
  0
LINE
  8
_0-1_計細線
  6
CONTINUOUS
 62
    3
 10
1094.6976690458846
 20
703.94877127353323
 11
1095.1656182372121
 21
703.94877127353323
  0
ARC
  8
_0-1_計細線
  6
CONTINUOUS
 62
    3
 10
1104.0976690436773
 20
702.948771273533
 40
1
 50
0
 51
89.999999999999915
  0
ARC
  8
_0-1_計細線
  6
CONTINUOUS
 62
    3
 10
1103.62971985235
 20
704.94877127353323
 40
1
 50
209.99999999999605
 51
269.99999999999977
  0
ARC
  8
_0-1_計細線
  6
CONTINUOUS
 62
    3
 10
1101.897669044781
 20
703.94877127353323
 40
1
 50
29.999999999992518
 51
89.999999999986969
  0
LINE
  8
_0-1_計細線
  6
CONTINUOUS
 62
    3
 10
1104.0976690436773
 20
703.94877127353323
 11
1103.62971985235
 21
703.94877127353323
  0
ARC
  8
_0-1_計細線
  6
CONTINUOUS
 62
    3
 10
1094.1976690458846
 20
701.54877127353313
 40
0.5
 50
179.99999999999983
 51
269.99999999999977
  0
LINE
  8
_0-1_計細線
  6
CONTINUOUS
 62
    3
 10
1093.6976690458846
 20
702.948771273533
 11
1093.6976690458846
 21
701.54877127353313
  0
ARC
  8
_0-1_計細線
  6
CONTINUOUS
 62
    3
 10
1104.5976690436778
 20
701.54877127353313
 40
0.5
 50
269.99999999999977
 51
359.99999999999966
  0
LINE
  8
_0-1_計細線
  6
CONTINUOUS
 62
    3
 10
1105.0976690436776
 20
702.948771273533
 11
1105.0976690436776
 21
701.54877127353313
  0
ARC
  8
_0-1_計細線
  6
CONTINUOUS
 62
    3
 10
1096.6976690458846
 20
700.04877127353313
 40
1
 50
0
 51
89.999999999999915
  0
LINE
  8
_0-1_計細線
  6
CONTINUOUS
 62
    3
 10
1096.6976690458846
 20
701.04877127353325
 11
1094.1976690458846
 21
701.04877127353325
  0
ARC
  8
_0-1_計細線
  6
CONTINUOUS
 62
    3
 10
1102.0976690458847
 20
700.04877127353313
 40
1
 50
89.999999999999915
 51
179.99999999999983
  0
LINE
  8
_0-1_計細線
  6
CONTINUOUS
 62
    3
 10
1102.0976690436773
 20
701.04877127353325
 11
1104.5976690436778
 21
701.04877127353325
  0
LINE
  8
_0-1_計細線
  6
CONTINUOUS
 62
    3
 10
1101.897669044781
 20
704.94877127353323
 11
1096.8976690447812
 21
704.94877127353323
  0
LINE
  8
_0-1_計細線
  6
CONTINUOUS
 62
    3
 10
1097.6976690447812
 20
684.94877127353311
 11
1097.6976690458846
 21
700.04877127353313
  0
LINE
  8
_0-1_計細線
  6
CONTINUOUS
 62
    3
 10
1101.097669044781
 20
684.94877127353311
 11
1101.0976690458847
 21
700.04877127353313
  0
LINE
  8
_0-1_計細線
  6
CONTINUOUS
 62
    3
 10
1101.097669044781
 20
684.94877127353311
 11
1097.6976690447812
 21
684.94877127353311
  0
ARC
  8
_0-1_計細線
  6
CONTINUOUS
 62
    3
 10
1128.6976690466081
 20
702.948771273533
 40
1
 50
89.999999999999915
 51
179.99999999999983
  0
ARC
  8
_0-1_計細線
  6
CONTINUOUS
 62
    3
 10
1129.1656182379356
 20
704.94877127353323
 40
1
 50
269.99999999999977
 51
329.9999999999967
  0
ARC
  8
_0-1_計細線
  6
CONTINUOUS
 62
    3
 10
1130.8976690455047
 20
703.94877127353323
 40
1
 50
89.999999999999915
 51
150.00000000001401
  0
LINE
  8
_0-1_計細線
  6
CONTINUOUS
 62
    3
 10
1128.6976690466081
 20
703.94877127353323
 11
1129.1656182379356
 21
703.94877127353323
  0
ARC
  8
_0-1_計細線
  6
CONTINUOUS
 62
    3
 10
1138.0976690444008
 20
702.948771273533
 40
1
 50
0
 51
89.999999999999915
  0
ARC
  8
_0-1_計細線
  6
CONTINUOUS
 62
    3
 10
1137.6297198530733
 20
704.94877127353323
 40
1
 50
210.00000000000256
 51
269.99999999999977
  0
ARC
  8
_0-1_計細線
  6
CONTINUOUS
 62
    3
 10
1135.8976690455047
 20
703.94877127353323
 40
1
 50
29.999999999992518
 51
89.999999999986969
  0
LINE
  8
_0-1_計細線
  6
CONTINUOUS
 62
    3
 10
1138.0976690444008
 20
703.94877127353323
 11
1137.6297198530733
 21
703.94877127353323
  0
ARC
  8
_0-1_計細線
  6
CONTINUOUS
 62
    3
 10
1128.1976690466081
 20
701.54877127353313
 40
0.5
 50
179.99999999999983
 51
269.99999999999977
  0
LINE
  8
_0-1_計細線
  6
CONTINUOUS
 62
    3
 10
1127.6976690466081
 20
702.948771273533
 11
1127.6976690466081
 21
701.54877127353313
  0
ARC
  8
_0-1_計細線
  6
CONTINUOUS
 62
    3
 10
1138.5976690444011
 20
701.54877127353313
 40
0.5
 50
269.99999999999977
 51
359.99999999999966
  0
LINE
  8
_0-1_計細線
  6
CONTINUOUS
 62
    3
 10
1139.0976690444008
 20
702.948771273533
 11
1139.0976690444008
 21
701.54877127353313
  0
ARC
  8
_0-1_計細線
  6
CONTINUOUS
 62
    3
 10
1130.6976690466081
 20
700.04877127353313
 40
1
 50
0
 51
89.999999999999915
  0
LINE
  8
_0-1_計細線
  6
CONTINUOUS
 62
    3
 10
1130.6976690466081
 20
701.04877127353325
 11
1128.1976690466081
 21
701.04877127353325
  0
ARC
  8
_0-1_計細線
  6
CONTINUOUS
 62
    3
 10
1136.0976690466082
 20
700.04877127353313
 40
1
 50
89.999999999999915
 51
179.99999999999983
  0
LINE
  8
_0-1_計細線
  6
CONTINUOUS
 62
    3
 10
1136.0976690444008
 20
701.04877127353325
 11
1138.5976690444011
 21
701.04877127353325
  0
LINE
  8
_0-1_計細線
  6
CONTINUOUS
 62
    3
 10
1135.8976690455047
 20
704.94877127353323
 11
1130.8976690455047
 21
704.94877127353323
  0
LINE
  8
_0-1_計細線
  6
CONTINUOUS
 62
    3
 10
1131.6976690455044
 20
684.94877127353311
 11
1131.6976690466081
 21
700.04877127353313
  0
LINE
  8
_0-1_計細線
  6
CONTINUOUS
 62
    3
 10
1135.0976690455045
 20
684.94877127353311
 11
1135.0976690466082
 21
700.04877127353313
  0
LINE
  8
_0-1_計細線
  6
CONTINUOUS
 62
    3
 10
1135.0976690455045
 20
684.94877127353311
 11
1131.6976690455044
 21
684.94877127353311
  0
ARC
  8
_0-1_計細線
  6
CONTINUOUS
 62
    3
 10
1145.6976690469701
 20
702.948771273533
 40
1
 50
89.999999999999915
 51
179.99999999999983
  0
ARC
  8
_0-1_計細線
  6
CONTINUOUS
 62
    3
 10
1146.1656182382976
 20
704.94877127353323
 40
1
 50
269.99999999999977
 51
329.9999999999967
  0
ARC
  8
_0-1_計細線
  6
CONTINUOUS
 62
    3
 10
1147.8976690458667
 20
703.94877127353323
 40
1
 50
89.999999999999915
 51
150.00000000000747
  0
LINE
  8
_0-1_計細線
  6
CONTINUOUS
 62
    3
 10
1145.6976690469701
 20
703.94877127353323
 11
1146.1656182382976
 21
703.94877127353323
  0
ARC
  8
_0-1_計細線
  6
CONTINUOUS
 62
    3
 10
1155.0976690447626
 20
702.948771273533
 40
1
 50
0
 51
89.999999999999915
  0
ARC
  8
_0-1_計細線
  6
CONTINUOUS
 62
    3
 10
1154.6297198534353
 20
704.94877127353323
 40
1
 50
210.00000000000256
 51
269.99999999999977
  0
ARC
  8
_0-1_計細線
  6
CONTINUOUS
 62
    3
 10
1152.8976690458662
 20
703.94877127353323
 40
1
 50
29.999999999986002
 51
89.999999999999901
  0
LINE
  8
_0-1_計細線
  6
CONTINUOUS
 62
    3
 10
1155.0976690447626
 20
703.94877127353323
 11
1154.6297198534353
 21
703.94877127353323
  0
ARC
  8
_0-1_計細線
  6
CONTINUOUS
 62
    3
 10
1145.1976690469698
 20
701.54877127353313
 40
0.5
 50
179.99999999999983
 51
269.99999999999977
  0
LINE
  8
_0-1_計細線
  6
CONTINUOUS
 62
    3
 10
1144.6976690469701
 20
702.948771273533
 11
1144.6976690469701
 21
701.54877127353313
  0
ARC
  8
_0-1_計細線
  6
CONTINUOUS
 62
    3
 10
1155.5976690447628
 20
701.54877127353313
 40
0.5
 50
269.99999999999977
 51
359.99999999999966
  0
LINE
  8
_0-1_計細線
  6
CONTINUOUS
 62
    3
 10
1156.0976690447628
 20
702.948771273533
 11
1156.0976690447628
 21
701.54877127353313
  0
ARC
  8
_0-1_計細線
  6
CONTINUOUS
 62
    3
 10
1147.6976690469701
 20
700.04877127353313
 40
1
 50
0
 51
89.999999999999915
  0
LINE
  8
_0-1_計細線
  6
CONTINUOUS
 62
    3
 10
1147.6976690469701
 20
701.04877127353325
 11
1145.1976690469698
 21
701.04877127353325
  0
ARC
  8
_0-1_計細線
  6
CONTINUOUS
 62
    3
 10
1153.0976690469702
 20
700.04877127353313
 40
1
 50
89.999999999999915
 51
179.99999999999983
  0
LINE
  8
_0-1_計細線
  6
CONTINUOUS
 62
    3
 10
1153.0976690447628
 20
701.04877127353325
 11
1155.5976690447628
 21
701.04877127353325
  0
LINE
  8
_0-1_計細線
  6
CONTINUOUS
 62
    3
 10
1152.8976690458662
 20
704.94877127353323
 11
1147.8976690458667
 21
704.94877127353323
  0
LINE
  8
_0-1_計細線
  6
CONTINUOUS
 62
    3
 10
1148.6976690458664
 20
684.94877127353311
 11
1148.6976690469701
 21
700.04877127353313
  0
LINE
  8
_0-1_計細線
  6
CONTINUOUS
 62
    3
 10
1152.0976690458665
 20
684.94877127353311
 11
1152.0976690469702
 21
700.04877127353313
  0
LINE
  8
_0-1_計細線
  6
CONTINUOUS
 62
    3
 10
1152.0976690458665
 20
684.94877127353311
 11
1148.6976690458664
 21
684.94877127353311
  0
ARC
  8
_0-1_計細線
  6
CONTINUOUS
 62
    3
 10
1162.6976690473316
 20
702.948771273533
 40
1
 50
89.999999999999915
 51
179.99999999999983
  0
ARC
  8
_0-1_計細線
  6
CONTINUOUS
 62
    3
 10
1163.1656182386591
 20
704.94877127353323
 40
1
 50
269.99999999999977
 51
329.9999999999967
  0
ARC
  8
_0-1_計細線
  6
CONTINUOUS
 62
    3
 10
1164.8976690462282
 20
703.94877127353323
 40
1
 50
89.999999999999915
 51
150.00000000001401
  0
LINE
  8
_0-1_計細線
  6
CONTINUOUS
 62
    3
 10
1162.6976690473316
 20
703.94877127353323
 11
1163.1656182386591
 21
703.94877127353323
  0
ARC
  8
_0-1_計細線
  6
CONTINUOUS
 62
    3
 10
1172.0976690451248
 20
702.948771273533
 40
1
 50
0
 51
89.999999999999915
  0
ARC
  8
_0-1_計細線
  6
CONTINUOUS
 62
    3
 10
1171.629719853797
 20
704.94877127353323
 40
1
 50
210.00000000000907
 51
269.99999999999977
  0
ARC
  8
_0-1_計細線
  6
CONTINUOUS
 62
    3
 10
1169.8976690462282
 20
703.94877127353323
 40
1
 50
29.999999999986002
 51
89.999999999999901
  0
LINE
  8
_0-1_計細線
  6
CONTINUOUS
 62
    3
 10
1172.0976690451248
 20
703.94877127353323
 11
1171.629719853797
 21
703.94877127353323
  0
ARC
  8
_0-1_計細線
  6
CONTINUOUS
 62
    3
 10
1162.1976690473318
 20
701.54877127353313
 40
0.5
 50
179.99999999999983
 51
269.99999999999977
  0
LINE
  8
_0-1_計細線
  6
CONTINUOUS
 62
    3
 10
1161.6976690473316
 20
702.948771273533
 11
1161.6976690473316
 21
701.54877127353313
  0
ARC
  8
_0-1_計細線
  6
CONTINUOUS
 62
    3
 10
1172.5976690451246
 20
701.54877127353313
 40
0.5
 50
269.99999999999977
 51
359.99999999999966
  0
LINE
  8
_0-1_計細線
  6
CONTINUOUS
 62
    3
 10
1173.0976690451246
 20
702.948771273533
 11
1173.0976690451246
 21
701.54877127353313
  0
ARC
  8
_0-1_計細線
  6
CONTINUOUS
 62
    3
 10
1164.6976690473316
 20
700.04877127353313
 40
1
 50
0
 51
89.999999999999915
  0
LINE
  8
_0-1_計細線
  6
CONTINUOUS
 62
    3
 10
1164.6976690473316
 20
701.04877127353325
 11
1162.1976690473318
 21
701.04877127353325
  0
ARC
  8
_0-1_計細線
  6
CONTINUOUS
 62
    3
 10
1170.0976690473317
 20
700.04877127353313
 40
1
 50
89.999999999999915
 51
179.99999999999983
  0
LINE
  8
_0-1_計細線
  6
CONTINUOUS
 62
    3
 10
1170.0976690451243
 20
701.04877127353325
 11
1172.5976690451246
 21
701.04877127353325
  0
LINE
  8
_0-1_計細線
  6
CONTINUOUS
 62
    3
 10
1169.8976690462282
 20
704.94877127353323
 11
1164.8976690462282
 21
704.94877127353323
  0
LINE
  8
_0-1_計細線
  6
CONTINUOUS
 62
    3
 10
1165.6976690462282
 20
684.94877127353311
 11
1165.6976690473316
 21
700.04877127353313
  0
LINE
  8
_0-1_計細線
  6
CONTINUOUS
 62
    3
 10
1169.097669046228
 20
684.94877127353311
 11
1169.0976690473317
 21
700.04877127353313
  0
LINE
  8
_0-1_計細線
  6
CONTINUOUS
 62
    3
 10
1169.097669046228
 20
684.94877127353311
 11
1165.6976690462282
 21
684.94877127353311
  0
ARC
  8
_0-1_計細線
  6
CONTINUOUS
 62
    3
 10
1243.3976690451427
 20
684.94877127353311
 40
3.0000000000000004
 50
269.99999999999977
 51
359.99999999999966
  0
LINE
  8
_0-1_計細線
  6
CONTINUOUS
 62
    3
 10
1246.3976690451427
 20
684.94877127353311
 11
1246.3976690451427
 21
704.44877127353311
  0
LINE
  8
_0-1_計細線
  6
CONTINUOUS
 62
    3
 10
1243.3976690451427
 20
681.94877127353311
 11
1216.8976690451427
 21
681.94877127353311
  0
LINE
  8
_0-1_計細線
  6
CONTINUOUS
 62
    3
 10
1216.3976690451427
 20
682.44877127353323
 11
1216.8976690451427
 21
681.94877127353311
  0
LINE
  8
_0-1_計細線
  6
CONTINUOUS
 62
    3
 10
1216.3976690451427
 20
684.44877127353323
 11
1216.3976690451427
 21
682.44877127353323
  0
LINE
  8
_0-1_計細線
  6
CONTINUOUS
 62
    3
 10
1216.8976690451427
 20
684.94877127353311
 11
1216.3976690451427
 21
684.44877127353323
  0
LINE
  8
_0-1_計細線
  6
CONTINUOUS
 62
    3
 10
1243.3976690451427
 20
684.94877127353311
 11
1216.8976690451427
 21
684.94877127353311
  0
LINE
  8
_0-1_計細線
  6
CONTINUOUS
 62
    3
 10
1245.8976690451432
 20
704.94877127353323
 11
1246.3976690451427
 21
704.44877127353311
  0
LINE
  8
_0-1_計細線
  6
CONTINUOUS
 62
    3
 10
1243.8976690451429
 20
704.94877127353323
 11
1245.8976690451432
 21
704.94877127353323
  0
LINE
  8
_0-1_計細線
  6
CONTINUOUS
 62
    3
 10
1243.3976690451427
 20
704.44877127353311
 11
1243.8976690451429
 21
704.94877127353323
  0
LINE
  8
_0-1_計細線
  6
CONTINUOUS
 62
    3
 10
1243.3976690451427
 20
684.94877127353311
 11
1243.3976690451427
 21
704.44877127353311
  0
ARC
  8
_0-1_計細線
  6
CONTINUOUS
 62
    3
 10
989.39766904514272
 20
684.94877127353311
 40
3.0000000000000004
 50
179.99999999999983
 51
269.99999999999977
  0
LINE
  8
_0-1_計細線
  6
CONTINUOUS
 62
    3
 10
986.39766904514272
 20
684.94877127353311
 11
986.39766904514272
 21
704.44877127353311
  0
LINE
  8
_0-1_計細線
  6
CONTINUOUS
 62
    3
 10
989.39766904514272
 20
681.94877127353311
 11
1015.8976690451431
 21
681.94877127353311
  0
LINE
  8
_0-1_計細線
  6
CONTINUOUS
 62
    3
 10
1016.3976690451427
 20
682.44877127353323
 11
1015.8976690451431
 21
681.94877127353311
  0
LINE
  8
_0-1_計細線
  6
CONTINUOUS
 62
    3
 10
1016.3976690451427
 20
684.44877127353323
 11
1016.3976690451427
 21
682.44877127353323
  0
LINE
  8
_0-1_計細線
  6
CONTINUOUS
 62
    3
 10
1015.8976690451431
 20
684.94877127353311
 11
1016.3976690451427
 21
684.44877127353323
  0
LINE
  8
_0-1_計細線
  6
CONTINUOUS
 62
    3
 10
989.39766904514272
 20
684.94877127353311
 11
1015.8976690451431
 21
684.94877127353311
  0
LINE
  8
_0-1_計細線
  6
CONTINUOUS
 62
    3
 10
986.89766904514261
 20
704.94877127353323
 11
986.39766904514272
 21
704.44877127353311
  0
LINE
  8
_0-1_計細線
  6
CONTINUOUS
 62
    3
 10
988.89766904514306
 20
704.94877127353323
 11
986.89766904514261
 21
704.94877127353323
  0
LINE
  8
_0-1_計細線
  6
CONTINUOUS
 62
    3
 10
989.39766904514272
 20
704.44877127353311
 11
988.89766904514306
 21
704.94877127353323
  0
LINE
  8
_0-1_計細線
  6
CONTINUOUS
 62
    3
 10
989.39766904514272
 20
684.94877127353311
 11
989.39766904514272
 21
704.44877127353311
  0
LINE
  8
_0-5_寸法線
  6
CONTINUOUS
 62
    7
 10
975.19766904514302
 20
681.94877127353311
 11
897.16437521994931
 21
681.94877127353323
  0
LINE
  8
_0-5_寸法線
  6
CONTINUOUS
 62
    7
 10
902.16437521994931
 20
681.94877127353323
 11
904.7525656709746
 21
672.28951301064262
  0
LINE
  8
_0-5_寸法線
  6
CONTINUOUS
 62
    7
 10
902.16437521994931
 20
681.94877127353323
 11
899.57618476892424
 21
672.28951301064262
  0
LINE
  8
_0-5_寸法線
  6
CONTINUOUS
 62
    7
 10
975.19766904514302
 20
658.94877127353323
 11
897.16437521994931
 21
658.94877127353323
  0
LINE
  8
_0-5_寸法線
  6
CONTINUOUS
 62
    7
 10
902.16437521994931
 20
658.94877127353323
 11
899.57618476892424
 21
668.60802953642394
  0
LINE
  8
_0-5_寸法線
  6
CONTINUOUS
 62
    7
 10
902.16437521994931
 20
658.94877127353323
 11
904.7525656709746
 21
668.60802953642394
  0
LINE
  8
_0-5_寸法線
  6
CONTINUOUS
 62
    7
 10
902.16437521994931
 20
681.94877127353323
 11
902.16437521994931
 21
658.94877127353323
  0
TEXT
  8
_0-5_寸法線
 62
    7
 10
902.16437521994931
 20
662.94877127353334
 40
15
 41
1
 50
90
  1
23
  0
LINE
  8
_0-5_寸法線
  6
CONTINUOUS
 62
    7
 10
917.89102075807386
 20
704.94877127353277
 11
897.16437521994931
 21
704.94877127353277
  0
LINE
  8
_0-5_寸法線
  6
CONTINUOUS
 62
    7
 10
902.16437521994931
 20
704.94877127353277
 11
904.7525656709746
 21
695.28951301064217
  0
LINE
  8
_0-5_寸法線
  6
CONTINUOUS
 62
    7
 10
902.16437521994931
 20
704.94877127353277
 11
899.57618476892424
 21
695.28951301064217
  0
LINE
  8
_0-5_寸法線
  6
CONTINUOUS
 62
    7
 10
975.19766904514302
 20
681.94877127353311
 11
897.16437521994931
 21
681.94877127353323
  0
LINE
  8
_0-5_寸法線
  6
CONTINUOUS
 62
    7
 10
902.16437521994931
 20
681.94877127353323
 11
899.57618476892424
 21
691.60802953642406
  0
LINE
  8
_0-5_寸法線
  6
CONTINUOUS
 62
    7
 10
902.16437521994931
 20
681.94877127353323
 11
904.7525656709746
 21
691.60802953642406
  0
LINE
  8
_0-5_寸法線
  6
CONTINUOUS
 62
    7
 10
902.16437521994931
 20
704.94877127353277
 11
902.16437521994931
 21
681.94877127353323
  0
TEXT
  8
_0-5_寸法線
 62
    7
 10
902.16437521994931
 20
685.94877127353334
 40
15
 41
1
 50
90
  1
23
  0
LINE
  8
_0-5_寸法線
  6
CONTINUOUS
 62
    7
 10
1016.3976690451427
 20
676.94877127353311
 11
1016.3976690451427
 21
584.62627132142302
  0
LINE
  8
_0-5_寸法線
  6
CONTINUOUS
 62
    7
 10
1016.3976690451427
 20
589.62627132142302
 11
1026.0569273080337
 21
592.2144617724482
  0
LINE
  8
_0-5_寸法線
  6
CONTINUOUS
 62
    7
 10
1016.3976690451427
 20
589.62627132142302
 11
1026.0569273080337
 21
587.03808087039783
  0
LINE
  8
_0-5_寸法線
  6
CONTINUOUS
 62
    7
 10
1216.3976690451427
 20
676.94877127353311
 11
1216.3976690451427
 21
584.62627132142302
  0
LINE
  8
_0-5_寸法線
  6
CONTINUOUS
 62
    7
 10
1216.3976690451427
 20
589.62627132142302
 11
1206.738410782252
 21
587.03808087039783
  0
LINE
  8
_0-5_寸法線
  6
CONTINUOUS
 62
    7
 10
1216.3976690451427
 20
589.62627132142302
 11
1206.738410782252
 21
592.2144617724482
  0
LINE
  8
_0-5_寸法線
  6
CONTINUOUS
 62
    7
 10
1016.3976690451427
 20
589.62627132142302
 11
1216.3976690451427
 21
589.62627132142302
  0
TEXT
  8
_0-5_寸法線
 62
    7
 10
1105.1476690451427
 20
589.62627132142302
 40
15
 41
1
 50
0
  1
200
  0
LINE
  8
_0-5_寸法線
  6
CONTINUOUS
 62
    7
 10
986.39766904514261
 20
648.94877127353323
 11
986.39766904514147
 21
584.62627132142302
  0
LINE
  8
_0-5_寸法線
  6
CONTINUOUS
 62
    7
 10
986.39766904514158
 20
589.62627132142302
 11
996.05692730803241
 21
592.2144617724482
  0
LINE
  8
_0-5_寸法線
  6
CONTINUOUS
 62
    7
 10
986.39766904514158
 20
589.62627132142302
 11
996.05692730803241
 21
587.03808087039783
  0
LINE
  8
_0-5_寸法線
  6
CONTINUOUS
 62
    7
 10
1016.3976690451426
 20
671.94877127353311
 11
1016.3976690451415
 21
584.62627132142302
  0
LINE
  8
_0-5_寸法線
  6
CONTINUOUS
 62
    7
 10
1016.3976690451416
 20
589.62627132142302
 11
1006.738410782251
 21
587.03808087039783
  0
LINE
  8
_0-5_寸法線
  6
CONTINUOUS
 62
    7
 10
1016.3976690451416
 20
589.62627132142302
 11
1006.738410782251
 21
592.2144617724482
  0
LINE
  8
_0-5_寸法線
  6
CONTINUOUS
 62
    7
 10
986.39766904514158
 20
589.62627132142302
 11
1016.3976690451416
 21
589.62627132142302
  0
TEXT
  8
_0-5_寸法線
 62
    7
 10
993.89766904514158
 20
589.62627132142302
 40
15
 41
1
 50
0
  1
30
  0
LINE
  8
_0-5_寸法線
  6
CONTINUOUS
 62
    7
 10
1246.3976690451432
 20
648.94877127353323
 11
1246.3976690451432
 21
584.62627132142302
  0
LINE
  8
_0-5_寸法線
  6
CONTINUOUS
 62
    7
 10
1246.3976690451432
 20
589.62627132142302
 11
1236.7384107822525
 21
587.03808087039783
  0
LINE
  8
_0-5_寸法線
  6
CONTINUOUS
 62
    7
 10
1246.3976690451432
 20
589.62627132142302
 11
1236.7384107822525
 21
592.2144617724482
  0
LINE
  8
_0-5_寸法線
  6
CONTINUOUS
 62
    7
 10
1216.3976690451432
 20
671.94877127353311
 11
1216.3976690451439
 21
584.62627132142302
  0
LINE
  8
_0-5_寸法線
  6
CONTINUOUS
 62
    7
 10
1216.3976690451439
 20
589.62627132142302
 11
1226.0569273080346
 21
592.2144617724482
  0
LINE
  8
_0-5_寸法線
  6
CONTINUOUS
 62
    7
 10
1216.3976690451439
 20
589.62627132142302
 11
1226.0569273080346
 21
587.03808087039783
  0
LINE
  8
_0-5_寸法線
  6
CONTINUOUS
 62
    7
 10
1246.3976690451432
 20
589.62627132142302
 11
1216.3976690451439
 21
589.62627132142302
  0
TEXT
  8
_0-5_寸法線
 62
    7
 10
1223.8976690451434
 20
589.62627132142302
 40
15
 41
1
 50
0
  1
30
  0
LINE
  8
_0-1_計細線
  6
CONTINUOUS
 62
    3
 10
986.39766904514272
 20
693.948771273533
 11
986.39766904514272
 21
658.948771273533
  0
LINE
  8
_0-1_計細線
  6
CONTINUOUS
 62
    3
 10
986.39766904514272
 20
658.948771273533
 11
984.09766904514288
 21
658.948771273533
  0
LINE
  8
_0-1_計細線
  6
CONTINUOUS
 62
    3
 10
984.09766904514288
 20
658.948771273533
 11
984.09766904514288
 21
693.948771273533
  0
LINE
  8
_0-1_計細線
  6
CONTINUOUS
 62
    3
 10
984.09766904514288
 20
693.948771273533
 11
986.39766904514272
 21
693.948771273533
  0
LINE
  8
_0-0_計極細
  6
CONTINUOUS
 62
    2
 10
984.09766904514288
 20
677.948771273533
 11
986.39766904514272
 21
677.948771273533
  0
LINE
  8
_0-0_計極細
  6
CONTINUOUS
 62
    2
 10
984.09766904514288
 20
679.94877127353311
 11
986.39766904514272
 21
679.94877127353311
  0
LINE
  8
_0-0_計極細
  6
CONTINUOUS
 62
    2
 10
984.09766904514288
 20
675.948771273533
 11
986.39766904514272
 21
675.948771273533
  0
LINE
  8
_0-0_計極細
  6
CONTINUOUS
 62
    2
 10
984.09766904514288
 20
681.94877127353311
 11
986.39766904514272
 21
681.94877127353311
  0
LINE
  8
_0-0_計極細
  6
CONTINUOUS
 62
    2
 10
986.39766904514272
 20
661.94877127353311
 11
984.09766904514288
 21
661.94877127353311
  0
LINE
  8
_0-0_計極細
  6
CONTINUOUS
 62
    2
 10
984.09766904514288
 20
691.94877127353311
 11
986.39766904514272
 21
691.94877127353311
  0
LINE
  8
_0-1_計細線
  6
CONTINUOUS
 62
    3
 10
1246.3976690451427
 20
693.948771273533
 11
1246.3976690451427
 21
658.948771273533
  0
LINE
  8
_0-1_計細線
  6
CONTINUOUS
 62
    3
 10
1246.3976690451427
 20
658.948771273533
 11
1248.6976690451429
 21
658.948771273533
  0
LINE
  8
_0-1_計細線
  6
CONTINUOUS
 62
    3
 10
1248.6976690451429
 20
658.948771273533
 11
1248.6976690451429
 21
693.948771273533
  0
LINE
  8
_0-1_計細線
  6
CONTINUOUS
 62
    3
 10
1248.6976690451429
 20
693.948771273533
 11
1246.3976690451427
 21
693.948771273533
  0
LINE
  8
_0-0_計極細
  6
CONTINUOUS
 62
    2
 10
1248.6976690451429
 20
677.948771273533
 11
1246.3976690451427
 21
677.948771273533
  0
LINE
  8
_0-0_計極細
  6
CONTINUOUS
 62
    2
 10
1248.6976690451429
 20
679.94877127353323
 11
1246.3976690451427
 21
679.94877127353323
  0
LINE
  8
_0-0_計極細
  6
CONTINUOUS
 62
    2
 10
1248.6976690451429
 20
675.948771273533
 11
1246.3976690451427
 21
675.948771273533
  0
LINE
  8
_0-0_計極細
  6
CONTINUOUS
 62
    2
 10
1248.6976690451429
 20
681.94877127353311
 11
1246.3976690451427
 21
681.94877127353311
  0
LINE
  8
_0-0_計極細
  6
CONTINUOUS
 62
    2
 10
1246.3976690451427
 20
661.94877127353311
 11
1248.6976690451429
 21
661.94877127353311
  0
LINE
  8
_0-0_計極細
  6
CONTINUOUS
 62
    2
 10
1248.6976690451429
 20
691.94877127353311
 11
1246.3976690451427
 21
691.94877127353311
  0
LINE
  8
_0-7_枠細線
  6
CONTINUOUS
 62
    5
 10
1265.3116978659634
 20
679.09685510459758
 11
1257.8116978659634
 21
694.09685510459758
  0
LINE
  8
_0-7_枠細線
  6
CONTINUOUS
 62
    5
 10
1250.3116978659634
 20
679.09685510459758
 11
1265.3116978659634
 21
679.09685510459758
  0
LINE
  8
_0-7_枠細線
  6
CONTINUOUS
 62
    5
 10
1257.8116978659634
 20
694.09685510459758
 11
1250.3116978659634
 21
679.09685510459758
  0
TEXT
  8
_0-7_枠細線
 62
    5
 10
1252.6768491341115
 20
678.14803513974755
 40
12.5
 41
0.8
 50
0
  1
１
  0
TEXT
  8
_0-7_枠細線
 62
    5
 10
1066.6894272843072
 20
547.76655116937332
 40
25
 41
0.8
 50
0
  1
断面詳細図
  0
TEXT
  8
_0-7_枠細線
 62
    5
 10
1181.638397033475
 20
550.26231325663741
 40
20
 41
0.6
 50
0
  1
Ｓ＝１：５
  0
ARC
  8
_0-1_計細線
  6
CONTINUOUS
 62
    3
 10
1196.6976690480553
 20
702.948771273533
 40
1
 50
89.999999999999915
 51
179.99999999999983
  0
ARC
  8
_0-1_計細線
  6
CONTINUOUS
 62
    3
 10
1197.1656182393831
 20
704.94877127353323
 40
1
 50
269.99999999999977
 51
329.99999999999022
  0
ARC
  8
_0-1_計細線
  6
CONTINUOUS
 62
    3
 10
1198.8976690469517
 20
703.94877127353323
 40
1
 50
89.999999999999915
 51
150.00000000000747
  0
LINE
  8
_0-1_計細線
  6
CONTINUOUS
 62
    3
 10
1196.6976690480553
 20
703.94877127353323
 11
1197.1656182393831
 21
703.94877127353323
  0
ARC
  8
_0-1_計細線
  6
CONTINUOUS
 62
    3
 10
1206.0976690458483
 20
702.948771273533
 40
1
 50
0
 51
89.999999999999915
  0
ARC
  8
_0-1_計細線
  6
CONTINUOUS
 62
    3
 10
1205.6297198545208
 20
704.94877127353323
 40
1
 50
210.00000000000907
 51
269.99999999999977
  0
ARC
  8
_0-1_計細線
  6
CONTINUOUS
 62
    3
 10
1203.8976690469517
 20
703.94877127353323
 40
1
 50
29.999999999986002
 51
89.999999999986969
  0
LINE
  8
_0-1_計細線
  6
CONTINUOUS
 62
    3
 10
1206.0976690458483
 20
703.94877127353323
 11
1205.6297198545208
 21
703.94877127353323
  0
ARC
  8
_0-1_計細線
  6
CONTINUOUS
 62
    3
 10
1196.1976690480556
 20
701.54877127353313
 40
0.5
 50
179.99999999999983
 51
269.99999999999977
  0
LINE
  8
_0-1_計細線
  6
CONTINUOUS
 62
    3
 10
1195.6976690480556
 20
702.948771273533
 11
1195.6976690480556
 21
701.54877127353313
  0
ARC
  8
_0-1_計細線
  6
CONTINUOUS
 62
    3
 10
1206.5976690458483
 20
701.54877127353313
 40
0.5
 50
269.99999999999977
 51
359.99999999999966
  0
LINE
  8
_0-1_計細線
  6
CONTINUOUS
 62
    3
 10
1207.0976690458481
 20
702.948771273533
 11
1207.0976690458481
 21
701.54877127353313
  0
ARC
  8
_0-1_計細線
  6
CONTINUOUS
 62
    3
 10
1198.6976690480556
 20
700.04877127353313
 40
1
 50
0
 51
89.999999999999915
  0
LINE
  8
_0-1_計細線
  6
CONTINUOUS
 62
    3
 10
1198.6976690480556
 20
701.04877127353325
 11
1196.1976690480556
 21
701.04877127353325
  0
ARC
  8
_0-1_計細線
  6
CONTINUOUS
 62
    3
 10
1204.0976690480554
 20
700.04877127353313
 40
1
 50
89.999999999999915
 51
179.99999999999983
  0
LINE
  8
_0-1_計細線
  6
CONTINUOUS
 62
    3
 10
1204.0976690458481
 20
701.04877127353325
 11
1206.5976690458483
 21
701.04877127353325
  0
LINE
  8
_0-1_計細線
  6
CONTINUOUS
 62
    3
 10
1203.8976690469517
 20
704.94877127353323
 11
1198.8976690469517
 21
704.94877127353323
  0
LINE
  8
_0-1_計細線
  6
CONTINUOUS
 62
    3
 10
1199.6976690469519
 20
684.94877127353311
 11
1199.6976690480553
 21
700.04877127353313
  0
LINE
  8
_0-1_計細線
  6
CONTINUOUS
 62
    3
 10
1203.097669046952
 20
684.94877127353311
 11
1203.0976690480556
 21
700.04877127353313
  0
LINE
  8
_0-1_計細線
  6
CONTINUOUS
 62
    3
 10
1203.097669046952
 20
684.94877127353311
 11
1199.6976690469519
 21
684.94877127353311
  0
LINE
  8
_0-1_計細線
  6
CONTINUOUS
 62
    3
 10
411.686320754718
 20
448.76981132075286
 11
464.68632075471794
 21
448.76981132075286
  0
LINE
  8
_0-1_計細線
  6
CONTINUOUS
 62
    3
 10
464.68632075471794
 20
453.46981132075268
 11
411.686320754718
 21
453.46981132075268
  0
LINE
  8
_0-1_計細線
  6
CONTINUOUS
 62
    3
 10
411.686320754718
 20
453.46981132075268
 11
411.686320754718
 21
448.76981132075286
  0
LINE
  8
_0-1_計細線
  6
CONTINUOUS
 62
    3
 10
454.68632075471794
 20
453.46981132075268
 11
454.68632075471794
 21
448.76981132075286
  0
LINE
  8
_0-1_計細線
  6
CONTINUOUS
 62
    3
 10
462.686320754718
 20
453.46981132075268
 11
462.686320754718
 21
448.76981132075286
  0
LINE
  8
_0-1_計細線
  6
CONTINUOUS
 62
    3
 10
464.68632075471794
 20
453.46981132075268
 11
464.68632075471794
 21
448.76981132075286
  0
LINE
  8
_0-1_計細線
  6
CONTINUOUS
 62
    3
 10
460.68632075471794
 20
453.46981132075268
 11
460.68632075471794
 21
448.76981132075286
  0
LINE
  8
_0-1_計細線
  6
CONTINUOUS
 62
    3
 10
458.68632075471794
 20
453.46981132075268
 11
458.68632075471794
 21
448.76981132075286
  0
LINE
  8
_0-1_計細線
  6
CONTINUOUS
 62
    3
 10
456.686320754718
 20
453.46981132075268
 11
456.686320754718
 21
448.76981132075286
  0
TEXT
  8
_0-7_枠細線
 62
    5
 10
1180
 20
910
 40
12.5
 41
0.7199999999999999
 50
0
  1
２０２０．０９．０１
  0
LINE
  8
_0-5_寸法線
  6
CONTINUOUS
 62
    7
 10
986.39766904514272
 20
709.94874872574871
 11
986.39766904514272
 21
829.94855227252617
  0
LINE
  8
_0-5_寸法線
  6
CONTINUOUS
 62
    7
 10
986.39766904514272
 20
824.94855227252617
 11
996.05692730803355
 21
827.53674272355124
  0
LINE
  8
_0-5_寸法線
  6
CONTINUOUS
 62
    7
 10
986.39766904514272
 20
824.94855227252617
 11
996.05692730803355
 21
822.36036182150087
  0
LINE
  8
_0-5_寸法線
  6
CONTINUOUS
 62
    7
 10
1246.3976690451427
 20
709.94874872574871
 11
1246.3976690451427
 21
829.94855227252617
  0
LINE
  8
_0-5_寸法線
  6
CONTINUOUS
 62
    7
 10
1246.3976690451427
 20
824.94855227252617
 11
1236.738410782252
 21
822.36036182150087
  0
LINE
  8
_0-5_寸法線
  6
CONTINUOUS
 62
    7
 10
1246.3976690451427
 20
824.94855227252617
 11
1236.738410782252
 21
827.53674272355124
  0
LINE
  8
_0-5_寸法線
  6
CONTINUOUS
 62
    7
 10
986.39766904514272
 20
824.94855227252617
 11
1246.3976690451427
 21
824.94855227252617
  0
TEXT
  8
_0-5_寸法線
 62
    7
 10
1105.1476690451429
 20
824.94855227252617
 40
15
 41
1
 50
0
  1
260
  0
LINE
  8
_0-5_寸法線
  6
CONTINUOUS
 62
    7
 10
986.39766904514272
 20
789.94855227252617
 11
976.73841078225212
 21
787.36036182150087
  0
LINE
  8
_0-5_寸法線
  6
CONTINUOUS
 62
    7
 10
986.39766904514272
 20
789.94855227252617
 11
976.73841078225212
 21
792.53674272355124
  0
LINE
  8
_0-5_寸法線
  6
CONTINUOUS
 62
    7
 10
989.39766904514272
 20
709.44874872574871
 11
989.39766904514272
 21
794.94855227252617
  0
CIRCLE
  8
_0-5_寸法線
  6
CONTINUOUS
 62
    1
 10
989.39766904514272
 20
789.94855227252617
 40
1.5000000000000002
  0
LINE
  8
_0-5_寸法線
  6
CONTINUOUS
 62
    7
 10
961.39766904514272
 20
789.94855227252617
 11
989.39766904514272
 21
789.94855227252617
  0
TEXT
  8
_0-5_寸法線
 62
    7
 10
964.16075804477043
 20
789.94855227252617
 40
15
 41
1
 50
0
  1
3
  0
LINE
  8
_0-5_寸法線
  6
CONTINUOUS
 62
    7
 10
991.39766904514261
 20
707.94874772474191
 11
991.39766904514318
 21
794.94855227252617
  0
LINE
  8
_0-5_寸法線
  6
CONTINUOUS
 62
    7
 10
989.39766904514272
 20
789.94855227252617
 11
991.39766904514318
 21
789.94855227252617
  0
TEXT
  8
_0-5_寸法線
 62
    7
 10
992.42666568395794
 20
789.94855227252617
 40
15
 41
1
 50
0
  1
2
  0
LINE
  8
_0-5_寸法線
  6
CONTINUOUS
 62
    7
 10
991.39766904514318
 20
789.94855227252617
 11
1001.0569273080339
 21
792.53674272355124
  0
LINE
  8
_0-5_寸法線
  6
CONTINUOUS
 62
    7
 10
991.39766904514318
 20
789.94855227252617
 11
1001.0569273080339
 21
787.36036182150087
  0
LINE
  8
_0-5_寸法線
  6
CONTINUOUS
 62
    7
 10
1241.3976690451429
 20
707.94874772474191
 11
1241.3976690451429
 21
794.94855227252617
  0
LINE
  8
_0-5_寸法線
  6
CONTINUOUS
 62
    7
 10
1241.3976690451429
 20
789.94855227252617
 11
1231.7384107822522
 21
787.36036182150087
  0
LINE
  8
_0-5_寸法線
  6
CONTINUOUS
 62
    7
 10
1241.3976690451429
 20
789.94855227252617
 11
1231.7384107822522
 21
792.53674272355124
  0
LINE
  8
_0-5_寸法線
  6
CONTINUOUS
 62
    7
 10
991.39766904514318
 20
789.94855227252617
 11
1241.3976690451429
 21
789.94855227252617
  0
TEXT
  8
_0-5_寸法線
 62
    7
 10
1105.1476690451429
 20
789.94855227252617
 40
15
 41
1
 50
0
  1
250
  0
LINE
  8
_0-5_寸法線
  6
CONTINUOUS
 62
    7
 10
1243.3976690451427
 20
709.44874872574871
 11
1243.3976690451427
 21
794.94855227252617
  0
CIRCLE
  8
_0-5_寸法線
  6
CONTINUOUS
 62
    1
 10
1243.3976690451427
 20
789.94855227252617
 40
1.5000000000000002
  0
LINE
  8
_0-5_寸法線
  6
CONTINUOUS
 62
    7
 10
1241.3976690451429
 20
789.94855227252617
 11
1243.3976690451427
 21
789.94855227252617
  0
TEXT
  8
_0-5_寸法線
 62
    7
 10
1233.7997494103727
 20
789.94855227252617
 40
15
 41
1
 50
0
  1
2
  0
LINE
  8
_0-5_寸法線
  6
CONTINUOUS
 62
    7
 10
1246.3976690451427
 20
789.94855227252617
 11
1256.0569273080337
 21
792.53674272355124
  0
LINE
  8
_0-5_寸法線
  6
CONTINUOUS
 62
    7
 10
1246.3976690451427
 20
789.94855227252617
 11
1256.0569273080337
 21
787.36036182150087
  0
LINE
  8
_0-5_寸法線
  6
CONTINUOUS
 62
    7
 10
1243.3976690451427
 20
789.94855227252617
 11
1271.3976690451427
 21
789.94855227252617
  0
TEXT
  8
_0-5_寸法線
 62
    7
 10
1260.5441664895477
 20
789.94855227252617
 40
15
 41
1
 50
0
  1
3
  0
LINE
  8
_0-5_寸法線
  6
CONTINUOUS
 62
    7
 10
1108.2061486022526
 20
690.6845356370435
 11
1088.6330476554192
 21
704.38976846615583
  0
LINE
  8
_0-5_寸法線
  6
CONTINUOUS
 62
    7
 10
1092.7288078768643
 20
701.52188628440058
 11
1090.1406174258391
 21
711.18114454729141
  0
LINE
  8
_0-5_寸法線
  6
CONTINUOUS
 62
    7
 10
1092.7288078768643
 20
701.52188628440058
 11
1095.3169983278895
 21
711.18114454729141
  0
LINE
  8
_0-5_寸法線
  6
CONTINUOUS
 62
    7
 10
1108.2061486022526
 20
710.68453563704361
 11
1088.6330476554192
 21
724.38976846615606
  0
LINE
  8
_0-5_寸法線
  6
CONTINUOUS
 62
    7
 10
1092.7288078768643
 20
721.52188628440069
 11
1095.3169983278895
 21
711.86262802151009
  0
LINE
  8
_0-5_寸法線
  6
CONTINUOUS
 62
    7
 10
1092.7288078768643
 20
721.52188628440069
 11
1090.1406174258391
 21
711.86262802151009
  0
LINE
  8
_0-5_寸法線
  6
CONTINUOUS
 62
    7
 10
1092.7288078768643
 20
701.52188628440058
 11
1092.7288078768643
 21
721.52188628440069
  0
TEXT
  8
_0-5_寸法線
 62
    7
 10
1092.7288078768643
 20
704.02188628440047
 40
15
 41
1
 50
90
  1
20
  0
LINE
  8
_0-5_寸法線
  6
CONTINUOUS
 62
    7
 10
1054.0976690425919
 20
712.948771273533
 11
1054.0976690425919
 21
759.94877114638234
  0
LINE
  8
_0-5_寸法線
  6
CONTINUOUS
 62
    7
 10
1054.0976690425919
 20
754.94877114638234
 11
1044.4384107797011
 21
752.36058069535704
  0
LINE
  8
_0-5_寸法線
  6
CONTINUOUS
 62
    7
 10
1054.0976690425919
 20
754.94877114638234
 11
1044.4384107797011
 21
757.53696159740741
  0
LINE
  8
_0-5_寸法線
  6
CONTINUOUS
 62
    7
 10
1059.6976690451609
 20
712.948771273533
 11
1059.6976690451609
 21
759.94877114638234
  0
LINE
  8
_0-5_寸法線
  6
CONTINUOUS
 62
    7
 10
1014.7237133594249
 20
754.94877114638234
 11
1059.6976690451609
 21
754.94877114638234
  0
TEXT
  8
_0-5_寸法線
 62
    7
 10
1014.723713359425
 20
739.94877114638234
 40
15
 41
1
 50
0
  1
(5.6)
  0
LINE
  8
_0-5_寸法線
  6
CONTINUOUS
 62
    7
 10
1059.6976690451609
 20
754.94877114638234
 11
1069.3569273080516
 21
757.53696159740741
  0
LINE
  8
_0-5_寸法線
  6
CONTINUOUS
 62
    7
 10
1059.6976690451609
 20
754.94877114638234
 11
1069.3569273080516
 21
752.36058069535704
  0
LINE
  8
_0-5_寸法線
  6
CONTINUOUS
 62
    7
 10
1071.0976690429536
 20
712.948771273533
 11
1071.0976690429536
 21
759.94877114638234
  0
LINE
  8
_0-5_寸法線
  6
CONTINUOUS
 62
    7
 10
1071.0976690429536
 20
754.94877114638234
 11
1061.4384107800629
 21
752.36058069535704
  0
LINE
  8
_0-5_寸法線
  6
CONTINUOUS
 62
    7
 10
1071.0976690429536
 20
754.94877114638234
 11
1061.4384107800629
 21
757.53696159740741
  0
LINE
  8
_0-5_寸法線
  6
CONTINUOUS
 62
    7
 10
1059.6976690451609
 20
754.94877114638234
 11
1071.0976690429536
 21
754.94877114638234
  0
TEXT
  8
_0-5_寸法線
 62
    7
 10
1046.6329726177073
 20
754.94877114638234
 40
15
 41
1
 50
0
  1
11.4
  0
LINE
  8
_0-5_寸法線
  6
CONTINUOUS
 62
    7
 10
1167.397669046228
 20
714.94877127353323
 11
1167.397669046228
 21
759.94877114638234
  0
LINE
  8
_0-5_寸法線
  6
CONTINUOUS
 62
    7
 10
1167.397669046228
 20
754.94877114638234
 11
1177.0569273091187
 21
757.53696159740741
  0
LINE
  8
_0-5_寸法線
  6
CONTINUOUS
 62
    7
 10
1167.397669046228
 20
754.94877114638234
 11
1177.0569273091187
 21
752.36058069535704
  0
LINE
  8
_0-5_寸法線
  6
CONTINUOUS
 62
    7
 10
1184.39766904659
 20
714.94877127353323
 11
1184.39766904659
 21
759.94877114638234
  0
LINE
  8
_0-5_寸法線
  6
CONTINUOUS
 62
    7
 10
1184.39766904659
 20
754.94877114638234
 11
1174.7384107836992
 21
752.36058069535704
  0
LINE
  8
_0-5_寸法線
  6
CONTINUOUS
 62
    7
 10
1184.39766904659
 20
754.94877114638234
 11
1174.7384107836992
 21
757.53696159740741
  0
LINE
  8
_0-5_寸法線
  6
CONTINUOUS
 62
    7
 10
1167.397669046228
 20
754.94877114638234
 11
1184.39766904659
 21
754.94877114638234
  0
TEXT
  8
_0-5_寸法線
 62
    7
 10
1159.7416917538044
 20
739.94877114638234
 40
15
 41
1
 50
0
  1
(17)
  0
LINE
  8
_0-5_寸法線
  6
CONTINUOUS
 62
    7
 10
1184.39766904659
 20
754.94877114638234
 11
1194.0569273094807
 21
757.53696159740741
  0
LINE
  8
_0-5_寸法線
  6
CONTINUOUS
 62
    7
 10
1184.39766904659
 20
754.94877114638234
 11
1194.0569273094807
 21
752.36058069535704
  0
LINE
  8
_0-5_寸法線
  6
CONTINUOUS
 62
    7
 10
1201.3976690469517
 20
714.94877127353323
 11
1201.3976690469517
 21
759.94877114638234
  0
LINE
  8
_0-5_寸法線
  6
CONTINUOUS
 62
    7
 10
1201.3976690469517
 20
754.94877114638234
 11
1191.738410784061
 21
752.36058069535704
  0
LINE
  8
_0-5_寸法線
  6
CONTINUOUS
 62
    7
 10
1201.3976690469517
 20
754.94877114638234
 11
1191.738410784061
 21
757.53696159740741
  0
LINE
  8
_0-5_寸法線
  6
CONTINUOUS
 62
    7
 10
1184.39766904659
 20
754.94877114638234
 11
1201.3976690469517
 21
754.94877114638234
  0
TEXT
  8
_0-5_寸法線
 62
    7
 10
1178.8083584202298
 20
754.94877114638234
 40
15
 41
1
 50
0
  1
(17)
  0
TEXT
  8
_0-5_寸法線
 62
    7
 10
241.63742710745225
 20
624.555102162303
 40
15
 41
0.8000000000000001
 50
0
  1
(標準付属)
  0
TEXT
  8
_0-7_枠細線
 62
    5
 10
1180
 20
892.5
 40
12.5
 41
0.7199999999999999
 50
0
  1
２０２０．１０．０１
  0
TEXT
  8
_0-7_枠細線
 62
    5
 10
938.85037037037023
 20
910
 40
12.5
 41
1
 50
0
  1
クロスバーピッチ変更
  0
TEXT
  8
_0-7_枠細線
 62
    5
 10
938.85037037037023
 20
892.5
 40
12.5
 41
1
 50
0
  1
取外具形状変更
  0
TEXT
  8
_0-7_枠細線
 62
    5
 10
369.95168160885839
 20
640.11552046137035
 40
12.5
 41
0.8
 50
0
  1
２
  0
TEXT
  8
_0-7_枠細線
 62
    5
 10
242.70850667767752
 20
657.2608572257808
 40
12.5
 41
0.8
 50
0
  1
３
  0
ENDSEC
  0
EOF
