  0
SECTION
  2
HEADER
  9
$ACADVER
  1
AC1009
  9
$INSBASE
 10
0
 20
0
 30
0
  9
$EXTMIN
 10
0
 20
0
  9
$EXTMAX
 10
1485
 20
1050
  9
$LIMMIN
 10
0
 20
0
  9
$LIMMAX
 10
1485
 20
1050
  9
$LTSCALE
 40
5
  0
ENDSEC
  0
SECTION
  2
TABLES
  0
TABLE
  2
LTYPE
 70
     9
  0
LTYPE
  2
CONTINUOUS
 70
    64
  3
実線
 72
    65
 73
     0
 40
0.0
  0
LTYPE
  2
DASHED1
 70
    64
  3
--  --  --  --  --  --  --  --  
 72
    65
 73
     2
 40
2.5
 49
1.25
 49
-1.25
  0
LTYPE
  2
DASHED2
 70
    64
  3
----    ----    ----    ----    
 72
    65
 73
     2
 40
5.0
 49
2.5
 49
-2.5
  0
LTYPE
  2
DASHED3
 70
    64
  3
------  ------  ------  ------  
 72
    65
 73
     2
 40
5.0
 49
3.75
 49
-1.25
  0
LTYPE
  2
CENTER1
 70
    64
  3
----- - ----- - ----- - ----- - 
 72
    65
 73
     4
 40
10.0
 49
6.25
 49
-1.25
 49
1.25
 49
-1.25
  0
LTYPE
  2
CENTER2
 70
    64
  3
----------  --  ----------  --  
 72
    65
 73
     4
 40
20.0
 49
12.5
 49
-2.5
 49
2.5
 49
-2.5
  0
LTYPE
  2
PHANTOM1
 70
    64
  3
--- - - --- - - --- - - --- - - 
 72
    65
 73
     6
 40
10.0
 49
3.25
 49
-1.25
 49
1.25
 49
-1.25
 49
1.25
 49
-1.25
  0
LTYPE
  2
PHANTOM2
 70
    64
  3
--------  -  -  --------  -  -  
 72
    65
 73
     6
 40
20.0
 49
10.0
 49
-2.5
 49
1.25
 49
-2.5
 49
1.25
 49
-2.5
  0
LTYPE
  2
DOT
 70
    64
  3
-   -   -   -   -   -   -   -   
 72
    65
 73
     2
 40
2.5
 49
0.625
 49
-1.875
  0
LTYPE
  2
DUMMY
 70
    64
  3
ダミー
 72
    65
 73
     0
 40
0.0
  0
LTYPE
  2
RAND1
 70
    64
  3
ランダム線1
 72
    65
 73
     4
 40
10.0
 49
1.0
 49
-2.0
 49
3.0
 49
-4.0
  0
LTYPE
  2
RAND2
 70
    64
  3
ランダム線2
 72
    65
 73
     4
 40
14.0
 49
2.0
 49
-3.0
 49
4.0
 49
-5.0
  0
LTYPE
  2
RAND3
 70
    64
  3
ランダム線3
 72
    65
 73
     4
 40
18.0
 49
3.0
 49
-4.0
 49
5.0
 49
-6.0
  0
LTYPE
  2
RAND4
 70
    64
  3
ランダム線4
 72
    65
 73
     4
 40
22.0
 49
4.0
 49
-5.0
 49
6.0
 49
-7.0
  0
LTYPE
  2
RAND5
 70
    64
  3
ランダム線5
 72
    65
 73
     4
 40
26.0
 49
5.0
 49
-6.0
 49
7.0
 49
-8.0
  0
LTYPE
  2
LONG1
 70
    64
  3
----------  --  ----------  --  
 72
    65
 73
     4
 40
40.0
 49
32.5
 49
-2.5
 49
2.5
 49
-2.5
  0
LTYPE
  2
LONG2
 70
    64
  3
--------  -  -  --------  -  -  
 72
    65
 73
     6
 40
40.0
 49
30.0
 49
-2.5
 49
1.25
 49
-2.5
 49
1.25
 49
-2.5
  0
LTYPE
  2
LONG3
 70
    64
  3
+++++++++++++++..+++++++++++++++
 72
    65
 73
     2
 40
40.0
 49
37.5
 49
-2.5
  0
LTYPE
  2
LONG4
 70
    64
  3
+++++++++++++++..+++++++++++++++
 72
    65
 73
     2
 40
80.0
 49
75.0
 49
-5.0
  0
LTYPE
  2
LONG5
 70
    64
  3
----------  --  ----------  --  
 72
    65
 73
     4
 40
60.0
 49
37.5
 49
-7.5
 49
7.5
 49
-7.5
  0
LTYPE
  2
dashed
 70
   64
  3
-------   -------------   ------
 72
   65
 73
    2
 40
7.5
 49
6
 49
-1.5
  0
LTYPE
  2
dashed_spaced
 70
   64
  3
----        --------        ----
 72
   65
 73
    2
 40
12
 49
6
 49
-6
  0
LTYPE
  2
long_dashed_dotted
 70
   64
  3
------------- --- --------------
 72
   65
 73
    4
 40
15.25
 49
12
 49
-1.5
 49
0.25
 49
-1.5
  0
LTYPE
  2
long_dashed_double-dotted
 70
   64
  3
----------- --- --- ------------
 72
   65
 73
    6
 40
17
 49
12
 49
-1.5
 49
0.25
 49
-1.5
 49
0.25
 49
-1.5
  0
LTYPE
  2
long_dashed_triplicate-dotted
 70
   64
  3
--------- --- --- --- ----------
 72
   65
 73
    8
 40
18.75
 49
12
 49
-1.5
 49
0.25
 49
-1.5
 49
0.25
 49
-1.5
 49
0.25
 49
-1.5
  0
LTYPE
  2
dotted
 70
   64
  3
   -       -       -       -    
 72
   65
 73
    2
 40
1.75
 49
0.25
 49
-1.5
  0
LTYPE
  2
chain
 70
   64
  3
-------------- -- --------------
 72
   65
 73
    4
 40
18.5
 49
12
 49
-1.5
 49
3.5
 49
-1.5
  0
LTYPE
  2
chain_double_dash
 70
   64
  3
------------ -- -- -------------
 72
   65
 73
    6
 40
23.5
 49
12
 49
-1.5
 49
3.5
 49
-1.5
 49
3.5
 49
-1.5
  0
LTYPE
  2
dashed_dotted
 70
   64
  3
-----------     -     ----------
 72
   65
 73
    4
 40
9.25
 49
6
 49
-1.5
 49
0.25
 49
-1.5
  0
LTYPE
  2
double-dashed_dotted
 70
   64
  3
------   -----------   -   -----
 72
   65
 73
    6
 40
16.75
 49
6
 49
-1.5
 49
6
 49
-1.5
 49
0.25
 49
-1.5
  0
LTYPE
  2
dashed_double-dotted
 70
   64
  3
---------    -    -    ---------
 72
   65
 73
    6
 40
11
 49
6
 49
-1.5
 49
0.25
 49
-1.5
 49
0.25
 49
-1.5
  0
LTYPE
  2
double-dashed_double-dotted
 70
   64
  3
-----   ---------   -   -   ----
 72
   65
 73
    8
 40
18.5
 49
6
 49
-1.5
 49
6
 49
-1.5
 49
0.25
 49
-1.5
 49
0.25
 49
-1.5
  0
LTYPE
  2
dashed_triplicate-dotted
 70
   64
  3
-------    -    -    -    ------
 72
   65
 73
    8
 40
12.75
 49
6
 49
-1.5
 49
0.25
 49
-1.5
 49
0.25
 49
-1.5
 49
0.25
 49
-1.5
  0
LTYPE
  2
double-dashed_triplicate-dotted
 70
   64
  3
-----  ---------  -  -  -  -----
 72
   65
 73
   10
 40
20.25
 49
6
 49
-1.5
 49
6
 49
-1.5
 49
0.25
 49
-1.5
 49
0.25
 49
-1.5
 49
0.25
 49
-1.5
  0
LTYPE
  2
undefined
 70
   64
  3
--------------------------------
 72
   65
 73
    0
 40
0
  0
ENDTAB
  0
TABLE
  2
STYLE
  5
3
100
AcDbSymbolTable
 70
     1
  0
STYLE
  5
10
100
AcDbSymbolTableRecord
100
AcDbTextStyleTableRecord
  2
STANDARD
 70
     0
 40
0.0
 41
1.0
 50
0.0
 71
     0
 42
0.2
  3
txt
  4
bigfont.shx
  0
STYLE
  5
26
100
AcDbSymbolTableRecord
100
AcDbTextStyleTableRecord
  2
TATEGAKI
 70
    68
 40
0.0
 41
1.0
 50
0.0
 71
     0
 42
1.0
  3
txt
  4
bigfont.shx
  0
ENDTAB
  0
TABLE
  2
LAYER
 70
    7
  0
LAYER
  2
_0-0_計極細
 70
   64
 62
    7
  6
CONTINUOUS
  0
LAYER
  2
_0-1_計細線
 70
   64
 62
    7
  6
CONTINUOUS
  0
LAYER
  2
_0-5_寸法線
 70
   64
 62
    7
  6
CONTINUOUS
  0
LAYER
  2
_0-7_枠細線
 70
   64
 62
    7
  6
CONTINUOUS
  0
LAYER
  2
_0-8_枠中線
 70
   64
 62
    7
  6
CONTINUOUS
  0
LAYER
  2
_0-9_枠極太
 70
   64
 62
    7
  6
CONTINUOUS
  0
LAYER
  2
ADD_LINE
 70
   64
 62
    7
  6
CONTINUOUS
  0
ENDTAB
  0
ENDSEC
  0
SECTION
  2
BLOCKS
  0
ENDSEC
  0
SECTION
  2
ENTITIES
  0
LINE
  8
_0-7_枠細線
  6
CONTINUOUS
 62
    5
 10
1185
 20
180
 11
1185
 21
100
  0
TEXT
  8
_0-7_枠細線
 62
    5
 10
937.5
 20
97.5
 40
17.5
 41
1
 50
0
  1
備考
  7
TATEGAKI
  0
TEXT
  8
_0-7_枠細線
 62
    5
 10
937.5
 20
137.5
 40
17.5
 41
1
 50
0
  1
品番
  7
TATEGAKI
  0
TEXT
  8
_0-7_枠細線
 62
    5
 10
937.5
 20
177.5
 40
17.5
 41
1
 50
0
  1
品名
  7
TATEGAKI
  0
LINE
  8
_0-7_枠細線
  6
CONTINUOUS
 62
    5
 10
1185
 20
140
 11
925
 21
140
  0
LINE
  8
_0-7_枠細線
  6
CONTINUOUS
 62
    5
 10
950
 20
180
 11
950
 21
60
  0
LINE
  8
_0-8_枠中線
  6
CONTINUOUS
 62
    5
 10
1425
 20
180
 11
925
 21
180
  0
LINE
  8
_0-8_枠中線
  6
CONTINUOUS
 62
    5
 10
925
 20
180
 11
925
 21
60
  0
LINE
  8
_0-7_枠細線
  6
CONTINUOUS
 62
    5
 10
1245
 20
180
 11
1245
 21
60
  0
TEXT
  8
_0-7_枠細線
 62
    5
 10
1192.5
 20
160
 40
15
 41
1
 50
0
  1
縮　尺
  0
LINE
  8
_0-7_枠細線
  6
CONTINUOUS
 62
    5
 10
1185
 20
155
 11
1245
 21
155
  0
LINE
  8
_0-7_枠細線
  6
CONTINUOUS
 62
    5
 10
1245
 20
100
 11
925
 21
100
  0
LINE
  8
_0-7_枠細線
  6
CONTINUOUS
 62
    5
 10
1425
 20
90
 11
1245
 21
90
  0
LINE
  8
_0-7_枠細線
  6
CONTINUOUS
 62
    5
 10
1245
 20
120
 11
1425
 21
120
  0
LINE
  8
_0-7_枠細線
  6
CONTINUOUS
 62
    5
 10
1425
 20
140
 11
1245
 21
140
  0
TEXT
  8
_0-7_枠細線
 62
    5
 10
1255
 20
147.5
 40
25
 41
0.8
 50
0
  1
株式会社シマブン
  0
TEXT
  8
_0-7_枠細線
 62
    5
 10
1252.5
 20
60
 40
15
 41
1
 50
0
  1
年月日
  0
TEXT
  8
_0-7_枠細線
 62
    5
 10
1252.5
 20
75
 40
15
 41
1
 50
0
  1
作　成
  0
TEXT
  8
_0-7_枠細線
 62
    5
 10
1256.25
 20
122.5
 40
15
 41
1
 50
0
  1
承 認
  0
LINE
  8
_0-7_枠細線
  6
CONTINUOUS
 62
    5
 10
1305
 20
140
 11
1305
 21
60
  0
TEXT
  8
_0-7_枠細線
 62
    5
 10
1316.25
 20
122.5
 40
15
 41
1
 50
0
  1
検 図
  0
LINE
  8
_0-7_枠細線
  6
CONTINUOUS
 62
    5
 10
1365
 20
140
 11
1365
 21
90
  0
TEXT
  8
_0-7_枠細線
 62
    5
 10
1375
 20
95
 40
20
 41
1
 50
0
  1
藤戸
  0
TEXT
  8
_0-7_枠細線
 62
    5
 10
1376.25
 20
122.5
 40
15
 41
1
 50
0
  1
設 計
  0
TEXT
  8
_0-7_枠細線
 62
    5
 10
1193.9999999999998
 20
117.5
 40
20
 41
0.7000000000000001
 50
0
  1
１：５
  0
TEXT
  8
_0-7_枠細線
 62
    5
 10
960.5
 20
158.74999999999994
 40
20.000000000000007
 41
0.5999999999999998
 50
0
  1
セーフティグレーチングＨ２０タイプ
  0
TEXT
  8
_0-7_枠細線
 62
    5
 10
1068.5
 20
141.25
 40
20.000000000000007
 41
0.5999999999999998
 50
0
  1
集水マス　補強仕様
  0
TEXT
  8
_0-7_枠細線
 62
    5
 10
960.5
 20
109.99999999999993
 40
20.000000000000007
 41
0.5999999999999998
 50
0
  1
ＧＲＳＫ－２０Ｋ３００
  0
TEXT
  8
_0-7_枠細線
 62
    5
 10
960.5
 20
69.999999999999858
 40
20
 41
0.5999999999999998
 50
0
  1
色については表参照のこと
  0
LINE
  8
_0-7_枠細線
  6
CONTINUOUS
 62
    5
 10
1425
 20
942.5
 11
890
 21
942.5
  0
TEXT
  8
_0-7_枠細線
 62
    5
 10
895
 20
945
 40
12.5
 41
1
 50
0
  1
記号
  0
TEXT
  8
_0-7_枠細線
 62
    5
 10
996.875
 20
945
 40
12.5
 41
1
 50
0
  1
訂　 正　 記　 事
  0
TEXT
  8
_0-7_枠細線
 62
    5
 10
1181.25
 20
945
 40
12.5
 41
1
 50
0
  1
訂 正 年 月 日
  0
TEXT
  8
_0-7_枠細線
 62
    5
 10
1306.25
 20
945
 40
12.5
 41
1
 50
0
  1
備　　　　　考
  0
LINE
  8
_0-7_枠細線
  6
CONTINUOUS
 62
    5
 10
1425
 20
925
 11
890
 21
925
  0
TEXT
  8
_0-7_枠細線
 62
    5
 10
961.00000000000023
 20
453.73352999148574
 40
15
 41
0.8000000000000001
 50
0
  1
品　　番
  0
LINE
  8
_0-7_枠細線
  6
CONTINUOUS
 62
    5
 10
925
 20
398.7335299914858
 11
1245.0000000000002
 21
398.7335299914858
  0
LINE
  8
_0-7_枠細線
  6
CONTINUOUS
 62
    5
 10
925
 20
423.7335299914858
 11
1245.0000000000002
 21
423.7335299914858
  0
LINE
  8
_0-7_枠細線
  6
CONTINUOUS
 62
    5
 10
925
 20
448.73352999148574
 11
1245.0000000000002
 21
448.73352999148574
  0
TEXT
  8
_0-7_枠細線
 62
    5
 10
1089.0000000000005
 20
453.73352999148574
 40
15
 41
0.8000000000000001
 50
0
  1
色
  0
TEXT
  8
_0-7_枠細線
 62
    5
 10
1171.0000000000005
 20
453.73352999148574
 40
15
 41
0.8000000000000001
 50
0
  1
備　　考
  0
LINE
  8
_0-7_枠細線
  6
CONTINUOUS
 62
    5
 10
925
 20
473.73352999148574
 11
1245.0000000000002
 21
473.73352999148574
  0
LINE
  8
_0-7_枠細線
  6
CONTINUOUS
 62
    5
 10
925
 20
248.73352999148577
 11
1245.0000000000002
 21
248.73352999148577
  0
LINE
  8
_0-7_枠細線
  6
CONTINUOUS
 62
    5
 10
925
 20
373.73352999148574
 11
1245.0000000000002
 21
373.73352999148574
  0
LINE
  8
_0-7_枠細線
  6
CONTINUOUS
 62
    5
 10
925
 20
348.73352999148574
 11
1245.0000000000002
 21
348.73352999148574
  0
LINE
  8
_0-7_枠細線
  6
CONTINUOUS
 62
    5
 10
925
 20
323.73352999148574
 11
1245.0000000000002
 21
323.73352999148574
  0
LINE
  8
_0-7_枠細線
  6
CONTINUOUS
 62
    5
 10
925
 20
298.73352999148574
 11
1245.0000000000002
 21
298.73352999148574
  0
LINE
  8
_0-7_枠細線
  6
CONTINUOUS
 62
    5
 10
925
 20
273.73352999148574
 11
1245.0000000000002
 21
273.73352999148574
  0
TEXT
  8
_0-7_枠細線
 62
    5
 10
1023.75
 20
478.73352999148574
 40
17.5
 41
1
 50
0
  1
品番表
  0
LINE
  8
_0-7_枠細線
  6
CONTINUOUS
 62
    5
 10
925
 20
223.73352999148577
 11
1245.0000000000002
 21
223.73352999148577
  0
LINE
  8
_0-7_枠細線
  6
CONTINUOUS
 62
    5
 10
1245.0000000000002
 20
473.73352999148574
 11
1245.0000000000002
 21
223.73352999148577
  0
LINE
  8
_0-7_枠細線
  6
CONTINUOUS
 62
    5
 10
1145
 20
473.73352999148574
 11
1145
 21
223.73352999148577
  0
LINE
  8
_0-7_枠細線
  6
CONTINUOUS
 62
    5
 10
1045.0000000000005
 20
473.73352999148574
 11
1045.0000000000005
 21
223.73352999148577
  0
LINE
  8
_0-7_枠細線
  6
CONTINUOUS
 62
    5
 10
925
 20
473.73352999148574
 11
925
 21
223.73352999148577
  0
LINE
  8
_0-7_枠細線
  6
CONTINUOUS
 62
    5
 10
1290.7925839968264
 20
393.7335299914858
 11
1290.7925839968264
 21
473.73352999148574
  0
TEXT
  8
_0-7_枠細線
 62
    5
 10
1313.2925839968264
 20
451.23352999148574
 40
15.000000000000004
 41
1
 50
0
  1
耐荷重
  0
TEXT
  8
_0-7_枠細線
 62
    5
 10
1298.2925839968264
 20
401.2335299914858
 40
15.000000000000004
 41
1
 50
0
  1
（歩道用）
  0
LINE
  8
_0-7_枠細線
  6
CONTINUOUS
 62
    5
 10
1380.7925839968264
 20
393.7335299914858
 11
1380.7925839968264
 21
473.73352999148574
  0
LINE
  8
_0-7_枠細線
  6
CONTINUOUS
 62
    5
 10
1290.7925839968264
 20
473.73352999148574
 11
1380.7925839968264
 21
473.73352999148574
  0
LINE
  8
_0-7_枠細線
  6
CONTINUOUS
 62
    5
 10
1290.7925839968264
 20
443.7335299914858
 11
1380.7925839968264
 21
443.7335299914858
  0
LINE
  8
_0-7_枠細線
  6
CONTINUOUS
 62
    5
 10
1290.7925839968264
 20
393.7335299914858
 11
1380.7925839968264
 21
393.7335299914858
  0
TEXT
  8
_0-7_枠細線
 62
    5
 10
1305.7925839968264
 20
421.2335299914858
 40
15.000000000000004
 41
1
 50
0
  1
5.0kN/㎡
  0
TEXT
  8
_0-7_枠細線
 62
    5
 10
1255
 20
95
 40
20
 41
1
 50
0
  1
大野
  0
TEXT
  8
_0-7_枠細線
 62
    5
 10
1315
 20
95
 40
20
 41
1
 50
0
  1
深川
  0
TEXT
  8
_0-7_枠細線
 62
    5
 10
1309.9999999999998
 20
67.499999999999858
 40
15.000000000000009
 41
0.6666666666666665
 50
0
  1
２０１７年０４月０１日
  0
TEXT
  8
_0-7_枠細線
 62
    5
 10
929.75000000000045
 20
428.7335299914858
 40
15
 41
0.5666666666666667
 50
0
  1
ＧＲＳＫ－２０Ｋ３００－Ｂ
  0
TEXT
  8
_0-7_枠細線
 62
    5
 10
929.75000000000045
 20
403.7335299914858
 40
15
 41
0.5666666666666667
 50
0
  1
ＧＲＳＫ－２０Ｋ３００－Ｇ
  0
TEXT
  8
_0-7_枠細線
 62
    5
 10
929.75000000000045
 20
378.73352999148574
 40
15
 41
0.5666666666666667
 50
0
  1
ＧＲＳＫ－２０Ｋ３００－Ｓ
  0
TEXT
  8
_0-7_枠細線
 62
    5
 10
929.75000000000045
 20
353.73352999148574
 40
15
 41
0.5666666666666667
 50
0
  1
ＧＲＳＫ－２０Ｋ３００－Ｐ
  0
TEXT
  8
_0-7_枠細線
 62
    5
 10
929.75000000000045
 20
328.73352999148574
 40
15
 41
0.5666666666666667
 50
0
  1
ＧＲＳＫ－２０Ｋ３００－Ａ
  0
TEXT
  8
_0-7_枠細線
 62
    5
 10
929.75000000000045
 20
303.73352999148574
 40
15
 41
0.5666666666666667
 50
0
  1
ＧＲＳＫ－２０Ｋ３００－Ｄ
  0
TEXT
  8
_0-7_枠細線
 62
    5
 10
929.75000000000045
 20
278.73352999148574
 40
15
 41
0.5666666666666667
 50
0
  1
ＧＲＳＫ－２０Ｋ３００－Ｍ
  0
TEXT
  8
_0-7_枠細線
 62
    5
 10
929.75000000000045
 20
253.73352999148577
 40
15
 41
0.5666666666666667
 50
0
  1
ＧＲＳＫ－２０Ｋ３００－Ｃ
  0
TEXT
  8
_0-7_枠細線
 62
    5
 10
929.75000000000045
 20
228.73352999148577
 40
15
 41
0.5666666666666667
 50
0
  1
ＧＲＳＫ－２０Ｋ３００－Ｋ
  0
LINE
  8
_0-9_枠極太
  6
CONTINUOUS
 62
    5
 10
60
 20
60
 11
60
 21
960
  0
LINE
  8
_0-9_枠極太
  6
CONTINUOUS
 62
    5
 10
60
 20
960
 11
1425
 21
960
  0
LINE
  8
_0-9_枠極太
  6
CONTINUOUS
 62
    5
 10
1425
 20
960
 11
1425
 21
60
  0
LINE
  8
_0-9_枠極太
  6
CONTINUOUS
 62
    5
 10
1425
 20
60
 11
60
 21
60
  0
LINE
  8
_0-7_枠細線
  6
CONTINUOUS
 62
    5
 10
915
 20
926.44233397174685
 11
907.5
 21
941.44233397174685
  0
LINE
  8
_0-7_枠細線
  6
CONTINUOUS
 62
    5
 10
900
 20
926.44233397174685
 11
915
 21
926.44233397174685
  0
LINE
  8
_0-7_枠細線
  6
CONTINUOUS
 62
    5
 10
907.5
 20
941.44233397174685
 11
900
 21
926.44233397174685
  0
TEXT
  8
_0-7_枠細線
 62
    5
 10
1180
 20
927.5
 40
12.5
 41
0.7199999999999999
 50
0
  1
２０１９．０９．０１
  0
TEXT
  8
_0-7_枠細線
 62
    5
 10
938.85037037037023
 20
927.5
 40
12.5
 41
1
 50
0
  1
アンカー材質･厚み変更
  0
TEXT
  8
_0-7_枠細線
 62
    5
 10
902.36515126814822
 20
925.49351400689704
 40
12.5
 41
0.8
 50
0
  1
１
  0
LINE
  8
_0-7_枠細線
  6
CONTINUOUS
 62
    5
 10
1425
 20
907.5
 11
890
 21
907.5
  0
LINE
  8
_0-7_枠細線
  6
CONTINUOUS
 62
    5
 10
1425
 20
890
 11
890
 21
890
  0
TEXT
  8
_0-7_枠細線
 62
    5
 10
902.36515126814822
 20
908.63533172636664
 40
12.5
 41
0.8
 50
0
  1
２
  0
LINE
  8
_0-7_枠細線
  6
CONTINUOUS
 62
    5
 10
907.5
 20
923.94233397174685
 11
900
 21
908.94233397174685
  0
LINE
  8
_0-7_枠細線
  6
CONTINUOUS
 62
    5
 10
900
 20
908.94233397174685
 11
915
 21
908.94233397174685
  0
LINE
  8
_0-7_枠細線
  6
CONTINUOUS
 62
    5
 10
915
 20
908.94233397174685
 11
907.5
 21
923.94233397174685
  0
TEXT
  8
_0-7_枠細線
 62
    5
 10
902.36515126814822
 20
890.89465008156549
 40
12.5
 41
0.8
 50
0
  1
３
  0
LINE
  8
_0-7_枠細線
  6
CONTINUOUS
 62
    5
 10
907.5
 20
906.44233397174685
 11
900
 21
891.44233397174685
  0
LINE
  8
_0-7_枠細線
  6
CONTINUOUS
 62
    5
 10
900
 20
891.44233397174685
 11
915
 21
891.44233397174685
  0
LINE
  8
_0-7_枠細線
  6
CONTINUOUS
 62
    5
 10
915
 20
891.44233397174685
 11
907.5
 21
906.44233397174685
  0
LINE
  8
_0-7_枠細線
  6
CONTINUOUS
 62
    5
 10
1275
 20
890
 11
1275
 21
959.99999999999909
  0
LINE
  8
_0-7_枠細線
  6
CONTINUOUS
 62
    5
 10
1175
 20
890
 11
1175
 21
959.99999999999909
  0
LINE
  8
_0-7_枠細線
  6
CONTINUOUS
 62
    5
 10
925
 20
890
 11
925
 21
959.99999999999909
  0
LINE
  8
_0-7_枠細線
  6
CONTINUOUS
 62
    5
 10
890
 20
890
 11
890
 21
959.99999999999909
  0
TEXT
  8
_0-7_枠細線
 62
    5
 10
1059.0000000000005
 20
403.73352999148574
 40
15
 41
0.8000000000000001
 50
0
  1
ライトグレー
  0
TEXT
  8
_0-7_枠細線
 62
    5
 10
1071.0000000000005
 20
428.73352999148574
 40
15
 41
0.8000000000000001
 50
0
  1
ベージュ
  0
TEXT
  8
_0-7_枠細線
 62
    5
 10
1071.0000000000005
 20
378.73352999148574
 40
15
 41
0.8000000000000001
 50
0
  1
ホワイト
  0
TEXT
  8
_0-7_枠細線
 62
    5
 10
1077.0000000000005
 20
353.73352999148574
 40
15
 41
0.8000000000000001
 50
0
  1
ピンク
  0
TEXT
  8
_0-7_枠細線
 62
    5
 10
1077.0000000000005
 20
328.73352999148574
 40
15
 41
0.8000000000000001
 50
0
  1
ブルー
  0
TEXT
  8
_0-7_枠細線
 62
    5
 10
1059.0000000000005
 20
303.73352999148568
 40
15
 41
0.8000000000000001
 50
0
  1
ダークグレー
  0
TEXT
  8
_0-7_枠細線
 62
    5
 10
1077.0000000000005
 20
278.73352999148568
 40
15
 41
0.8000000000000001
 50
0
  1
ウッド
  0
TEXT
  8
_0-7_枠細線
 62
    5
 10
1071.0000000000005
 20
228.73352999148568
 40
15
 41
0.8000000000000001
 50
0
  1
ブラック
  0
TEXT
  8
_0-7_枠細線
 62
    5
 10
1071.0000000000005
 20
253.73352999148568
 40
15
 41
0.8000000000000001
 50
0
  1
ブラウン
  0
CIRCLE
  8
_0-0_計極細
  6
CONTINUOUS
 62
    2
 10
1288.7900349454544
 20
670.25026196797398
 40
0.3318518518518431
  0
LINE
  8
_0-0_計極細
  6
CONTINUOUS
 62
    2
 10
1286.3976690451429
 20
663.40010808252282
 11
1295.3976690451429
 21
663.40010808252282
  0
LINE
  8
_0-0_計極細
  6
CENTER1
 62
    2
 10
1290.8976690451432
 20
631.98272710286165
 11
1290.8976690451432
 21
665.96554018128859
  0
LINE
  8
_0-0_計極細
  6
CONTINUOUS
 62
    2
 10
1295.3976690451429
 20
663.40010808252282
 11
1295.3976690451429
 21
636.94877127353334
  0
LINE
  8
_0-0_計極細
  6
CONTINUOUS
 62
    2
 10
1286.3976690451429
 20
636.94877127353334
 11
1286.3976690451429
 21
663.40010808252282
  0
LINE
  8
_0-0_計極細
  6
CENTER1
 62
    2
 10
1302.0940606575955
 20
655.02423074055423
 11
1263.6754483680559
 21
669.00746203157519
  0
LINE
  8
_0-0_計極細
  6
CONTINUOUS
 62
    2
 10
1297.5817099774345
 20
651.87779197103532
 11
1264.507103083226
 21
663.91596439058321
  0
LINE
  8
_0-0_計極細
  6
CONTINUOUS
 62
    2
 10
1300.6598912673655
 20
660.33502555810855
 11
1267.5852843731566
 21
672.37319797765645
  0
LINE
  8
_0-0_計極細
  6
CONTINUOUS
 62
    2
 10
1267.5852843731566
 20
672.37319797765645
 11
1264.507103083226
 21
663.91596439058321
  0
LINE
  8
_0-0_計極細
  6
CONTINUOUS
 62
    2
 10
1297.5817099774345
 20
651.87779197103532
 11
1300.6598912673655
 21
660.33502555810855
  0
LINE
  8
_0-0_計極細
  6
CENTER1
 62
    2
 10
941.89766904514295
 20
631.98272710286165
 11
941.89766904514295
 21
665.96554018128859
  0
LINE
  8
_0-0_計極細
  6
CONTINUOUS
 62
    2
 10
937.39766904514295
 20
663.40010808252282
 11
937.39766904514295
 21
636.94877127353334
  0
LINE
  8
_0-0_計極細
  6
CONTINUOUS
 62
    2
 10
946.39766904514306
 20
663.40010808252282
 11
937.39766904514295
 21
663.40010808252282
  0
LINE
  8
_0-0_計極細
  6
CONTINUOUS
 62
    2
 10
946.39766904514306
 20
636.94877127353334
 11
946.39766904514306
 21
663.40010808252282
  0
LINE
  8
_0-0_計極細
  6
CENTER1
 62
    2
 10
930.70127743269063
 20
655.02423074055423
 11
969.11988972223014
 21
669.00746203157519
  0
LINE
  8
_0-0_計極細
  6
CONTINUOUS
 62
    2
 10
935.21362811285167
 20
651.87779197103532
 11
968.28823500706062
 21
663.91596439058321
  0
LINE
  8
_0-0_計極細
  6
CONTINUOUS
 62
    2
 10
932.13544682292081
 20
660.33502555810855
 11
965.21005371712988
 21
672.37319797765645
  0
LINE
  8
_0-0_計極細
  6
CONTINUOUS
 62
    2
 10
965.21005371712988
 20
672.37319797765645
 11
968.28823500706062
 21
663.91596439058321
  0
LINE
  8
_0-0_計極細
  6
CONTINUOUS
 62
    2
 10
935.21362811285167
 20
651.87779197103532
 11
932.13544682292081
 21
660.33502555810855
  0
CIRCLE
  8
_0-0_計極細
  6
CONTINUOUS
 62
    2
 10
1247.1578127232324
 20
630.36007678278884
 40
1.0953188836088352
  0
CIRCLE
  8
_0-0_計極細
  6
CONTINUOUS
 62
    2
 10
1245.3889238343434
 20
673.93341011612233
 40
1.0953188836088352
  0
CIRCLE
  8
_0-0_計極細
  6
CONTINUOUS
 62
    2
 10
1245.7722571676773
 20
634.3613730790853
 40
0.3318518518518431
  0
CIRCLE
  8
_0-0_計極細
  6
CONTINUOUS
 62
    2
 10
1244.988306550393
 20
657.91470641241847
 40
0.3318518518518431
  0
LINE
  8
_0-0_計極細
  6
CONTINUOUS
 62
    2
 10
1241.3976690451429
 20
681.94877127353334
 11
1241.3976690451429
 21
621.20381109666573
  0
LINE
  8
_0-0_計極細
  6
CONTINUOUS
 62
    2
 10
1241.8976690451429
 20
681.94877127353334
 11
1241.3976690451429
 21
681.94877127353334
  0
CIRCLE
  8
_0-0_計極細
  6
CONTINUOUS
 62
    2
 10
1283.3944793898986
 20
696.66803974575134
 40
0.3318518518518431
  0
CIRCLE
  8
_0-0_計極細
  6
CONTINUOUS
 62
    2
 10
1296.1944793898983
 20
689.27674344945547
 40
1.0953188836088352
  0
CIRCLE
  8
_0-0_計極細
  6
CONTINUOUS
 62
    2
 10
1296.1144793898982
 20
693.06803974575132
 40
0.3318518518518431
  0
CIRCLE
  8
_0-0_計極細
  6
CONTINUOUS
 62
    2
 10
1305.314479389898
 20
696.63674344945503
 40
1.0953188836088352
  0
CIRCLE
  8
_0-0_計極細
  6
CONTINUOUS
 62
    2
 10
1298.5144793898983
 20
697.78803974575112
 40
0.3318518518518431
  0
CIRCLE
  8
_0-0_計極細
  6
CONTINUOUS
 62
    2
 10
1314.5944793898982
 20
696.10803974575128
 40
0.3318518518518431
  0
CIRCLE
  8
_0-0_計極細
  6
CONTINUOUS
 62
    2
 10
1324.6744793898981
 20
696.10803974575128
 40
0.3318518518518431
  0
CIRCLE
  8
_0-0_計極細
  6
CONTINUOUS
 62
    2
 10
1249.9715164269367
 20
652.83948687190014
 40
0.3318518518518431
  0
CIRCLE
  8
_0-0_計極細
  6
CONTINUOUS
 62
    2
 10
1249.8515164269363
 20
667.21282020523358
 40
0.3318518518518431
  0
CIRCLE
  8
_0-0_計極細
  6
CONTINUOUS
 62
    2
 10
1308.7302616377356
 20
638.43451201427388
 40
1.0953188836088352
  0
CIRCLE
  8
_0-0_計極細
  6
CONTINUOUS
 62
    2
 10
1280.9711460565652
 20
644.5467434494559
 40
1.0953188836088352
  0
CIRCLE
  8
_0-0_計極細
  6
CONTINUOUS
 62
    2
 10
1259.8511460565658
 20
657.98674344945539
 40
1.0953188836088352
  0
CIRCLE
  8
_0-0_計極細
  6
CONTINUOUS
 62
    2
 10
1253.7178127232326
 20
640.06674344945577
 40
1.0953188836088352
  0
CIRCLE
  8
_0-0_計極細
  6
CONTINUOUS
 62
    2
 10
1295.9544793898986
 20
666.79674344945556
 40
1.0953188836088352
  0
CIRCLE
  8
_0-0_計極細
  6
CONTINUOUS
 62
    2
 10
1276.7544793898987
 20
685.99674344945515
 40
1.0953188836088352
  0
CIRCLE
  8
_0-0_計極細
  6
CONTINUOUS
 62
    2
 10
1310.0078127232316
 20
682.05007678278844
 40
1.0953188836088352
  0
CIRCLE
  8
_0-0_計極細
  6
CONTINUOUS
 62
    2
 10
1319.3944793898979
 20
691.33007678278875
 40
1.0953188836088352
  0
CIRCLE
  8
_0-0_計極細
  6
CONTINUOUS
 62
    2
 10
1322.274479389898
 20
683.06803974575155
 40
0.3318518518518431
  0
CIRCLE
  8
_0-0_計極細
  6
CONTINUOUS
 62
    2
 10
1304.5144793898985
 20
670.34803974575152
 40
0.3318518518518431
  0
CIRCLE
  8
_0-0_計極細
  6
CONTINUOUS
 62
    2
 10
1296.1144793898982
 20
674.66803974575168
 40
0.3318518518518431
  0
CIRCLE
  8
_0-0_計極細
  6
CONTINUOUS
 62
    2
 10
1306.9144793898986
 20
661.94803974575166
 40
0.3318518518518431
  0
CIRCLE
  8
_0-0_計極細
  6
CONTINUOUS
 62
    2
 10
1307.8744793898986
 20
649.46803974575187
 40
0.3318518518518431
  0
CIRCLE
  8
_0-0_計極細
  6
CONTINUOUS
 62
    2
 10
1303.5544793898985
 20
641.06803974575223
 40
0.3318518518518431
  0
CIRCLE
  8
_0-0_計極細
  6
CONTINUOUS
 62
    2
 10
1280.0344793898987
 20
672.98803974575139
 40
0.3318518518518431
  0
CIRCLE
  8
_0-0_計極細
  6
CONTINUOUS
 62
    2
 10
1276.1678127232319
 20
693.65470641241802
 40
0.3318518518518431
  0
CIRCLE
  8
_0-0_計極細
  6
CONTINUOUS
 62
    2
 10
1281.8611460565658
 20
649.24137307908518
 40
0.3318518518518431
  0
CIRCLE
  8
_0-0_計極細
  6
CONTINUOUS
 62
    2
 10
1282.3411460565651
 20
640.44137307908522
 40
0.3318518518518431
  0
CIRCLE
  8
_0-0_計極細
  6
CONTINUOUS
 62
    2
 10
1266.1811460565652
 20
640.28137307908537
 40
0.3318518518518431
  0
CIRCLE
  8
_0-0_計極細
  6
CONTINUOUS
 62
    2
 10
1250.9811460565659
 20
625.24137307908541
 40
0.3318518518518431
  0
CIRCLE
  8
_0-0_計極細
  6
CONTINUOUS
 62
    2
 10
1256.5811460565658
 20
635.96137307908521
 40
0.3318518518518431
  0
CIRCLE
  8
_0-0_計極細
  6
CONTINUOUS
 62
    2
 10
1267.2811460565658
 20
649.94137307908534
 40
0.3318518518518431
  0
CIRCLE
  8
_0-0_計極細
  6
CONTINUOUS
 62
    2
 10
1256.7611460565656
 20
660.15470641241836
 40
0.3318518518518431
  0
CIRCLE
  8
_0-0_計極細
  6
CONTINUOUS
 62
    2
 10
1259.214479389899
 20
675.14137307908516
 40
0.3318518518518431
  0
LINE
  8
_0-0_計極細
  6
CONTINUOUS
 62
    2
 10
1316.3716704938993
 20
621.20381109666573
 11
1329.9043173571365
 21
634.73645795990342
  0
LINE
  8
_0-0_計極細
  6
CONTINUOUS
 62
    2
 10
1273.9452636227061
 20
621.20381109666573
 11
1289.6902237995735
 21
636.94877127353334
  0
LINE
  8
_0-0_計極細
  6
CONTINUOUS
 62
    2
 10
1311.3976690451434
 20
658.65621651910305
 11
1329.9043173326652
 21
677.16286480662507
  0
LINE
  8
_0-0_計極細
  6
CONTINUOUS
 62
    2
 10
1312.1290298067797
 20
621.20381109666573
 11
1329.9043173546893
 21
638.97909864457552
  0
LINE
  8
_0-0_計極細
  6
CONTINUOUS
 62
    2
 10
1269.7026229355868
 20
621.20381109666573
 11
1285.4475831124544
 21
636.94877127353334
  0
LINE
  8
_0-0_計極細
  6
CONTINUOUS
 62
    2
 10
1311.3976690451434
 20
662.89885720622237
 11
1326.4475830047238
 21
677.94877116580312
  0
LINE
  8
_0-0_計極細
  6
CONTINUOUS
 62
    2
 10
1307.8863891196604
 20
621.20381109666573
 11
1329.9043173522421
 21
643.22173932924738
  0
LINE
  8
_0-0_計極細
  6
CONTINUOUS
 62
    2
 10
1265.4599822484672
 20
621.20381109666573
 11
1281.2049424253348
 21
636.94877127353334
  0
LINE
  8
_0-0_計極細
  6
CONTINUOUS
 62
    2
 10
1311.3976690451434
 20
667.14149789334124
 11
1322.2049423479746
 21
677.94877119617286
  0
LINE
  8
_0-0_計極細
  6
CONTINUOUS
 62
    2
 10
1261.3976690451429
 20
636.94877127353334
 11
1261.3976690451429
 21
621.20381109666573
  0
LINE
  8
_0-0_計極細
  6
CONTINUOUS
 62
    2
 10
1311.3976690451434
 20
677.94877127353311
 11
1329.9043173322118
 21
677.94877127353311
  0
LINE
  8
_0-0_計極細
  6
CONTINUOUS
 62
    2
 10
1261.3976690451429
 20
636.94877127353334
 11
1311.3976690451434
 21
636.94877127353334
  0
LINE
  8
_0-0_計極細
  6
CONTINUOUS
 62
    2
 10
1311.3976690451434
 20
677.94877127353311
 11
1311.3976690451434
 21
636.94877127353334
  0
CIRCLE
  8
_0-0_計極細
  6
CONTINUOUS
 62
    2
 10
980.04781272323066
 20
660.89007678278904
 40
1.0953188836088352
  0
CIRCLE
  8
_0-0_計極細
  6
CONTINUOUS
 62
    2
 10
987.47003494545595
 20
625.93717490362769
 40
0.3318518518518431
  0
CIRCLE
  8
_0-0_計極細
  6
CONTINUOUS
 62
    2
 10
986.6700349454552
 20
639.53081752352955
 40
0.3318518518518431
  0
CIRCLE
  8
_0-0_計極細
  6
CONTINUOUS
 62
    2
 10
987.26520855656588
 20
672.35674344945539
 40
1.0953188836088352
  0
LINE
  8
_0-0_計極細
  6
CONTINUOUS
 62
    2
 10
991.39766904514306
 20
681.94877127353334
 11
991.39766904514306
 21
621.20381109666573
  0
LINE
  8
_0-0_計極細
  6
CONTINUOUS
 62
    2
 10
990.89766904514306
 20
681.94877127353334
 11
991.39766904514306
 21
681.94877127353334
  0
CIRCLE
  8
_0-0_計極細
  6
CONTINUOUS
 62
    2
 10
907.71229317772509
 20
690.97007678278851
 40
1.0953188836088352
  0
CIRCLE
  8
_0-0_計極細
  6
CONTINUOUS
 62
    2
 10
943.66114605656719
 20
694.96415085686249
 40
0.3318518518518431
  0
CIRCLE
  8
_0-0_計極細
  6
CONTINUOUS
 62
    2
 10
980.38114605656642
 20
628.75674344945583
 40
1.0953188836088352
  0
CIRCLE
  8
_0-0_計極細
  6
CONTINUOUS
 62
    2
 10
977.50114605656631
 20
639.95674344945564
 40
1.0953188836088352
  0
CIRCLE
  8
_0-0_計極細
  6
CONTINUOUS
 62
    2
 10
955.91447938989972
 20
642.1167434494555
 40
1.0953188836088352
  0
CIRCLE
  8
_0-0_計極細
  6
CONTINUOUS
 62
    2
 10
923.99447938990022
 20
649.79674344945579
 40
1.0953188836088352
  0
CIRCLE
  8
_0-0_計極細
  6
CONTINUOUS
 62
    2
 10
935.75447938990033
 20
672.59674344945506
 40
1.0953188836088352
  0
CIRCLE
  8
_0-0_計極細
  6
CONTINUOUS
 62
    2
 10
919.8305409023726
 20
690.43451201427411
 40
1.0953188836088352
  0
CIRCLE
  8
_0-0_計極細
  6
CONTINUOUS
 62
    2
 10
950.88781272323354
 20
686.27674344945535
 40
1.0953188836088352
  0
CIRCLE
  8
_0-0_計極細
  6
CONTINUOUS
 62
    2
 10
963.06114605656671
 20
673.08637307908498
 40
0.3318518518518431
  0
CIRCLE
  8
_0-0_計極細
  6
CONTINUOUS
 62
    2
 10
984.20781272323325
 20
655.24637307908506
 40
0.3318518518518431
  0
CIRCLE
  8
_0-0_計極細
  6
CONTINUOUS
 62
    2
 10
983.88781272323308
 20
666.01970641241815
 40
0.3318518518518431
  0
CIRCLE
  8
_0-0_計極細
  6
CONTINUOUS
 62
    2
 10
974.82114605656648
 20
671.99303974575173
 40
0.3318518518518431
  0
CIRCLE
  8
_0-0_計極細
  6
CONTINUOUS
 62
    2
 10
965.96781272323358
 20
651.51303974575194
 40
0.3318518518518431
  0
CIRCLE
  8
_0-0_計極細
  6
CONTINUOUS
 62
    2
 10
975.96781272323358
 20
625.34415085686305
 40
0.3318518518518431
  0
CIRCLE
  8
_0-0_計極細
  6
CONTINUOUS
 62
    2
 10
980.12781272323332
 20
634.30415085686286
 40
0.3318518518518431
  0
CIRCLE
  8
_0-0_計極細
  6
CONTINUOUS
 62
    2
 10
971.91447938990018
 20
643.2641508568629
 40
0.3318518518518431
  0
CIRCLE
  8
_0-0_計極細
  6
CONTINUOUS
 62
    2
 10
964.12781272323343
 20
641.34415085686317
 40
0.3318518518518431
  0
CIRCLE
  8
_0-0_計極細
  6
CONTINUOUS
 62
    2
 10
952.18114605656706
 20
640.70415085686318
 40
0.3318518518518431
  0
CIRCLE
  8
_0-0_計極細
  6
CONTINUOUS
 62
    2
 10
950.58114605656669
 20
647.74415085686303
 40
0.3318518518518431
  0
CIRCLE
  8
_0-0_計極細
  6
CONTINUOUS
 62
    2
 10
957.30114605656695
 20
651.05081752352976
 40
0.3318518518518431
  0
CIRCLE
  8
_0-0_計極細
  6
CONTINUOUS
 62
    2
 10
933.72114605656702
 20
640.31748419019652
 40
0.3318518518518431
  0
CIRCLE
  8
_0-0_計極細
  6
CONTINUOUS
 62
    2
 10
929.98781272323356
 20
645.4374841901963
 40
0.3318518518518431
  0
CIRCLE
  8
_0-0_計極細
  6
CONTINUOUS
 62
    2
 10
924.76114605656699
 20
641.38415085686302
 40
0.3318518518518431
  0
CIRCLE
  8
_0-0_計極細
  6
CONTINUOUS
 62
    2
 10
928.1744793899004
 20
652.15748419019621
 40
0.3318518518518431
  0
CIRCLE
  8
_0-0_計極細
  6
CONTINUOUS
 62
    2
 10
936.41447938990063
 20
664.05081752352953
 40
0.3318518518518431
  0
CIRCLE
  8
_0-0_計極細
  6
CONTINUOUS
 62
    2
 10
945.26781272323319
 20
672.15748419019621
 40
0.3318518518518431
  0
CIRCLE
  8
_0-0_計極細
  6
CONTINUOUS
 62
    2
 10
952.84114605656691
 20
675.57081752352929
 40
0.3318518518518431
  0
CIRCLE
  8
_0-0_計極細
  6
CONTINUOUS
 62
    2
 10
937.80114605656706
 20
677.81081752352929
 40
0.3318518518518431
  0
CIRCLE
  8
_0-0_計極細
  6
CONTINUOUS
 62
    2
 10
925.53447938990064
 20
678.55748419019574
 40
0.3318518518518431
  0
CIRCLE
  8
_0-0_計極細
  6
CONTINUOUS
 62
    2
 10
934.80781272323372
 20
694.85748419019603
 40
0.3318518518518431
  0
CIRCLE
  8
_0-0_計極細
  6
CONTINUOUS
 62
    2
 10
941.84781272323357
 20
685.89748419019588
 40
0.3318518518518431
  0
CIRCLE
  8
_0-0_計極細
  6
CONTINUOUS
 62
    2
 10
956.78114605656663
 20
686.21748419019605
 40
0.3318518518518431
  0
CIRCLE
  8
_0-0_計極細
  6
CONTINUOUS
 62
    2
 10
953.36781272323367
 20
695.92415085686252
 40
0.3318518518518431
  0
CIRCLE
  8
_0-0_計極細
  6
CONTINUOUS
 62
    2
 10
921.36781272323401
 20
682.91081752352954
 40
0.3318518518518431
  0
CIRCLE
  8
_0-0_計極細
  6
CONTINUOUS
 62
    2
 10
907.43003494545633
 20
681.09748419019627
 40
0.3318518518518431
  0
CIRCLE
  8
_0-0_計極細
  6
CONTINUOUS
 62
    2
 10
913.62855346397453
 20
687.07081752352906
 40
0.3318518518518431
  0
LINE
  8
_0-0_計極細
  6
CONTINUOUS
 62
    2
 10
948.94448430614898
 20
621.20381116652788
 11
964.68944441315466
 21
636.94877127353334
  0
LINE
  8
_0-0_計極細
  6
CONTINUOUS
 62
    2
 10
906.51807756696439
 20
621.20381129853604
 11
922.26303754196147
 21
636.94877127353334
  0
LINE
  8
_0-0_計極細
  6
CONTINUOUS
 62
    2
 10
902.89102075807421
 20
660.0031613608387
 11
920.83663067076884
 21
677.94877127353311
  0
LINE
  8
_0-0_計極細
  6
CONTINUOUS
 62
    2
 10
944.70184363223086
 20
621.20381117972875
 11
960.44680372603523
 21
636.94877127353334
  0
LINE
  8
_0-0_計極細
  6
CONTINUOUS
 62
    2
 10
902.89102075807421
 20
621.81939517676528
 11
921.39766904514306
 21
640.32604346383391
  0
LINE
  8
_0-0_計極細
  6
CONTINUOUS
 62
    2
 10
902.89102075807421
 20
664.24580204795802
 11
916.59398998364964
 21
677.94877127353311
  0
LINE
  8
_0-0_計極細
  6
CONTINUOUS
 62
    2
 10
940.45920295831206
 20
621.20381119292938
 11
956.20416303891602
 21
636.94877127353334
  0
LINE
  8
_0-0_計極細
  6
CONTINUOUS
 62
    2
 10
902.89102075807421
 20
626.06203586388415
 11
921.39766904514306
 21
644.56868415095323
  0
LINE
  8
_0-0_計極細
  6
CONTINUOUS
 62
    2
 10
902.89102075807421
 20
668.48844273507711
 11
912.35134929653009
 21
677.94877127353311
  0
LINE
  8
_0-0_計極細
  6
CONTINUOUS
 62
    2
 10
971.39766904514306
 20
636.94877127353334
 11
971.39766904514306
 21
621.20381109666573
  0
LINE
  8
_0-0_計極細
  6
CONTINUOUS
 62
    2
 10
921.39766904514306
 20
677.94877127353311
 11
902.89102075807421
 21
677.94877127353311
  0
LINE
  8
_0-0_計極細
  6
CONTINUOUS
 62
    2
 10
971.39766904514306
 20
636.94877127353334
 11
921.39766904514306
 21
636.94877127353334
  0
LINE
  8
_0-0_計極細
  6
CONTINUOUS
 62
    2
 10
921.39766904514306
 20
677.94877127353311
 11
921.39766904514306
 21
636.94877127353334
  0
LINE
  8
_0-5_寸法線
  6
CONTINUOUS
 62
    7
 10
950.19766904514313
 20
681.94877127353334
 11
872.16437521994965
 21
681.94877127353368
  0
LINE
  8
_0-5_寸法線
  6
CONTINUOUS
 62
    7
 10
877.16437521994965
 20
681.94877127353368
 11
879.75256567097472
 21
672.28951301064285
  0
LINE
  8
_0-5_寸法線
  6
CONTINUOUS
 62
    7
 10
877.16437521994965
 20
681.94877127353368
 11
874.57618476892435
 21
672.28951301064285
  0
LINE
  8
_0-5_寸法線
  6
CONTINUOUS
 62
    7
 10
950.19766904514313
 20
658.94877127353357
 11
872.16437521994965
 21
658.94877127353357
  0
LINE
  8
_0-5_寸法線
  6
CONTINUOUS
 62
    7
 10
877.16437521994965
 20
658.94877127353357
 11
874.57618476892435
 21
668.60802953642428
  0
LINE
  8
_0-5_寸法線
  6
CONTINUOUS
 62
    7
 10
877.16437521994965
 20
658.94877127353357
 11
879.75256567097472
 21
668.60802953642428
  0
LINE
  8
_0-5_寸法線
  6
CONTINUOUS
 62
    7
 10
877.16437521994965
 20
681.94877127353368
 11
877.16437521994965
 21
658.94877127353357
  0
TEXT
  8
_0-5_寸法線
 62
    7
 10
877.16437521994965
 20
662.94877127353357
 40
15
 41
1
 50
90
  1
23
  0
LINE
  8
_0-0_計極細
  6
CONTINUOUS
 62
    2
 10
1317.4711522853252
 20
697.94877127353334
 11
1324.4711519092514
 21
704.94877089746001
  0
LINE
  8
_0-0_計極細
  6
CONTINUOUS
 62
    2
 10
1304.743230223967
 20
697.94877127353334
 11
1311.7432299474629
 21
704.94877099702899
  0
LINE
  8
_0-0_計極細
  6
CONTINUOUS
 62
    2
 10
1292.0153081626095
 20
697.94877127353334
 11
1299.0153079856739
 21
704.94877109659785
  0
LINE
  8
_0-0_計極細
  6
CONTINUOUS
 62
    2
 10
1279.2873861012515
 20
697.94877127353334
 11
1286.2873860238856
 21
704.9487711961674
  0
LINE
  8
_0-0_計極細
  6
DASHED2
 62
    2
 10
1323.8351133160038
 20
697.94877127353334
 11
1329.9043173322118
 21
704.01797528974112
  0
LINE
  8
_0-0_計極細
  6
DASHED2
 62
    2
 10
1311.1071912546461
 20
697.94877127353334
 11
1318.1071909283571
 21
704.94877094724461
  0
LINE
  8
_0-0_計極細
  6
DASHED2
 62
    2
 10
1298.3792691932879
 20
697.94877127353334
 11
1305.3792689665688
 21
704.94877104681336
  0
LINE
  8
_0-0_計極細
  6
DASHED2
 62
    2
 10
1285.6513471319304
 20
697.94877127353334
 11
1292.6513470047798
 21
704.94877114638257
  0
LINE
  8
_0-0_計極細
  6
DASHED2
 62
    2
 10
1276.3976690451429
 20
701.42301524810364
 11
1279.9234250429911
 21
704.94877124595178
  0
LINE
  8
_0-0_計極細
  6
CONTINUOUS
 62
    2
 10
1276.3976690451429
 20
700.15022304196805
 11
1274.1962172767082
 21
697.94877127353334
  0
LINE
  8
_0-0_計極細
  6
CONTINUOUS
 62
    2
 10
1276.3976690451429
 20
702.69580745423946
 11
1271.6506328644366
 21
697.94877127353334
  0
LINE
  8
_0-0_計極細
  6
CONTINUOUS
 62
    2
 10
1271.3976690451429
 20
700.24139186651109
 11
1276.105048452165
 21
704.94877127353323
  0
LINE
  8
_0-0_計極細
  6
CONTINUOUS
 62
    2
 10
1271.3976690451429
 20
702.78697627878273
 11
1273.5594640398933
 21
704.94877127353323
  0
LINE
  8
_0-0_計極細
  6
CONTINUOUS
 62
    2
 10
1276.3976690451429
 20
704.04317794783015
 11
1275.4920757194398
 21
704.94877127353323
  0
LINE
  8
_0-0_計極細
  6
CONTINUOUS
 62
    2
 10
1276.3976690451429
 20
701.49759353555839
 11
1272.9464913071681
 21
704.94877127353323
  0
LINE
  8
_0-0_計極細
  6
CONTINUOUS
 62
    2
 10
1276.3976690451429
 20
698.95200912328664
 11
1271.3976690451429
 21
703.95200912328664
  0
LINE
  8
_0-0_計極細
  6
CONTINUOUS
 62
    2
 10
1274.8553224826248
 20
697.94877127353334
 11
1271.3976690451429
 21
701.40642471101546
  0
LINE
  8
_0-0_計極細
  6
CONTINUOUS
 62
    2
 10
1272.3097380703537
 20
697.94877127353334
 11
1271.3976690451429
 21
698.86084029874371
  0
LINE
  8
_0-0_計極細
  6
CONTINUOUS
 62
    2
 10
1271.3976690451429
 20
704.44877127353311
 11
1271.3976690451429
 21
704.94877127353323
  0
LINE
  8
_0-0_計極細
  6
CONTINUOUS
 62
    2
 10
1271.3976690451429
 20
704.94877127353323
 11
1276.3976690451429
 21
704.94877127353323
  0
LINE
  8
_0-0_計極細
  6
CONTINUOUS
 62
    2
 10
1271.3976690451429
 20
697.94877127353334
 11
1329.9043173322118
 21
697.94877127353334
  0
LINE
  8
_0-0_計極細
  6
CONTINUOUS
 62
    2
 10
1276.3976690451429
 20
704.94877127353323
 11
1329.9043173322118
 21
704.94877127353323
  0
LINE
  8
_0-0_計極細
  6
CONTINUOUS
 62
    2
 10
1276.3976690451429
 20
704.94877127353323
 11
1276.3976690451429
 21
697.94877127353334
  0
CIRCLE
  8
_0-0_計極細
  6
CONTINUOUS
 62
    2
 10
943.2078127232337
 20
692.55674344945521
 40
1.0953188836088352
  0
CIRCLE
  8
_0-0_計極細
  6
CONTINUOUS
 62
    2
 10
916.46114605656737
 20
693.53748419019576
 40
0.3318518518518431
  0
CIRCLE
  8
_0-0_計極細
  6
CONTINUOUS
 62
    2
 10
907.43003494545633
 20
693.86933604204796
 40
0.3318518518518431
  0
LINE
  8
_0-0_計極細
  6
CONTINUOUS
 62
    2
 10
951.09647723856438
 20
697.94877126985693
 11
956.39766904514306
 21
703.24996307643505
  0
LINE
  8
_0-0_計極細
  6
CONTINUOUS
 62
    2
 10
938.36855516838
 20
697.94877126103006
 11
945.36855518088328
 21
704.94877127353323
  0
LINE
  8
_0-0_計極細
  6
CONTINUOUS
 62
    2
 10
925.64063309819517
 20
697.94877125220319
 11
932.64063311952509
 21
704.94877127353323
  0
LINE
  8
_0-0_計極細
  6
CONTINUOUS
 62
    2
 10
912.9127110280109
 20
697.94877124337654
 11
919.91271105816736
 21
704.94877127353323
  0
LINE
  8
_0-0_計極細
  6
CONTINUOUS
 62
    2
 10
902.89102075807421
 20
700.65500303479769
 11
907.18478899680974
 21
704.94877127353323
  0
LINE
  8
_0-0_計極細
  6
DASHED2
 62
    2
 10
944.73251620347241
 20
697.94877126544338
 11
951.73251621156237
 21
704.94877127353357
  0
LINE
  8
_0-0_計極細
  6
DASHED2
 62
    2
 10
932.00459413328758
 20
697.94877125661674
 11
939.00459415020418
 21
704.94877127353323
  0
LINE
  8
_0-0_計極細
  6
DASHED2
 62
    2
 10
919.27667206310332
 20
697.94877124779009
 11
926.276672088846
 21
704.94877127353323
  0
LINE
  8
_0-0_計極細
  6
DASHED2
 62
    2
 10
906.54874999291849
 20
697.94877123896322
 11
913.54875002748827
 21
704.94877127353323
  0
LINE
  8
_0-0_計極細
  6
CONTINUOUS
 62
    2
 10
961.27881489132722
 20
697.94877127353334
 11
961.39766904514306
 21
698.06762542734896
  0
LINE
  8
_0-0_計極細
  6
CONTINUOUS
 62
    2
 10
958.73323047905603
 20
697.94877127353334
 11
961.39766904514306
 21
700.61320983962014
  0
LINE
  8
_0-0_計極細
  6
CONTINUOUS
 62
    2
 10
956.39766904514306
 20
698.15879425189178
 11
961.39766904514306
 21
703.15879425189212
  0
LINE
  8
_0-0_計極細
  6
CONTINUOUS
 62
    2
 10
956.39766904514306
 20
700.70437866416341
 11
960.64206165451264
 21
704.94877127353323
  0
LINE
  8
_0-0_計極細
  6
CONTINUOUS
 62
    2
 10
956.39766904514306
 20
703.24996307643505
 11
958.09647724224101
 21
704.94877127353323
  0
LINE
  8
_0-0_計極細
  6
CONTINUOUS
 62
    2
 10
961.39766904514306
 20
703.58019115017805
 11
960.02908892178789
 21
704.94877127353323
  0
LINE
  8
_0-0_計極細
  6
CONTINUOUS
 62
    2
 10
961.39766904514306
 20
701.03460673790653
 11
957.48350450951637
 21
704.94877127353323
  0
LINE
  8
_0-0_計極細
  6
CONTINUOUS
 62
    2
 10
956.39766904514306
 20
703.48902232563535
 11
961.39766904514306
 21
698.48902232563501
  0
LINE
  8
_0-0_計極細
  6
CONTINUOUS
 62
    2
 10
956.39766904514306
 20
700.94343791336337
 11
959.39233568497298
 21
697.94877127353334
  0
LINE
  8
_0-0_計極細
  6
CONTINUOUS
 62
    2
 10
956.39766904514306
 20
698.39785350109196
 11
956.84675127270134
 21
697.94877127353334
  0
LINE
  8
_0-0_計極細
  6
CONTINUOUS
 62
    2
 10
961.39766904514306
 20
704.44877127353311
 11
961.39766904514306
 21
704.94877127353323
  0
LINE
  8
_0-0_計極細
  6
CONTINUOUS
 62
    2
 10
961.39766904514306
 20
704.94877127353323
 11
956.39766904514306
 21
704.94877127353323
  0
LINE
  8
_0-0_計極細
  6
CONTINUOUS
 62
    2
 10
961.39766904514306
 20
697.94877127353334
 11
902.89102075807421
 21
697.94877127353334
  0
LINE
  8
_0-0_計極細
  6
CONTINUOUS
 62
    2
 10
956.39766904514306
 20
704.94877127353323
 11
902.89102075807421
 21
704.94877127353323
  0
LINE
  8
_0-0_計極細
  6
CONTINUOUS
 62
    2
 10
956.39766904514306
 20
704.94877127353323
 11
956.39766904514306
 21
697.94877127353334
  0
ARC
  8
_0-1_計細線
  6
CONTINUOUS
 62
    3
 10
1268.3976690451432
 20
684.94877127353334
 40
3.0000000000000004
 50
269.99999999999977
 51
359.99999999999966
  0
LINE
  8
_0-1_計細線
  6
CONTINUOUS
 62
    3
 10
1271.3976690451429
 20
684.94877127353334
 11
1271.3976690451429
 21
704.44877127353311
  0
LINE
  8
_0-1_計細線
  6
CONTINUOUS
 62
    3
 10
1268.3976690451432
 20
681.94877127353334
 11
1241.8976690451429
 21
681.94877127353334
  0
LINE
  8
_0-1_計細線
  6
CONTINUOUS
 62
    3
 10
1241.3976690451429
 20
682.44877127353323
 11
1241.8976690451429
 21
681.94877127353334
  0
LINE
  8
_0-1_計細線
  6
CONTINUOUS
 62
    3
 10
1241.3976690451429
 20
684.44877127353311
 11
1241.3976690451429
 21
682.44877127353323
  0
LINE
  8
_0-1_計細線
  6
CONTINUOUS
 62
    3
 10
1241.8976690451429
 20
684.94877127353334
 11
1241.3976690451429
 21
684.44877127353311
  0
LINE
  8
_0-1_計細線
  6
CONTINUOUS
 62
    3
 10
1268.3976690451432
 20
684.94877127353334
 11
1241.8976690451429
 21
684.94877127353334
  0
LINE
  8
_0-1_計細線
  6
CONTINUOUS
 62
    3
 10
1270.8976690451434
 20
704.94877127353323
 11
1271.3976690451429
 21
704.44877127353311
  0
LINE
  8
_0-1_計細線
  6
CONTINUOUS
 62
    3
 10
1268.8976690451429
 20
704.94877127353323
 11
1270.8976690451434
 21
704.94877127353323
  0
LINE
  8
_0-1_計細線
  6
CONTINUOUS
 62
    3
 10
1268.3976690451432
 20
704.44877127353311
 11
1268.8976690451429
 21
704.94877127353323
  0
LINE
  8
_0-1_計細線
  6
CONTINUOUS
 62
    3
 10
1268.3976690451432
 20
684.94877127353334
 11
1268.3976690451432
 21
704.44877127353311
  0
ARC
  8
_0-1_計細線
  6
CONTINUOUS
 62
    3
 10
964.39766904514295
 20
684.94877127353334
 40
3.0000000000000004
 50
179.99999999999983
 51
269.99999999999977
  0
LINE
  8
_0-1_計細線
  6
CONTINUOUS
 62
    3
 10
961.39766904514306
 20
684.94877127353334
 11
961.39766904514306
 21
704.44877127353311
  0
LINE
  8
_0-1_計細線
  6
CONTINUOUS
 62
    3
 10
964.39766904514295
 20
681.94877127353334
 11
990.89766904514306
 21
681.94877127353334
  0
LINE
  8
_0-1_計細線
  6
CONTINUOUS
 62
    3
 10
991.39766904514306
 20
682.44877127353323
 11
990.89766904514306
 21
681.94877127353334
  0
LINE
  8
_0-1_計細線
  6
CONTINUOUS
 62
    3
 10
991.39766904514306
 20
684.44877127353311
 11
991.39766904514306
 21
682.44877127353323
  0
LINE
  8
_0-1_計細線
  6
CONTINUOUS
 62
    3
 10
990.89766904514306
 20
684.94877127353334
 11
991.39766904514306
 21
684.44877127353311
  0
LINE
  8
_0-1_計細線
  6
CONTINUOUS
 62
    3
 10
964.39766904514295
 20
684.94877127353334
 11
990.89766904514306
 21
684.94877127353334
  0
LINE
  8
_0-1_計細線
  6
CONTINUOUS
 62
    3
 10
961.89766904514295
 20
704.94877127353323
 11
961.39766904514306
 21
704.44877127353311
  0
LINE
  8
_0-1_計細線
  6
CONTINUOUS
 62
    3
 10
963.89766904514306
 20
704.94877127353323
 11
961.89766904514295
 21
704.94877127353323
  0
LINE
  8
_0-1_計細線
  6
CONTINUOUS
 62
    3
 10
964.39766904514295
 20
704.44877127353311
 11
963.89766904514306
 21
704.94877127353323
  0
LINE
  8
_0-1_計細線
  6
CONTINUOUS
 62
    3
 10
964.39766904514295
 20
684.94877127353334
 11
964.39766904514295
 21
704.44877127353311
  0
LINE
  8
_0-5_寸法線
  6
CONTINUOUS
 62
    7
 10
892.89102075807421
 20
704.94877127353323
 11
872.16437521994965
 21
704.94877127353323
  0
LINE
  8
_0-5_寸法線
  6
CONTINUOUS
 62
    7
 10
877.16437521994965
 20
704.94877127353323
 11
879.75256567097472
 21
695.28951301064239
  0
LINE
  8
_0-5_寸法線
  6
CONTINUOUS
 62
    7
 10
877.16437521994965
 20
704.94877127353323
 11
874.57618476892435
 21
695.28951301064239
  0
LINE
  8
_0-5_寸法線
  6
CONTINUOUS
 62
    7
 10
950.19766904514313
 20
681.94877127353334
 11
872.16437521994965
 21
681.94877127353368
  0
LINE
  8
_0-5_寸法線
  6
CONTINUOUS
 62
    7
 10
877.16437521994965
 20
681.94877127353368
 11
874.57618476892435
 21
691.60802953642428
  0
LINE
  8
_0-5_寸法線
  6
CONTINUOUS
 62
    7
 10
877.16437521994965
 20
681.94877127353368
 11
879.75256567097472
 21
691.60802953642428
  0
LINE
  8
_0-5_寸法線
  6
CONTINUOUS
 62
    7
 10
877.16437521994965
 20
704.94877127353323
 11
877.16437521994965
 21
681.94877127353368
  0
TEXT
  8
_0-5_寸法線
 62
    7
 10
877.16437521994965
 20
685.94877127353357
 40
15
 41
1
 50
90
  1
23
  0
LINE
  8
_0-0_計極細
  6
CENTER1
 62
    2
 10
1116.3976690451429
 20
675.23727358226324
 11
1116.3976690451429
 21
713.30727358226727
  0
ARC
  8
_0-1_計細線
  6
CONTINUOUS
 62
    3
 10
967.39766904479961
 20
702.94877127353311
 40
1
 50
89.999999999999915
 51
179.99999999999983
  0
ARC
  8
_0-1_計細線
  6
CONTINUOUS
 62
    3
 10
967.86561823612715
 20
704.94877127353288
 40
1
 50
269.99999999999977
 51
330.00000000001364
  0
ARC
  8
_0-1_計細線
  6
CONTINUOUS
 62
    3
 10
969.59766904369587
 20
703.94877127353334
 40
1
 50
89.999999999999915
 51
150.00000000000097
  0
LINE
  8
_0-1_計細線
  6
CONTINUOUS
 62
    3
 10
967.39766904479961
 20
703.94877127353334
 11
967.86561823612715
 21
703.94877127353334
  0
ARC
  8
_0-1_計細線
  6
CONTINUOUS
 62
    3
 10
976.79766904259236
 20
702.94877127353311
 40
1
 50
0
 51
89.999999999999915
  0
ARC
  8
_0-1_計細線
  6
CONTINUOUS
 62
    3
 10
976.32971985126483
 20
704.94877127353288
 40
1
 50
209.99999999998565
 51
269.99999999999977
  0
ARC
  8
_0-1_計細線
  6
CONTINUOUS
 62
    3
 10
974.59766904369587
 20
703.94877127353334
 40
1
 50
29.999999999986002
 51
89.999999999999901
  0
LINE
  8
_0-1_計細線
  6
CONTINUOUS
 62
    3
 10
976.79766904259236
 20
703.94877127353334
 11
976.32971985126483
 21
703.94877127353334
  0
ARC
  8
_0-1_計細線
  6
CONTINUOUS
 62
    3
 10
966.89766904479961
 20
701.54877127353348
 40
0.5
 50
179.99999999999983
 51
269.99999999999977
  0
LINE
  8
_0-1_計細線
  6
CONTINUOUS
 62
    3
 10
966.39766904479973
 20
702.94877127353311
 11
966.39766904479973
 21
701.54877127353348
  0
ARC
  8
_0-1_計細線
  6
CONTINUOUS
 62
    3
 10
977.29766904259236
 20
701.54877127353348
 40
0.5
 50
269.99999999999977
 51
359.99999999999966
  0
LINE
  8
_0-1_計細線
  6
CONTINUOUS
 62
    3
 10
977.79766904259247
 20
702.94877127353311
 11
977.79766904259247
 21
701.54877127353348
  0
ARC
  8
_0-1_計細線
  6
CONTINUOUS
 62
    3
 10
969.39766904479961
 20
700.04877127353348
 40
1
 50
0
 51
89.999999999999915
  0
LINE
  8
_0-1_計細線
  6
CONTINUOUS
 62
    3
 10
969.39766904479961
 20
701.04877127353302
 11
966.89766904479961
 21
701.04877127353302
  0
ARC
  8
_0-1_計細線
  6
CONTINUOUS
 62
    3
 10
974.7976690447997
 20
700.04877127353348
 40
1
 50
89.999999999999915
 51
179.99999999999983
  0
LINE
  8
_0-1_計細線
  6
CONTINUOUS
 62
    3
 10
974.79766904259236
 20
701.04877127353302
 11
977.29766904259236
 21
701.04877127353302
  0
LINE
  8
_0-1_計細線
  6
CONTINUOUS
 62
    3
 10
974.59766904369587
 20
704.94877127353288
 11
969.59766904369587
 21
704.94877127353288
  0
LINE
  8
_0-1_計細線
  6
CONTINUOUS
 62
    3
 10
970.39766904369594
 20
684.94877127353334
 11
970.39766904479961
 21
700.04877127353348
  0
LINE
  8
_0-1_計細線
  6
CONTINUOUS
 62
    3
 10
973.79766904369603
 20
684.94877127353334
 11
973.79766904479982
 21
700.04877127353348
  0
LINE
  8
_0-1_計細線
  6
CONTINUOUS
 62
    3
 10
973.79766904369603
 20
684.94877127353334
 11
970.39766904369594
 21
684.94877127353334
  0
ARC
  8
_0-1_計細線
  6
CONTINUOUS
 62
    3
 10
1255.9976690485526
 20
702.94877127353311
 40
1
 50
89.999999999999915
 51
179.99999999999983
  0
ARC
  8
_0-1_計細線
  6
CONTINUOUS
 62
    3
 10
1256.4656182398801
 20
704.94877127353288
 40
1
 50
269.99999999999977
 51
330.00000000001364
  0
ARC
  8
_0-1_計細線
  6
CONTINUOUS
 62
    3
 10
1258.1976690474489
 20
703.94877127353334
 40
1
 50
89.999999999999915
 51
150.00000000000097
  0
LINE
  8
_0-1_計細線
  6
CONTINUOUS
 62
    3
 10
1255.9976690485526
 20
703.94877127353334
 11
1256.4656182398801
 21
703.94877127353334
  0
ARC
  8
_0-1_計細線
  6
CONTINUOUS
 62
    3
 10
1265.3976690463453
 20
702.94877127353311
 40
1
 50
0
 51
89.999999999999915
  0
ARC
  8
_0-1_計細線
  6
CONTINUOUS
 62
    3
 10
1264.9297198550178
 20
704.94877127353288
 40
1
 50
209.99999999998565
 51
269.99999999999977
  0
ARC
  8
_0-1_計細線
  6
CONTINUOUS
 62
    3
 10
1263.1976690474492
 20
703.94877127353334
 40
1
 50
29.99999999999903
 51
89.999999999999901
  0
LINE
  8
_0-1_計細線
  6
CONTINUOUS
 62
    3
 10
1265.3976690463453
 20
703.94877127353334
 11
1264.9297198550178
 21
703.94877127353334
  0
ARC
  8
_0-1_計細線
  6
CONTINUOUS
 62
    3
 10
1255.4976690485526
 20
701.54877127353348
 40
0.5
 50
179.99999999999983
 51
269.99999999999977
  0
LINE
  8
_0-1_計細線
  6
CONTINUOUS
 62
    3
 10
1254.9976690485526
 20
702.94877127353311
 11
1254.9976690485526
 21
701.54877127353348
  0
ARC
  8
_0-1_計細線
  6
CONTINUOUS
 62
    3
 10
1265.897669046346
 20
701.54877127353348
 40
0.5
 50
269.99999999999977
 51
359.99999999999966
  0
LINE
  8
_0-1_計細線
  6
CONTINUOUS
 62
    3
 10
1266.3976690463455
 20
702.94877127353311
 11
1266.3976690463455
 21
701.54877127353348
  0
ARC
  8
_0-1_計細線
  6
CONTINUOUS
 62
    3
 10
1257.9976690485526
 20
700.04877127353348
 40
1
 50
0
 51
89.999999999999915
  0
LINE
  8
_0-1_計細線
  6
CONTINUOUS
 62
    3
 10
1257.9976690485526
 20
701.04877127353302
 11
1255.4976690485526
 21
701.04877127353302
  0
ARC
  8
_0-1_計細線
  6
CONTINUOUS
 62
    3
 10
1263.3976690485526
 20
700.04877127353348
 40
1
 50
89.999999999999915
 51
179.99999999999983
  0
LINE
  8
_0-1_計細線
  6
CONTINUOUS
 62
    3
 10
1263.3976690463453
 20
701.04877127353302
 11
1265.897669046346
 21
701.04877127353302
  0
LINE
  8
_0-1_計細線
  6
CONTINUOUS
 62
    3
 10
1263.1976690474492
 20
704.94877127353288
 11
1258.1976690474489
 21
704.94877127353288
  0
LINE
  8
_0-1_計細線
  6
CONTINUOUS
 62
    3
 10
1258.9976690474489
 20
684.94877127353334
 11
1258.9976690485526
 21
700.04877127353348
  0
LINE
  8
_0-1_計細線
  6
CONTINUOUS
 62
    3
 10
1262.397669047449
 20
684.94877127353334
 11
1262.3976690485526
 21
700.04877127353348
  0
LINE
  8
_0-1_計細線
  6
CONTINUOUS
 62
    3
 10
1262.397669047449
 20
684.94877127353334
 11
1258.9976690474489
 21
684.94877127353334
  0
ARC
  8
_0-1_計細線
  6
CONTINUOUS
 62
    3
 10
993.59766904190553
 20
702.94877127353311
 40
1
 50
0
 51
89.999999999999915
  0
ARC
  8
_0-1_計細線
  6
CONTINUOUS
 62
    3
 10
993.129719850578
 20
704.94877127353288
 40
1
 50
209.99999999998565
 51
269.99999999999977
  0
ARC
  8
_0-1_計細線
  6
CONTINUOUS
 62
    3
 10
991.39766904300927
 20
703.94877127353334
 40
1
 50
29.99999999999903
 51
89.999999999999901
  0
LINE
  8
_0-1_計細線
  6
CONTINUOUS
 62
    3
 10
993.59766904190553
 20
703.94877127353334
 11
993.129719850578
 21
703.94877127353334
  0
ARC
  8
_0-1_計細線
  6
CONTINUOUS
 62
    3
 10
984.19766904411279
 20
702.94877127353311
 40
1
 50
89.999999999999915
 51
179.99999999999983
  0
ARC
  8
_0-1_計細線
  6
CONTINUOUS
 62
    3
 10
984.66561823544021
 20
704.94877127353288
 40
1
 50
269.99999999999977
 51
330.00000000000057
  0
ARC
  8
_0-1_計細線
  6
CONTINUOUS
 62
    3
 10
986.39766904300882
 20
703.94877127353334
 40
1
 50
89.999999999999915
 51
150.00000000001401
  0
LINE
  8
_0-1_計細線
  6
CONTINUOUS
 62
    3
 10
984.19766904411279
 20
703.94877127353334
 11
984.66561823544021
 21
703.94877127353334
  0
ARC
  8
_0-1_計細線
  6
CONTINUOUS
 62
    3
 10
994.09766904190542
 20
701.54877127353348
 40
0.5
 50
269.99999999999977
 51
359.99999999999966
  0
LINE
  8
_0-1_計細線
  6
CONTINUOUS
 62
    3
 10
994.59766904190542
 20
702.94877127353311
 11
994.59766904190542
 21
701.54877127353348
  0
ARC
  8
_0-1_計細線
  6
CONTINUOUS
 62
    3
 10
983.69766904411279
 20
701.54877127353348
 40
0.5
 50
179.99999999999983
 51
269.99999999999977
  0
LINE
  8
_0-1_計細線
  6
CONTINUOUS
 62
    3
 10
983.19766904411267
 20
702.94877127353311
 11
983.19766904411267
 21
701.54877127353348
  0
ARC
  8
_0-1_計細線
  6
CONTINUOUS
 62
    3
 10
991.59766904190542
 20
700.04877127353348
 40
1
 50
89.999999999999915
 51
179.99999999999983
  0
LINE
  8
_0-1_計細線
  6
CONTINUOUS
 62
    3
 10
991.59766904190542
 20
701.04877127353302
 11
994.09766904190542
 21
701.04877127353302
  0
ARC
  8
_0-1_計細線
  6
CONTINUOUS
 62
    3
 10
986.19766904190544
 20
700.04877127353348
 40
1
 50
0
 51
89.999999999999915
  0
LINE
  8
_0-1_計細線
  6
CONTINUOUS
 62
    3
 10
986.19766904411279
 20
701.04877127353302
 11
983.69766904411279
 21
701.04877127353302
  0
LINE
  8
_0-1_計細線
  6
CONTINUOUS
 62
    3
 10
986.39766904300882
 20
704.94877127353288
 11
991.39766904300927
 21
704.94877127353288
  0
LINE
  8
_0-1_計細線
  6
CONTINUOUS
 62
    3
 10
990.59766904300909
 20
684.94877127353334
 11
990.59766904190553
 21
700.04877127353348
  0
LINE
  8
_0-1_計細線
  6
CONTINUOUS
 62
    3
 10
987.19766904300911
 20
684.94877127353334
 11
987.19766904190533
 21
700.04877127353348
  0
LINE
  8
_0-1_計細線
  6
CONTINUOUS
 62
    3
 10
987.19766904300911
 20
684.94877127353334
 11
990.59766904300909
 21
684.94877127353334
  0
ARC
  8
_0-1_計細線
  6
CONTINUOUS
 62
    3
 10
1010.5976690420773
 20
702.94877127353311
 40
1
 50
0
 51
89.999999999999915
  0
ARC
  8
_0-1_計細線
  6
CONTINUOUS
 62
    3
 10
1010.1297198507498
 20
704.94877127353288
 40
1
 50
209.99999999998565
 51
269.99999999999977
  0
ARC
  8
_0-1_計細線
  6
CONTINUOUS
 62
    3
 10
1008.3976690431808
 20
703.94877127353334
 40
1
 50
29.999999999986002
 51
89.999999999999901
  0
LINE
  8
_0-1_計細線
  6
CONTINUOUS
 62
    3
 10
1010.5976690420773
 20
703.94877127353334
 11
1010.1297198507498
 21
703.94877127353334
  0
ARC
  8
_0-1_計細線
  6
CONTINUOUS
 62
    3
 10
1001.1976690442841
 20
702.94877127353311
 40
1
 50
89.999999999999915
 51
179.99999999999983
  0
ARC
  8
_0-1_計細線
  6
CONTINUOUS
 62
    3
 10
1001.6656182356121
 20
704.94877127353288
 40
1
 50
269.99999999999977
 51
330.00000000000057
  0
ARC
  8
_0-1_計細線
  6
CONTINUOUS
 62
    3
 10
1003.3976690431808
 20
703.94877127353334
 40
1
 50
89.999999999999915
 51
150.00000000001401
  0
LINE
  8
_0-1_計細線
  6
CONTINUOUS
 62
    3
 10
1001.1976690442841
 20
703.94877127353334
 11
1001.6656182356121
 21
703.94877127353334
  0
ARC
  8
_0-1_計細線
  6
CONTINUOUS
 62
    3
 10
1011.0976690420773
 20
701.54877127353348
 40
0.5
 50
269.99999999999977
 51
359.99999999999966
  0
LINE
  8
_0-1_計細線
  6
CONTINUOUS
 62
    3
 10
1011.5976690420774
 20
702.94877127353311
 11
1011.5976690420774
 21
701.54877127353348
  0
ARC
  8
_0-1_計細線
  6
CONTINUOUS
 62
    3
 10
1000.6976690442846
 20
701.54877127353348
 40
0.5
 50
179.99999999999983
 51
269.99999999999977
  0
LINE
  8
_0-1_計細線
  6
CONTINUOUS
 62
    3
 10
1000.1976690442847
 20
702.94877127353311
 11
1000.1976690442847
 21
701.54877127353348
  0
ARC
  8
_0-1_計細線
  6
CONTINUOUS
 62
    3
 10
1008.5976690420773
 20
700.04877127353348
 40
1
 50
89.999999999999915
 51
179.99999999999983
  0
LINE
  8
_0-1_計細線
  6
CONTINUOUS
 62
    3
 10
1008.5976690420773
 20
701.04877127353302
 11
1011.0976690420773
 21
701.04877127353302
  0
ARC
  8
_0-1_計細線
  6
CONTINUOUS
 62
    3
 10
1003.1976690420772
 20
700.04877127353348
 40
1
 50
0
 51
89.999999999999915
  0
LINE
  8
_0-1_計細線
  6
CONTINUOUS
 62
    3
 10
1003.1976690442846
 20
701.04877127353302
 11
1000.6976690442846
 21
701.04877127353302
  0
LINE
  8
_0-1_計細線
  6
CONTINUOUS
 62
    3
 10
1003.3976690431808
 20
704.94877127353288
 11
1008.3976690431808
 21
704.94877127353288
  0
LINE
  8
_0-1_計細線
  6
CONTINUOUS
 62
    3
 10
1007.597669043181
 20
684.94877127353334
 11
1007.5976690420773
 21
700.04877127353348
  0
LINE
  8
_0-1_計細線
  6
CONTINUOUS
 62
    3
 10
1004.1976690431809
 20
684.94877127353334
 11
1004.1976690420773
 21
700.04877127353348
  0
LINE
  8
_0-1_計細線
  6
CONTINUOUS
 62
    3
 10
1004.1976690431809
 20
684.94877127353334
 11
1007.597669043181
 21
684.94877127353334
  0
ARC
  8
_0-1_計細線
  6
CONTINUOUS
 62
    3
 10
1027.5976690422488
 20
702.94877127353311
 40
1
 50
0
 51
89.999999999999915
  0
ARC
  8
_0-1_計細線
  6
CONTINUOUS
 62
    3
 10
1027.1297198509212
 20
704.94877127353288
 40
1
 50
209.99999999999866
 51
269.99999999999977
  0
ARC
  8
_0-1_計細線
  6
CONTINUOUS
 62
    3
 10
1025.3976690433526
 20
703.94877127353334
 40
1
 50
29.999999999986002
 51
89.999999999999901
  0
LINE
  8
_0-1_計細線
  6
CONTINUOUS
 62
    3
 10
1027.5976690422488
 20
703.94877127353334
 11
1027.1297198509212
 21
703.94877127353334
  0
ARC
  8
_0-1_計細線
  6
CONTINUOUS
 62
    3
 10
1018.197669044456
 20
702.94877127353311
 40
1
 50
89.999999999999915
 51
179.99999999999983
  0
ARC
  8
_0-1_計細線
  6
CONTINUOUS
 62
    3
 10
1018.6656182357841
 20
704.94877127353288
 40
1
 50
269.99999999999977
 51
330.00000000000057
  0
ARC
  8
_0-1_計細線
  6
CONTINUOUS
 62
    3
 10
1020.3976690433526
 20
703.94877127353334
 40
1
 50
90.000000000026048
 51
150.00000000001401
  0
LINE
  8
_0-1_計細線
  6
CONTINUOUS
 62
    3
 10
1018.197669044456
 20
703.94877127353334
 11
1018.6656182357841
 21
703.94877127353334
  0
ARC
  8
_0-1_計細線
  6
CONTINUOUS
 62
    3
 10
1028.0976690422492
 20
701.54877127353348
 40
0.5
 50
269.99999999999977
 51
359.99999999999966
  0
LINE
  8
_0-1_計細線
  6
CONTINUOUS
 62
    3
 10
1028.5976690422488
 20
702.94877127353311
 11
1028.5976690422488
 21
701.54877127353348
  0
ARC
  8
_0-1_計細線
  6
CONTINUOUS
 62
    3
 10
1017.697669044456
 20
701.54877127353348
 40
0.5
 50
179.99999999999983
 51
269.99999999999977
  0
LINE
  8
_0-1_計細線
  6
CONTINUOUS
 62
    3
 10
1017.1976690444565
 20
702.94877127353311
 11
1017.1976690444565
 21
701.54877127353348
  0
ARC
  8
_0-1_計細線
  6
CONTINUOUS
 62
    3
 10
1025.597669042249
 20
700.04877127353348
 40
1
 50
89.999999999999915
 51
179.99999999999983
  0
LINE
  8
_0-1_計細線
  6
CONTINUOUS
 62
    3
 10
1025.597669042249
 20
701.04877127353302
 11
1028.0976690422492
 21
701.04877127353302
  0
ARC
  8
_0-1_計細線
  6
CONTINUOUS
 62
    3
 10
1020.1976690422492
 20
700.04877127353348
 40
1
 50
0
 51
89.999999999999915
  0
LINE
  8
_0-1_計細線
  6
CONTINUOUS
 62
    3
 10
1020.1976690444565
 20
701.04877127353302
 11
1017.697669044456
 21
701.04877127353302
  0
LINE
  8
_0-1_計細線
  6
CONTINUOUS
 62
    3
 10
1020.3976690433526
 20
704.94877127353288
 11
1025.3976690433526
 21
704.94877127353288
  0
LINE
  8
_0-1_計細線
  6
CONTINUOUS
 62
    3
 10
1024.5976690433529
 20
684.94877127353334
 11
1024.5976690422488
 21
700.04877127353348
  0
LINE
  8
_0-1_計細線
  6
CONTINUOUS
 62
    3
 10
1021.1976690433523
 20
684.94877127353334
 11
1021.1976690422488
 21
700.04877127353348
  0
LINE
  8
_0-1_計細線
  6
CONTINUOUS
 62
    3
 10
1021.1976690433523
 20
684.94877127353334
 11
1024.5976690433529
 21
684.94877127353334
  0
ARC
  8
_0-1_計細線
  6
CONTINUOUS
 62
    3
 10
1239.1976690483805
 20
702.94877127353311
 40
1
 50
89.999999999999915
 51
179.99999999999983
  0
ARC
  8
_0-1_計細線
  6
CONTINUOUS
 62
    3
 10
1239.6656182397085
 20
704.94877127353288
 40
1
 50
269.99999999999977
 51
330.00000000001364
  0
ARC
  8
_0-1_計細線
  6
CONTINUOUS
 62
    3
 10
1241.3976690472771
 20
703.94877127353334
 40
1
 50
89.999999999999915
 51
150.00000000000097
  0
LINE
  8
_0-1_計細線
  6
CONTINUOUS
 62
    3
 10
1239.1976690483805
 20
703.94877127353334
 11
1239.6656182397085
 21
703.94877127353334
  0
ARC
  8
_0-1_計細線
  6
CONTINUOUS
 62
    3
 10
1248.5976690461737
 20
702.94877127353311
 40
1
 50
0
 51
89.999999999999915
  0
ARC
  8
_0-1_計細線
  6
CONTINUOUS
 62
    3
 10
1248.1297198548461
 20
704.94877127353288
 40
1
 50
209.99999999998565
 51
269.99999999999977
  0
ARC
  8
_0-1_計細線
  6
CONTINUOUS
 62
    3
 10
1246.3976690472771
 20
703.94877127353334
 40
1
 50
29.999999999986002
 51
89.999999999999901
  0
LINE
  8
_0-1_計細線
  6
CONTINUOUS
 62
    3
 10
1248.5976690461737
 20
703.94877127353334
 11
1248.1297198548461
 21
703.94877127353334
  0
ARC
  8
_0-1_計細線
  6
CONTINUOUS
 62
    3
 10
1238.6976690483807
 20
701.54877127353348
 40
0.5
 50
179.99999999999983
 51
269.99999999999977
  0
LINE
  8
_0-1_計細線
  6
CONTINUOUS
 62
    3
 10
1238.1976690483812
 20
702.94877127353311
 11
1238.1976690483812
 21
701.54877127353348
  0
ARC
  8
_0-1_計細線
  6
CONTINUOUS
 62
    3
 10
1249.0976690461737
 20
701.54877127353348
 40
0.5
 50
269.99999999999977
 51
359.99999999999966
  0
LINE
  8
_0-1_計細線
  6
CONTINUOUS
 62
    3
 10
1249.5976690461737
 20
702.94877127353311
 11
1249.5976690461737
 21
701.54877127353348
  0
ARC
  8
_0-1_計細線
  6
CONTINUOUS
 62
    3
 10
1241.1976690483809
 20
700.04877127353348
 40
1
 50
0
 51
89.999999999999915
  0
LINE
  8
_0-1_計細線
  6
CONTINUOUS
 62
    3
 10
1241.1976690483809
 20
701.04877127353302
 11
1238.6976690483807
 21
701.04877127353302
  0
ARC
  8
_0-1_計細線
  6
CONTINUOUS
 62
    3
 10
1246.597669048381
 20
700.04877127353348
 40
1
 50
89.999999999999915
 51
179.99999999999983
  0
LINE
  8
_0-1_計細線
  6
CONTINUOUS
 62
    3
 10
1246.5976690461737
 20
701.04877127353302
 11
1249.0976690461737
 21
701.04877127353302
  0
LINE
  8
_0-1_計細線
  6
CONTINUOUS
 62
    3
 10
1246.3976690472771
 20
704.94877127353288
 11
1241.3976690472771
 21
704.94877127353288
  0
LINE
  8
_0-1_計細線
  6
CONTINUOUS
 62
    3
 10
1242.1976690472773
 20
684.94877127353334
 11
1242.1976690483805
 21
700.04877127353348
  0
LINE
  8
_0-1_計細線
  6
CONTINUOUS
 62
    3
 10
1245.5976690472773
 20
684.94877127353334
 11
1245.5976690483806
 21
700.04877127353348
  0
LINE
  8
_0-1_計細線
  6
CONTINUOUS
 62
    3
 10
1245.5976690472773
 20
684.94877127353334
 11
1242.1976690472773
 21
684.94877127353334
  0
ARC
  8
_0-1_計細線
  6
CONTINUOUS
 62
    3
 10
1222.1976690482086
 20
702.94877127353311
 40
1
 50
89.999999999999915
 51
179.99999999999983
  0
ARC
  8
_0-1_計細線
  6
CONTINUOUS
 62
    3
 10
1222.6656182395366
 20
704.94877127353288
 40
1
 50
269.99999999999977
 51
330.00000000001364
  0
ARC
  8
_0-1_計細線
  6
CONTINUOUS
 62
    3
 10
1224.3976690471056
 20
703.94877127353334
 40
1
 50
89.999999999999915
 51
150.00000000001401
  0
LINE
  8
_0-1_計細線
  6
CONTINUOUS
 62
    3
 10
1222.1976690482086
 20
703.94877127353334
 11
1222.6656182395366
 21
703.94877127353334
  0
ARC
  8
_0-1_計細線
  6
CONTINUOUS
 62
    3
 10
1231.5976690460022
 20
702.94877127353311
 40
1
 50
0
 51
89.999999999999915
  0
ARC
  8
_0-1_計細線
  6
CONTINUOUS
 62
    3
 10
1231.1297198546742
 20
704.94877127353288
 40
1
 50
209.99999999998565
 51
269.99999999999977
  0
ARC
  8
_0-1_計細線
  6
CONTINUOUS
 62
    3
 10
1229.3976690471052
 20
703.94877127353334
 40
1
 50
29.999999999986002
 51
89.999999999999901
  0
LINE
  8
_0-1_計細線
  6
CONTINUOUS
 62
    3
 10
1231.5976690460022
 20
703.94877127353334
 11
1231.1297198546742
 21
703.94877127353334
  0
ARC
  8
_0-1_計細線
  6
CONTINUOUS
 62
    3
 10
1221.697669048209
 20
701.54877127353348
 40
0.5
 50
179.99999999999983
 51
269.99999999999977
  0
LINE
  8
_0-1_計細線
  6
CONTINUOUS
 62
    3
 10
1221.197669048209
 20
702.94877127353311
 11
1221.197669048209
 21
701.54877127353348
  0
ARC
  8
_0-1_計細線
  6
CONTINUOUS
 62
    3
 10
1232.0976690460018
 20
701.54877127353348
 40
0.5
 50
269.99999999999977
 51
359.99999999999966
  0
LINE
  8
_0-1_計細線
  6
CONTINUOUS
 62
    3
 10
1232.5976690460018
 20
702.94877127353311
 11
1232.5976690460018
 21
701.54877127353348
  0
ARC
  8
_0-1_計細線
  6
CONTINUOUS
 62
    3
 10
1224.197669048209
 20
700.04877127353348
 40
1
 50
0
 51
89.999999999999915
  0
LINE
  8
_0-1_計細線
  6
CONTINUOUS
 62
    3
 10
1224.197669048209
 20
701.04877127353302
 11
1221.697669048209
 21
701.04877127353302
  0
ARC
  8
_0-1_計細線
  6
CONTINUOUS
 62
    3
 10
1229.5976690482094
 20
700.04877127353348
 40
1
 50
89.999999999999915
 51
179.99999999999983
  0
LINE
  8
_0-1_計細線
  6
CONTINUOUS
 62
    3
 10
1229.5976690460018
 20
701.04877127353302
 11
1232.0976690460018
 21
701.04877127353302
  0
LINE
  8
_0-1_計細線
  6
CONTINUOUS
 62
    3
 10
1229.3976690471052
 20
704.94877127353288
 11
1224.3976690471056
 21
704.94877127353288
  0
LINE
  8
_0-1_計細線
  6
CONTINUOUS
 62
    3
 10
1225.1976690471054
 20
684.94877127353334
 11
1225.1976690482088
 21
700.04877127353348
  0
LINE
  8
_0-1_計細線
  6
CONTINUOUS
 62
    3
 10
1228.5976690471055
 20
684.94877127353334
 11
1228.5976690482091
 21
700.04877127353348
  0
LINE
  8
_0-1_計細線
  6
CONTINUOUS
 62
    3
 10
1228.5976690471055
 20
684.94877127353334
 11
1225.1976690471054
 21
684.94877127353334
  0
ARC
  8
_0-1_計細線
  6
CONTINUOUS
 62
    3
 10
1205.1976690480371
 20
702.94877127353311
 40
1
 50
89.999999999999915
 51
179.99999999999983
  0
ARC
  8
_0-1_計細線
  6
CONTINUOUS
 62
    3
 10
1205.6656182393654
 20
704.94877127353288
 40
1
 50
269.99999999999977
 51
330.00000000000057
  0
ARC
  8
_0-1_計細線
  6
CONTINUOUS
 62
    3
 10
1207.3976690469335
 20
703.94877127353334
 40
1
 50
89.999999999999915
 51
150.00000000000097
  0
LINE
  8
_0-1_計細線
  6
CONTINUOUS
 62
    3
 10
1205.1976690480371
 20
703.94877127353334
 11
1205.6656182393654
 21
703.94877127353334
  0
ARC
  8
_0-1_計細線
  6
CONTINUOUS
 62
    3
 10
1214.5976690458299
 20
702.94877127353311
 40
1
 50
0
 51
89.999999999999915
  0
ARC
  8
_0-1_計細線
  6
CONTINUOUS
 62
    3
 10
1214.1297198545024
 20
704.94877127353288
 40
1
 50
209.99999999999866
 51
269.99999999999977
  0
ARC
  8
_0-1_計細線
  6
CONTINUOUS
 62
    3
 10
1212.3976690469337
 20
703.94877127353334
 40
1
 50
29.999999999986002
 51
89.999999999999901
  0
LINE
  8
_0-1_計細線
  6
CONTINUOUS
 62
    3
 10
1214.5976690458299
 20
703.94877127353334
 11
1214.1297198545024
 21
703.94877127353334
  0
ARC
  8
_0-1_計細線
  6
CONTINUOUS
 62
    3
 10
1204.6976690480371
 20
701.54877127353348
 40
0.5
 50
179.99999999999983
 51
269.99999999999977
  0
LINE
  8
_0-1_計細線
  6
CONTINUOUS
 62
    3
 10
1204.1976690480376
 20
702.94877127353311
 11
1204.1976690480376
 21
701.54877127353348
  0
ARC
  8
_0-1_計細線
  6
CONTINUOUS
 62
    3
 10
1215.0976690458306
 20
701.54877127353348
 40
0.5
 50
269.99999999999977
 51
359.99999999999966
  0
LINE
  8
_0-1_計細線
  6
CONTINUOUS
 62
    3
 10
1215.5976690458301
 20
702.94877127353311
 11
1215.5976690458301
 21
701.54877127353348
  0
ARC
  8
_0-1_計細線
  6
CONTINUOUS
 62
    3
 10
1207.1976690480376
 20
700.04877127353348
 40
1
 50
0
 51
89.999999999999915
  0
LINE
  8
_0-1_計細線
  6
CONTINUOUS
 62
    3
 10
1207.1976690480376
 20
701.04877127353302
 11
1204.6976690480371
 21
701.04877127353302
  0
ARC
  8
_0-1_計細線
  6
CONTINUOUS
 62
    3
 10
1212.5976690480372
 20
700.04877127353348
 40
1
 50
89.999999999999915
 51
179.99999999999983
  0
LINE
  8
_0-1_計細線
  6
CONTINUOUS
 62
    3
 10
1212.5976690458299
 20
701.04877127353302
 11
1215.0976690458306
 21
701.04877127353302
  0
LINE
  8
_0-1_計細線
  6
CONTINUOUS
 62
    3
 10
1212.3976690469337
 20
704.94877127353288
 11
1207.3976690469335
 21
704.94877127353288
  0
LINE
  8
_0-1_計細線
  6
CONTINUOUS
 62
    3
 10
1208.1976690469335
 20
684.94877127353334
 11
1208.1976690480371
 21
700.04877127353348
  0
LINE
  8
_0-1_計細線
  6
CONTINUOUS
 62
    3
 10
1211.5976690469342
 20
684.94877127353334
 11
1211.5976690480372
 21
700.04877127353348
  0
LINE
  8
_0-1_計細線
  6
CONTINUOUS
 62
    3
 10
1211.5976690469342
 20
684.94877127353334
 11
1208.1976690469335
 21
684.94877127353334
  0
ARC
  8
_0-1_計細線
  6
CONTINUOUS
 62
    3
 10
1035.1976690451609
 20
702.94877127353311
 40
1
 50
89.999999999999915
 51
179.99999999999983
  0
ARC
  8
_0-1_計細線
  6
CONTINUOUS
 62
    3
 10
1035.6656182364891
 20
704.94877127353288
 40
1
 50
269.99999999999977
 51
330.00000000000057
  0
ARC
  8
_0-1_計細線
  6
CONTINUOUS
 62
    3
 10
1037.3976690440575
 20
703.94877127353334
 40
1
 50
89.999999999999915
 51
150.00000000001401
  0
LINE
  8
_0-1_計細線
  6
CONTINUOUS
 62
    3
 10
1035.1976690451609
 20
703.94877127353334
 11
1035.6656182364891
 21
703.94877127353334
  0
ARC
  8
_0-1_計細線
  6
CONTINUOUS
 62
    3
 10
1044.5976690429541
 20
702.94877127353311
 40
1
 50
0
 51
89.999999999999915
  0
ARC
  8
_0-1_計細線
  6
CONTINUOUS
 62
    3
 10
1044.1297198516265
 20
704.94877127353288
 40
1
 50
209.99999999998565
 51
269.99999999999977
  0
ARC
  8
_0-1_計細線
  6
CONTINUOUS
 62
    3
 10
1042.3976690440575
 20
703.94877127353334
 40
1
 50
29.999999999986002
 51
89.999999999999901
  0
LINE
  8
_0-1_計細線
  6
CONTINUOUS
 62
    3
 10
1044.5976690429541
 20
703.94877127353334
 11
1044.1297198516265
 21
703.94877127353334
  0
ARC
  8
_0-1_計細線
  6
CONTINUOUS
 62
    3
 10
1034.6976690451613
 20
701.54877127353348
 40
0.5
 50
179.99999999999983
 51
269.99999999999977
  0
LINE
  8
_0-1_計細線
  6
CONTINUOUS
 62
    3
 10
1034.1976690451613
 20
702.94877127353311
 11
1034.1976690451613
 21
701.54877127353348
  0
ARC
  8
_0-1_計細線
  6
CONTINUOUS
 62
    3
 10
1045.0976690429543
 20
701.54877127353348
 40
0.5
 50
269.99999999999977
 51
359.99999999999966
  0
LINE
  8
_0-1_計細線
  6
CONTINUOUS
 62
    3
 10
1045.5976690429541
 20
702.94877127353311
 11
1045.5976690429541
 21
701.54877127353348
  0
ARC
  8
_0-1_計細線
  6
CONTINUOUS
 62
    3
 10
1037.1976690451613
 20
700.04877127353348
 40
1
 50
0
 51
89.999999999999915
  0
LINE
  8
_0-1_計細線
  6
CONTINUOUS
 62
    3
 10
1037.1976690451613
 20
701.04877127353302
 11
1034.6976690451613
 21
701.04877127353302
  0
ARC
  8
_0-1_計細線
  6
CONTINUOUS
 62
    3
 10
1042.597669045161
 20
700.04877127353348
 40
1
 50
89.999999999999915
 51
179.99999999999983
  0
LINE
  8
_0-1_計細線
  6
CONTINUOUS
 62
    3
 10
1042.5976690429536
 20
701.04877127353302
 11
1045.0976690429543
 21
701.04877127353302
  0
LINE
  8
_0-1_計細線
  6
CONTINUOUS
 62
    3
 10
1042.3976690440575
 20
704.94877127353288
 11
1037.3976690440575
 21
704.94877127353288
  0
LINE
  8
_0-1_計細線
  6
CONTINUOUS
 62
    3
 10
1038.1976690440576
 20
684.94877127353334
 11
1038.1976690451609
 21
700.04877127353348
  0
LINE
  8
_0-1_計細線
  6
CONTINUOUS
 62
    3
 10
1041.597669044058
 20
684.94877127353334
 11
1041.5976690451614
 21
700.04877127353348
  0
LINE
  8
_0-1_計細線
  6
CONTINUOUS
 62
    3
 10
1041.597669044058
 20
684.94877127353334
 11
1038.1976690440576
 21
684.94877127353334
  0
ARC
  8
_0-1_計細線
  6
CONTINUOUS
 62
    3
 10
1188.1976690478652
 20
702.94877127353311
 40
1
 50
89.999999999999915
 51
179.99999999999983
  0
ARC
  8
_0-1_計細線
  6
CONTINUOUS
 62
    3
 10
1188.6656182391932
 20
704.94877127353288
 40
1
 50
269.99999999999977
 51
330.00000000001364
  0
ARC
  8
_0-1_計細線
  6
CONTINUOUS
 62
    3
 10
1190.3976690467614
 20
703.94877127353334
 40
1
 50
89.999999999999915
 51
149.99999999998795
  0
LINE
  8
_0-1_計細線
  6
CONTINUOUS
 62
    3
 10
1188.1976690478652
 20
703.94877127353334
 11
1188.6656182391932
 21
703.94877127353334
  0
ARC
  8
_0-1_計細線
  6
CONTINUOUS
 62
    3
 10
1197.597669045658
 20
702.94877127353311
 40
1
 50
0
 51
89.999999999999915
  0
ARC
  8
_0-1_計細線
  6
CONTINUOUS
 62
    3
 10
1197.1297198543309
 20
704.94877127353288
 40
1
 50
209.99999999998565
 51
269.99999999999977
  0
ARC
  8
_0-1_計細線
  6
CONTINUOUS
 62
    3
 10
1195.3976690467618
 20
703.94877127353334
 40
1
 50
29.999999999986002
 51
89.999999999999901
  0
LINE
  8
_0-1_計細線
  6
CONTINUOUS
 62
    3
 10
1197.597669045658
 20
703.94877127353334
 11
1197.1297198543309
 21
703.94877127353334
  0
ARC
  8
_0-1_計細線
  6
CONTINUOUS
 62
    3
 10
1187.6976690478657
 20
701.54877127353348
 40
0.5
 50
179.99999999999983
 51
269.99999999999977
  0
LINE
  8
_0-1_計細線
  6
CONTINUOUS
 62
    3
 10
1187.1976690478659
 20
702.94877127353311
 11
1187.1976690478659
 21
701.54877127353348
  0
ARC
  8
_0-1_計細線
  6
CONTINUOUS
 62
    3
 10
1198.0976690456584
 20
701.54877127353348
 40
0.5
 50
269.99999999999977
 51
359.99999999999966
  0
LINE
  8
_0-1_計細線
  6
CONTINUOUS
 62
    3
 10
1198.5976690456584
 20
702.94877127353311
 11
1198.5976690456584
 21
701.54877127353348
  0
ARC
  8
_0-1_計細線
  6
CONTINUOUS
 62
    3
 10
1190.1976690478657
 20
700.04877127353348
 40
1
 50
0
 51
89.999999999999915
  0
LINE
  8
_0-1_計細線
  6
CONTINUOUS
 62
    3
 10
1190.1976690478657
 20
701.04877127353302
 11
1187.6976690478657
 21
701.04877127353302
  0
ARC
  8
_0-1_計細線
  6
CONTINUOUS
 62
    3
 10
1195.5976690478658
 20
700.04877127353348
 40
1
 50
89.999999999999915
 51
179.99999999999983
  0
LINE
  8
_0-1_計細線
  6
CONTINUOUS
 62
    3
 10
1195.5976690456584
 20
701.04877127353302
 11
1198.0976690456584
 21
701.04877127353302
  0
LINE
  8
_0-1_計細線
  6
CONTINUOUS
 62
    3
 10
1195.3976690467618
 20
704.94877127353288
 11
1190.3976690467614
 21
704.94877127353288
  0
LINE
  8
_0-1_計細線
  6
CONTINUOUS
 62
    3
 10
1191.197669046762
 20
684.94877127353334
 11
1191.1976690478652
 21
700.04877127353348
  0
LINE
  8
_0-1_計細線
  6
CONTINUOUS
 62
    3
 10
1194.5976690467621
 20
684.94877127353334
 11
1194.5976690478653
 21
700.04877127353348
  0
LINE
  8
_0-1_計細線
  6
CONTINUOUS
 62
    3
 10
1194.5976690467621
 20
684.94877127353334
 11
1191.197669046762
 21
684.94877127353334
  0
ARC
  8
_0-1_計細線
  6
CONTINUOUS
 62
    3
 10
1052.1976690451613
 20
702.94877127353311
 40
1
 50
89.999999999999915
 51
179.99999999999983
  0
ARC
  8
_0-1_計細線
  6
CONTINUOUS
 62
    3
 10
1052.6656182364889
 20
704.94877127353288
 40
1
 50
269.99999999999977
 51
330.00000000001364
  0
ARC
  8
_0-1_計細線
  6
CONTINUOUS
 62
    3
 10
1054.3976690440577
 20
703.94877127353334
 40
1
 50
89.999999999999915
 51
150.00000000000097
  0
LINE
  8
_0-1_計細線
  6
CONTINUOUS
 62
    3
 10
1052.1976690451613
 20
703.94877127353334
 11
1052.6656182364889
 21
703.94877127353334
  0
ARC
  8
_0-1_計細線
  6
CONTINUOUS
 62
    3
 10
1061.5976690429541
 20
702.94877127353311
 40
1
 50
0
 51
89.999999999999915
  0
ARC
  8
_0-1_計細線
  6
CONTINUOUS
 62
    3
 10
1061.1297198516265
 20
704.94877127353288
 40
1
 50
209.99999999998565
 51
269.99999999999977
  0
ARC
  8
_0-1_計細線
  6
CONTINUOUS
 62
    3
 10
1059.3976690440577
 20
703.94877127353334
 40
1
 50
29.999999999986002
 51
89.999999999973952
  0
LINE
  8
_0-1_計細線
  6
CONTINUOUS
 62
    3
 10
1061.5976690429541
 20
703.94877127353334
 11
1061.1297198516265
 21
703.94877127353334
  0
ARC
  8
_0-1_計細線
  6
CONTINUOUS
 62
    3
 10
1051.6976690451613
 20
701.54877127353348
 40
0.5
 50
179.99999999999983
 51
269.99999999999977
  0
LINE
  8
_0-1_計細線
  6
CONTINUOUS
 62
    3
 10
1051.1976690451613
 20
702.94877127353311
 11
1051.1976690451613
 21
701.54877127353348
  0
ARC
  8
_0-1_計細線
  6
CONTINUOUS
 62
    3
 10
1062.0976690429541
 20
701.54877127353348
 40
0.5
 50
269.99999999999977
 51
359.99999999999966
  0
LINE
  8
_0-1_計細線
  6
CONTINUOUS
 62
    3
 10
1062.5976690429543
 20
702.94877127353311
 11
1062.5976690429543
 21
701.54877127353348
  0
ARC
  8
_0-1_計細線
  6
CONTINUOUS
 62
    3
 10
1054.1976690451613
 20
700.04877127353348
 40
1
 50
0
 51
89.999999999999915
  0
LINE
  8
_0-1_計細線
  6
CONTINUOUS
 62
    3
 10
1054.1976690451613
 20
701.04877127353302
 11
1051.6976690451613
 21
701.04877127353302
  0
ARC
  8
_0-1_計細線
  6
CONTINUOUS
 62
    3
 10
1059.5976690451614
 20
700.04877127353348
 40
1
 50
89.999999999999915
 51
179.99999999999983
  0
LINE
  8
_0-1_計細線
  6
CONTINUOUS
 62
    3
 10
1059.5976690429541
 20
701.04877127353302
 11
1062.0976690429541
 21
701.04877127353302
  0
LINE
  8
_0-1_計細線
  6
CONTINUOUS
 62
    3
 10
1059.3976690440577
 20
704.94877127353288
 11
1054.3976690440577
 21
704.94877127353288
  0
LINE
  8
_0-1_計細線
  6
CONTINUOUS
 62
    3
 10
1055.1976690440576
 20
684.94877127353334
 11
1055.1976690451613
 21
700.04877127353348
  0
LINE
  8
_0-1_計細線
  6
CONTINUOUS
 62
    3
 10
1058.5976690440577
 20
684.94877127353334
 11
1058.5976690451614
 21
700.04877127353348
  0
LINE
  8
_0-1_計細線
  6
CONTINUOUS
 62
    3
 10
1058.5976690440577
 20
684.94877127353334
 11
1055.1976690440576
 21
684.94877127353334
  0
ARC
  8
_0-1_計細線
  6
CONTINUOUS
 62
    3
 10
1069.1976690455228
 20
702.94877127353311
 40
1
 50
89.999999999999915
 51
179.99999999999983
  0
ARC
  8
_0-1_計細線
  6
CONTINUOUS
 62
    3
 10
1069.6656182368508
 20
704.94877127353288
 40
1
 50
269.99999999999977
 51
330.00000000000057
  0
ARC
  8
_0-1_計細線
  6
CONTINUOUS
 62
    3
 10
1071.3976690444197
 20
703.94877127353334
 40
1
 50
89.999999999999915
 51
150.00000000001401
  0
LINE
  8
_0-1_計細線
  6
CONTINUOUS
 62
    3
 10
1069.1976690455228
 20
703.94877127353334
 11
1069.6656182368508
 21
703.94877127353334
  0
ARC
  8
_0-1_計細線
  6
CONTINUOUS
 62
    3
 10
1078.597669043316
 20
702.94877127353311
 40
1
 50
0
 51
89.999999999999915
  0
ARC
  8
_0-1_計細線
  6
CONTINUOUS
 62
    3
 10
1078.1297198519881
 20
704.94877127353288
 40
1
 50
209.99999999999866
 51
269.99999999999977
  0
ARC
  8
_0-1_計細線
  6
CONTINUOUS
 62
    3
 10
1076.3976690444197
 20
703.94877127353334
 40
1
 50
29.999999999986002
 51
89.999999999999901
  0
LINE
  8
_0-1_計細線
  6
CONTINUOUS
 62
    3
 10
1078.597669043316
 20
703.94877127353334
 11
1078.1297198519881
 21
703.94877127353334
  0
ARC
  8
_0-1_計細線
  6
CONTINUOUS
 62
    3
 10
1068.6976690455233
 20
701.54877127353348
 40
0.5
 50
179.99999999999983
 51
269.99999999999977
  0
LINE
  8
_0-1_計細線
  6
CONTINUOUS
 62
    3
 10
1068.1976690455233
 20
702.94877127353311
 11
1068.1976690455233
 21
701.54877127353348
  0
ARC
  8
_0-1_計細線
  6
CONTINUOUS
 62
    3
 10
1079.097669043316
 20
701.54877127353348
 40
0.5
 50
269.99999999999977
 51
359.99999999999966
  0
LINE
  8
_0-1_計細線
  6
CONTINUOUS
 62
    3
 10
1079.5976690433156
 20
702.94877127353311
 11
1079.5976690433156
 21
701.54877127353348
  0
ARC
  8
_0-1_計細線
  6
CONTINUOUS
 62
    3
 10
1071.1976690455233
 20
700.04877127353348
 40
1
 50
0
 51
89.999999999999915
  0
LINE
  8
_0-1_計細線
  6
CONTINUOUS
 62
    3
 10
1071.1976690455233
 20
701.04877127353302
 11
1068.6976690455233
 21
701.04877127353302
  0
ARC
  8
_0-1_計細線
  6
CONTINUOUS
 62
    3
 10
1076.5976690455229
 20
700.04877127353348
 40
1
 50
89.999999999999915
 51
179.99999999999983
  0
LINE
  8
_0-1_計細線
  6
CONTINUOUS
 62
    3
 10
1076.5976690433156
 20
701.04877127353302
 11
1079.097669043316
 21
701.04877127353302
  0
LINE
  8
_0-1_計細線
  6
CONTINUOUS
 62
    3
 10
1076.3976690444197
 20
704.94877127353288
 11
1071.3976690444197
 21
704.94877127353288
  0
LINE
  8
_0-1_計細線
  6
CONTINUOUS
 62
    3
 10
1072.1976690444192
 20
684.94877127353334
 11
1072.1976690455228
 21
700.04877127353348
  0
LINE
  8
_0-1_計細線
  6
CONTINUOUS
 62
    3
 10
1075.5976690444197
 20
684.94877127353334
 11
1075.5976690455234
 21
700.04877127353348
  0
LINE
  8
_0-1_計細線
  6
CONTINUOUS
 62
    3
 10
1075.5976690444197
 20
684.94877127353334
 11
1072.1976690444192
 21
684.94877127353334
  0
ARC
  8
_0-1_計細線
  6
CONTINUOUS
 62
    3
 10
1086.1976690458848
 20
702.94877127353311
 40
1
 50
89.999999999999915
 51
179.99999999999983
  0
ARC
  8
_0-1_計細線
  6
CONTINUOUS
 62
    3
 10
1086.6656182372124
 20
704.94877127353288
 40
1
 50
269.99999999999977
 51
330.00000000001364
  0
ARC
  8
_0-1_計細線
  6
CONTINUOUS
 62
    3
 10
1088.3976690447817
 20
703.94877127353334
 40
1
 50
89.999999999999915
 51
150.00000000001401
  0
LINE
  8
_0-1_計細線
  6
CONTINUOUS
 62
    3
 10
1086.1976690458848
 20
703.94877127353334
 11
1086.6656182372124
 21
703.94877127353334
  0
ARC
  8
_0-1_計細線
  6
CONTINUOUS
 62
    3
 10
1095.5976690436776
 20
702.94877127353311
 40
1
 50
0
 51
89.999999999999915
  0
ARC
  8
_0-1_計細線
  6
CONTINUOUS
 62
    3
 10
1095.1297198523505
 20
704.94877127353288
 40
1
 50
209.9999999999726
 51
269.99999999999977
  0
ARC
  8
_0-1_計細線
  6
CONTINUOUS
 62
    3
 10
1093.3976690447817
 20
703.94877127353334
 40
1
 50
29.99999999999903
 51
89.999999999999901
  0
LINE
  8
_0-1_計細線
  6
CONTINUOUS
 62
    3
 10
1095.5976690436776
 20
703.94877127353334
 11
1095.1297198523505
 21
703.94877127353334
  0
ARC
  8
_0-1_計細線
  6
CONTINUOUS
 62
    3
 10
1085.6976690458848
 20
701.54877127353348
 40
0.5
 50
179.99999999999983
 51
269.99999999999977
  0
LINE
  8
_0-1_計細線
  6
CONTINUOUS
 62
    3
 10
1085.197669045885
 20
702.94877127353311
 11
1085.197669045885
 21
701.54877127353348
  0
ARC
  8
_0-1_計細線
  6
CONTINUOUS
 62
    3
 10
1096.097669043678
 20
701.54877127353348
 40
0.5
 50
269.99999999999977
 51
359.99999999999966
  0
LINE
  8
_0-1_計細線
  6
CONTINUOUS
 62
    3
 10
1096.5976690436783
 20
702.94877127353311
 11
1096.5976690436783
 21
701.54877127353348
  0
ARC
  8
_0-1_計細線
  6
CONTINUOUS
 62
    3
 10
1088.1976690458848
 20
700.04877127353348
 40
1
 50
0
 51
89.999999999999915
  0
LINE
  8
_0-1_計細線
  6
CONTINUOUS
 62
    3
 10
1088.1976690458848
 20
701.04877127353302
 11
1085.6976690458848
 21
701.04877127353302
  0
ARC
  8
_0-1_計細線
  6
CONTINUOUS
 62
    3
 10
1093.5976690458849
 20
700.04877127353348
 40
1
 50
89.999999999999915
 51
179.99999999999983
  0
LINE
  8
_0-1_計細線
  6
CONTINUOUS
 62
    3
 10
1093.5976690436776
 20
701.04877127353302
 11
1096.097669043678
 21
701.04877127353302
  0
LINE
  8
_0-1_計細線
  6
CONTINUOUS
 62
    3
 10
1093.3976690447817
 20
704.94877127353288
 11
1088.3976690447817
 21
704.94877127353288
  0
LINE
  8
_0-1_計細線
  6
CONTINUOUS
 62
    3
 10
1089.1976690447816
 20
684.94877127353334
 11
1089.1976690458848
 21
700.04877127353348
  0
LINE
  8
_0-1_計細線
  6
CONTINUOUS
 62
    3
 10
1092.5976690447812
 20
684.94877127353334
 11
1092.5976690458851
 21
700.04877127353348
  0
LINE
  8
_0-1_計細線
  6
CONTINUOUS
 62
    3
 10
1092.5976690447812
 20
684.94877127353334
 11
1089.1976690447816
 21
684.94877127353334
  0
ARC
  8
_0-1_計細線
  6
CONTINUOUS
 62
    3
 10
1103.1976690462463
 20
702.94877127353311
 40
1
 50
89.999999999999915
 51
179.99999999999983
  0
ARC
  8
_0-1_計細線
  6
CONTINUOUS
 62
    3
 10
1103.6656182375743
 20
704.94877127353288
 40
1
 50
269.99999999999977
 51
330.00000000000057
  0
ARC
  8
_0-1_計細線
  6
CONTINUOUS
 62
    3
 10
1105.3976690451429
 20
703.94877127353334
 40
1
 50
89.999999999999915
 51
150.00000000001401
  0
LINE
  8
_0-1_計細線
  6
CONTINUOUS
 62
    3
 10
1103.1976690462463
 20
703.94877127353334
 11
1103.6656182375743
 21
703.94877127353334
  0
ARC
  8
_0-1_計細線
  6
CONTINUOUS
 62
    3
 10
1112.5976690440395
 20
702.94877127353311
 40
1
 50
0
 51
89.999999999999915
  0
ARC
  8
_0-1_計細線
  6
CONTINUOUS
 62
    3
 10
1112.129719852712
 20
704.94877127353288
 40
1
 50
209.99999999998565
 51
269.99999999999977
  0
ARC
  8
_0-1_計細線
  6
CONTINUOUS
 62
    3
 10
1110.3976690451429
 20
703.94877127353334
 40
1
 50
29.999999999986002
 51
89.999999999999901
  0
LINE
  8
_0-1_計細線
  6
CONTINUOUS
 62
    3
 10
1112.5976690440395
 20
703.94877127353334
 11
1112.129719852712
 21
703.94877127353334
  0
ARC
  8
_0-1_計細線
  6
CONTINUOUS
 62
    3
 10
1102.6976690462468
 20
701.54877127353348
 40
0.5
 50
179.99999999999983
 51
269.99999999999977
  0
LINE
  8
_0-1_計細線
  6
CONTINUOUS
 62
    3
 10
1102.197669046247
 20
702.94877127353311
 11
1102.197669046247
 21
701.54877127353348
  0
ARC
  8
_0-1_計細線
  6
CONTINUOUS
 62
    3
 10
1113.0976690440395
 20
701.54877127353348
 40
0.5
 50
269.99999999999977
 51
359.99999999999966
  0
LINE
  8
_0-1_計細線
  6
CONTINUOUS
 62
    3
 10
1113.5976690440395
 20
702.94877127353311
 11
1113.5976690440395
 21
701.54877127353348
  0
ARC
  8
_0-1_計細線
  6
CONTINUOUS
 62
    3
 10
1105.1976690462468
 20
700.04877127353348
 40
1
 50
0
 51
89.999999999999915
  0
LINE
  8
_0-1_計細線
  6
CONTINUOUS
 62
    3
 10
1105.1976690462468
 20
701.04877127353302
 11
1102.6976690462468
 21
701.04877127353302
  0
ARC
  8
_0-1_計細線
  6
CONTINUOUS
 62
    3
 10
1110.5976690462464
 20
700.04877127353348
 40
1
 50
89.999999999999915
 51
179.99999999999983
  0
LINE
  8
_0-1_計細線
  6
CONTINUOUS
 62
    3
 10
1110.5976690440391
 20
701.04877127353302
 11
1113.0976690440395
 21
701.04877127353302
  0
LINE
  8
_0-1_計細線
  6
CONTINUOUS
 62
    3
 10
1110.3976690451429
 20
704.94877127353288
 11
1105.3976690451429
 21
704.94877127353288
  0
LINE
  8
_0-1_計細線
  6
CONTINUOUS
 62
    3
 10
1106.1976690451431
 20
684.94877127353334
 11
1106.1976690462463
 21
700.04877127353348
  0
LINE
  8
_0-1_計細線
  6
CONTINUOUS
 62
    3
 10
1109.5976690451432
 20
684.94877127353334
 11
1109.5976690462471
 21
700.04877127353348
  0
LINE
  8
_0-1_計細線
  6
CONTINUOUS
 62
    3
 10
1109.5976690451432
 20
684.94877127353334
 11
1106.1976690451431
 21
684.94877127353334
  0
ARC
  8
_0-1_計細線
  6
CONTINUOUS
 62
    3
 10
1120.1976690466083
 20
702.94877127353311
 40
1
 50
89.999999999999915
 51
179.99999999999983
  0
ARC
  8
_0-1_計細線
  6
CONTINUOUS
 62
    3
 10
1120.6656182379359
 20
704.94877127353288
 40
1
 50
269.99999999999977
 51
330.00000000001364
  0
ARC
  8
_0-1_計細線
  6
CONTINUOUS
 62
    3
 10
1122.3976690455049
 20
703.94877127353334
 40
1
 50
89.999999999999915
 51
150.00000000001401
  0
LINE
  8
_0-1_計細線
  6
CONTINUOUS
 62
    3
 10
1120.1976690466083
 20
703.94877127353334
 11
1120.6656182379359
 21
703.94877127353334
  0
ARC
  8
_0-1_計細線
  6
CONTINUOUS
 62
    3
 10
1129.5976690444011
 20
702.94877127353311
 40
1
 50
0
 51
89.999999999999915
  0
ARC
  8
_0-1_計細線
  6
CONTINUOUS
 62
    3
 10
1129.1297198530738
 20
704.94877127353288
 40
1
 50
209.99999999998565
 51
269.99999999999977
  0
ARC
  8
_0-1_計細線
  6
CONTINUOUS
 62
    3
 10
1127.3976690455049
 20
703.94877127353334
 40
1
 50
29.99999999999903
 51
89.999999999999901
  0
LINE
  8
_0-1_計細線
  6
CONTINUOUS
 62
    3
 10
1129.5976690444011
 20
703.94877127353334
 11
1129.1297198530738
 21
703.94877127353334
  0
ARC
  8
_0-1_計細線
  6
CONTINUOUS
 62
    3
 10
1119.6976690466086
 20
701.54877127353348
 40
0.5
 50
179.99999999999983
 51
269.99999999999977
  0
LINE
  8
_0-1_計細線
  6
CONTINUOUS
 62
    3
 10
1119.1976690466083
 20
702.94877127353311
 11
1119.1976690466083
 21
701.54877127353348
  0
ARC
  8
_0-1_計細線
  6
CONTINUOUS
 62
    3
 10
1130.0976690444015
 20
701.54877127353348
 40
0.5
 50
269.99999999999977
 51
359.99999999999966
  0
LINE
  8
_0-1_計細線
  6
CONTINUOUS
 62
    3
 10
1130.5976690444011
 20
702.94877127353311
 11
1130.5976690444011
 21
701.54877127353348
  0
ARC
  8
_0-1_計細線
  6
CONTINUOUS
 62
    3
 10
1122.1976690466086
 20
700.04877127353348
 40
1
 50
0
 51
89.999999999999915
  0
LINE
  8
_0-1_計細線
  6
CONTINUOUS
 62
    3
 10
1122.1976690466086
 20
701.04877127353302
 11
1119.6976690466086
 21
701.04877127353302
  0
ARC
  8
_0-1_計細線
  6
CONTINUOUS
 62
    3
 10
1127.5976690466084
 20
700.04877127353348
 40
1
 50
89.999999999999915
 51
179.99999999999983
  0
LINE
  8
_0-1_計細線
  6
CONTINUOUS
 62
    3
 10
1127.5976690444011
 20
701.04877127353302
 11
1130.0976690444015
 21
701.04877127353302
  0
LINE
  8
_0-1_計細線
  6
CONTINUOUS
 62
    3
 10
1127.3976690455049
 20
704.94877127353288
 11
1122.3976690455049
 21
704.94877127353288
  0
LINE
  8
_0-1_計細線
  6
CONTINUOUS
 62
    3
 10
1123.1976690455049
 20
684.94877127353334
 11
1123.1976690466083
 21
700.04877127353348
  0
LINE
  8
_0-1_計細線
  6
CONTINUOUS
 62
    3
 10
1126.5976690455047
 20
684.94877127353334
 11
1126.5976690466084
 21
700.04877127353348
  0
LINE
  8
_0-1_計細線
  6
CONTINUOUS
 62
    3
 10
1126.5976690455047
 20
684.94877127353334
 11
1123.1976690455049
 21
684.94877127353334
  0
ARC
  8
_0-1_計細線
  6
CONTINUOUS
 62
    3
 10
1137.1976690469703
 20
702.94877127353311
 40
1
 50
89.999999999999915
 51
179.99999999999983
  0
ARC
  8
_0-1_計細線
  6
CONTINUOUS
 62
    3
 10
1137.6656182382978
 20
704.94877127353288
 40
1
 50
269.99999999999977
 51
330.00000000000057
  0
ARC
  8
_0-1_計細線
  6
CONTINUOUS
 62
    3
 10
1139.3976690458665
 20
703.94877127353334
 40
1
 50
89.999999999999915
 51
150.00000000001401
  0
LINE
  8
_0-1_計細線
  6
CONTINUOUS
 62
    3
 10
1137.1976690469703
 20
703.94877127353334
 11
1137.6656182382978
 21
703.94877127353334
  0
ARC
  8
_0-1_計細線
  6
CONTINUOUS
 62
    3
 10
1146.5976690447631
 20
702.94877127353311
 40
1
 50
0
 51
89.999999999999915
  0
ARC
  8
_0-1_計細線
  6
CONTINUOUS
 62
    3
 10
1146.1297198534357
 20
704.94877127353288
 40
1
 50
209.99999999998565
 51
269.99999999999977
  0
ARC
  8
_0-1_計細線
  6
CONTINUOUS
 62
    3
 10
1144.3976690458665
 20
703.94877127353334
 40
1
 50
29.999999999986002
 51
89.999999999999901
  0
LINE
  8
_0-1_計細線
  6
CONTINUOUS
 62
    3
 10
1146.5976690447631
 20
703.94877127353334
 11
1146.1297198534357
 21
703.94877127353334
  0
ARC
  8
_0-1_計細線
  6
CONTINUOUS
 62
    3
 10
1136.6976690469705
 20
701.54877127353348
 40
0.5
 50
179.99999999999983
 51
269.99999999999977
  0
LINE
  8
_0-1_計細線
  6
CONTINUOUS
 62
    3
 10
1136.1976690469703
 20
702.94877127353311
 11
1136.1976690469703
 21
701.54877127353348
  0
ARC
  8
_0-1_計細線
  6
CONTINUOUS
 62
    3
 10
1147.0976690447631
 20
701.54877127353348
 40
0.5
 50
269.99999999999977
 51
359.99999999999966
  0
LINE
  8
_0-1_計細線
  6
CONTINUOUS
 62
    3
 10
1147.5976690447631
 20
702.94877127353311
 11
1147.5976690447631
 21
701.54877127353348
  0
ARC
  8
_0-1_計細線
  6
CONTINUOUS
 62
    3
 10
1139.1976690469705
 20
700.04877127353348
 40
1
 50
0
 51
89.999999999999915
  0
LINE
  8
_0-1_計細線
  6
CONTINUOUS
 62
    3
 10
1139.1976690469705
 20
701.04877127353302
 11
1136.6976690469705
 21
701.04877127353302
  0
ARC
  8
_0-1_計細線
  6
CONTINUOUS
 62
    3
 10
1144.5976690469704
 20
700.04877127353348
 40
1
 50
89.999999999999915
 51
179.99999999999983
  0
LINE
  8
_0-1_計細線
  6
CONTINUOUS
 62
    3
 10
1144.5976690447631
 20
701.04877127353302
 11
1147.0976690447631
 21
701.04877127353302
  0
LINE
  8
_0-1_計細線
  6
CONTINUOUS
 62
    3
 10
1144.3976690458665
 20
704.94877127353288
 11
1139.3976690458665
 21
704.94877127353288
  0
LINE
  8
_0-1_計細線
  6
CONTINUOUS
 62
    3
 10
1140.1976690458669
 20
684.94877127353334
 11
1140.1976690469703
 21
700.04877127353348
  0
LINE
  8
_0-1_計細線
  6
CONTINUOUS
 62
    3
 10
1143.5976690458667
 20
684.94877127353334
 11
1143.5976690469704
 21
700.04877127353348
  0
LINE
  8
_0-1_計細線
  6
CONTINUOUS
 62
    3
 10
1143.5976690458667
 20
684.94877127353334
 11
1140.1976690458669
 21
684.94877127353334
  0
ARC
  8
_0-1_計細線
  6
CONTINUOUS
 62
    3
 10
1154.1976690473321
 20
702.94877127353311
 40
1
 50
89.999999999999915
 51
179.99999999999983
  0
ARC
  8
_0-1_計細線
  6
CONTINUOUS
 62
    3
 10
1154.6656182386594
 20
704.94877127353288
 40
1
 50
269.99999999999977
 51
330.00000000001364
  0
ARC
  8
_0-1_計細線
  6
CONTINUOUS
 62
    3
 10
1156.3976690462284
 20
703.94877127353334
 40
1
 50
89.999999999999915
 51
150.00000000001401
  0
LINE
  8
_0-1_計細線
  6
CONTINUOUS
 62
    3
 10
1154.1976690473321
 20
703.94877127353334
 11
1154.6656182386594
 21
703.94877127353334
  0
ARC
  8
_0-1_計細線
  6
CONTINUOUS
 62
    3
 10
1163.597669045125
 20
702.94877127353311
 40
1
 50
0
 51
89.999999999999915
  0
ARC
  8
_0-1_計細線
  6
CONTINUOUS
 62
    3
 10
1163.1297198537977
 20
704.94877127353288
 40
1
 50
209.99999999998565
 51
269.99999999999977
  0
ARC
  8
_0-1_計細線
  6
CONTINUOUS
 62
    3
 10
1161.3976690462284
 20
703.94877127353334
 40
1
 50
29.999999999986002
 51
89.999999999999901
  0
LINE
  8
_0-1_計細線
  6
CONTINUOUS
 62
    3
 10
1163.597669045125
 20
703.94877127353334
 11
1163.1297198537977
 21
703.94877127353334
  0
ARC
  8
_0-1_計細線
  6
CONTINUOUS
 62
    3
 10
1153.6976690473318
 20
701.54877127353348
 40
0.5
 50
179.99999999999983
 51
269.99999999999977
  0
LINE
  8
_0-1_計細線
  6
CONTINUOUS
 62
    3
 10
1153.1976690473318
 20
702.94877127353311
 11
1153.1976690473318
 21
701.54877127353348
  0
ARC
  8
_0-1_計細線
  6
CONTINUOUS
 62
    3
 10
1164.0976690451246
 20
701.54877127353348
 40
0.5
 50
269.99999999999977
 51
359.99999999999966
  0
LINE
  8
_0-1_計細線
  6
CONTINUOUS
 62
    3
 10
1164.597669045125
 20
702.94877127353311
 11
1164.597669045125
 21
701.54877127353348
  0
ARC
  8
_0-1_計細線
  6
CONTINUOUS
 62
    3
 10
1156.1976690473318
 20
700.04877127353348
 40
1
 50
0
 51
89.999999999999915
  0
LINE
  8
_0-1_計細線
  6
CONTINUOUS
 62
    3
 10
1156.1976690473318
 20
701.04877127353302
 11
1153.6976690473318
 21
701.04877127353302
  0
ARC
  8
_0-1_計細線
  6
CONTINUOUS
 62
    3
 10
1161.5976690473321
 20
700.04877127353348
 40
1
 50
89.999999999999915
 51
179.99999999999983
  0
LINE
  8
_0-1_計細線
  6
CONTINUOUS
 62
    3
 10
1161.5976690451246
 20
701.04877127353302
 11
1164.0976690451246
 21
701.04877127353302
  0
LINE
  8
_0-1_計細線
  6
CONTINUOUS
 62
    3
 10
1161.3976690462284
 20
704.94877127353288
 11
1156.3976690462284
 21
704.94877127353288
  0
LINE
  8
_0-1_計細線
  6
CONTINUOUS
 62
    3
 10
1157.1976690462282
 20
684.94877127353334
 11
1157.1976690473318
 21
700.04877127353348
  0
LINE
  8
_0-1_計細線
  6
CONTINUOUS
 62
    3
 10
1160.5976690462282
 20
684.94877127353334
 11
1160.5976690473324
 21
700.04877127353348
  0
LINE
  8
_0-1_計細線
  6
CONTINUOUS
 62
    3
 10
1160.5976690462282
 20
684.94877127353334
 11
1157.1976690462282
 21
684.94877127353334
  0
LINE
  8
_0-0_計極細
  6
CENTER1
 62
    2
 10
1270.2698338223793
 20
693.74877127353318
 11
960.40527357841881
 21
693.74877127353318
  0
LINE
  8
_0-1_計細線
  6
CONTINUOUS
 62
    3
 10
987.19766904264759
 20
700.24877127353295
 11
973.79766904264693
 21
700.24877127353295
  0
LINE
  8
_0-1_計細線
  6
CONTINUOUS
 62
    3
 10
1245.5976690476389
 20
700.24877127353295
 11
1258.9976690476392
 21
700.24877127353295
  0
LINE
  8
_0-1_計細線
  6
CONTINUOUS
 62
    3
 10
1004.197669042819
 20
700.24877127353295
 11
990.59766904281901
 21
700.24877127353295
  0
LINE
  8
_0-1_計細線
  6
CONTINUOUS
 62
    3
 10
1021.1976690429908
 20
700.24877127353295
 11
1007.5976690429906
 21
700.24877127353295
  0
LINE
  8
_0-1_計細線
  6
CONTINUOUS
 62
    3
 10
1038.1976690431629
 20
700.24877127353295
 11
1024.5976690431623
 21
700.24877127353295
  0
LINE
  8
_0-1_計細線
  6
CONTINUOUS
 62
    3
 10
1228.5976690474674
 20
700.24877127353295
 11
1242.1976690474673
 21
700.24877127353295
  0
LINE
  8
_0-1_計細線
  6
CONTINUOUS
 62
    3
 10
1211.5976690472958
 20
700.24877127353295
 11
1225.1976690472959
 21
700.24877127353295
  0
LINE
  8
_0-1_計細線
  6
CONTINUOUS
 62
    3
 10
1194.5976690471241
 20
700.24877127353295
 11
1208.1976690471238
 21
700.24877127353295
  0
LINE
  8
_0-1_計細線
  6
CONTINUOUS
 62
    3
 10
1041.5976690446093
 20
700.24877127353295
 11
1055.1976690446097
 21
700.24877127353295
  0
LINE
  8
_0-1_計細線
  6
CONTINUOUS
 62
    3
 10
1177.5976690469518
 20
700.24877127353295
 11
1191.1976690469517
 21
700.24877127353295
  0
LINE
  8
_0-1_計細線
  6
CONTINUOUS
 62
    3
 10
1160.5976690465902
 20
700.24877127353295
 11
1174.1976690465901
 21
700.24877127353295
  0
LINE
  8
_0-1_計細線
  6
CONTINUOUS
 62
    3
 10
1058.5976690446093
 20
700.24877127353295
 11
1072.1976690446099
 21
700.24877127353295
  0
LINE
  8
_0-1_計細線
  6
CONTINUOUS
 62
    3
 10
1075.5976690449713
 20
700.24877127353295
 11
1089.1976690449712
 21
700.24877127353295
  0
LINE
  8
_0-1_計細線
  6
CONTINUOUS
 62
    3
 10
1092.5976690453333
 20
700.24877127353295
 11
1106.1976690453332
 21
700.24877127353295
  0
LINE
  8
_0-1_計細線
  6
CONTINUOUS
 62
    3
 10
1126.5976690460568
 20
700.24877127353295
 11
1140.1976690460567
 21
700.24877127353295
  0
LINE
  8
_0-1_計細線
  6
CONTINUOUS
 62
    3
 10
1143.5976690464186
 20
700.24877127353295
 11
1157.1976690464187
 21
700.24877127353295
  0
LINE
  8
_0-1_計細線
  6
CONTINUOUS
 62
    3
 10
987.19766904264759
 20
687.24877127353284
 11
973.79766904264693
 21
687.24877127353284
  0
LINE
  8
_0-1_計細線
  6
CONTINUOUS
 62
    3
 10
1245.5976690476389
 20
687.24877127353284
 11
1258.9976690476392
 21
687.24877127353284
  0
LINE
  8
_0-1_計細線
  6
CONTINUOUS
 62
    3
 10
1004.197669042819
 20
687.24877127353284
 11
990.59766904281901
 21
687.24877127353284
  0
LINE
  8
_0-1_計細線
  6
CONTINUOUS
 62
    3
 10
1021.1976690429908
 20
687.24877127353284
 11
1007.5976690429906
 21
687.24877127353284
  0
LINE
  8
_0-1_計細線
  6
CONTINUOUS
 62
    3
 10
1038.1976690431629
 20
687.24877127353284
 11
1024.5976690431623
 21
687.24877127353284
  0
LINE
  8
_0-1_計細線
  6
CONTINUOUS
 62
    3
 10
1228.5976690474674
 20
687.24877127353284
 11
1242.1976690474673
 21
687.24877127353284
  0
LINE
  8
_0-1_計細線
  6
CONTINUOUS
 62
    3
 10
1211.5976690472958
 20
687.24877127353284
 11
1225.1976690472959
 21
687.24877127353284
  0
LINE
  8
_0-1_計細線
  6
CONTINUOUS
 62
    3
 10
1194.5976690471241
 20
687.24877127353284
 11
1208.1976690471238
 21
687.24877127353284
  0
LINE
  8
_0-1_計細線
  6
CONTINUOUS
 62
    3
 10
1041.5976690446093
 20
687.24877127353284
 11
1055.1976690446097
 21
687.24877127353284
  0
LINE
  8
_0-1_計細線
  6
CONTINUOUS
 62
    3
 10
1177.5976690469518
 20
687.24877127353284
 11
1191.1976690469517
 21
687.24877127353284
  0
LINE
  8
_0-1_計細線
  6
CONTINUOUS
 62
    3
 10
1160.5976690465902
 20
687.24877127353284
 11
1174.1976690465901
 21
687.24877127353284
  0
LINE
  8
_0-1_計細線
  6
CONTINUOUS
 62
    3
 10
1058.5976690446093
 20
687.24877127353284
 11
1072.1976690446099
 21
687.24877127353284
  0
LINE
  8
_0-1_計細線
  6
CONTINUOUS
 62
    3
 10
1075.5976690449713
 20
687.24877127353284
 11
1089.1976690449712
 21
687.24877127353284
  0
LINE
  8
_0-1_計細線
  6
CONTINUOUS
 62
    3
 10
1092.5976690453333
 20
687.24877127353284
 11
1106.1976690453332
 21
687.24877127353284
  0
LINE
  8
_0-1_計細線
  6
CONTINUOUS
 62
    3
 10
1126.5976690460568
 20
687.24877127353284
 11
1140.1976690460567
 21
687.24877127353284
  0
LINE
  8
_0-1_計細線
  6
CONTINUOUS
 62
    3
 10
1143.5976690464186
 20
687.24877127353284
 11
1157.1976690464187
 21
687.24877127353284
  0
LINE
  8
_0-1_計細線
  6
CONTINUOUS
 62
    3
 10
969.397669044248
 20
698.94877127353311
 11
969.397669044248
 21
688.54877127353302
  0
ARC
  8
_0-1_計細線
  6
CONTINUOUS
 62
    3
 10
969.69766904424773
 20
688.54877127353302
 40
0.2999999999999999
 50
179.99999999999983
 51
269.99999999999977
  0
LINE
  8
_0-1_計細線
  6
CONTINUOUS
 62
    3
 10
969.69766904424773
 20
688.24877127353284
 11
970.39766904424812
 21
688.24877127353284
  0
ARC
  8
_0-1_計細線
  6
CONTINUOUS
 62
    3
 10
969.69766904424773
 20
698.94877127353311
 40
0.2999999999999999
 50
89.999999999999915
 51
179.99999999999983
  0
LINE
  8
_0-1_計細線
  6
CONTINUOUS
 62
    3
 10
969.69766904424773
 20
699.24877127353284
 11
970.39766904424812
 21
699.24877127353284
  0
LINE
  8
_0-1_計細線
  6
CONTINUOUS
 62
    3
 10
969.397669044248
 20
690.24877127353329
 11
966.39314104424852
 21
690.24877127353329
  0
ARC
  8
_0-1_計細線
  6
CONTINUOUS
 62
    3
 10
966.39314104424852
 20
690.44877127353311
 40
0.2000000000000001
 50
179.99999999999983
 51
269.99999999999977
  0
ARC
  8
_0-1_計細線
  6
CONTINUOUS
 62
    3
 10
966.39314104424852
 20
697.04877127353359
 40
0.2000000000000001
 50
89.999999999999915
 51
179.99999999999983
  0
LINE
  8
_0-1_計細線
  6
CONTINUOUS
 62
    3
 10
969.397669044248
 20
697.24877127353341
 11
966.39314104424852
 21
697.24877127353341
  0
LINE
  8
_0-1_計細線
  6
CONTINUOUS
 62
    3
 10
966.19314104424791
 20
697.04877127353359
 11
966.19314104424791
 21
690.44877127353311
  0
LINE
  8
_0-0_計極細
  6
CONTINUOUS
 62
    2
 10
969.397669044248
 20
693.74877127353284
 11
966.39315304424815
 21
693.74877127353284
  0
ARC
  8
_0-0_計極細
  6
CONTINUOUS
 62
    2
 10
973.95112104424811
 20
695.49891727353258
 40
7.7579560000000001
 50
166.96433000000241
 51
193.03802199999546
  0
ARC
  8
_0-0_計極細
  6
CONTINUOUS
 62
    2
 10
973.95112104424811
 20
691.99862727353309
 40
7.7579560000000001
 50
166.96197800000417
 51
193.03567000000049
  0
LINE
  8
_0-1_計細線
  6
CONTINUOUS
 62
    3
 10
1263.3976690460383
 20
698.94877127353311
 11
1263.3976690460383
 21
688.54877127353302
  0
ARC
  8
_0-1_計細線
  6
CONTINUOUS
 62
    3
 10
1263.0976690460386
 20
688.54877127353302
 40
0.2999999999999999
 50
269.99999999999977
 51
359.99999999999966
  0
LINE
  8
_0-1_計細線
  6
CONTINUOUS
 62
    3
 10
1263.0976690460386
 20
688.24877127353284
 11
1262.3976690460383
 21
688.24877127353284
  0
ARC
  8
_0-1_計細線
  6
CONTINUOUS
 62
    3
 10
1263.0976690460386
 20
698.94877127353311
 40
0.2999999999999999
 50
0
 51
89.999999999999915
  0
LINE
  8
_0-1_計細線
  6
CONTINUOUS
 62
    3
 10
1263.0976690460386
 20
699.24877127353284
 11
1262.3976690460383
 21
699.24877127353284
  0
LINE
  8
_0-1_計細線
  6
CONTINUOUS
 62
    3
 10
1263.3976690460383
 20
690.24877127353329
 11
1266.4021970460381
 21
690.24877127353329
  0
ARC
  8
_0-1_計細線
  6
CONTINUOUS
 62
    3
 10
1266.4021970460381
 20
690.44877127353311
 40
0.2000000000000001
 50
269.99999999999977
 51
359.99999999999966
  0
ARC
  8
_0-1_計細線
  6
CONTINUOUS
 62
    3
 10
1266.4021970460381
 20
697.04877127353359
 40
0.2000000000000001
 50
0
 51
89.999999999999915
  0
LINE
  8
_0-1_計細線
  6
CONTINUOUS
 62
    3
 10
1263.3976690460383
 20
697.24877127353341
 11
1266.4021970460381
 21
697.24877127353341
  0
LINE
  8
_0-1_計細線
  6
CONTINUOUS
 62
    3
 10
1266.6021970460381
 20
697.04877127353359
 11
1266.6021970460381
 21
690.44877127353311
  0
LINE
  8
_0-0_計極細
  6
CONTINUOUS
 62
    2
 10
1263.3976690460383
 20
693.74877127353284
 11
1266.4021850460383
 21
693.74877127353284
  0
ARC
  8
_0-0_計極細
  6
CONTINUOUS
 62
    2
 10
1258.8442170460382
 20
695.49891727353258
 40
7.7579560000000001
 50
346.96197800000306
 51
13.035669999997996
  0
ARC
  8
_0-0_計極細
  6
CONTINUOUS
 62
    2
 10
1258.8442170460382
 20
691.99862727353309
 40
7.7579560000000001
 50
346.96432999999803
 51
13.038021999996253
  0
LINE
  8
_0-1_計細線
  6
CONTINUOUS
 62
    3
 10
1109.5976690456948
 20
700.24877127353295
 11
1114.047669045324
 21
700.24877127353295
  0
LINE
  8
_0-1_計細線
  6
CONTINUOUS
 62
    3
 10
1114.047669045324
 20
705.14901253334006
 11
1118.7476690453238
 21
705.14901253334006
  0
LINE
  8
_0-1_計細線
  6
CONTINUOUS
 62
    3
 10
1118.7476690453238
 20
685.14901253333971
 11
1114.047669045324
 21
685.14901253333971
  0
LINE
  8
_0-1_計細線
  6
CONTINUOUS
 62
    3
 10
1114.047669045324
 20
685.14901253333971
 11
1114.047669045324
 21
705.14901253334006
  0
LINE
  8
_0-1_計細線
  6
CONTINUOUS
 62
    3
 10
1118.7476690453238
 20
705.14901253334006
 11
1118.7476690453238
 21
685.14901253333971
  0
LINE
  8
_0-1_計細線
  6
DASHED2
 62
    3
 10
1114.047669045324
 20
688.14901253333971
 11
1118.7476690453238
 21
688.14901253333971
  0
LINE
  8
_0-1_計細線
  6
DASHED2
 62
    3
 10
1114.047669045324
 20
702.14901253334017
 11
1118.7476690453238
 21
702.14901253334017
  0
LINE
  8
_0-1_計細線
  6
CONTINUOUS
 62
    3
 10
1118.7476690453238
 20
700.24877127353295
 11
1123.1976690456947
 21
700.24877127353295
  0
LINE
  8
_0-1_計細線
  6
CONTINUOUS
 62
    3
 10
1118.7476690453238
 20
687.24877127353284
 11
1123.1976690456947
 21
687.24877127353284
  0
LINE
  8
_0-1_計細線
  6
CONTINUOUS
 62
    3
 10
1109.5976690452967
 20
687.24877127353284
 11
1114.047669045324
 21
687.24877127353284
  0
LINE
  8
_0-5_寸法線
  6
CONTINUOUS
 62
    7
 10
961.39766904514306
 20
648.94877127353357
 11
961.39766904514306
 21
584.62627132142279
  0
LINE
  8
_0-5_寸法線
  6
CONTINUOUS
 62
    7
 10
961.39766904514306
 20
589.62627132142279
 11
971.05692730803366
 21
592.21446177244798
  0
LINE
  8
_0-5_寸法線
  6
CONTINUOUS
 62
    7
 10
961.39766904514306
 20
589.62627132142279
 11
971.05692730803366
 21
587.03808087039761
  0
LINE
  8
_0-5_寸法線
  6
CONTINUOUS
 62
    7
 10
991.39766904514306
 20
611.20381109666573
 11
991.39766904514306
 21
584.62627132142279
  0
LINE
  8
_0-5_寸法線
  6
CONTINUOUS
 62
    7
 10
991.39766904514306
 20
589.62627132142279
 11
981.73841078225223
 21
587.03808087039761
  0
LINE
  8
_0-5_寸法線
  6
CONTINUOUS
 62
    7
 10
991.39766904514306
 20
589.62627132142279
 11
981.73841078225223
 21
592.21446177244798
  0
LINE
  8
_0-5_寸法線
  6
CONTINUOUS
 62
    7
 10
961.39766904514306
 20
589.62627132142279
 11
991.39766904514306
 21
589.62627132142279
  0
TEXT
  8
_0-5_寸法線
 62
    7
 10
968.89766904514306
 20
589.62627132142279
 40
15
 41
1
 50
0
  1
30
  0
LINE
  8
_0-5_寸法線
  6
CONTINUOUS
 62
    7
 10
991.39766904514306
 20
589.62627132142279
 11
1001.0569273080337
 21
592.21446177244798
  0
LINE
  8
_0-5_寸法線
  6
CONTINUOUS
 62
    7
 10
991.39766904514306
 20
589.62627132142279
 11
1001.0569273080337
 21
587.03808087039749
  0
LINE
  8
_0-5_寸法線
  6
CONTINUOUS
 62
    7
 10
1241.3976690451429
 20
611.20381109666573
 11
1241.3976690451429
 21
584.62627132142279
  0
LINE
  8
_0-5_寸法線
  6
CONTINUOUS
 62
    7
 10
1241.3976690451429
 20
589.62627132142279
 11
1231.7384107822522
 21
587.03808087039761
  0
LINE
  8
_0-5_寸法線
  6
CONTINUOUS
 62
    7
 10
1241.3976690451429
 20
589.62627132142279
 11
1231.7384107822522
 21
592.21446177244798
  0
LINE
  8
_0-5_寸法線
  6
CONTINUOUS
 62
    7
 10
991.39766904514306
 20
589.62627132142279
 11
1241.3976690451429
 21
589.62627132142279
  0
TEXT
  8
_0-5_寸法線
 62
    7
 10
1105.1476690451429
 20
589.62627132142279
 40
15
 41
1
 50
0
  1
250
  0
LINE
  8
_0-5_寸法線
  6
CONTINUOUS
 62
    7
 10
1241.3976690451429
 20
589.62627132142279
 11
1251.0569273080337
 21
592.21446177244798
  0
LINE
  8
_0-5_寸法線
  6
CONTINUOUS
 62
    7
 10
1241.3976690451429
 20
589.62627132142279
 11
1251.0569273080337
 21
587.03808087039749
  0
LINE
  8
_0-5_寸法線
  6
CONTINUOUS
 62
    7
 10
1271.3976690451429
 20
648.94877127353357
 11
1271.3976690451429
 21
584.62627132142279
  0
LINE
  8
_0-5_寸法線
  6
CONTINUOUS
 62
    7
 10
1271.3976690451429
 20
589.62627132142279
 11
1261.7384107822522
 21
587.03808087039761
  0
LINE
  8
_0-5_寸法線
  6
CONTINUOUS
 62
    7
 10
1271.3976690451429
 20
589.62627132142279
 11
1261.7384107822522
 21
592.21446177244798
  0
LINE
  8
_0-5_寸法線
  6
CONTINUOUS
 62
    7
 10
1241.3976690451429
 20
589.62627132142279
 11
1271.3976690451429
 21
589.62627132142279
  0
TEXT
  8
_0-5_寸法線
 62
    7
 10
1248.8976690451429
 20
589.62627132142279
 40
15
 41
1
 50
0
  1
30
  0
LINE
  8
_0-1_計細線
  6
CONTINUOUS
 62
    3
 10
961.39766904514306
 20
693.948771273533
 11
961.39766904514306
 21
658.948771273533
  0
LINE
  8
_0-1_計細線
  6
CONTINUOUS
 62
    3
 10
961.39766904514306
 20
658.948771273533
 11
959.09766904514299
 21
658.948771273533
  0
LINE
  8
_0-1_計細線
  6
CONTINUOUS
 62
    3
 10
959.09766904514299
 20
658.948771273533
 11
959.09766904514299
 21
693.948771273533
  0
LINE
  8
_0-1_計細線
  6
CONTINUOUS
 62
    3
 10
959.09766904514299
 20
693.948771273533
 11
961.39766904514306
 21
693.948771273533
  0
LINE
  8
_0-0_計極細
  6
CONTINUOUS
 62
    2
 10
959.09766904514299
 20
677.948771273533
 11
961.39766904514306
 21
677.948771273533
  0
LINE
  8
_0-0_計極細
  6
CONTINUOUS
 62
    2
 10
959.09766904514299
 20
679.94877127353311
 11
961.39766904514306
 21
679.94877127353311
  0
LINE
  8
_0-0_計極細
  6
CONTINUOUS
 62
    2
 10
959.09766904514299
 20
675.948771273533
 11
961.39766904514306
 21
675.948771273533
  0
LINE
  8
_0-0_計極細
  6
CONTINUOUS
 62
    2
 10
959.09766904514299
 20
681.94877127353311
 11
961.39766904514306
 21
681.94877127353311
  0
LINE
  8
_0-0_計極細
  6
CONTINUOUS
 62
    2
 10
961.39766904514306
 20
661.94877127353311
 11
959.09766904514299
 21
661.94877127353311
  0
LINE
  8
_0-0_計極細
  6
CONTINUOUS
 62
    2
 10
959.09766904514299
 20
691.94877127353311
 11
961.39766904514306
 21
691.94877127353311
  0
LINE
  8
_0-1_計細線
  6
CONTINUOUS
 62
    3
 10
1271.3976690451432
 20
693.94877127353334
 11
1271.3976690451432
 21
658.94877127353334
  0
LINE
  8
_0-1_計細線
  6
CONTINUOUS
 62
    3
 10
1271.3976690451432
 20
658.94877127353334
 11
1273.6976690451431
 21
658.94877127353334
  0
LINE
  8
_0-1_計細線
  6
CONTINUOUS
 62
    3
 10
1273.6976690451431
 20
658.94877127353334
 11
1273.6976690451431
 21
693.94877127353334
  0
LINE
  8
_0-1_計細線
  6
CONTINUOUS
 62
    3
 10
1273.6976690451431
 20
693.94877127353334
 11
1271.3976690451432
 21
693.94877127353334
  0
LINE
  8
_0-0_計極細
  6
CONTINUOUS
 62
    2
 10
1273.6976690451431
 20
677.94877127353334
 11
1271.3976690451432
 21
677.94877127353334
  0
LINE
  8
_0-0_計極細
  6
CONTINUOUS
 62
    2
 10
1273.6976690451431
 20
679.94877127353334
 11
1271.3976690451432
 21
679.94877127353334
  0
LINE
  8
_0-0_計極細
  6
CONTINUOUS
 62
    2
 10
1273.6976690451431
 20
675.94877127353345
 11
1271.3976690451432
 21
675.94877127353345
  0
LINE
  8
_0-0_計極細
  6
CONTINUOUS
 62
    2
 10
1273.6976690451431
 20
681.94877127353334
 11
1271.3976690451432
 21
681.94877127353334
  0
LINE
  8
_0-0_計極細
  6
CONTINUOUS
 62
    2
 10
1271.3976690451432
 20
661.94877127353334
 11
1273.6976690451431
 21
661.94877127353334
  0
LINE
  8
_0-0_計極細
  6
CONTINUOUS
 62
    2
 10
1273.6976690451431
 20
691.94877127353334
 11
1271.3976690451432
 21
691.94877127353334
  0
LINE
  8
_0-7_枠細線
  6
CONTINUOUS
 62
    5
 10
1290.3116978659637
 20
679.09685510459781
 11
1282.8116978659637
 21
694.09685510459781
  0
LINE
  8
_0-7_枠細線
  6
CONTINUOUS
 62
    5
 10
1275.3116978659637
 20
679.09685510459781
 11
1290.3116978659637
 21
679.09685510459781
  0
LINE
  8
_0-7_枠細線
  6
CONTINUOUS
 62
    5
 10
1282.8116978659637
 20
694.09685510459781
 11
1275.3116978659637
 21
679.09685510459781
  0
TEXT
  8
_0-7_枠細線
 62
    5
 10
1277.6768491341118
 20
678.14803513974789
 40
12.5
 41
0.8
 50
0
  1
１
  0
TEXT
  8
_0-7_枠細線
 62
    5
 10
1066.6894272843072
 20
547.96679242918003
 40
25
 41
0.8
 50
0
  1
断面詳細図
  0
TEXT
  8
_0-7_枠細線
 62
    5
 10
1181.638397033475
 20
550.46255451644413
 40
20
 41
0.6
 50
0
  1
Ｓ＝１：５
  0
ARC
  8
_0-1_計細線
  6
CONTINUOUS
 62
    3
 10
1171.1976690475037
 20
702.94877127353311
 40
1
 50
89.999999999999915
 51
179.99999999999983
  0
ARC
  8
_0-1_計細線
  6
CONTINUOUS
 62
    3
 10
1171.6656182388313
 20
704.94877127353288
 40
1
 50
269.99999999999977
 51
330.00000000000057
  0
ARC
  8
_0-1_計細線
  6
CONTINUOUS
 62
    3
 10
1173.3976690463999
 20
703.94877127353334
 40
1
 50
89.999999999999915
 51
150.00000000001401
  0
LINE
  8
_0-1_計細線
  6
CONTINUOUS
 62
    3
 10
1171.1976690475037
 20
703.94877127353334
 11
1171.6656182388313
 21
703.94877127353334
  0
ARC
  8
_0-1_計細線
  6
CONTINUOUS
 62
    3
 10
1180.5976690452965
 20
702.94877127353311
 40
1
 50
0
 51
89.999999999999915
  0
ARC
  8
_0-1_計細線
  6
CONTINUOUS
 62
    3
 10
1180.1297198539687
 20
704.94877127353288
 40
1
 50
209.99999999999866
 51
269.99999999999977
  0
ARC
  8
_0-1_計細線
  6
CONTINUOUS
 62
    3
 10
1178.3976690463999
 20
703.94877127353334
 40
1
 50
29.999999999986002
 51
89.999999999999901
  0
LINE
  8
_0-1_計細線
  6
CONTINUOUS
 62
    3
 10
1180.5976690452965
 20
703.94877127353334
 11
1180.1297198539687
 21
703.94877127353334
  0
ARC
  8
_0-1_計細線
  6
CONTINUOUS
 62
    3
 10
1170.6976690475037
 20
701.54877127353348
 40
0.5
 50
179.99999999999983
 51
269.99999999999977
  0
LINE
  8
_0-1_計細線
  6
CONTINUOUS
 62
    3
 10
1170.197669047504
 20
702.94877127353311
 11
1170.197669047504
 21
701.54877127353348
  0
ARC
  8
_0-1_計細線
  6
CONTINUOUS
 62
    3
 10
1181.0976690452965
 20
701.54877127353348
 40
0.5
 50
269.99999999999977
 51
359.99999999999966
  0
LINE
  8
_0-1_計細線
  6
CONTINUOUS
 62
    3
 10
1181.597669045296
 20
702.94877127353311
 11
1181.597669045296
 21
701.54877127353348
  0
ARC
  8
_0-1_計細線
  6
CONTINUOUS
 62
    3
 10
1173.1976690475037
 20
700.04877127353348
 40
1
 50
0
 51
89.999999999999915
  0
LINE
  8
_0-1_計細線
  6
CONTINUOUS
 62
    3
 10
1173.1976690475037
 20
701.04877127353302
 11
1170.6976690475037
 21
701.04877127353302
  0
ARC
  8
_0-1_計細線
  6
CONTINUOUS
 62
    3
 10
1178.5976690475034
 20
700.04877127353348
 40
1
 50
89.999999999999915
 51
179.99999999999983
  0
LINE
  8
_0-1_計細線
  6
CONTINUOUS
 62
    3
 10
1178.597669045296
 20
701.04877127353302
 11
1181.0976690452965
 21
701.04877127353302
  0
LINE
  8
_0-1_計細線
  6
CONTINUOUS
 62
    3
 10
1178.3976690463999
 20
704.94877127353288
 11
1173.3976690463999
 21
704.94877127353288
  0
LINE
  8
_0-1_計細線
  6
CONTINUOUS
 62
    3
 10
1174.1976690464005
 20
684.94877127353334
 11
1174.1976690475037
 21
700.04877127353348
  0
LINE
  8
_0-1_計細線
  6
CONTINUOUS
 62
    3
 10
1177.5976690464001
 20
684.94877127353334
 11
1177.597669047504
 21
700.04877127353348
  0
LINE
  8
_0-1_計細線
  6
CONTINUOUS
 62
    3
 10
1177.5976690464001
 20
684.94877127353334
 11
1174.1976690464005
 21
684.94877127353334
  0
LINE
  8
_0-1_計細線
  6
CONTINUOUS
 62
    3
 10
623.68632075471839
 20
290.61981132075459
 11
623.68632075471839
 21
594.61981132075471
  0
LINE
  8
_0-1_計細線
  6
CONTINUOUS
 62
    3
 10
319.68632075471794
 20
594.61981132075471
 11
319.68632075471794
 21
290.61981132075459
  0
LINE
  8
_0-1_計細線
  6
CONTINUOUS
 62
    3
 10
623.68632075471839
 20
594.61981132075471
 11
319.68632075471794
 21
594.61981132075471
  0
LINE
  8
_0-1_計細線
  6
CONTINUOUS
 62
    3
 10
319.68632075471794
 20
290.61981132075459
 11
623.68632075471839
 21
290.61981132075459
  0
LINE
  8
_0-1_計細線
  6
CONTINUOUS
 62
    3
 10
316.68632075471794
 20
287.61981132075459
 11
316.68632075471794
 21
597.61981132075459
  0
LINE
  8
_0-1_計細線
  6
CONTINUOUS
 62
    3
 10
316.68632075471794
 20
597.61981132075459
 11
626.68632075471839
 21
597.61981132075459
  0
LINE
  8
_0-1_計細線
  6
CONTINUOUS
 62
    3
 10
626.68632075471839
 20
597.61981132075459
 11
626.68632075471839
 21
287.61981132075459
  0
LINE
  8
_0-1_計細線
  6
CONTINUOUS
 62
    3
 10
626.68632075471839
 20
287.61981132075459
 11
316.68632075471794
 21
287.61981132075459
  0
LINE
  8
_0-5_寸法線
  6
CONTINUOUS
 62
    7
 10
624.88609344444774
 20
373.73925147850468
 11
631.95716125631327
 21
380.81031929037016
  0
LINE
  8
_0-5_寸法線
  6
CONTINUOUS
 62
    7
 10
624.88609344444774
 20
373.73925147850468
 11
634.54535170733845
 21
376.32744192952993
  0
LINE
  8
_0-5_寸法線
  6
CONTINUOUS
 62
    7
 10
624.88609344444774
 20
373.73925147850468
 11
666.28609344444828
 21
397.64155262295532
  0
LINE
  8
_0-5_寸法線
  6
CONTINUOUS
 62
    7
 10
666.28609344444828
 20
397.64155262295532
 11
774.28609344444851
 21
397.64155262295532
  0
TEXT
  8
_0-5_寸法線
 62
    7
 10
666.28609344444828
 20
397.64155262295532
 40
15
 41
0.8000000000000001
 50
0
  1
ＳＵＳアングル受枠
  0
LINE
  8
_0-1_計細線
  6
CONTINUOUS
 62
    3
 10
321.686320754718
 20
377.41981132075477
 11
621.68632075471794
 21
377.41981132075477
  0
LINE
  8
_0-1_計細線
  6
CONTINUOUS
 62
    3
 10
321.686320754718
 20
388.81981132075538
 11
621.68632075471794
 21
388.81981132075538
  0
LINE
  8
_0-1_計細線
  6
CONTINUOUS
 62
    3
 10
321.686320754718
 20
377.41981132075477
 11
321.686320754718
 21
388.81981132075538
  0
LINE
  8
_0-1_計細線
  6
CONTINUOUS
 62
    3
 10
621.68632075471794
 20
377.41981132075477
 11
621.68632075471794
 21
388.81981132075538
  0
LINE
  8
_0-0_計極細
  6
CONTINUOUS
 62
    2
 10
321.686320754718
 20
385.6198113207551
 11
621.68632075471794
 21
385.6198113207551
  0
LINE
  8
_0-0_計極細
  6
CONTINUOUS
 62
    2
 10
321.686320754718
 20
380.6198113207551
 11
621.68632075471794
 21
380.6198113207551
  0
LINE
  8
_0-1_計細線
  6
CONTINUOUS
 62
    3
 10
321.686320754718
 20
394.41981132075568
 11
621.68632075471794
 21
394.41981132075568
  0
LINE
  8
_0-1_計細線
  6
CONTINUOUS
 62
    3
 10
321.686320754718
 20
405.81981132075623
 11
621.68632075471794
 21
405.81981132075623
  0
LINE
  8
_0-1_計細線
  6
CONTINUOUS
 62
    3
 10
321.686320754718
 20
394.41981132075568
 11
321.686320754718
 21
405.81981132075623
  0
LINE
  8
_0-1_計細線
  6
CONTINUOUS
 62
    3
 10
621.68632075471794
 20
394.41981132075568
 11
621.68632075471794
 21
405.81981132075623
  0
LINE
  8
_0-0_計極細
  6
CONTINUOUS
 62
    2
 10
321.686320754718
 20
402.61981132075556
 11
621.68632075471794
 21
402.61981132075556
  0
LINE
  8
_0-0_計極細
  6
CONTINUOUS
 62
    2
 10
321.686320754718
 20
397.61981132075556
 11
621.68632075471794
 21
397.61981132075556
  0
LINE
  8
_0-1_計細線
  6
CONTINUOUS
 62
    3
 10
321.686320754718
 20
411.41981132075614
 11
621.68632075471794
 21
411.41981132075614
  0
LINE
  8
_0-1_計細線
  6
CONTINUOUS
 62
    3
 10
321.686320754718
 20
422.81981132075668
 11
621.68632075471794
 21
422.81981132075668
  0
LINE
  8
_0-1_計細線
  6
CONTINUOUS
 62
    3
 10
321.686320754718
 20
411.41981132075614
 11
321.686320754718
 21
422.81981132075668
  0
LINE
  8
_0-1_計細線
  6
CONTINUOUS
 62
    3
 10
621.68632075471794
 20
411.41981132075614
 11
621.68632075471794
 21
422.81981132075668
  0
LINE
  8
_0-0_計極細
  6
CONTINUOUS
 62
    2
 10
321.686320754718
 20
419.61981132075641
 11
621.68632075471794
 21
419.61981132075641
  0
LINE
  8
_0-0_計極細
  6
CONTINUOUS
 62
    2
 10
321.686320754718
 20
414.61981132075641
 11
621.68632075471794
 21
414.61981132075641
  0
LINE
  8
_0-1_計細線
  6
CONTINUOUS
 62
    3
 10
321.686320754718
 20
507.81981132075401
 11
621.68632075471794
 21
507.81981132075401
  0
LINE
  8
_0-1_計細線
  6
CONTINUOUS
 62
    3
 10
321.686320754718
 20
496.41981132075341
 11
621.68632075471794
 21
496.41981132075341
  0
LINE
  8
_0-1_計細線
  6
CONTINUOUS
 62
    3
 10
321.686320754718
 20
507.81981132075401
 11
321.686320754718
 21
496.41981132075341
  0
LINE
  8
_0-1_計細線
  6
CONTINUOUS
 62
    3
 10
621.68632075471794
 20
507.81981132075401
 11
621.68632075471794
 21
496.41981132075341
  0
LINE
  8
_0-0_計極細
  6
CONTINUOUS
 62
    2
 10
321.686320754718
 20
499.61981132075374
 11
621.68632075471794
 21
499.61981132075374
  0
LINE
  8
_0-0_計極細
  6
CONTINUOUS
 62
    2
 10
321.686320754718
 20
504.61981132075374
 11
621.68632075471794
 21
504.61981132075374
  0
LINE
  8
_0-1_計細線
  6
CONTINUOUS
 62
    3
 10
321.686320754718
 20
473.81981132075396
 11
621.68632075471794
 21
473.81981132075396
  0
LINE
  8
_0-1_計細線
  6
CONTINUOUS
 62
    3
 10
321.686320754718
 20
462.41981132075347
 11
621.68632075471794
 21
462.41981132075347
  0
LINE
  8
_0-1_計細線
  6
CONTINUOUS
 62
    3
 10
321.686320754718
 20
473.81981132075396
 11
321.686320754718
 21
462.41981132075347
  0
LINE
  8
_0-1_計細線
  6
CONTINUOUS
 62
    3
 10
621.68632075471794
 20
473.81981132075396
 11
621.68632075471794
 21
462.41981132075347
  0
LINE
  8
_0-0_計極細
  6
CONTINUOUS
 62
    2
 10
321.686320754718
 20
465.61981132075374
 11
621.68632075471794
 21
465.61981132075374
  0
LINE
  8
_0-0_計極細
  6
CONTINUOUS
 62
    2
 10
321.686320754718
 20
470.61981132075374
 11
621.68632075471794
 21
470.61981132075374
  0
LINE
  8
_0-1_計細線
  6
CONTINUOUS
 62
    3
 10
321.686320754718
 20
490.81981132075492
 11
621.68632075471794
 21
490.81981132075492
  0
LINE
  8
_0-1_計細線
  6
CONTINUOUS
 62
    3
 10
321.686320754718
 20
479.41981132075432
 11
621.68632075471794
 21
479.41981132075432
  0
LINE
  8
_0-1_計細線
  6
CONTINUOUS
 62
    3
 10
321.686320754718
 20
490.81981132075492
 11
321.686320754718
 21
479.41981132075432
  0
LINE
  8
_0-1_計細線
  6
CONTINUOUS
 62
    3
 10
621.68632075471794
 20
490.81981132075492
 11
621.68632075471794
 21
479.41981132075432
  0
LINE
  8
_0-0_計極細
  6
CONTINUOUS
 62
    2
 10
321.686320754718
 20
482.61981132075459
 11
621.68632075471794
 21
482.61981132075459
  0
LINE
  8
_0-0_計極細
  6
CONTINUOUS
 62
    2
 10
321.686320754718
 20
487.61981132075459
 11
621.68632075471794
 21
487.61981132075459
  0
LINE
  8
_0-1_計細線
  6
CONTINUOUS
 62
    3
 10
321.686320754718
 20
575.81981132075441
 11
621.68632075471794
 21
575.81981132075441
  0
LINE
  8
_0-1_計細線
  6
CONTINUOUS
 62
    3
 10
321.686320754718
 20
564.41981132075387
 11
621.68632075471794
 21
564.41981132075387
  0
LINE
  8
_0-1_計細線
  6
CONTINUOUS
 62
    3
 10
321.686320754718
 20
575.81981132075441
 11
321.686320754718
 21
564.41981132075387
  0
LINE
  8
_0-1_計細線
  6
CONTINUOUS
 62
    3
 10
621.68632075471794
 20
575.81981132075441
 11
621.68632075471794
 21
564.41981132075387
  0
LINE
  8
_0-0_計極細
  6
CONTINUOUS
 62
    2
 10
321.686320754718
 20
567.61981132075459
 11
621.68632075471794
 21
567.61981132075459
  0
LINE
  8
_0-0_計極細
  6
CONTINUOUS
 62
    2
 10
321.686320754718
 20
572.61981132075459
 11
621.68632075471794
 21
572.61981132075459
  0
LINE
  8
_0-1_計細線
  6
CONTINUOUS
 62
    3
 10
321.686320754718
 20
309.41981132075387
 11
621.68632075471794
 21
309.41981132075387
  0
LINE
  8
_0-1_計細線
  6
CONTINUOUS
 62
    3
 10
321.686320754718
 20
320.81981132075441
 11
621.68632075471794
 21
320.81981132075441
  0
LINE
  8
_0-1_計細線
  6
CONTINUOUS
 62
    3
 10
321.686320754718
 20
309.41981132075387
 11
321.686320754718
 21
320.81981132075441
  0
LINE
  8
_0-1_計細線
  6
CONTINUOUS
 62
    3
 10
621.68632075471794
 20
309.41981132075387
 11
621.68632075471794
 21
320.81981132075441
  0
LINE
  8
_0-0_計極細
  6
CONTINUOUS
 62
    2
 10
321.686320754718
 20
317.61981132075459
 11
621.68632075471794
 21
317.61981132075459
  0
LINE
  8
_0-0_計極細
  6
CONTINUOUS
 62
    2
 10
321.686320754718
 20
312.61981132075459
 11
621.68632075471794
 21
312.61981132075459
  0
LINE
  8
_0-1_計細線
  6
CONTINUOUS
 62
    3
 10
321.686320754718
 20
592.61981132075459
 11
621.68632075471794
 21
592.61981132075459
  0
LINE
  8
_0-1_計細線
  6
CONTINUOUS
 62
    3
 10
321.686320754718
 20
581.21981132075405
 11
621.68632075471794
 21
581.21981132075405
  0
LINE
  8
_0-1_計細線
  6
CONTINUOUS
 62
    3
 10
321.686320754718
 20
592.61981132075459
 11
321.686320754718
 21
581.21981132075405
  0
LINE
  8
_0-1_計細線
  6
CONTINUOUS
 62
    3
 10
621.68632075471794
 20
592.61981132075459
 11
621.68632075471794
 21
581.21981132075405
  0
LINE
  8
_0-0_計極細
  6
CONTINUOUS
 62
    2
 10
321.686320754718
 20
584.41981132075432
 11
621.68632075471794
 21
584.41981132075432
  0
LINE
  8
_0-0_計極細
  6
CONTINUOUS
 62
    2
 10
321.686320754718
 20
589.41981132075432
 11
621.68632075471794
 21
589.41981132075432
  0
LINE
  8
_0-1_計細線
  6
CONTINUOUS
 62
    3
 10
321.686320754718
 20
292.61981132075505
 11
621.68632075471794
 21
292.61981132075505
  0
LINE
  8
_0-1_計細線
  6
CONTINUOUS
 62
    3
 10
321.686320754718
 20
304.01981132075559
 11
621.68632075471794
 21
304.01981132075559
  0
LINE
  8
_0-1_計細線
  6
CONTINUOUS
 62
    3
 10
321.686320754718
 20
292.61981132075505
 11
321.686320754718
 21
304.01981132075559
  0
LINE
  8
_0-1_計細線
  6
CONTINUOUS
 62
    3
 10
621.68632075471794
 20
292.61981132075505
 11
621.68632075471794
 21
304.01981132075559
  0
LINE
  8
_0-0_計極細
  6
CONTINUOUS
 62
    2
 10
321.686320754718
 20
300.81981132075532
 11
621.68632075471794
 21
300.81981132075532
  0
LINE
  8
_0-0_計極細
  6
CONTINUOUS
 62
    2
 10
321.686320754718
 20
295.81981132075532
 11
621.68632075471794
 21
295.81981132075532
  0
LINE
  8
_0-1_計細線
  6
CONTINUOUS
 62
    3
 10
321.686320754718
 20
524.81981132075305
 11
621.68632075471794
 21
524.81981132075305
  0
LINE
  8
_0-1_計細線
  6
CONTINUOUS
 62
    3
 10
321.686320754718
 20
513.4198113207525
 11
621.68632075471794
 21
513.4198113207525
  0
LINE
  8
_0-1_計細線
  6
CONTINUOUS
 62
    3
 10
321.686320754718
 20
524.81981132075305
 11
321.686320754718
 21
513.4198113207525
  0
LINE
  8
_0-1_計細線
  6
CONTINUOUS
 62
    3
 10
621.68632075471794
 20
524.81981132075305
 11
621.68632075471794
 21
513.4198113207525
  0
LINE
  8
_0-0_計極細
  6
CONTINUOUS
 62
    2
 10
321.686320754718
 20
516.61981132075289
 11
621.68632075471794
 21
516.61981132075289
  0
LINE
  8
_0-0_計極細
  6
CONTINUOUS
 62
    2
 10
321.686320754718
 20
521.61981132075289
 11
621.68632075471794
 21
521.61981132075289
  0
LINE
  8
_0-1_計細線
  6
CONTINUOUS
 62
    3
 10
321.686320754718
 20
541.81981132075214
 11
621.68632075471794
 21
541.81981132075214
  0
LINE
  8
_0-1_計細線
  6
CONTINUOUS
 62
    3
 10
321.686320754718
 20
530.41981132075171
 11
621.68632075471794
 21
530.41981132075171
  0
LINE
  8
_0-1_計細線
  6
CONTINUOUS
 62
    3
 10
321.686320754718
 20
541.81981132075214
 11
321.686320754718
 21
530.41981132075171
  0
LINE
  8
_0-1_計細線
  6
CONTINUOUS
 62
    3
 10
621.68632075471794
 20
541.81981132075214
 11
621.68632075471794
 21
530.41981132075171
  0
LINE
  8
_0-0_計極細
  6
CONTINUOUS
 62
    2
 10
321.686320754718
 20
533.61981132075186
 11
621.68632075471794
 21
533.61981132075186
  0
LINE
  8
_0-0_計極細
  6
CONTINUOUS
 62
    2
 10
321.686320754718
 20
538.61981132075186
 11
621.68632075471794
 21
538.61981132075186
  0
LINE
  8
_0-1_計細線
  6
CONTINUOUS
 62
    3
 10
321.686320754718
 20
558.81981132075123
 11
621.68632075471794
 21
558.81981132075123
  0
LINE
  8
_0-1_計細線
  6
CONTINUOUS
 62
    3
 10
321.686320754718
 20
547.41981132075068
 11
621.68632075471794
 21
547.41981132075068
  0
LINE
  8
_0-1_計細線
  6
CONTINUOUS
 62
    3
 10
321.686320754718
 20
558.81981132075123
 11
321.686320754718
 21
547.41981132075068
  0
LINE
  8
_0-1_計細線
  6
CONTINUOUS
 62
    3
 10
621.68632075471794
 20
558.81981132075123
 11
621.68632075471794
 21
547.41981132075068
  0
LINE
  8
_0-0_計極細
  6
CONTINUOUS
 62
    2
 10
321.686320754718
 20
550.61981132075096
 11
621.68632075471794
 21
550.61981132075096
  0
LINE
  8
_0-0_計極細
  6
CONTINUOUS
 62
    2
 10
321.686320754718
 20
555.61981132075096
 11
621.68632075471794
 21
555.61981132075096
  0
LINE
  8
_0-1_計細線
  6
CONTINUOUS
 62
    3
 10
321.686320754718
 20
360.41981132075614
 11
621.68632075471794
 21
360.41981132075614
  0
LINE
  8
_0-1_計細線
  6
CONTINUOUS
 62
    3
 10
321.686320754718
 20
371.81981132075668
 11
621.68632075471794
 21
371.81981132075668
  0
LINE
  8
_0-1_計細線
  6
CONTINUOUS
 62
    3
 10
321.686320754718
 20
360.41981132075614
 11
321.686320754718
 21
371.81981132075668
  0
LINE
  8
_0-1_計細線
  6
CONTINUOUS
 62
    3
 10
621.68632075471794
 20
360.41981132075614
 11
621.68632075471794
 21
371.81981132075668
  0
LINE
  8
_0-0_計極細
  6
CONTINUOUS
 62
    2
 10
321.686320754718
 20
368.61981132075641
 11
621.68632075471794
 21
368.61981132075641
  0
LINE
  8
_0-0_計極細
  6
CONTINUOUS
 62
    2
 10
321.686320754718
 20
363.61981132075641
 11
621.68632075471794
 21
363.61981132075641
  0
LINE
  8
_0-1_計細線
  6
CONTINUOUS
 62
    3
 10
321.686320754718
 20
343.41981132075711
 11
621.68632075471794
 21
343.41981132075711
  0
LINE
  8
_0-1_計細線
  6
CONTINUOUS
 62
    3
 10
321.686320754718
 20
354.81981132075759
 11
621.68632075471794
 21
354.81981132075759
  0
LINE
  8
_0-1_計細線
  6
CONTINUOUS
 62
    3
 10
321.686320754718
 20
343.41981132075711
 11
321.686320754718
 21
354.81981132075759
  0
LINE
  8
_0-1_計細線
  6
CONTINUOUS
 62
    3
 10
621.68632075471794
 20
343.41981132075711
 11
621.68632075471794
 21
354.81981132075759
  0
LINE
  8
_0-0_計極細
  6
CONTINUOUS
 62
    2
 10
321.686320754718
 20
351.61981132075732
 11
621.68632075471794
 21
351.61981132075732
  0
LINE
  8
_0-0_計極細
  6
CONTINUOUS
 62
    2
 10
321.686320754718
 20
346.61981132075732
 11
621.68632075471794
 21
346.61981132075732
  0
LINE
  8
_0-1_計細線
  6
CONTINUOUS
 62
    3
 10
321.686320754718
 20
326.41981132075796
 11
621.68632075471794
 21
326.41981132075796
  0
LINE
  8
_0-1_計細線
  6
CONTINUOUS
 62
    3
 10
321.686320754718
 20
337.8198113207585
 11
621.68632075471794
 21
337.8198113207585
  0
LINE
  8
_0-1_計細線
  6
CONTINUOUS
 62
    3
 10
321.686320754718
 20
326.41981132075796
 11
321.686320754718
 21
337.8198113207585
  0
LINE
  8
_0-1_計細線
  6
CONTINUOUS
 62
    3
 10
621.68632075471794
 20
326.41981132075796
 11
621.68632075471794
 21
337.8198113207585
  0
LINE
  8
_0-0_計極細
  6
CONTINUOUS
 62
    2
 10
321.686320754718
 20
334.61981132075829
 11
621.68632075471794
 21
334.61981132075829
  0
LINE
  8
_0-0_計極細
  6
CONTINUOUS
 62
    2
 10
321.686320754718
 20
329.61981132075829
 11
621.68632075471794
 21
329.61981132075829
  0
LINE
  8
_0-0_計極細
  6
CENTER2
 62
    2
 10
299.38837253681402
 20
442.61981132075459
 11
651.12170587014805
 21
442.61981132075459
  0
TEXT
  8
_0-5_寸法線
 62
    7
 10
666.28609344444828
 20
382.64155262295526
 40
15
 41
0.8000000000000001
 50
0
  1
ＧＳＬ－２０
  0
LINE
  8
_0-1_計細線
  6
CONTINUOUS
 62
    3
 10
321.686320754718
 20
456.8198113207535
 11
621.68632075471794
 21
456.8198113207535
  0
LINE
  8
_0-1_計細線
  6
CONTINUOUS
 62
    3
 10
621.68632075471794
 20
456.8198113207535
 11
621.68632075471794
 21
445.41981132075301
  0
LINE
  8
_0-0_計極細
  6
CONTINUOUS
 62
    2
 10
321.686320754718
 20
448.61981132075329
 11
621.68632075471794
 21
448.61981132075329
  0
LINE
  8
_0-0_計極細
  6
CONTINUOUS
 62
    2
 10
321.686320754718
 20
453.61981132075329
 11
621.68632075471794
 21
453.61981132075329
  0
LINE
  8
_0-1_計細線
  6
CONTINUOUS
 62
    3
 10
321.686320754718
 20
428.41981132075205
 11
621.68632075471794
 21
428.41981132075205
  0
LINE
  8
_0-1_計細線
  6
CONTINUOUS
 62
    3
 10
621.68632075471794
 20
439.81981132075259
 11
621.68632075471794
 21
428.41981132075205
  0
LINE
  8
_0-0_計極細
  6
CONTINUOUS
 62
    2
 10
321.686320754718
 20
431.61981132075232
 11
621.68632075471794
 21
431.61981132075232
  0
LINE
  8
_0-0_計極細
  6
CONTINUOUS
 62
    2
 10
321.686320754718
 20
436.61981132075232
 11
621.68632075471794
 21
436.61981132075232
  0
LINE
  8
_0-1_計細線
  6
CONTINUOUS
 62
    3
 10
321.686320754718
 20
445.41981132075301
 11
621.68632075471794
 21
445.41981132075301
  0
LINE
  8
_0-1_計細線
  6
CONTINUOUS
 62
    3
 10
321.686320754718
 20
456.8198113207535
 11
321.686320754718
 21
445.41981132075301
  0
LINE
  8
_0-1_計細線
  6
CONTINUOUS
 62
    3
 10
321.686320754718
 20
439.81981132075259
 11
321.686320754718
 21
428.41981132075205
  0
LINE
  8
_0-1_計細線
  6
CONTINUOUS
 62
    3
 10
321.686320754718
 20
439.81981132075259
 11
621.68632075471794
 21
439.81981132075259
  0
LINE
  8
_0-0_計極細
  6
CONTINUOUS
 62
    2
 10
322.18632075471794
 20
388.81981132075538
 11
322.18632075471794
 21
394.41981132075568
  0
LINE
  8
_0-0_計極細
  6
CONTINUOUS
 62
    2
 10
335.18632075471794
 20
388.81981132075538
 11
335.18632075471794
 21
394.41981132075568
  0
LINE
  8
_0-0_計極細
  6
CONTINUOUS
 62
    2
 10
322.18632075471794
 20
405.81981132075623
 11
322.18632075471794
 21
411.41981132075614
  0
LINE
  8
_0-0_計極細
  6
CONTINUOUS
 62
    2
 10
335.18632075471794
 20
405.81981132075623
 11
335.18632075471794
 21
411.41981132075614
  0
LINE
  8
_0-0_計極細
  6
CONTINUOUS
 62
    2
 10
322.18632075471794
 20
428.41981132075205
 11
322.18632075471794
 21
422.81981132075214
  0
LINE
  8
_0-0_計極細
  6
CONTINUOUS
 62
    2
 10
335.18632075471794
 20
428.41981132075205
 11
335.18632075471794
 21
422.81981132075214
  0
LINE
  8
_0-0_計極細
  6
CONTINUOUS
 62
    2
 10
322.18632075471794
 20
445.41981132075301
 11
322.18632075471794
 21
439.81981132075259
  0
LINE
  8
_0-0_計極細
  6
CONTINUOUS
 62
    2
 10
322.18632075471794
 20
462.41981132075347
 11
322.18632075471794
 21
456.8198113207535
  0
LINE
  8
_0-0_計極細
  6
CONTINUOUS
 62
    2
 10
335.18632075471794
 20
462.41981132075347
 11
335.18632075471794
 21
456.8198113207535
  0
LINE
  8
_0-0_計極細
  6
CONTINUOUS
 62
    2
 10
322.18632075471794
 20
479.41981132075432
 11
322.18632075471794
 21
473.81981132075396
  0
LINE
  8
_0-0_計極細
  6
CONTINUOUS
 62
    2
 10
335.18632075471794
 20
479.41981132075432
 11
335.18632075471794
 21
473.81981132075396
  0
LINE
  8
_0-0_計極細
  6
CONTINUOUS
 62
    2
 10
322.18632075471794
 20
496.41981132075477
 11
322.18632075471794
 21
490.81981132075492
  0
LINE
  8
_0-0_計極細
  6
CONTINUOUS
 62
    2
 10
335.18632075471794
 20
496.41981132075477
 11
335.18632075471794
 21
490.81981132075492
  0
LINE
  8
_0-0_計極細
  6
CONTINUOUS
 62
    2
 10
322.18632075471794
 20
581.21981132075405
 11
322.18632075471794
 21
575.81981132075396
  0
LINE
  8
_0-0_計極細
  6
CONTINUOUS
 62
    2
 10
335.18632075471794
 20
581.21981132075405
 11
335.18632075471794
 21
575.81981132075396
  0
LINE
  8
_0-0_計極細
  6
CONTINUOUS
 62
    2
 10
322.18632075471794
 20
304.01981132075423
 11
322.18632075471794
 21
309.41981132075387
  0
LINE
  8
_0-0_計極細
  6
CONTINUOUS
 62
    2
 10
335.18632075471794
 20
304.01981132075423
 11
335.18632075471794
 21
309.41981132075387
  0
LINE
  8
_0-0_計極細
  6
CENTER1
 62
    2
 10
328.68632075471794
 20
601.37053074521634
 11
328.68632075471794
 21
284.86198757974296
  0
LINE
  8
_0-0_計極細
  6
CONTINUOUS
 62
    2
 10
322.18632075471794
 20
513.41981132075387
 11
322.18632075471794
 21
507.81981132075401
  0
LINE
  8
_0-0_計極細
  6
CONTINUOUS
 62
    2
 10
335.18632075471794
 20
513.41981132075387
 11
335.18632075471794
 21
507.81981132075401
  0
LINE
  8
_0-0_計極細
  6
CONTINUOUS
 62
    2
 10
322.18632075471794
 20
530.41981132075296
 11
322.18632075471794
 21
524.81981132075305
  0
LINE
  8
_0-0_計極細
  6
CONTINUOUS
 62
    2
 10
335.18632075471794
 20
530.41981132075296
 11
335.18632075471794
 21
524.81981132075305
  0
LINE
  8
_0-0_計極細
  6
CONTINUOUS
 62
    2
 10
322.18632075471794
 20
547.41981132075216
 11
322.18632075471794
 21
541.81981132075214
  0
LINE
  8
_0-0_計極細
  6
CONTINUOUS
 62
    2
 10
335.18632075471794
 20
547.41981132075216
 11
335.18632075471794
 21
541.81981132075214
  0
LINE
  8
_0-0_計極細
  6
CONTINUOUS
 62
    2
 10
322.18632075471794
 20
564.41981132075114
 11
322.18632075471794
 21
558.81981132075123
  0
LINE
  8
_0-0_計極細
  6
CONTINUOUS
 62
    2
 10
335.18632075471794
 20
564.41981132075114
 11
335.18632075471794
 21
558.81981132075123
  0
LINE
  8
_0-0_計極細
  6
CONTINUOUS
 62
    2
 10
322.18632075471794
 20
371.81981132075532
 11
322.18632075471794
 21
377.41981132075523
  0
LINE
  8
_0-0_計極細
  6
CONTINUOUS
 62
    2
 10
335.18632075471794
 20
371.81981132075532
 11
335.18632075471794
 21
377.41981132075523
  0
LINE
  8
_0-0_計極細
  6
CONTINUOUS
 62
    2
 10
322.18632075471794
 20
354.81981132075623
 11
322.18632075471794
 21
360.41981132075614
  0
LINE
  8
_0-0_計極細
  6
CONTINUOUS
 62
    2
 10
335.18632075471794
 20
354.81981132075623
 11
335.18632075471794
 21
360.41981132075614
  0
LINE
  8
_0-0_計極細
  6
CONTINUOUS
 62
    2
 10
322.18632075471794
 20
337.81981132075714
 11
322.18632075471794
 21
343.41981132075711
  0
LINE
  8
_0-0_計極細
  6
CONTINUOUS
 62
    2
 10
335.18632075471794
 20
337.81981132075714
 11
335.18632075471794
 21
343.41981132075711
  0
LINE
  8
_0-0_計極細
  6
CONTINUOUS
 62
    2
 10
322.18632075471794
 20
320.81981132075805
 11
322.18632075471794
 21
326.41981132075796
  0
LINE
  8
_0-0_計極細
  6
CONTINUOUS
 62
    2
 10
335.18632075471794
 20
320.81981132075805
 11
335.18632075471794
 21
326.41981132075796
  0
LINE
  8
_0-0_計極細
  6
CONTINUOUS
 62
    2
 10
335.18632075471794
 20
445.41981132075301
 11
335.18632075471794
 21
439.81981132075305
  0
LINE
  8
_0-0_計極細
  6
CONTINUOUS
 62
    2
 10
608.18632075471794
 20
388.81981132075538
 11
608.18632075471794
 21
394.41981132075568
  0
LINE
  8
_0-0_計極細
  6
CONTINUOUS
 62
    2
 10
621.18632075471794
 20
388.81981132075538
 11
621.18632075471794
 21
394.41981132075568
  0
LINE
  8
_0-0_計極細
  6
CONTINUOUS
 62
    2
 10
608.18632075471794
 20
405.81981132075623
 11
608.18632075471794
 21
411.41981132075614
  0
LINE
  8
_0-0_計極細
  6
CONTINUOUS
 62
    2
 10
621.18632075471794
 20
405.81981132075623
 11
621.18632075471794
 21
411.41981132075614
  0
LINE
  8
_0-0_計極細
  6
CONTINUOUS
 62
    2
 10
608.18632075471794
 20
428.41981132075205
 11
608.18632075471794
 21
422.81981132075214
  0
LINE
  8
_0-0_計極細
  6
CONTINUOUS
 62
    2
 10
621.18632075471794
 20
428.41981132075205
 11
621.18632075471794
 21
422.81981132075214
  0
LINE
  8
_0-0_計極細
  6
CONTINUOUS
 62
    2
 10
608.18632075471794
 20
445.41981132075301
 11
608.18632075471794
 21
439.81981132075259
  0
LINE
  8
_0-0_計極細
  6
CONTINUOUS
 62
    2
 10
621.18632075471794
 20
445.41981132075301
 11
621.18632075471794
 21
439.81981132075259
  0
LINE
  8
_0-0_計極細
  6
CONTINUOUS
 62
    2
 10
608.18632075471794
 20
462.41981132075347
 11
608.18632075471794
 21
456.8198113207535
  0
LINE
  8
_0-0_計極細
  6
CONTINUOUS
 62
    2
 10
621.18632075471794
 20
462.41981132075347
 11
621.18632075471794
 21
456.8198113207535
  0
LINE
  8
_0-0_計極細
  6
CONTINUOUS
 62
    2
 10
608.18632075471794
 20
479.41981132075432
 11
608.18632075471794
 21
473.81981132075396
  0
LINE
  8
_0-0_計極細
  6
CONTINUOUS
 62
    2
 10
621.18632075471794
 20
479.41981132075432
 11
621.18632075471794
 21
473.81981132075396
  0
LINE
  8
_0-0_計極細
  6
CONTINUOUS
 62
    2
 10
608.18632075471794
 20
496.41981132075477
 11
608.18632075471794
 21
490.81981132075492
  0
LINE
  8
_0-0_計極細
  6
CONTINUOUS
 62
    2
 10
621.18632075471794
 20
496.41981132075477
 11
621.18632075471794
 21
490.81981132075492
  0
LINE
  8
_0-0_計極細
  6
CONTINUOUS
 62
    2
 10
608.18632075471794
 20
581.21981132075405
 11
608.18632075471794
 21
575.81981132075396
  0
LINE
  8
_0-0_計極細
  6
CONTINUOUS
 62
    2
 10
621.18632075471794
 20
581.21981132075405
 11
621.18632075471794
 21
575.81981132075396
  0
LINE
  8
_0-0_計極細
  6
CONTINUOUS
 62
    2
 10
608.18632075471794
 20
304.01981132075423
 11
608.18632075471794
 21
309.41981132075387
  0
LINE
  8
_0-0_計極細
  6
CONTINUOUS
 62
    2
 10
621.18632075471794
 20
304.01981132075423
 11
621.18632075471794
 21
309.41981132075387
  0
LINE
  8
_0-0_計極細
  6
CENTER1
 62
    2
 10
614.68632075471794
 20
601.37053074521634
 11
614.68632075471794
 21
284.86198757974296
  0
LINE
  8
_0-0_計極細
  6
CONTINUOUS
 62
    2
 10
608.18632075471794
 20
513.41981132075387
 11
608.18632075471794
 21
507.81981132075401
  0
LINE
  8
_0-0_計極細
  6
CONTINUOUS
 62
    2
 10
621.18632075471794
 20
513.41981132075387
 11
621.18632075471794
 21
507.81981132075401
  0
LINE
  8
_0-0_計極細
  6
CONTINUOUS
 62
    2
 10
608.18632075471794
 20
530.41981132075296
 11
608.18632075471794
 21
524.81981132075305
  0
LINE
  8
_0-0_計極細
  6
CONTINUOUS
 62
    2
 10
621.18632075471794
 20
530.41981132075296
 11
621.18632075471794
 21
524.81981132075305
  0
LINE
  8
_0-0_計極細
  6
CONTINUOUS
 62
    2
 10
608.18632075471794
 20
547.41981132075216
 11
608.18632075471794
 21
541.81981132075214
  0
LINE
  8
_0-0_計極細
  6
CONTINUOUS
 62
    2
 10
621.18632075471794
 20
547.41981132075216
 11
621.18632075471794
 21
541.81981132075214
  0
LINE
  8
_0-0_計極細
  6
CONTINUOUS
 62
    2
 10
608.18632075471794
 20
564.41981132075114
 11
608.18632075471794
 21
558.81981132075123
  0
LINE
  8
_0-0_計極細
  6
CONTINUOUS
 62
    2
 10
621.18632075471794
 20
564.41981132075114
 11
621.18632075471794
 21
558.81981132075123
  0
LINE
  8
_0-0_計極細
  6
CONTINUOUS
 62
    2
 10
608.18632075471794
 20
371.81981132075532
 11
608.18632075471794
 21
377.41981132075523
  0
LINE
  8
_0-0_計極細
  6
CONTINUOUS
 62
    2
 10
621.18632075471794
 20
371.81981132075532
 11
621.18632075471794
 21
377.41981132075523
  0
LINE
  8
_0-0_計極細
  6
CONTINUOUS
 62
    2
 10
608.18632075471794
 20
354.81981132075623
 11
608.18632075471794
 21
360.41981132075614
  0
LINE
  8
_0-0_計極細
  6
CONTINUOUS
 62
    2
 10
621.18632075471794
 20
354.81981132075623
 11
621.18632075471794
 21
360.41981132075614
  0
LINE
  8
_0-0_計極細
  6
CONTINUOUS
 62
    2
 10
608.18632075471794
 20
337.81981132075714
 11
608.18632075471794
 21
343.41981132075711
  0
LINE
  8
_0-0_計極細
  6
CONTINUOUS
 62
    2
 10
621.18632075471794
 20
337.81981132075714
 11
621.18632075471794
 21
343.41981132075711
  0
LINE
  8
_0-0_計極細
  6
CONTINUOUS
 62
    2
 10
608.18632075471794
 20
320.81981132075805
 11
608.18632075471794
 21
326.41981132075796
  0
LINE
  8
_0-0_計極細
  6
CONTINUOUS
 62
    2
 10
621.18632075471794
 20
320.81981132075805
 11
621.18632075471794
 21
326.41981132075796
  0
LINE
  8
_0-0_計極細
  6
CONTINUOUS
 62
    2
 10
419.186320754718
 20
388.81981132075538
 11
419.186320754718
 21
394.41981132075568
  0
LINE
  8
_0-0_計極細
  6
CONTINUOUS
 62
    2
 10
432.18632075471794
 20
388.81981132075538
 11
432.18632075471794
 21
394.41981132075568
  0
LINE
  8
_0-0_計極細
  6
CONTINUOUS
 62
    2
 10
419.186320754718
 20
405.81981132075623
 11
419.186320754718
 21
411.41981132075614
  0
LINE
  8
_0-0_計極細
  6
CONTINUOUS
 62
    2
 10
432.18632075471794
 20
405.81981132075623
 11
432.18632075471794
 21
411.41981132075614
  0
LINE
  8
_0-0_計極細
  6
CONTINUOUS
 62
    2
 10
419.186320754718
 20
428.41981132075205
 11
419.186320754718
 21
422.81981132075214
  0
LINE
  8
_0-0_計極細
  6
CONTINUOUS
 62
    2
 10
432.18632075471794
 20
428.41981132075205
 11
432.18632075471794
 21
422.81981132075214
  0
LINE
  8
_0-0_計極細
  6
CONTINUOUS
 62
    2
 10
419.186320754718
 20
462.41981132075347
 11
419.186320754718
 21
456.8198113207535
  0
LINE
  8
_0-0_計極細
  6
CONTINUOUS
 62
    2
 10
432.18632075471794
 20
462.41981132075347
 11
432.18632075471794
 21
456.8198113207535
  0
LINE
  8
_0-0_計極細
  6
CONTINUOUS
 62
    2
 10
419.186320754718
 20
479.41981132075432
 11
419.186320754718
 21
473.81981132075396
  0
LINE
  8
_0-0_計極細
  6
CONTINUOUS
 62
    2
 10
432.18632075471794
 20
479.41981132075432
 11
432.18632075471794
 21
473.81981132075396
  0
LINE
  8
_0-0_計極細
  6
CONTINUOUS
 62
    2
 10
419.186320754718
 20
496.41981132075477
 11
419.186320754718
 21
490.81981132075492
  0
LINE
  8
_0-0_計極細
  6
CONTINUOUS
 62
    2
 10
432.18632075471794
 20
496.41981132075477
 11
432.18632075471794
 21
490.81981132075492
  0
LINE
  8
_0-0_計極細
  6
CONTINUOUS
 62
    2
 10
419.186320754718
 20
581.21981132075405
 11
419.186320754718
 21
575.81981132075396
  0
LINE
  8
_0-0_計極細
  6
CONTINUOUS
 62
    2
 10
432.18632075471794
 20
581.21981132075405
 11
432.18632075471794
 21
575.81981132075396
  0
LINE
  8
_0-0_計極細
  6
CONTINUOUS
 62
    2
 10
419.186320754718
 20
304.01981132075423
 11
419.186320754718
 21
309.41981132075387
  0
LINE
  8
_0-0_計極細
  6
CONTINUOUS
 62
    2
 10
432.18632075471794
 20
304.01981132075423
 11
432.18632075471794
 21
309.41981132075387
  0
LINE
  8
_0-0_計極細
  6
CENTER1
 62
    2
 10
425.68632075471794
 20
601.37053074521634
 11
425.68632075471794
 21
284.86198757974296
  0
LINE
  8
_0-0_計極細
  6
CONTINUOUS
 62
    2
 10
419.186320754718
 20
513.41981132075387
 11
419.186320754718
 21
507.81981132075401
  0
LINE
  8
_0-0_計極細
  6
CONTINUOUS
 62
    2
 10
432.18632075471794
 20
513.41981132075387
 11
432.18632075471794
 21
507.81981132075401
  0
LINE
  8
_0-0_計極細
  6
CONTINUOUS
 62
    2
 10
419.186320754718
 20
530.41981132075296
 11
419.186320754718
 21
524.81981132075305
  0
LINE
  8
_0-0_計極細
  6
CONTINUOUS
 62
    2
 10
432.18632075471794
 20
530.41981132075296
 11
432.18632075471794
 21
524.81981132075305
  0
LINE
  8
_0-0_計極細
  6
CONTINUOUS
 62
    2
 10
419.186320754718
 20
547.41981132075216
 11
419.186320754718
 21
541.81981132075214
  0
LINE
  8
_0-0_計極細
  6
CONTINUOUS
 62
    2
 10
432.18632075471794
 20
547.41981132075216
 11
432.18632075471794
 21
541.81981132075214
  0
LINE
  8
_0-0_計極細
  6
CONTINUOUS
 62
    2
 10
419.186320754718
 20
564.41981132075114
 11
419.186320754718
 21
558.81981132075123
  0
LINE
  8
_0-0_計極細
  6
CONTINUOUS
 62
    2
 10
432.18632075471794
 20
564.41981132075114
 11
432.18632075471794
 21
558.81981132075123
  0
LINE
  8
_0-0_計極細
  6
CONTINUOUS
 62
    2
 10
419.186320754718
 20
371.81981132075532
 11
419.186320754718
 21
377.41981132075523
  0
LINE
  8
_0-0_計極細
  6
CONTINUOUS
 62
    2
 10
432.18632075471794
 20
371.81981132075532
 11
432.18632075471794
 21
377.41981132075523
  0
LINE
  8
_0-0_計極細
  6
CONTINUOUS
 62
    2
 10
419.186320754718
 20
354.81981132075623
 11
419.186320754718
 21
360.41981132075614
  0
LINE
  8
_0-0_計極細
  6
CONTINUOUS
 62
    2
 10
432.18632075471794
 20
354.81981132075623
 11
432.18632075471794
 21
360.41981132075614
  0
LINE
  8
_0-0_計極細
  6
CONTINUOUS
 62
    2
 10
419.186320754718
 20
337.81981132075714
 11
419.186320754718
 21
343.41981132075711
  0
LINE
  8
_0-0_計極細
  6
CONTINUOUS
 62
    2
 10
432.18632075471794
 20
337.81981132075714
 11
432.18632075471794
 21
343.41981132075711
  0
LINE
  8
_0-0_計極細
  6
CONTINUOUS
 62
    2
 10
419.186320754718
 20
320.81981132075805
 11
419.186320754718
 21
326.41981132075796
  0
LINE
  8
_0-0_計極細
  6
CONTINUOUS
 62
    2
 10
432.18632075471794
 20
320.81981132075805
 11
432.18632075471794
 21
326.41981132075796
  0
LINE
  8
_0-0_計極細
  6
CONTINUOUS
 62
    2
 10
467.686320754718
 20
388.81981132075538
 11
467.686320754718
 21
394.41981132075568
  0
LINE
  8
_0-0_計極細
  6
CONTINUOUS
 62
    2
 10
480.68632075471794
 20
388.81981132075538
 11
480.68632075471794
 21
394.41981132075568
  0
LINE
  8
_0-0_計極細
  6
CONTINUOUS
 62
    2
 10
467.686320754718
 20
405.81981132075623
 11
467.686320754718
 21
411.41981132075614
  0
LINE
  8
_0-0_計極細
  6
CONTINUOUS
 62
    2
 10
480.68632075471794
 20
405.81981132075623
 11
480.68632075471794
 21
411.41981132075614
  0
LINE
  8
_0-0_計極細
  6
CONTINUOUS
 62
    2
 10
467.686320754718
 20
428.41981132075205
 11
467.686320754718
 21
422.81981132075214
  0
LINE
  8
_0-0_計極細
  6
CONTINUOUS
 62
    2
 10
480.68632075471794
 20
428.41981132075205
 11
480.68632075471794
 21
422.81981132075214
  0
LINE
  8
_0-0_計極細
  6
CONTINUOUS
 62
    2
 10
467.686320754718
 20
462.41981132075347
 11
467.686320754718
 21
456.8198113207535
  0
LINE
  8
_0-0_計極細
  6
CONTINUOUS
 62
    2
 10
480.68632075471794
 20
462.41981132075347
 11
480.68632075471794
 21
456.8198113207535
  0
LINE
  8
_0-0_計極細
  6
CONTINUOUS
 62
    2
 10
467.686320754718
 20
479.41981132075432
 11
467.686320754718
 21
473.81981132075396
  0
LINE
  8
_0-0_計極細
  6
CONTINUOUS
 62
    2
 10
480.68632075471794
 20
479.41981132075432
 11
480.68632075471794
 21
473.81981132075396
  0
LINE
  8
_0-0_計極細
  6
CONTINUOUS
 62
    2
 10
467.686320754718
 20
496.41981132075477
 11
467.686320754718
 21
490.81981132075492
  0
LINE
  8
_0-0_計極細
  6
CONTINUOUS
 62
    2
 10
480.68632075471794
 20
496.41981132075477
 11
480.68632075471794
 21
490.81981132075492
  0
LINE
  8
_0-0_計極細
  6
CONTINUOUS
 62
    2
 10
467.686320754718
 20
581.21981132075405
 11
467.686320754718
 21
575.81981132075396
  0
LINE
  8
_0-0_計極細
  6
CONTINUOUS
 62
    2
 10
480.68632075471794
 20
581.21981132075405
 11
480.68632075471794
 21
575.81981132075396
  0
LINE
  8
_0-0_計極細
  6
CONTINUOUS
 62
    2
 10
467.686320754718
 20
304.01981132075423
 11
467.686320754718
 21
309.41981132075387
  0
LINE
  8
_0-0_計極細
  6
CONTINUOUS
 62
    2
 10
480.68632075471794
 20
304.01981132075423
 11
480.68632075471794
 21
309.41981132075387
  0
LINE
  8
_0-0_計極細
  6
CENTER1
 62
    2
 10
474.186320754718
 20
601.37053074521634
 11
474.186320754718
 21
284.86198757974296
  0
LINE
  8
_0-0_計極細
  6
CONTINUOUS
 62
    2
 10
467.686320754718
 20
513.41981132075387
 11
467.686320754718
 21
507.81981132075401
  0
LINE
  8
_0-0_計極細
  6
CONTINUOUS
 62
    2
 10
480.68632075471794
 20
513.41981132075387
 11
480.68632075471794
 21
507.81981132075401
  0
LINE
  8
_0-0_計極細
  6
CONTINUOUS
 62
    2
 10
467.686320754718
 20
530.41981132075296
 11
467.686320754718
 21
524.81981132075305
  0
LINE
  8
_0-0_計極細
  6
CONTINUOUS
 62
    2
 10
480.68632075471794
 20
530.41981132075296
 11
480.68632075471794
 21
524.81981132075305
  0
LINE
  8
_0-0_計極細
  6
CONTINUOUS
 62
    2
 10
467.686320754718
 20
547.41981132075216
 11
467.686320754718
 21
541.81981132075214
  0
LINE
  8
_0-0_計極細
  6
CONTINUOUS
 62
    2
 10
480.68632075471794
 20
547.41981132075216
 11
480.68632075471794
 21
541.81981132075214
  0
LINE
  8
_0-0_計極細
  6
CONTINUOUS
 62
    2
 10
467.686320754718
 20
564.41981132075114
 11
467.686320754718
 21
558.81981132075123
  0
LINE
  8
_0-0_計極細
  6
CONTINUOUS
 62
    2
 10
480.68632075471794
 20
564.41981132075114
 11
480.68632075471794
 21
558.81981132075123
  0
LINE
  8
_0-0_計極細
  6
CONTINUOUS
 62
    2
 10
467.686320754718
 20
371.81981132075532
 11
467.686320754718
 21
377.41981132075523
  0
LINE
  8
_0-0_計極細
  6
CONTINUOUS
 62
    2
 10
480.68632075471794
 20
371.81981132075532
 11
480.68632075471794
 21
377.41981132075523
  0
LINE
  8
_0-0_計極細
  6
CONTINUOUS
 62
    2
 10
467.686320754718
 20
354.81981132075623
 11
467.686320754718
 21
360.41981132075614
  0
LINE
  8
_0-0_計極細
  6
CONTINUOUS
 62
    2
 10
480.68632075471794
 20
354.81981132075623
 11
480.68632075471794
 21
360.41981132075614
  0
LINE
  8
_0-0_計極細
  6
CONTINUOUS
 62
    2
 10
467.686320754718
 20
337.81981132075714
 11
467.686320754718
 21
343.41981132075711
  0
LINE
  8
_0-0_計極細
  6
CONTINUOUS
 62
    2
 10
480.68632075471794
 20
337.81981132075714
 11
480.68632075471794
 21
343.41981132075711
  0
LINE
  8
_0-0_計極細
  6
CONTINUOUS
 62
    2
 10
467.686320754718
 20
320.81981132075805
 11
467.686320754718
 21
326.41981132075796
  0
LINE
  8
_0-0_計極細
  6
CONTINUOUS
 62
    2
 10
480.68632075471794
 20
320.81981132075805
 11
480.68632075471794
 21
326.41981132075796
  0
LINE
  8
_0-0_計極細
  6
CONTINUOUS
 62
    2
 10
467.686320754718
 20
440.26981132075542
 11
467.686320754718
 21
439.81981132075259
  0
LINE
  8
_0-0_計極細
  6
CONTINUOUS
 62
    2
 10
467.686320754718
 20
445.41981132075301
 11
467.686320754718
 21
439.81981132075259
  0
LINE
  8
_0-0_計極細
  6
CONTINUOUS
 62
    2
 10
480.68632075471794
 20
445.41981132075301
 11
480.68632075471794
 21
439.81981132075259
  0
LINE
  8
_0-0_計極細
  6
CONTINUOUS
 62
    2
 10
511.18632075471794
 20
388.81981132075538
 11
511.18632075471794
 21
394.41981132075568
  0
LINE
  8
_0-0_計極細
  6
CONTINUOUS
 62
    2
 10
524.18632075471794
 20
388.81981132075538
 11
524.18632075471794
 21
394.41981132075568
  0
LINE
  8
_0-0_計極細
  6
CONTINUOUS
 62
    2
 10
511.18632075471794
 20
405.81981132075623
 11
511.18632075471794
 21
411.41981132075614
  0
LINE
  8
_0-0_計極細
  6
CONTINUOUS
 62
    2
 10
524.18632075471794
 20
405.81981132075623
 11
524.18632075471794
 21
411.41981132075614
  0
LINE
  8
_0-0_計極細
  6
CONTINUOUS
 62
    2
 10
511.18632075471794
 20
428.41981132075205
 11
511.18632075471794
 21
422.81981132075214
  0
LINE
  8
_0-0_計極細
  6
CONTINUOUS
 62
    2
 10
524.18632075471794
 20
428.41981132075205
 11
524.18632075471794
 21
422.81981132075214
  0
LINE
  8
_0-0_計極細
  6
CONTINUOUS
 62
    2
 10
511.18632075471794
 20
445.41981132075301
 11
511.18632075471794
 21
439.81981132075259
  0
LINE
  8
_0-0_計極細
  6
CONTINUOUS
 62
    2
 10
524.18632075471794
 20
445.41981132075301
 11
524.18632075471794
 21
439.81981132075259
  0
LINE
  8
_0-0_計極細
  6
CONTINUOUS
 62
    2
 10
511.18632075471794
 20
462.41981132075347
 11
511.18632075471794
 21
456.8198113207535
  0
LINE
  8
_0-0_計極細
  6
CONTINUOUS
 62
    2
 10
524.18632075471794
 20
462.41981132075347
 11
524.18632075471794
 21
456.8198113207535
  0
LINE
  8
_0-0_計極細
  6
CONTINUOUS
 62
    2
 10
511.18632075471794
 20
479.41981132075432
 11
511.18632075471794
 21
473.81981132075396
  0
LINE
  8
_0-0_計極細
  6
CONTINUOUS
 62
    2
 10
524.18632075471794
 20
479.41981132075432
 11
524.18632075471794
 21
473.81981132075396
  0
LINE
  8
_0-0_計極細
  6
CONTINUOUS
 62
    2
 10
511.18632075471794
 20
496.41981132075477
 11
511.18632075471794
 21
490.81981132075492
  0
LINE
  8
_0-0_計極細
  6
CONTINUOUS
 62
    2
 10
524.18632075471794
 20
496.41981132075477
 11
524.18632075471794
 21
490.81981132075492
  0
LINE
  8
_0-0_計極細
  6
CONTINUOUS
 62
    2
 10
511.18632075471794
 20
581.21981132075405
 11
511.18632075471794
 21
575.81981132075396
  0
LINE
  8
_0-0_計極細
  6
CONTINUOUS
 62
    2
 10
524.18632075471794
 20
581.21981132075405
 11
524.18632075471794
 21
575.81981132075396
  0
LINE
  8
_0-0_計極細
  6
CONTINUOUS
 62
    2
 10
511.18632075471794
 20
304.01981132075423
 11
511.18632075471794
 21
309.41981132075387
  0
LINE
  8
_0-0_計極細
  6
CONTINUOUS
 62
    2
 10
524.18632075471794
 20
304.01981132075423
 11
524.18632075471794
 21
309.41981132075387
  0
LINE
  8
_0-0_計極細
  6
CENTER1
 62
    2
 10
517.68632075471805
 20
601.37053074521634
 11
517.68632075471805
 21
284.86198757974296
  0
LINE
  8
_0-0_計極細
  6
CONTINUOUS
 62
    2
 10
511.18632075471794
 20
513.41981132075387
 11
511.18632075471794
 21
507.81981132075401
  0
LINE
  8
_0-0_計極細
  6
CONTINUOUS
 62
    2
 10
524.18632075471794
 20
513.41981132075387
 11
524.18632075471794
 21
507.81981132075401
  0
LINE
  8
_0-0_計極細
  6
CONTINUOUS
 62
    2
 10
511.18632075471794
 20
530.41981132075296
 11
511.18632075471794
 21
524.81981132075305
  0
LINE
  8
_0-0_計極細
  6
CONTINUOUS
 62
    2
 10
524.18632075471794
 20
530.41981132075296
 11
524.18632075471794
 21
524.81981132075305
  0
LINE
  8
_0-0_計極細
  6
CONTINUOUS
 62
    2
 10
511.18632075471794
 20
547.41981132075216
 11
511.18632075471794
 21
541.81981132075214
  0
LINE
  8
_0-0_計極細
  6
CONTINUOUS
 62
    2
 10
524.18632075471794
 20
547.41981132075216
 11
524.18632075471794
 21
541.81981132075214
  0
LINE
  8
_0-0_計極細
  6
CONTINUOUS
 62
    2
 10
511.18632075471794
 20
564.41981132075114
 11
511.18632075471794
 21
558.81981132075123
  0
LINE
  8
_0-0_計極細
  6
CONTINUOUS
 62
    2
 10
524.18632075471794
 20
564.41981132075114
 11
524.18632075471794
 21
558.81981132075123
  0
LINE
  8
_0-0_計極細
  6
CONTINUOUS
 62
    2
 10
511.18632075471794
 20
371.81981132075532
 11
511.18632075471794
 21
377.41981132075523
  0
LINE
  8
_0-0_計極細
  6
CONTINUOUS
 62
    2
 10
524.18632075471794
 20
371.81981132075532
 11
524.18632075471794
 21
377.41981132075523
  0
LINE
  8
_0-0_計極細
  6
CONTINUOUS
 62
    2
 10
511.18632075471794
 20
354.81981132075623
 11
511.18632075471794
 21
360.41981132075614
  0
LINE
  8
_0-0_計極細
  6
CONTINUOUS
 62
    2
 10
524.18632075471794
 20
354.81981132075623
 11
524.18632075471794
 21
360.41981132075614
  0
LINE
  8
_0-0_計極細
  6
CONTINUOUS
 62
    2
 10
511.18632075471794
 20
337.81981132075714
 11
511.18632075471794
 21
343.41981132075711
  0
LINE
  8
_0-0_計極細
  6
CONTINUOUS
 62
    2
 10
524.18632075471794
 20
337.81981132075714
 11
524.18632075471794
 21
343.41981132075711
  0
LINE
  8
_0-0_計極細
  6
CONTINUOUS
 62
    2
 10
511.18632075471794
 20
320.81981132075805
 11
511.18632075471794
 21
326.41981132075796
  0
LINE
  8
_0-0_計極細
  6
CONTINUOUS
 62
    2
 10
524.18632075471794
 20
320.81981132075805
 11
524.18632075471794
 21
326.41981132075796
  0
LINE
  8
_0-0_計極細
  6
CONTINUOUS
 62
    2
 10
419.186320754718
 20
445.41981132075301
 11
419.186320754718
 21
444.96981132075456
  0
LINE
  8
_0-0_計極細
  6
CONTINUOUS
 62
    2
 10
419.186320754718
 20
440.26981132075468
 11
419.186320754718
 21
439.81981132075305
  0
LINE
  8
_0-0_計極細
  6
CONTINUOUS
 62
    2
 10
432.18632075471794
 20
445.41981132075301
 11
432.18632075471794
 21
444.96981132075456
  0
LINE
  8
_0-0_計極細
  6
CONTINUOUS
 62
    2
 10
432.18632075471794
 20
440.26981132075468
 11
432.18632075471794
 21
439.81981132075305
  0
LINE
  8
_0-5_寸法線
  6
CONTINUOUS
 62
    7
 10
586.40564184402263
 20
450.80591814517106
 11
593.47670965588816
 21
457.8769859570366
  0
LINE
  8
_0-5_寸法線
  6
CONTINUOUS
 62
    7
 10
586.40564184402263
 20
450.80591814517106
 11
596.06490010691334
 21
453.39410859619625
  0
LINE
  8
_0-5_寸法線
  6
CONTINUOUS
 62
    7
 10
586.40564184402263
 20
450.80591814517106
 11
666.28609344444828
 21
496.92491837966571
  0
LINE
  8
_0-5_寸法線
  6
CONTINUOUS
 62
    7
 10
666.28609344444828
 20
496.92491837966571
 11
798.28609344444828
 21
496.92491837966571
  0
TEXT
  8
_0-5_寸法線
 62
    7
 10
666.28609344444828
 20
496.92491837966571
 40
15
 41
0.8000000000000001
 50
0
  1
セーフティグレーチング
  0
TEXT
  8
_0-5_寸法線
 62
    7
 10
668.6273612135227
 20
478.49816917148445
 40
15
 41
0.8000000000000001
 50
0
  1
補強仕様
  0
LINE
  8
_0-0_計極細
  6
CONTINUOUS
 62
    2
 10
370.68632075471794
 20
388.81981132075538
 11
370.68632075471794
 21
394.41981132075568
  0
LINE
  8
_0-0_計極細
  6
CONTINUOUS
 62
    2
 10
383.68632075471794
 20
388.81981132075538
 11
383.68632075471794
 21
394.41981132075568
  0
LINE
  8
_0-0_計極細
  6
CONTINUOUS
 62
    2
 10
370.68632075471794
 20
405.81981132075623
 11
370.68632075471794
 21
411.41981132075614
  0
LINE
  8
_0-0_計極細
  6
CONTINUOUS
 62
    2
 10
383.68632075471794
 20
405.81981132075623
 11
383.68632075471794
 21
411.41981132075614
  0
LINE
  8
_0-0_計極細
  6
CONTINUOUS
 62
    2
 10
370.68632075471794
 20
428.41981132075205
 11
370.68632075471794
 21
422.81981132075214
  0
LINE
  8
_0-0_計極細
  6
CONTINUOUS
 62
    2
 10
383.68632075471794
 20
428.41981132075205
 11
383.68632075471794
 21
422.81981132075214
  0
LINE
  8
_0-0_計極細
  6
CONTINUOUS
 62
    2
 10
370.68632075471794
 20
462.41981132075347
 11
370.68632075471794
 21
456.8198113207535
  0
LINE
  8
_0-0_計極細
  6
CONTINUOUS
 62
    2
 10
383.68632075471794
 20
462.41981132075347
 11
383.68632075471794
 21
456.8198113207535
  0
LINE
  8
_0-0_計極細
  6
CONTINUOUS
 62
    2
 10
370.68632075471794
 20
479.41981132075432
 11
370.68632075471794
 21
473.81981132075396
  0
LINE
  8
_0-0_計極細
  6
CONTINUOUS
 62
    2
 10
383.68632075471794
 20
479.41981132075432
 11
383.68632075471794
 21
473.81981132075396
  0
LINE
  8
_0-0_計極細
  6
CONTINUOUS
 62
    2
 10
370.68632075471794
 20
496.41981132075477
 11
370.68632075471794
 21
490.81981132075492
  0
LINE
  8
_0-0_計極細
  6
CONTINUOUS
 62
    2
 10
383.68632075471794
 20
496.41981132075477
 11
383.68632075471794
 21
490.81981132075492
  0
LINE
  8
_0-0_計極細
  6
CONTINUOUS
 62
    2
 10
370.68632075471794
 20
581.21981132075405
 11
370.68632075471794
 21
575.81981132075396
  0
LINE
  8
_0-0_計極細
  6
CONTINUOUS
 62
    2
 10
383.68632075471794
 20
581.21981132075405
 11
383.68632075471794
 21
575.81981132075396
  0
LINE
  8
_0-0_計極細
  6
CONTINUOUS
 62
    2
 10
370.68632075471794
 20
304.01981132075423
 11
370.68632075471794
 21
309.41981132075387
  0
LINE
  8
_0-0_計極細
  6
CONTINUOUS
 62
    2
 10
383.68632075471794
 20
304.01981132075423
 11
383.68632075471794
 21
309.41981132075387
  0
LINE
  8
_0-0_計極細
  6
CENTER1
 62
    2
 10
377.18632075471794
 20
601.37053074521634
 11
377.18632075471794
 21
284.86198757974296
  0
LINE
  8
_0-0_計極細
  6
CONTINUOUS
 62
    2
 10
370.68632075471794
 20
513.41981132075387
 11
370.68632075471794
 21
507.81981132075401
  0
LINE
  8
_0-0_計極細
  6
CONTINUOUS
 62
    2
 10
383.68632075471794
 20
513.41981132075387
 11
383.68632075471794
 21
507.81981132075401
  0
LINE
  8
_0-0_計極細
  6
CONTINUOUS
 62
    2
 10
370.68632075471794
 20
530.41981132075296
 11
370.68632075471794
 21
524.81981132075305
  0
LINE
  8
_0-0_計極細
  6
CONTINUOUS
 62
    2
 10
383.68632075471794
 20
530.41981132075296
 11
383.68632075471794
 21
524.81981132075305
  0
LINE
  8
_0-0_計極細
  6
CONTINUOUS
 62
    2
 10
370.68632075471794
 20
547.41981132075216
 11
370.68632075471794
 21
541.81981132075214
  0
LINE
  8
_0-0_計極細
  6
CONTINUOUS
 62
    2
 10
383.68632075471794
 20
547.41981132075216
 11
383.68632075471794
 21
541.81981132075214
  0
LINE
  8
_0-0_計極細
  6
CONTINUOUS
 62
    2
 10
370.68632075471794
 20
564.41981132075114
 11
370.68632075471794
 21
558.81981132075123
  0
LINE
  8
_0-0_計極細
  6
CONTINUOUS
 62
    2
 10
383.68632075471794
 20
564.41981132075114
 11
383.68632075471794
 21
558.81981132075123
  0
LINE
  8
_0-0_計極細
  6
CONTINUOUS
 62
    2
 10
370.68632075471794
 20
371.81981132075532
 11
370.68632075471794
 21
377.41981132075523
  0
LINE
  8
_0-0_計極細
  6
CONTINUOUS
 62
    2
 10
383.68632075471794
 20
371.81981132075532
 11
383.68632075471794
 21
377.41981132075523
  0
LINE
  8
_0-0_計極細
  6
CONTINUOUS
 62
    2
 10
370.68632075471794
 20
354.81981132075623
 11
370.68632075471794
 21
360.41981132075614
  0
LINE
  8
_0-0_計極細
  6
CONTINUOUS
 62
    2
 10
383.68632075471794
 20
354.81981132075623
 11
383.68632075471794
 21
360.41981132075614
  0
LINE
  8
_0-0_計極細
  6
CONTINUOUS
 62
    2
 10
370.68632075471794
 20
337.81981132075714
 11
370.68632075471794
 21
343.41981132075711
  0
LINE
  8
_0-0_計極細
  6
CONTINUOUS
 62
    2
 10
383.68632075471794
 20
337.81981132075714
 11
383.68632075471794
 21
343.41981132075711
  0
LINE
  8
_0-0_計極細
  6
CONTINUOUS
 62
    2
 10
370.68632075471794
 20
320.81981132075805
 11
370.68632075471794
 21
326.41981132075796
  0
LINE
  8
_0-0_計極細
  6
CONTINUOUS
 62
    2
 10
383.68632075471794
 20
320.81981132075805
 11
383.68632075471794
 21
326.41981132075796
  0
LINE
  8
_0-0_計極細
  6
CONTINUOUS
 62
    2
 10
383.68632075471794
 20
445.41981132075301
 11
383.68632075471794
 21
439.81981132075259
  0
LINE
  8
_0-0_計極細
  6
CONTINUOUS
 62
    2
 10
370.68632075471794
 20
445.41981132075301
 11
370.68632075471794
 21
439.81981132075305
  0
LINE
  8
_0-0_計極細
  6
CONTINUOUS
 62
    2
 10
559.68632075471794
 20
388.81981132075538
 11
559.68632075471794
 21
394.41981132075568
  0
LINE
  8
_0-0_計極細
  6
CONTINUOUS
 62
    2
 10
572.68632075471805
 20
388.81981132075538
 11
572.68632075471805
 21
394.41981132075568
  0
LINE
  8
_0-0_計極細
  6
CONTINUOUS
 62
    2
 10
559.68632075471794
 20
405.81981132075623
 11
559.68632075471794
 21
411.41981132075614
  0
LINE
  8
_0-0_計極細
  6
CONTINUOUS
 62
    2
 10
572.68632075471805
 20
405.81981132075623
 11
572.68632075471805
 21
411.41981132075614
  0
LINE
  8
_0-0_計極細
  6
CONTINUOUS
 62
    2
 10
559.68632075471794
 20
428.41981132075205
 11
559.68632075471794
 21
422.81981132075214
  0
LINE
  8
_0-0_計極細
  6
CONTINUOUS
 62
    2
 10
572.68632075471805
 20
428.41981132075205
 11
572.68632075471805
 21
422.81981132075214
  0
LINE
  8
_0-0_計極細
  6
CONTINUOUS
 62
    2
 10
559.68632075471794
 20
445.41981132075301
 11
559.68632075471794
 21
439.81981132075259
  0
LINE
  8
_0-0_計極細
  6
CONTINUOUS
 62
    2
 10
572.68632075471805
 20
445.41981132075301
 11
572.68632075471805
 21
439.81981132075259
  0
LINE
  8
_0-0_計極細
  6
CONTINUOUS
 62
    2
 10
559.68632075471794
 20
462.41981132075347
 11
559.68632075471794
 21
456.8198113207535
  0
LINE
  8
_0-0_計極細
  6
CONTINUOUS
 62
    2
 10
572.68632075471805
 20
462.41981132075347
 11
572.68632075471805
 21
456.8198113207535
  0
LINE
  8
_0-0_計極細
  6
CONTINUOUS
 62
    2
 10
559.68632075471794
 20
479.41981132075432
 11
559.68632075471794
 21
473.81981132075396
  0
LINE
  8
_0-0_計極細
  6
CONTINUOUS
 62
    2
 10
572.68632075471805
 20
479.41981132075432
 11
572.68632075471805
 21
473.81981132075396
  0
LINE
  8
_0-0_計極細
  6
CONTINUOUS
 62
    2
 10
559.68632075471794
 20
496.41981132075477
 11
559.68632075471794
 21
490.81981132075492
  0
LINE
  8
_0-0_計極細
  6
CONTINUOUS
 62
    2
 10
572.68632075471805
 20
496.41981132075477
 11
572.68632075471805
 21
490.81981132075492
  0
LINE
  8
_0-0_計極細
  6
CONTINUOUS
 62
    2
 10
559.68632075471794
 20
581.21981132075405
 11
559.68632075471794
 21
575.81981132075396
  0
LINE
  8
_0-0_計極細
  6
CONTINUOUS
 62
    2
 10
572.68632075471805
 20
581.21981132075405
 11
572.68632075471805
 21
575.81981132075396
  0
LINE
  8
_0-0_計極細
  6
CONTINUOUS
 62
    2
 10
559.68632075471794
 20
304.01981132075423
 11
559.68632075471794
 21
309.41981132075387
  0
LINE
  8
_0-0_計極細
  6
CONTINUOUS
 62
    2
 10
572.68632075471805
 20
304.01981132075423
 11
572.68632075471805
 21
309.41981132075387
  0
LINE
  8
_0-0_計極細
  6
CENTER1
 62
    2
 10
566.18632075471794
 20
601.37053074521634
 11
566.18632075471794
 21
284.86198757974296
  0
LINE
  8
_0-0_計極細
  6
CONTINUOUS
 62
    2
 10
559.68632075471794
 20
513.41981132075387
 11
559.68632075471794
 21
507.81981132075401
  0
LINE
  8
_0-0_計極細
  6
CONTINUOUS
 62
    2
 10
572.68632075471805
 20
513.41981132075387
 11
572.68632075471805
 21
507.81981132075401
  0
LINE
  8
_0-0_計極細
  6
CONTINUOUS
 62
    2
 10
559.68632075471794
 20
530.41981132075296
 11
559.68632075471794
 21
524.81981132075305
  0
LINE
  8
_0-0_計極細
  6
CONTINUOUS
 62
    2
 10
572.68632075471805
 20
530.41981132075296
 11
572.68632075471805
 21
524.81981132075305
  0
LINE
  8
_0-0_計極細
  6
CONTINUOUS
 62
    2
 10
559.68632075471794
 20
547.41981132075216
 11
559.68632075471794
 21
541.81981132075214
  0
LINE
  8
_0-0_計極細
  6
CONTINUOUS
 62
    2
 10
572.68632075471805
 20
547.41981132075216
 11
572.68632075471805
 21
541.81981132075214
  0
LINE
  8
_0-0_計極細
  6
CONTINUOUS
 62
    2
 10
559.68632075471794
 20
564.41981132075114
 11
559.68632075471794
 21
558.81981132075123
  0
LINE
  8
_0-0_計極細
  6
CONTINUOUS
 62
    2
 10
572.68632075471805
 20
564.41981132075114
 11
572.68632075471805
 21
558.81981132075123
  0
LINE
  8
_0-0_計極細
  6
CONTINUOUS
 62
    2
 10
559.68632075471794
 20
371.81981132075532
 11
559.68632075471794
 21
377.41981132075523
  0
LINE
  8
_0-0_計極細
  6
CONTINUOUS
 62
    2
 10
572.68632075471805
 20
371.81981132075532
 11
572.68632075471805
 21
377.41981132075523
  0
LINE
  8
_0-0_計極細
  6
CONTINUOUS
 62
    2
 10
559.68632075471794
 20
354.81981132075623
 11
559.68632075471794
 21
360.41981132075614
  0
LINE
  8
_0-0_計極細
  6
CONTINUOUS
 62
    2
 10
572.68632075471805
 20
354.81981132075623
 11
572.68632075471805
 21
360.41981132075614
  0
LINE
  8
_0-0_計極細
  6
CONTINUOUS
 62
    2
 10
559.68632075471794
 20
337.81981132075714
 11
559.68632075471794
 21
343.41981132075711
  0
LINE
  8
_0-0_計極細
  6
CONTINUOUS
 62
    2
 10
572.68632075471805
 20
337.81981132075714
 11
572.68632075471805
 21
343.41981132075711
  0
LINE
  8
_0-0_計極細
  6
CONTINUOUS
 62
    2
 10
559.68632075471794
 20
320.81981132075805
 11
559.68632075471794
 21
326.41981132075796
  0
LINE
  8
_0-0_計極細
  6
CONTINUOUS
 62
    2
 10
572.68632075471805
 20
320.81981132075805
 11
572.68632075471805
 21
326.41981132075796
  0
LINE
  8
_0-5_寸法線
  6
CONTINUOUS
 62
    7
 10
316.68632075471805
 20
607.61981132075459
 11
316.68632075471839
 21
757.61981132075459
  0
LINE
  8
_0-5_寸法線
  6
CONTINUOUS
 62
    7
 10
316.68632075471839
 20
752.61981132075459
 11
326.34557901760905
 21
755.20800177177978
  0
LINE
  8
_0-5_寸法線
  6
CONTINUOUS
 62
    7
 10
316.68632075471839
 20
752.61981132075459
 11
326.34557901760905
 21
750.03162086972952
  0
LINE
  8
_0-5_寸法線
  6
CONTINUOUS
 62
    7
 10
626.68632075471839
 20
607.61981132075459
 11
626.68632075471839
 21
757.61981132075459
  0
LINE
  8
_0-5_寸法線
  6
CONTINUOUS
 62
    7
 10
626.68632075471839
 20
752.61981132075459
 11
617.02706249182768
 21
750.03162086972952
  0
LINE
  8
_0-5_寸法線
  6
CONTINUOUS
 62
    7
 10
626.68632075471839
 20
752.61981132075459
 11
617.02706249182768
 21
755.20800177177978
  0
LINE
  8
_0-5_寸法線
  6
CONTINUOUS
 62
    7
 10
316.68632075471839
 20
752.61981132075459
 11
626.68632075471839
 21
752.61981132075459
  0
TEXT
  8
_0-5_寸法線
 62
    7
 10
460.43632075471839
 20
752.61981132075459
 40
15
 41
1
 50
0
  1
310
  0
LINE
  8
_0-5_寸法線
  6
CONTINUOUS
 62
    7
 10
621.68632075471839
 20
607.61981132075459
 11
621.68632075471896
 21
687.61981132075459
  0
LINE
  8
_0-5_寸法線
  6
CONTINUOUS
 62
    7
 10
621.68632075471896
 20
682.61981132075459
 11
612.02706249182813
 21
680.03162086972952
  0
LINE
  8
_0-5_寸法線
  6
CONTINUOUS
 62
    7
 10
621.68632075471896
 20
682.61981132075459
 11
612.02706249182813
 21
685.20800177177978
  0
LINE
  8
_0-5_寸法線
  6
CONTINUOUS
 62
    7
 10
321.686320754718
 20
607.61981132075459
 11
321.68632075471839
 21
687.61981132075459
  0
LINE
  8
_0-5_寸法線
  6
CONTINUOUS
 62
    7
 10
321.68632075471839
 20
682.61981132075459
 11
331.34557901760905
 21
685.20800177177978
  0
LINE
  8
_0-5_寸法線
  6
CONTINUOUS
 62
    7
 10
321.68632075471839
 20
682.61981132075459
 11
331.34557901760905
 21
680.03162086972952
  0
LINE
  8
_0-5_寸法線
  6
CONTINUOUS
 62
    7
 10
621.68632075471896
 20
682.61981132075459
 11
321.68632075471839
 21
682.61981132075459
  0
TEXT
  8
_0-5_寸法線
 62
    7
 10
460.43632075471839
 20
682.61981132075459
 40
15
 41
1
 50
0
  1
300
  0
LINE
  8
_0-5_寸法線
  6
CONTINUOUS
 62
    7
 10
316.68632075471794
 20
607.61981132075459
 11
316.68632075471794
 21
722.61981132075459
  0
LINE
  8
_0-5_寸法線
  6
CONTINUOUS
 62
    7
 10
316.68632075471794
 20
717.61981132075459
 11
307.02706249182722
 21
715.03162086972952
  0
LINE
  8
_0-5_寸法線
  6
CONTINUOUS
 62
    7
 10
316.68632075471794
 20
717.61981132075459
 11
307.02706249182722
 21
720.20800177177978
  0
LINE
  8
_0-5_寸法線
  6
CONTINUOUS
 62
    7
 10
319.68632075471794
 20
607.61981132075459
 11
319.68632075471794
 21
722.61981132075459
  0
LINE
  8
_0-5_寸法線
  6
CONTINUOUS
 62
    7
 10
291.68632075471794
 20
717.61981132075459
 11
319.68632075471794
 21
717.61981132075459
  0
TEXT
  8
_0-5_寸法線
 62
    7
 10
293.497430516571
 20
717.61981132075459
 40
15
 41
1
 50
0
  1
3
  0
LINE
  8
_0-5_寸法線
  6
CONTINUOUS
 62
    7
 10
319.68632075471794
 20
717.61981132075459
 11
329.34557901760866
 21
720.20800177177978
  0
LINE
  8
_0-5_寸法線
  6
CONTINUOUS
 62
    7
 10
319.68632075471794
 20
717.61981132075459
 11
329.3455790176086
 21
715.0316208697293
  0
LINE
  8
_0-5_寸法線
  6
CONTINUOUS
 62
    7
 10
623.68632075471839
 20
607.61981132075448
 11
623.68632075471839
 21
722.61981132075459
  0
LINE
  8
_0-5_寸法線
  6
CONTINUOUS
 62
    7
 10
623.68632075471839
 20
717.61981132075459
 11
614.02706249182768
 21
715.03162086972952
  0
LINE
  8
_0-5_寸法線
  6
CONTINUOUS
 62
    7
 10
623.68632075471839
 20
717.61981132075459
 11
614.02706249182768
 21
720.20800177177978
  0
LINE
  8
_0-5_寸法線
  6
CONTINUOUS
 62
    7
 10
319.68632075471794
 20
717.61981132075459
 11
623.68632075471839
 21
717.61981132075459
  0
TEXT
  8
_0-5_寸法線
 62
    7
 10
460.43632075471839
 20
717.61981132075448
 40
15
 41
1
 50
0
  1
304
  0
LINE
  8
_0-5_寸法線
  6
CONTINUOUS
 62
    7
 10
626.68632075471839
 20
607.61981132075459
 11
626.68632075471839
 21
722.61981132075459
  0
LINE
  8
_0-5_寸法線
  6
CONTINUOUS
 62
    7
 10
626.68632075471839
 20
717.61981132075459
 11
636.34557901760911
 21
720.20800177177978
  0
LINE
  8
_0-5_寸法線
  6
CONTINUOUS
 62
    7
 10
626.68632075471839
 20
717.61981132075459
 11
636.34557901760911
 21
715.0316208697293
  0
LINE
  8
_0-5_寸法線
  6
CONTINUOUS
 62
    7
 10
623.68632075471839
 20
717.61981132075459
 11
651.68632075471851
 21
717.61981132075459
  0
TEXT
  8
_0-5_寸法線
 62
    7
 10
642.95792579959061
 20
717.61981132075459
 40
15
 41
1
 50
0
  1
3
  0
LINE
  8
_0-5_寸法線
  6
CONTINUOUS
 62
    7
 10
306.68632075471794
 20
287.61981132075465
 11
226.68632075471791
 21
287.61981132075493
  0
LINE
  8
_0-5_寸法線
  6
CONTINUOUS
 62
    7
 10
231.68632075471791
 20
287.61981132075493
 11
229.09813030369278
 21
297.27906958364559
  0
LINE
  8
_0-5_寸法線
  6
CONTINUOUS
 62
    7
 10
231.68632075471791
 20
287.61981132075493
 11
234.27451120574318
 21
297.27906958364559
  0
LINE
  8
_0-5_寸法線
  6
CONTINUOUS
 62
    7
 10
306.68632075471794
 20
597.61981132075459
 11
226.68632075471791
 21
597.61981132075482
  0
LINE
  8
_0-5_寸法線
  6
CONTINUOUS
 62
    7
 10
231.68632075471791
 20
597.61981132075482
 11
234.27451120574318
 21
587.9605530578641
  0
LINE
  8
_0-5_寸法線
  6
CONTINUOUS
 62
    7
 10
231.68632075471791
 20
597.61981132075482
 11
229.09813030369278
 21
587.9605530578641
  0
LINE
  8
_0-5_寸法線
  6
CONTINUOUS
 62
    7
 10
231.68632075471791
 20
287.61981132075493
 11
231.68632075471791
 21
597.61981132075482
  0
TEXT
  8
_0-5_寸法線
 62
    7
 10
231.68632075471791
 20
431.36981132075482
 40
15
 41
1
 50
89.999999999999815
  1
310
  0
LINE
  8
_0-5_寸法線
  6
CONTINUOUS
 62
    7
 10
306.68632075471794
 20
287.61981132075459
 11
261.68632075471794
 21
287.61981132075471
  0
LINE
  8
_0-5_寸法線
  6
CONTINUOUS
 62
    7
 10
266.68632075471794
 20
287.61981132075471
 11
269.27451120574318
 21
277.96055305786399
  0
LINE
  8
_0-5_寸法線
  6
CONTINUOUS
 62
    7
 10
266.68632075471794
 20
287.61981132075471
 11
264.0981303036927
 21
277.96055305786405
  0
LINE
  8
_0-5_寸法線
  6
CONTINUOUS
 62
    7
 10
306.68632075471794
 20
290.61981132075459
 11
261.68632075471794
 21
290.61981132075471
  0
CIRCLE
  8
_0-5_寸法線
  6
CONTINUOUS
 62
    1
 10
266.68632075471794
 20
290.61981132075471
 40
1.5000000000000002
  0
LINE
  8
_0-5_寸法線
  6
CONTINUOUS
 62
    7
 10
266.68632075471794
 20
262.61981132075471
 11
266.68632075471794
 21
290.61981132075471
  0
TEXT
  8
_0-5_寸法線
 62
    7
 10
266.68632075471794
 20
265.97869215015237
 40
15
 41
1
 50
90
  1
3
  0
LINE
  8
_0-5_寸法線
  6
CONTINUOUS
 62
    7
 10
306.68632075471794
 20
292.61981132075425
 11
261.68632075471794
 21
292.61981132075437
  0
LINE
  8
_0-5_寸法線
  6
CONTINUOUS
 62
    7
 10
266.68632075471794
 20
290.61981132075471
 11
266.68632075471794
 21
292.61981132075437
  0
TEXT
  8
_0-5_寸法線
 62
    7
 10
284.11358617694748
 20
295.77247163128925
 40
15
 41
1
 50
90
  1
2
  0
LINE
  8
_0-5_寸法線
  6
CONTINUOUS
 62
    7
 10
266.68632075471794
 20
292.61981132075437
 11
264.09813030369276
 21
302.27906958364503
  0
LINE
  8
_0-5_寸法線
  6
CONTINUOUS
 62
    7
 10
266.68632075471794
 20
292.61981132075437
 11
269.27451120574318
 21
302.27906958364503
  0
LINE
  8
_0-5_寸法線
  6
CONTINUOUS
 62
    7
 10
306.68632075471794
 20
592.6198113207555
 11
261.68632075471794
 21
592.61981132075562
  0
LINE
  8
_0-5_寸法線
  6
CONTINUOUS
 62
    7
 10
266.68632075471794
 20
592.61981132075562
 11
269.27451120574318
 21
582.9605530578649
  0
LINE
  8
_0-5_寸法線
  6
CONTINUOUS
 62
    7
 10
266.68632075471794
 20
592.61981132075562
 11
264.0981303036927
 21
582.9605530578649
  0
LINE
  8
_0-5_寸法線
  6
CONTINUOUS
 62
    7
 10
266.68632075471794
 20
292.61981132075437
 11
266.68632075471794
 21
592.61981132075562
  0
TEXT
  8
_0-5_寸法線
 62
    7
 10
266.68632075471794
 20
431.36981132075505
 40
15
 41
1
 50
90
  1
300
  0
LINE
  8
_0-5_寸法線
  6
CONTINUOUS
 62
    7
 10
306.68632075471794
 20
594.61981132075471
 11
261.68632075471794
 21
594.61981132075471
  0
CIRCLE
  8
_0-5_寸法線
  6
CONTINUOUS
 62
    1
 10
266.68632075471794
 20
594.61981132075471
 40
1.5000000000000002
  0
LINE
  8
_0-5_寸法線
  6
CONTINUOUS
 62
    7
 10
266.68632075471794
 20
592.61981132075562
 11
266.68632075471794
 21
594.61981132075471
  0
TEXT
  8
_0-5_寸法線
 62
    7
 10
283.10754254487199
 20
584.05895453222433
 40
15
 41
1
 50
90
  1
2
  0
LINE
  8
_0-5_寸法線
  6
CONTINUOUS
 62
    7
 10
306.68632075471794
 20
597.61981132075459
 11
261.68632075471794
 21
597.61981132075471
  0
LINE
  8
_0-5_寸法線
  6
CONTINUOUS
 62
    7
 10
266.68632075471794
 20
597.61981132075471
 11
264.09813030369276
 21
607.27906958364542
  0
LINE
  8
_0-5_寸法線
  6
CONTINUOUS
 62
    7
 10
266.68632075471794
 20
597.61981132075471
 11
269.27451120574318
 21
607.27906958364542
  0
LINE
  8
_0-5_寸法線
  6
CONTINUOUS
 62
    7
 10
266.68632075471794
 20
594.61981132075471
 11
266.68632075471794
 21
622.61981132075471
  0
TEXT
  8
_0-5_寸法線
 62
    7
 10
266.68632075471794
 20
611.72456479166192
 40
15
 41
1
 50
90
  1
3
  0
LINE
  8
_0-7_枠細線
  6
CONTINUOUS
 62
    5
 10
230.34335540952895
 20
682.56785947116191
 11
222.84335540952895
 21
697.56785947116191
  0
LINE
  8
_0-7_枠細線
  6
CONTINUOUS
 62
    5
 10
215.34335540952895
 20
682.56785947116191
 11
230.34335540952895
 21
682.56785947116191
  0
LINE
  8
_0-7_枠細線
  6
CONTINUOUS
 62
    5
 10
222.84335540952895
 20
697.56785947116191
 11
215.34335540952895
 21
682.56785947116191
  0
LINE
  8
_0-5_寸法線
  6
CONTINUOUS
 62
    7
 10
419.186320754718
 20
444.16755312334067
 11
411.76061242487407
 21
450.86522852605214
  0
LINE
  8
_0-5_寸法線
  6
CONTINUOUS
 62
    7
 10
419.186320754718
 20
444.16755312334067
 11
416.10430640133518
 21
453.68076433331294
  0
LINE
  8
_0-5_寸法線
  6
CONTINUOUS
 62
    7
 10
419.186320754718
 20
444.16755312334067
 11
276.33347726338468
 21
664.55510216230334
  0
LINE
  8
_0-5_寸法線
  6
CONTINUOUS
 62
    7
 10
276.33347726338468
 20
664.55510216230334
 11
216.33347726338471
 21
664.55510216230334
  0
TEXT
  8
_0-5_寸法線
 62
    7
 10
216.33347726338471
 20
664.55510216230334
 40
15
 41
0.8000000000000001
 50
0
  1
取　外　具
  0
LINE
  8
_0-1_計細線
  6
CONTINUOUS
 62
    3
 10
386.68632075471749
 20
440.26981132075468
 11
439.68632075471754
 21
440.26981132075468
  0
LINE
  8
_0-1_計細線
  6
CONTINUOUS
 62
    3
 10
439.68632075471754
 20
444.96981132075456
 11
386.68632075471749
 21
444.96981132075456
  0
LINE
  8
_0-1_計細線
  6
CONTINUOUS
 62
    3
 10
386.68632075471749
 20
444.96981132075456
 11
386.68632075471749
 21
440.26981132075468
  0
LINE
  8
_0-1_計細線
  6
CONTINUOUS
 62
    3
 10
429.68632075471754
 20
444.96981132075456
 11
429.68632075471754
 21
440.26981132075468
  0
LINE
  8
_0-1_計細線
  6
CONTINUOUS
 62
    3
 10
437.68632075471749
 20
444.96981132075456
 11
437.68632075471749
 21
440.26981132075468
  0
LINE
  8
_0-1_計細線
  6
CONTINUOUS
 62
    3
 10
439.68632075471754
 20
444.96981132075456
 11
439.68632075471754
 21
440.26981132075468
  0
LINE
  8
_0-1_計細線
  6
CONTINUOUS
 62
    3
 10
435.68632075471754
 20
444.96981132075456
 11
435.68632075471754
 21
440.26981132075468
  0
LINE
  8
_0-1_計細線
  6
CONTINUOUS
 62
    3
 10
433.68632075471749
 20
444.96981132075456
 11
433.68632075471749
 21
440.26981132075468
  0
LINE
  8
_0-1_計細線
  6
CONTINUOUS
 62
    3
 10
431.68632075471749
 20
444.96981132075456
 11
431.68632075471749
 21
440.26981132075468
  0
TEXT
  8
_0-7_枠細線
 62
    5
 10
1180
 20
910
 40
12.5
 41
0.7199999999999999
 50
0
  1
２０２０．０９．０１
  0
LINE
  8
_0-5_寸法線
  6
CONTINUOUS
 62
    7
 10
321.686320754718
 20
607.61981132075459
 11
321.686320754718
 21
652.61981132075459
  0
LINE
  8
_0-5_寸法線
  6
CONTINUOUS
 62
    7
 10
321.686320754718
 20
647.61981132075459
 11
331.34557901760866
 21
650.20800177177978
  0
LINE
  8
_0-5_寸法線
  6
CONTINUOUS
 62
    7
 10
321.686320754718
 20
647.61981132075459
 11
331.34557901760866
 21
645.03162086972952
  0
LINE
  8
_0-5_寸法線
  6
CONTINUOUS
 62
    7
 10
328.68632075471794
 20
607.61981132075459
 11
328.68632075471794
 21
652.61981132075459
  0
LINE
  8
_0-5_寸法線
  6
CONTINUOUS
 62
    7
 10
328.68632075471794
 20
647.61981132075459
 11
319.02706249182728
 21
645.03162086972952
  0
LINE
  8
_0-5_寸法線
  6
CONTINUOUS
 62
    7
 10
328.68632075471794
 20
647.61981132075459
 11
319.02706249182728
 21
650.20800177177978
  0
LINE
  8
_0-5_寸法線
  6
CONTINUOUS
 62
    7
 10
321.686320754718
 20
647.61981132075459
 11
336.18632075471794
 21
647.61981132075459
  0
TEXT
  8
_0-5_寸法線
 62
    7
 10
328.68632075471794
 20
630.99051766754883
 40
15
 41
1
 50
0
  1
7
  0
LINE
  8
_0-5_寸法線
  6
CONTINUOUS
 62
    7
 10
328.68632075471794
 20
647.61981132075459
 11
338.34557901760866
 21
650.20800177177978
  0
LINE
  8
_0-5_寸法線
  6
CONTINUOUS
 62
    7
 10
328.68632075471794
 20
647.61981132075459
 11
338.3455790176086
 21
645.0316208697293
  0
LINE
  8
_0-5_寸法線
  6
CONTINUOUS
 62
    7
 10
474.186320754718
 20
607.61981132075459
 11
474.186320754718
 21
652.61981132075459
  0
LINE
  8
_0-5_寸法線
  6
CONTINUOUS
 62
    7
 10
474.186320754718
 20
647.61981132075459
 11
464.52706249182722
 21
645.03162086972952
  0
LINE
  8
_0-5_寸法線
  6
CONTINUOUS
 62
    7
 10
474.186320754718
 20
647.61981132075459
 11
464.52706249182734
 21
650.20800177177978
  0
LINE
  8
_0-5_寸法線
  6
CONTINUOUS
 62
    7
 10
328.68632075471794
 20
647.61981132075459
 11
474.186320754718
 21
647.61981132075459
  0
TEXT
  8
_0-5_寸法線
 62
    7
 10
356.43632075471794
 20
647.61981132075459
 40
15
 41
1
 50
0
  1
3@48.5=145.5
  0
LINE
  8
_0-5_寸法線
  6
CONTINUOUS
 62
    7
 10
474.186320754718
 20
647.61981132075459
 11
483.84557901760871
 21
650.20800177177978
  0
LINE
  8
_0-5_寸法線
  6
CONTINUOUS
 62
    7
 10
474.186320754718
 20
647.61981132075459
 11
483.84557901760866
 21
645.0316208697293
  0
LINE
  8
_0-5_寸法線
  6
CONTINUOUS
 62
    7
 10
517.68632075471805
 20
607.61981132075459
 11
517.68632075471805
 21
652.61981132075459
  0
LINE
  8
_0-5_寸法線
  6
CONTINUOUS
 62
    7
 10
517.68632075471805
 20
647.61981132075459
 11
508.02706249182728
 21
645.03162086972952
  0
LINE
  8
_0-5_寸法線
  6
CONTINUOUS
 62
    7
 10
517.68632075471805
 20
647.61981132075459
 11
508.02706249182734
 21
650.20800177177978
  0
LINE
  8
_0-5_寸法線
  6
CONTINUOUS
 62
    7
 10
474.186320754718
 20
647.61981132075459
 11
517.68632075471805
 21
647.61981132075459
  0
TEXT
  8
_0-5_寸法線
 62
    7
 10
480.93632075471794
 20
647.61981132075448
 40
15
 41
1
 50
0
  1
43.5
  0
LINE
  8
_0-5_寸法線
  6
CONTINUOUS
 62
    7
 10
517.68632075471805
 20
647.61981132075459
 11
527.34557901760866
 21
650.20800177177978
  0
LINE
  8
_0-5_寸法線
  6
CONTINUOUS
 62
    7
 10
517.68632075471805
 20
647.61981132075459
 11
527.34557901760866
 21
645.0316208697293
  0
LINE
  8
_0-5_寸法線
  6
CONTINUOUS
 62
    7
 10
614.68632075471851
 20
607.61981132075459
 11
614.68632075471851
 21
652.61981132075459
  0
LINE
  8
_0-5_寸法線
  6
CONTINUOUS
 62
    7
 10
614.68632075471851
 20
647.61981132075459
 11
605.02706249182768
 21
645.03162086972952
  0
LINE
  8
_0-5_寸法線
  6
CONTINUOUS
 62
    7
 10
614.68632075471851
 20
647.61981132075459
 11
605.02706249182768
 21
650.20800177177978
  0
LINE
  8
_0-5_寸法線
  6
CONTINUOUS
 62
    7
 10
517.68632075471805
 20
647.61981132075459
 11
614.68632075471851
 21
647.61981132075459
  0
TEXT
  8
_0-5_寸法線
 62
    7
 10
532.43632075471839
 20
647.61981132075459
 40
15
 41
1
 50
0
  1
2@48.5=97
  0
LINE
  8
_0-5_寸法線
  6
CONTINUOUS
 62
    7
 10
614.68632075471851
 20
647.61981132075459
 11
624.34557901760911
 21
650.20800177177978
  0
LINE
  8
_0-5_寸法線
  6
CONTINUOUS
 62
    7
 10
614.68632075471851
 20
647.61981132075459
 11
624.34557901760911
 21
645.0316208697293
  0
LINE
  8
_0-5_寸法線
  6
CONTINUOUS
 62
    7
 10
621.68632075471839
 20
607.61981132075459
 11
621.68632075471839
 21
652.61981132075459
  0
LINE
  8
_0-5_寸法線
  6
CONTINUOUS
 62
    7
 10
621.68632075471839
 20
647.61981132075459
 11
612.02706249182768
 21
645.03162086972952
  0
LINE
  8
_0-5_寸法線
  6
CONTINUOUS
 62
    7
 10
621.68632075471839
 20
647.61981132075459
 11
612.02706249182768
 21
650.20800177177978
  0
LINE
  8
_0-5_寸法線
  6
CONTINUOUS
 62
    7
 10
606.32221408340445
 20
647.61981132075459
 11
621.68632075471839
 21
647.61981132075459
  0
TEXT
  8
_0-5_寸法線
 62
    7
 10
606.32221408340445
 20
631.0679056392471
 40
15
 41
1
 50
0
  1
7
  0
LINE
  8
_0-5_寸法線
  6
CONTINUOUS
 62
    7
 10
961.39766904514306
 20
709.94874872574871
 11
961.39766904514306
 21
829.94855227252617
  0
LINE
  8
_0-5_寸法線
  6
CONTINUOUS
 62
    7
 10
961.39766904514306
 20
824.94855227252617
 11
971.05692730803366
 21
827.53674272355124
  0
LINE
  8
_0-5_寸法線
  6
CONTINUOUS
 62
    7
 10
961.39766904514306
 20
824.94855227252617
 11
971.05692730803366
 21
822.36036182150087
  0
LINE
  8
_0-5_寸法線
  6
CONTINUOUS
 62
    7
 10
1271.3976690451429
 20
709.94874872574871
 11
1271.3976690451429
 21
829.94855227252617
  0
LINE
  8
_0-5_寸法線
  6
CONTINUOUS
 62
    7
 10
1271.3976690451429
 20
824.94855227252617
 11
1261.7384107822522
 21
822.36036182150087
  0
LINE
  8
_0-5_寸法線
  6
CONTINUOUS
 62
    7
 10
1271.3976690451429
 20
824.94855227252617
 11
1261.7384107822522
 21
827.53674272355124
  0
LINE
  8
_0-5_寸法線
  6
CONTINUOUS
 62
    7
 10
961.39766904514306
 20
824.94855227252617
 11
1271.3976690451429
 21
824.94855227252617
  0
TEXT
  8
_0-5_寸法線
 62
    7
 10
1105.1476690451429
 20
824.94855227252617
 40
15
 41
1
 50
0
  1
310
  0
LINE
  8
_0-5_寸法線
  6
CONTINUOUS
 62
    7
 10
961.39766904514306
 20
789.94855227252617
 11
951.73841078225223
 21
787.36036182150087
  0
LINE
  8
_0-5_寸法線
  6
CONTINUOUS
 62
    7
 10
961.39766904514306
 20
789.94855227252617
 11
951.73841078225223
 21
792.53674272355124
  0
LINE
  8
_0-5_寸法線
  6
CONTINUOUS
 62
    7
 10
964.39766904514295
 20
709.44874872574871
 11
964.39766904514295
 21
794.94855227252617
  0
CIRCLE
  8
_0-5_寸法線
  6
CONTINUOUS
 62
    1
 10
964.39766904514295
 20
789.94855227252617
 40
1.5000000000000002
  0
LINE
  8
_0-5_寸法線
  6
CONTINUOUS
 62
    7
 10
936.39766904514306
 20
789.94855227252617
 11
964.39766904514295
 21
789.94855227252617
  0
TEXT
  8
_0-5_寸法線
 62
    7
 10
939.16075804477077
 20
789.94855227252617
 40
15
 41
1
 50
0
  1
3
  0
LINE
  8
_0-5_寸法線
  6
CONTINUOUS
 62
    7
 10
966.39766904514272
 20
707.94874772474191
 11
966.39766904514329
 21
794.94855227252617
  0
LINE
  8
_0-5_寸法線
  6
CONTINUOUS
 62
    7
 10
964.39766904514295
 20
789.94855227252617
 11
966.39766904514329
 21
789.94855227252617
  0
TEXT
  8
_0-5_寸法線
 62
    7
 10
966.50169516508458
 20
789.94855227252617
 40
15
 41
1
 50
0
  1
2
  0
LINE
  8
_0-5_寸法線
  6
CONTINUOUS
 62
    7
 10
966.39766904514329
 20
789.94855227252617
 11
976.05692730803412
 21
792.53674272355124
  0
LINE
  8
_0-5_寸法線
  6
CONTINUOUS
 62
    7
 10
966.39766904514329
 20
789.94855227252617
 11
976.05692730803412
 21
787.36036182150087
  0
LINE
  8
_0-5_寸法線
  6
CONTINUOUS
 62
    7
 10
1266.3976690451432
 20
707.94874772474191
 11
1266.3976690451432
 21
794.94855227252617
  0
LINE
  8
_0-5_寸法線
  6
CONTINUOUS
 62
    7
 10
1266.3976690451432
 20
789.94855227252617
 11
1256.7384107822525
 21
787.36036182150087
  0
LINE
  8
_0-5_寸法線
  6
CONTINUOUS
 62
    7
 10
1266.3976690451432
 20
789.94855227252617
 11
1256.7384107822525
 21
792.53674272355124
  0
LINE
  8
_0-5_寸法線
  6
CONTINUOUS
 62
    7
 10
966.39766904514329
 20
789.94855227252617
 11
1266.3976690451432
 21
789.94855227252617
  0
TEXT
  8
_0-5_寸法線
 62
    7
 10
1105.1476690451432
 20
789.94855227252617
 40
15
 41
1
 50
0
  1
300
  0
LINE
  8
_0-5_寸法線
  6
CONTINUOUS
 62
    7
 10
1268.3976690451432
 20
709.44874872574871
 11
1268.3976690451432
 21
794.94855227252617
  0
CIRCLE
  8
_0-5_寸法線
  6
CONTINUOUS
 62
    1
 10
1268.3976690451432
 20
789.94855227252617
 40
1.5000000000000002
  0
LINE
  8
_0-5_寸法線
  6
CONTINUOUS
 62
    7
 10
1266.3976690451432
 20
789.94855227252617
 11
1268.3976690451432
 21
789.94855227252617
  0
TEXT
  8
_0-5_寸法線
 62
    7
 10
1258.6993293042383
 20
789.94855227252617
 40
15
 41
1
 50
0
  1
2
  0
LINE
  8
_0-5_寸法線
  6
CONTINUOUS
 62
    7
 10
1271.3976690451429
 20
789.94855227252617
 11
1281.0569273080339
 21
792.53674272355124
  0
LINE
  8
_0-5_寸法線
  6
CONTINUOUS
 62
    7
 10
1271.3976690451429
 20
789.94855227252617
 11
1281.0569273080339
 21
787.36036182150087
  0
LINE
  8
_0-5_寸法線
  6
CONTINUOUS
 62
    7
 10
1268.3976690451432
 20
789.94855227252617
 11
1296.3976690451429
 21
789.94855227252617
  0
TEXT
  8
_0-5_寸法線
 62
    7
 10
1285.5441664895479
 20
789.94855227252617
 40
15
 41
1
 50
0
  1
3
  0
LINE
  8
_0-7_枠細線
  6
CONTINUOUS
 62
    5
 10
370.58172123103918
 20
665.41883756523703
 11
363.08172123103918
 21
680.41883756523703
  0
LINE
  8
_0-7_枠細線
  6
CONTINUOUS
 62
    5
 10
355.58172123103918
 20
665.41883756523703
 11
370.58172123103918
 21
665.41883756523703
  0
LINE
  8
_0-7_枠細線
  6
CONTINUOUS
 62
    5
 10
363.08172123103918
 20
680.41883756523703
 11
355.58172123103918
 21
665.41883756523703
  0
LINE
  8
_0-5_寸法線
  6
CONTINUOUS
 62
    7
 10
1099.7061486022526
 20
690.68453563704384
 11
1080.1330476554194
 21
704.38976846615583
  0
LINE
  8
_0-5_寸法線
  6
CONTINUOUS
 62
    7
 10
1084.2288078768645
 20
701.52188628440058
 11
1081.6406174258393
 21
711.18114454729141
  0
LINE
  8
_0-5_寸法線
  6
CONTINUOUS
 62
    7
 10
1084.2288078768645
 20
701.52188628440058
 11
1086.8169983278899
 21
711.18114454729141
  0
LINE
  8
_0-5_寸法線
  6
CONTINUOUS
 62
    7
 10
1099.7061486022526
 20
710.68453563704384
 11
1080.1330476554197
 21
724.38976846615628
  0
LINE
  8
_0-5_寸法線
  6
CONTINUOUS
 62
    7
 10
1084.2288078768645
 20
721.52188628440103
 11
1086.8169983278899
 21
711.86262802151032
  0
LINE
  8
_0-5_寸法線
  6
CONTINUOUS
 62
    7
 10
1084.2288078768645
 20
721.52188628440103
 11
1081.6406174258393
 21
711.86262802151032
  0
LINE
  8
_0-5_寸法線
  6
CONTINUOUS
 62
    7
 10
1084.2288078768645
 20
701.52188628440058
 11
1084.2288078768645
 21
721.52188628440103
  0
TEXT
  8
_0-5_寸法線
 62
    7
 10
1084.2288078768645
 20
704.02188628440081
 40
15
 41
1
 50
90
  1
20
  0
LINE
  8
_0-5_寸法線
  6
CONTINUOUS
 62
    7
 10
1045.5976690425923
 20
712.94877127353334
 11
1045.5976690425923
 21
759.94877127353323
  0
LINE
  8
_0-5_寸法線
  6
CONTINUOUS
 62
    7
 10
1045.5976690425923
 20
754.94877127353323
 11
1035.9384107797014
 21
752.36058082250793
  0
LINE
  8
_0-5_寸法線
  6
CONTINUOUS
 62
    7
 10
1045.5976690425923
 20
754.94877127353323
 11
1035.9384107797014
 21
757.5369617245583
  0
LINE
  8
_0-5_寸法線
  6
CONTINUOUS
 62
    7
 10
1051.1976690451613
 20
712.94877127353334
 11
1051.1976690451613
 21
759.94877127353323
  0
LINE
  8
_0-5_寸法線
  6
CONTINUOUS
 62
    7
 10
1006.2237133594251
 20
754.94877127353323
 11
1051.1976690451613
 21
754.94877127353323
  0
TEXT
  8
_0-5_寸法線
 62
    7
 10
1006.2237133594251
 20
739.94877127353323
 40
15
 41
1
 50
0
  1
(5.6)
  0
LINE
  8
_0-5_寸法線
  6
CONTINUOUS
 62
    7
 10
1051.1976690451613
 20
754.94877127353323
 11
1060.856927308052
 21
757.5369617245583
  0
LINE
  8
_0-5_寸法線
  6
CONTINUOUS
 62
    7
 10
1051.1976690451613
 20
754.94877127353323
 11
1060.856927308052
 21
752.36058082250793
  0
LINE
  8
_0-5_寸法線
  6
CONTINUOUS
 62
    7
 10
1062.5976690429536
 20
712.94877127353334
 11
1062.5976690429536
 21
759.94877127353323
  0
LINE
  8
_0-5_寸法線
  6
CONTINUOUS
 62
    7
 10
1062.5976690429536
 20
754.94877127353323
 11
1052.9384107800629
 21
752.36058082250793
  0
LINE
  8
_0-5_寸法線
  6
CONTINUOUS
 62
    7
 10
1062.5976690429536
 20
754.94877127353323
 11
1052.9384107800629
 21
757.5369617245583
  0
LINE
  8
_0-5_寸法線
  6
CONTINUOUS
 62
    7
 10
1051.1976690451613
 20
754.94877127353323
 11
1062.5976690429536
 21
754.94877127353323
  0
TEXT
  8
_0-5_寸法線
 62
    7
 10
1038.1329726177075
 20
754.94877127353323
 40
15
 41
1
 50
0
  1
11.4
  0
LINE
  8
_0-5_寸法線
  6
CONTINUOUS
 62
    7
 10
1158.897669046228
 20
714.94877127353323
 11
1158.897669046228
 21
759.94877127353323
  0
LINE
  8
_0-5_寸法線
  6
CONTINUOUS
 62
    7
 10
1158.897669046228
 20
754.94877127353323
 11
1168.5569273091187
 21
757.5369617245583
  0
LINE
  8
_0-5_寸法線
  6
CONTINUOUS
 62
    7
 10
1158.897669046228
 20
754.94877127353323
 11
1168.5569273091187
 21
752.36058082250793
  0
LINE
  8
_0-5_寸法線
  6
CONTINUOUS
 62
    7
 10
1175.8976690465895
 20
714.94877127353323
 11
1175.8976690465895
 21
759.94877127353323
  0
LINE
  8
_0-5_寸法線
  6
CONTINUOUS
 62
    7
 10
1175.8976690465895
 20
754.94877127353323
 11
1166.2384107836988
 21
752.36058082250793
  0
LINE
  8
_0-5_寸法線
  6
CONTINUOUS
 62
    7
 10
1175.8976690465895
 20
754.94877127353323
 11
1166.2384107836988
 21
757.5369617245583
  0
LINE
  8
_0-5_寸法線
  6
CONTINUOUS
 62
    7
 10
1158.897669046228
 20
754.94877127353323
 11
1175.8976690465895
 21
754.94877127353323
  0
TEXT
  8
_0-5_寸法線
 62
    7
 10
1151.2416917538042
 20
739.94877127353323
 40
15
 41
1
 50
0
  1
(17)
  0
LINE
  8
_0-5_寸法線
  6
CONTINUOUS
 62
    7
 10
1175.8976690465895
 20
754.94877127353323
 11
1185.5569273094802
 21
757.5369617245583
  0
LINE
  8
_0-5_寸法線
  6
CONTINUOUS
 62
    7
 10
1175.8976690465895
 20
754.94877127353323
 11
1185.5569273094802
 21
752.36058082250781
  0
LINE
  8
_0-5_寸法線
  6
CONTINUOUS
 62
    7
 10
1192.8976690469513
 20
714.94877127353323
 11
1192.8976690469513
 21
759.94877127353323
  0
LINE
  8
_0-5_寸法線
  6
CONTINUOUS
 62
    7
 10
1192.8976690469513
 20
754.94877127353323
 11
1183.2384107840603
 21
752.36058082250793
  0
LINE
  8
_0-5_寸法線
  6
CONTINUOUS
 62
    7
 10
1192.8976690469513
 20
754.94877127353323
 11
1183.2384107840603
 21
757.5369617245583
  0
LINE
  8
_0-5_寸法線
  6
CONTINUOUS
 62
    7
 10
1175.8976690465895
 20
754.94877127353323
 11
1192.8976690469513
 21
754.94877127353323
  0
TEXT
  8
_0-5_寸法線
 62
    7
 10
1170.3083584202293
 20
754.94877127353323
 40
15
 41
1
 50
0
  1
(17)
  0
TEXT
  8
_0-5_寸法線
 62
    7
 10
216.63742710745183
 20
649.55510216230334
 40
15
 41
0.8000000000000001
 50
0
  1
(標準付属)
  0
TEXT
  8
_0-7_枠細線
 62
    5
 10
1180
 20
892.5
 40
12.5
 41
0.7199999999999999
 50
0
  1
２０２０．１０．０１
  0
TEXT
  8
_0-7_枠細線
 62
    5
 10
938.85037037037023
 20
910
 40
12.5
 41
1
 50
0
  1
クロスバーピッチ変更
  0
TEXT
  8
_0-7_枠細線
 62
    5
 10
938.85037037037023
 20
892.5
 40
12.5
 41
1
 50
0
  1
取外具形状変更
  0
TEXT
  8
_0-7_枠細線
 62
    5
 10
357.94687249918724
 20
665.11183531985648
 40
12.5
 41
0.8
 50
0
  1
２
  0
TEXT
  8
_0-7_枠細線
 62
    5
 10
217.70850667767704
 20
682.26085722578136
 40
12.5
 41
0.8
 50
0
  1
３
  0
ENDSEC
  0
EOF
