  0
SECTION
  2
HEADER
  9
$ACADVER
  1
AC1009
  9
$INSBASE
 10
0
 20
0
 30
0
  9
$EXTMIN
 10
0
 20
0
  9
$EXTMAX
 10
1485
 20
1050
  9
$LIMMIN
 10
0
 20
0
  9
$LIMMAX
 10
1485
 20
1050
  9
$LTSCALE
 40
5
  0
ENDSEC
  0
SECTION
  2
TABLES
  0
TABLE
  2
LTYPE
 70
     9
  0
LTYPE
  2
CONTINUOUS
 70
    64
  3
実線
 72
    65
 73
     0
 40
0.0
  0
LTYPE
  2
DASHED1
 70
    64
  3
--  --  --  --  --  --  --  --  
 72
    65
 73
     2
 40
2.5
 49
1.25
 49
-1.25
  0
LTYPE
  2
DASHED2
 70
    64
  3
----    ----    ----    ----    
 72
    65
 73
     2
 40
5.0
 49
2.5
 49
-2.5
  0
LTYPE
  2
DASHED3
 70
    64
  3
------  ------  ------  ------  
 72
    65
 73
     2
 40
5.0
 49
3.75
 49
-1.25
  0
LTYPE
  2
CENTER1
 70
    64
  3
----- - ----- - ----- - ----- - 
 72
    65
 73
     4
 40
10.0
 49
6.25
 49
-1.25
 49
1.25
 49
-1.25
  0
LTYPE
  2
CENTER2
 70
    64
  3
----------  --  ----------  --  
 72
    65
 73
     4
 40
20.0
 49
12.5
 49
-2.5
 49
2.5
 49
-2.5
  0
LTYPE
  2
PHANTOM1
 70
    64
  3
--- - - --- - - --- - - --- - - 
 72
    65
 73
     6
 40
10.0
 49
3.25
 49
-1.25
 49
1.25
 49
-1.25
 49
1.25
 49
-1.25
  0
LTYPE
  2
PHANTOM2
 70
    64
  3
--------  -  -  --------  -  -  
 72
    65
 73
     6
 40
20.0
 49
10.0
 49
-2.5
 49
1.25
 49
-2.5
 49
1.25
 49
-2.5
  0
LTYPE
  2
DOT
 70
    64
  3
-   -   -   -   -   -   -   -   
 72
    65
 73
     2
 40
2.5
 49
0.625
 49
-1.875
  0
LTYPE
  2
DUMMY
 70
    64
  3
ダミー
 72
    65
 73
     0
 40
0.0
  0
LTYPE
  2
RAND1
 70
    64
  3
ランダム線1
 72
    65
 73
     4
 40
10.0
 49
1.0
 49
-2.0
 49
3.0
 49
-4.0
  0
LTYPE
  2
RAND2
 70
    64
  3
ランダム線2
 72
    65
 73
     4
 40
14.0
 49
2.0
 49
-3.0
 49
4.0
 49
-5.0
  0
LTYPE
  2
RAND3
 70
    64
  3
ランダム線3
 72
    65
 73
     4
 40
18.0
 49
3.0
 49
-4.0
 49
5.0
 49
-6.0
  0
LTYPE
  2
RAND4
 70
    64
  3
ランダム線4
 72
    65
 73
     4
 40
22.0
 49
4.0
 49
-5.0
 49
6.0
 49
-7.0
  0
LTYPE
  2
RAND5
 70
    64
  3
ランダム線5
 72
    65
 73
     4
 40
26.0
 49
5.0
 49
-6.0
 49
7.0
 49
-8.0
  0
LTYPE
  2
LONG1
 70
    64
  3
----------  --  ----------  --  
 72
    65
 73
     4
 40
40.0
 49
32.5
 49
-2.5
 49
2.5
 49
-2.5
  0
LTYPE
  2
LONG2
 70
    64
  3
--------  -  -  --------  -  -  
 72
    65
 73
     6
 40
40.0
 49
30.0
 49
-2.5
 49
1.25
 49
-2.5
 49
1.25
 49
-2.5
  0
LTYPE
  2
LONG3
 70
    64
  3
+++++++++++++++..+++++++++++++++
 72
    65
 73
     2
 40
40.0
 49
37.5
 49
-2.5
  0
LTYPE
  2
LONG4
 70
    64
  3
+++++++++++++++..+++++++++++++++
 72
    65
 73
     2
 40
80.0
 49
75.0
 49
-5.0
  0
LTYPE
  2
LONG5
 70
    64
  3
----------  --  ----------  --  
 72
    65
 73
     4
 40
60.0
 49
37.5
 49
-7.5
 49
7.5
 49
-7.5
  0
LTYPE
  2
dashed
 70
   64
  3
-------   -------------   ------
 72
   65
 73
    2
 40
7.5
 49
6
 49
-1.5
  0
LTYPE
  2
dashed_spaced
 70
   64
  3
----        --------        ----
 72
   65
 73
    2
 40
12
 49
6
 49
-6
  0
LTYPE
  2
long_dashed_dotted
 70
   64
  3
------------- --- --------------
 72
   65
 73
    4
 40
15.25
 49
12
 49
-1.5
 49
0.25
 49
-1.5
  0
LTYPE
  2
long_dashed_double-dotted
 70
   64
  3
----------- --- --- ------------
 72
   65
 73
    6
 40
17
 49
12
 49
-1.5
 49
0.25
 49
-1.5
 49
0.25
 49
-1.5
  0
LTYPE
  2
long_dashed_triplicate-dotted
 70
   64
  3
--------- --- --- --- ----------
 72
   65
 73
    8
 40
18.75
 49
12
 49
-1.5
 49
0.25
 49
-1.5
 49
0.25
 49
-1.5
 49
0.25
 49
-1.5
  0
LTYPE
  2
dotted
 70
   64
  3
   -       -       -       -    
 72
   65
 73
    2
 40
1.75
 49
0.25
 49
-1.5
  0
LTYPE
  2
chain
 70
   64
  3
-------------- -- --------------
 72
   65
 73
    4
 40
18.5
 49
12
 49
-1.5
 49
3.5
 49
-1.5
  0
LTYPE
  2
chain_double_dash
 70
   64
  3
------------ -- -- -------------
 72
   65
 73
    6
 40
23.5
 49
12
 49
-1.5
 49
3.5
 49
-1.5
 49
3.5
 49
-1.5
  0
LTYPE
  2
dashed_dotted
 70
   64
  3
-----------     -     ----------
 72
   65
 73
    4
 40
9.25
 49
6
 49
-1.5
 49
0.25
 49
-1.5
  0
LTYPE
  2
double-dashed_dotted
 70
   64
  3
------   -----------   -   -----
 72
   65
 73
    6
 40
16.75
 49
6
 49
-1.5
 49
6
 49
-1.5
 49
0.25
 49
-1.5
  0
LTYPE
  2
dashed_double-dotted
 70
   64
  3
---------    -    -    ---------
 72
   65
 73
    6
 40
11
 49
6
 49
-1.5
 49
0.25
 49
-1.5
 49
0.25
 49
-1.5
  0
LTYPE
  2
double-dashed_double-dotted
 70
   64
  3
-----   ---------   -   -   ----
 72
   65
 73
    8
 40
18.5
 49
6
 49
-1.5
 49
6
 49
-1.5
 49
0.25
 49
-1.5
 49
0.25
 49
-1.5
  0
LTYPE
  2
dashed_triplicate-dotted
 70
   64
  3
-------    -    -    -    ------
 72
   65
 73
    8
 40
12.75
 49
6
 49
-1.5
 49
0.25
 49
-1.5
 49
0.25
 49
-1.5
 49
0.25
 49
-1.5
  0
LTYPE
  2
double-dashed_triplicate-dotted
 70
   64
  3
-----  ---------  -  -  -  -----
 72
   65
 73
   10
 40
20.25
 49
6
 49
-1.5
 49
6
 49
-1.5
 49
0.25
 49
-1.5
 49
0.25
 49
-1.5
 49
0.25
 49
-1.5
  0
LTYPE
  2
undefined
 70
   64
  3
--------------------------------
 72
   65
 73
    0
 40
0
  0
ENDTAB
  0
TABLE
  2
STYLE
  5
3
100
AcDbSymbolTable
 70
     1
  0
STYLE
  5
10
100
AcDbSymbolTableRecord
100
AcDbTextStyleTableRecord
  2
STANDARD
 70
     0
 40
0.0
 41
1.0
 50
0.0
 71
     0
 42
0.2
  3
txt
  4
bigfont.shx
  0
STYLE
  5
26
100
AcDbSymbolTableRecord
100
AcDbTextStyleTableRecord
  2
TATEGAKI
 70
    68
 40
0.0
 41
1.0
 50
0.0
 71
     0
 42
1.0
  3
txt
  4
bigfont.shx
  0
ENDTAB
  0
TABLE
  2
LAYER
 70
    7
  0
LAYER
  2
_0-0_計極細
 70
   64
 62
    7
  6
CONTINUOUS
  0
LAYER
  2
_0-1_計細線
 70
   64
 62
    7
  6
CONTINUOUS
  0
LAYER
  2
_0-5_寸法線
 70
   64
 62
    7
  6
CONTINUOUS
  0
LAYER
  2
_0-7_枠細線
 70
   64
 62
    7
  6
CONTINUOUS
  0
LAYER
  2
_0-8_枠中線
 70
   64
 62
    7
  6
CONTINUOUS
  0
LAYER
  2
_0-9_枠極太
 70
   64
 62
    7
  6
CONTINUOUS
  0
LAYER
  2
ADD_LINE
 70
   64
 62
    7
  6
CONTINUOUS
  0
ENDTAB
  0
ENDSEC
  0
SECTION
  2
BLOCKS
  0
ENDSEC
  0
SECTION
  2
ENTITIES
  0
LINE
  8
_0-7_枠細線
  6
CONTINUOUS
 62
    5
 10
1185
 20
180
 11
1185
 21
100
  0
TEXT
  8
_0-7_枠細線
 62
    5
 10
937.5
 20
97.5
 40
17.5
 41
1
 50
0
  1
備考
  7
TATEGAKI
  0
TEXT
  8
_0-7_枠細線
 62
    5
 10
937.5
 20
137.5
 40
17.5
 41
1
 50
0
  1
品番
  7
TATEGAKI
  0
TEXT
  8
_0-7_枠細線
 62
    5
 10
937.5
 20
177.5
 40
17.5
 41
1
 50
0
  1
品名
  7
TATEGAKI
  0
LINE
  8
_0-7_枠細線
  6
CONTINUOUS
 62
    5
 10
1185
 20
140
 11
925
 21
140
  0
LINE
  8
_0-7_枠細線
  6
CONTINUOUS
 62
    5
 10
950
 20
180
 11
950
 21
60
  0
LINE
  8
_0-8_枠中線
  6
CONTINUOUS
 62
    5
 10
1425
 20
180
 11
925
 21
180
  0
LINE
  8
_0-8_枠中線
  6
CONTINUOUS
 62
    5
 10
925
 20
180
 11
925
 21
60
  0
LINE
  8
_0-7_枠細線
  6
CONTINUOUS
 62
    5
 10
1245
 20
180
 11
1245
 21
60
  0
TEXT
  8
_0-7_枠細線
 62
    5
 10
1192.5
 20
160
 40
15
 41
1
 50
0
  1
縮　尺
  0
LINE
  8
_0-7_枠細線
  6
CONTINUOUS
 62
    5
 10
1185
 20
155
 11
1245
 21
155
  0
LINE
  8
_0-7_枠細線
  6
CONTINUOUS
 62
    5
 10
1245
 20
100
 11
925
 21
100
  0
LINE
  8
_0-7_枠細線
  6
CONTINUOUS
 62
    5
 10
1425
 20
90
 11
1245
 21
90
  0
LINE
  8
_0-7_枠細線
  6
CONTINUOUS
 62
    5
 10
1245
 20
120
 11
1425
 21
120
  0
LINE
  8
_0-7_枠細線
  6
CONTINUOUS
 62
    5
 10
1425
 20
140
 11
1245
 21
140
  0
TEXT
  8
_0-7_枠細線
 62
    5
 10
1255
 20
147.5
 40
25
 41
0.8
 50
0
  1
株式会社シマブン
  0
TEXT
  8
_0-7_枠細線
 62
    5
 10
1252.5
 20
60
 40
15
 41
1
 50
0
  1
年月日
  0
TEXT
  8
_0-7_枠細線
 62
    5
 10
1252.5
 20
75
 40
15
 41
1
 50
0
  1
作　成
  0
TEXT
  8
_0-7_枠細線
 62
    5
 10
1256.25
 20
122.5
 40
15
 41
1
 50
0
  1
承 認
  0
LINE
  8
_0-7_枠細線
  6
CONTINUOUS
 62
    5
 10
1305
 20
140
 11
1305
 21
60
  0
TEXT
  8
_0-7_枠細線
 62
    5
 10
1316.25
 20
122.5
 40
15
 41
1
 50
0
  1
検 図
  0
LINE
  8
_0-7_枠細線
  6
CONTINUOUS
 62
    5
 10
1365
 20
140
 11
1365
 21
90
  0
TEXT
  8
_0-7_枠細線
 62
    5
 10
1375
 20
95
 40
20
 41
1
 50
0
  1
藤戸
  0
TEXT
  8
_0-7_枠細線
 62
    5
 10
1376.25
 20
122.5
 40
15
 41
1
 50
0
  1
設 計
  0
TEXT
  8
_0-7_枠細線
 62
    5
 10
1193.9999999999998
 20
117.5
 40
20
 41
0.7000000000000001
 50
0
  1
１：５
  0
TEXT
  8
_0-7_枠細線
 62
    5
 10
960.5
 20
158.74999999999994
 40
20.000000000000007
 41
0.5999999999999998
 50
0
  1
セーフティグレーチングＨ２０タイプ
  0
TEXT
  8
_0-7_枠細線
 62
    5
 10
1068.5
 20
141.25
 40
20.000000000000007
 41
0.5999999999999998
 50
0
  1
集水マス　補強仕様
  0
TEXT
  8
_0-7_枠細線
 62
    5
 10
960.5
 20
69.999999999999858
 40
20
 41
0.5999999999999998
 50
0
  1
色については表参照のこと
  0
TEXT
  8
_0-7_枠細線
 62
    5
 10
960.5
 20
109.99999999999993
 40
20.000000000000007
 41
0.5999999999999998
 50
0
  1
ＧＲＳＫ－２０Ｋ３５０
  0
LINE
  8
_0-7_枠細線
  6
CONTINUOUS
 62
    5
 10
1425
 20
942.5
 11
890
 21
942.5
  0
TEXT
  8
_0-7_枠細線
 62
    5
 10
895
 20
945
 40
12.5
 41
1
 50
0
  1
記号
  0
TEXT
  8
_0-7_枠細線
 62
    5
 10
996.875
 20
945
 40
12.5
 41
1
 50
0
  1
訂　 正　 記　 事
  0
TEXT
  8
_0-7_枠細線
 62
    5
 10
1181.25
 20
945
 40
12.5
 41
1
 50
0
  1
訂 正 年 月 日
  0
TEXT
  8
_0-7_枠細線
 62
    5
 10
1306.25
 20
945
 40
12.5
 41
1
 50
0
  1
備　　　　　考
  0
LINE
  8
_0-7_枠細線
  6
CONTINUOUS
 62
    5
 10
1425
 20
925
 11
890
 21
925
  0
TEXT
  8
_0-7_枠細線
 62
    5
 10
961.00000000000023
 20
453.73352999148574
 40
15
 41
0.8000000000000001
 50
0
  1
品　　番
  0
LINE
  8
_0-7_枠細線
  6
CONTINUOUS
 62
    5
 10
925
 20
398.7335299914858
 11
1245.0000000000002
 21
398.7335299914858
  0
LINE
  8
_0-7_枠細線
  6
CONTINUOUS
 62
    5
 10
925
 20
423.7335299914858
 11
1245.0000000000002
 21
423.7335299914858
  0
LINE
  8
_0-7_枠細線
  6
CONTINUOUS
 62
    5
 10
925
 20
448.73352999148574
 11
1245.0000000000002
 21
448.73352999148574
  0
TEXT
  8
_0-7_枠細線
 62
    5
 10
1089.0000000000005
 20
453.73352999148574
 40
15
 41
0.8000000000000001
 50
0
  1
色
  0
TEXT
  8
_0-7_枠細線
 62
    5
 10
1171.0000000000005
 20
453.73352999148574
 40
15
 41
0.8000000000000001
 50
0
  1
備　　考
  0
LINE
  8
_0-7_枠細線
  6
CONTINUOUS
 62
    5
 10
925
 20
473.73352999148574
 11
1245.0000000000002
 21
473.73352999148574
  0
LINE
  8
_0-7_枠細線
  6
CONTINUOUS
 62
    5
 10
925
 20
248.73352999148577
 11
1245.0000000000002
 21
248.73352999148577
  0
LINE
  8
_0-7_枠細線
  6
CONTINUOUS
 62
    5
 10
925
 20
373.73352999148574
 11
1245.0000000000002
 21
373.73352999148574
  0
LINE
  8
_0-7_枠細線
  6
CONTINUOUS
 62
    5
 10
925
 20
348.73352999148574
 11
1245.0000000000002
 21
348.73352999148574
  0
LINE
  8
_0-7_枠細線
  6
CONTINUOUS
 62
    5
 10
925
 20
323.73352999148574
 11
1245.0000000000002
 21
323.73352999148574
  0
LINE
  8
_0-7_枠細線
  6
CONTINUOUS
 62
    5
 10
925
 20
298.73352999148574
 11
1245.0000000000002
 21
298.73352999148574
  0
LINE
  8
_0-7_枠細線
  6
CONTINUOUS
 62
    5
 10
925
 20
273.73352999148574
 11
1245.0000000000002
 21
273.73352999148574
  0
TEXT
  8
_0-7_枠細線
 62
    5
 10
1023.75
 20
478.73352999148574
 40
17.5
 41
1
 50
0
  1
品番表
  0
LINE
  8
_0-7_枠細線
  6
CONTINUOUS
 62
    5
 10
925
 20
223.73352999148577
 11
1245.0000000000002
 21
223.73352999148577
  0
LINE
  8
_0-7_枠細線
  6
CONTINUOUS
 62
    5
 10
1245.0000000000002
 20
473.73352999148574
 11
1245.0000000000002
 21
223.73352999148577
  0
LINE
  8
_0-7_枠細線
  6
CONTINUOUS
 62
    5
 10
1145
 20
473.73352999148574
 11
1145
 21
223.73352999148577
  0
LINE
  8
_0-7_枠細線
  6
CONTINUOUS
 62
    5
 10
1045.0000000000005
 20
473.73352999148574
 11
1045.0000000000005
 21
223.73352999148577
  0
LINE
  8
_0-7_枠細線
  6
CONTINUOUS
 62
    5
 10
925
 20
473.73352999148574
 11
925
 21
223.73352999148577
  0
LINE
  8
_0-7_枠細線
  6
CONTINUOUS
 62
    5
 10
1290.7925839968264
 20
393.7335299914858
 11
1290.7925839968264
 21
473.73352999148574
  0
TEXT
  8
_0-7_枠細線
 62
    5
 10
1313.2925839968264
 20
451.23352999148574
 40
15.000000000000004
 41
1
 50
0
  1
耐荷重
  0
TEXT
  8
_0-7_枠細線
 62
    5
 10
1298.2925839968264
 20
401.2335299914858
 40
15.000000000000004
 41
1
 50
0
  1
（歩道用）
  0
LINE
  8
_0-7_枠細線
  6
CONTINUOUS
 62
    5
 10
1380.7925839968264
 20
393.7335299914858
 11
1380.7925839968264
 21
473.73352999148574
  0
LINE
  8
_0-7_枠細線
  6
CONTINUOUS
 62
    5
 10
1290.7925839968264
 20
473.73352999148574
 11
1380.7925839968264
 21
473.73352999148574
  0
LINE
  8
_0-7_枠細線
  6
CONTINUOUS
 62
    5
 10
1290.7925839968264
 20
443.7335299914858
 11
1380.7925839968264
 21
443.7335299914858
  0
LINE
  8
_0-7_枠細線
  6
CONTINUOUS
 62
    5
 10
1290.7925839968264
 20
393.7335299914858
 11
1380.7925839968264
 21
393.7335299914858
  0
TEXT
  8
_0-7_枠細線
 62
    5
 10
1305.7925839968264
 20
421.2335299914858
 40
15.000000000000004
 41
1
 50
0
  1
5.0kN/㎡
  0
TEXT
  8
_0-7_枠細線
 62
    5
 10
1255
 20
95
 40
20
 41
1
 50
0
  1
大野
  0
TEXT
  8
_0-7_枠細線
 62
    5
 10
1315
 20
95
 40
20
 41
1
 50
0
  1
深川
  0
TEXT
  8
_0-7_枠細線
 62
    5
 10
1309.9999999999998
 20
67.499999999999858
 40
15.000000000000009
 41
0.6666666666666665
 50
0
  1
２０１７年０４月０１日
  0
TEXT
  8
_0-7_枠細線
 62
    5
 10
929.75000000000045
 20
428.7335299914858
 40
15
 41
0.5666666666666667
 50
0
  1
ＧＲＳＫ－２０Ｋ３５０－Ｂ
  0
TEXT
  8
_0-7_枠細線
 62
    5
 10
929.75000000000045
 20
403.7335299914858
 40
15
 41
0.5666666666666667
 50
0
  1
ＧＲＳＫ－２０Ｋ３５０－Ｇ
  0
TEXT
  8
_0-7_枠細線
 62
    5
 10
929.75000000000045
 20
378.73352999148574
 40
15
 41
0.5666666666666667
 50
0
  1
ＧＲＳＫ－２０Ｋ３５０－Ｓ
  0
TEXT
  8
_0-7_枠細線
 62
    5
 10
929.75000000000045
 20
353.73352999148574
 40
15
 41
0.5666666666666667
 50
0
  1
ＧＲＳＫ－２０Ｋ３５０－Ｐ
  0
TEXT
  8
_0-7_枠細線
 62
    5
 10
929.75000000000045
 20
328.73352999148574
 40
15
 41
0.5666666666666667
 50
0
  1
ＧＲＳＫ－２０Ｋ３５０－Ａ
  0
TEXT
  8
_0-7_枠細線
 62
    5
 10
929.75000000000045
 20
303.73352999148574
 40
15
 41
0.5666666666666667
 50
0
  1
ＧＲＳＫ－２０Ｋ３５０－Ｄ
  0
TEXT
  8
_0-7_枠細線
 62
    5
 10
929.75000000000045
 20
278.73352999148574
 40
15
 41
0.5666666666666667
 50
0
  1
ＧＲＳＫ－２０Ｋ３５０－Ｍ
  0
TEXT
  8
_0-7_枠細線
 62
    5
 10
929.75000000000045
 20
253.73352999148577
 40
15
 41
0.5666666666666667
 50
0
  1
ＧＲＳＫ－２０Ｋ３５０－Ｃ
  0
TEXT
  8
_0-7_枠細線
 62
    5
 10
929.75000000000045
 20
228.73352999148577
 40
15
 41
0.5666666666666667
 50
0
  1
ＧＲＳＫ－２０Ｋ３５０－Ｋ
  0
LINE
  8
_0-9_枠極太
  6
CONTINUOUS
 62
    5
 10
60
 20
60
 11
60
 21
960
  0
LINE
  8
_0-9_枠極太
  6
CONTINUOUS
 62
    5
 10
60
 20
960
 11
1425
 21
960
  0
LINE
  8
_0-9_枠極太
  6
CONTINUOUS
 62
    5
 10
1425
 20
960
 11
1425
 21
60
  0
LINE
  8
_0-9_枠極太
  6
CONTINUOUS
 62
    5
 10
1425
 20
60
 11
60
 21
60
  0
LINE
  8
_0-7_枠細線
  6
CONTINUOUS
 62
    5
 10
915
 20
926.44233397174685
 11
907.5
 21
941.44233397174685
  0
LINE
  8
_0-7_枠細線
  6
CONTINUOUS
 62
    5
 10
900
 20
926.44233397174685
 11
915
 21
926.44233397174685
  0
LINE
  8
_0-7_枠細線
  6
CONTINUOUS
 62
    5
 10
907.5
 20
941.44233397174685
 11
900
 21
926.44233397174685
  0
TEXT
  8
_0-7_枠細線
 62
    5
 10
1180
 20
927.5
 40
12.5
 41
0.7199999999999999
 50
0
  1
２０１９．０９．０１
  0
TEXT
  8
_0-7_枠細線
 62
    5
 10
938.85037037037023
 20
927.5
 40
12.5
 41
1
 50
0
  1
アンカー材質･厚み変更
  0
TEXT
  8
_0-7_枠細線
 62
    5
 10
902.36515126814822
 20
925.49351400689704
 40
12.5
 41
0.8
 50
0
  1
１
  0
LINE
  8
_0-7_枠細線
  6
CONTINUOUS
 62
    5
 10
1425
 20
907.5
 11
890
 21
907.5
  0
LINE
  8
_0-7_枠細線
  6
CONTINUOUS
 62
    5
 10
1425
 20
890
 11
890
 21
890
  0
TEXT
  8
_0-7_枠細線
 62
    5
 10
902.36515126814822
 20
908.63533172636664
 40
12.5
 41
0.8
 50
0
  1
２
  0
LINE
  8
_0-7_枠細線
  6
CONTINUOUS
 62
    5
 10
907.5
 20
923.94233397174685
 11
900
 21
908.94233397174685
  0
LINE
  8
_0-7_枠細線
  6
CONTINUOUS
 62
    5
 10
900
 20
908.94233397174685
 11
915
 21
908.94233397174685
  0
LINE
  8
_0-7_枠細線
  6
CONTINUOUS
 62
    5
 10
915
 20
908.94233397174685
 11
907.5
 21
923.94233397174685
  0
TEXT
  8
_0-7_枠細線
 62
    5
 10
902.36515126814822
 20
890.89465008156549
 40
12.5
 41
0.8
 50
0
  1
３
  0
LINE
  8
_0-7_枠細線
  6
CONTINUOUS
 62
    5
 10
907.5
 20
906.44233397174685
 11
900
 21
891.44233397174685
  0
LINE
  8
_0-7_枠細線
  6
CONTINUOUS
 62
    5
 10
900
 20
891.44233397174685
 11
915
 21
891.44233397174685
  0
LINE
  8
_0-7_枠細線
  6
CONTINUOUS
 62
    5
 10
915
 20
891.44233397174685
 11
907.5
 21
906.44233397174685
  0
LINE
  8
_0-7_枠細線
  6
CONTINUOUS
 62
    5
 10
1275
 20
890
 11
1275
 21
959.99999999999909
  0
LINE
  8
_0-7_枠細線
  6
CONTINUOUS
 62
    5
 10
1175
 20
890
 11
1175
 21
959.99999999999909
  0
LINE
  8
_0-7_枠細線
  6
CONTINUOUS
 62
    5
 10
925
 20
890
 11
925
 21
959.99999999999909
  0
LINE
  8
_0-7_枠細線
  6
CONTINUOUS
 62
    5
 10
890
 20
890
 11
890
 21
959.99999999999909
  0
TEXT
  8
_0-7_枠細線
 62
    5
 10
1059.0000000000005
 20
403.73352999148574
 40
15
 41
0.8000000000000001
 50
0
  1
ライトグレー
  0
TEXT
  8
_0-7_枠細線
 62
    5
 10
1071.0000000000005
 20
428.73352999148574
 40
15
 41
0.8000000000000001
 50
0
  1
ベージュ
  0
TEXT
  8
_0-7_枠細線
 62
    5
 10
1071.0000000000005
 20
378.73352999148574
 40
15
 41
0.8000000000000001
 50
0
  1
ホワイト
  0
TEXT
  8
_0-7_枠細線
 62
    5
 10
1077.0000000000005
 20
353.73352999148574
 40
15
 41
0.8000000000000001
 50
0
  1
ピンク
  0
TEXT
  8
_0-7_枠細線
 62
    5
 10
1077.0000000000005
 20
328.73352999148574
 40
15
 41
0.8000000000000001
 50
0
  1
ブルー
  0
TEXT
  8
_0-7_枠細線
 62
    5
 10
1059.0000000000005
 20
303.73352999148568
 40
15
 41
0.8000000000000001
 50
0
  1
ダークグレー
  0
TEXT
  8
_0-7_枠細線
 62
    5
 10
1077.0000000000005
 20
278.73352999148568
 40
15
 41
0.8000000000000001
 50
0
  1
ウッド
  0
TEXT
  8
_0-7_枠細線
 62
    5
 10
1071.0000000000005
 20
228.73352999148568
 40
15
 41
0.8000000000000001
 50
0
  1
ブラック
  0
TEXT
  8
_0-7_枠細線
 62
    5
 10
1071.0000000000005
 20
253.73352999148568
 40
15
 41
0.8000000000000001
 50
0
  1
ブラウン
  0
LINE
  8
_0-1_計細線
  6
CONTINUOUS
 62
    3
 10
296.68632075471794
 20
419.91981132075841
 11
646.68632075471794
 21
419.91981132075841
  0
LINE
  8
_0-1_計細線
  6
CONTINUOUS
 62
    3
 10
296.68632075471794
 20
431.31981132075902
 11
646.68632075471794
 21
431.31981132075902
  0
LINE
  8
_0-1_計細線
  6
CONTINUOUS
 62
    3
 10
296.68632075471794
 20
419.91981132075841
 11
296.68632075471794
 21
431.31981132075902
  0
LINE
  8
_0-1_計細線
  6
CONTINUOUS
 62
    3
 10
646.68632075471794
 20
419.91981132075841
 11
646.68632075471794
 21
431.31981132075902
  0
LINE
  8
_0-0_計極細
  6
CONTINUOUS
 62
    2
 10
296.68632075471794
 20
428.11981132075869
 11
646.68632075471794
 21
428.11981132075869
  0
LINE
  8
_0-0_計極細
  6
CONTINUOUS
 62
    2
 10
296.68632075471794
 20
423.11981132075869
 11
646.68632075471794
 21
423.11981132075869
  0
LINE
  8
_0-1_計細線
  6
CONTINUOUS
 62
    3
 10
296.68632075471794
 20
516.31981132075623
 11
646.68632075471794
 21
516.31981132075623
  0
LINE
  8
_0-1_計細線
  6
CONTINUOUS
 62
    3
 10
296.68632075471794
 20
504.91981132075574
 11
646.68632075471794
 21
504.91981132075574
  0
LINE
  8
_0-1_計細線
  6
CONTINUOUS
 62
    3
 10
296.68632075471794
 20
516.31981132075623
 11
296.68632075471794
 21
504.91981132075574
  0
LINE
  8
_0-1_計細線
  6
CONTINUOUS
 62
    3
 10
646.68632075471794
 20
516.31981132075623
 11
646.68632075471794
 21
504.91981132075574
  0
LINE
  8
_0-0_計極細
  6
CONTINUOUS
 62
    2
 10
296.68632075471794
 20
508.11981132075601
 11
646.68632075471794
 21
508.11981132075601
  0
LINE
  8
_0-0_計極細
  6
CONTINUOUS
 62
    2
 10
296.68632075471794
 20
513.11981132075607
 11
646.68632075471794
 21
513.11981132075607
  0
LINE
  8
_0-1_計細線
  6
CONTINUOUS
 62
    3
 10
296.68632075471794
 20
482.31981132075623
 11
646.68632075471794
 21
482.31981132075623
  0
LINE
  8
_0-1_計細線
  6
CONTINUOUS
 62
    3
 10
296.68632075471794
 20
470.91981132075574
 11
646.68632075471794
 21
470.91981132075574
  0
LINE
  8
_0-1_計細線
  6
CONTINUOUS
 62
    3
 10
296.68632075471794
 20
482.31981132075623
 11
296.68632075471794
 21
470.91981132075574
  0
LINE
  8
_0-1_計細線
  6
CONTINUOUS
 62
    3
 10
646.68632075471794
 20
482.31981132075623
 11
646.68632075471794
 21
470.91981132075574
  0
LINE
  8
_0-0_計極細
  6
CONTINUOUS
 62
    2
 10
296.68632075471794
 20
474.11981132075596
 11
646.68632075471794
 21
474.11981132075596
  0
LINE
  8
_0-0_計極細
  6
CONTINUOUS
 62
    2
 10
296.68632075471794
 20
479.11981132075596
 11
646.68632075471794
 21
479.11981132075596
  0
LINE
  8
_0-1_計細線
  6
CONTINUOUS
 62
    3
 10
296.68632075471794
 20
499.3198113207572
 11
646.68632075471794
 21
499.3198113207572
  0
LINE
  8
_0-1_計細線
  6
CONTINUOUS
 62
    3
 10
296.68632075471794
 20
487.91981132075659
 11
646.68632075471794
 21
487.91981132075659
  0
LINE
  8
_0-1_計細線
  6
CONTINUOUS
 62
    3
 10
296.68632075471794
 20
499.3198113207572
 11
296.68632075471794
 21
487.91981132075659
  0
LINE
  8
_0-1_計細線
  6
CONTINUOUS
 62
    3
 10
646.68632075471794
 20
499.3198113207572
 11
646.68632075471794
 21
487.91981132075659
  0
LINE
  8
_0-0_計極細
  6
CONTINUOUS
 62
    2
 10
296.68632075471794
 20
491.11981132075692
 11
646.68632075471794
 21
491.11981132075692
  0
LINE
  8
_0-0_計極細
  6
CONTINUOUS
 62
    2
 10
296.68632075471794
 20
496.11981132075692
 11
646.68632075471794
 21
496.11981132075692
  0
LINE
  8
_0-1_計細線
  6
CONTINUOUS
 62
    3
 10
296.68632075471794
 20
584.31981132075668
 11
646.68632075471794
 21
584.31981132075668
  0
LINE
  8
_0-1_計細線
  6
CONTINUOUS
 62
    3
 10
296.68632075471794
 20
572.91981132075625
 11
646.68632075471794
 21
572.91981132075625
  0
LINE
  8
_0-1_計細線
  6
CONTINUOUS
 62
    3
 10
296.68632075471794
 20
584.31981132075668
 11
296.68632075471794
 21
572.91981132075625
  0
LINE
  8
_0-1_計細線
  6
CONTINUOUS
 62
    3
 10
646.68632075471794
 20
584.31981132075668
 11
646.68632075471794
 21
572.91981132075625
  0
LINE
  8
_0-0_計極細
  6
CONTINUOUS
 62
    2
 10
296.68632075471794
 20
576.11981132075687
 11
646.68632075471794
 21
576.11981132075687
  0
LINE
  8
_0-0_計極細
  6
CONTINUOUS
 62
    2
 10
296.68632075471794
 20
581.11981132075687
 11
646.68632075471794
 21
581.11981132075687
  0
LINE
  8
_0-1_計細線
  6
CONTINUOUS
 62
    3
 10
296.68632075471794
 20
533.31981132075532
 11
646.68632075471794
 21
533.31981132075532
  0
LINE
  8
_0-1_計細線
  6
CONTINUOUS
 62
    3
 10
296.68632075471794
 20
521.91981132075489
 11
646.68632075471794
 21
521.91981132075489
  0
LINE
  8
_0-1_計細線
  6
CONTINUOUS
 62
    3
 10
296.68632075471794
 20
533.31981132075532
 11
296.68632075471794
 21
521.91981132075489
  0
LINE
  8
_0-1_計細線
  6
CONTINUOUS
 62
    3
 10
646.68632075471794
 20
533.31981132075532
 11
646.68632075471794
 21
521.91981132075489
  0
LINE
  8
_0-0_計極細
  6
CONTINUOUS
 62
    2
 10
296.68632075471794
 20
525.11981132075505
 11
646.68632075471794
 21
525.11981132075505
  0
LINE
  8
_0-0_計極細
  6
CONTINUOUS
 62
    2
 10
296.68632075471794
 20
530.11981132075505
 11
646.68632075471794
 21
530.11981132075505
  0
LINE
  8
_0-1_計細線
  6
CONTINUOUS
 62
    3
 10
296.68632075471794
 20
550.31981132075441
 11
646.68632075471794
 21
550.31981132075441
  0
LINE
  8
_0-1_計細線
  6
CONTINUOUS
 62
    3
 10
296.68632075471794
 20
538.91981132075387
 11
646.68632075471794
 21
538.91981132075387
  0
LINE
  8
_0-1_計細線
  6
CONTINUOUS
 62
    3
 10
296.68632075471794
 20
550.31981132075441
 11
296.68632075471794
 21
538.91981132075387
  0
LINE
  8
_0-1_計細線
  6
CONTINUOUS
 62
    3
 10
646.68632075471794
 20
550.31981132075441
 11
646.68632075471794
 21
538.91981132075387
  0
LINE
  8
_0-0_計極細
  6
CONTINUOUS
 62
    2
 10
296.68632075471794
 20
542.11981132075414
 11
646.68632075471794
 21
542.11981132075414
  0
LINE
  8
_0-0_計極細
  6
CONTINUOUS
 62
    2
 10
296.68632075471794
 20
547.11981132075414
 11
646.68632075471794
 21
547.11981132075414
  0
LINE
  8
_0-1_計細線
  6
CONTINUOUS
 62
    3
 10
296.68632075471794
 20
567.3198113207535
 11
646.68632075471794
 21
567.3198113207535
  0
LINE
  8
_0-1_計細線
  6
CONTINUOUS
 62
    3
 10
296.68632075471794
 20
555.91981132075296
 11
646.68632075471794
 21
555.91981132075296
  0
LINE
  8
_0-1_計細線
  6
CONTINUOUS
 62
    3
 10
296.68632075471794
 20
567.3198113207535
 11
296.68632075471794
 21
555.91981132075296
  0
LINE
  8
_0-1_計細線
  6
CONTINUOUS
 62
    3
 10
646.68632075471794
 20
567.3198113207535
 11
646.68632075471794
 21
555.91981132075296
  0
LINE
  8
_0-0_計極細
  6
CONTINUOUS
 62
    2
 10
296.68632075471794
 20
559.11981132075323
 11
646.68632075471794
 21
559.11981132075323
  0
LINE
  8
_0-0_計極細
  6
CONTINUOUS
 62
    2
 10
296.68632075471794
 20
564.11981132075323
 11
646.68632075471794
 21
564.11981132075323
  0
LINE
  8
_0-0_計極細
  6
CENTER2
 62
    2
 10
280.79772121769878
 20
442.61981132075459
 11
662.73105455107589
 21
442.61981132075459
  0
LINE
  8
_0-1_計細線
  6
CONTINUOUS
 62
    3
 10
296.68632075471794
 20
601.01981132075571
 11
646.68632075471794
 21
601.01981132075571
  0
LINE
  8
_0-1_計細線
  6
CONTINUOUS
 62
    3
 10
296.68632075471794
 20
589.61981132075505
 11
646.68632075471794
 21
589.61981132075505
  0
LINE
  8
_0-1_計細線
  6
CONTINUOUS
 62
    3
 10
296.68632075471794
 20
601.01981132075571
 11
296.68632075471794
 21
589.61981132075505
  0
LINE
  8
_0-1_計細線
  6
CONTINUOUS
 62
    3
 10
646.68632075471794
 20
601.01981132075571
 11
646.68632075471794
 21
589.61981132075505
  0
LINE
  8
_0-0_計極細
  6
CONTINUOUS
 62
    2
 10
296.68632075471794
 20
592.81981132075532
 11
646.68632075471794
 21
592.81981132075532
  0
LINE
  8
_0-0_計極細
  6
CONTINUOUS
 62
    2
 10
296.68632075471794
 20
597.81981132075532
 11
646.68632075471794
 21
597.81981132075532
  0
LINE
  8
_0-1_計細線
  6
CONTINUOUS
 62
    3
 10
296.68632075471794
 20
617.6198113207596
 11
646.68632075471794
 21
617.6198113207596
  0
LINE
  8
_0-1_計細線
  6
CONTINUOUS
 62
    3
 10
296.68632075471794
 20
606.21981132075905
 11
646.68632075471794
 21
606.21981132075905
  0
LINE
  8
_0-1_計細線
  6
CONTINUOUS
 62
    3
 10
296.68632075471794
 20
617.6198113207596
 11
296.68632075471794
 21
606.21981132075905
  0
LINE
  8
_0-1_計細線
  6
CONTINUOUS
 62
    3
 10
646.68632075471794
 20
617.6198113207596
 11
646.68632075471794
 21
606.21981132075905
  0
LINE
  8
_0-0_計極細
  6
CONTINUOUS
 62
    2
 10
296.68632075471794
 20
609.41981132075944
 11
646.68632075471794
 21
609.41981132075944
  0
LINE
  8
_0-0_計極細
  6
CONTINUOUS
 62
    2
 10
296.68632075471794
 20
614.41981132075944
 11
646.68632075471794
 21
614.41981132075944
  0
LINE
  8
_0-1_計細線
  6
CONTINUOUS
 62
    3
 10
296.68632075471794
 20
368.91981132075296
 11
646.68632075471794
 21
368.91981132075296
  0
LINE
  8
_0-1_計細線
  6
CONTINUOUS
 62
    3
 10
296.68632075471794
 20
380.3198113207535
 11
646.68632075471794
 21
380.3198113207535
  0
LINE
  8
_0-1_計細線
  6
CONTINUOUS
 62
    3
 10
296.68632075471794
 20
368.91981132075296
 11
296.68632075471794
 21
380.3198113207535
  0
LINE
  8
_0-1_計細線
  6
CONTINUOUS
 62
    3
 10
646.68632075471794
 20
368.91981132075296
 11
646.68632075471794
 21
380.3198113207535
  0
LINE
  8
_0-0_計極細
  6
CONTINUOUS
 62
    2
 10
296.68632075471794
 20
377.11981132075323
 11
646.68632075471794
 21
377.11981132075323
  0
LINE
  8
_0-0_計極細
  6
CONTINUOUS
 62
    2
 10
296.68632075471794
 20
372.11981132075323
 11
646.68632075471794
 21
372.11981132075323
  0
LINE
  8
_0-1_計細線
  6
CONTINUOUS
 62
    3
 10
296.68632075471794
 20
402.91981132075301
 11
646.68632075471794
 21
402.91981132075301
  0
LINE
  8
_0-1_計細線
  6
CONTINUOUS
 62
    3
 10
296.68632075471794
 20
414.3198113207535
 11
646.68632075471794
 21
414.3198113207535
  0
LINE
  8
_0-1_計細線
  6
CONTINUOUS
 62
    3
 10
296.68632075471794
 20
402.91981132075301
 11
296.68632075471794
 21
414.3198113207535
  0
LINE
  8
_0-1_計細線
  6
CONTINUOUS
 62
    3
 10
646.68632075471794
 20
402.91981132075301
 11
646.68632075471794
 21
414.3198113207535
  0
LINE
  8
_0-0_計極細
  6
CONTINUOUS
 62
    2
 10
296.68632075471794
 20
411.11981132075329
 11
646.68632075471794
 21
411.11981132075329
  0
LINE
  8
_0-0_計極細
  6
CONTINUOUS
 62
    2
 10
296.68632075471794
 20
406.11981132075329
 11
646.68632075471794
 21
406.11981132075329
  0
LINE
  8
_0-1_計細線
  6
CONTINUOUS
 62
    3
 10
296.68632075471794
 20
385.91981132075205
 11
646.68632075471794
 21
385.91981132075205
  0
LINE
  8
_0-1_計細線
  6
CONTINUOUS
 62
    3
 10
296.68632075471794
 20
397.31981132075259
 11
646.68632075471794
 21
397.31981132075259
  0
LINE
  8
_0-1_計細線
  6
CONTINUOUS
 62
    3
 10
296.68632075471794
 20
385.91981132075205
 11
296.68632075471794
 21
397.31981132075259
  0
LINE
  8
_0-1_計細線
  6
CONTINUOUS
 62
    3
 10
646.68632075471794
 20
385.91981132075205
 11
646.68632075471794
 21
397.31981132075259
  0
LINE
  8
_0-0_計極細
  6
CONTINUOUS
 62
    2
 10
296.68632075471794
 20
394.11981132075232
 11
646.68632075471794
 21
394.11981132075232
  0
LINE
  8
_0-0_計極細
  6
CONTINUOUS
 62
    2
 10
296.68632075471794
 20
389.11981132075232
 11
646.68632075471794
 21
389.11981132075232
  0
LINE
  8
_0-1_計細線
  6
CONTINUOUS
 62
    3
 10
296.68632075471794
 20
300.9198113207525
 11
646.68632075471794
 21
300.9198113207525
  0
LINE
  8
_0-1_計細線
  6
CONTINUOUS
 62
    3
 10
296.68632075471794
 20
312.31981132075305
 11
646.68632075471794
 21
312.31981132075305
  0
LINE
  8
_0-1_計細線
  6
CONTINUOUS
 62
    3
 10
296.68632075471794
 20
300.9198113207525
 11
296.68632075471794
 21
312.31981132075305
  0
LINE
  8
_0-1_計細線
  6
CONTINUOUS
 62
    3
 10
646.68632075471794
 20
300.9198113207525
 11
646.68632075471794
 21
312.31981132075305
  0
LINE
  8
_0-0_計極細
  6
CONTINUOUS
 62
    2
 10
296.68632075471794
 20
309.11981132075232
 11
646.68632075471794
 21
309.11981132075232
  0
LINE
  8
_0-0_計極細
  6
CONTINUOUS
 62
    2
 10
296.68632075471794
 20
304.11981132075232
 11
646.68632075471794
 21
304.11981132075232
  0
LINE
  8
_0-1_計細線
  6
CONTINUOUS
 62
    3
 10
296.68632075471794
 20
351.91981132075392
 11
646.68632075471794
 21
351.91981132075392
  0
LINE
  8
_0-1_計細線
  6
CONTINUOUS
 62
    3
 10
296.68632075471794
 20
363.31981132075441
 11
646.68632075471794
 21
363.31981132075441
  0
LINE
  8
_0-1_計細線
  6
CONTINUOUS
 62
    3
 10
296.68632075471794
 20
351.91981132075392
 11
296.68632075471794
 21
363.31981132075441
  0
LINE
  8
_0-1_計細線
  6
CONTINUOUS
 62
    3
 10
646.68632075471794
 20
351.91981132075392
 11
646.68632075471794
 21
363.31981132075441
  0
LINE
  8
_0-0_計極細
  6
CONTINUOUS
 62
    2
 10
296.68632075471794
 20
360.11981132075414
 11
646.68632075471794
 21
360.11981132075414
  0
LINE
  8
_0-0_計極細
  6
CONTINUOUS
 62
    2
 10
296.68632075471794
 20
355.11981132075414
 11
646.68632075471794
 21
355.11981132075414
  0
LINE
  8
_0-1_計細線
  6
CONTINUOUS
 62
    3
 10
296.68632075471794
 20
334.91981132075477
 11
646.68632075471794
 21
334.91981132075477
  0
LINE
  8
_0-1_計細線
  6
CONTINUOUS
 62
    3
 10
296.68632075471794
 20
346.31981132075532
 11
646.68632075471794
 21
346.31981132075532
  0
LINE
  8
_0-1_計細線
  6
CONTINUOUS
 62
    3
 10
296.68632075471794
 20
334.91981132075477
 11
296.68632075471794
 21
346.31981132075532
  0
LINE
  8
_0-1_計細線
  6
CONTINUOUS
 62
    3
 10
646.68632075471794
 20
334.91981132075477
 11
646.68632075471794
 21
346.31981132075532
  0
LINE
  8
_0-0_計極細
  6
CONTINUOUS
 62
    2
 10
296.68632075471794
 20
343.1198113207551
 11
646.68632075471794
 21
343.1198113207551
  0
LINE
  8
_0-0_計極細
  6
CONTINUOUS
 62
    2
 10
296.68632075471794
 20
338.1198113207551
 11
646.68632075471794
 21
338.1198113207551
  0
LINE
  8
_0-1_計細線
  6
CONTINUOUS
 62
    3
 10
296.68632075471794
 20
317.91981132075568
 11
646.68632075471794
 21
317.91981132075568
  0
LINE
  8
_0-1_計細線
  6
CONTINUOUS
 62
    3
 10
296.68632075471794
 20
329.31981132075629
 11
646.68632075471794
 21
329.31981132075629
  0
LINE
  8
_0-1_計細線
  6
CONTINUOUS
 62
    3
 10
296.68632075471794
 20
317.91981132075568
 11
296.68632075471794
 21
329.31981132075629
  0
LINE
  8
_0-1_計細線
  6
CONTINUOUS
 62
    3
 10
646.68632075471794
 20
317.91981132075568
 11
646.68632075471794
 21
329.31981132075629
  0
LINE
  8
_0-0_計極細
  6
CONTINUOUS
 62
    2
 10
296.68632075471794
 20
326.11981132075596
 11
646.68632075471794
 21
326.11981132075596
  0
LINE
  8
_0-0_計極細
  6
CONTINUOUS
 62
    2
 10
296.68632075471794
 20
321.11981132075596
 11
646.68632075471794
 21
321.11981132075596
  0
LINE
  8
_0-1_計細線
  6
CONTINUOUS
 62
    3
 10
296.68632075471794
 20
284.21981132075359
 11
646.68632075471794
 21
284.21981132075359
  0
LINE
  8
_0-1_計細線
  6
CONTINUOUS
 62
    3
 10
296.68632075471794
 20
295.61981132075414
 11
646.68632075471794
 21
295.61981132075414
  0
LINE
  8
_0-1_計細線
  6
CONTINUOUS
 62
    3
 10
296.68632075471794
 20
284.21981132075359
 11
296.68632075471794
 21
295.61981132075414
  0
LINE
  8
_0-1_計細線
  6
CONTINUOUS
 62
    3
 10
646.68632075471794
 20
284.21981132075359
 11
646.68632075471794
 21
295.61981132075414
  0
LINE
  8
_0-0_計極細
  6
CONTINUOUS
 62
    2
 10
296.68632075471794
 20
292.41981132075387
 11
646.68632075471794
 21
292.41981132075387
  0
LINE
  8
_0-0_計極細
  6
CONTINUOUS
 62
    2
 10
296.68632075471794
 20
287.41981132075387
 11
646.68632075471794
 21
287.41981132075387
  0
LINE
  8
_0-1_計細線
  6
CONTINUOUS
 62
    3
 10
296.68632075471794
 20
267.61981132074959
 11
646.68632075471794
 21
267.61981132074959
  0
LINE
  8
_0-1_計細線
  6
CONTINUOUS
 62
    3
 10
296.68632075471794
 20
279.01981132075014
 11
646.68632075471794
 21
279.01981132075014
  0
LINE
  8
_0-1_計細線
  6
CONTINUOUS
 62
    3
 10
296.68632075471794
 20
267.61981132074959
 11
296.68632075471794
 21
279.01981132075014
  0
LINE
  8
_0-1_計細線
  6
CONTINUOUS
 62
    3
 10
646.68632075471794
 20
267.61981132074959
 11
646.68632075471794
 21
279.01981132075014
  0
LINE
  8
_0-0_計極細
  6
CONTINUOUS
 62
    2
 10
296.68632075471794
 20
275.81981132074986
 11
646.68632075471794
 21
275.81981132074986
  0
LINE
  8
_0-0_計極細
  6
CONTINUOUS
 62
    2
 10
296.68632075471794
 20
270.81981132074986
 11
646.68632075471794
 21
270.81981132074986
  0
LINE
  8
_0-1_計細線
  6
CONTINUOUS
 62
    3
 10
296.68632075471794
 20
436.91981132075432
 11
646.68632075471794
 21
436.91981132075432
  0
LINE
  8
_0-1_計細線
  6
CONTINUOUS
 62
    3
 10
646.68632075471794
 20
448.31981132075492
 11
646.68632075471794
 21
436.91981132075432
  0
LINE
  8
_0-0_計極細
  6
CONTINUOUS
 62
    2
 10
296.68632075471794
 20
440.11981132075459
 11
646.68632075471794
 21
440.11981132075459
  0
LINE
  8
_0-0_計極細
  6
CONTINUOUS
 62
    2
 10
296.68632075471794
 20
445.11981132075459
 11
646.68632075471794
 21
445.11981132075459
  0
LINE
  8
_0-1_計細線
  6
CONTINUOUS
 62
    3
 10
296.68632075471794
 20
448.31981132075492
 11
296.68632075471794
 21
436.91981132075432
  0
LINE
  8
_0-1_計細線
  6
CONTINUOUS
 62
    3
 10
296.68632075471794
 20
448.31981132075492
 11
646.68632075471794
 21
448.31981132075492
  0
LINE
  8
_0-1_計細線
  6
CONTINUOUS
 62
    3
 10
296.68632075471794
 20
465.31981132075578
 11
646.68632075471794
 21
465.31981132075578
  0
LINE
  8
_0-1_計細線
  6
CONTINUOUS
 62
    3
 10
646.68632075471794
 20
465.31981132075578
 11
646.68632075471794
 21
453.91981132075529
  0
LINE
  8
_0-0_計極細
  6
CONTINUOUS
 62
    2
 10
296.68632075471794
 20
457.1198113207555
 11
646.68632075471794
 21
457.1198113207555
  0
LINE
  8
_0-0_計極細
  6
CONTINUOUS
 62
    2
 10
296.68632075471794
 20
462.1198113207555
 11
646.68632075471794
 21
462.1198113207555
  0
LINE
  8
_0-1_計細線
  6
CONTINUOUS
 62
    3
 10
296.68632075471794
 20
453.91981132075529
 11
646.68632075471794
 21
453.91981132075529
  0
LINE
  8
_0-1_計細線
  6
CONTINUOUS
 62
    3
 10
296.68632075471794
 20
465.31981132075578
 11
296.68632075471794
 21
453.91981132075529
  0
LINE
  8
_0-1_計細線
  6
CONTINUOUS
 62
    3
 10
291.68632075471794
 20
622.6198113207596
 11
291.68632075471794
 21
262.61981132074959
  0
LINE
  8
_0-1_計細線
  6
CONTINUOUS
 62
    3
 10
291.68632075471794
 20
262.61981132074959
 11
651.68632075471794
 21
262.61981132074959
  0
LINE
  8
_0-1_計細線
  6
CONTINUOUS
 62
    3
 10
651.68632075471794
 20
262.61981132074959
 11
651.68632075471794
 21
622.6198113207596
  0
LINE
  8
_0-1_計細線
  6
CONTINUOUS
 62
    3
 10
651.68632075471794
 20
622.6198113207596
 11
291.68632075471794
 21
622.6198113207596
  0
LINE
  8
_0-1_計細線
  6
CONTINUOUS
 62
    3
 10
648.68632075471794
 20
265.61981132074959
 11
648.68632075471794
 21
619.6198113207596
  0
LINE
  8
_0-1_計細線
  6
CONTINUOUS
 62
    3
 10
648.68632075471794
 20
619.6198113207596
 11
294.68632075471794
 21
619.6198113207596
  0
LINE
  8
_0-1_計細線
  6
CONTINUOUS
 62
    3
 10
294.68632075471794
 20
619.6198113207596
 11
294.68632075471794
 21
265.61981132074959
  0
LINE
  8
_0-1_計細線
  6
CONTINUOUS
 62
    3
 10
294.68632075471794
 20
265.61981132074959
 11
648.68632075471794
 21
265.61981132074959
  0
LINE
  8
_0-0_計極細
  6
CONTINUOUS
 62
    2
 10
297.18632075471794
 20
436.91981132075432
 11
297.18632075471794
 21
431.31981132075447
  0
LINE
  8
_0-0_計極細
  6
CONTINUOUS
 62
    2
 10
310.186320754718
 20
436.91981132075432
 11
310.186320754718
 21
431.31981132075447
  0
LINE
  8
_0-0_計極細
  6
CONTINUOUS
 62
    2
 10
297.18632075471794
 20
453.91981132075529
 11
297.18632075471794
 21
448.31981132075492
  0
LINE
  8
_0-0_計極細
  6
CONTINUOUS
 62
    2
 10
310.186320754718
 20
453.91981132075529
 11
310.186320754718
 21
448.31981132075492
  0
LINE
  8
_0-0_計極細
  6
CONTINUOUS
 62
    2
 10
297.18632075471794
 20
470.91981132075574
 11
297.18632075471794
 21
465.31981132075578
  0
LINE
  8
_0-0_計極細
  6
CONTINUOUS
 62
    2
 10
310.186320754718
 20
470.91981132075574
 11
310.186320754718
 21
465.31981132075578
  0
LINE
  8
_0-0_計極細
  6
CONTINUOUS
 62
    2
 10
297.18632075471794
 20
487.91981132075659
 11
297.18632075471794
 21
482.31981132075623
  0
LINE
  8
_0-0_計極細
  6
CONTINUOUS
 62
    2
 10
310.186320754718
 20
487.91981132075659
 11
310.186320754718
 21
482.31981132075623
  0
LINE
  8
_0-0_計極細
  6
CONTINUOUS
 62
    2
 10
297.18632075471794
 20
504.91981132075705
 11
297.18632075471794
 21
499.3198113207572
  0
LINE
  8
_0-0_計極細
  6
CONTINUOUS
 62
    2
 10
310.186320754718
 20
504.91981132075705
 11
310.186320754718
 21
499.3198113207572
  0
LINE
  8
_0-0_計極細
  6
CONTINUOUS
 62
    2
 10
297.18632075471794
 20
521.91981132075614
 11
297.18632075471794
 21
516.31981132075623
  0
LINE
  8
_0-0_計極細
  6
CONTINUOUS
 62
    2
 10
310.186320754718
 20
521.91981132075614
 11
310.186320754718
 21
516.31981132075623
  0
LINE
  8
_0-0_計極細
  6
CONTINUOUS
 62
    2
 10
297.18632075471794
 20
538.91981132075534
 11
297.18632075471794
 21
533.31981132075532
  0
LINE
  8
_0-0_計極細
  6
CONTINUOUS
 62
    2
 10
310.186320754718
 20
538.91981132075534
 11
310.186320754718
 21
533.31981132075532
  0
LINE
  8
_0-0_計極細
  6
CONTINUOUS
 62
    2
 10
297.18632075471794
 20
555.91981132075432
 11
297.18632075471794
 21
550.31981132075441
  0
LINE
  8
_0-0_計極細
  6
CONTINUOUS
 62
    2
 10
310.186320754718
 20
555.91981132075432
 11
310.186320754718
 21
550.31981132075441
  0
LINE
  8
_0-0_計極細
  6
CONTINUOUS
 62
    2
 10
297.18632075471794
 20
572.91981132075341
 11
297.18632075471794
 21
567.3198113207535
  0
LINE
  8
_0-0_計極細
  6
CONTINUOUS
 62
    2
 10
310.186320754718
 20
572.91981132075341
 11
310.186320754718
 21
567.3198113207535
  0
LINE
  8
_0-0_計極細
  6
CONTINUOUS
 62
    2
 10
297.18632075471794
 20
589.61981132075641
 11
297.18632075471794
 21
584.31981132075668
  0
LINE
  8
_0-0_計極細
  6
CONTINUOUS
 62
    2
 10
310.186320754718
 20
589.61981132075641
 11
310.186320754718
 21
584.31981132075668
  0
LINE
  8
_0-0_計極細
  6
CONTINUOUS
 62
    2
 10
297.18632075471794
 20
606.21981132075553
 11
297.18632075471794
 21
601.01981132075571
  0
LINE
  8
_0-0_計極細
  6
CONTINUOUS
 62
    2
 10
310.186320754718
 20
606.21981132075553
 11
310.186320754718
 21
601.01981132075571
  0
LINE
  8
_0-0_計極細
  6
CONTINUOUS
 62
    2
 10
297.18632075471794
 20
414.3198113207535
 11
297.18632075471794
 21
419.91981132075347
  0
LINE
  8
_0-0_計極細
  6
CONTINUOUS
 62
    2
 10
310.186320754718
 20
414.3198113207535
 11
310.186320754718
 21
419.91981132075347
  0
LINE
  8
_0-0_計極細
  6
CONTINUOUS
 62
    2
 10
297.18632075471794
 20
397.31981132075259
 11
297.18632075471794
 21
402.91981132075301
  0
LINE
  8
_0-0_計極細
  6
CONTINUOUS
 62
    2
 10
310.186320754718
 20
397.31981132075259
 11
310.186320754718
 21
402.91981132075301
  0
LINE
  8
_0-0_計極細
  6
CONTINUOUS
 62
    2
 10
297.18632075471794
 20
380.31981132075214
 11
297.18632075471794
 21
385.91981132075205
  0
LINE
  8
_0-0_計極細
  6
CONTINUOUS
 62
    2
 10
310.186320754718
 20
380.31981132075214
 11
310.186320754718
 21
385.91981132075205
  0
LINE
  8
_0-0_計極細
  6
CONTINUOUS
 62
    2
 10
297.18632075471794
 20
363.31981132075305
 11
297.18632075471794
 21
368.91981132075296
  0
LINE
  8
_0-0_計極細
  6
CONTINUOUS
 62
    2
 10
310.186320754718
 20
363.31981132075305
 11
310.186320754718
 21
368.91981132075296
  0
LINE
  8
_0-0_計極細
  6
CONTINUOUS
 62
    2
 10
297.18632075471794
 20
346.31981132075396
 11
297.18632075471794
 21
351.91981132075392
  0
LINE
  8
_0-0_計極細
  6
CONTINUOUS
 62
    2
 10
310.186320754718
 20
346.31981132075396
 11
310.186320754718
 21
351.91981132075392
  0
LINE
  8
_0-0_計極細
  6
CONTINUOUS
 62
    2
 10
297.18632075471794
 20
329.31981132075487
 11
297.18632075471794
 21
334.91981132075477
  0
LINE
  8
_0-0_計極細
  6
CONTINUOUS
 62
    2
 10
310.186320754718
 20
329.31981132075487
 11
310.186320754718
 21
334.91981132075477
  0
LINE
  8
_0-0_計極細
  6
CONTINUOUS
 62
    2
 10
297.18632075471794
 20
312.31981132075578
 11
297.18632075471794
 21
317.91981132075568
  0
LINE
  8
_0-0_計極細
  6
CONTINUOUS
 62
    2
 10
310.186320754718
 20
312.31981132075578
 11
310.186320754718
 21
317.91981132075568
  0
LINE
  8
_0-0_計極細
  6
CONTINUOUS
 62
    2
 10
297.18632075471794
 20
295.61981132075277
 11
297.18632075471794
 21
300.9198113207525
  0
LINE
  8
_0-0_計極細
  6
CONTINUOUS
 62
    2
 10
310.186320754718
 20
295.61981132075277
 11
310.186320754718
 21
300.9198113207525
  0
LINE
  8
_0-0_計極細
  6
CONTINUOUS
 62
    2
 10
297.18632075471794
 20
279.01981132075377
 11
297.18632075471794
 21
284.21981132075359
  0
LINE
  8
_0-0_計極細
  6
CONTINUOUS
 62
    2
 10
310.186320754718
 20
279.01981132075377
 11
310.186320754718
 21
284.21981132075359
  0
LINE
  8
_0-0_計極細
  6
CENTER1
 62
    2
 10
303.68632075471794
 20
626.37053074522134
 11
303.68632075471794
 21
260.06198757974232
  0
LINE
  8
_0-0_計極細
  6
CONTINUOUS
 62
    2
 10
394.186320754718
 20
436.91981132075432
 11
394.186320754718
 21
431.31981132075447
  0
LINE
  8
_0-0_計極細
  6
CONTINUOUS
 62
    2
 10
407.18632075471794
 20
436.91981132075432
 11
407.18632075471794
 21
431.31981132075447
  0
LINE
  8
_0-0_計極細
  6
CONTINUOUS
 62
    2
 10
394.186320754718
 20
470.91981132075574
 11
394.186320754718
 21
465.31981132075578
  0
LINE
  8
_0-0_計極細
  6
CONTINUOUS
 62
    2
 10
407.18632075471794
 20
470.91981132075574
 11
407.18632075471794
 21
465.31981132075578
  0
LINE
  8
_0-0_計極細
  6
CONTINUOUS
 62
    2
 10
394.186320754718
 20
487.91981132075659
 11
394.186320754718
 21
482.31981132075623
  0
LINE
  8
_0-0_計極細
  6
CONTINUOUS
 62
    2
 10
407.18632075471794
 20
487.91981132075659
 11
407.18632075471794
 21
482.31981132075623
  0
LINE
  8
_0-0_計極細
  6
CONTINUOUS
 62
    2
 10
394.186320754718
 20
504.91981132075705
 11
394.186320754718
 21
499.3198113207572
  0
LINE
  8
_0-0_計極細
  6
CONTINUOUS
 62
    2
 10
407.18632075471794
 20
504.91981132075705
 11
407.18632075471794
 21
499.3198113207572
  0
LINE
  8
_0-0_計極細
  6
CONTINUOUS
 62
    2
 10
394.186320754718
 20
521.91981132075614
 11
394.186320754718
 21
516.31981132075623
  0
LINE
  8
_0-0_計極細
  6
CONTINUOUS
 62
    2
 10
407.18632075471794
 20
521.91981132075614
 11
407.18632075471794
 21
516.31981132075623
  0
LINE
  8
_0-0_計極細
  6
CONTINUOUS
 62
    2
 10
394.186320754718
 20
538.91981132075534
 11
394.186320754718
 21
533.31981132075532
  0
LINE
  8
_0-0_計極細
  6
CONTINUOUS
 62
    2
 10
407.18632075471794
 20
538.91981132075534
 11
407.18632075471794
 21
533.31981132075532
  0
LINE
  8
_0-0_計極細
  6
CONTINUOUS
 62
    2
 10
394.186320754718
 20
555.91981132075432
 11
394.186320754718
 21
550.31981132075441
  0
LINE
  8
_0-0_計極細
  6
CONTINUOUS
 62
    2
 10
407.18632075471794
 20
555.91981132075432
 11
407.18632075471794
 21
550.31981132075441
  0
LINE
  8
_0-0_計極細
  6
CONTINUOUS
 62
    2
 10
394.186320754718
 20
572.91981132075341
 11
394.186320754718
 21
567.3198113207535
  0
LINE
  8
_0-0_計極細
  6
CONTINUOUS
 62
    2
 10
407.18632075471794
 20
572.91981132075341
 11
407.18632075471794
 21
567.3198113207535
  0
LINE
  8
_0-0_計極細
  6
CONTINUOUS
 62
    2
 10
394.186320754718
 20
589.61981132075641
 11
394.186320754718
 21
584.31981132075668
  0
LINE
  8
_0-0_計極細
  6
CONTINUOUS
 62
    2
 10
407.18632075471794
 20
589.61981132075641
 11
407.18632075471794
 21
584.31981132075668
  0
LINE
  8
_0-0_計極細
  6
CONTINUOUS
 62
    2
 10
394.186320754718
 20
606.21981132075553
 11
394.186320754718
 21
601.01981132075571
  0
LINE
  8
_0-0_計極細
  6
CONTINUOUS
 62
    2
 10
407.18632075471794
 20
606.21981132075553
 11
407.18632075471794
 21
601.01981132075571
  0
LINE
  8
_0-0_計極細
  6
CONTINUOUS
 62
    2
 10
394.186320754718
 20
414.3198113207535
 11
394.186320754718
 21
419.91981132075347
  0
LINE
  8
_0-0_計極細
  6
CONTINUOUS
 62
    2
 10
407.18632075471794
 20
414.3198113207535
 11
407.18632075471794
 21
419.91981132075347
  0
LINE
  8
_0-0_計極細
  6
CONTINUOUS
 62
    2
 10
394.186320754718
 20
397.31981132075259
 11
394.186320754718
 21
402.91981132075301
  0
LINE
  8
_0-0_計極細
  6
CONTINUOUS
 62
    2
 10
407.18632075471794
 20
397.31981132075259
 11
407.18632075471794
 21
402.91981132075301
  0
LINE
  8
_0-0_計極細
  6
CONTINUOUS
 62
    2
 10
394.186320754718
 20
380.31981132075214
 11
394.186320754718
 21
385.91981132075205
  0
LINE
  8
_0-0_計極細
  6
CONTINUOUS
 62
    2
 10
407.18632075471794
 20
380.31981132075214
 11
407.18632075471794
 21
385.91981132075205
  0
LINE
  8
_0-0_計極細
  6
CONTINUOUS
 62
    2
 10
394.186320754718
 20
363.31981132075305
 11
394.186320754718
 21
368.91981132075296
  0
LINE
  8
_0-0_計極細
  6
CONTINUOUS
 62
    2
 10
407.18632075471794
 20
363.31981132075305
 11
407.18632075471794
 21
368.91981132075296
  0
LINE
  8
_0-0_計極細
  6
CONTINUOUS
 62
    2
 10
394.186320754718
 20
346.31981132075396
 11
394.186320754718
 21
351.91981132075392
  0
LINE
  8
_0-0_計極細
  6
CONTINUOUS
 62
    2
 10
407.18632075471794
 20
346.31981132075396
 11
407.18632075471794
 21
351.91981132075392
  0
LINE
  8
_0-0_計極細
  6
CONTINUOUS
 62
    2
 10
394.186320754718
 20
329.31981132075487
 11
394.186320754718
 21
334.91981132075477
  0
LINE
  8
_0-0_計極細
  6
CONTINUOUS
 62
    2
 10
407.18632075471794
 20
329.31981132075487
 11
407.18632075471794
 21
334.91981132075477
  0
LINE
  8
_0-0_計極細
  6
CONTINUOUS
 62
    2
 10
394.186320754718
 20
312.31981132075578
 11
394.186320754718
 21
317.91981132075568
  0
LINE
  8
_0-0_計極細
  6
CONTINUOUS
 62
    2
 10
407.18632075471794
 20
312.31981132075578
 11
407.18632075471794
 21
317.91981132075568
  0
LINE
  8
_0-0_計極細
  6
CONTINUOUS
 62
    2
 10
394.186320754718
 20
295.61981132075277
 11
394.186320754718
 21
300.9198113207525
  0
LINE
  8
_0-0_計極細
  6
CONTINUOUS
 62
    2
 10
407.18632075471794
 20
295.61981132075277
 11
407.18632075471794
 21
300.9198113207525
  0
LINE
  8
_0-0_計極細
  6
CONTINUOUS
 62
    2
 10
394.186320754718
 20
279.01981132075377
 11
394.186320754718
 21
284.21981132075359
  0
LINE
  8
_0-0_計極細
  6
CONTINUOUS
 62
    2
 10
407.18632075471794
 20
279.01981132075377
 11
407.18632075471794
 21
284.21981132075359
  0
LINE
  8
_0-0_計極細
  6
CENTER1
 62
    2
 10
400.68632075471794
 20
626.37053074522134
 11
400.68632075471794
 21
260.06198757974232
  0
LINE
  8
_0-0_計極細
  6
CONTINUOUS
 62
    2
 10
394.186320754718
 20
453.91981132075529
 11
394.186320754718
 21
453.46981132075496
  0
LINE
  8
_0-0_計極細
  6
CONTINUOUS
 62
    2
 10
394.186320754718
 20
448.76981132075514
 11
394.186320754718
 21
448.31981132075492
  0
LINE
  8
_0-0_計極細
  6
CONTINUOUS
 62
    2
 10
407.18632075471794
 20
453.91981132075529
 11
407.18632075471794
 21
453.46981132075496
  0
LINE
  8
_0-0_計極細
  6
CONTINUOUS
 62
    2
 10
407.18632075471794
 20
448.76981132075514
 11
407.18632075471794
 21
448.31981132075492
  0
LINE
  8
_0-0_計極細
  6
CONTINUOUS
 62
    2
 10
442.686320754718
 20
436.91981132075432
 11
442.686320754718
 21
431.31981132075447
  0
LINE
  8
_0-0_計極細
  6
CONTINUOUS
 62
    2
 10
455.68632075471794
 20
436.91981132075432
 11
455.68632075471794
 21
431.31981132075447
  0
LINE
  8
_0-0_計極細
  6
CONTINUOUS
 62
    2
 10
442.686320754718
 20
453.91981132075529
 11
442.686320754718
 21
448.31981132075492
  0
LINE
  8
_0-0_計極細
  6
CONTINUOUS
 62
    2
 10
455.68632075471794
 20
453.91981132075529
 11
455.68632075471794
 21
448.31981132075492
  0
LINE
  8
_0-0_計極細
  6
CONTINUOUS
 62
    2
 10
442.686320754718
 20
470.91981132075574
 11
442.686320754718
 21
465.31981132075578
  0
LINE
  8
_0-0_計極細
  6
CONTINUOUS
 62
    2
 10
455.68632075471794
 20
470.91981132075574
 11
455.68632075471794
 21
465.31981132075578
  0
LINE
  8
_0-0_計極細
  6
CONTINUOUS
 62
    2
 10
442.686320754718
 20
487.91981132075659
 11
442.686320754718
 21
482.31981132075623
  0
LINE
  8
_0-0_計極細
  6
CONTINUOUS
 62
    2
 10
455.68632075471794
 20
487.91981132075659
 11
455.68632075471794
 21
482.31981132075623
  0
LINE
  8
_0-0_計極細
  6
CONTINUOUS
 62
    2
 10
442.686320754718
 20
504.91981132075705
 11
442.686320754718
 21
499.3198113207572
  0
LINE
  8
_0-0_計極細
  6
CONTINUOUS
 62
    2
 10
455.68632075471794
 20
504.91981132075705
 11
455.68632075471794
 21
499.3198113207572
  0
LINE
  8
_0-0_計極細
  6
CONTINUOUS
 62
    2
 10
442.686320754718
 20
521.91981132075614
 11
442.686320754718
 21
516.31981132075623
  0
LINE
  8
_0-0_計極細
  6
CONTINUOUS
 62
    2
 10
455.68632075471794
 20
521.91981132075614
 11
455.68632075471794
 21
516.31981132075623
  0
LINE
  8
_0-0_計極細
  6
CONTINUOUS
 62
    2
 10
442.686320754718
 20
538.91981132075534
 11
442.686320754718
 21
533.31981132075532
  0
LINE
  8
_0-0_計極細
  6
CONTINUOUS
 62
    2
 10
455.68632075471794
 20
538.91981132075534
 11
455.68632075471794
 21
533.31981132075532
  0
LINE
  8
_0-0_計極細
  6
CONTINUOUS
 62
    2
 10
442.686320754718
 20
555.91981132075432
 11
442.686320754718
 21
550.31981132075441
  0
LINE
  8
_0-0_計極細
  6
CONTINUOUS
 62
    2
 10
455.68632075471794
 20
555.91981132075432
 11
455.68632075471794
 21
550.31981132075441
  0
LINE
  8
_0-0_計極細
  6
CONTINUOUS
 62
    2
 10
442.686320754718
 20
572.91981132075341
 11
442.686320754718
 21
567.3198113207535
  0
LINE
  8
_0-0_計極細
  6
CONTINUOUS
 62
    2
 10
455.68632075471794
 20
572.91981132075341
 11
455.68632075471794
 21
567.3198113207535
  0
LINE
  8
_0-0_計極細
  6
CONTINUOUS
 62
    2
 10
442.686320754718
 20
589.61981132075641
 11
442.686320754718
 21
584.31981132075668
  0
LINE
  8
_0-0_計極細
  6
CONTINUOUS
 62
    2
 10
455.68632075471794
 20
589.61981132075641
 11
455.68632075471794
 21
584.31981132075668
  0
LINE
  8
_0-0_計極細
  6
CONTINUOUS
 62
    2
 10
442.686320754718
 20
606.21981132075553
 11
442.686320754718
 21
601.01981132075571
  0
LINE
  8
_0-0_計極細
  6
CONTINUOUS
 62
    2
 10
455.68632075471794
 20
606.21981132075553
 11
455.68632075471794
 21
601.01981132075571
  0
LINE
  8
_0-0_計極細
  6
CONTINUOUS
 62
    2
 10
442.686320754718
 20
414.3198113207535
 11
442.686320754718
 21
419.91981132075347
  0
LINE
  8
_0-0_計極細
  6
CONTINUOUS
 62
    2
 10
455.68632075471794
 20
414.3198113207535
 11
455.68632075471794
 21
419.91981132075347
  0
LINE
  8
_0-0_計極細
  6
CONTINUOUS
 62
    2
 10
442.686320754718
 20
397.31981132075259
 11
442.686320754718
 21
402.91981132075301
  0
LINE
  8
_0-0_計極細
  6
CONTINUOUS
 62
    2
 10
455.68632075471794
 20
397.31981132075259
 11
455.68632075471794
 21
402.91981132075301
  0
LINE
  8
_0-0_計極細
  6
CONTINUOUS
 62
    2
 10
442.686320754718
 20
380.31981132075214
 11
442.686320754718
 21
385.91981132075205
  0
LINE
  8
_0-0_計極細
  6
CONTINUOUS
 62
    2
 10
455.68632075471794
 20
380.31981132075214
 11
455.68632075471794
 21
385.91981132075205
  0
LINE
  8
_0-0_計極細
  6
CONTINUOUS
 62
    2
 10
442.686320754718
 20
363.31981132075305
 11
442.686320754718
 21
368.91981132075296
  0
LINE
  8
_0-0_計極細
  6
CONTINUOUS
 62
    2
 10
455.68632075471794
 20
363.31981132075305
 11
455.68632075471794
 21
368.91981132075296
  0
LINE
  8
_0-0_計極細
  6
CONTINUOUS
 62
    2
 10
442.686320754718
 20
346.31981132075396
 11
442.686320754718
 21
351.91981132075392
  0
LINE
  8
_0-0_計極細
  6
CONTINUOUS
 62
    2
 10
455.68632075471794
 20
346.31981132075396
 11
455.68632075471794
 21
351.91981132075392
  0
LINE
  8
_0-0_計極細
  6
CONTINUOUS
 62
    2
 10
442.686320754718
 20
329.31981132075487
 11
442.686320754718
 21
334.91981132075477
  0
LINE
  8
_0-0_計極細
  6
CONTINUOUS
 62
    2
 10
455.68632075471794
 20
329.31981132075487
 11
455.68632075471794
 21
334.91981132075477
  0
LINE
  8
_0-0_計極細
  6
CONTINUOUS
 62
    2
 10
442.686320754718
 20
312.31981132075578
 11
442.686320754718
 21
317.91981132075568
  0
LINE
  8
_0-0_計極細
  6
CONTINUOUS
 62
    2
 10
455.68632075471794
 20
312.31981132075578
 11
455.68632075471794
 21
317.91981132075568
  0
LINE
  8
_0-0_計極細
  6
CONTINUOUS
 62
    2
 10
442.686320754718
 20
295.61981132075277
 11
442.686320754718
 21
300.9198113207525
  0
LINE
  8
_0-0_計極細
  6
CONTINUOUS
 62
    2
 10
455.68632075471794
 20
295.61981132075277
 11
455.68632075471794
 21
300.9198113207525
  0
LINE
  8
_0-0_計極細
  6
CONTINUOUS
 62
    2
 10
442.686320754718
 20
279.01981132075377
 11
442.686320754718
 21
284.21981132075359
  0
LINE
  8
_0-0_計極細
  6
CONTINUOUS
 62
    2
 10
455.68632075471794
 20
279.01981132075377
 11
455.68632075471794
 21
284.21981132075359
  0
LINE
  8
_0-0_計極細
  6
CENTER1
 62
    2
 10
449.186320754718
 20
626.37053074522134
 11
449.186320754718
 21
260.06198757974232
  0
LINE
  8
_0-0_計極細
  6
CONTINUOUS
 62
    2
 10
633.18632075471794
 20
436.91981132075432
 11
633.18632075471794
 21
431.31981132075447
  0
LINE
  8
_0-0_計極細
  6
CONTINUOUS
 62
    2
 10
646.18632075471794
 20
436.91981132075432
 11
646.18632075471794
 21
431.31981132075447
  0
LINE
  8
_0-0_計極細
  6
CONTINUOUS
 62
    2
 10
633.18632075471794
 20
453.91981132075529
 11
633.18632075471794
 21
448.31981132075492
  0
LINE
  8
_0-0_計極細
  6
CONTINUOUS
 62
    2
 10
646.18632075471794
 20
453.91981132075529
 11
646.18632075471794
 21
448.31981132075492
  0
LINE
  8
_0-0_計極細
  6
CONTINUOUS
 62
    2
 10
633.18632075471794
 20
470.91981132075574
 11
633.18632075471794
 21
465.31981132075578
  0
LINE
  8
_0-0_計極細
  6
CONTINUOUS
 62
    2
 10
646.18632075471794
 20
470.91981132075574
 11
646.18632075471794
 21
465.31981132075578
  0
LINE
  8
_0-0_計極細
  6
CONTINUOUS
 62
    2
 10
633.18632075471794
 20
487.91981132075659
 11
633.18632075471794
 21
482.31981132075623
  0
LINE
  8
_0-0_計極細
  6
CONTINUOUS
 62
    2
 10
646.18632075471794
 20
487.91981132075659
 11
646.18632075471794
 21
482.31981132075623
  0
LINE
  8
_0-0_計極細
  6
CONTINUOUS
 62
    2
 10
633.18632075471794
 20
504.91981132075705
 11
633.18632075471794
 21
499.3198113207572
  0
LINE
  8
_0-0_計極細
  6
CONTINUOUS
 62
    2
 10
646.18632075471794
 20
504.91981132075705
 11
646.18632075471794
 21
499.3198113207572
  0
LINE
  8
_0-0_計極細
  6
CONTINUOUS
 62
    2
 10
633.18632075471794
 20
521.91981132075614
 11
633.18632075471794
 21
516.31981132075623
  0
LINE
  8
_0-0_計極細
  6
CONTINUOUS
 62
    2
 10
646.18632075471794
 20
521.91981132075614
 11
646.18632075471794
 21
516.31981132075623
  0
LINE
  8
_0-0_計極細
  6
CONTINUOUS
 62
    2
 10
633.18632075471794
 20
538.91981132075534
 11
633.18632075471794
 21
533.31981132075532
  0
LINE
  8
_0-0_計極細
  6
CONTINUOUS
 62
    2
 10
646.18632075471794
 20
538.91981132075534
 11
646.18632075471794
 21
533.31981132075532
  0
LINE
  8
_0-0_計極細
  6
CONTINUOUS
 62
    2
 10
633.18632075471794
 20
555.91981132075432
 11
633.18632075471794
 21
550.31981132075441
  0
LINE
  8
_0-0_計極細
  6
CONTINUOUS
 62
    2
 10
646.18632075471794
 20
555.91981132075432
 11
646.18632075471794
 21
550.31981132075441
  0
LINE
  8
_0-0_計極細
  6
CONTINUOUS
 62
    2
 10
633.18632075471794
 20
572.91981132075341
 11
633.18632075471794
 21
567.3198113207535
  0
LINE
  8
_0-0_計極細
  6
CONTINUOUS
 62
    2
 10
646.18632075471794
 20
572.91981132075341
 11
646.18632075471794
 21
567.3198113207535
  0
LINE
  8
_0-0_計極細
  6
CONTINUOUS
 62
    2
 10
633.18632075471794
 20
589.61981132075641
 11
633.18632075471794
 21
584.31981132075668
  0
LINE
  8
_0-0_計極細
  6
CONTINUOUS
 62
    2
 10
646.18632075471794
 20
589.61981132075641
 11
646.18632075471794
 21
584.31981132075668
  0
LINE
  8
_0-0_計極細
  6
CONTINUOUS
 62
    2
 10
633.18632075471794
 20
606.21981132075553
 11
633.18632075471794
 21
601.01981132075571
  0
LINE
  8
_0-0_計極細
  6
CONTINUOUS
 62
    2
 10
646.18632075471794
 20
606.21981132075553
 11
646.18632075471794
 21
601.01981132075571
  0
LINE
  8
_0-0_計極細
  6
CONTINUOUS
 62
    2
 10
633.18632075471794
 20
414.3198113207535
 11
633.18632075471794
 21
419.91981132075347
  0
LINE
  8
_0-0_計極細
  6
CONTINUOUS
 62
    2
 10
646.18632075471794
 20
414.3198113207535
 11
646.18632075471794
 21
419.91981132075347
  0
LINE
  8
_0-0_計極細
  6
CONTINUOUS
 62
    2
 10
633.18632075471794
 20
397.31981132075259
 11
633.18632075471794
 21
402.91981132075301
  0
LINE
  8
_0-0_計極細
  6
CONTINUOUS
 62
    2
 10
646.18632075471794
 20
397.31981132075259
 11
646.18632075471794
 21
402.91981132075301
  0
LINE
  8
_0-0_計極細
  6
CONTINUOUS
 62
    2
 10
633.18632075471794
 20
380.31981132075214
 11
633.18632075471794
 21
385.91981132075205
  0
LINE
  8
_0-0_計極細
  6
CONTINUOUS
 62
    2
 10
646.18632075471794
 20
380.31981132075214
 11
646.18632075471794
 21
385.91981132075205
  0
LINE
  8
_0-0_計極細
  6
CONTINUOUS
 62
    2
 10
633.18632075471794
 20
363.31981132075305
 11
633.18632075471794
 21
368.91981132075296
  0
LINE
  8
_0-0_計極細
  6
CONTINUOUS
 62
    2
 10
646.18632075471794
 20
363.31981132075305
 11
646.18632075471794
 21
368.91981132075296
  0
LINE
  8
_0-0_計極細
  6
CONTINUOUS
 62
    2
 10
633.18632075471794
 20
346.31981132075396
 11
633.18632075471794
 21
351.91981132075392
  0
LINE
  8
_0-0_計極細
  6
CONTINUOUS
 62
    2
 10
646.18632075471794
 20
346.31981132075396
 11
646.18632075471794
 21
351.91981132075392
  0
LINE
  8
_0-0_計極細
  6
CONTINUOUS
 62
    2
 10
633.18632075471794
 20
329.31981132075487
 11
633.18632075471794
 21
334.91981132075477
  0
LINE
  8
_0-0_計極細
  6
CONTINUOUS
 62
    2
 10
646.18632075471794
 20
329.31981132075487
 11
646.18632075471794
 21
334.91981132075477
  0
LINE
  8
_0-0_計極細
  6
CONTINUOUS
 62
    2
 10
633.18632075471794
 20
312.31981132075578
 11
633.18632075471794
 21
317.91981132075568
  0
LINE
  8
_0-0_計極細
  6
CONTINUOUS
 62
    2
 10
646.18632075471794
 20
312.31981132075578
 11
646.18632075471794
 21
317.91981132075568
  0
LINE
  8
_0-0_計極細
  6
CONTINUOUS
 62
    2
 10
633.18632075471794
 20
295.61981132075277
 11
633.18632075471794
 21
300.9198113207525
  0
LINE
  8
_0-0_計極細
  6
CONTINUOUS
 62
    2
 10
646.18632075471794
 20
295.61981132075277
 11
646.18632075471794
 21
300.9198113207525
  0
LINE
  8
_0-0_計極細
  6
CONTINUOUS
 62
    2
 10
633.18632075471794
 20
279.01981132075377
 11
633.18632075471794
 21
284.21981132075359
  0
LINE
  8
_0-0_計極細
  6
CONTINUOUS
 62
    2
 10
646.18632075471794
 20
279.01981132075377
 11
646.18632075471794
 21
284.21981132075359
  0
LINE
  8
_0-0_計極細
  6
CENTER1
 62
    2
 10
639.68632075471794
 20
626.37053074522134
 11
639.68632075471794
 21
260.06198757974232
  0
LINE
  8
_0-0_計極細
  6
CONTINUOUS
 62
    2
 10
536.18632075471794
 20
436.91981132075432
 11
536.18632075471794
 21
431.31981132075447
  0
LINE
  8
_0-0_計極細
  6
CONTINUOUS
 62
    2
 10
549.18632075471794
 20
436.91981132075432
 11
549.18632075471794
 21
431.31981132075447
  0
LINE
  8
_0-0_計極細
  6
CONTINUOUS
 62
    2
 10
536.18632075471794
 20
453.91981132075529
 11
536.18632075471794
 21
448.31981132075492
  0
LINE
  8
_0-0_計極細
  6
CONTINUOUS
 62
    2
 10
549.18632075471794
 20
453.91981132075529
 11
549.18632075471794
 21
448.31981132075492
  0
LINE
  8
_0-0_計極細
  6
CONTINUOUS
 62
    2
 10
536.18632075471794
 20
470.91981132075574
 11
536.18632075471794
 21
465.31981132075578
  0
LINE
  8
_0-0_計極細
  6
CONTINUOUS
 62
    2
 10
549.18632075471794
 20
470.91981132075574
 11
549.18632075471794
 21
465.31981132075578
  0
LINE
  8
_0-0_計極細
  6
CONTINUOUS
 62
    2
 10
536.18632075471794
 20
487.91981132075659
 11
536.18632075471794
 21
482.31981132075623
  0
LINE
  8
_0-0_計極細
  6
CONTINUOUS
 62
    2
 10
549.18632075471794
 20
487.91981132075659
 11
549.18632075471794
 21
482.31981132075623
  0
LINE
  8
_0-0_計極細
  6
CONTINUOUS
 62
    2
 10
536.18632075471794
 20
504.91981132075705
 11
536.18632075471794
 21
499.3198113207572
  0
LINE
  8
_0-0_計極細
  6
CONTINUOUS
 62
    2
 10
549.18632075471794
 20
504.91981132075705
 11
549.18632075471794
 21
499.3198113207572
  0
LINE
  8
_0-0_計極細
  6
CONTINUOUS
 62
    2
 10
536.18632075471794
 20
521.91981132075614
 11
536.18632075471794
 21
516.31981132075623
  0
LINE
  8
_0-0_計極細
  6
CONTINUOUS
 62
    2
 10
549.18632075471794
 20
521.91981132075614
 11
549.18632075471794
 21
516.31981132075623
  0
LINE
  8
_0-0_計極細
  6
CONTINUOUS
 62
    2
 10
536.18632075471794
 20
538.91981132075534
 11
536.18632075471794
 21
533.31981132075532
  0
LINE
  8
_0-0_計極細
  6
CONTINUOUS
 62
    2
 10
549.18632075471794
 20
538.91981132075534
 11
549.18632075471794
 21
533.31981132075532
  0
LINE
  8
_0-0_計極細
  6
CONTINUOUS
 62
    2
 10
536.18632075471794
 20
555.91981132075432
 11
536.18632075471794
 21
550.31981132075441
  0
LINE
  8
_0-0_計極細
  6
CONTINUOUS
 62
    2
 10
549.18632075471794
 20
555.91981132075432
 11
549.18632075471794
 21
550.31981132075441
  0
LINE
  8
_0-0_計極細
  6
CONTINUOUS
 62
    2
 10
536.18632075471794
 20
572.91981132075341
 11
536.18632075471794
 21
567.3198113207535
  0
LINE
  8
_0-0_計極細
  6
CONTINUOUS
 62
    2
 10
549.18632075471794
 20
572.91981132075341
 11
549.18632075471794
 21
567.3198113207535
  0
LINE
  8
_0-0_計極細
  6
CONTINUOUS
 62
    2
 10
536.18632075471794
 20
589.61981132075641
 11
536.18632075471794
 21
584.31981132075668
  0
LINE
  8
_0-0_計極細
  6
CONTINUOUS
 62
    2
 10
549.18632075471794
 20
589.61981132075641
 11
549.18632075471794
 21
584.31981132075668
  0
LINE
  8
_0-0_計極細
  6
CONTINUOUS
 62
    2
 10
536.18632075471794
 20
606.21981132075553
 11
536.18632075471794
 21
601.01981132075571
  0
LINE
  8
_0-0_計極細
  6
CONTINUOUS
 62
    2
 10
549.18632075471794
 20
606.21981132075553
 11
549.18632075471794
 21
601.01981132075571
  0
LINE
  8
_0-0_計極細
  6
CONTINUOUS
 62
    2
 10
536.18632075471794
 20
414.3198113207535
 11
536.18632075471794
 21
419.91981132075347
  0
LINE
  8
_0-0_計極細
  6
CONTINUOUS
 62
    2
 10
549.18632075471794
 20
414.3198113207535
 11
549.18632075471794
 21
419.91981132075347
  0
LINE
  8
_0-0_計極細
  6
CONTINUOUS
 62
    2
 10
536.18632075471794
 20
397.31981132075259
 11
536.18632075471794
 21
402.91981132075301
  0
LINE
  8
_0-0_計極細
  6
CONTINUOUS
 62
    2
 10
549.18632075471794
 20
397.31981132075259
 11
549.18632075471794
 21
402.91981132075301
  0
LINE
  8
_0-0_計極細
  6
CONTINUOUS
 62
    2
 10
536.18632075471794
 20
380.31981132075214
 11
536.18632075471794
 21
385.91981132075205
  0
LINE
  8
_0-0_計極細
  6
CONTINUOUS
 62
    2
 10
549.18632075471794
 20
380.31981132075214
 11
549.18632075471794
 21
385.91981132075205
  0
LINE
  8
_0-0_計極細
  6
CONTINUOUS
 62
    2
 10
536.18632075471794
 20
363.31981132075305
 11
536.18632075471794
 21
368.91981132075296
  0
LINE
  8
_0-0_計極細
  6
CONTINUOUS
 62
    2
 10
549.18632075471794
 20
363.31981132075305
 11
549.18632075471794
 21
368.91981132075296
  0
LINE
  8
_0-0_計極細
  6
CONTINUOUS
 62
    2
 10
536.18632075471794
 20
346.31981132075396
 11
536.18632075471794
 21
351.91981132075392
  0
LINE
  8
_0-0_計極細
  6
CONTINUOUS
 62
    2
 10
549.18632075471794
 20
346.31981132075396
 11
549.18632075471794
 21
351.91981132075392
  0
LINE
  8
_0-0_計極細
  6
CONTINUOUS
 62
    2
 10
536.18632075471794
 20
329.31981132075487
 11
536.18632075471794
 21
334.91981132075477
  0
LINE
  8
_0-0_計極細
  6
CONTINUOUS
 62
    2
 10
549.18632075471794
 20
329.31981132075487
 11
549.18632075471794
 21
334.91981132075477
  0
LINE
  8
_0-0_計極細
  6
CONTINUOUS
 62
    2
 10
536.18632075471794
 20
312.31981132075578
 11
536.18632075471794
 21
317.91981132075568
  0
LINE
  8
_0-0_計極細
  6
CONTINUOUS
 62
    2
 10
549.18632075471794
 20
312.31981132075578
 11
549.18632075471794
 21
317.91981132075568
  0
LINE
  8
_0-0_計極細
  6
CONTINUOUS
 62
    2
 10
536.18632075471794
 20
295.61981132075277
 11
536.18632075471794
 21
300.9198113207525
  0
LINE
  8
_0-0_計極細
  6
CONTINUOUS
 62
    2
 10
549.18632075471794
 20
295.61981132075277
 11
549.18632075471794
 21
300.9198113207525
  0
LINE
  8
_0-0_計極細
  6
CONTINUOUS
 62
    2
 10
536.18632075471794
 20
279.01981132075377
 11
536.18632075471794
 21
284.21981132075359
  0
LINE
  8
_0-0_計極細
  6
CONTINUOUS
 62
    2
 10
549.18632075471794
 20
279.01981132075377
 11
549.18632075471794
 21
284.21981132075359
  0
LINE
  8
_0-0_計極細
  6
CENTER1
 62
    2
 10
542.68632075471805
 20
626.37053074522134
 11
542.68632075471805
 21
260.06198757974232
  0
LINE
  8
_0-0_計極細
  6
CONTINUOUS
 62
    2
 10
487.686320754718
 20
436.91981132075432
 11
487.686320754718
 21
431.31981132075447
  0
LINE
  8
_0-0_計極細
  6
CONTINUOUS
 62
    2
 10
500.68632075471794
 20
436.91981132075432
 11
500.68632075471794
 21
431.31981132075447
  0
LINE
  8
_0-0_計極細
  6
CONTINUOUS
 62
    2
 10
487.686320754718
 20
453.91981132075529
 11
487.686320754718
 21
448.31981132075492
  0
LINE
  8
_0-0_計極細
  6
CONTINUOUS
 62
    2
 10
500.68632075471794
 20
453.91981132075529
 11
500.68632075471794
 21
448.31981132075492
  0
LINE
  8
_0-0_計極細
  6
CONTINUOUS
 62
    2
 10
487.686320754718
 20
470.91981132075574
 11
487.686320754718
 21
465.31981132075578
  0
LINE
  8
_0-0_計極細
  6
CONTINUOUS
 62
    2
 10
500.68632075471794
 20
470.91981132075574
 11
500.68632075471794
 21
465.31981132075578
  0
LINE
  8
_0-0_計極細
  6
CONTINUOUS
 62
    2
 10
487.686320754718
 20
487.91981132075659
 11
487.686320754718
 21
482.31981132075623
  0
LINE
  8
_0-0_計極細
  6
CONTINUOUS
 62
    2
 10
500.68632075471794
 20
487.91981132075659
 11
500.68632075471794
 21
482.31981132075623
  0
LINE
  8
_0-0_計極細
  6
CONTINUOUS
 62
    2
 10
487.686320754718
 20
504.91981132075705
 11
487.686320754718
 21
499.3198113207572
  0
LINE
  8
_0-0_計極細
  6
CONTINUOUS
 62
    2
 10
500.68632075471794
 20
504.91981132075705
 11
500.68632075471794
 21
499.3198113207572
  0
LINE
  8
_0-0_計極細
  6
CONTINUOUS
 62
    2
 10
487.686320754718
 20
521.91981132075614
 11
487.686320754718
 21
516.31981132075623
  0
LINE
  8
_0-0_計極細
  6
CONTINUOUS
 62
    2
 10
500.68632075471794
 20
521.91981132075614
 11
500.68632075471794
 21
516.31981132075623
  0
LINE
  8
_0-0_計極細
  6
CONTINUOUS
 62
    2
 10
487.686320754718
 20
538.91981132075534
 11
487.686320754718
 21
533.31981132075532
  0
LINE
  8
_0-0_計極細
  6
CONTINUOUS
 62
    2
 10
500.68632075471794
 20
538.91981132075534
 11
500.68632075471794
 21
533.31981132075532
  0
LINE
  8
_0-0_計極細
  6
CONTINUOUS
 62
    2
 10
487.686320754718
 20
555.91981132075432
 11
487.686320754718
 21
550.31981132075441
  0
LINE
  8
_0-0_計極細
  6
CONTINUOUS
 62
    2
 10
500.68632075471794
 20
555.91981132075432
 11
500.68632075471794
 21
550.31981132075441
  0
LINE
  8
_0-0_計極細
  6
CONTINUOUS
 62
    2
 10
487.686320754718
 20
572.91981132075341
 11
487.686320754718
 21
567.3198113207535
  0
LINE
  8
_0-0_計極細
  6
CONTINUOUS
 62
    2
 10
500.68632075471794
 20
572.91981132075341
 11
500.68632075471794
 21
567.3198113207535
  0
LINE
  8
_0-0_計極細
  6
CONTINUOUS
 62
    2
 10
487.686320754718
 20
589.61981132075641
 11
487.686320754718
 21
584.31981132075668
  0
LINE
  8
_0-0_計極細
  6
CONTINUOUS
 62
    2
 10
500.68632075471794
 20
589.61981132075641
 11
500.68632075471794
 21
584.31981132075668
  0
LINE
  8
_0-0_計極細
  6
CONTINUOUS
 62
    2
 10
500.68632075471794
 20
606.21981132075553
 11
500.68632075471794
 21
601.01981132075571
  0
LINE
  8
_0-0_計極細
  6
CONTINUOUS
 62
    2
 10
487.686320754718
 20
414.3198113207535
 11
487.686320754718
 21
419.91981132075347
  0
LINE
  8
_0-0_計極細
  6
CONTINUOUS
 62
    2
 10
500.68632075471794
 20
414.3198113207535
 11
500.68632075471794
 21
419.91981132075347
  0
LINE
  8
_0-0_計極細
  6
CONTINUOUS
 62
    2
 10
487.686320754718
 20
397.31981132075259
 11
487.686320754718
 21
402.91981132075301
  0
LINE
  8
_0-0_計極細
  6
CONTINUOUS
 62
    2
 10
500.68632075471794
 20
397.31981132075259
 11
500.68632075471794
 21
402.91981132075301
  0
LINE
  8
_0-0_計極細
  6
CONTINUOUS
 62
    2
 10
487.686320754718
 20
380.31981132075214
 11
487.686320754718
 21
385.91981132075205
  0
LINE
  8
_0-0_計極細
  6
CONTINUOUS
 62
    2
 10
500.68632075471794
 20
380.31981132075214
 11
500.68632075471794
 21
385.91981132075205
  0
LINE
  8
_0-0_計極細
  6
CONTINUOUS
 62
    2
 10
487.686320754718
 20
363.31981132075305
 11
487.686320754718
 21
368.91981132075296
  0
LINE
  8
_0-0_計極細
  6
CONTINUOUS
 62
    2
 10
500.68632075471794
 20
363.31981132075305
 11
500.68632075471794
 21
368.91981132075296
  0
LINE
  8
_0-0_計極細
  6
CONTINUOUS
 62
    2
 10
487.686320754718
 20
346.31981132075396
 11
487.686320754718
 21
351.91981132075392
  0
LINE
  8
_0-0_計極細
  6
CONTINUOUS
 62
    2
 10
500.68632075471794
 20
346.31981132075396
 11
500.68632075471794
 21
351.91981132075392
  0
LINE
  8
_0-0_計極細
  6
CONTINUOUS
 62
    2
 10
487.686320754718
 20
329.31981132075487
 11
487.686320754718
 21
334.91981132075477
  0
LINE
  8
_0-0_計極細
  6
CONTINUOUS
 62
    2
 10
500.68632075471794
 20
329.31981132075487
 11
500.68632075471794
 21
334.91981132075477
  0
LINE
  8
_0-0_計極細
  6
CONTINUOUS
 62
    2
 10
487.686320754718
 20
312.31981132075578
 11
487.686320754718
 21
317.91981132075568
  0
LINE
  8
_0-0_計極細
  6
CONTINUOUS
 62
    2
 10
500.68632075471794
 20
312.31981132075578
 11
500.68632075471794
 21
317.91981132075568
  0
LINE
  8
_0-0_計極細
  6
CONTINUOUS
 62
    2
 10
487.686320754718
 20
295.61981132075277
 11
487.686320754718
 21
300.9198113207525
  0
LINE
  8
_0-0_計極細
  6
CONTINUOUS
 62
    2
 10
500.68632075471794
 20
295.61981132075277
 11
500.68632075471794
 21
300.9198113207525
  0
LINE
  8
_0-0_計極細
  6
CONTINUOUS
 62
    2
 10
487.686320754718
 20
279.01981132075377
 11
487.686320754718
 21
284.21981132075359
  0
LINE
  8
_0-0_計極細
  6
CONTINUOUS
 62
    2
 10
500.68632075471794
 20
279.01981132075377
 11
500.68632075471794
 21
284.21981132075359
  0
LINE
  8
_0-0_計極細
  6
CENTER1
 62
    2
 10
494.186320754718
 20
626.37053074522134
 11
494.186320754718
 21
260.06198757974232
  0
LINE
  8
_0-5_寸法線
  6
CONTINUOUS
 62
    7
 10
651.16677235514362
 20
397.05314465408958
 11
658.23784016700915
 21
404.12421246595505
  0
LINE
  8
_0-5_寸法線
  6
CONTINUOUS
 62
    7
 10
651.16677235514362
 20
397.05314465408958
 11
660.82603061803422
 21
399.64133510511482
  0
LINE
  8
_0-5_寸法線
  6
CONTINUOUS
 62
    7
 10
651.16677235514362
 20
397.05314465408958
 11
692.5667723551436
 21
420.95544579854021
  0
LINE
  8
_0-5_寸法線
  6
CONTINUOUS
 62
    7
 10
692.5667723551436
 20
420.95544579854021
 11
800.56677235514371
 21
420.95544579854021
  0
TEXT
  8
_0-5_寸法線
 62
    7
 10
692.5667723551436
 20
420.95544579854021
 40
15
 41
0.8000000000000001
 50
0
  1
ＳＵＳアングル受枠
  0
TEXT
  8
_0-5_寸法線
 62
    7
 10
692.5667723551436
 20
405.95544579854021
 40
15
 41
0.8000000000000001
 50
0
  1
ＧＳＬ－２０
  0
LINE
  8
_0-5_寸法線
  6
CONTINUOUS
 62
    7
 10
613.45563710877411
 20
476.99093904118752
 11
620.52670492063965
 21
484.06200685305299
  0
LINE
  8
_0-5_寸法線
  6
CONTINUOUS
 62
    7
 10
613.45563710877411
 20
476.99093904118752
 11
623.11489537166483
 21
479.57912949221276
  0
LINE
  8
_0-5_寸法線
  6
CONTINUOUS
 62
    7
 10
613.45563710877411
 20
476.99093904118752
 11
692.5667723551436
 21
522.66577427157574
  0
LINE
  8
_0-5_寸法線
  6
CONTINUOUS
 62
    7
 10
692.5667723551436
 20
522.66577427157574
 11
824.5667723551436
 21
522.66577427157574
  0
TEXT
  8
_0-5_寸法線
 62
    7
 10
692.5667723551436
 20
522.66577427157574
 40
15
 41
0.8000000000000001
 50
0
  1
セーフティグレーチング
  0
TEXT
  8
_0-5_寸法線
 62
    7
 10
693.78198852546473
 20
504.90882910950228
 40
15
 41
0.8000000000000001
 50
0
  1
補強仕様
  0
LINE
  8
_0-0_計極細
  6
CONTINUOUS
 62
    2
 10
345.68632075471794
 20
436.91981132075432
 11
345.68632075471794
 21
431.31981132075447
  0
LINE
  8
_0-0_計極細
  6
CONTINUOUS
 62
    2
 10
358.68632075471794
 20
436.91981132075432
 11
358.68632075471794
 21
431.31981132075447
  0
LINE
  8
_0-0_計極細
  6
CONTINUOUS
 62
    2
 10
345.68632075471794
 20
453.91981132075529
 11
345.68632075471794
 21
448.31981132075492
  0
LINE
  8
_0-0_計極細
  6
CONTINUOUS
 62
    2
 10
358.68632075471794
 20
453.91981132075529
 11
358.68632075471794
 21
448.31981132075492
  0
LINE
  8
_0-0_計極細
  6
CONTINUOUS
 62
    2
 10
345.68632075471794
 20
470.91981132075574
 11
345.68632075471794
 21
465.31981132075578
  0
LINE
  8
_0-0_計極細
  6
CONTINUOUS
 62
    2
 10
358.68632075471794
 20
470.91981132075574
 11
358.68632075471794
 21
465.31981132075578
  0
LINE
  8
_0-0_計極細
  6
CONTINUOUS
 62
    2
 10
345.68632075471794
 20
487.91981132075659
 11
345.68632075471794
 21
482.31981132075623
  0
LINE
  8
_0-0_計極細
  6
CONTINUOUS
 62
    2
 10
358.68632075471794
 20
487.91981132075659
 11
358.68632075471794
 21
482.31981132075623
  0
LINE
  8
_0-0_計極細
  6
CONTINUOUS
 62
    2
 10
345.68632075471794
 20
504.91981132075705
 11
345.68632075471794
 21
499.3198113207572
  0
LINE
  8
_0-0_計極細
  6
CONTINUOUS
 62
    2
 10
358.68632075471794
 20
504.91981132075705
 11
358.68632075471794
 21
499.3198113207572
  0
LINE
  8
_0-0_計極細
  6
CONTINUOUS
 62
    2
 10
345.68632075471794
 20
521.91981132075614
 11
345.68632075471794
 21
516.31981132075623
  0
LINE
  8
_0-0_計極細
  6
CONTINUOUS
 62
    2
 10
358.68632075471794
 20
521.91981132075614
 11
358.68632075471794
 21
516.31981132075623
  0
LINE
  8
_0-0_計極細
  6
CONTINUOUS
 62
    2
 10
345.68632075471794
 20
538.91981132075534
 11
345.68632075471794
 21
533.31981132075532
  0
LINE
  8
_0-0_計極細
  6
CONTINUOUS
 62
    2
 10
358.68632075471794
 20
538.91981132075534
 11
358.68632075471794
 21
533.31981132075532
  0
LINE
  8
_0-0_計極細
  6
CONTINUOUS
 62
    2
 10
345.68632075471794
 20
555.91981132075432
 11
345.68632075471794
 21
550.31981132075441
  0
LINE
  8
_0-0_計極細
  6
CONTINUOUS
 62
    2
 10
358.68632075471794
 20
555.91981132075432
 11
358.68632075471794
 21
550.31981132075441
  0
LINE
  8
_0-0_計極細
  6
CONTINUOUS
 62
    2
 10
345.68632075471794
 20
572.91981132075341
 11
345.68632075471794
 21
567.3198113207535
  0
LINE
  8
_0-0_計極細
  6
CONTINUOUS
 62
    2
 10
358.68632075471794
 20
572.91981132075341
 11
358.68632075471794
 21
567.3198113207535
  0
LINE
  8
_0-0_計極細
  6
CONTINUOUS
 62
    2
 10
345.68632075471794
 20
589.61981132075641
 11
345.68632075471794
 21
584.31981132075668
  0
LINE
  8
_0-0_計極細
  6
CONTINUOUS
 62
    2
 10
358.68632075471794
 20
589.61981132075641
 11
358.68632075471794
 21
584.31981132075668
  0
LINE
  8
_0-0_計極細
  6
CONTINUOUS
 62
    2
 10
345.68632075471794
 20
606.21981132075553
 11
345.68632075471794
 21
601.01981132075571
  0
LINE
  8
_0-0_計極細
  6
CONTINUOUS
 62
    2
 10
358.68632075471794
 20
606.21981132075553
 11
358.68632075471794
 21
601.01981132075571
  0
LINE
  8
_0-0_計極細
  6
CONTINUOUS
 62
    2
 10
345.68632075471794
 20
414.3198113207535
 11
345.68632075471794
 21
419.91981132075347
  0
LINE
  8
_0-0_計極細
  6
CONTINUOUS
 62
    2
 10
358.68632075471794
 20
414.3198113207535
 11
358.68632075471794
 21
419.91981132075347
  0
LINE
  8
_0-0_計極細
  6
CONTINUOUS
 62
    2
 10
345.68632075471794
 20
397.31981132075259
 11
345.68632075471794
 21
402.91981132075301
  0
LINE
  8
_0-0_計極細
  6
CONTINUOUS
 62
    2
 10
358.68632075471794
 20
397.31981132075259
 11
358.68632075471794
 21
402.91981132075301
  0
LINE
  8
_0-0_計極細
  6
CONTINUOUS
 62
    2
 10
345.68632075471794
 20
380.31981132075214
 11
345.68632075471794
 21
385.91981132075205
  0
LINE
  8
_0-0_計極細
  6
CONTINUOUS
 62
    2
 10
358.68632075471794
 20
380.31981132075214
 11
358.68632075471794
 21
385.91981132075205
  0
LINE
  8
_0-0_計極細
  6
CONTINUOUS
 62
    2
 10
345.68632075471794
 20
363.31981132075305
 11
345.68632075471794
 21
368.91981132075296
  0
LINE
  8
_0-0_計極細
  6
CONTINUOUS
 62
    2
 10
358.68632075471794
 20
363.31981132075305
 11
358.68632075471794
 21
368.91981132075296
  0
LINE
  8
_0-0_計極細
  6
CONTINUOUS
 62
    2
 10
345.68632075471794
 20
346.31981132075396
 11
345.68632075471794
 21
351.91981132075392
  0
LINE
  8
_0-0_計極細
  6
CONTINUOUS
 62
    2
 10
358.68632075471794
 20
346.31981132075396
 11
358.68632075471794
 21
351.91981132075392
  0
LINE
  8
_0-0_計極細
  6
CONTINUOUS
 62
    2
 10
345.68632075471794
 20
329.31981132075487
 11
345.68632075471794
 21
334.91981132075477
  0
LINE
  8
_0-0_計極細
  6
CONTINUOUS
 62
    2
 10
358.68632075471794
 20
329.31981132075487
 11
358.68632075471794
 21
334.91981132075477
  0
LINE
  8
_0-0_計極細
  6
CONTINUOUS
 62
    2
 10
345.68632075471794
 20
312.31981132075578
 11
345.68632075471794
 21
317.91981132075568
  0
LINE
  8
_0-0_計極細
  6
CONTINUOUS
 62
    2
 10
358.68632075471794
 20
312.31981132075578
 11
358.68632075471794
 21
317.91981132075568
  0
LINE
  8
_0-0_計極細
  6
CONTINUOUS
 62
    2
 10
345.68632075471794
 20
295.61981132075277
 11
345.68632075471794
 21
300.9198113207525
  0
LINE
  8
_0-0_計極細
  6
CONTINUOUS
 62
    2
 10
358.68632075471794
 20
295.61981132075277
 11
358.68632075471794
 21
300.9198113207525
  0
LINE
  8
_0-0_計極細
  6
CONTINUOUS
 62
    2
 10
345.68632075471794
 20
279.01981132075377
 11
345.68632075471794
 21
284.21981132075359
  0
LINE
  8
_0-0_計極細
  6
CONTINUOUS
 62
    2
 10
358.68632075471794
 20
279.01981132075377
 11
358.68632075471794
 21
284.21981132075359
  0
LINE
  8
_0-0_計極細
  6
CENTER1
 62
    2
 10
352.18632075471794
 20
626.37053074522134
 11
352.18632075471794
 21
260.06198757974232
  0
LINE
  8
_0-0_計極細
  6
CONTINUOUS
 62
    2
 10
584.68632075471794
 20
436.91981132075432
 11
584.68632075471794
 21
431.31981132075447
  0
LINE
  8
_0-0_計極細
  6
CONTINUOUS
 62
    2
 10
597.68632075471805
 20
436.91981132075432
 11
597.68632075471805
 21
431.31981132075447
  0
LINE
  8
_0-0_計極細
  6
CONTINUOUS
 62
    2
 10
584.68632075471794
 20
453.91981132075529
 11
584.68632075471794
 21
448.31981132075492
  0
LINE
  8
_0-0_計極細
  6
CONTINUOUS
 62
    2
 10
597.68632075471805
 20
453.91981132075529
 11
597.68632075471805
 21
448.31981132075492
  0
LINE
  8
_0-0_計極細
  6
CONTINUOUS
 62
    2
 10
584.68632075471794
 20
470.91981132075574
 11
584.68632075471794
 21
465.31981132075578
  0
LINE
  8
_0-0_計極細
  6
CONTINUOUS
 62
    2
 10
597.68632075471805
 20
470.91981132075574
 11
597.68632075471805
 21
465.31981132075578
  0
LINE
  8
_0-0_計極細
  6
CONTINUOUS
 62
    2
 10
584.68632075471794
 20
487.91981132075659
 11
584.68632075471794
 21
482.31981132075623
  0
LINE
  8
_0-0_計極細
  6
CONTINUOUS
 62
    2
 10
597.68632075471805
 20
487.91981132075659
 11
597.68632075471805
 21
482.31981132075623
  0
LINE
  8
_0-0_計極細
  6
CONTINUOUS
 62
    2
 10
584.68632075471794
 20
504.91981132075705
 11
584.68632075471794
 21
499.3198113207572
  0
LINE
  8
_0-0_計極細
  6
CONTINUOUS
 62
    2
 10
597.68632075471805
 20
504.91981132075705
 11
597.68632075471805
 21
499.3198113207572
  0
LINE
  8
_0-0_計極細
  6
CONTINUOUS
 62
    2
 10
584.68632075471794
 20
521.91981132075614
 11
584.68632075471794
 21
516.31981132075623
  0
LINE
  8
_0-0_計極細
  6
CONTINUOUS
 62
    2
 10
597.68632075471805
 20
521.91981132075614
 11
597.68632075471805
 21
516.31981132075623
  0
LINE
  8
_0-0_計極細
  6
CONTINUOUS
 62
    2
 10
584.68632075471794
 20
538.91981132075534
 11
584.68632075471794
 21
533.31981132075532
  0
LINE
  8
_0-0_計極細
  6
CONTINUOUS
 62
    2
 10
597.68632075471805
 20
538.91981132075534
 11
597.68632075471805
 21
533.31981132075532
  0
LINE
  8
_0-0_計極細
  6
CONTINUOUS
 62
    2
 10
584.68632075471794
 20
555.91981132075432
 11
584.68632075471794
 21
550.31981132075441
  0
LINE
  8
_0-0_計極細
  6
CONTINUOUS
 62
    2
 10
597.68632075471805
 20
555.91981132075432
 11
597.68632075471805
 21
550.31981132075441
  0
LINE
  8
_0-0_計極細
  6
CONTINUOUS
 62
    2
 10
584.68632075471794
 20
572.91981132075341
 11
584.68632075471794
 21
567.3198113207535
  0
LINE
  8
_0-0_計極細
  6
CONTINUOUS
 62
    2
 10
597.68632075471805
 20
572.91981132075341
 11
597.68632075471805
 21
567.3198113207535
  0
LINE
  8
_0-0_計極細
  6
CONTINUOUS
 62
    2
 10
584.68632075471794
 20
589.61981132075641
 11
584.68632075471794
 21
584.31981132075668
  0
LINE
  8
_0-0_計極細
  6
CONTINUOUS
 62
    2
 10
597.68632075471805
 20
589.61981132075641
 11
597.68632075471805
 21
584.31981132075668
  0
LINE
  8
_0-0_計極細
  6
CONTINUOUS
 62
    2
 10
584.68632075471794
 20
606.21981132075553
 11
584.68632075471794
 21
601.01981132075571
  0
LINE
  8
_0-0_計極細
  6
CONTINUOUS
 62
    2
 10
597.68632075471805
 20
606.21981132075553
 11
597.68632075471805
 21
601.01981132075571
  0
LINE
  8
_0-0_計極細
  6
CONTINUOUS
 62
    2
 10
584.68632075471794
 20
414.3198113207535
 11
584.68632075471794
 21
419.91981132075347
  0
LINE
  8
_0-0_計極細
  6
CONTINUOUS
 62
    2
 10
597.68632075471805
 20
414.3198113207535
 11
597.68632075471805
 21
419.91981132075347
  0
LINE
  8
_0-0_計極細
  6
CONTINUOUS
 62
    2
 10
584.68632075471794
 20
397.31981132075259
 11
584.68632075471794
 21
402.91981132075301
  0
LINE
  8
_0-0_計極細
  6
CONTINUOUS
 62
    2
 10
597.68632075471805
 20
397.31981132075259
 11
597.68632075471805
 21
402.91981132075301
  0
LINE
  8
_0-0_計極細
  6
CONTINUOUS
 62
    2
 10
584.68632075471794
 20
380.31981132075214
 11
584.68632075471794
 21
385.91981132075205
  0
LINE
  8
_0-0_計極細
  6
CONTINUOUS
 62
    2
 10
597.68632075471805
 20
380.31981132075214
 11
597.68632075471805
 21
385.91981132075205
  0
LINE
  8
_0-0_計極細
  6
CONTINUOUS
 62
    2
 10
584.68632075471794
 20
363.31981132075305
 11
584.68632075471794
 21
368.91981132075296
  0
LINE
  8
_0-0_計極細
  6
CONTINUOUS
 62
    2
 10
597.68632075471805
 20
363.31981132075305
 11
597.68632075471805
 21
368.91981132075296
  0
LINE
  8
_0-0_計極細
  6
CONTINUOUS
 62
    2
 10
584.68632075471794
 20
346.31981132075396
 11
584.68632075471794
 21
351.91981132075392
  0
LINE
  8
_0-0_計極細
  6
CONTINUOUS
 62
    2
 10
597.68632075471805
 20
346.31981132075396
 11
597.68632075471805
 21
351.91981132075392
  0
LINE
  8
_0-0_計極細
  6
CONTINUOUS
 62
    2
 10
584.68632075471794
 20
329.31981132075487
 11
584.68632075471794
 21
334.91981132075477
  0
LINE
  8
_0-0_計極細
  6
CONTINUOUS
 62
    2
 10
597.68632075471805
 20
329.31981132075487
 11
597.68632075471805
 21
334.91981132075477
  0
LINE
  8
_0-0_計極細
  6
CONTINUOUS
 62
    2
 10
584.68632075471794
 20
312.31981132075578
 11
584.68632075471794
 21
317.91981132075568
  0
LINE
  8
_0-0_計極細
  6
CONTINUOUS
 62
    2
 10
597.68632075471805
 20
312.31981132075578
 11
597.68632075471805
 21
317.91981132075568
  0
LINE
  8
_0-0_計極細
  6
CONTINUOUS
 62
    2
 10
584.68632075471794
 20
295.61981132075277
 11
584.68632075471794
 21
300.9198113207525
  0
LINE
  8
_0-0_計極細
  6
CONTINUOUS
 62
    2
 10
597.68632075471805
 20
295.61981132075277
 11
597.68632075471805
 21
300.9198113207525
  0
LINE
  8
_0-0_計極細
  6
CONTINUOUS
 62
    2
 10
584.68632075471794
 20
279.01981132075377
 11
584.68632075471794
 21
284.21981132075359
  0
LINE
  8
_0-0_計極細
  6
CONTINUOUS
 62
    2
 10
597.68632075471805
 20
279.01981132075377
 11
597.68632075471805
 21
284.21981132075359
  0
LINE
  8
_0-0_計極細
  6
CENTER1
 62
    2
 10
591.18632075471794
 20
626.37053074522134
 11
591.18632075471794
 21
260.06198757974232
  0
LINE
  8
_0-5_寸法線
  6
CONTINUOUS
 62
    7
 10
281.68632075471794
 20
262.61981132074965
 11
201.68632075471791
 21
262.61981132074993
  0
LINE
  8
_0-5_寸法線
  6
CONTINUOUS
 62
    7
 10
206.68632075471791
 20
262.61981132074993
 11
204.09813030369278
 21
272.27906958364059
  0
LINE
  8
_0-5_寸法線
  6
CONTINUOUS
 62
    7
 10
206.68632075471791
 20
262.61981132074993
 11
209.27451120574318
 21
272.27906958364059
  0
LINE
  8
_0-5_寸法線
  6
CONTINUOUS
 62
    7
 10
281.68632075471794
 20
622.6198113207596
 11
201.68632075471791
 21
622.61981132075994
  0
LINE
  8
_0-5_寸法線
  6
CONTINUOUS
 62
    7
 10
206.68632075471791
 20
622.61981132075994
 11
209.27451120574318
 21
612.96055305786911
  0
LINE
  8
_0-5_寸法線
  6
CONTINUOUS
 62
    7
 10
206.68632075471791
 20
622.61981132075994
 11
204.09813030369278
 21
612.96055305786911
  0
LINE
  8
_0-5_寸法線
  6
CONTINUOUS
 62
    7
 10
206.68632075471791
 20
262.61981132074993
 11
206.68632075471791
 21
622.61981132075994
  0
TEXT
  8
_0-5_寸法線
 62
    7
 10
206.68632075471791
 20
431.36981132075499
 40
15
 41
1
 50
89.999999999999815
  1
360
  0
LINE
  8
_0-5_寸法線
  6
CONTINUOUS
 62
    7
 10
281.68632075471794
 20
262.61981132074959
 11
236.68632075471791
 21
262.6198113207497
  0
LINE
  8
_0-5_寸法線
  6
CONTINUOUS
 62
    7
 10
241.68632075471791
 20
262.6198113207497
 11
244.27451120574312
 21
252.96055305785902
  0
LINE
  8
_0-5_寸法線
  6
CONTINUOUS
 62
    7
 10
241.68632075471791
 20
262.6198113207497
 11
239.0981303036927
 21
252.96055305785904
  0
LINE
  8
_0-5_寸法線
  6
CONTINUOUS
 62
    7
 10
281.68632075471794
 20
265.61981132074959
 11
236.68632075471791
 21
265.6198113207497
  0
CIRCLE
  8
_0-5_寸法線
  6
CONTINUOUS
 62
    1
 10
241.68632075471791
 20
265.6198113207497
 40
1.5000000000000002
  0
LINE
  8
_0-5_寸法線
  6
CONTINUOUS
 62
    7
 10
241.68632075471791
 20
237.6198113207497
 11
241.68632075471791
 21
265.6198113207497
  0
TEXT
  8
_0-5_寸法線
 62
    7
 10
241.68632075471791
 20
240.9786921501474
 40
15
 41
1
 50
90
  1
3
  0
LINE
  8
_0-5_寸法線
  6
CONTINUOUS
 62
    7
 10
281.68632075471794
 20
267.61981132074925
 11
236.68632075471791
 21
267.61981132074936
  0
LINE
  8
_0-5_寸法線
  6
CONTINUOUS
 62
    7
 10
241.68632075471791
 20
265.6198113207497
 11
241.68632075471791
 21
267.61981132074936
  0
TEXT
  8
_0-5_寸法線
 62
    7
 10
259.11358617694748
 20
270.77247163128425
 40
15
 41
1
 50
90
  1
2
  0
LINE
  8
_0-5_寸法線
  6
CONTINUOUS
 62
    7
 10
241.68632075471791
 20
267.61981132074936
 11
239.09813030369278
 21
277.27906958364002
  0
LINE
  8
_0-5_寸法線
  6
CONTINUOUS
 62
    7
 10
241.68632075471791
 20
267.61981132074936
 11
244.27451120574318
 21
277.27906958364002
  0
LINE
  8
_0-5_寸法線
  6
CONTINUOUS
 62
    7
 10
281.68632075471794
 20
617.6198113207605
 11
236.68632075471791
 21
617.61981132076062
  0
LINE
  8
_0-5_寸法線
  6
CONTINUOUS
 62
    7
 10
241.68632075471791
 20
617.61981132076062
 11
244.27451120574312
 21
607.9605530578699
  0
LINE
  8
_0-5_寸法線
  6
CONTINUOUS
 62
    7
 10
241.68632075471791
 20
617.61981132076062
 11
239.0981303036927
 21
607.9605530578699
  0
LINE
  8
_0-5_寸法線
  6
CONTINUOUS
 62
    7
 10
241.68632075471791
 20
267.61981132074936
 11
241.68632075471791
 21
617.61981132076062
  0
TEXT
  8
_0-5_寸法線
 62
    7
 10
241.68632075471791
 20
431.36981132075499
 40
15
 41
1
 50
89.999999999999815
  1
350
  0
LINE
  8
_0-5_寸法線
  6
CONTINUOUS
 62
    7
 10
281.68632075471794
 20
619.6198113207596
 11
236.68632075471791
 21
619.61981132075971
  0
CIRCLE
  8
_0-5_寸法線
  6
CONTINUOUS
 62
    1
 10
241.68632075471791
 20
619.61981132075971
 40
1.5000000000000002
  0
LINE
  8
_0-5_寸法線
  6
CONTINUOUS
 62
    7
 10
241.68632075471791
 20
617.61981132076062
 11
241.68632075471791
 21
619.61981132075971
  0
TEXT
  8
_0-5_寸法線
 62
    7
 10
258.10754254487199
 20
609.05895453222922
 40
15
 41
1
 50
90
  1
2
  0
LINE
  8
_0-5_寸法線
  6
CONTINUOUS
 62
    7
 10
281.68632075471794
 20
622.6198113207596
 11
236.68632075471791
 21
622.61981132075971
  0
LINE
  8
_0-5_寸法線
  6
CONTINUOUS
 62
    7
 10
241.68632075471791
 20
622.61981132075971
 11
239.09813030369278
 21
632.27906958365043
  0
LINE
  8
_0-5_寸法線
  6
CONTINUOUS
 62
    7
 10
241.68632075471791
 20
622.61981132075971
 11
244.27451120574318
 21
632.27906958365043
  0
LINE
  8
_0-5_寸法線
  6
CONTINUOUS
 62
    7
 10
241.68632075471791
 20
619.61981132075971
 11
241.68632075471791
 21
647.61981132075971
  0
TEXT
  8
_0-5_寸法線
 62
    7
 10
241.68632075471791
 20
636.72456479166704
 40
15
 41
1
 50
90
  1
3
  0
LINE
  8
_0-5_寸法線
  6
CONTINUOUS
 62
    7
 10
291.68632075471805
 20
632.6198113207596
 11
291.68632075471839
 21
782.6198113207596
  0
LINE
  8
_0-5_寸法線
  6
CONTINUOUS
 62
    7
 10
291.68632075471839
 20
777.6198113207596
 11
301.34557901760905
 21
780.20800177178489
  0
LINE
  8
_0-5_寸法線
  6
CONTINUOUS
 62
    7
 10
291.68632075471839
 20
777.6198113207596
 11
301.34557901760905
 21
775.03162086973452
  0
LINE
  8
_0-5_寸法線
  6
CONTINUOUS
 62
    7
 10
651.68632075471794
 20
632.6198113207596
 11
651.68632075471794
 21
782.6198113207596
  0
LINE
  8
_0-5_寸法線
  6
CONTINUOUS
 62
    7
 10
651.68632075471794
 20
777.6198113207596
 11
642.02706249182722
 21
775.03162086973452
  0
LINE
  8
_0-5_寸法線
  6
CONTINUOUS
 62
    7
 10
651.68632075471794
 20
777.6198113207596
 11
642.02706249182722
 21
780.20800177178489
  0
LINE
  8
_0-5_寸法線
  6
CONTINUOUS
 62
    7
 10
291.68632075471839
 20
777.6198113207596
 11
651.68632075471794
 21
777.6198113207596
  0
TEXT
  8
_0-5_寸法線
 62
    7
 10
460.436320754718
 20
777.6198113207596
 40
15
 41
1
 50
0
  1
360
  0
LINE
  8
_0-5_寸法線
  6
CONTINUOUS
 62
    7
 10
646.68632075471805
 20
632.6198113207596
 11
646.68632075471896
 21
712.6198113207596
  0
LINE
  8
_0-5_寸法線
  6
CONTINUOUS
 62
    7
 10
646.68632075471896
 20
707.6198113207596
 11
637.02706249182813
 21
705.03162086973452
  0
LINE
  8
_0-5_寸法線
  6
CONTINUOUS
 62
    7
 10
646.68632075471896
 20
707.6198113207596
 11
637.02706249182813
 21
710.20800177178489
  0
LINE
  8
_0-5_寸法線
  6
CONTINUOUS
 62
    7
 10
296.68632075471805
 20
632.6198113207596
 11
296.68632075471839
 21
712.6198113207596
  0
LINE
  8
_0-5_寸法線
  6
CONTINUOUS
 62
    7
 10
296.68632075471839
 20
707.6198113207596
 11
306.34557901760905
 21
710.20800177178489
  0
LINE
  8
_0-5_寸法線
  6
CONTINUOUS
 62
    7
 10
296.68632075471839
 20
707.6198113207596
 11
306.34557901760905
 21
705.03162086973452
  0
LINE
  8
_0-5_寸法線
  6
CONTINUOUS
 62
    7
 10
646.68632075471896
 20
707.6198113207596
 11
296.68632075471839
 21
707.6198113207596
  0
TEXT
  8
_0-5_寸法線
 62
    7
 10
460.43632075471839
 20
707.6198113207596
 40
15
 41
1
 50
0
  1
350
  0
LINE
  8
_0-5_寸法線
  6
CONTINUOUS
 62
    7
 10
291.68632075471794
 20
632.6198113207596
 11
291.68632075471794
 21
747.6198113207596
  0
LINE
  8
_0-5_寸法線
  6
CONTINUOUS
 62
    7
 10
291.68632075471794
 20
742.6198113207596
 11
282.02706249182722
 21
740.03162086973452
  0
LINE
  8
_0-5_寸法線
  6
CONTINUOUS
 62
    7
 10
291.68632075471794
 20
742.6198113207596
 11
282.02706249182722
 21
745.20800177178489
  0
LINE
  8
_0-5_寸法線
  6
CONTINUOUS
 62
    7
 10
294.68632075471794
 20
632.6198113207596
 11
294.68632075471794
 21
747.6198113207596
  0
LINE
  8
_0-5_寸法線
  6
CONTINUOUS
 62
    7
 10
266.68632075471794
 20
742.6198113207596
 11
294.68632075471794
 21
742.6198113207596
  0
TEXT
  8
_0-5_寸法線
 62
    7
 10
268.497430516571
 20
742.6198113207596
 40
15
 41
1
 50
0
  1
3
  0
LINE
  8
_0-5_寸法線
  6
CONTINUOUS
 62
    7
 10
294.68632075471794
 20
742.6198113207596
 11
304.34557901760866
 21
745.20800177178489
  0
LINE
  8
_0-5_寸法線
  6
CONTINUOUS
 62
    7
 10
294.68632075471794
 20
742.6198113207596
 11
304.3455790176086
 21
740.0316208697343
  0
LINE
  8
_0-5_寸法線
  6
CONTINUOUS
 62
    7
 10
648.68632075471794
 20
632.61981132075948
 11
648.68632075471839
 21
747.6198113207596
  0
LINE
  8
_0-5_寸法線
  6
CONTINUOUS
 62
    7
 10
648.68632075471839
 20
742.6198113207596
 11
639.02706249182768
 21
740.03162086973452
  0
LINE
  8
_0-5_寸法線
  6
CONTINUOUS
 62
    7
 10
648.68632075471839
 20
742.6198113207596
 11
639.02706249182768
 21
745.20800177178489
  0
LINE
  8
_0-5_寸法線
  6
CONTINUOUS
 62
    7
 10
294.68632075471794
 20
742.6198113207596
 11
648.68632075471839
 21
742.6198113207596
  0
TEXT
  8
_0-5_寸法線
 62
    7
 10
460.43632075471839
 20
742.61981132075948
 40
15
 41
1
 50
0
  1
354
  0
LINE
  8
_0-5_寸法線
  6
CONTINUOUS
 62
    7
 10
651.68632075471794
 20
632.6198113207596
 11
651.68632075471851
 21
747.6198113207596
  0
LINE
  8
_0-5_寸法線
  6
CONTINUOUS
 62
    7
 10
651.68632075471851
 20
742.6198113207596
 11
661.34557901760911
 21
745.20800177178489
  0
LINE
  8
_0-5_寸法線
  6
CONTINUOUS
 62
    7
 10
651.68632075471851
 20
742.6198113207596
 11
661.34557901760911
 21
740.0316208697343
  0
LINE
  8
_0-5_寸法線
  6
CONTINUOUS
 62
    7
 10
648.68632075471839
 20
742.6198113207596
 11
676.68632075471851
 21
742.6198113207596
  0
TEXT
  8
_0-5_寸法線
 62
    7
 10
667.95792579959016
 20
742.6198113207596
 40
15
 41
1
 50
0
  1
3
  0
LINE
  8
_0-7_枠細線
  6
CONTINUOUS
 62
    5
 10
345.47412431961936
 20
690.42252270675635
 11
337.97412431961936
 21
705.42252270675635
  0
LINE
  8
_0-7_枠細線
  6
CONTINUOUS
 62
    5
 10
330.47412431961936
 20
690.42252270675635
 11
345.47412431961936
 21
690.42252270675635
  0
LINE
  8
_0-7_枠細線
  6
CONTINUOUS
 62
    5
 10
337.97412431961936
 20
705.42252270675635
 11
330.47412431961936
 21
690.42252270675635
  0
LINE
  8
_0-7_枠細線
  6
CONTINUOUS
 62
    5
 10
205.34335540952895
 20
707.5678594711668
 11
197.84335540952895
 21
722.5678594711668
  0
LINE
  8
_0-7_枠細線
  6
CONTINUOUS
 62
    5
 10
190.34335540952895
 20
707.5678594711668
 11
205.34335540952895
 21
707.5678594711668
  0
LINE
  8
_0-7_枠細線
  6
CONTINUOUS
 62
    5
 10
197.84335540952895
 20
722.5678594711668
 11
190.34335540952895
 21
707.5678594711668
  0
LINE
  8
_0-5_寸法線
  6
CONTINUOUS
 62
    7
 10
394.186320754718
 20
452.15644421971615
 11
386.98842537313124
 21
459.09836773382466
  0
LINE
  8
_0-5_寸法線
  6
CONTINUOUS
 62
    7
 10
394.186320754718
 20
452.15644421971615
 11
391.42372225753542
 21
461.76727402485602
  0
LINE
  8
_0-5_寸法線
  6
CONTINUOUS
 62
    7
 10
394.186320754718
 20
452.15644421971615
 11
251.33347726338471
 21
689.55510216230834
  0
LINE
  8
_0-5_寸法線
  6
CONTINUOUS
 62
    7
 10
251.33347726338471
 20
689.55510216230834
 11
191.33347726338471
 21
689.55510216230834
  0
TEXT
  8
_0-5_寸法線
 62
    7
 10
191.33347726338471
 20
689.55510216230834
 40
15
 41
0.8000000000000001
 50
0
  1
取　外　具
  0
LINE
  8
_0-5_寸法線
  6
CONTINUOUS
 62
    7
 10
296.68632075471794
 20
632.6198113207596
 11
296.68632075471794
 21
677.6198113207596
  0
LINE
  8
_0-5_寸法線
  6
CONTINUOUS
 62
    7
 10
296.68632075471794
 20
672.6198113207596
 11
306.34557901760854
 21
675.20800177178489
  0
LINE
  8
_0-5_寸法線
  6
CONTINUOUS
 62
    7
 10
296.68632075471794
 20
672.6198113207596
 11
306.34557901760854
 21
670.03162086973452
  0
LINE
  8
_0-5_寸法線
  6
CONTINUOUS
 62
    7
 10
303.68632075471794
 20
632.6198113207596
 11
303.68632075471794
 21
677.6198113207596
  0
LINE
  8
_0-5_寸法線
  6
CONTINUOUS
 62
    7
 10
303.68632075471794
 20
672.6198113207596
 11
294.02706249182728
 21
670.03162086973452
  0
LINE
  8
_0-5_寸法線
  6
CONTINUOUS
 62
    7
 10
303.68632075471794
 20
672.6198113207596
 11
294.02706249182728
 21
675.20800177178489
  0
LINE
  8
_0-5_寸法線
  6
CONTINUOUS
 62
    7
 10
296.68632075471794
 20
672.6198113207596
 11
311.83195754717133
 21
672.6198113207596
  0
TEXT
  8
_0-5_寸法線
 62
    7
 10
304.33195754717133
 20
672.6198113207596
 40
15
 41
1
 50
0
  1
7
  0
LINE
  8
_0-5_寸法線
  6
CONTINUOUS
 62
    7
 10
303.68632075471794
 20
672.6198113207596
 11
313.34557901760866
 21
675.20800177178489
  0
LINE
  8
_0-5_寸法線
  6
CONTINUOUS
 62
    7
 10
303.68632075471794
 20
672.6198113207596
 11
313.3455790176086
 21
670.0316208697343
  0
LINE
  8
_0-5_寸法線
  6
CONTINUOUS
 62
    7
 10
449.186320754718
 20
632.6198113207596
 11
449.186320754718
 21
677.6198113207596
  0
LINE
  8
_0-5_寸法線
  6
CONTINUOUS
 62
    7
 10
449.186320754718
 20
672.6198113207596
 11
439.52706249182722
 21
670.03162086973452
  0
LINE
  8
_0-5_寸法線
  6
CONTINUOUS
 62
    7
 10
449.186320754718
 20
672.6198113207596
 11
439.52706249182734
 21
675.20800177178489
  0
LINE
  8
_0-5_寸法線
  6
CONTINUOUS
 62
    7
 10
303.68632075471794
 20
672.6198113207596
 11
449.186320754718
 21
672.6198113207596
  0
TEXT
  8
_0-5_寸法線
 62
    7
 10
331.43632075471794
 20
672.61981132075948
 40
15
 41
1
 50
0
  1
3@48.5=145.5
  0
LINE
  8
_0-5_寸法線
  6
CONTINUOUS
 62
    7
 10
449.186320754718
 20
672.6198113207596
 11
458.84557901760871
 21
675.20800177178489
  0
LINE
  8
_0-5_寸法線
  6
CONTINUOUS
 62
    7
 10
449.186320754718
 20
672.6198113207596
 11
458.84557901760866
 21
670.0316208697343
  0
LINE
  8
_0-5_寸法線
  6
CONTINUOUS
 62
    7
 10
494.186320754718
 20
632.6198113207596
 11
494.186320754718
 21
677.6198113207596
  0
LINE
  8
_0-5_寸法線
  6
CONTINUOUS
 62
    7
 10
494.186320754718
 20
672.6198113207596
 11
484.52706249182722
 21
670.03162086973452
  0
LINE
  8
_0-5_寸法線
  6
CONTINUOUS
 62
    7
 10
494.186320754718
 20
672.6198113207596
 11
484.52706249182734
 21
675.20800177178489
  0
LINE
  8
_0-5_寸法線
  6
CONTINUOUS
 62
    7
 10
449.186320754718
 20
672.6198113207596
 11
494.186320754718
 21
672.6198113207596
  0
TEXT
  8
_0-5_寸法線
 62
    7
 10
464.186320754718
 20
672.61981132075948
 40
15
 41
1
 50
0
  1
45
  0
LINE
  8
_0-5_寸法線
  6
CONTINUOUS
 62
    7
 10
494.186320754718
 20
672.6198113207596
 11
503.84557901760871
 21
675.20800177178489
  0
LINE
  8
_0-5_寸法線
  6
CONTINUOUS
 62
    7
 10
494.186320754718
 20
672.6198113207596
 11
503.84557901760866
 21
670.0316208697343
  0
LINE
  8
_0-5_寸法線
  6
CONTINUOUS
 62
    7
 10
639.68632075471794
 20
632.6198113207596
 11
639.68632075471794
 21
677.6198113207596
  0
LINE
  8
_0-5_寸法線
  6
CONTINUOUS
 62
    7
 10
639.68632075471794
 20
672.6198113207596
 11
630.02706249182722
 21
670.03162086973452
  0
LINE
  8
_0-5_寸法線
  6
CONTINUOUS
 62
    7
 10
639.68632075471794
 20
672.6198113207596
 11
630.02706249182722
 21
675.20800177178489
  0
LINE
  8
_0-5_寸法線
  6
CONTINUOUS
 62
    7
 10
494.186320754718
 20
672.6198113207596
 11
639.68632075471794
 21
672.6198113207596
  0
TEXT
  8
_0-5_寸法線
 62
    7
 10
521.93632075471794
 20
672.61981132075948
 40
15
 41
1
 50
0
  1
3@48.5=145.5
  0
LINE
  8
_0-5_寸法線
  6
CONTINUOUS
 62
    7
 10
639.68632075471794
 20
672.6198113207596
 11
649.34557901760866
 21
675.20800177178489
  0
LINE
  8
_0-5_寸法線
  6
CONTINUOUS
 62
    7
 10
639.68632075471794
 20
672.6198113207596
 11
649.34557901760866
 21
670.0316208697343
  0
LINE
  8
_0-5_寸法線
  6
CONTINUOUS
 62
    7
 10
646.68632075471794
 20
632.6198113207596
 11
646.68632075471794
 21
677.6198113207596
  0
LINE
  8
_0-5_寸法線
  6
CONTINUOUS
 62
    7
 10
646.68632075471794
 20
672.6198113207596
 11
637.02706249182722
 21
670.03162086973452
  0
LINE
  8
_0-5_寸法線
  6
CONTINUOUS
 62
    7
 10
646.68632075471794
 20
672.6198113207596
 11
637.02706249182722
 21
675.20800177178489
  0
LINE
  8
_0-5_寸法線
  6
CONTINUOUS
 62
    7
 10
631.41885318396714
 20
672.6198113207596
 11
646.68632075471794
 21
672.6198113207596
  0
TEXT
  8
_0-5_寸法線
 62
    7
 10
631.41885318396714
 20
672.6198113207596
 40
15
 41
1
 50
0
  1
7
  0
LINE
  8
_0-0_計極細
  6
CONTINUOUS
 62
    2
 10
1336.3976690451429
 20
677.94899027454039
 11
1336.3976690451429
 21
636.94899027453994
  0
LINE
  8
_0-0_計極細
  6
CONTINUOUS
 62
    2
 10
1286.3976690451432
 20
636.94899027453994
 11
1336.3976690451429
 21
636.94899027453994
  0
LINE
  8
_0-0_計極細
  6
CONTINUOUS
 62
    2
 10
1336.3976690451429
 20
677.94899027454039
 11
1354.9043173322118
 21
677.94899027454039
  0
LINE
  8
_0-0_計極細
  6
CONTINUOUS
 62
    2
 10
1286.3976690451432
 20
636.94899027453994
 11
1286.3976690451432
 21
621.2040300976729
  0
LINE
  8
_0-0_計極細
  6
CONTINUOUS
 62
    2
 10
1341.3716704938988
 20
621.2040300976729
 11
1354.9043173571365
 21
634.7366769609099
  0
LINE
  8
_0-0_計極細
  6
CONTINUOUS
 62
    2
 10
1298.9452636227061
 20
621.2040300976729
 11
1314.6902237995735
 21
636.94899027453994
  0
LINE
  8
_0-0_計極細
  6
CONTINUOUS
 62
    2
 10
1336.3976690451429
 20
658.65643552010977
 11
1354.9043173326652
 21
677.16308380763155
  0
LINE
  8
_0-0_計極細
  6
CONTINUOUS
 62
    2
 10
1337.1290298067797
 20
621.2040300976729
 11
1354.9043173546895
 21
638.97931764558223
  0
LINE
  8
_0-0_計極細
  6
CONTINUOUS
 62
    2
 10
1294.7026229355868
 20
621.2040300976729
 11
1310.4475831124541
 21
636.94899027453994
  0
LINE
  8
_0-0_計極細
  6
CONTINUOUS
 62
    2
 10
1336.3976690451429
 20
662.89907620722897
 11
1351.447583004724
 21
677.94899016681006
  0
LINE
  8
_0-0_計極細
  6
CONTINUOUS
 62
    2
 10
1332.8863891196604
 20
621.2040300976729
 11
1354.9043173522421
 21
643.22195833025467
  0
LINE
  8
_0-0_計極細
  6
CONTINUOUS
 62
    2
 10
1290.4599822484672
 20
621.2040300976729
 11
1306.2049424253348
 21
636.94899027453994
  0
LINE
  8
_0-0_計極細
  6
CONTINUOUS
 62
    2
 10
1336.3976690451429
 20
667.14171689434852
 11
1347.2049423479746
 21
677.94899019717957
  0
CIRCLE
  8
_0-0_計極細
  6
CONTINUOUS
 62
    2
 10
1278.2411460565659
 20
672.26159208009199
 40
0.3318518518518431
  0
CIRCLE
  8
_0-0_計極細
  6
CONTINUOUS
 62
    2
 10
1284.2144793898988
 20
675.14159208009164
 40
0.3318518518518431
  0
CIRCLE
  8
_0-0_計極細
  6
CONTINUOUS
 62
    2
 10
1281.7611460565658
 20
660.15492541342542
 40
0.3318518518518431
  0
CIRCLE
  8
_0-0_計極細
  6
CONTINUOUS
 62
    2
 10
1292.2811460565654
 20
649.94159208009194
 40
0.3318518518518431
  0
CIRCLE
  8
_0-0_計極細
  6
CONTINUOUS
 62
    2
 10
1281.5811460565656
 20
635.96159208009215
 40
0.3318518518518431
  0
CIRCLE
  8
_0-0_計極細
  6
CONTINUOUS
 62
    2
 10
1275.9811460565656
 20
625.24159208009235
 40
0.3318518518518431
  0
CIRCLE
  8
_0-0_計極細
  6
CONTINUOUS
 62
    2
 10
1282.8611460565658
 20
643.16159208009208
 40
0.3318518518518431
  0
CIRCLE
  8
_0-0_計極細
  6
CONTINUOUS
 62
    2
 10
1291.1811460565652
 20
640.28159208009197
 40
0.3318518518518431
  0
CIRCLE
  8
_0-0_計極細
  6
CONTINUOUS
 62
    2
 10
1307.3411460565658
 20
640.44159208009216
 40
0.3318518518518431
  0
CIRCLE
  8
_0-0_計極細
  6
CONTINUOUS
 62
    2
 10
1300.1411460565655
 20
645.8815920800921
 40
0.3318518518518431
  0
CIRCLE
  8
_0-0_計極細
  6
CONTINUOUS
 62
    2
 10
1306.8611460565658
 20
649.241592080092
 40
0.3318518518518431
  0
CIRCLE
  8
_0-0_計極細
  6
CONTINUOUS
 62
    2
 10
1301.1678127232321
 20
693.65492541342496
 40
0.3318518518518431
  0
CIRCLE
  8
_0-0_計極細
  6
CONTINUOUS
 62
    2
 10
1299.6744793898986
 20
681.81492541342493
 40
0.3318518518518431
  0
CIRCLE
  8
_0-0_計極細
  6
CONTINUOUS
 62
    2
 10
1311.9944793898985
 20
681.3882587467582
 40
0.3318518518518431
  0
CIRCLE
  8
_0-0_計極細
  6
CONTINUOUS
 62
    2
 10
1305.0344793898987
 20
672.98825874675856
 40
0.3318518518518431
  0
CIRCLE
  8
_0-0_計極細
  6
CONTINUOUS
 62
    2
 10
1328.5544793898985
 20
641.06825874675883
 40
0.3318518518518431
  0
CIRCLE
  8
_0-0_計極細
  6
CONTINUOUS
 62
    2
 10
1332.8744793898986
 20
649.46825874675869
 40
0.3318518518518431
  0
CIRCLE
  8
_0-0_計極細
  6
CONTINUOUS
 62
    2
 10
1331.9144793898981
 20
661.9482587467586
 40
0.3318518518518431
  0
CIRCLE
  8
_0-0_計極細
  6
CONTINUOUS
 62
    2
 10
1321.1144793898984
 20
674.66825874675851
 40
0.3318518518518431
  0
CIRCLE
  8
_0-0_計極細
  6
CONTINUOUS
 62
    2
 10
1331.1944793898986
 20
686.42825874675839
 40
0.3318518518518431
  0
CIRCLE
  8
_0-0_計極細
  6
CONTINUOUS
 62
    2
 10
1329.5144793898985
 20
670.3482587467588
 40
0.3318518518518431
  0
CIRCLE
  8
_0-0_計極細
  6
CONTINUOUS
 62
    2
 10
1347.274479389898
 20
683.06825874675815
 40
0.3318518518518431
  0
CIRCLE
  8
_0-0_計極細
  6
CONTINUOUS
 62
    2
 10
1344.3944793898979
 20
691.33029578379535
 40
1.0953188836088352
  0
CIRCLE
  8
_0-0_計極細
  6
CONTINUOUS
 62
    2
 10
1335.0078127232312
 20
682.05029578379572
 40
1.0953188836088352
  0
CIRCLE
  8
_0-0_計極細
  6
CONTINUOUS
 62
    2
 10
1301.7544793898983
 20
685.99696245046221
 40
1.0953188836088352
  0
CIRCLE
  8
_0-0_計極細
  6
CONTINUOUS
 62
    2
 10
1320.9544793898986
 20
666.79696245046216
 40
1.0953188836088352
  0
CIRCLE
  8
_0-0_計極細
  6
CONTINUOUS
 62
    2
 10
1278.7178127232323
 20
640.0669624504626
 40
1.0953188836088352
  0
CIRCLE
  8
_0-0_計極細
  6
CONTINUOUS
 62
    2
 10
1284.8511460565655
 20
657.98696245046256
 40
1.0953188836088352
  0
CIRCLE
  8
_0-0_計極細
  6
CONTINUOUS
 62
    2
 10
1305.9711460565652
 20
644.54696245046262
 40
1.0953188836088352
  0
CIRCLE
  8
_0-0_計極細
  6
CONTINUOUS
 62
    2
 10
1333.7302616377358
 20
638.43473101528082
 40
1.0953188836088352
  0
CIRCLE
  8
_0-0_計極細
  6
CONTINUOUS
 62
    2
 10
1303.3311460565653
 20
670.46696245046235
 40
1.0953188836088352
  0
CIRCLE
  8
_0-0_計極細
  6
CONTINUOUS
 62
    2
 10
1274.8515164269359
 20
667.21303920624052
 40
0.3318518518518431
  0
CIRCLE
  8
_0-0_計極細
  6
CONTINUOUS
 62
    2
 10
1274.9715164269364
 20
652.83970587290742
 40
0.3318518518518431
  0
CIRCLE
  8
_0-0_計極細
  6
CONTINUOUS
 62
    2
 10
1339.5944793898982
 20
696.10825874675857
 40
0.3318518518518431
  0
CIRCLE
  8
_0-0_計極細
  6
CONTINUOUS
 62
    2
 10
1321.1144793898984
 20
693.06825874675826
 40
0.3318518518518431
  0
CIRCLE
  8
_0-0_計極細
  6
CONTINUOUS
 62
    2
 10
1321.1944793898986
 20
689.27696245046195
 40
1.0953188836088352
  0
CIRCLE
  8
_0-0_計極細
  6
CONTINUOUS
 62
    2
 10
1308.3944793898988
 20
696.6682587467584
 40
0.3318518518518431
  0
LINE
  8
_0-0_計極細
  6
CONTINUOUS
 62
    2
 10
1266.8976690451427
 20
681.94899027453982
 11
1266.3976690451429
 21
681.94899027453982
  0
LINE
  8
_0-0_計極細
  6
CONTINUOUS
 62
    2
 10
1266.3976690451429
 20
681.94899027453982
 11
1266.3976690451429
 21
621.2040300976729
  0
CIRCLE
  8
_0-0_計極細
  6
CONTINUOUS
 62
    2
 10
1269.988306550393
 20
657.91492541342518
 40
0.3318518518518431
  0
CIRCLE
  8
_0-0_計極細
  6
CONTINUOUS
 62
    2
 10
1270.7722571676768
 20
634.36159208009235
 40
0.3318518518518431
  0
CIRCLE
  8
_0-0_計極細
  6
CONTINUOUS
 62
    2
 10
1270.3889238343431
 20
673.93362911712916
 40
1.0953188836088352
  0
CIRCLE
  8
_0-0_計極細
  6
CONTINUOUS
 62
    2
 10
1272.1578127232317
 20
630.36029578379589
 40
1.0953188836088352
  0
LINE
  8
_0-0_計極細
  6
CONTINUOUS
 62
    2
 10
1301.3976690451432
 20
704.94899027454028
 11
1301.3976690451432
 21
697.94899027454039
  0
LINE
  8
_0-0_計極細
  6
CONTINUOUS
 62
    2
 10
1301.3976690451432
 20
704.94899027454028
 11
1354.9043173322118
 21
704.94899027454028
  0
LINE
  8
_0-0_計極細
  6
CONTINUOUS
 62
    2
 10
1296.3976690451429
 20
697.94899027454039
 11
1354.9043173322118
 21
697.94899027454039
  0
LINE
  8
_0-0_計極細
  6
CONTINUOUS
 62
    2
 10
1296.3976690451429
 20
704.94899027454028
 11
1301.3976690451432
 21
704.94899027454028
  0
LINE
  8
_0-0_計極細
  6
CONTINUOUS
 62
    2
 10
1296.3976690451429
 20
704.44899027453982
 11
1296.3976690451429
 21
704.94899027454028
  0
LINE
  8
_0-0_計極細
  6
CONTINUOUS
 62
    2
 10
1301.3976690451432
 20
700.15044204297487
 11
1299.1962172767082
 21
697.94899027454039
  0
LINE
  8
_0-0_計極細
  6
CONTINUOUS
 62
    2
 10
1301.3976690451432
 20
702.69602645524617
 11
1296.6506328644366
 21
697.94899027454039
  0
LINE
  8
_0-0_計極細
  6
CONTINUOUS
 62
    2
 10
1296.3976690451429
 20
700.24161086751815
 11
1301.1050484521652
 21
704.94899027454028
  0
LINE
  8
_0-0_計極細
  6
CONTINUOUS
 62
    2
 10
1296.3976690451429
 20
702.78719527978967
 11
1298.5594640398936
 21
704.94899027454017
  0
LINE
  8
_0-0_計極細
  6
CONTINUOUS
 62
    2
 10
1301.3976690451432
 20
704.0433969488372
 11
1300.4920757194398
 21
704.94899027454028
  0
LINE
  8
_0-0_計極細
  6
CONTINUOUS
 62
    2
 10
1301.3976690451432
 20
701.49781253656533
 11
1297.9464913071683
 21
704.94899027454028
  0
LINE
  8
_0-0_計極細
  6
CONTINUOUS
 62
    2
 10
1301.3976690451432
 20
698.9522281242937
 11
1296.3976690451429
 21
703.95222812429381
  0
LINE
  8
_0-0_計極細
  6
CONTINUOUS
 62
    2
 10
1299.8553224826251
 20
697.94899027454039
 11
1296.3976690451429
 21
701.40664371202217
  0
LINE
  8
_0-0_計極細
  6
CONTINUOUS
 62
    2
 10
1297.3097380703539
 20
697.94899027454039
 11
1296.3976690451429
 21
698.86105929975031
  0
LINE
  8
_0-0_計極細
  6
CONTINUOUS
 62
    2
 10
1342.4711522853252
 20
697.94899027454039
 11
1349.4711519092516
 21
704.94898989846706
  0
LINE
  8
_0-0_計極細
  6
CONTINUOUS
 62
    2
 10
1329.743230223967
 20
697.94899027454039
 11
1336.7432299474629
 21
704.9489899980357
  0
LINE
  8
_0-0_計極細
  6
CONTINUOUS
 62
    2
 10
1317.0153081626095
 20
697.94899027454039
 11
1324.0153079856739
 21
704.94899009760491
  0
LINE
  8
_0-0_計極細
  6
CONTINUOUS
 62
    2
 10
1304.2873861012515
 20
697.94899027454039
 11
1311.2873860238856
 21
704.94899019717411
  0
LINE
  8
_0-0_計極細
  6
DASHED2
 62
    2
 10
1348.835113316004
 20
697.94899027454039
 11
1354.9043173322118
 21
704.01819429074806
  0
LINE
  8
_0-0_計極細
  6
DASHED2
 62
    2
 10
1336.1071912546461
 20
697.94899027454039
 11
1343.1071909283571
 21
704.94898994825132
  0
LINE
  8
_0-0_計極細
  6
DASHED2
 62
    2
 10
1323.3792691932881
 20
697.94899027454039
 11
1330.3792689665688
 21
704.94899004782019
  0
LINE
  8
_0-0_計極細
  6
DASHED2
 62
    2
 10
1310.6513471319304
 20
697.94899027454039
 11
1317.6513470047794
 21
704.9489901473894
  0
LINE
  8
_0-0_計極細
  6
DASHED2
 62
    2
 10
1301.3976690451432
 20
701.42323424911081
 11
1304.9234250429911
 21
704.9489902469586
  0
LINE
  8
_0-0_計極細
  6
CONTINUOUS
 62
    2
 10
1322.5817099774345
 20
651.87801097204203
 11
1325.6598912673655
 21
660.33524455911538
  0
LINE
  8
_0-0_計極細
  6
CONTINUOUS
 62
    2
 10
1292.5852843731564
 20
672.37341697866304
 11
1289.507103083226
 21
663.9161833915897
  0
LINE
  8
_0-0_計極細
  6
CONTINUOUS
 62
    2
 10
1325.6598912673655
 20
660.33524455911538
 11
1292.5852843731564
 21
672.37341697866304
  0
LINE
  8
_0-0_計極細
  6
CONTINUOUS
 62
    2
 10
1322.5817099774345
 20
651.87801097204203
 11
1289.507103083226
 21
663.9161833915897
  0
LINE
  8
_0-0_計極細
  6
CENTER1
 62
    2
 10
1327.0940606575957
 20
655.02444974156094
 11
1288.6754483680559
 21
669.00768103258179
  0
LINE
  8
_0-0_計極細
  6
CONTINUOUS
 62
    2
 10
1311.3976690451432
 20
636.94899027453994
 11
1311.3976690451432
 21
663.40032708352953
  0
LINE
  8
_0-0_計極細
  6
CONTINUOUS
 62
    2
 10
1320.3976690451436
 20
663.40032708352953
 11
1320.3976690451436
 21
636.94899027453994
  0
LINE
  8
_0-0_計極細
  6
CENTER1
 62
    2
 10
1315.8976690451434
 20
631.98294610386813
 11
1315.8976690451434
 21
665.96575918229519
  0
LINE
  8
_0-0_計極細
  6
CONTINUOUS
 62
    2
 10
1311.3976690451432
 20
663.40032708352953
 11
1320.3976690451436
 21
663.40032708352953
  0
CIRCLE
  8
_0-0_計極細
  6
CONTINUOUS
 62
    2
 10
1324.5544793898987
 20
666.70085133935095
 40
0.3318518518518431
  0
CIRCLE
  8
_0-0_計極細
  6
CONTINUOUS
 62
    2
 10
1312.7944793898987
 20
670.06085133935119
 40
0.3318518518518431
  0
LINE
  8
_0-0_計極細
  6
CONTINUOUS
 62
    2
 10
896.39766904514272
 20
677.94899027454039
 11
896.39766904514272
 21
636.94899027453994
  0
LINE
  8
_0-0_計極細
  6
CONTINUOUS
 62
    2
 10
946.39766904514318
 20
636.94899027453994
 11
896.39766904514272
 21
636.94899027453994
  0
LINE
  8
_0-0_計極細
  6
CONTINUOUS
 62
    2
 10
896.39766904514272
 20
677.94899027454039
 11
877.89102075807386
 21
677.94899027454039
  0
LINE
  8
_0-0_計極細
  6
CONTINUOUS
 62
    2
 10
946.39766904514318
 20
636.94899027453994
 11
946.39766904514318
 21
621.2040300976729
  0
LINE
  8
_0-0_計極細
  6
CONTINUOUS
 62
    2
 10
923.94448430614932
 20
621.2040301675346
 11
939.689444413155
 21
636.94899027453994
  0
LINE
  8
_0-0_計極細
  6
CONTINUOUS
 62
    2
 10
881.51807756696428
 20
621.20403029954275
 11
897.26303754196181
 21
636.94899027453994
  0
LINE
  8
_0-0_計極細
  6
CONTINUOUS
 62
    2
 10
877.89102075807386
 20
660.0033803618453
 11
895.83663067076895
 21
677.94899027454039
  0
LINE
  8
_0-0_計極細
  6
CONTINUOUS
 62
    2
 10
919.70184363223052
 20
621.20403018073557
 11
935.44680372603489
 21
636.94899027453994
  0
LINE
  8
_0-0_計極細
  6
CONTINUOUS
 62
    2
 10
877.89102075807386
 20
621.81961417777177
 11
896.39766904514272
 21
640.32626246484074
  0
LINE
  8
_0-0_計極細
  6
CONTINUOUS
 62
    2
 10
877.89102075807386
 20
664.24602104896485
 11
891.59398998364952
 21
677.94899027454039
  0
LINE
  8
_0-0_計極細
  6
CONTINUOUS
 62
    2
 10
915.4592029583124
 20
621.20403019393655
 11
931.20416303891591
 21
636.94899027453994
  0
LINE
  8
_0-0_計極細
  6
CONTINUOUS
 62
    2
 10
877.89102075807386
 20
626.06225486489143
 11
896.39766904514272
 21
644.56890315195994
  0
LINE
  8
_0-0_計極細
  6
CONTINUOUS
 62
    2
 10
877.89102075807386
 20
668.48866173608417
 11
887.35134929653009
 21
677.94899027454039
  0
CIRCLE
  8
_0-0_計極細
  6
CONTINUOUS
 62
    2
 10
888.62855346397419
 20
687.07103652453623
 40
0.3318518518518431
  0
CIRCLE
  8
_0-0_計極細
  6
CONTINUOUS
 62
    2
 10
882.43003494545633
 20
681.09770319120287
 40
0.3318518518518431
  0
CIRCLE
  8
_0-0_計極細
  6
CONTINUOUS
 62
    2
 10
888.79447938990052
 20
681.73770319120285
 40
0.3318518518518431
  0
CIRCLE
  8
_0-0_計極細
  6
CONTINUOUS
 62
    2
 10
896.3678127232339
 20
682.91103652453614
 40
0.3318518518518431
  0
CIRCLE
  8
_0-0_計極細
  6
CONTINUOUS
 62
    2
 10
913.43447938990039
 20
689.95103652453633
 40
0.3318518518518431
  0
CIRCLE
  8
_0-0_計極細
  6
CONTINUOUS
 62
    2
 10
928.36781272323333
 20
695.92436985786946
 40
0.3318518518518431
  0
CIRCLE
  8
_0-0_計極細
  6
CONTINUOUS
 62
    2
 10
931.78114605656674
 20
686.21770319120276
 40
0.3318518518518431
  0
CIRCLE
  8
_0-0_計極細
  6
CONTINUOUS
 62
    2
 10
916.84781272323391
 20
685.89770319120294
 40
0.3318518518518431
  0
CIRCLE
  8
_0-0_計極細
  6
CONTINUOUS
 62
    2
 10
909.80781272323384
 20
694.85770319120263
 40
0.3318518518518431
  0
CIRCLE
  8
_0-0_計極細
  6
CONTINUOUS
 62
    2
 10
900.53447938990075
 20
678.55770319120302
 40
0.3318518518518431
  0
CIRCLE
  8
_0-0_計極細
  6
CONTINUOUS
 62
    2
 10
912.80114605656706
 20
677.81103652453612
 40
0.3318518518518431
  0
CIRCLE
  8
_0-0_計極細
  6
CONTINUOUS
 62
    2
 10
927.84114605656691
 20
675.57103652453623
 40
0.3318518518518431
  0
CIRCLE
  8
_0-0_計極細
  6
CONTINUOUS
 62
    2
 10
920.26781272323342
 20
672.15770319120281
 40
0.3318518518518431
  0
CIRCLE
  8
_0-0_計極細
  6
CONTINUOUS
 62
    2
 10
911.41447938990041
 20
664.05103652453636
 40
0.3318518518518431
  0
CIRCLE
  8
_0-0_計極細
  6
CONTINUOUS
 62
    2
 10
927.84114605656691
 20
668.42436985786981
 40
0.3318518518518431
  0
CIRCLE
  8
_0-0_計極細
  6
CONTINUOUS
 62
    2
 10
903.17447938990028
 20
652.15770319120315
 40
0.3318518518518431
  0
CIRCLE
  8
_0-0_計極細
  6
CONTINUOUS
 62
    2
 10
899.76114605656676
 20
641.38436985786984
 40
0.3318518518518431
  0
CIRCLE
  8
_0-0_計極細
  6
CONTINUOUS
 62
    2
 10
904.98781272323367
 20
645.43770319120313
 40
0.3318518518518431
  0
CIRCLE
  8
_0-0_計極細
  6
CONTINUOUS
 62
    2
 10
908.72114605656691
 20
640.31770319120312
 40
0.3318518518518431
  0
CIRCLE
  8
_0-0_計極細
  6
CONTINUOUS
 62
    2
 10
932.30114605656695
 20
651.05103652453636
 40
0.3318518518518431
  0
CIRCLE
  8
_0-0_計極細
  6
CONTINUOUS
 62
    2
 10
925.58114605656692
 20
647.74436985786974
 40
0.3318518518518431
  0
CIRCLE
  8
_0-0_計極細
  6
CONTINUOUS
 62
    2
 10
929.31447938990061
 20
646.25103652453629
 40
0.3318518518518431
  0
CIRCLE
  8
_0-0_計極細
  6
CONTINUOUS
 62
    2
 10
927.18114605656694
 20
640.70436985786966
 40
0.3318518518518431
  0
CIRCLE
  8
_0-0_計極細
  6
CONTINUOUS
 62
    2
 10
939.12781272323355
 20
641.34436985786988
 40
0.3318518518518431
  0
CIRCLE
  8
_0-0_計極細
  6
CONTINUOUS
 62
    2
 10
946.91447938990018
 20
643.26436985786972
 40
0.3318518518518431
  0
CIRCLE
  8
_0-0_計極細
  6
CONTINUOUS
 62
    2
 10
955.12781272323309
 20
634.30436985787003
 40
0.3318518518518431
  0
CIRCLE
  8
_0-0_計極細
  6
CONTINUOUS
 62
    2
 10
950.96781272323324
 20
625.34436985786999
 40
0.3318518518518431
  0
CIRCLE
  8
_0-0_計極細
  6
CONTINUOUS
 62
    2
 10
940.96781272323369
 20
651.51325874675865
 40
0.3318518518518431
  0
CIRCLE
  8
_0-0_計極細
  6
CONTINUOUS
 62
    2
 10
949.8211460565667
 20
671.99325874675822
 40
0.3318518518518431
  0
CIRCLE
  8
_0-0_計極細
  6
CONTINUOUS
 62
    2
 10
958.88781272323308
 20
666.01992541342509
 40
0.3318518518518431
  0
CIRCLE
  8
_0-0_計極細
  6
CONTINUOUS
 62
    2
 10
959.20781272323313
 20
655.246592080092
 40
0.3318518518518431
  0
CIRCLE
  8
_0-0_計極細
  6
CONTINUOUS
 62
    2
 10
938.06114605656705
 20
673.08659208009192
 40
0.3318518518518431
  0
CIRCLE
  8
_0-0_計極細
  6
CONTINUOUS
 62
    2
 10
925.88781272323388
 20
686.27696245046207
 40
1.0953188836088352
  0
CIRCLE
  8
_0-0_計極細
  6
CONTINUOUS
 62
    2
 10
894.8305409023726
 20
690.4347310152807
 40
1.0953188836088352
  0
CIRCLE
  8
_0-0_計極細
  6
CONTINUOUS
 62
    2
 10
924.19447938990015
 20
666.51696245046253
 40
1.0953188836088352
  0
CIRCLE
  8
_0-0_計極細
  6
CONTINUOUS
 62
    2
 10
910.7544793899001
 20
672.59696245046234
 40
1.0953188836088352
  0
CIRCLE
  8
_0-0_計極細
  6
CONTINUOUS
 62
    2
 10
898.99447938990033
 20
649.79696245046227
 40
1.0953188836088352
  0
CIRCLE
  8
_0-0_計極細
  6
CONTINUOUS
 62
    2
 10
930.91447938989995
 20
642.11696245046244
 40
1.0953188836088352
  0
CIRCLE
  8
_0-0_計極細
  6
CONTINUOUS
 62
    2
 10
952.50114605656631
 20
639.95696245046258
 40
1.0953188836088352
  0
CIRCLE
  8
_0-0_計極細
  6
CONTINUOUS
 62
    2
 10
955.38114605656631
 20
628.75696245046288
 40
1.0953188836088352
  0
CIRCLE
  8
_0-0_計極細
  6
CONTINUOUS
 62
    2
 10
882.71229317772497
 20
690.97029578379545
 40
1.0953188836088352
  0
LINE
  8
_0-0_計極細
  6
CONTINUOUS
 62
    2
 10
965.89766904514306
 20
681.94899027453982
 11
966.39766904514306
 21
681.94899027453982
  0
LINE
  8
_0-0_計極細
  6
CONTINUOUS
 62
    2
 10
966.39766904514306
 20
681.94899027453982
 11
966.39766904514306
 21
621.2040300976729
  0
CIRCLE
  8
_0-0_計極細
  6
CONTINUOUS
 62
    2
 10
962.26520855656588
 20
672.35696245046245
 40
1.0953188836088352
  0
CIRCLE
  8
_0-0_計極細
  6
CONTINUOUS
 62
    2
 10
961.6700349454552
 20
639.53103652453649
 40
0.3318518518518431
  0
CIRCLE
  8
_0-0_計極細
  6
CONTINUOUS
 62
    2
 10
962.47003494545595
 20
625.93739390463475
 40
0.3318518518518431
  0
CIRCLE
  8
_0-0_計極細
  6
CONTINUOUS
 62
    2
 10
955.04781272323044
 20
660.89029578379586
 40
1.0953188836088352
  0
LINE
  8
_0-0_計極細
  6
CONTINUOUS
 62
    2
 10
931.39766904514318
 20
704.94899027454028
 11
931.39766904514318
 21
697.94899027454039
  0
LINE
  8
_0-0_計極細
  6
CONTINUOUS
 62
    2
 10
931.39766904514318
 20
704.94899027454028
 11
877.89102075807386
 21
704.94899027454028
  0
LINE
  8
_0-0_計極細
  6
CONTINUOUS
 62
    2
 10
936.39766904514318
 20
697.94899027454039
 11
877.89102075807386
 21
697.94899027454039
  0
LINE
  8
_0-0_計極細
  6
CONTINUOUS
 62
    2
 10
936.39766904514318
 20
704.94899027454028
 11
931.39766904514318
 21
704.94899027454028
  0
LINE
  8
_0-0_計極細
  6
CONTINUOUS
 62
    2
 10
936.39766904514318
 20
704.44899027453982
 11
936.39766904514318
 21
704.94899027454028
  0
LINE
  8
_0-0_計極細
  6
CONTINUOUS
 62
    2
 10
936.27881489132722
 20
697.94899027454039
 11
936.39766904514272
 21
698.06784442835567
  0
LINE
  8
_0-0_計極細
  6
CONTINUOUS
 62
    2
 10
933.73323047905569
 20
697.94899027454039
 11
936.39766904514318
 21
700.61342884062708
  0
LINE
  8
_0-0_計極細
  6
CONTINUOUS
 62
    2
 10
931.39766904514318
 20
698.15901325289872
 11
936.39766904514318
 21
703.15901325289872
  0
LINE
  8
_0-0_計極細
  6
CONTINUOUS
 62
    2
 10
931.39766904514318
 20
700.70459766517058
 11
935.64206165451253
 21
704.94899027454028
  0
LINE
  8
_0-0_計極細
  6
CONTINUOUS
 62
    2
 10
931.39766904514318
 20
703.2501820774421
 11
933.09647724224135
 21
704.94899027454028
  0
LINE
  8
_0-0_計極細
  6
CONTINUOUS
 62
    2
 10
936.39766904514318
 20
703.58041015118499
 11
935.02908892178823
 21
704.94899027454028
  0
LINE
  8
_0-0_計極細
  6
CONTINUOUS
 62
    2
 10
936.39766904514318
 20
701.03482573891347
 11
932.48350450951648
 21
704.94899027454028
  0
LINE
  8
_0-0_計極細
  6
CONTINUOUS
 62
    2
 10
931.39766904514318
 20
703.48924132664183
 11
936.39766904514318
 21
698.48924132664183
  0
LINE
  8
_0-0_計極細
  6
CONTINUOUS
 62
    2
 10
931.39766904514318
 20
700.94365691437031
 11
934.39233568497286
 21
697.94899027454039
  0
LINE
  8
_0-0_計極細
  6
CONTINUOUS
 62
    2
 10
931.39766904514318
 20
698.3980725020989
 11
931.84675127270134
 21
697.94899027454039
  0
LINE
  8
_0-0_計極細
  6
CONTINUOUS
 62
    2
 10
926.09647723856438
 20
697.94899027086387
 11
931.39766904514318
 21
703.2501820774421
  0
LINE
  8
_0-0_計極細
  6
CONTINUOUS
 62
    2
 10
913.36855516837988
 20
697.94899026203723
 11
920.36855518088316
 21
704.94899027454017
  0
LINE
  8
_0-0_計極細
  6
CONTINUOUS
 62
    2
 10
900.64063309819539
 20
697.94899025321047
 11
907.64063311952543
 21
704.94899027454028
  0
LINE
  8
_0-0_計極細
  6
CONTINUOUS
 62
    2
 10
887.91271102801056
 20
697.94899024438325
 11
894.91271105816725
 21
704.94899027454028
  0
LINE
  8
_0-0_計極細
  6
CONTINUOUS
 62
    2
 10
877.89102075807386
 20
700.65522203580474
 11
882.18478899680974
 21
704.94899027454017
  0
LINE
  8
_0-0_計極細
  6
DASHED2
 62
    2
 10
919.73251620347241
 20
697.94899026645044
 11
926.73251621156226
 21
704.94899027454028
  0
LINE
  8
_0-0_計極細
  6
DASHED2
 62
    2
 10
907.00459413328747
 20
697.94899025762379
 11
914.00459415020418
 21
704.94899027454028
  0
LINE
  8
_0-0_計極細
  6
DASHED2
 62
    2
 10
894.27667206310332
 20
697.94899024879714
 11
901.27667208884634
 21
704.94899027454028
  0
LINE
  8
_0-0_計極細
  6
DASHED2
 62
    2
 10
881.5487499929186
 20
697.9489902399705
 11
888.5487500274885
 21
704.94899027454028
  0
CIRCLE
  8
_0-0_計極細
  6
CONTINUOUS
 62
    2
 10
918.5055905010114
 20
693.18362911712813
 40
1.0953188836088352
  0
LINE
  8
_0-0_計極細
  6
CONTINUOUS
 62
    2
 10
910.21362811285201
 20
651.87801097204203
 11
907.13544682292081
 21
660.33524455911538
  0
LINE
  8
_0-0_計極細
  6
CONTINUOUS
 62
    2
 10
940.21005371712954
 20
672.37341697866304
 11
943.28823500706051
 21
663.9161833915897
  0
LINE
  8
_0-0_計極細
  6
CONTINUOUS
 62
    2
 10
907.13544682292081
 20
660.33524455911538
 11
940.21005371712954
 21
672.37341697866304
  0
LINE
  8
_0-0_計極細
  6
CONTINUOUS
 62
    2
 10
910.21362811285201
 20
651.87801097204203
 11
943.28823500706051
 21
663.9161833915897
  0
LINE
  8
_0-0_計極細
  6
CENTER1
 62
    2
 10
905.70127743269097
 20
655.02444974156094
 11
944.11988972223014
 21
669.00768103258179
  0
LINE
  8
_0-0_計極細
  6
CONTINUOUS
 62
    2
 10
921.39766904514318
 20
636.94899027453994
 11
921.39766904514318
 21
663.40032708352953
  0
LINE
  8
_0-0_計極細
  6
CONTINUOUS
 62
    2
 10
921.39766904514318
 20
663.40032708352953
 11
912.39766904514329
 21
663.40032708352953
  0
LINE
  8
_0-0_計極細
  6
CONTINUOUS
 62
    2
 10
912.39766904514329
 20
663.40032708352953
 11
912.39766904514329
 21
636.94899027453994
  0
LINE
  8
_0-0_計極細
  6
CENTER1
 62
    2
 10
916.89766904514329
 20
631.98294610386813
 11
916.89766904514329
 21
665.96575918229519
  0
LINE
  8
_0-0_計極細
  6
CENTER1
 62
    2
 10
1116.3976690451429
 20
675.23749258327052
 11
1116.3976690451429
 21
713.3074925832741
  0
LINE
  8
_0-0_計極細
  6
CENTER1
 62
    2
 10
1298.7115079225989
 20
693.74877127353318
 11
933.38619928062428
 21
693.74877127353318
  0
LINE
  8
_0-1_計細線
  6
CONTINUOUS
 62
    3
 10
1127.2476690458761
 20
687.24877127353341
 11
1131.6976690456945
 21
687.24877127353341
  0
LINE
  8
_0-1_計細線
  6
CONTINUOUS
 62
    3
 10
1118.0976690452965
 20
687.24877127353341
 11
1122.5476690458756
 21
687.24877127353341
  0
LINE
  8
_0-1_計細線
  6
CONTINUOUS
 62
    3
 10
1118.0976690462614
 20
700.24877127353318
 11
1122.5476690458756
 21
700.24877127353318
  0
LINE
  8
_0-1_計細線
  6
CONTINUOUS
 62
    3
 10
1127.2476690458761
 20
700.24877127353318
 11
1131.697669045695
 21
700.24877127353318
  0
LINE
  8
_0-1_計細線
  6
CONTINUOUS
 62
    3
 10
1127.2476690458761
 20
705.14901253334062
 11
1127.2476690458761
 21
685.14901253334051
  0
LINE
  8
_0-1_計細線
  6
CONTINUOUS
 62
    3
 10
1122.5476690458756
 20
685.14901253334051
 11
1122.5476690458756
 21
705.14901253334062
  0
LINE
  8
_0-1_計細線
  6
CONTINUOUS
 62
    3
 10
1127.2476690458761
 20
685.14901253334051
 11
1122.5476690458756
 21
685.14901253334051
  0
LINE
  8
_0-1_計細線
  6
CONTINUOUS
 62
    3
 10
1122.5476690458756
 20
705.14901253334062
 11
1127.2476690458761
 21
705.14901253334062
  0
LINE
  8
_0-1_計細線
  6
DASHED2
 62
    3
 10
1122.5476690458756
 20
688.1490125333404
 11
1127.2476690458761
 21
688.1490125333404
  0
LINE
  8
_0-1_計細線
  6
DASHED2
 62
    3
 10
1122.5476690458756
 20
702.14901253334062
 11
1127.2476690458761
 21
702.14901253334062
  0
ARC
  8
_0-1_計細線
  6
CONTINUOUS
 62
    3
 10
1111.6976690462463
 20
702.94877127353334
 40
1.0000000000000004
 50
89.999999999999915
 51
179.99999999999983
  0
ARC
  8
_0-1_計細線
  6
CONTINUOUS
 62
    3
 10
1112.1656182375741
 20
704.94877127353311
 40
1.0000000000000004
 50
269.99999999999977
 51
330.00000000002012
  0
ARC
  8
_0-1_計細線
  6
CONTINUOUS
 62
    3
 10
1113.8976690451432
 20
703.94877127353334
 40
1.0000000000000004
 50
89.999999999999915
 51
150.00000000000185
  0
LINE
  8
_0-1_計細線
  6
CONTINUOUS
 62
    3
 10
1111.6976690462463
 20
703.94877127353334
 11
1112.1656182375741
 21
703.94877127353334
  0
ARC
  8
_0-1_計細線
  6
CONTINUOUS
 62
    3
 10
1121.0976690440398
 20
702.94877127353334
 40
1.0000000000000004
 50
0
 51
89.999999999999915
  0
ARC
  8
_0-1_計細線
  6
CONTINUOUS
 62
    3
 10
1120.629719852712
 20
704.94877127353311
 40
1.0000000000000004
 50
209.99999999998565
 51
269.99999999999977
  0
ARC
  8
_0-1_計細線
  6
CONTINUOUS
 62
    3
 10
1118.8976690451429
 20
703.94877127353334
 40
1.0000000000000004
 50
29.999999999991644
 51
89.999999999999915
  0
LINE
  8
_0-1_計細線
  6
CONTINUOUS
 62
    3
 10
1121.0976690440398
 20
703.94877127353334
 11
1120.629719852712
 21
703.94877127353334
  0
ARC
  8
_0-1_計細線
  6
CONTINUOUS
 62
    3
 10
1111.1976690462466
 20
701.54877127353348
 40
0.5000000000000002
 50
179.99999999999983
 51
269.99999999999977
  0
LINE
  8
_0-1_計細線
  6
CONTINUOUS
 62
    3
 10
1110.6976690462466
 20
702.94877127353334
 11
1110.6976690462466
 21
701.54877127353348
  0
ARC
  8
_0-1_計細線
  6
CONTINUOUS
 62
    3
 10
1121.5976690440398
 20
701.54877127353348
 40
0.5000000000000002
 50
269.99999999999977
 51
359.99999999999966
  0
LINE
  8
_0-1_計細線
  6
CONTINUOUS
 62
    3
 10
1122.0976690440395
 20
702.94877127353334
 11
1122.0976690440395
 21
701.54877127353348
  0
ARC
  8
_0-1_計細線
  6
CONTINUOUS
 62
    3
 10
1113.6976690462466
 20
700.04877127353348
 40
1.0000000000000004
 50
0
 51
89.999999999999915
  0
LINE
  8
_0-1_計細線
  6
CONTINUOUS
 62
    3
 10
1113.6976690462466
 20
701.04877127353325
 11
1111.1976690462466
 21
701.04877127353325
  0
ARC
  8
_0-1_計細線
  6
CONTINUOUS
 62
    3
 10
1119.0976690462469
 20
700.04877127353348
 40
1.0000000000000004
 50
89.999999999999915
 51
179.99999999999983
  0
LINE
  8
_0-1_計細線
  6
CONTINUOUS
 62
    3
 10
1119.0976690440391
 20
701.04877127353325
 11
1121.5976690440398
 21
701.04877127353325
  0
LINE
  8
_0-1_計細線
  6
CONTINUOUS
 62
    3
 10
1118.8976690451429
 20
704.94877127353311
 11
1113.8976690451432
 21
704.94877127353311
  0
LINE
  8
_0-1_計細線
  6
CONTINUOUS
 62
    3
 10
1114.6976690451431
 20
684.94877127353323
 11
1114.6976690462463
 21
700.04877127353348
  0
LINE
  8
_0-1_計細線
  6
CONTINUOUS
 62
    3
 10
1118.097669045143
 20
684.94877127353323
 11
1118.0976690462467
 21
700.04877127353348
  0
LINE
  8
_0-1_計細線
  6
CONTINUOUS
 62
    3
 10
1118.097669045143
 20
684.94877127353323
 11
1114.6976690451431
 21
684.94877127353323
  0
LINE
  8
_0-1_計細線
  6
CONTINUOUS
 62
    3
 10
1288.8944168579324
 20
693.74877127353318
 11
1291.8989328579321
 21
693.74877127353318
  0
LINE
  8
_0-1_計細線
  6
CONTINUOUS
 62
    3
 10
1288.8944168579324
 20
690.24877127353352
 11
1291.8989448579316
 21
690.24877127353352
  0
ARC
  8
_0-1_計細線
  6
CONTINUOUS
 62
    3
 10
1291.8989448579316
 20
690.44877127353334
 40
0.2000000000000001
 50
269.99999999999977
 51
359.99999999999966
  0
ARC
  8
_0-1_計細線
  6
CONTINUOUS
 62
    3
 10
1284.3409648579322
 20
691.99862527353378
 40
7.7579560000000019
 50
346.96432999999888
 51
13.038021999995337
  0
ARC
  8
_0-1_計細線
  6
CONTINUOUS
 62
    3
 10
1291.8989448579316
 20
697.04877127353359
 40
0.2000000000000001
 50
0
 51
89.999999999999915
  0
ARC
  8
_0-1_計細線
  6
CONTINUOUS
 62
    3
 10
1284.3409648579322
 20
695.49891527353327
 40
7.7579560000000019
 50
346.96197799999982
 51
13.035670000000389
  0
LINE
  8
_0-1_計細線
  6
CONTINUOUS
 62
    3
 10
1288.8944168579324
 20
697.24877127353341
 11
1291.8989448579316
 21
697.24877127353341
  0
LINE
  8
_0-1_計細線
  6
CONTINUOUS
 62
    3
 10
1292.0989448579321
 20
690.44877127353334
 11
1292.0989448579321
 21
697.04877127353359
  0
ARC
  8
_0-1_計細線
  6
CONTINUOUS
 62
    3
 10
1288.6944168579316
 20
687.44877127353334
 40
0.2000000000000001
 50
269.99999999999977
 51
359.99999999999966
  0
LINE
  8
_0-1_計細線
  6
CONTINUOUS
 62
    3
 10
1287.3976688579316
 20
687.24877127353329
 11
1288.6944168579316
 21
687.24877127353329
  0
ARC
  8
_0-1_計細線
  6
CONTINUOUS
 62
    3
 10
1288.6944168579316
 20
700.04877127353313
 40
0.2000000000000001
 50
0
 51
89.999999999999915
  0
LINE
  8
_0-1_計細線
  6
CONTINUOUS
 62
    3
 10
1287.3976688579316
 20
700.24877127353352
 11
1288.6944168579316
 21
700.24877127353352
  0
LINE
  8
_0-1_計細線
  6
CONTINUOUS
 62
    3
 10
1288.8944168579324
 20
693.24877127353318
 11
1288.8944168579324
 21
687.44877127353334
  0
LINE
  8
_0-1_計細線
  6
CONTINUOUS
 62
    3
 10
1288.8944168579324
 20
700.04877127353313
 11
1288.8944168579324
 21
693.24877127353318
  0
LINE
  8
_0-1_計細線
  6
CONTINUOUS
 62
    3
 10
943.90092123235434
 20
693.74877127353318
 11
940.89640523235403
 21
693.74877127353318
  0
LINE
  8
_0-1_計細線
  6
CONTINUOUS
 62
    3
 10
943.90092123235434
 20
690.24877127353352
 11
940.89639323235474
 21
690.24877127353352
  0
ARC
  8
_0-1_計細線
  6
CONTINUOUS
 62
    3
 10
940.89639323235474
 20
690.44877127353334
 40
0.2000000000000001
 50
179.99999999999983
 51
269.99999999999977
  0
ARC
  8
_0-1_計細線
  6
CONTINUOUS
 62
    3
 10
948.45437323235444
 20
691.99862527353378
 40
7.7579560000000019
 50
166.96197800000505
 51
193.03566999999961
  0
ARC
  8
_0-1_計細線
  6
CONTINUOUS
 62
    3
 10
940.89639323235474
 20
697.04877127353359
 40
0.2000000000000001
 50
89.999999999999915
 51
179.99999999999983
  0
ARC
  8
_0-1_計細線
  6
CONTINUOUS
 62
    3
 10
948.45437323235444
 20
695.49891527353327
 40
7.7579560000000019
 50
166.96433000000002
 51
193.03802199999868
  0
LINE
  8
_0-1_計細線
  6
CONTINUOUS
 62
    3
 10
943.90092123235434
 20
697.24877127353341
 11
940.89639323235474
 21
697.24877127353341
  0
LINE
  8
_0-1_計細線
  6
CONTINUOUS
 62
    3
 10
940.69639323235435
 20
690.44877127353334
 11
940.69639323235435
 21
697.04877127353359
  0
ARC
  8
_0-1_計細線
  6
CONTINUOUS
 62
    3
 10
944.10092123235472
 20
687.44877127353334
 40
0.2000000000000001
 50
179.99999999999983
 51
269.99999999999977
  0
LINE
  8
_0-1_計細線
  6
CONTINUOUS
 62
    3
 10
945.39766923235504
 20
687.24877127353329
 11
944.10092123235472
 21
687.24877127353329
  0
ARC
  8
_0-1_計細線
  6
CONTINUOUS
 62
    3
 10
944.10092123235472
 20
700.04877127353313
 40
0.2000000000000001
 50
89.999999999999915
 51
179.99999999999983
  0
LINE
  8
_0-1_計細線
  6
CONTINUOUS
 62
    3
 10
945.39766923235504
 20
700.24877127353352
 11
944.10092123235472
 21
700.24877127353352
  0
LINE
  8
_0-1_計細線
  6
CONTINUOUS
 62
    3
 10
943.90092123235434
 20
693.24877127353318
 11
943.90092123235434
 21
687.44877127353334
  0
LINE
  8
_0-1_計細線
  6
CONTINUOUS
 62
    3
 10
943.90092123235434
 20
700.04877127353313
 11
943.90092123235434
 21
693.24877127353318
  0
LINE
  8
_0-1_計細線
  6
CONTINUOUS
 62
    3
 10
961.99766923397374
 20
700.24877127353318
 11
948.79766923397358
 21
700.24877127353318
  0
LINE
  8
_0-1_計細線
  6
CONTINUOUS
 62
    3
 10
961.99766923397362
 20
687.24877127353341
 11
948.79766923397358
 21
687.24877127353341
  0
LINE
  8
_0-1_計細線
  6
CONTINUOUS
 62
    3
 10
978.69766923414568
 20
700.24877127353318
 11
965.39766923414561
 21
700.24877127353318
  0
LINE
  8
_0-1_計細線
  6
CONTINUOUS
 62
    3
 10
978.69766923414534
 20
687.24877127353341
 11
965.39766923414561
 21
687.24877127353341
  0
LINE
  8
_0-1_計細線
  6
CONTINUOUS
 62
    3
 10
995.69766923416364
 20
700.24877127353318
 11
982.0976692341635
 21
700.24877127353318
  0
LINE
  8
_0-1_計細線
  6
CONTINUOUS
 62
    3
 10
1012.6976692343356
 20
700.24877127353318
 11
999.09766923433551
 21
700.24877127353318
  0
LINE
  8
_0-1_計細線
  6
CONTINUOUS
 62
    3
 10
1029.6976692345072
 20
700.24877127353318
 11
1016.0976692345073
 21
700.24877127353318
  0
LINE
  8
_0-1_計細線
  6
CONTINUOUS
 62
    3
 10
1046.6976692346789
 20
700.24877127353318
 11
1033.0976692346787
 21
700.24877127353318
  0
LINE
  8
_0-1_計細線
  6
CONTINUOUS
 62
    3
 10
995.69766923416353
 20
687.24877127353341
 11
982.09766923416339
 21
687.24877127353341
  0
LINE
  8
_0-1_計細線
  6
CONTINUOUS
 62
    3
 10
1012.6976692343351
 20
687.24877127353341
 11
999.09766923433551
 21
687.24877127353341
  0
LINE
  8
_0-1_計細線
  6
CONTINUOUS
 62
    3
 10
1029.6976692345072
 20
687.24877127353341
 11
1016.0976692345073
 21
687.24877127353341
  0
LINE
  8
_0-1_計細線
  6
CONTINUOUS
 62
    3
 10
1046.6976692346791
 20
687.24877127353341
 11
1033.0976692346792
 21
687.24877127353341
  0
LINE
  8
_0-1_計細線
  6
CONTINUOUS
 62
    3
 10
1270.7976690476573
 20
700.24877127353318
 11
1283.9976690476574
 21
700.24877127353318
  0
LINE
  8
_0-1_計細線
  6
CONTINUOUS
 62
    3
 10
1270.7976690476573
 20
687.24877127353341
 11
1283.9976690476574
 21
687.24877127353341
  0
LINE
  8
_0-1_計細線
  6
CONTINUOUS
 62
    3
 10
1254.0976690474856
 20
700.24877127353318
 11
1267.3976690474854
 21
700.24877127353318
  0
LINE
  8
_0-1_計細線
  6
CONTINUOUS
 62
    3
 10
1254.0976690474856
 20
687.24877127353341
 11
1267.3976690474854
 21
687.24877127353341
  0
LINE
  8
_0-1_計細線
  6
CONTINUOUS
 62
    3
 10
1237.0976690474672
 20
700.24877127353318
 11
1250.6976690474673
 21
700.24877127353318
  0
LINE
  8
_0-1_計細線
  6
CONTINUOUS
 62
    3
 10
1220.0976690472955
 20
700.24877127353318
 11
1233.6976690472957
 21
700.24877127353318
  0
LINE
  8
_0-1_計細線
  6
CONTINUOUS
 62
    3
 10
1203.0976690471239
 20
700.24877127353318
 11
1216.697669047124
 21
700.24877127353318
  0
LINE
  8
_0-1_計細線
  6
CONTINUOUS
 62
    3
 10
1050.0976690446091
 20
700.24877127353318
 11
1063.6976690446093
 21
700.24877127353318
  0
LINE
  8
_0-1_計細線
  6
CONTINUOUS
 62
    3
 10
1186.097669046952
 20
700.24877127353318
 11
1199.6976690469521
 21
700.24877127353318
  0
LINE
  8
_0-1_計細線
  6
CONTINUOUS
 62
    3
 10
1169.0976690465898
 20
700.24877127353318
 11
1182.6976690465901
 21
700.24877127353318
  0
LINE
  8
_0-1_計細線
  6
CONTINUOUS
 62
    3
 10
1067.0976690446096
 20
700.24877127353318
 11
1080.6976690446095
 21
700.24877127353318
  0
LINE
  8
_0-1_計細線
  6
CONTINUOUS
 62
    3
 10
1084.0976690449713
 20
700.24877127353318
 11
1097.6976690449712
 21
700.24877127353318
  0
LINE
  8
_0-1_計細線
  6
CONTINUOUS
 62
    3
 10
1101.0976690453333
 20
700.24877127353318
 11
1114.697669045333
 21
700.24877127353318
  0
LINE
  8
_0-1_計細線
  6
CONTINUOUS
 62
    3
 10
1135.0976690460566
 20
700.24877127353318
 11
1148.6976690460569
 21
700.24877127353318
  0
LINE
  8
_0-1_計細線
  6
CONTINUOUS
 62
    3
 10
1152.0976690464188
 20
700.24877127353318
 11
1165.6976690464182
 21
700.24877127353318
  0
LINE
  8
_0-1_計細線
  6
CONTINUOUS
 62
    3
 10
1237.0976690474674
 20
687.24877127353341
 11
1250.6976690474676
 21
687.24877127353341
  0
LINE
  8
_0-1_計細線
  6
CONTINUOUS
 62
    3
 10
1220.0976690472958
 20
687.24877127353341
 11
1233.6976690472957
 21
687.24877127353341
  0
LINE
  8
_0-1_計細線
  6
CONTINUOUS
 62
    3
 10
1203.0976690471239
 20
687.24877127353341
 11
1216.6976690471236
 21
687.24877127353341
  0
LINE
  8
_0-1_計細線
  6
CONTINUOUS
 62
    3
 10
1050.0976690446091
 20
687.24877127353341
 11
1063.6976690446093
 21
687.24877127353341
  0
LINE
  8
_0-1_計細線
  6
CONTINUOUS
 62
    3
 10
1186.0976690469515
 20
687.24877127353341
 11
1199.6976690469519
 21
687.24877127353341
  0
LINE
  8
_0-1_計細線
  6
CONTINUOUS
 62
    3
 10
1169.0976690465902
 20
687.24877127353341
 11
1182.6976690465901
 21
687.24877127353341
  0
LINE
  8
_0-1_計細線
  6
CONTINUOUS
 62
    3
 10
1067.0976690446093
 20
687.24877127353341
 11
1080.6976690446093
 21
687.24877127353341
  0
LINE
  8
_0-1_計細線
  6
CONTINUOUS
 62
    3
 10
1084.0976690449713
 20
687.24877127353341
 11
1097.6976690449712
 21
687.24877127353341
  0
LINE
  8
_0-1_計細線
  6
CONTINUOUS
 62
    3
 10
1101.0976690453331
 20
687.24877127353341
 11
1114.697669045333
 21
687.24877127353341
  0
LINE
  8
_0-1_計細線
  6
CONTINUOUS
 62
    3
 10
1135.0976690460566
 20
687.24877127353341
 11
1148.6976690460565
 21
687.24877127353341
  0
LINE
  8
_0-1_計細線
  6
CONTINUOUS
 62
    3
 10
1152.0976690464183
 20
687.24877127353341
 11
1165.6976690464182
 21
687.24877127353341
  0
ARC
  8
_0-1_計細線
  6
CONTINUOUS
 62
    3
 10
951.79766923290674
 20
702.94877127353334
 40
1.0000000000000004
 50
0
 51
89.999999999999915
  0
ARC
  8
_0-1_計細線
  6
CONTINUOUS
 62
    3
 10
951.32972004157921
 20
704.94877127353311
 40
1.0000000000000004
 50
209.99999999999866
 51
269.99999999999977
  0
ARC
  8
_0-1_計細線
  6
CONTINUOUS
 62
    3
 10
949.59766923401048
 20
703.94877127353334
 40
1.0000000000000004
 50
29.999999999991644
 51
89.999999999999915
  0
LINE
  8
_0-1_計細線
  6
CONTINUOUS
 62
    3
 10
951.79766923290674
 20
703.94877127353334
 11
951.32972004157921
 21
703.94877127353334
  0
ARC
  8
_0-1_計細線
  6
CONTINUOUS
 62
    3
 10
942.39766923511399
 20
702.94877127353334
 40
1.0000000000000004
 50
89.999999999999915
 51
179.99999999999983
  0
ARC
  8
_0-1_計細線
  6
CONTINUOUS
 62
    3
 10
942.86561842644142
 20
704.94877127353311
 40
1.0000000000000004
 50
269.99999999999977
 51
330.00000000000057
  0
ARC
  8
_0-1_計細線
  6
CONTINUOUS
 62
    3
 10
944.59766923401048
 20
703.94877127353334
 40
1.0000000000000004
 50
90.000000000026048
 51
150.00000000002137
  0
LINE
  8
_0-1_計細線
  6
CONTINUOUS
 62
    3
 10
942.39766923511399
 20
703.94877127353334
 11
942.86561842644142
 21
703.94877127353334
  0
ARC
  8
_0-1_計細線
  6
CONTINUOUS
 62
    3
 10
952.29766923290663
 20
701.54877127353348
 40
0.5000000000000002
 50
269.99999999999977
 51
359.99999999999966
  0
LINE
  8
_0-1_計細線
  6
CONTINUOUS
 62
    3
 10
952.79766923290617
 20
702.94877127353334
 11
952.79766923290617
 21
701.54877127353348
  0
ARC
  8
_0-1_計細線
  6
CONTINUOUS
 62
    3
 10
941.89766923511399
 20
701.54877127353348
 40
0.5000000000000002
 50
179.99999999999983
 51
269.99999999999977
  0
LINE
  8
_0-1_計細線
  6
CONTINUOUS
 62
    3
 10
941.39766923511445
 20
702.94877127353334
 11
941.39766923511445
 21
701.54877127353348
  0
ARC
  8
_0-1_計細線
  6
CONTINUOUS
 62
    3
 10
949.79766923290663
 20
700.04877127353348
 40
1.0000000000000004
 50
89.999999999999915
 51
179.99999999999983
  0
LINE
  8
_0-1_計細線
  6
CONTINUOUS
 62
    3
 10
949.79766923290663
 20
701.04877127353325
 11
952.29766923290663
 21
701.04877127353325
  0
ARC
  8
_0-1_計細線
  6
CONTINUOUS
 62
    3
 10
944.39766923290665
 20
700.04877127353348
 40
1.0000000000000004
 50
0
 51
89.999999999999915
  0
LINE
  8
_0-1_計細線
  6
CONTINUOUS
 62
    3
 10
944.39766923511399
 20
701.04877127353325
 11
941.89766923511399
 21
701.04877127353325
  0
LINE
  8
_0-1_計細線
  6
CONTINUOUS
 62
    3
 10
944.59766923401048
 20
704.94877127353311
 11
949.59766923401048
 21
704.94877127353311
  0
LINE
  8
_0-1_計細線
  6
CONTINUOUS
 62
    3
 10
948.7976692340103
 20
684.94877127353323
 11
948.79766923290674
 21
700.04877127353348
  0
LINE
  8
_0-1_計細線
  6
CONTINUOUS
 62
    3
 10
945.39766923401032
 20
684.94877127353323
 11
945.39766923290608
 21
700.04877127353348
  0
LINE
  8
_0-1_計細線
  6
CONTINUOUS
 62
    3
 10
945.39766923401032
 20
684.94877127353323
 11
948.7976692340103
 21
684.94877127353323
  0
ARC
  8
_0-1_計細線
  6
CONTINUOUS
 62
    3
 10
968.39766923323225
 20
702.94877127353334
 40
1.0000000000000004
 50
0
 51
89.999999999999915
  0
ARC
  8
_0-1_計細線
  6
CONTINUOUS
 62
    3
 10
967.92972004190449
 20
704.94877127353311
 40
1.0000000000000004
 50
209.99999999999216
 51
269.99999999999977
  0
ARC
  8
_0-1_計細線
  6
CONTINUOUS
 62
    3
 10
966.19766923433588
 20
703.94877127353334
 40
1.0000000000000004
 50
29.99999999999816
 51
89.999999999999915
  0
LINE
  8
_0-1_計細線
  6
CONTINUOUS
 62
    3
 10
968.39766923323225
 20
703.94877127353334
 11
967.92972004190449
 21
703.94877127353334
  0
ARC
  8
_0-1_計細線
  6
CONTINUOUS
 62
    3
 10
958.9976692354395
 20
702.94877127353334
 40
1.0000000000000004
 50
89.999999999999915
 51
179.99999999999983
  0
ARC
  8
_0-1_計細線
  6
CONTINUOUS
 62
    3
 10
959.46561842676704
 20
704.94877127353311
 40
1.0000000000000004
 50
269.99999999999977
 51
330.00000000000057
  0
ARC
  8
_0-1_計細線
  6
CONTINUOUS
 62
    3
 10
961.19766923433588
 20
703.94877127353334
 40
1.0000000000000004
 50
90.000000000013031
 51
150.00000000001486
  0
LINE
  8
_0-1_計細線
  6
CONTINUOUS
 62
    3
 10
958.9976692354395
 20
703.94877127353334
 11
959.46561842676704
 21
703.94877127353334
  0
ARC
  8
_0-1_計細線
  6
CONTINUOUS
 62
    3
 10
968.89766923323191
 20
701.54877127353348
 40
0.5000000000000002
 50
269.99999999999977
 51
359.99999999999966
  0
LINE
  8
_0-1_計細線
  6
CONTINUOUS
 62
    3
 10
969.39766923323191
 20
702.94877127353334
 11
969.39766923323191
 21
701.54877127353348
  0
ARC
  8
_0-1_計細線
  6
CONTINUOUS
 62
    3
 10
958.49766923543893
 20
701.54877127353348
 40
0.5000000000000002
 50
179.99999999999983
 51
269.99999999999977
  0
LINE
  8
_0-1_計細線
  6
CONTINUOUS
 62
    3
 10
957.99766923543893
 20
702.94877127353334
 11
957.99766923543893
 21
701.54877127353348
  0
ARC
  8
_0-1_計細線
  6
CONTINUOUS
 62
    3
 10
966.39766923323191
 20
700.04877127353348
 40
1.0000000000000004
 50
89.999999999999915
 51
179.99999999999983
  0
LINE
  8
_0-1_計細線
  6
CONTINUOUS
 62
    3
 10
966.39766923323191
 20
701.04877127353325
 11
968.89766923323191
 21
701.04877127353325
  0
ARC
  8
_0-1_計細線
  6
CONTINUOUS
 62
    3
 10
960.99766923323216
 20
700.04877127353348
 40
1.0000000000000004
 50
0
 51
89.999999999999915
  0
LINE
  8
_0-1_計細線
  6
CONTINUOUS
 62
    3
 10
960.99766923543939
 20
701.04877127353325
 11
958.49766923543893
 21
701.04877127353325
  0
LINE
  8
_0-1_計細線
  6
CONTINUOUS
 62
    3
 10
961.19766923433588
 20
704.94877127353311
 11
966.19766923433588
 21
704.94877127353311
  0
LINE
  8
_0-1_計細線
  6
CONTINUOUS
 62
    3
 10
965.39766923433558
 20
684.94877127353323
 11
965.39766923323202
 21
700.04877127353348
  0
LINE
  8
_0-1_計細線
  6
CONTINUOUS
 62
    3
 10
961.99766923433572
 20
684.94877127353323
 11
961.99766923323205
 21
700.04877127353348
  0
LINE
  8
_0-1_計細線
  6
CONTINUOUS
 62
    3
 10
961.99766923433572
 20
684.94877127353323
 11
965.39766923433558
 21
684.94877127353323
  0
ARC
  8
_0-1_計細線
  6
CONTINUOUS
 62
    3
 10
985.09766923325014
 20
702.94877127353334
 40
1.0000000000000004
 50
0
 51
89.999999999999915
  0
ARC
  8
_0-1_計細線
  6
CONTINUOUS
 62
    3
 10
984.62972004192261
 20
704.94877127353311
 40
1.0000000000000004
 50
209.99999999998565
 51
269.99999999999977
  0
ARC
  8
_0-1_計細線
  6
CONTINUOUS
 62
    3
 10
982.89766923435377
 20
703.94877127353334
 40
1.0000000000000004
 50
29.99999999999816
 51
89.999999999999915
  0
LINE
  8
_0-1_計細線
  6
CONTINUOUS
 62
    3
 10
985.09766923325014
 20
703.94877127353334
 11
984.62972004192261
 21
703.94877127353334
  0
ARC
  8
_0-1_計細線
  6
CONTINUOUS
 62
    3
 10
975.69766923545728
 20
702.94877127353334
 40
1.0000000000000004
 50
89.999999999999915
 51
179.99999999999983
  0
ARC
  8
_0-1_計細線
  6
CONTINUOUS
 62
    3
 10
976.16561842678482
 20
704.94877127353311
 40
1.0000000000000004
 50
269.99999999999977
 51
330.00000000001364
  0
ARC
  8
_0-1_計細線
  6
CONTINUOUS
 62
    3
 10
977.89766923435366
 20
703.94877127353334
 40
1.0000000000000004
 50
89.999999999999915
 51
150.00000000000185
  0
LINE
  8
_0-1_計細線
  6
CONTINUOUS
 62
    3
 10
975.69766923545728
 20
703.94877127353334
 11
976.16561842678482
 21
703.94877127353334
  0
ARC
  8
_0-1_計細線
  6
CONTINUOUS
 62
    3
 10
985.59766923325003
 20
701.54877127353348
 40
0.5000000000000002
 50
269.99999999999977
 51
359.99999999999966
  0
LINE
  8
_0-1_計細線
  6
CONTINUOUS
 62
    3
 10
986.09766923325026
 20
702.94877127353334
 11
986.09766923325026
 21
701.54877127353348
  0
ARC
  8
_0-1_計細線
  6
CONTINUOUS
 62
    3
 10
975.19766923545717
 20
701.54877127353348
 40
0.5000000000000002
 50
179.99999999999983
 51
269.99999999999977
  0
LINE
  8
_0-1_計細線
  6
CONTINUOUS
 62
    3
 10
974.69766923545717
 20
702.94877127353334
 11
974.69766923545717
 21
701.54877127353348
  0
ARC
  8
_0-1_計細線
  6
CONTINUOUS
 62
    3
 10
983.09766923325003
 20
700.04877127353348
 40
1.0000000000000004
 50
89.999999999999915
 51
179.99999999999983
  0
LINE
  8
_0-1_計細線
  6
CONTINUOUS
 62
    3
 10
983.09766923325003
 20
701.04877127353325
 11
985.59766923325003
 21
701.04877127353325
  0
ARC
  8
_0-1_計細線
  6
CONTINUOUS
 62
    3
 10
977.69766923325005
 20
700.04877127353348
 40
1.0000000000000004
 50
0
 51
89.999999999999915
  0
LINE
  8
_0-1_計細線
  6
CONTINUOUS
 62
    3
 10
977.69766923545774
 20
701.04877127353325
 11
975.19766923545717
 21
701.04877127353325
  0
LINE
  8
_0-1_計細線
  6
CONTINUOUS
 62
    3
 10
977.89766923435366
 20
704.94877127353311
 11
982.89766923435377
 21
704.94877127353311
  0
LINE
  8
_0-1_計細線
  6
CONTINUOUS
 62
    3
 10
982.0976692343537
 20
684.94877127353323
 11
982.09766923325049
 21
700.04877127353348
  0
LINE
  8
_0-1_計細線
  6
CONTINUOUS
 62
    3
 10
978.69766923435373
 20
684.94877127353323
 11
978.69766923325017
 21
700.04877127353348
  0
LINE
  8
_0-1_計細線
  6
CONTINUOUS
 62
    3
 10
978.69766923435373
 20
684.94877127353323
 11
982.0976692343537
 21
684.94877127353323
  0
ARC
  8
_0-1_計細線
  6
CONTINUOUS
 62
    3
 10
1002.0976692334222
 20
702.94877127353334
 40
1.0000000000000004
 50
0
 51
89.999999999999915
  0
ARC
  8
_0-1_計細線
  6
CONTINUOUS
 62
    3
 10
1001.6297200420944
 20
704.94877127353311
 40
1.0000000000000004
 50
209.99999999999216
 51
269.99999999999977
  0
ARC
  8
_0-1_計細線
  6
CONTINUOUS
 62
    3
 10
999.89766923452578
 20
703.94877127353334
 40
1.0000000000000004
 50
29.99999999999816
 51
89.999999999999915
  0
LINE
  8
_0-1_計細線
  6
CONTINUOUS
 62
    3
 10
1002.0976692334222
 20
703.94877127353334
 11
1001.6297200420944
 21
703.94877127353334
  0
ARC
  8
_0-1_計細線
  6
CONTINUOUS
 62
    3
 10
992.69766923562884
 20
702.94877127353334
 40
1.0000000000000004
 50
89.999999999999915
 51
179.99999999999983
  0
ARC
  8
_0-1_計細線
  6
CONTINUOUS
 62
    3
 10
993.1656184269566
 20
704.94877127353311
 40
1.0000000000000004
 50
269.99999999999977
 51
330.00000000000711
  0
ARC
  8
_0-1_計細線
  6
CONTINUOUS
 62
    3
 10
994.89766923452578
 20
703.94877127353334
 40
1.0000000000000004
 50
90.000000000026048
 51
150.00000000001486
  0
LINE
  8
_0-1_計細線
  6
CONTINUOUS
 62
    3
 10
992.69766923562884
 20
703.94877127353334
 11
993.1656184269566
 21
703.94877127353334
  0
ARC
  8
_0-1_計細線
  6
CONTINUOUS
 62
    3
 10
1002.5976692334218
 20
701.54877127353348
 40
0.5000000000000002
 50
269.99999999999977
 51
359.99999999999966
  0
LINE
  8
_0-1_計細線
  6
CONTINUOUS
 62
    3
 10
1003.097669233422
 20
702.94877127353334
 11
1003.097669233422
 21
701.54877127353348
  0
ARC
  8
_0-1_計細線
  6
CONTINUOUS
 62
    3
 10
992.19766923562884
 20
701.54877127353348
 40
0.5000000000000002
 50
179.99999999999983
 51
269.99999999999977
  0
LINE
  8
_0-1_計細線
  6
CONTINUOUS
 62
    3
 10
991.69766923562918
 20
702.94877127353334
 11
991.69766923562918
 21
701.54877127353348
  0
ARC
  8
_0-1_計細線
  6
CONTINUOUS
 62
    3
 10
1000.0976692334218
 20
700.04877127353348
 40
1.0000000000000004
 50
89.999999999999915
 51
179.99999999999983
  0
LINE
  8
_0-1_計細線
  6
CONTINUOUS
 62
    3
 10
1000.0976692334218
 20
701.04877127353325
 11
1002.5976692334218
 21
701.04877127353325
  0
ARC
  8
_0-1_計細線
  6
CONTINUOUS
 62
    3
 10
994.69766923342206
 20
700.04877127353348
 40
1.0000000000000004
 50
0
 51
89.999999999999915
  0
LINE
  8
_0-1_計細線
  6
CONTINUOUS
 62
    3
 10
994.69766923562918
 20
701.04877127353325
 11
992.19766923562884
 21
701.04877127353325
  0
LINE
  8
_0-1_計細線
  6
CONTINUOUS
 62
    3
 10
994.89766923452578
 20
704.94877127353311
 11
999.89766923452578
 21
704.94877127353311
  0
LINE
  8
_0-1_計細線
  6
CONTINUOUS
 62
    3
 10
999.09766923452548
 20
684.94877127353323
 11
999.09766923342193
 21
700.04877127353348
  0
LINE
  8
_0-1_計細線
  6
CONTINUOUS
 62
    3
 10
995.69766923452551
 20
684.94877127353323
 11
995.69766923342195
 21
700.04877127353348
  0
LINE
  8
_0-1_計細線
  6
CONTINUOUS
 62
    3
 10
995.69766923452551
 20
684.94877127353323
 11
999.09766923452548
 21
684.94877127353323
  0
ARC
  8
_0-1_計細線
  6
CONTINUOUS
 62
    3
 10
1019.0976692335937
 20
702.94877127353334
 40
1.0000000000000004
 50
0
 51
89.999999999999915
  0
ARC
  8
_0-1_計細線
  6
CONTINUOUS
 62
    3
 10
1018.6297200422661
 20
704.94877127353311
 40
1.0000000000000004
 50
209.99999999999216
 51
269.99999999999977
  0
ARC
  8
_0-1_計細線
  6
CONTINUOUS
 62
    3
 10
1016.8976692346976
 20
703.94877127353334
 40
1.0000000000000004
 50
30.000000000004672
 51
89.999999999999915
  0
LINE
  8
_0-1_計細線
  6
CONTINUOUS
 62
    3
 10
1019.0976692335937
 20
703.94877127353334
 11
1018.6297200422661
 21
703.94877127353334
  0
ARC
  8
_0-1_計細線
  6
CONTINUOUS
 62
    3
 10
1009.6976692358008
 20
702.94877127353334
 40
1.0000000000000004
 50
89.999999999999915
 51
179.99999999999983
  0
ARC
  8
_0-1_計細線
  6
CONTINUOUS
 62
    3
 10
1010.1656184271286
 20
704.94877127353311
 40
1.0000000000000004
 50
269.99999999999977
 51
330.00000000000711
  0
ARC
  8
_0-1_計細線
  6
CONTINUOUS
 62
    3
 10
1011.8976692346972
 20
703.94877127353334
 40
1.0000000000000004
 50
90.000000000013031
 51
150.00000000000185
  0
LINE
  8
_0-1_計細線
  6
CONTINUOUS
 62
    3
 10
1009.6976692358008
 20
703.94877127353334
 11
1010.1656184271286
 21
703.94877127353334
  0
ARC
  8
_0-1_計細線
  6
CONTINUOUS
 62
    3
 10
1019.5976692335938
 20
701.54877127353348
 40
0.5000000000000002
 50
269.99999999999977
 51
359.99999999999966
  0
LINE
  8
_0-1_計細線
  6
CONTINUOUS
 62
    3
 10
1020.0976692335935
 20
702.94877127353334
 11
1020.0976692335935
 21
701.54877127353348
  0
ARC
  8
_0-1_計細線
  6
CONTINUOUS
 62
    3
 10
1009.1976692358008
 20
701.54877127353348
 40
0.5000000000000002
 50
179.99999999999983
 51
269.99999999999977
  0
LINE
  8
_0-1_計細線
  6
CONTINUOUS
 62
    3
 10
1008.697669235801
 20
702.94877127353334
 11
1008.697669235801
 21
701.54877127353348
  0
ARC
  8
_0-1_計細線
  6
CONTINUOUS
 62
    3
 10
1017.0976692335938
 20
700.04877127353348
 40
1.0000000000000004
 50
89.999999999999915
 51
179.99999999999983
  0
LINE
  8
_0-1_計細線
  6
CONTINUOUS
 62
    3
 10
1017.0976692335938
 20
701.04877127353325
 11
1019.5976692335938
 21
701.04877127353325
  0
ARC
  8
_0-1_計細線
  6
CONTINUOUS
 62
    3
 10
1011.6976692335936
 20
700.04877127353348
 40
1.0000000000000004
 50
0
 51
89.999999999999915
  0
LINE
  8
_0-1_計細線
  6
CONTINUOUS
 62
    3
 10
1011.697669235801
 20
701.04877127353325
 11
1009.1976692358008
 21
701.04877127353325
  0
LINE
  8
_0-1_計細線
  6
CONTINUOUS
 62
    3
 10
1011.8976692346972
 20
704.94877127353311
 11
1016.8976692346976
 21
704.94877127353311
  0
LINE
  8
_0-1_計細線
  6
CONTINUOUS
 62
    3
 10
1016.0976692346975
 20
684.94877127353323
 11
1016.0976692335937
 21
700.04877127353348
  0
LINE
  8
_0-1_計細線
  6
CONTINUOUS
 62
    3
 10
1012.6976692346972
 20
684.94877127353323
 11
1012.6976692335934
 21
700.04877127353348
  0
LINE
  8
_0-1_計細線
  6
CONTINUOUS
 62
    3
 10
1012.6976692346972
 20
684.94877127353323
 11
1016.0976692346975
 21
684.94877127353323
  0
ARC
  8
_0-1_計細線
  6
CONTINUOUS
 62
    3
 10
1036.0976692337654
 20
702.94877127353334
 40
1.0000000000000004
 50
0
 51
89.999999999999915
  0
ARC
  8
_0-1_計細線
  6
CONTINUOUS
 62
    3
 10
1035.6297200424376
 20
704.94877127353311
 40
1.0000000000000004
 50
209.99999999999216
 51
269.99999999999977
  0
ARC
  8
_0-1_計細線
  6
CONTINUOUS
 62
    3
 10
1033.897669234869
 20
703.94877127353334
 40
1.0000000000000004
 50
29.99999999999816
 51
89.999999999999915
  0
LINE
  8
_0-1_計細線
  6
CONTINUOUS
 62
    3
 10
1036.0976692337654
 20
703.94877127353334
 11
1035.6297200424376
 21
703.94877127353334
  0
ARC
  8
_0-1_計細線
  6
CONTINUOUS
 62
    3
 10
1026.6976692359726
 20
702.94877127353334
 40
1.0000000000000004
 50
89.999999999999915
 51
179.99999999999983
  0
ARC
  8
_0-1_計細線
  6
CONTINUOUS
 62
    3
 10
1027.1656184273002
 20
704.94877127353311
 40
1.0000000000000004
 50
269.99999999999977
 51
330.00000000001364
  0
ARC
  8
_0-1_計細線
  6
CONTINUOUS
 62
    3
 10
1028.897669234869
 20
703.94877127353334
 40
1.0000000000000004
 50
89.999999999999915
 51
150.00000000000185
  0
LINE
  8
_0-1_計細線
  6
CONTINUOUS
 62
    3
 10
1026.6976692359726
 20
703.94877127353334
 11
1027.1656184273002
 21
703.94877127353334
  0
ARC
  8
_0-1_計細線
  6
CONTINUOUS
 62
    3
 10
1036.5976692337656
 20
701.54877127353348
 40
0.5000000000000002
 50
269.99999999999977
 51
359.99999999999966
  0
LINE
  8
_0-1_計細線
  6
CONTINUOUS
 62
    3
 10
1037.0976692337654
 20
702.94877127353334
 11
1037.0976692337654
 21
701.54877127353348
  0
ARC
  8
_0-1_計細線
  6
CONTINUOUS
 62
    3
 10
1026.1976692359726
 20
701.54877127353348
 40
0.5000000000000002
 50
179.99999999999983
 51
269.99999999999977
  0
LINE
  8
_0-1_計細線
  6
CONTINUOUS
 62
    3
 10
1025.6976692359726
 20
702.94877127353334
 11
1025.6976692359726
 21
701.54877127353348
  0
ARC
  8
_0-1_計細線
  6
CONTINUOUS
 62
    3
 10
1034.0976692337656
 20
700.04877127353348
 40
1.0000000000000004
 50
89.999999999999915
 51
179.99999999999983
  0
LINE
  8
_0-1_計細線
  6
CONTINUOUS
 62
    3
 10
1034.0976692337656
 20
701.04877127353325
 11
1036.5976692337656
 21
701.04877127353325
  0
ARC
  8
_0-1_計細線
  6
CONTINUOUS
 62
    3
 10
1028.6976692337653
 20
700.04877127353348
 40
1.0000000000000004
 50
0
 51
89.999999999999915
  0
LINE
  8
_0-1_計細線
  6
CONTINUOUS
 62
    3
 10
1028.6976692359731
 20
701.04877127353325
 11
1026.1976692359726
 21
701.04877127353325
  0
LINE
  8
_0-1_計細線
  6
CONTINUOUS
 62
    3
 10
1028.897669234869
 20
704.94877127353311
 11
1033.897669234869
 21
704.94877127353311
  0
LINE
  8
_0-1_計細線
  6
CONTINUOUS
 62
    3
 10
1033.0976692348693
 20
684.94877127353323
 11
1033.0976692337658
 21
700.04877127353348
  0
LINE
  8
_0-1_計細線
  6
CONTINUOUS
 62
    3
 10
1029.6976692348687
 20
684.94877127353323
 11
1029.6976692337653
 21
700.04877127353348
  0
LINE
  8
_0-1_計細線
  6
CONTINUOUS
 62
    3
 10
1029.6976692348687
 20
684.94877127353323
 11
1033.0976692348693
 21
684.94877127353323
  0
ARC
  8
_0-1_計細線
  6
CONTINUOUS
 62
    3
 10
1280.9976690487242
 20
702.94877127353334
 40
1.0000000000000004
 50
89.999999999999915
 51
179.99999999999983
  0
ARC
  8
_0-1_計細線
  6
CONTINUOUS
 62
    3
 10
1281.465618240052
 20
704.94877127353311
 40
1.0000000000000004
 50
269.99999999999977
 51
330.00000000001364
  0
ARC
  8
_0-1_計細線
  6
CONTINUOUS
 62
    3
 10
1283.1976690476204
 20
703.94877127353334
 40
1.0000000000000004
 50
89.999999999999915
 51
149.9999999999888
  0
LINE
  8
_0-1_計細線
  6
CONTINUOUS
 62
    3
 10
1280.9976690487242
 20
703.94877127353334
 11
1281.465618240052
 21
703.94877127353334
  0
ARC
  8
_0-1_計細線
  6
CONTINUOUS
 62
    3
 10
1290.3976690465172
 20
702.94877127353334
 40
1.0000000000000004
 50
0
 51
89.999999999999915
  0
ARC
  8
_0-1_計細線
  6
CONTINUOUS
 62
    3
 10
1289.9297198551899
 20
704.94877127353311
 40
1.0000000000000004
 50
209.99999999998565
 51
269.99999999999977
  0
ARC
  8
_0-1_計細線
  6
CONTINUOUS
 62
    3
 10
1288.1976690476208
 20
703.94877127353334
 40
1.0000000000000004
 50
29.999999999991644
 51
89.999999999973952
  0
LINE
  8
_0-1_計細線
  6
CONTINUOUS
 62
    3
 10
1290.3976690465172
 20
703.94877127353334
 11
1289.9297198551899
 21
703.94877127353334
  0
ARC
  8
_0-1_計細線
  6
CONTINUOUS
 62
    3
 10
1280.4976690487242
 20
701.54877127353348
 40
0.5000000000000002
 50
179.99999999999983
 51
269.99999999999977
  0
LINE
  8
_0-1_計細線
  6
CONTINUOUS
 62
    3
 10
1279.9976690487244
 20
702.94877127353334
 11
1279.9976690487244
 21
701.54877127353348
  0
ARC
  8
_0-1_計細線
  6
CONTINUOUS
 62
    3
 10
1290.8976690465172
 20
701.54877127353348
 40
0.5000000000000002
 50
269.99999999999977
 51
359.99999999999966
  0
LINE
  8
_0-1_計細線
  6
CONTINUOUS
 62
    3
 10
1291.3976690465174
 20
702.94877127353334
 11
1291.3976690465174
 21
701.54877127353348
  0
ARC
  8
_0-1_計細線
  6
CONTINUOUS
 62
    3
 10
1282.9976690487247
 20
700.04877127353348
 40
1.0000000000000004
 50
0
 51
89.999999999999915
  0
LINE
  8
_0-1_計細線
  6
CONTINUOUS
 62
    3
 10
1282.9976690487247
 20
701.04877127353325
 11
1280.4976690487242
 21
701.04877127353325
  0
ARC
  8
_0-1_計細線
  6
CONTINUOUS
 62
    3
 10
1288.3976690487245
 20
700.04877127353348
 40
1.0000000000000004
 50
89.999999999999915
 51
179.99999999999983
  0
LINE
  8
_0-1_計細線
  6
CONTINUOUS
 62
    3
 10
1288.3976690465172
 20
701.04877127353325
 11
1290.8976690465172
 21
701.04877127353325
  0
LINE
  8
_0-1_計細線
  6
CONTINUOUS
 62
    3
 10
1288.1976690476208
 20
704.94877127353311
 11
1283.1976690476204
 21
704.94877127353311
  0
LINE
  8
_0-1_計細線
  6
CONTINUOUS
 62
    3
 10
1283.997669047621
 20
684.94877127353323
 11
1283.997669048724
 21
700.04877127353348
  0
LINE
  8
_0-1_計細線
  6
CONTINUOUS
 62
    3
 10
1287.3976690476209
 20
684.94877127353323
 11
1287.3976690487245
 21
700.04877127353348
  0
LINE
  8
_0-1_計細線
  6
CONTINUOUS
 62
    3
 10
1287.3976690476209
 20
684.94877127353323
 11
1283.997669047621
 21
684.94877127353323
  0
ARC
  8
_0-1_計細線
  6
CONTINUOUS
 62
    3
 10
1264.3976690483989
 20
702.94877127353334
 40
1.0000000000000004
 50
89.999999999999915
 51
179.99999999999983
  0
ARC
  8
_0-1_計細線
  6
CONTINUOUS
 62
    3
 10
1264.8656182397265
 20
704.94877127353311
 40
1.0000000000000004
 50
269.99999999999977
 51
330.00000000001364
  0
ARC
  8
_0-1_計細線
  6
CONTINUOUS
 62
    3
 10
1266.5976690472951
 20
703.94877127353334
 40
1.0000000000000004
 50
89.999999999999915
 51
149.99999999999534
  0
LINE
  8
_0-1_計細線
  6
CONTINUOUS
 62
    3
 10
1264.3976690483989
 20
703.94877127353334
 11
1264.8656182397265
 21
703.94877127353334
  0
ARC
  8
_0-1_計細線
  6
CONTINUOUS
 62
    3
 10
1273.7976690461921
 20
702.94877127353334
 40
1.0000000000000004
 50
0
 51
89.999999999999915
  0
ARC
  8
_0-1_計細線
  6
CONTINUOUS
 62
    3
 10
1273.3297198548642
 20
704.94877127353311
 40
1.0000000000000004
 50
209.99999999998565
 51
269.99999999999977
  0
ARC
  8
_0-1_計細線
  6
CONTINUOUS
 62
    3
 10
1271.5976690472953
 20
703.94877127353334
 40
1.0000000000000004
 50
29.99999999999816
 51
89.999999999986969
  0
LINE
  8
_0-1_計細線
  6
CONTINUOUS
 62
    3
 10
1273.7976690461921
 20
703.94877127353334
 11
1273.3297198548642
 21
703.94877127353334
  0
ARC
  8
_0-1_計細線
  6
CONTINUOUS
 62
    3
 10
1263.8976690483989
 20
701.54877127353348
 40
0.5000000000000002
 50
179.99999999999983
 51
269.99999999999977
  0
LINE
  8
_0-1_計細線
  6
CONTINUOUS
 62
    3
 10
1263.3976690483992
 20
702.94877127353334
 11
1263.3976690483992
 21
701.54877127353348
  0
ARC
  8
_0-1_計細線
  6
CONTINUOUS
 62
    3
 10
1274.2976690461919
 20
701.54877127353348
 40
0.5000000000000002
 50
269.99999999999977
 51
359.99999999999966
  0
LINE
  8
_0-1_計細線
  6
CONTINUOUS
 62
    3
 10
1274.7976690461917
 20
702.94877127353334
 11
1274.7976690461917
 21
701.54877127353348
  0
ARC
  8
_0-1_計細線
  6
CONTINUOUS
 62
    3
 10
1266.3976690483989
 20
700.04877127353348
 40
1.0000000000000004
 50
0
 51
89.999999999999915
  0
LINE
  8
_0-1_計細線
  6
CONTINUOUS
 62
    3
 10
1266.3976690483989
 20
701.04877127353325
 11
1263.8976690483989
 21
701.04877127353325
  0
ARC
  8
_0-1_計細線
  6
CONTINUOUS
 62
    3
 10
1271.797669048399
 20
700.04877127353348
 40
1.0000000000000004
 50
89.999999999999915
 51
179.99999999999983
  0
LINE
  8
_0-1_計細線
  6
CONTINUOUS
 62
    3
 10
1271.7976690461917
 20
701.04877127353325
 11
1274.2976690461919
 21
701.04877127353325
  0
LINE
  8
_0-1_計細線
  6
CONTINUOUS
 62
    3
 10
1271.5976690472953
 20
704.94877127353311
 11
1266.5976690472951
 21
704.94877127353311
  0
LINE
  8
_0-1_計細線
  6
CONTINUOUS
 62
    3
 10
1267.3976690472953
 20
684.94877127353323
 11
1267.3976690483987
 21
700.04877127353348
  0
LINE
  8
_0-1_計細線
  6
CONTINUOUS
 62
    3
 10
1270.7976690472954
 20
684.94877127353323
 11
1270.7976690483988
 21
700.04877127353348
  0
LINE
  8
_0-1_計細線
  6
CONTINUOUS
 62
    3
 10
1270.7976690472954
 20
684.94877127353323
 11
1267.3976690472953
 21
684.94877127353323
  0
ARC
  8
_0-1_計細線
  6
CONTINUOUS
 62
    3
 10
1247.6976690483809
 20
702.94877127353334
 40
1.0000000000000004
 50
89.999999999999915
 51
179.99999999999983
  0
ARC
  8
_0-1_計細線
  6
CONTINUOUS
 62
    3
 10
1248.1656182397082
 20
704.94877127353311
 40
1.0000000000000004
 50
269.99999999999977
 51
330.00000000000711
  0
ARC
  8
_0-1_計細線
  6
CONTINUOUS
 62
    3
 10
1249.8976690472771
 20
703.94877127353334
 40
1.0000000000000004
 50
89.999999999999915
 51
150.00000000000836
  0
LINE
  8
_0-1_計細線
  6
CONTINUOUS
 62
    3
 10
1247.6976690483809
 20
703.94877127353334
 11
1248.1656182397082
 21
703.94877127353334
  0
ARC
  8
_0-1_計細線
  6
CONTINUOUS
 62
    3
 10
1257.0976690461737
 20
702.94877127353334
 40
1.0000000000000004
 50
0
 51
89.999999999999915
  0
ARC
  8
_0-1_計細線
  6
CONTINUOUS
 62
    3
 10
1256.6297198548464
 20
704.94877127353311
 40
1.0000000000000004
 50
209.99999999997914
 51
269.99999999999977
  0
ARC
  8
_0-1_計細線
  6
CONTINUOUS
 62
    3
 10
1254.8976690472775
 20
703.94877127353334
 40
1.0000000000000004
 50
30.000000000004672
 51
89.999999999999915
  0
LINE
  8
_0-1_計細線
  6
CONTINUOUS
 62
    3
 10
1257.0976690461737
 20
703.94877127353334
 11
1256.6297198548464
 21
703.94877127353334
  0
ARC
  8
_0-1_計細線
  6
CONTINUOUS
 62
    3
 10
1247.1976690483809
 20
701.54877127353348
 40
0.5000000000000002
 50
179.99999999999983
 51
269.99999999999977
  0
LINE
  8
_0-1_計細線
  6
CONTINUOUS
 62
    3
 10
1246.6976690483809
 20
702.94877127353334
 11
1246.6976690483809
 21
701.54877127353348
  0
ARC
  8
_0-1_計細線
  6
CONTINUOUS
 62
    3
 10
1257.5976690461735
 20
701.54877127353348
 40
0.5000000000000002
 50
269.99999999999977
 51
359.99999999999966
  0
LINE
  8
_0-1_計細線
  6
CONTINUOUS
 62
    3
 10
1258.0976690461737
 20
702.94877127353334
 11
1258.0976690461737
 21
701.54877127353348
  0
ARC
  8
_0-1_計細線
  6
CONTINUOUS
 62
    3
 10
1249.6976690483807
 20
700.04877127353348
 40
1.0000000000000004
 50
0
 51
89.999999999999915
  0
LINE
  8
_0-1_計細線
  6
CONTINUOUS
 62
    3
 10
1249.6976690483807
 20
701.04877127353325
 11
1247.1976690483809
 21
701.04877127353325
  0
ARC
  8
_0-1_計細線
  6
CONTINUOUS
 62
    3
 10
1255.0976690483806
 20
700.04877127353348
 40
1.0000000000000004
 50
89.999999999999915
 51
179.99999999999983
  0
LINE
  8
_0-1_計細線
  6
CONTINUOUS
 62
    3
 10
1255.0976690461732
 20
701.04877127353325
 11
1257.5976690461735
 21
701.04877127353325
  0
LINE
  8
_0-1_計細線
  6
CONTINUOUS
 62
    3
 10
1254.8976690472775
 20
704.94877127353311
 11
1249.8976690472771
 21
704.94877127353311
  0
LINE
  8
_0-1_計細線
  6
CONTINUOUS
 62
    3
 10
1250.6976690472775
 20
684.94877127353323
 11
1250.6976690483805
 21
700.04877127353348
  0
LINE
  8
_0-1_計細線
  6
CONTINUOUS
 62
    3
 10
1254.0976690472771
 20
684.94877127353323
 11
1254.097669048381
 21
700.04877127353348
  0
LINE
  8
_0-1_計細線
  6
CONTINUOUS
 62
    3
 10
1254.0976690472771
 20
684.94877127353323
 11
1250.6976690472775
 21
684.94877127353323
  0
ARC
  8
_0-1_計細線
  6
CONTINUOUS
 62
    3
 10
1230.697669048209
 20
702.94877127353334
 40
1.0000000000000004
 50
89.999999999999915
 51
179.99999999999983
  0
ARC
  8
_0-1_計細線
  6
CONTINUOUS
 62
    3
 10
1231.1656182395366
 20
704.94877127353311
 40
1.0000000000000004
 50
269.99999999999977
 51
330.00000000000711
  0
ARC
  8
_0-1_計細線
  6
CONTINUOUS
 62
    3
 10
1232.8976690471054
 20
703.94877127353334
 40
1.0000000000000004
 50
89.999999999999915
 51
150.00000000000836
  0
LINE
  8
_0-1_計細線
  6
CONTINUOUS
 62
    3
 10
1230.697669048209
 20
703.94877127353334
 11
1231.1656182395366
 21
703.94877127353334
  0
ARC
  8
_0-1_計細線
  6
CONTINUOUS
 62
    3
 10
1240.097669046002
 20
702.94877127353334
 40
1.0000000000000004
 50
0
 51
89.999999999999915
  0
ARC
  8
_0-1_計細線
  6
CONTINUOUS
 62
    3
 10
1239.6297198546742
 20
704.94877127353311
 40
1.0000000000000004
 50
209.99999999999216
 51
269.99999999999977
  0
ARC
  8
_0-1_計細線
  6
CONTINUOUS
 62
    3
 10
1237.8976690471052
 20
703.94877127353334
 40
1.0000000000000004
 50
29.999999999985132
 51
89.999999999973952
  0
LINE
  8
_0-1_計細線
  6
CONTINUOUS
 62
    3
 10
1240.097669046002
 20
703.94877127353334
 11
1239.6297198546742
 21
703.94877127353334
  0
ARC
  8
_0-1_計細線
  6
CONTINUOUS
 62
    3
 10
1230.197669048209
 20
701.54877127353348
 40
0.5000000000000002
 50
179.99999999999983
 51
269.99999999999977
  0
LINE
  8
_0-1_計細線
  6
CONTINUOUS
 62
    3
 10
1229.6976690482093
 20
702.94877127353334
 11
1229.6976690482093
 21
701.54877127353348
  0
ARC
  8
_0-1_計細線
  6
CONTINUOUS
 62
    3
 10
1240.5976690460018
 20
701.54877127353348
 40
0.5000000000000002
 50
269.99999999999977
 51
359.99999999999966
  0
LINE
  8
_0-1_計細線
  6
CONTINUOUS
 62
    3
 10
1241.0976690460018
 20
702.94877127353334
 11
1241.0976690460018
 21
701.54877127353348
  0
ARC
  8
_0-1_計細線
  6
CONTINUOUS
 62
    3
 10
1232.697669048209
 20
700.04877127353348
 40
1.0000000000000004
 50
0
 51
89.999999999999915
  0
LINE
  8
_0-1_計細線
  6
CONTINUOUS
 62
    3
 10
1232.697669048209
 20
701.04877127353325
 11
1230.197669048209
 21
701.04877127353325
  0
ARC
  8
_0-1_計細線
  6
CONTINUOUS
 62
    3
 10
1238.0976690482089
 20
700.04877127353348
 40
1.0000000000000004
 50
89.999999999999915
 51
179.99999999999983
  0
LINE
  8
_0-1_計細線
  6
CONTINUOUS
 62
    3
 10
1238.0976690460016
 20
701.04877127353325
 11
1240.5976690460018
 21
701.04877127353325
  0
LINE
  8
_0-1_計細線
  6
CONTINUOUS
 62
    3
 10
1237.8976690471052
 20
704.94877127353311
 11
1232.8976690471054
 21
704.94877127353311
  0
LINE
  8
_0-1_計細線
  6
CONTINUOUS
 62
    3
 10
1233.6976690471054
 20
684.94877127353323
 11
1233.697669048209
 21
700.04877127353348
  0
LINE
  8
_0-1_計細線
  6
CONTINUOUS
 62
    3
 10
1237.0976690471055
 20
684.94877127353323
 11
1237.0976690482094
 21
700.04877127353348
  0
LINE
  8
_0-1_計細線
  6
CONTINUOUS
 62
    3
 10
1237.0976690471055
 20
684.94877127353323
 11
1233.6976690471054
 21
684.94877127353323
  0
ARC
  8
_0-1_計細線
  6
CONTINUOUS
 62
    3
 10
1213.6976690480374
 20
702.94877127353334
 40
1.0000000000000004
 50
89.999999999999915
 51
179.99999999999983
  0
ARC
  8
_0-1_計細線
  6
CONTINUOUS
 62
    3
 10
1214.1656182393647
 20
704.94877127353311
 40
1.0000000000000004
 50
269.99999999999977
 51
330.00000000001364
  0
ARC
  8
_0-1_計細線
  6
CONTINUOUS
 62
    3
 10
1215.8976690469337
 20
703.94877127353334
 40
1.0000000000000004
 50
89.999999999999915
 51
150.00000000000836
  0
LINE
  8
_0-1_計細線
  6
CONTINUOUS
 62
    3
 10
1213.6976690480374
 20
703.94877127353334
 11
1214.1656182393647
 21
703.94877127353334
  0
ARC
  8
_0-1_計細線
  6
CONTINUOUS
 62
    3
 10
1223.0976690458301
 20
702.94877127353334
 40
1.0000000000000004
 50
0
 51
89.999999999999915
  0
ARC
  8
_0-1_計細線
  6
CONTINUOUS
 62
    3
 10
1222.6297198545024
 20
704.94877127353311
 40
1.0000000000000004
 50
209.99999999998565
 51
269.99999999999977
  0
ARC
  8
_0-1_計細線
  6
CONTINUOUS
 62
    3
 10
1220.8976690469335
 20
703.94877127353334
 40
1.0000000000000004
 50
29.99999999999816
 51
89.999999999973952
  0
LINE
  8
_0-1_計細線
  6
CONTINUOUS
 62
    3
 10
1223.0976690458301
 20
703.94877127353334
 11
1222.6297198545024
 21
703.94877127353334
  0
ARC
  8
_0-1_計細線
  6
CONTINUOUS
 62
    3
 10
1213.1976690480371
 20
701.54877127353348
 40
0.5000000000000002
 50
179.99999999999983
 51
269.99999999999977
  0
LINE
  8
_0-1_計細線
  6
CONTINUOUS
 62
    3
 10
1212.6976690480371
 20
702.94877127353334
 11
1212.6976690480371
 21
701.54877127353348
  0
ARC
  8
_0-1_計細線
  6
CONTINUOUS
 62
    3
 10
1223.5976690458301
 20
701.54877127353348
 40
0.5000000000000002
 50
269.99999999999977
 51
359.99999999999966
  0
LINE
  8
_0-1_計細線
  6
CONTINUOUS
 62
    3
 10
1224.0976690458299
 20
702.94877127353334
 11
1224.0976690458299
 21
701.54877127353348
  0
ARC
  8
_0-1_計細線
  6
CONTINUOUS
 62
    3
 10
1215.6976690480371
 20
700.04877127353348
 40
1.0000000000000004
 50
0
 51
89.999999999999915
  0
LINE
  8
_0-1_計細線
  6
CONTINUOUS
 62
    3
 10
1215.6976690480371
 20
701.04877127353325
 11
1213.1976690480371
 21
701.04877127353325
  0
ARC
  8
_0-1_計細線
  6
CONTINUOUS
 62
    3
 10
1221.0976690480375
 20
700.04877127353348
 40
1.0000000000000004
 50
89.999999999999915
 51
179.99999999999983
  0
LINE
  8
_0-1_計細線
  6
CONTINUOUS
 62
    3
 10
1221.0976690458299
 20
701.04877127353325
 11
1223.5976690458301
 21
701.04877127353325
  0
LINE
  8
_0-1_計細線
  6
CONTINUOUS
 62
    3
 10
1220.8976690469335
 20
704.94877127353311
 11
1215.8976690469337
 21
704.94877127353311
  0
LINE
  8
_0-1_計細線
  6
CONTINUOUS
 62
    3
 10
1216.6976690469335
 20
684.94877127353323
 11
1216.6976690480374
 21
700.04877127353348
  0
LINE
  8
_0-1_計細線
  6
CONTINUOUS
 62
    3
 10
1220.0976690469336
 20
684.94877127353323
 11
1220.0976690480377
 21
700.04877127353348
  0
LINE
  8
_0-1_計細線
  6
CONTINUOUS
 62
    3
 10
1220.0976690469336
 20
684.94877127353323
 11
1216.6976690469335
 21
684.94877127353323
  0
ARC
  8
_0-1_計細線
  6
CONTINUOUS
 62
    3
 10
1043.6976690451611
 20
702.94877127353334
 40
1.0000000000000004
 50
89.999999999999915
 51
179.99999999999983
  0
ARC
  8
_0-1_計細線
  6
CONTINUOUS
 62
    3
 10
1044.1656182364886
 20
704.94877127353311
 40
1.0000000000000004
 50
269.99999999999977
 51
330.00000000001364
  0
ARC
  8
_0-1_計細線
  6
CONTINUOUS
 62
    3
 10
1045.8976690440575
 20
703.94877127353334
 40
1.0000000000000004
 50
89.999999999999915
 51
150.00000000000185
  0
LINE
  8
_0-1_計細線
  6
CONTINUOUS
 62
    3
 10
1043.6976690451611
 20
703.94877127353334
 11
1044.1656182364886
 21
703.94877127353334
  0
ARC
  8
_0-1_計細線
  6
CONTINUOUS
 62
    3
 10
1053.0976690429538
 20
702.94877127353334
 40
1.0000000000000004
 50
0
 51
89.999999999999915
  0
ARC
  8
_0-1_計細線
  6
CONTINUOUS
 62
    3
 10
1052.6297198516268
 20
704.94877127353311
 40
1.0000000000000004
 50
209.99999999997914
 51
269.99999999999977
  0
ARC
  8
_0-1_計細線
  6
CONTINUOUS
 62
    3
 10
1050.8976690440572
 20
703.94877127353334
 40
1.0000000000000004
 50
29.999999999991644
 51
89.999999999986969
  0
LINE
  8
_0-1_計細線
  6
CONTINUOUS
 62
    3
 10
1053.0976690429538
 20
703.94877127353334
 11
1052.6297198516268
 21
703.94877127353334
  0
ARC
  8
_0-1_計細線
  6
CONTINUOUS
 62
    3
 10
1043.1976690451611
 20
701.54877127353348
 40
0.5000000000000002
 50
179.99999999999983
 51
269.99999999999977
  0
LINE
  8
_0-1_計細線
  6
CONTINUOUS
 62
    3
 10
1042.6976690451611
 20
702.94877127353334
 11
1042.6976690451611
 21
701.54877127353348
  0
ARC
  8
_0-1_計細線
  6
CONTINUOUS
 62
    3
 10
1053.5976690429538
 20
701.54877127353348
 40
0.5000000000000002
 50
269.99999999999977
 51
359.99999999999966
  0
LINE
  8
_0-1_計細線
  6
CONTINUOUS
 62
    3
 10
1054.0976690429543
 20
702.94877127353334
 11
1054.0976690429543
 21
701.54877127353348
  0
ARC
  8
_0-1_計細線
  6
CONTINUOUS
 62
    3
 10
1045.6976690451611
 20
700.04877127353348
 40
1.0000000000000004
 50
0
 51
89.999999999999915
  0
LINE
  8
_0-1_計細線
  6
CONTINUOUS
 62
    3
 10
1045.6976690451611
 20
701.04877127353325
 11
1043.1976690451611
 21
701.04877127353325
  0
ARC
  8
_0-1_計細線
  6
CONTINUOUS
 62
    3
 10
1051.0976690451612
 20
700.04877127353348
 40
1.0000000000000004
 50
89.999999999999915
 51
179.99999999999983
  0
LINE
  8
_0-1_計細線
  6
CONTINUOUS
 62
    3
 10
1051.0976690429536
 20
701.04877127353325
 11
1053.5976690429538
 21
701.04877127353325
  0
LINE
  8
_0-1_計細線
  6
CONTINUOUS
 62
    3
 10
1050.8976690440572
 20
704.94877127353311
 11
1045.8976690440575
 21
704.94877127353311
  0
LINE
  8
_0-1_計細線
  6
CONTINUOUS
 62
    3
 10
1046.6976690440579
 20
684.94877127353323
 11
1046.6976690451609
 21
700.04877127353348
  0
LINE
  8
_0-1_計細線
  6
CONTINUOUS
 62
    3
 10
1050.0976690440575
 20
684.94877127353323
 11
1050.0976690451614
 21
700.04877127353348
  0
LINE
  8
_0-1_計細線
  6
CONTINUOUS
 62
    3
 10
1050.0976690440575
 20
684.94877127353323
 11
1046.6976690440579
 21
684.94877127353323
  0
ARC
  8
_0-1_計細線
  6
CONTINUOUS
 62
    3
 10
1196.6976690478655
 20
702.94877127353334
 40
1.0000000000000004
 50
89.999999999999915
 51
179.99999999999983
  0
ARC
  8
_0-1_計細線
  6
CONTINUOUS
 62
    3
 10
1197.165618239193
 20
704.94877127353311
 40
1.0000000000000004
 50
269.99999999999977
 51
330.00000000001364
  0
ARC
  8
_0-1_計細線
  6
CONTINUOUS
 62
    3
 10
1198.8976690467618
 20
703.94877127353334
 40
1.0000000000000004
 50
89.999999999999915
 51
150.00000000000185
  0
LINE
  8
_0-1_計細線
  6
CONTINUOUS
 62
    3
 10
1196.6976690478655
 20
703.94877127353334
 11
1197.165618239193
 21
703.94877127353334
  0
ARC
  8
_0-1_計細線
  6
CONTINUOUS
 62
    3
 10
1206.0976690456582
 20
702.94877127353334
 40
1.0000000000000004
 50
0
 51
89.999999999999915
  0
ARC
  8
_0-1_計細線
  6
CONTINUOUS
 62
    3
 10
1205.6297198543307
 20
704.94877127353311
 40
1.0000000000000004
 50
209.99999999998565
 51
269.99999999999977
  0
ARC
  8
_0-1_計細線
  6
CONTINUOUS
 62
    3
 10
1203.8976690467618
 20
703.94877127353334
 40
1.0000000000000004
 50
29.99999999999816
 51
89.999999999999915
  0
LINE
  8
_0-1_計細線
  6
CONTINUOUS
 62
    3
 10
1206.0976690456582
 20
703.94877127353334
 11
1205.6297198543307
 21
703.94877127353334
  0
ARC
  8
_0-1_計細線
  6
CONTINUOUS
 62
    3
 10
1196.1976690478652
 20
701.54877127353348
 40
0.5000000000000002
 50
179.99999999999983
 51
269.99999999999977
  0
LINE
  8
_0-1_計細線
  6
CONTINUOUS
 62
    3
 10
1195.6976690478655
 20
702.94877127353334
 11
1195.6976690478655
 21
701.54877127353348
  0
ARC
  8
_0-1_計細線
  6
CONTINUOUS
 62
    3
 10
1206.5976690456587
 20
701.54877127353348
 40
0.5000000000000002
 50
269.99999999999977
 51
359.99999999999966
  0
LINE
  8
_0-1_計細線
  6
CONTINUOUS
 62
    3
 10
1207.0976690456582
 20
702.94877127353334
 11
1207.0976690456582
 21
701.54877127353348
  0
ARC
  8
_0-1_計細線
  6
CONTINUOUS
 62
    3
 10
1198.6976690478655
 20
700.04877127353348
 40
1.0000000000000004
 50
0
 51
89.999999999999915
  0
LINE
  8
_0-1_計細線
  6
CONTINUOUS
 62
    3
 10
1198.6976690478655
 20
701.04877127353325
 11
1196.1976690478652
 21
701.04877127353325
  0
ARC
  8
_0-1_計細線
  6
CONTINUOUS
 62
    3
 10
1204.0976690478656
 20
700.04877127353348
 40
1.0000000000000004
 50
89.999999999999915
 51
179.99999999999983
  0
LINE
  8
_0-1_計細線
  6
CONTINUOUS
 62
    3
 10
1204.0976690456582
 20
701.04877127353325
 11
1206.5976690456587
 21
701.04877127353325
  0
LINE
  8
_0-1_計細線
  6
CONTINUOUS
 62
    3
 10
1203.8976690467618
 20
704.94877127353311
 11
1198.8976690467618
 21
704.94877127353311
  0
LINE
  8
_0-1_計細線
  6
CONTINUOUS
 62
    3
 10
1199.6976690467618
 20
684.94877127353323
 11
1199.6976690478655
 21
700.04877127353348
  0
LINE
  8
_0-1_計細線
  6
CONTINUOUS
 62
    3
 10
1203.0976690467619
 20
684.94877127353323
 11
1203.0976690478656
 21
700.04877127353348
  0
LINE
  8
_0-1_計細線
  6
CONTINUOUS
 62
    3
 10
1203.0976690467619
 20
684.94877127353323
 11
1199.6976690467618
 21
684.94877127353323
  0
ARC
  8
_0-1_計細線
  6
CONTINUOUS
 62
    3
 10
1179.6976690475035
 20
702.94877127353334
 40
1.0000000000000004
 50
89.999999999999915
 51
179.99999999999983
  0
ARC
  8
_0-1_計細線
  6
CONTINUOUS
 62
    3
 10
1180.1656182388308
 20
704.94877127353311
 40
1.0000000000000004
 50
269.99999999999977
 51
330.00000000001364
  0
ARC
  8
_0-1_計細線
  6
CONTINUOUS
 62
    3
 10
1181.8976690463999
 20
703.94877127353334
 40
1.0000000000000004
 50
89.999999999999915
 51
150.00000000000836
  0
LINE
  8
_0-1_計細線
  6
CONTINUOUS
 62
    3
 10
1179.6976690475035
 20
703.94877127353334
 11
1180.1656182388308
 21
703.94877127353334
  0
ARC
  8
_0-1_計細線
  6
CONTINUOUS
 62
    3
 10
1189.0976690452965
 20
702.94877127353334
 40
1.0000000000000004
 50
0
 51
89.999999999999915
  0
ARC
  8
_0-1_計細線
  6
CONTINUOUS
 62
    3
 10
1188.6297198539689
 20
704.94877127353311
 40
1.0000000000000004
 50
209.99999999999216
 51
269.99999999999977
  0
ARC
  8
_0-1_計細線
  6
CONTINUOUS
 62
    3
 10
1186.8976690464001
 20
703.94877127353334
 40
1.0000000000000004
 50
29.999999999991644
 51
89.999999999999915
  0
LINE
  8
_0-1_計細線
  6
CONTINUOUS
 62
    3
 10
1189.0976690452965
 20
703.94877127353334
 11
1188.6297198539689
 21
703.94877127353334
  0
ARC
  8
_0-1_計細線
  6
CONTINUOUS
 62
    3
 10
1179.1976690475037
 20
701.54877127353348
 40
0.5000000000000002
 50
179.99999999999983
 51
269.99999999999977
  0
LINE
  8
_0-1_計細線
  6
CONTINUOUS
 62
    3
 10
1178.6976690475033
 20
702.94877127353334
 11
1178.6976690475033
 21
701.54877127353348
  0
ARC
  8
_0-1_計細線
  6
CONTINUOUS
 62
    3
 10
1189.5976690452967
 20
701.54877127353348
 40
0.5000000000000002
 50
269.99999999999977
 51
359.99999999999966
  0
LINE
  8
_0-1_計細線
  6
CONTINUOUS
 62
    3
 10
1190.0976690452965
 20
702.94877127353334
 11
1190.0976690452965
 21
701.54877127353348
  0
ARC
  8
_0-1_計細線
  6
CONTINUOUS
 62
    3
 10
1181.6976690475033
 20
700.04877127353348
 40
1.0000000000000004
 50
0
 51
89.999999999999915
  0
LINE
  8
_0-1_計細線
  6
CONTINUOUS
 62
    3
 10
1181.6976690475033
 20
701.04877127353325
 11
1179.1976690475037
 21
701.04877127353325
  0
ARC
  8
_0-1_計細線
  6
CONTINUOUS
 62
    3
 10
1187.0976690475036
 20
700.04877127353348
 40
1.0000000000000004
 50
89.999999999999915
 51
179.99999999999983
  0
LINE
  8
_0-1_計細線
  6
CONTINUOUS
 62
    3
 10
1187.0976690452967
 20
701.04877127353325
 11
1189.5976690452967
 21
701.04877127353325
  0
LINE
  8
_0-1_計細線
  6
CONTINUOUS
 62
    3
 10
1186.8976690464001
 20
704.94877127353311
 11
1181.8976690463999
 21
704.94877127353311
  0
LINE
  8
_0-1_計細線
  6
CONTINUOUS
 62
    3
 10
1182.6976690464001
 20
684.94877127353323
 11
1182.6976690475035
 21
700.04877127353348
  0
LINE
  8
_0-1_計細線
  6
CONTINUOUS
 62
    3
 10
1186.0976690464004
 20
684.94877127353323
 11
1186.0976690475038
 21
700.04877127353348
  0
LINE
  8
_0-1_計細線
  6
CONTINUOUS
 62
    3
 10
1186.0976690464004
 20
684.94877127353323
 11
1182.6976690464001
 21
684.94877127353323
  0
ARC
  8
_0-1_計細線
  6
CONTINUOUS
 62
    3
 10
1060.6976690451611
 20
702.94877127353334
 40
1.0000000000000004
 50
89.999999999999915
 51
179.99999999999983
  0
ARC
  8
_0-1_計細線
  6
CONTINUOUS
 62
    3
 10
1061.1656182364886
 20
704.94877127353311
 40
1.0000000000000004
 50
269.99999999999977
 51
330.00000000001364
  0
ARC
  8
_0-1_計細線
  6
CONTINUOUS
 62
    3
 10
1062.8976690440579
 20
703.94877127353334
 40
1.0000000000000004
 50
89.999999999999915
 51
150.00000000001486
  0
LINE
  8
_0-1_計細線
  6
CONTINUOUS
 62
    3
 10
1060.6976690451611
 20
703.94877127353334
 11
1061.1656182364886
 21
703.94877127353334
  0
ARC
  8
_0-1_計細線
  6
CONTINUOUS
 62
    3
 10
1070.0976690429538
 20
702.94877127353334
 40
1.0000000000000004
 50
0
 51
89.999999999999915
  0
ARC
  8
_0-1_計細線
  6
CONTINUOUS
 62
    3
 10
1069.6297198516265
 20
704.94877127353311
 40
1.0000000000000004
 50
209.99999999997914
 51
269.99999999999977
  0
ARC
  8
_0-1_計細線
  6
CONTINUOUS
 62
    3
 10
1067.8976690440577
 20
703.94877127353334
 40
1.0000000000000004
 50
30.000000000004672
 51
89.999999999999915
  0
LINE
  8
_0-1_計細線
  6
CONTINUOUS
 62
    3
 10
1070.0976690429538
 20
703.94877127353334
 11
1069.6297198516265
 21
703.94877127353334
  0
ARC
  8
_0-1_計細線
  6
CONTINUOUS
 62
    3
 10
1060.1976690451613
 20
701.54877127353348
 40
0.5000000000000002
 50
179.99999999999983
 51
269.99999999999977
  0
LINE
  8
_0-1_計細線
  6
CONTINUOUS
 62
    3
 10
1059.6976690451611
 20
702.94877127353334
 11
1059.6976690451611
 21
701.54877127353348
  0
ARC
  8
_0-1_計細線
  6
CONTINUOUS
 62
    3
 10
1070.5976690429543
 20
701.54877127353348
 40
0.5000000000000002
 50
269.99999999999977
 51
359.99999999999966
  0
LINE
  8
_0-1_計細線
  6
CONTINUOUS
 62
    3
 10
1071.0976690429543
 20
702.94877127353334
 11
1071.0976690429543
 21
701.54877127353348
  0
ARC
  8
_0-1_計細線
  6
CONTINUOUS
 62
    3
 10
1062.6976690451611
 20
700.04877127353348
 40
1.0000000000000004
 50
0
 51
89.999999999999915
  0
LINE
  8
_0-1_計細線
  6
CONTINUOUS
 62
    3
 10
1062.6976690451611
 20
701.04877127353325
 11
1060.1976690451613
 21
701.04877127353325
  0
ARC
  8
_0-1_計細線
  6
CONTINUOUS
 62
    3
 10
1068.0976690451612
 20
700.04877127353348
 40
1.0000000000000004
 50
89.999999999999915
 51
179.99999999999983
  0
LINE
  8
_0-1_計細線
  6
CONTINUOUS
 62
    3
 10
1068.0976690429538
 20
701.04877127353325
 11
1070.5976690429543
 21
701.04877127353325
  0
LINE
  8
_0-1_計細線
  6
CONTINUOUS
 62
    3
 10
1067.8976690440577
 20
704.94877127353311
 11
1062.8976690440579
 21
704.94877127353311
  0
LINE
  8
_0-1_計細線
  6
CONTINUOUS
 62
    3
 10
1063.6976690440576
 20
684.94877127353323
 11
1063.6976690451611
 21
700.04877127353348
  0
LINE
  8
_0-1_計細線
  6
CONTINUOUS
 62
    3
 10
1067.0976690440575
 20
684.94877127353323
 11
1067.0976690451612
 21
700.04877127353348
  0
LINE
  8
_0-1_計細線
  6
CONTINUOUS
 62
    3
 10
1067.0976690440575
 20
684.94877127353323
 11
1063.6976690440576
 21
684.94877127353323
  0
ARC
  8
_0-1_計細線
  6
CONTINUOUS
 62
    3
 10
1077.6976690455228
 20
702.94877127353334
 40
1.0000000000000004
 50
89.999999999999915
 51
179.99999999999983
  0
ARC
  8
_0-1_計細線
  6
CONTINUOUS
 62
    3
 10
1078.1656182368506
 20
704.94877127353311
 40
1.0000000000000004
 50
269.99999999999977
 51
330.00000000000711
  0
ARC
  8
_0-1_計細線
  6
CONTINUOUS
 62
    3
 10
1079.8976690444197
 20
703.94877127353334
 40
1.0000000000000004
 50
89.999999999999915
 51
150.00000000001486
  0
LINE
  8
_0-1_計細線
  6
CONTINUOUS
 62
    3
 10
1077.6976690455228
 20
703.94877127353334
 11
1078.1656182368506
 21
703.94877127353334
  0
ARC
  8
_0-1_計細線
  6
CONTINUOUS
 62
    3
 10
1087.0976690433158
 20
702.94877127353334
 40
1.0000000000000004
 50
0
 51
89.999999999999915
  0
ARC
  8
_0-1_計細線
  6
CONTINUOUS
 62
    3
 10
1086.6297198519881
 20
704.94877127353311
 40
1.0000000000000004
 50
209.99999999999216
 51
269.99999999999977
  0
ARC
  8
_0-1_計細線
  6
CONTINUOUS
 62
    3
 10
1084.8976690444199
 20
703.94877127353334
 40
1.0000000000000004
 50
30.000000000011187
 51
89.999999999999915
  0
LINE
  8
_0-1_計細線
  6
CONTINUOUS
 62
    3
 10
1087.0976690433158
 20
703.94877127353334
 11
1086.6297198519881
 21
703.94877127353334
  0
ARC
  8
_0-1_計細線
  6
CONTINUOUS
 62
    3
 10
1077.1976690455231
 20
701.54877127353348
 40
0.5000000000000002
 50
179.99999999999983
 51
269.99999999999977
  0
LINE
  8
_0-1_計細線
  6
CONTINUOUS
 62
    3
 10
1076.6976690455231
 20
702.94877127353334
 11
1076.6976690455231
 21
701.54877127353348
  0
ARC
  8
_0-1_計細線
  6
CONTINUOUS
 62
    3
 10
1087.5976690433158
 20
701.54877127353348
 40
0.5000000000000002
 50
269.99999999999977
 51
359.99999999999966
  0
LINE
  8
_0-1_計細線
  6
CONTINUOUS
 62
    3
 10
1088.0976690433156
 20
702.94877127353334
 11
1088.0976690433156
 21
701.54877127353348
  0
ARC
  8
_0-1_計細線
  6
CONTINUOUS
 62
    3
 10
1079.6976690455231
 20
700.04877127353348
 40
1.0000000000000004
 50
0
 51
89.999999999999915
  0
LINE
  8
_0-1_計細線
  6
CONTINUOUS
 62
    3
 10
1079.6976690455231
 20
701.04877127353325
 11
1077.1976690455231
 21
701.04877127353325
  0
ARC
  8
_0-1_計細線
  6
CONTINUOUS
 62
    3
 10
1085.0976690455229
 20
700.04877127353348
 40
1.0000000000000004
 50
89.999999999999915
 51
179.99999999999983
  0
LINE
  8
_0-1_計細線
  6
CONTINUOUS
 62
    3
 10
1085.0976690433158
 20
701.04877127353325
 11
1087.5976690433158
 21
701.04877127353325
  0
LINE
  8
_0-1_計細線
  6
CONTINUOUS
 62
    3
 10
1084.8976690444199
 20
704.94877127353311
 11
1079.8976690444197
 21
704.94877127353311
  0
LINE
  8
_0-1_計細線
  6
CONTINUOUS
 62
    3
 10
1080.6976690444192
 20
684.94877127353323
 11
1080.6976690455233
 21
700.04877127353348
  0
LINE
  8
_0-1_計細線
  6
CONTINUOUS
 62
    3
 10
1084.0976690444195
 20
684.94877127353323
 11
1084.0976690455232
 21
700.04877127353348
  0
LINE
  8
_0-1_計細線
  6
CONTINUOUS
 62
    3
 10
1084.0976690444195
 20
684.94877127353323
 11
1080.6976690444192
 21
684.94877127353323
  0
ARC
  8
_0-1_計細線
  6
CONTINUOUS
 62
    3
 10
1094.6976690458848
 20
702.94877127353334
 40
1.0000000000000004
 50
89.999999999999915
 51
179.99999999999983
  0
ARC
  8
_0-1_計細線
  6
CONTINUOUS
 62
    3
 10
1095.1656182372128
 20
704.94877127353311
 40
1.0000000000000004
 50
269.99999999999977
 51
330.00000000000057
  0
ARC
  8
_0-1_計細線
  6
CONTINUOUS
 62
    3
 10
1096.8976690447817
 20
703.94877127353334
 40
1.0000000000000004
 50
89.999999999999915
 51
150.00000000001486
  0
LINE
  8
_0-1_計細線
  6
CONTINUOUS
 62
    3
 10
1094.6976690458848
 20
703.94877127353334
 11
1095.1656182372128
 21
703.94877127353334
  0
ARC
  8
_0-1_計細線
  6
CONTINUOUS
 62
    3
 10
1104.0976690436776
 20
702.94877127353334
 40
1.0000000000000004
 50
0
 51
89.999999999999915
  0
ARC
  8
_0-1_計細線
  6
CONTINUOUS
 62
    3
 10
1103.6297198523503
 20
704.94877127353311
 40
1.0000000000000004
 50
209.99999999999216
 51
269.99999999999977
  0
ARC
  8
_0-1_計細線
  6
CONTINUOUS
 62
    3
 10
1101.8976690447812
 20
703.94877127353334
 40
1.0000000000000004
 50
29.999999999985132
 51
89.999999999973952
  0
LINE
  8
_0-1_計細線
  6
CONTINUOUS
 62
    3
 10
1104.0976690436776
 20
703.94877127353334
 11
1103.6297198523503
 21
703.94877127353334
  0
ARC
  8
_0-1_計細線
  6
CONTINUOUS
 62
    3
 10
1094.197669045885
 20
701.54877127353348
 40
0.5000000000000002
 50
179.99999999999983
 51
269.99999999999977
  0
LINE
  8
_0-1_計細線
  6
CONTINUOUS
 62
    3
 10
1093.6976690458853
 20
702.94877127353334
 11
1093.6976690458853
 21
701.54877127353348
  0
ARC
  8
_0-1_計細線
  6
CONTINUOUS
 62
    3
 10
1104.5976690436778
 20
701.54877127353348
 40
0.5000000000000002
 50
269.99999999999977
 51
359.99999999999966
  0
LINE
  8
_0-1_計細線
  6
CONTINUOUS
 62
    3
 10
1105.0976690436778
 20
702.94877127353334
 11
1105.0976690436778
 21
701.54877127353348
  0
ARC
  8
_0-1_計細線
  6
CONTINUOUS
 62
    3
 10
1096.6976690458848
 20
700.04877127353348
 40
1.0000000000000004
 50
0
 51
89.999999999999915
  0
LINE
  8
_0-1_計細線
  6
CONTINUOUS
 62
    3
 10
1096.6976690458848
 20
701.04877127353325
 11
1094.197669045885
 21
701.04877127353325
  0
ARC
  8
_0-1_計細線
  6
CONTINUOUS
 62
    3
 10
1102.0976690458851
 20
700.04877127353348
 40
1.0000000000000004
 50
89.999999999999915
 51
179.99999999999983
  0
LINE
  8
_0-1_計細線
  6
CONTINUOUS
 62
    3
 10
1102.0976690436778
 20
701.04877127353325
 11
1104.5976690436778
 21
701.04877127353325
  0
LINE
  8
_0-1_計細線
  6
CONTINUOUS
 62
    3
 10
1101.8976690447812
 20
704.94877127353311
 11
1096.8976690447817
 21
704.94877127353311
  0
LINE
  8
_0-1_計細線
  6
CONTINUOUS
 62
    3
 10
1097.6976690447814
 20
684.94877127353323
 11
1097.697669045885
 21
700.04877127353348
  0
LINE
  8
_0-1_計細線
  6
CONTINUOUS
 62
    3
 10
1101.0976690447817
 20
684.94877127353323
 11
1101.0976690458849
 21
700.04877127353348
  0
LINE
  8
_0-1_計細線
  6
CONTINUOUS
 62
    3
 10
1101.0976690447817
 20
684.94877127353323
 11
1097.6976690447814
 21
684.94877127353323
  0
ARC
  8
_0-1_計細線
  6
CONTINUOUS
 62
    3
 10
1128.6976690466083
 20
702.94877127353334
 40
1.0000000000000004
 50
89.999999999999915
 51
179.99999999999983
  0
ARC
  8
_0-1_計細線
  6
CONTINUOUS
 62
    3
 10
1129.1656182379359
 20
704.94877127353311
 40
1.0000000000000004
 50
269.99999999999977
 51
330.00000000001364
  0
ARC
  8
_0-1_計細線
  6
CONTINUOUS
 62
    3
 10
1130.8976690455049
 20
703.94877127353334
 40
1.0000000000000004
 50
89.999999999999915
 51
150.00000000000836
  0
LINE
  8
_0-1_計細線
  6
CONTINUOUS
 62
    3
 10
1128.6976690466083
 20
703.94877127353334
 11
1129.1656182379359
 21
703.94877127353334
  0
ARC
  8
_0-1_計細線
  6
CONTINUOUS
 62
    3
 10
1138.0976690444015
 20
702.94877127353334
 40
1.0000000000000004
 50
0
 51
89.999999999999915
  0
ARC
  8
_0-1_計細線
  6
CONTINUOUS
 62
    3
 10
1137.6297198530735
 20
704.94877127353311
 40
1.0000000000000004
 50
209.99999999998565
 51
269.99999999999977
  0
ARC
  8
_0-1_計細線
  6
CONTINUOUS
 62
    3
 10
1135.8976690455047
 20
703.94877127353334
 40
1.0000000000000004
 50
29.99999999999816
 51
89.999999999973952
  0
LINE
  8
_0-1_計細線
  6
CONTINUOUS
 62
    3
 10
1138.0976690444015
 20
703.94877127353334
 11
1137.6297198530735
 21
703.94877127353334
  0
ARC
  8
_0-1_計細線
  6
CONTINUOUS
 62
    3
 10
1128.1976690466083
 20
701.54877127353348
 40
0.5000000000000002
 50
179.99999999999983
 51
269.99999999999977
  0
LINE
  8
_0-1_計細線
  6
CONTINUOUS
 62
    3
 10
1127.6976690466083
 20
702.94877127353334
 11
1127.6976690466083
 21
701.54877127353348
  0
ARC
  8
_0-1_計細線
  6
CONTINUOUS
 62
    3
 10
1138.5976690444013
 20
701.54877127353348
 40
0.5000000000000002
 50
269.99999999999977
 51
359.99999999999966
  0
LINE
  8
_0-1_計細線
  6
CONTINUOUS
 62
    3
 10
1139.0976690444013
 20
702.94877127353334
 11
1139.0976690444013
 21
701.54877127353348
  0
ARC
  8
_0-1_計細線
  6
CONTINUOUS
 62
    3
 10
1130.6976690466083
 20
700.04877127353348
 40
1.0000000000000004
 50
0
 51
89.999999999999915
  0
LINE
  8
_0-1_計細線
  6
CONTINUOUS
 62
    3
 10
1130.6976690466083
 20
701.04877127353325
 11
1128.1976690466083
 21
701.04877127353325
  0
ARC
  8
_0-1_計細線
  6
CONTINUOUS
 62
    3
 10
1136.0976690466084
 20
700.04877127353348
 40
1.0000000000000004
 50
89.999999999999915
 51
179.99999999999983
  0
LINE
  8
_0-1_計細線
  6
CONTINUOUS
 62
    3
 10
1136.0976690444011
 20
701.04877127353325
 11
1138.5976690444013
 21
701.04877127353325
  0
LINE
  8
_0-1_計細線
  6
CONTINUOUS
 62
    3
 10
1135.8976690455047
 20
704.94877127353311
 11
1130.8976690455049
 21
704.94877127353311
  0
LINE
  8
_0-1_計細線
  6
CONTINUOUS
 62
    3
 10
1131.6976690455047
 20
684.94877127353323
 11
1131.6976690466086
 21
700.04877127353348
  0
LINE
  8
_0-1_計細線
  6
CONTINUOUS
 62
    3
 10
1135.0976690455047
 20
684.94877127353323
 11
1135.0976690466084
 21
700.04877127353348
  0
LINE
  8
_0-1_計細線
  6
CONTINUOUS
 62
    3
 10
1135.0976690455047
 20
684.94877127353323
 11
1131.6976690455047
 21
684.94877127353323
  0
ARC
  8
_0-1_計細線
  6
CONTINUOUS
 62
    3
 10
1162.6976690473318
 20
702.94877127353334
 40
1.0000000000000004
 50
89.999999999999915
 51
179.99999999999983
  0
ARC
  8
_0-1_計細線
  6
CONTINUOUS
 62
    3
 10
1163.1656182386598
 20
704.94877127353311
 40
1.0000000000000004
 50
269.99999999999977
 51
330.00000000000711
  0
ARC
  8
_0-1_計細線
  6
CONTINUOUS
 62
    3
 10
1164.897669046228
 20
703.94877127353334
 40
1.0000000000000004
 50
89.999999999999915
 51
149.9999999999888
  0
LINE
  8
_0-1_計細線
  6
CONTINUOUS
 62
    3
 10
1162.6976690473318
 20
703.94877127353334
 11
1163.1656182386598
 21
703.94877127353334
  0
ARC
  8
_0-1_計細線
  6
CONTINUOUS
 62
    3
 10
1172.0976690451246
 20
702.94877127353334
 40
1.0000000000000004
 50
0
 51
89.999999999999915
  0
ARC
  8
_0-1_計細線
  6
CONTINUOUS
 62
    3
 10
1171.6297198537973
 20
704.94877127353311
 40
1.0000000000000004
 50
209.99999999999216
 51
269.99999999999977
  0
ARC
  8
_0-1_計細線
  6
CONTINUOUS
 62
    3
 10
1169.8976690462287
 20
703.94877127353334
 40
1.0000000000000004
 50
29.999999999991644
 51
89.999999999999915
  0
LINE
  8
_0-1_計細線
  6
CONTINUOUS
 62
    3
 10
1172.0976690451246
 20
703.94877127353334
 11
1171.6297198537973
 21
703.94877127353334
  0
ARC
  8
_0-1_計細線
  6
CONTINUOUS
 62
    3
 10
1162.1976690473321
 20
701.54877127353348
 40
0.5000000000000002
 50
179.99999999999983
 51
269.99999999999977
  0
LINE
  8
_0-1_計細線
  6
CONTINUOUS
 62
    3
 10
1161.6976690473321
 20
702.94877127353334
 11
1161.6976690473321
 21
701.54877127353348
  0
ARC
  8
_0-1_計細線
  6
CONTINUOUS
 62
    3
 10
1172.597669045125
 20
701.54877127353348
 40
0.5000000000000002
 50
269.99999999999977
 51
359.99999999999966
  0
LINE
  8
_0-1_計細線
  6
CONTINUOUS
 62
    3
 10
1173.0976690451248
 20
702.94877127353334
 11
1173.0976690451248
 21
701.54877127353348
  0
ARC
  8
_0-1_計細線
  6
CONTINUOUS
 62
    3
 10
1164.6976690473323
 20
700.04877127353348
 40
1.0000000000000004
 50
0
 51
89.999999999999915
  0
LINE
  8
_0-1_計細線
  6
CONTINUOUS
 62
    3
 10
1164.6976690473323
 20
701.04877127353325
 11
1162.1976690473321
 21
701.04877127353325
  0
ARC
  8
_0-1_計細線
  6
CONTINUOUS
 62
    3
 10
1170.0976690473319
 20
700.04877127353348
 40
1.0000000000000004
 50
89.999999999999915
 51
179.99999999999983
  0
LINE
  8
_0-1_計細線
  6
CONTINUOUS
 62
    3
 10
1170.0976690451248
 20
701.04877127353325
 11
1172.597669045125
 21
701.04877127353325
  0
LINE
  8
_0-1_計細線
  6
CONTINUOUS
 62
    3
 10
1169.8976690462287
 20
704.94877127353311
 11
1164.897669046228
 21
704.94877127353311
  0
LINE
  8
_0-1_計細線
  6
CONTINUOUS
 62
    3
 10
1165.6976690462284
 20
684.94877127353323
 11
1165.6976690473318
 21
700.04877127353348
  0
LINE
  8
_0-1_計細線
  6
CONTINUOUS
 62
    3
 10
1169.0976690462287
 20
684.94877127353323
 11
1169.0976690473321
 21
700.04877127353348
  0
LINE
  8
_0-1_計細線
  6
CONTINUOUS
 62
    3
 10
1169.0976690462287
 20
684.94877127353323
 11
1165.6976690462284
 21
684.94877127353323
  0
ARC
  8
_0-1_計細線
  6
CONTINUOUS
 62
    3
 10
939.39766904514329
 20
684.94899027453982
 40
3.0000000000000004
 50
179.99999999999983
 51
269.99999999999977
  0
LINE
  8
_0-1_計細線
  6
CONTINUOUS
 62
    3
 10
936.39766904514318
 20
684.94899027453982
 11
936.39766904514318
 21
704.44899027453982
  0
LINE
  8
_0-1_計細線
  6
CONTINUOUS
 62
    3
 10
939.39766904514329
 20
681.94899027453982
 11
965.89766904514306
 21
681.94899027453982
  0
LINE
  8
_0-1_計細線
  6
CONTINUOUS
 62
    3
 10
966.39766904514306
 20
682.44899027454028
 11
965.89766904514306
 21
681.94899027453982
  0
LINE
  8
_0-1_計細線
  6
CONTINUOUS
 62
    3
 10
966.39766904514306
 20
684.44899027454017
 11
966.39766904514306
 21
682.44899027454028
  0
LINE
  8
_0-1_計細線
  6
CONTINUOUS
 62
    3
 10
965.89766904514306
 20
684.94899027453982
 11
966.39766904514306
 21
684.44899027454017
  0
LINE
  8
_0-1_計細線
  6
CONTINUOUS
 62
    3
 10
939.39766904514329
 20
684.94899027453982
 11
965.89766904514306
 21
684.94899027453982
  0
LINE
  8
_0-1_計細線
  6
CONTINUOUS
 62
    3
 10
936.89766904514295
 20
704.94899027454028
 11
936.39766904514318
 21
704.44899027453982
  0
LINE
  8
_0-1_計細線
  6
CONTINUOUS
 62
    3
 10
938.89766904514318
 20
704.94899027454028
 11
936.89766904514295
 21
704.94899027454028
  0
LINE
  8
_0-1_計細線
  6
CONTINUOUS
 62
    3
 10
939.39766904514329
 20
704.44899027453982
 11
938.89766904514318
 21
704.94899027454028
  0
LINE
  8
_0-1_計細線
  6
CONTINUOUS
 62
    3
 10
939.39766904514329
 20
684.94899027453982
 11
939.39766904514329
 21
704.44899027453982
  0
ARC
  8
_0-1_計細線
  6
CONTINUOUS
 62
    3
 10
1293.3976690451434
 20
684.94899027453982
 40
3.0000000000000004
 50
269.99999999999977
 51
359.99999999999966
  0
LINE
  8
_0-1_計細線
  6
CONTINUOUS
 62
    3
 10
1296.3976690451429
 20
684.94899027453982
 11
1296.3976690451429
 21
704.44899027453982
  0
LINE
  8
_0-1_計細線
  6
CONTINUOUS
 62
    3
 10
1293.3976690451434
 20
681.94899027453982
 11
1266.8976690451427
 21
681.94899027453982
  0
LINE
  8
_0-1_計細線
  6
CONTINUOUS
 62
    3
 10
1266.3976690451429
 20
682.44899027454028
 11
1266.8976690451427
 21
681.94899027453982
  0
LINE
  8
_0-1_計細線
  6
CONTINUOUS
 62
    3
 10
1266.3976690451429
 20
684.44899027454017
 11
1266.3976690451429
 21
682.44899027454028
  0
LINE
  8
_0-1_計細線
  6
CONTINUOUS
 62
    3
 10
1266.8976690451427
 20
684.94899027453982
 11
1266.3976690451429
 21
684.44899027454017
  0
LINE
  8
_0-1_計細線
  6
CONTINUOUS
 62
    3
 10
1293.3976690451434
 20
684.94899027453982
 11
1266.8976690451427
 21
684.94899027453982
  0
LINE
  8
_0-1_計細線
  6
CONTINUOUS
 62
    3
 10
1295.8976690451432
 20
704.94899027454028
 11
1296.3976690451429
 21
704.44899027453982
  0
LINE
  8
_0-1_計細線
  6
CONTINUOUS
 62
    3
 10
1293.8976690451432
 20
704.94899027454028
 11
1295.8976690451432
 21
704.94899027454028
  0
LINE
  8
_0-1_計細線
  6
CONTINUOUS
 62
    3
 10
1293.3976690451434
 20
704.44899027453982
 11
1293.8976690451432
 21
704.94899027454028
  0
LINE
  8
_0-1_計細線
  6
CONTINUOUS
 62
    3
 10
1293.3976690451434
 20
684.94899027453982
 11
1293.3976690451434
 21
704.44899027453982
  0
LINE
  8
_0-5_寸法線
  6
CONTINUOUS
 62
    7
 10
936.39766904514318
 20
648.94899027454028
 11
936.39766904514318
 21
584.62627132142291
  0
LINE
  8
_0-5_寸法線
  6
CONTINUOUS
 62
    7
 10
936.39766904514318
 20
589.62627132142291
 11
946.05692730803401
 21
592.2144617724482
  0
LINE
  8
_0-5_寸法線
  6
CONTINUOUS
 62
    7
 10
936.39766904514318
 20
589.62627132142291
 11
946.05692730803401
 21
587.03808087039772
  0
LINE
  8
_0-5_寸法線
  6
CONTINUOUS
 62
    7
 10
966.39766904514306
 20
611.2040300976729
 11
966.39766904514306
 21
584.62627132142291
  0
LINE
  8
_0-5_寸法線
  6
CONTINUOUS
 62
    7
 10
966.39766904514306
 20
589.62627132142291
 11
956.73841078225223
 21
587.03808087039772
  0
LINE
  8
_0-5_寸法線
  6
CONTINUOUS
 62
    7
 10
966.39766904514306
 20
589.62627132142291
 11
956.73841078225223
 21
592.2144617724482
  0
LINE
  8
_0-5_寸法線
  6
CONTINUOUS
 62
    7
 10
936.39766904514318
 20
589.62627132142291
 11
966.39766904514306
 21
589.62627132142291
  0
TEXT
  8
_0-5_寸法線
 62
    7
 10
943.89766904514306
 20
589.62627132142291
 40
15
 41
1
 50
0
  1
30
  0
LINE
  8
_0-5_寸法線
  6
CONTINUOUS
 62
    7
 10
966.39766904514306
 20
589.62627132142291
 11
976.05692730803366
 21
592.2144617724482
  0
LINE
  8
_0-5_寸法線
  6
CONTINUOUS
 62
    7
 10
966.39766904514306
 20
589.62627132142291
 11
976.05692730803366
 21
587.03808087039761
  0
LINE
  8
_0-5_寸法線
  6
CONTINUOUS
 62
    7
 10
1266.3976690451429
 20
611.2040300976729
 11
1266.3976690451429
 21
584.62627132142291
  0
LINE
  8
_0-5_寸法線
  6
CONTINUOUS
 62
    7
 10
1266.3976690451429
 20
589.62627132142291
 11
1256.7384107822522
 21
587.03808087039772
  0
LINE
  8
_0-5_寸法線
  6
CONTINUOUS
 62
    7
 10
1266.3976690451429
 20
589.62627132142291
 11
1256.7384107822522
 21
592.2144617724482
  0
LINE
  8
_0-5_寸法線
  6
CONTINUOUS
 62
    7
 10
966.39766904514306
 20
589.62627132142291
 11
1266.3976690451429
 21
589.62627132142291
  0
TEXT
  8
_0-5_寸法線
 62
    7
 10
1105.1476690451429
 20
589.62627132142291
 40
15
 41
1
 50
0
  1
300
  0
LINE
  8
_0-5_寸法線
  6
CONTINUOUS
 62
    7
 10
1266.3976690451429
 20
589.62627132142291
 11
1276.0569273080337
 21
592.2144617724482
  0
LINE
  8
_0-5_寸法線
  6
CONTINUOUS
 62
    7
 10
1266.3976690451429
 20
589.62627132142291
 11
1276.0569273080337
 21
587.03808087039761
  0
LINE
  8
_0-5_寸法線
  6
CONTINUOUS
 62
    7
 10
1296.3976690451429
 20
648.94899027454028
 11
1296.3976690451429
 21
584.62627132142291
  0
LINE
  8
_0-5_寸法線
  6
CONTINUOUS
 62
    7
 10
1296.3976690451429
 20
589.62627132142291
 11
1286.7384107822522
 21
587.03808087039772
  0
LINE
  8
_0-5_寸法線
  6
CONTINUOUS
 62
    7
 10
1296.3976690451429
 20
589.62627132142291
 11
1286.7384107822522
 21
592.2144617724482
  0
LINE
  8
_0-5_寸法線
  6
CONTINUOUS
 62
    7
 10
1266.3976690451429
 20
589.62627132142291
 11
1296.3976690451429
 21
589.62627132142291
  0
TEXT
  8
_0-5_寸法線
 62
    7
 10
1273.8976690451429
 20
589.62627132142291
 40
15
 41
1
 50
0
  1
30
  0
LINE
  8
_0-5_寸法線
  6
CONTINUOUS
 62
    7
 10
925.19766904514336
 20
681.94899027454062
 11
847.16437521994976
 21
681.94899027454073
  0
LINE
  8
_0-5_寸法線
  6
CONTINUOUS
 62
    7
 10
852.16437521994976
 20
681.94899027454073
 11
854.75256567097506
 21
672.28973201165002
  0
LINE
  8
_0-5_寸法線
  6
CONTINUOUS
 62
    7
 10
852.16437521994976
 20
681.94899027454073
 11
849.57618476892458
 21
672.28973201165002
  0
LINE
  8
_0-5_寸法線
  6
CONTINUOUS
 62
    7
 10
925.19766904514336
 20
658.94899027454073
 11
847.16437521994976
 21
658.94899027454073
  0
LINE
  8
_0-5_寸法線
  6
CONTINUOUS
 62
    7
 10
852.16437521994976
 20
658.94899027454073
 11
849.57618476892458
 21
668.60824853743156
  0
LINE
  8
_0-5_寸法線
  6
CONTINUOUS
 62
    7
 10
852.16437521994976
 20
658.94899027454073
 11
854.75256567097506
 21
668.60824853743156
  0
LINE
  8
_0-5_寸法線
  6
CONTINUOUS
 62
    7
 10
852.16437521994976
 20
681.94899027454073
 11
852.16437521994976
 21
658.94899027454073
  0
TEXT
  8
_0-5_寸法線
 62
    7
 10
852.16437521994976
 20
662.94899027454085
 40
15
 41
1
 50
90
  1
23
  0
LINE
  8
_0-5_寸法線
  6
CONTINUOUS
 62
    7
 10
867.89102075807432
 20
704.94899027454028
 11
847.16437521994976
 21
704.94899027454028
  0
LINE
  8
_0-5_寸法線
  6
CONTINUOUS
 62
    7
 10
852.16437521994976
 20
704.94899027454028
 11
854.75256567097506
 21
695.28973201164956
  0
LINE
  8
_0-5_寸法線
  6
CONTINUOUS
 62
    7
 10
852.16437521994976
 20
704.94899027454028
 11
849.57618476892458
 21
695.28973201164956
  0
LINE
  8
_0-5_寸法線
  6
CONTINUOUS
 62
    7
 10
925.19766904514336
 20
681.94899027454062
 11
847.16437521994976
 21
681.94899027454073
  0
LINE
  8
_0-5_寸法線
  6
CONTINUOUS
 62
    7
 10
852.16437521994976
 20
681.94899027454073
 11
849.57618476892458
 21
691.60824853743156
  0
LINE
  8
_0-5_寸法線
  6
CONTINUOUS
 62
    7
 10
852.16437521994976
 20
681.94899027454073
 11
854.75256567097506
 21
691.60824853743156
  0
LINE
  8
_0-5_寸法線
  6
CONTINUOUS
 62
    7
 10
852.16437521994976
 20
704.94899027454028
 11
852.16437521994976
 21
681.94899027454073
  0
TEXT
  8
_0-5_寸法線
 62
    7
 10
852.16437521994976
 20
685.94899027454073
 40
15
 41
1
 50
90
  1
23
  0
LINE
  8
_0-1_計細線
  6
CONTINUOUS
 62
    3
 10
936.39766904514318
 20
693.94899027453994
 11
936.39766904514318
 21
658.94899027453994
  0
LINE
  8
_0-1_計細線
  6
CONTINUOUS
 62
    3
 10
936.39766904514318
 20
658.94899027453994
 11
934.09766904514322
 21
658.94899027453994
  0
LINE
  8
_0-1_計細線
  6
CONTINUOUS
 62
    3
 10
934.09766904514322
 20
658.94899027453994
 11
934.09766904514322
 21
693.94899027453994
  0
LINE
  8
_0-1_計細線
  6
CONTINUOUS
 62
    3
 10
934.09766904514322
 20
693.94899027453994
 11
936.39766904514318
 21
693.94899027453994
  0
LINE
  8
_0-0_計極細
  6
CONTINUOUS
 62
    2
 10
934.09766904514322
 20
677.94899027453982
 11
936.39766904514318
 21
677.94899027453982
  0
LINE
  8
_0-0_計極細
  6
CONTINUOUS
 62
    2
 10
934.09766904514322
 20
679.94899027453982
 11
936.39766904514318
 21
679.94899027453982
  0
LINE
  8
_0-0_計極細
  6
CONTINUOUS
 62
    2
 10
934.09766904514322
 20
675.94899027453994
 11
936.39766904514318
 21
675.94899027453994
  0
LINE
  8
_0-0_計極細
  6
CONTINUOUS
 62
    2
 10
934.09766904514322
 20
681.94899027453982
 11
936.39766904514318
 21
681.94899027453982
  0
LINE
  8
_0-0_計極細
  6
CONTINUOUS
 62
    2
 10
936.39766904514318
 20
661.94899027453982
 11
934.09766904514322
 21
661.94899027453982
  0
LINE
  8
_0-0_計極細
  6
CONTINUOUS
 62
    2
 10
934.09766904514322
 20
691.94899027453982
 11
936.39766904514318
 21
691.94899027453982
  0
LINE
  8
_0-1_計細線
  6
CONTINUOUS
 62
    3
 10
1296.3976690451434
 20
693.94899027453994
 11
1296.3976690451434
 21
658.94899027453994
  0
LINE
  8
_0-1_計細線
  6
CONTINUOUS
 62
    3
 10
1296.3976690451434
 20
658.94899027453994
 11
1298.6976690451434
 21
658.94899027453994
  0
LINE
  8
_0-1_計細線
  6
CONTINUOUS
 62
    3
 10
1298.6976690451434
 20
658.94899027453994
 11
1298.6976690451434
 21
693.94899027453994
  0
LINE
  8
_0-1_計細線
  6
CONTINUOUS
 62
    3
 10
1298.6976690451434
 20
693.94899027453994
 11
1296.3976690451434
 21
693.94899027453994
  0
LINE
  8
_0-0_計極細
  6
CONTINUOUS
 62
    2
 10
1298.6976690451434
 20
677.94899027453982
 11
1296.3976690451434
 21
677.94899027453982
  0
LINE
  8
_0-0_計極細
  6
CONTINUOUS
 62
    2
 10
1298.6976690451434
 20
679.94899027453982
 11
1296.3976690451434
 21
679.94899027453982
  0
LINE
  8
_0-0_計極細
  6
CONTINUOUS
 62
    2
 10
1298.6976690451434
 20
675.94899027453994
 11
1296.3976690451434
 21
675.94899027453994
  0
LINE
  8
_0-0_計極細
  6
CONTINUOUS
 62
    2
 10
1298.6976690451434
 20
681.94899027453982
 11
1296.3976690451434
 21
681.94899027453982
  0
LINE
  8
_0-0_計極細
  6
CONTINUOUS
 62
    2
 10
1296.3976690451434
 20
661.94899027453982
 11
1298.6976690451434
 21
661.94899027453982
  0
LINE
  8
_0-0_計極細
  6
CONTINUOUS
 62
    2
 10
1298.6976690451434
 20
691.94899027453982
 11
1296.3976690451434
 21
691.94899027453982
  0
LINE
  8
_0-7_枠細線
  6
CONTINUOUS
 62
    5
 10
1315.3116978659639
 20
679.09707410560429
 11
1307.8116978659639
 21
694.09707410560429
  0
LINE
  8
_0-7_枠細線
  6
CONTINUOUS
 62
    5
 10
1300.3116978659639
 20
679.09707410560429
 11
1315.3116978659639
 21
679.09707410560429
  0
LINE
  8
_0-7_枠細線
  6
CONTINUOUS
 62
    5
 10
1307.8116978659639
 20
694.09707410560429
 11
1300.3116978659639
 21
679.09707410560429
  0
TEXT
  8
_0-7_枠細線
 62
    5
 10
1302.6768491341122
 20
678.14825414075449
 40
12.5
 41
0.8
 50
0
  1
１
  0
TEXT
  8
_0-7_枠細線
 62
    5
 10
1066.6894272843072
 20
547.76655116937354
 40
25
 41
0.8
 50
0
  1
断面詳細図
  0
TEXT
  8
_0-7_枠細線
 62
    5
 10
1181.638397033475
 20
550.26231325663764
 40
20
 41
0.6
 50
0
  1
Ｓ＝１：５
  0
ARC
  8
_0-1_計細線
  6
CONTINUOUS
 62
    3
 10
1145.6976690469703
 20
702.94877127353334
 40
1.0000000000000004
 50
89.999999999999915
 51
179.99999999999983
  0
ARC
  8
_0-1_計細線
  6
CONTINUOUS
 62
    3
 10
1146.1656182382976
 20
704.94877127353311
 40
1.0000000000000004
 50
269.99999999999977
 51
330.00000000000711
  0
ARC
  8
_0-1_計細線
  6
CONTINUOUS
 62
    3
 10
1147.8976690458667
 20
703.94877127353334
 40
1.0000000000000004
 50
89.999999999999915
 51
150.00000000000836
  0
LINE
  8
_0-1_計細線
  6
CONTINUOUS
 62
    3
 10
1145.6976690469703
 20
703.94877127353334
 11
1146.1656182382976
 21
703.94877127353334
  0
ARC
  8
_0-1_計細線
  6
CONTINUOUS
 62
    3
 10
1155.0976690447628
 20
702.94877127353334
 40
1.0000000000000004
 50
0
 51
89.999999999999915
  0
ARC
  8
_0-1_計細線
  6
CONTINUOUS
 62
    3
 10
1154.6297198534357
 20
704.94877127353311
 40
1.0000000000000004
 50
209.9999999999726
 51
269.99999999999977
  0
ARC
  8
_0-1_計細線
  6
CONTINUOUS
 62
    3
 10
1152.8976690458667
 20
703.94877127353334
 40
1.0000000000000004
 50
29.99999999999816
 51
89.999999999999915
  0
LINE
  8
_0-1_計細線
  6
CONTINUOUS
 62
    3
 10
1155.0976690447628
 20
703.94877127353334
 11
1154.6297198534357
 21
703.94877127353334
  0
ARC
  8
_0-1_計細線
  6
CONTINUOUS
 62
    3
 10
1145.1976690469703
 20
701.54877127353348
 40
0.5000000000000002
 50
179.99999999999983
 51
269.99999999999977
  0
LINE
  8
_0-1_計細線
  6
CONTINUOUS
 62
    3
 10
1144.6976690469701
 20
702.94877127353334
 11
1144.6976690469701
 21
701.54877127353348
  0
ARC
  8
_0-1_計細線
  6
CONTINUOUS
 62
    3
 10
1155.5976690447628
 20
701.54877127353348
 40
0.5000000000000002
 50
269.99999999999977
 51
359.99999999999966
  0
LINE
  8
_0-1_計細線
  6
CONTINUOUS
 62
    3
 10
1156.0976690447633
 20
702.94877127353334
 11
1156.0976690447633
 21
701.54877127353348
  0
ARC
  8
_0-1_計細線
  6
CONTINUOUS
 62
    3
 10
1147.6976690469701
 20
700.04877127353348
 40
1.0000000000000004
 50
0
 51
89.999999999999915
  0
LINE
  8
_0-1_計細線
  6
CONTINUOUS
 62
    3
 10
1147.6976690469701
 20
701.04877127353325
 11
1145.1976690469703
 21
701.04877127353325
  0
ARC
  8
_0-1_計細線
  6
CONTINUOUS
 62
    3
 10
1153.0976690469706
 20
700.04877127353348
 40
1.0000000000000004
 50
89.999999999999915
 51
179.99999999999983
  0
LINE
  8
_0-1_計細線
  6
CONTINUOUS
 62
    3
 10
1153.0976690447633
 20
701.04877127353325
 11
1155.5976690447628
 21
701.04877127353325
  0
LINE
  8
_0-1_計細線
  6
CONTINUOUS
 62
    3
 10
1152.8976690458667
 20
704.94877127353311
 11
1147.8976690458667
 21
704.94877127353311
  0
LINE
  8
_0-1_計細線
  6
CONTINUOUS
 62
    3
 10
1148.6976690458669
 20
684.94877127353323
 11
1148.6976690469703
 21
700.04877127353348
  0
LINE
  8
_0-1_計細線
  6
CONTINUOUS
 62
    3
 10
1152.0976690458665
 20
684.94877127353323
 11
1152.0976690469704
 21
700.04877127353348
  0
LINE
  8
_0-1_計細線
  6
CONTINUOUS
 62
    3
 10
1152.0976690458665
 20
684.94877127353323
 11
1148.6976690458669
 21
684.94877127353323
  0
LINE
  8
_0-1_計細線
  6
CONTINUOUS
 62
    3
 10
361.68632075471749
 20
448.76981132075514
 11
414.68632075471754
 21
448.76981132075514
  0
LINE
  8
_0-1_計細線
  6
CONTINUOUS
 62
    3
 10
414.68632075471754
 20
453.46981132075496
 11
361.68632075471749
 21
453.46981132075496
  0
LINE
  8
_0-1_計細線
  6
CONTINUOUS
 62
    3
 10
361.68632075471749
 20
453.46981132075496
 11
361.68632075471749
 21
448.76981132075514
  0
LINE
  8
_0-1_計細線
  6
CONTINUOUS
 62
    3
 10
404.68632075471754
 20
453.46981132075496
 11
404.68632075471754
 21
448.76981132075514
  0
LINE
  8
_0-1_計細線
  6
CONTINUOUS
 62
    3
 10
412.68632075471749
 20
453.46981132075496
 11
412.68632075471749
 21
448.76981132075514
  0
LINE
  8
_0-1_計細線
  6
CONTINUOUS
 62
    3
 10
414.68632075471754
 20
453.46981132075496
 11
414.68632075471754
 21
448.76981132075514
  0
LINE
  8
_0-1_計細線
  6
CONTINUOUS
 62
    3
 10
410.68632075471754
 20
453.46981132075496
 11
410.68632075471754
 21
448.76981132075514
  0
LINE
  8
_0-1_計細線
  6
CONTINUOUS
 62
    3
 10
408.68632075471749
 20
453.46981132075496
 11
408.68632075471749
 21
448.76981132075514
  0
LINE
  8
_0-1_計細線
  6
CONTINUOUS
 62
    3
 10
406.68632075471749
 20
453.46981132075496
 11
406.68632075471749
 21
448.76981132075514
  0
LINE
  8
_0-5_寸法線
  6
CONTINUOUS
 62
    7
 10
936.39766904514329
 20
709.94896772675577
 11
936.39766904514329
 21
829.94877127353334
  0
LINE
  8
_0-5_寸法線
  6
CONTINUOUS
 62
    7
 10
936.39766904514329
 20
824.94877127353334
 11
946.05692730803412
 21
827.53696172455852
  0
LINE
  8
_0-5_寸法線
  6
CONTINUOUS
 62
    7
 10
936.39766904514329
 20
824.94877127353334
 11
946.05692730803412
 21
822.36058082250804
  0
LINE
  8
_0-5_寸法線
  6
CONTINUOUS
 62
    7
 10
1296.3976690451429
 20
709.94896772675577
 11
1296.3976690451429
 21
829.94877127353334
  0
LINE
  8
_0-5_寸法線
  6
CONTINUOUS
 62
    7
 10
1296.3976690451429
 20
824.94877127353334
 11
1286.7384107822522
 21
822.36058082250804
  0
LINE
  8
_0-5_寸法線
  6
CONTINUOUS
 62
    7
 10
1296.3976690451429
 20
824.94877127353334
 11
1286.7384107822522
 21
827.53696172455852
  0
LINE
  8
_0-5_寸法線
  6
CONTINUOUS
 62
    7
 10
936.39766904514329
 20
824.94877127353334
 11
1296.3976690451429
 21
824.94877127353334
  0
TEXT
  8
_0-5_寸法線
 62
    7
 10
1105.1476690451434
 20
824.94877127353334
 40
15
 41
1
 50
0
  1
360
  0
LINE
  8
_0-5_寸法線
  6
CONTINUOUS
 62
    7
 10
936.39766904514329
 20
789.94877127353334
 11
926.73841078225269
 21
787.36058082250804
  0
LINE
  8
_0-5_寸法線
  6
CONTINUOUS
 62
    7
 10
936.39766904514329
 20
789.94877127353334
 11
926.73841078225269
 21
792.53696172455852
  0
LINE
  8
_0-5_寸法線
  6
CONTINUOUS
 62
    7
 10
939.39766904514329
 20
709.44896772675588
 11
939.39766904514329
 21
794.94877127353334
  0
CIRCLE
  8
_0-5_寸法線
  6
CONTINUOUS
 62
    1
 10
939.39766904514329
 20
789.94877127353334
 40
1.5000000000000002
  0
LINE
  8
_0-5_寸法線
  6
CONTINUOUS
 62
    7
 10
911.39766904514329
 20
789.94877127353334
 11
939.39766904514329
 21
789.94877127353334
  0
TEXT
  8
_0-5_寸法線
 62
    7
 10
914.160758044771
 20
789.94877127353334
 40
15
 41
1
 50
0
  1
3
  0
LINE
  8
_0-5_寸法線
  6
CONTINUOUS
 62
    7
 10
941.39766904514318
 20
707.94896672574907
 11
941.39766904514374
 21
794.94877127353334
  0
LINE
  8
_0-5_寸法線
  6
CONTINUOUS
 62
    7
 10
939.39766904514329
 20
789.94877127353334
 11
941.39766904514374
 21
789.94877127353334
  0
TEXT
  8
_0-5_寸法線
 62
    7
 10
941.96970813677706
 20
789.94877127353334
 40
15
 41
1
 50
0
  1
2
  0
LINE
  8
_0-5_寸法線
  6
CONTINUOUS
 62
    7
 10
941.39766904514374
 20
789.94877127353334
 11
951.05692730803435
 21
792.53696172455852
  0
LINE
  8
_0-5_寸法線
  6
CONTINUOUS
 62
    7
 10
941.39766904514374
 20
789.94877127353334
 11
951.05692730803435
 21
787.36058082250804
  0
LINE
  8
_0-5_寸法線
  6
CONTINUOUS
 62
    7
 10
1291.3976690451434
 20
707.94896672574907
 11
1291.3976690451434
 21
794.94877127353334
  0
LINE
  8
_0-5_寸法線
  6
CONTINUOUS
 62
    7
 10
1291.3976690451434
 20
789.94877127353334
 11
1281.7384107822527
 21
787.36058082250804
  0
LINE
  8
_0-5_寸法線
  6
CONTINUOUS
 62
    7
 10
1291.3976690451434
 20
789.94877127353334
 11
1281.7384107822527
 21
792.53696172455852
  0
LINE
  8
_0-5_寸法線
  6
CONTINUOUS
 62
    7
 10
941.39766904514374
 20
789.94877127353334
 11
1291.3976690451434
 21
789.94877127353334
  0
TEXT
  8
_0-5_寸法線
 62
    7
 10
1105.1476690451436
 20
789.94877127353334
 40
15
 41
1
 50
0
  1
350
  0
LINE
  8
_0-5_寸法線
  6
CONTINUOUS
 62
    7
 10
1293.3976690451432
 20
709.44896772675588
 11
1293.3976690451432
 21
794.94877127353334
  0
CIRCLE
  8
_0-5_寸法線
  6
CONTINUOUS
 62
    1
 10
1293.3976690451432
 20
789.94877127353334
 40
1.5000000000000002
  0
LINE
  8
_0-5_寸法線
  6
CONTINUOUS
 62
    7
 10
1291.3976690451434
 20
789.94877127353334
 11
1293.3976690451432
 21
789.94877127353334
  0
TEXT
  8
_0-5_寸法線
 62
    7
 10
1283.9858490565914
 20
789.94877127353334
 40
15
 41
1
 50
0
  1
2
  0
LINE
  8
_0-5_寸法線
  6
CONTINUOUS
 62
    7
 10
1296.3976690451429
 20
789.94877127353334
 11
1306.0569273080339
 21
792.53696172455852
  0
LINE
  8
_0-5_寸法線
  6
CONTINUOUS
 62
    7
 10
1296.3976690451429
 20
789.94877127353334
 11
1306.0569273080339
 21
787.36058082250793
  0
LINE
  8
_0-5_寸法線
  6
CONTINUOUS
 62
    7
 10
1293.3976690451432
 20
789.94877127353334
 11
1321.3976690451429
 21
789.94877127353334
  0
TEXT
  8
_0-5_寸法線
 62
    7
 10
1310.5441664895484
 20
789.94877127353334
 40
15
 41
1
 50
0
  1
3
  0
LINE
  8
_0-5_寸法線
  6
CONTINUOUS
 62
    7
 10
1108.3341166433675
 20
690.59493081766595
 11
1088.7610156965341
 21
704.30016364677829
  0
LINE
  8
_0-5_寸法線
  6
CONTINUOUS
 62
    7
 10
1092.8567759179791
 20
701.43228146502292
 11
1090.2685854669539
 21
711.09153972791364
  0
LINE
  8
_0-5_寸法線
  6
CONTINUOUS
 62
    7
 10
1092.8567759179791
 20
701.43228146502292
 11
1095.4449663690043
 21
711.09153972791364
  0
LINE
  8
_0-5_寸法線
  6
CONTINUOUS
 62
    7
 10
1108.3341166433675
 20
710.59493081766607
 11
1088.7610156965341
 21
724.30016364677829
  0
LINE
  8
_0-5_寸法線
  6
CONTINUOUS
 62
    7
 10
1092.8567759179791
 20
721.43228146502315
 11
1095.4449663690043
 21
711.77302320213232
  0
LINE
  8
_0-5_寸法線
  6
CONTINUOUS
 62
    7
 10
1092.8567759179791
 20
721.43228146502315
 11
1090.2685854669539
 21
711.77302320213232
  0
LINE
  8
_0-5_寸法線
  6
CONTINUOUS
 62
    7
 10
1092.8567759179791
 20
701.43228146502292
 11
1092.8567759179791
 21
721.43228146502315
  0
TEXT
  8
_0-5_寸法線
 62
    7
 10
1092.8567759179791
 20
703.9322814650227
 40
15
 41
1
 50
90
  1
20
  0
LINE
  8
_0-0_計極細
  6
CONTINUOUS
 62
    2
 10
487.68632075471487
 20
606.21981132075553
 11
487.686320754718
 21
601.01981132075571
  0
LINE
  8
_0-5_寸法線
  6
CONTINUOUS
 62
    7
 10
1054.0976690425925
 20
712.94877127353311
 11
1054.0976690425925
 21
759.94877127353311
  0
LINE
  8
_0-5_寸法線
  6
CONTINUOUS
 62
    7
 10
1054.0976690425925
 20
754.94877127353311
 11
1044.4384107797018
 21
752.36058082250781
  0
LINE
  8
_0-5_寸法線
  6
CONTINUOUS
 62
    7
 10
1054.0976690425925
 20
754.94877127353311
 11
1044.4384107797018
 21
757.53696172455818
  0
LINE
  8
_0-5_寸法線
  6
CONTINUOUS
 62
    7
 10
1059.6976690451615
 20
712.94877127353311
 11
1059.6976690451615
 21
759.94877127353311
  0
LINE
  8
_0-5_寸法線
  6
CONTINUOUS
 62
    7
 10
1014.7237133594256
 20
754.94877127353311
 11
1059.6976690451615
 21
754.94877127353311
  0
TEXT
  8
_0-5_寸法線
 62
    7
 10
1014.7237133594257
 20
739.94877127353311
 40
15
 41
1
 50
0
  1
(5.6)
  0
LINE
  8
_0-5_寸法線
  6
CONTINUOUS
 62
    7
 10
1059.6976690451615
 20
754.94877127353311
 11
1069.3569273080523
 21
757.53696172455818
  0
LINE
  8
_0-5_寸法線
  6
CONTINUOUS
 62
    7
 10
1059.6976690451615
 20
754.94877127353311
 11
1069.3569273080523
 21
752.36058082250781
  0
LINE
  8
_0-5_寸法線
  6
CONTINUOUS
 62
    7
 10
1071.0976690429545
 20
712.94877127353311
 11
1071.0976690429545
 21
759.94877127353311
  0
LINE
  8
_0-5_寸法線
  6
CONTINUOUS
 62
    7
 10
1071.0976690429545
 20
754.94877127353311
 11
1061.4384107800638
 21
752.36058082250781
  0
LINE
  8
_0-5_寸法線
  6
CONTINUOUS
 62
    7
 10
1071.0976690429545
 20
754.94877127353311
 11
1061.4384107800638
 21
757.53696172455818
  0
LINE
  8
_0-5_寸法線
  6
CONTINUOUS
 62
    7
 10
1059.6976690451615
 20
754.94877127353311
 11
1071.0976690429545
 21
754.94877127353311
  0
TEXT
  8
_0-5_寸法線
 62
    7
 10
1046.632972617708
 20
754.94877127353311
 40
15
 41
1
 50
0
  1
11.4
  0
LINE
  8
_0-5_寸法線
  6
CONTINUOUS
 62
    7
 10
1167.3976690462287
 20
714.94877127353288
 11
1167.3976690462287
 21
759.94877127353311
  0
LINE
  8
_0-5_寸法線
  6
CONTINUOUS
 62
    7
 10
1167.3976690462287
 20
754.94877127353311
 11
1177.0569273091191
 21
757.53696172455818
  0
LINE
  8
_0-5_寸法線
  6
CONTINUOUS
 62
    7
 10
1167.3976690462287
 20
754.94877127353311
 11
1177.0569273091191
 21
752.36058082250781
  0
LINE
  8
_0-5_寸法線
  6
CONTINUOUS
 62
    7
 10
1184.3976690465906
 20
714.94877127353288
 11
1184.3976690465906
 21
759.94877127353311
  0
LINE
  8
_0-5_寸法線
  6
CONTINUOUS
 62
    7
 10
1184.3976690465906
 20
754.94877127353311
 11
1174.7384107836997
 21
752.36058082250781
  0
LINE
  8
_0-5_寸法線
  6
CONTINUOUS
 62
    7
 10
1184.3976690465906
 20
754.94877127353311
 11
1174.7384107836997
 21
757.53696172455818
  0
LINE
  8
_0-5_寸法線
  6
CONTINUOUS
 62
    7
 10
1167.3976690462287
 20
754.94877127353311
 11
1184.3976690465906
 21
754.94877127353311
  0
TEXT
  8
_0-5_寸法線
 62
    7
 10
1159.7416917538042
 20
739.94877127353311
 40
15
 41
1
 50
0
  1
(17)
  0
LINE
  8
_0-5_寸法線
  6
CONTINUOUS
 62
    7
 10
1184.3976690465906
 20
754.94877127353311
 11
1194.0569273094811
 21
757.53696172455818
  0
LINE
  8
_0-5_寸法線
  6
CONTINUOUS
 62
    7
 10
1184.3976690465906
 20
754.94877127353311
 11
1194.0569273094811
 21
752.36058082250781
  0
LINE
  8
_0-5_寸法線
  6
CONTINUOUS
 62
    7
 10
1201.3976690469519
 20
714.94877127353288
 11
1201.3976690469519
 21
759.94877127353311
  0
LINE
  8
_0-5_寸法線
  6
CONTINUOUS
 62
    7
 10
1201.3976690469519
 20
754.94877127353311
 11
1191.7384107840612
 21
752.36058082250781
  0
LINE
  8
_0-5_寸法線
  6
CONTINUOUS
 62
    7
 10
1201.3976690469519
 20
754.94877127353311
 11
1191.7384107840612
 21
757.53696172455818
  0
LINE
  8
_0-5_寸法線
  6
CONTINUOUS
 62
    7
 10
1184.3976690465906
 20
754.94877127353311
 11
1201.3976690469519
 21
754.94877127353311
  0
TEXT
  8
_0-5_寸法線
 62
    7
 10
1178.8083584202298
 20
754.94877127353311
 40
15
 41
1
 50
0
  1
(17)
  0
TEXT
  8
_0-5_寸法線
 62
    7
 10
191.63742710745183
 20
674.55510216230834
 40
15
 41
0.8000000000000001
 50
0
  1
(標準付属)
  0
TEXT
  8
_0-7_枠細線
 62
    5
 10
1180
 20
892.5
 40
12.5
 41
0.7199999999999999
 50
0
  1
２０２０．１０．０１
  0
TEXT
  8
_0-7_枠細線
 62
    5
 10
1180
 20
910
 40
12.5
 41
0.7199999999999999
 50
0
  1
２０２０．０９．０１
  0
TEXT
  8
_0-7_枠細線
 62
    5
 10
938.85037037037023
 20
910
 40
12.5
 41
1
 50
0
  1
クロスバーピッチ変更
  0
TEXT
  8
_0-7_枠細線
 62
    5
 10
938.85037037037023
 20
892.5
 40
12.5
 41
1
 50
0
  1
取外具形状変更
  0
TEXT
  8
_0-7_枠細線
 62
    5
 10
332.83927558776747
 20
690.11552046137581
 40
12.5
 41
0.8
 50
0
  1
２
  0
TEXT
  8
_0-7_枠細線
 62
    5
 10
192.70850667767704
 20
707.26085722578637
 40
12.5
 41
0.8
 50
0
  1
３
  0
ENDSEC
  0
EOF
