  0
SECTION
  2
HEADER
  9
$ACADVER
  1
AC1009
  9
$INSBASE
 10
0
 20
0
 30
0
  9
$EXTMIN
 10
0
 20
0
  9
$EXTMAX
 10
1485
 20
1050
  9
$LIMMIN
 10
0
 20
0
  9
$LIMMAX
 10
1485
 20
1050
  9
$LTSCALE
 40
5
  0
ENDSEC
  0
SECTION
  2
TABLES
  0
TABLE
  2
LTYPE
 70
     9
  0
LTYPE
  2
CONTINUOUS
 70
    64
  3
実線
 72
    65
 73
     0
 40
0.0
  0
LTYPE
  2
DASHED1
 70
    64
  3
--  --  --  --  --  --  --  --  
 72
    65
 73
     2
 40
2.5
 49
1.25
 49
-1.25
  0
LTYPE
  2
DASHED2
 70
    64
  3
----    ----    ----    ----    
 72
    65
 73
     2
 40
5.0
 49
2.5
 49
-2.5
  0
LTYPE
  2
DASHED3
 70
    64
  3
------  ------  ------  ------  
 72
    65
 73
     2
 40
5.0
 49
3.75
 49
-1.25
  0
LTYPE
  2
CENTER1
 70
    64
  3
----- - ----- - ----- - ----- - 
 72
    65
 73
     4
 40
10.0
 49
6.25
 49
-1.25
 49
1.25
 49
-1.25
  0
LTYPE
  2
CENTER2
 70
    64
  3
----------  --  ----------  --  
 72
    65
 73
     4
 40
20.0
 49
12.5
 49
-2.5
 49
2.5
 49
-2.5
  0
LTYPE
  2
PHANTOM1
 70
    64
  3
--- - - --- - - --- - - --- - - 
 72
    65
 73
     6
 40
10.0
 49
3.25
 49
-1.25
 49
1.25
 49
-1.25
 49
1.25
 49
-1.25
  0
LTYPE
  2
PHANTOM2
 70
    64
  3
--------  -  -  --------  -  -  
 72
    65
 73
     6
 40
20.0
 49
10.0
 49
-2.5
 49
1.25
 49
-2.5
 49
1.25
 49
-2.5
  0
LTYPE
  2
DOT
 70
    64
  3
-   -   -   -   -   -   -   -   
 72
    65
 73
     2
 40
2.5
 49
0.625
 49
-1.875
  0
LTYPE
  2
DUMMY
 70
    64
  3
ダミー
 72
    65
 73
     0
 40
0.0
  0
LTYPE
  2
RAND1
 70
    64
  3
ランダム線1
 72
    65
 73
     4
 40
10.0
 49
1.0
 49
-2.0
 49
3.0
 49
-4.0
  0
LTYPE
  2
RAND2
 70
    64
  3
ランダム線2
 72
    65
 73
     4
 40
14.0
 49
2.0
 49
-3.0
 49
4.0
 49
-5.0
  0
LTYPE
  2
RAND3
 70
    64
  3
ランダム線3
 72
    65
 73
     4
 40
18.0
 49
3.0
 49
-4.0
 49
5.0
 49
-6.0
  0
LTYPE
  2
RAND4
 70
    64
  3
ランダム線4
 72
    65
 73
     4
 40
22.0
 49
4.0
 49
-5.0
 49
6.0
 49
-7.0
  0
LTYPE
  2
RAND5
 70
    64
  3
ランダム線5
 72
    65
 73
     4
 40
26.0
 49
5.0
 49
-6.0
 49
7.0
 49
-8.0
  0
LTYPE
  2
LONG1
 70
    64
  3
----------  --  ----------  --  
 72
    65
 73
     4
 40
40.0
 49
32.5
 49
-2.5
 49
2.5
 49
-2.5
  0
LTYPE
  2
LONG2
 70
    64
  3
--------  -  -  --------  -  -  
 72
    65
 73
     6
 40
40.0
 49
30.0
 49
-2.5
 49
1.25
 49
-2.5
 49
1.25
 49
-2.5
  0
LTYPE
  2
LONG3
 70
    64
  3
+++++++++++++++..+++++++++++++++
 72
    65
 73
     2
 40
40.0
 49
37.5
 49
-2.5
  0
LTYPE
  2
LONG4
 70
    64
  3
+++++++++++++++..+++++++++++++++
 72
    65
 73
     2
 40
80.0
 49
75.0
 49
-5.0
  0
LTYPE
  2
LONG5
 70
    64
  3
----------  --  ----------  --  
 72
    65
 73
     4
 40
60.0
 49
37.5
 49
-7.5
 49
7.5
 49
-7.5
  0
LTYPE
  2
dashed
 70
   64
  3
-------   -------------   ------
 72
   65
 73
    2
 40
7.5
 49
6
 49
-1.5
  0
LTYPE
  2
dashed_spaced
 70
   64
  3
----        --------        ----
 72
   65
 73
    2
 40
12
 49
6
 49
-6
  0
LTYPE
  2
long_dashed_dotted
 70
   64
  3
------------- --- --------------
 72
   65
 73
    4
 40
15.25
 49
12
 49
-1.5
 49
0.25
 49
-1.5
  0
LTYPE
  2
long_dashed_double-dotted
 70
   64
  3
----------- --- --- ------------
 72
   65
 73
    6
 40
17
 49
12
 49
-1.5
 49
0.25
 49
-1.5
 49
0.25
 49
-1.5
  0
LTYPE
  2
long_dashed_triplicate-dotted
 70
   64
  3
--------- --- --- --- ----------
 72
   65
 73
    8
 40
18.75
 49
12
 49
-1.5
 49
0.25
 49
-1.5
 49
0.25
 49
-1.5
 49
0.25
 49
-1.5
  0
LTYPE
  2
dotted
 70
   64
  3
   -       -       -       -    
 72
   65
 73
    2
 40
1.75
 49
0.25
 49
-1.5
  0
LTYPE
  2
chain
 70
   64
  3
-------------- -- --------------
 72
   65
 73
    4
 40
18.5
 49
12
 49
-1.5
 49
3.5
 49
-1.5
  0
LTYPE
  2
chain_double_dash
 70
   64
  3
------------ -- -- -------------
 72
   65
 73
    6
 40
23.5
 49
12
 49
-1.5
 49
3.5
 49
-1.5
 49
3.5
 49
-1.5
  0
LTYPE
  2
dashed_dotted
 70
   64
  3
-----------     -     ----------
 72
   65
 73
    4
 40
9.25
 49
6
 49
-1.5
 49
0.25
 49
-1.5
  0
LTYPE
  2
double-dashed_dotted
 70
   64
  3
------   -----------   -   -----
 72
   65
 73
    6
 40
16.75
 49
6
 49
-1.5
 49
6
 49
-1.5
 49
0.25
 49
-1.5
  0
LTYPE
  2
dashed_double-dotted
 70
   64
  3
---------    -    -    ---------
 72
   65
 73
    6
 40
11
 49
6
 49
-1.5
 49
0.25
 49
-1.5
 49
0.25
 49
-1.5
  0
LTYPE
  2
double-dashed_double-dotted
 70
   64
  3
-----   ---------   -   -   ----
 72
   65
 73
    8
 40
18.5
 49
6
 49
-1.5
 49
6
 49
-1.5
 49
0.25
 49
-1.5
 49
0.25
 49
-1.5
  0
LTYPE
  2
dashed_triplicate-dotted
 70
   64
  3
-------    -    -    -    ------
 72
   65
 73
    8
 40
12.75
 49
6
 49
-1.5
 49
0.25
 49
-1.5
 49
0.25
 49
-1.5
 49
0.25
 49
-1.5
  0
LTYPE
  2
double-dashed_triplicate-dotted
 70
   64
  3
-----  ---------  -  -  -  -----
 72
   65
 73
   10
 40
20.25
 49
6
 49
-1.5
 49
6
 49
-1.5
 49
0.25
 49
-1.5
 49
0.25
 49
-1.5
 49
0.25
 49
-1.5
  0
LTYPE
  2
undefined
 70
   64
  3
--------------------------------
 72
   65
 73
    0
 40
0
  0
ENDTAB
  0
TABLE
  2
STYLE
  5
3
100
AcDbSymbolTable
 70
     1
  0
STYLE
  5
10
100
AcDbSymbolTableRecord
100
AcDbTextStyleTableRecord
  2
STANDARD
 70
     0
 40
0.0
 41
1.0
 50
0.0
 71
     0
 42
0.2
  3
txt
  4
bigfont.shx
  0
STYLE
  5
26
100
AcDbSymbolTableRecord
100
AcDbTextStyleTableRecord
  2
TATEGAKI
 70
    68
 40
0.0
 41
1.0
 50
0.0
 71
     0
 42
1.0
  3
txt
  4
bigfont.shx
  0
ENDTAB
  0
TABLE
  2
LAYER
 70
    7
  0
LAYER
  2
_0-0_計極細
 70
   64
 62
    7
  6
CONTINUOUS
  0
LAYER
  2
_0-1_計細線
 70
   64
 62
    7
  6
CONTINUOUS
  0
LAYER
  2
_0-5_寸法線
 70
   64
 62
    7
  6
CONTINUOUS
  0
LAYER
  2
_0-7_枠細線
 70
   64
 62
    7
  6
CONTINUOUS
  0
LAYER
  2
_0-8_枠中線
 70
   64
 62
    7
  6
CONTINUOUS
  0
LAYER
  2
_0-9_枠極太
 70
   64
 62
    7
  6
CONTINUOUS
  0
LAYER
  2
ADD_LINE
 70
   64
 62
    7
  6
CONTINUOUS
  0
ENDTAB
  0
ENDSEC
  0
SECTION
  2
BLOCKS
  0
ENDSEC
  0
SECTION
  2
ENTITIES
  0
LINE
  8
_0-7_枠細線
  6
CONTINUOUS
 62
    5
 10
1185
 20
180
 11
1185
 21
100
  0
TEXT
  8
_0-7_枠細線
 62
    5
 10
937.5
 20
97.5
 40
17.5
 41
1
 50
0
  1
備考
  7
TATEGAKI
  0
TEXT
  8
_0-7_枠細線
 62
    5
 10
937.5
 20
137.5
 40
17.5
 41
1
 50
0
  1
品番
  7
TATEGAKI
  0
TEXT
  8
_0-7_枠細線
 62
    5
 10
937.5
 20
177.5
 40
17.5
 41
1
 50
0
  1
品名
  7
TATEGAKI
  0
LINE
  8
_0-7_枠細線
  6
CONTINUOUS
 62
    5
 10
1185
 20
140
 11
925
 21
140
  0
LINE
  8
_0-7_枠細線
  6
CONTINUOUS
 62
    5
 10
950
 20
180
 11
950
 21
60
  0
LINE
  8
_0-8_枠中線
  6
CONTINUOUS
 62
    5
 10
1425
 20
180
 11
925
 21
180
  0
LINE
  8
_0-8_枠中線
  6
CONTINUOUS
 62
    5
 10
925
 20
180
 11
925
 21
60
  0
LINE
  8
_0-7_枠細線
  6
CONTINUOUS
 62
    5
 10
1245
 20
180
 11
1245
 21
60
  0
TEXT
  8
_0-7_枠細線
 62
    5
 10
1192.5
 20
160
 40
15
 41
1
 50
0
  1
縮　尺
  0
LINE
  8
_0-7_枠細線
  6
CONTINUOUS
 62
    5
 10
1185
 20
155
 11
1245
 21
155
  0
LINE
  8
_0-7_枠細線
  6
CONTINUOUS
 62
    5
 10
1245
 20
100
 11
925
 21
100
  0
LINE
  8
_0-7_枠細線
  6
CONTINUOUS
 62
    5
 10
1425
 20
90
 11
1245
 21
90
  0
LINE
  8
_0-7_枠細線
  6
CONTINUOUS
 62
    5
 10
1245
 20
120
 11
1425
 21
120
  0
LINE
  8
_0-7_枠細線
  6
CONTINUOUS
 62
    5
 10
1425
 20
140
 11
1245
 21
140
  0
TEXT
  8
_0-7_枠細線
 62
    5
 10
1255
 20
147.5
 40
25
 41
0.8
 50
0
  1
株式会社シマブン
  0
TEXT
  8
_0-7_枠細線
 62
    5
 10
1252.5
 20
60
 40
15
 41
1
 50
0
  1
年月日
  0
TEXT
  8
_0-7_枠細線
 62
    5
 10
1252.5
 20
75
 40
15
 41
1
 50
0
  1
作　成
  0
TEXT
  8
_0-7_枠細線
 62
    5
 10
1256.25
 20
122.5
 40
15
 41
1
 50
0
  1
承 認
  0
LINE
  8
_0-7_枠細線
  6
CONTINUOUS
 62
    5
 10
1305
 20
140
 11
1305
 21
60
  0
TEXT
  8
_0-7_枠細線
 62
    5
 10
1316.25
 20
122.5
 40
15
 41
1
 50
0
  1
検 図
  0
LINE
  8
_0-7_枠細線
  6
CONTINUOUS
 62
    5
 10
1365
 20
140
 11
1365
 21
90
  0
TEXT
  8
_0-7_枠細線
 62
    5
 10
1375
 20
95
 40
20
 41
1
 50
0
  1
藤戸
  0
TEXT
  8
_0-7_枠細線
 62
    5
 10
1376.25
 20
122.5
 40
15
 41
1
 50
0
  1
設 計
  0
TEXT
  8
_0-7_枠細線
 62
    5
 10
1193.9999999999998
 20
117.5
 40
20
 41
0.7000000000000001
 50
0
  1
１：５
  0
TEXT
  8
_0-7_枠細線
 62
    5
 10
960.5
 20
158.74999999999994
 40
20.000000000000007
 41
0.5999999999999998
 50
0
  1
セーフティグレーチングＨ２０タイプ
  0
TEXT
  8
_0-7_枠細線
 62
    5
 10
1068.5
 20
141.25
 40
20.000000000000007
 41
0.5999999999999998
 50
0
  1
集水マス　補強仕様
  0
TEXT
  8
_0-7_枠細線
 62
    5
 10
960.5
 20
69.999999999999858
 40
20
 41
0.5999999999999998
 50
0
  1
色については表参照のこと
  0
TEXT
  8
_0-7_枠細線
 62
    5
 10
960.5
 20
109.99999999999993
 40
20.000000000000007
 41
0.5999999999999998
 50
0
  1
ＧＲＳＫ－２０Ｋ４００
  0
LINE
  8
_0-7_枠細線
  6
CONTINUOUS
 62
    5
 10
1425
 20
942.5
 11
890
 21
942.5
  0
TEXT
  8
_0-7_枠細線
 62
    5
 10
895
 20
945
 40
12.5
 41
1
 50
0
  1
記号
  0
TEXT
  8
_0-7_枠細線
 62
    5
 10
996.875
 20
945
 40
12.5
 41
1
 50
0
  1
訂　 正　 記　 事
  0
TEXT
  8
_0-7_枠細線
 62
    5
 10
1181.25
 20
945
 40
12.5
 41
1
 50
0
  1
訂 正 年 月 日
  0
TEXT
  8
_0-7_枠細線
 62
    5
 10
1306.25
 20
945
 40
12.5
 41
1
 50
0
  1
備　　　　　考
  0
LINE
  8
_0-7_枠細線
  6
CONTINUOUS
 62
    5
 10
1425
 20
925
 11
890
 21
925
  0
TEXT
  8
_0-7_枠細線
 62
    5
 10
961.00000000000023
 20
453.73352999148574
 40
15
 41
0.8000000000000001
 50
0
  1
品　　番
  0
LINE
  8
_0-7_枠細線
  6
CONTINUOUS
 62
    5
 10
925
 20
398.7335299914858
 11
1245.0000000000002
 21
398.7335299914858
  0
LINE
  8
_0-7_枠細線
  6
CONTINUOUS
 62
    5
 10
925
 20
423.7335299914858
 11
1245.0000000000002
 21
423.7335299914858
  0
LINE
  8
_0-7_枠細線
  6
CONTINUOUS
 62
    5
 10
925
 20
448.73352999148574
 11
1245.0000000000002
 21
448.73352999148574
  0
TEXT
  8
_0-7_枠細線
 62
    5
 10
1089.0000000000005
 20
453.73352999148574
 40
15
 41
0.8000000000000001
 50
0
  1
色
  0
TEXT
  8
_0-7_枠細線
 62
    5
 10
1171.0000000000005
 20
453.73352999148574
 40
15
 41
0.8000000000000001
 50
0
  1
備　　考
  0
LINE
  8
_0-7_枠細線
  6
CONTINUOUS
 62
    5
 10
925
 20
473.73352999148574
 11
1245.0000000000002
 21
473.73352999148574
  0
LINE
  8
_0-7_枠細線
  6
CONTINUOUS
 62
    5
 10
925
 20
248.73352999148577
 11
1245.0000000000002
 21
248.73352999148577
  0
LINE
  8
_0-7_枠細線
  6
CONTINUOUS
 62
    5
 10
925
 20
373.73352999148574
 11
1245.0000000000002
 21
373.73352999148574
  0
LINE
  8
_0-7_枠細線
  6
CONTINUOUS
 62
    5
 10
925
 20
348.73352999148574
 11
1245.0000000000002
 21
348.73352999148574
  0
LINE
  8
_0-7_枠細線
  6
CONTINUOUS
 62
    5
 10
925
 20
323.73352999148574
 11
1245.0000000000002
 21
323.73352999148574
  0
LINE
  8
_0-7_枠細線
  6
CONTINUOUS
 62
    5
 10
925
 20
298.73352999148574
 11
1245.0000000000002
 21
298.73352999148574
  0
LINE
  8
_0-7_枠細線
  6
CONTINUOUS
 62
    5
 10
925
 20
273.73352999148574
 11
1245.0000000000002
 21
273.73352999148574
  0
TEXT
  8
_0-7_枠細線
 62
    5
 10
1023.75
 20
478.73352999148574
 40
17.5
 41
1
 50
0
  1
品番表
  0
LINE
  8
_0-7_枠細線
  6
CONTINUOUS
 62
    5
 10
925
 20
223.73352999148577
 11
1245.0000000000002
 21
223.73352999148577
  0
LINE
  8
_0-7_枠細線
  6
CONTINUOUS
 62
    5
 10
1245.0000000000002
 20
473.73352999148574
 11
1245.0000000000002
 21
223.73352999148577
  0
LINE
  8
_0-7_枠細線
  6
CONTINUOUS
 62
    5
 10
1145
 20
473.73352999148574
 11
1145
 21
223.73352999148577
  0
LINE
  8
_0-7_枠細線
  6
CONTINUOUS
 62
    5
 10
1045.0000000000005
 20
473.73352999148574
 11
1045.0000000000005
 21
223.73352999148577
  0
LINE
  8
_0-7_枠細線
  6
CONTINUOUS
 62
    5
 10
925
 20
473.73352999148574
 11
925
 21
223.73352999148577
  0
LINE
  8
_0-7_枠細線
  6
CONTINUOUS
 62
    5
 10
1290.7925839968264
 20
393.7335299914858
 11
1290.7925839968264
 21
473.73352999148574
  0
TEXT
  8
_0-7_枠細線
 62
    5
 10
1313.2925839968264
 20
451.23352999148574
 40
15.000000000000004
 41
1
 50
0
  1
耐荷重
  0
TEXT
  8
_0-7_枠細線
 62
    5
 10
1298.2925839968264
 20
401.2335299914858
 40
15.000000000000004
 41
1
 50
0
  1
（歩道用）
  0
LINE
  8
_0-7_枠細線
  6
CONTINUOUS
 62
    5
 10
1380.7925839968264
 20
393.7335299914858
 11
1380.7925839968264
 21
473.73352999148574
  0
LINE
  8
_0-7_枠細線
  6
CONTINUOUS
 62
    5
 10
1290.7925839968264
 20
473.73352999148574
 11
1380.7925839968264
 21
473.73352999148574
  0
LINE
  8
_0-7_枠細線
  6
CONTINUOUS
 62
    5
 10
1290.7925839968264
 20
443.7335299914858
 11
1380.7925839968264
 21
443.7335299914858
  0
LINE
  8
_0-7_枠細線
  6
CONTINUOUS
 62
    5
 10
1290.7925839968264
 20
393.7335299914858
 11
1380.7925839968264
 21
393.7335299914858
  0
TEXT
  8
_0-7_枠細線
 62
    5
 10
1305.7925839968264
 20
421.2335299914858
 40
15.000000000000004
 41
1
 50
0
  1
5.0kN/㎡
  0
TEXT
  8
_0-7_枠細線
 62
    5
 10
1255
 20
95
 40
20
 41
1
 50
0
  1
大野
  0
TEXT
  8
_0-7_枠細線
 62
    5
 10
1315
 20
95
 40
20
 41
1
 50
0
  1
深川
  0
TEXT
  8
_0-7_枠細線
 62
    5
 10
1309.9999999999998
 20
67.499999999999858
 40
15.000000000000009
 41
0.6666666666666665
 50
0
  1
２０１７年０４月０１日
  0
TEXT
  8
_0-7_枠細線
 62
    5
 10
929.75000000000045
 20
428.7335299914858
 40
15
 41
0.5666666666666667
 50
0
  1
ＧＲＳＫ－２０Ｋ４００－Ｂ
  0
TEXT
  8
_0-7_枠細線
 62
    5
 10
929.75000000000045
 20
403.7335299914858
 40
15
 41
0.5666666666666667
 50
0
  1
ＧＲＳＫ－２０Ｋ４００－Ｇ
  0
TEXT
  8
_0-7_枠細線
 62
    5
 10
929.75000000000045
 20
378.73352999148574
 40
15
 41
0.5666666666666667
 50
0
  1
ＧＲＳＫ－２０Ｋ４００－Ｓ
  0
TEXT
  8
_0-7_枠細線
 62
    5
 10
929.75000000000045
 20
353.73352999148574
 40
15
 41
0.5666666666666667
 50
0
  1
ＧＲＳＫ－２０Ｋ４００－Ｐ
  0
TEXT
  8
_0-7_枠細線
 62
    5
 10
929.75000000000045
 20
328.73352999148574
 40
15
 41
0.5666666666666667
 50
0
  1
ＧＲＳＫ－２０Ｋ４００－Ａ
  0
TEXT
  8
_0-7_枠細線
 62
    5
 10
929.75000000000045
 20
303.73352999148574
 40
15
 41
0.5666666666666667
 50
0
  1
ＧＲＳＫ－２０Ｋ４００－Ｄ
  0
TEXT
  8
_0-7_枠細線
 62
    5
 10
929.75000000000045
 20
278.73352999148574
 40
15
 41
0.5666666666666667
 50
0
  1
ＧＲＳＫ－２０Ｋ４００－Ｍ
  0
TEXT
  8
_0-7_枠細線
 62
    5
 10
929.75000000000045
 20
253.73352999148577
 40
15
 41
0.5666666666666667
 50
0
  1
ＧＲＳＫ－２０Ｋ４００－Ｃ
  0
TEXT
  8
_0-7_枠細線
 62
    5
 10
929.75000000000045
 20
228.73352999148577
 40
15
 41
0.5666666666666667
 50
0
  1
ＧＲＳＫ－２０Ｋ４００－Ｋ
  0
LINE
  8
_0-9_枠極太
  6
CONTINUOUS
 62
    5
 10
60
 20
60
 11
60
 21
960
  0
LINE
  8
_0-9_枠極太
  6
CONTINUOUS
 62
    5
 10
60
 20
960
 11
1425
 21
960
  0
LINE
  8
_0-9_枠極太
  6
CONTINUOUS
 62
    5
 10
1425
 20
960
 11
1425
 21
60
  0
LINE
  8
_0-9_枠極太
  6
CONTINUOUS
 62
    5
 10
1425
 20
60
 11
60
 21
60
  0
LINE
  8
_0-7_枠細線
  6
CONTINUOUS
 62
    5
 10
915
 20
926.44233397174685
 11
907.5
 21
941.44233397174685
  0
LINE
  8
_0-7_枠細線
  6
CONTINUOUS
 62
    5
 10
900
 20
926.44233397174685
 11
915
 21
926.44233397174685
  0
LINE
  8
_0-7_枠細線
  6
CONTINUOUS
 62
    5
 10
907.5
 20
941.44233397174685
 11
900
 21
926.44233397174685
  0
TEXT
  8
_0-7_枠細線
 62
    5
 10
1180
 20
927.5
 40
12.5
 41
0.7199999999999999
 50
0
  1
２０１９．０９．０１
  0
TEXT
  8
_0-7_枠細線
 62
    5
 10
938.85037037037023
 20
927.5
 40
12.5
 41
1
 50
0
  1
アンカー材質･厚み変更
  0
TEXT
  8
_0-7_枠細線
 62
    5
 10
902.36515126814822
 20
925.49351400689704
 40
12.5
 41
0.8
 50
0
  1
１
  0
LINE
  8
_0-7_枠細線
  6
CONTINUOUS
 62
    5
 10
1425
 20
907.5
 11
890
 21
907.5
  0
LINE
  8
_0-7_枠細線
  6
CONTINUOUS
 62
    5
 10
1425
 20
890
 11
890
 21
890
  0
TEXT
  8
_0-7_枠細線
 62
    5
 10
902.36515126814822
 20
908.63533172636664
 40
12.5
 41
0.8
 50
0
  1
２
  0
LINE
  8
_0-7_枠細線
  6
CONTINUOUS
 62
    5
 10
907.5
 20
923.94233397174685
 11
900
 21
908.94233397174685
  0
LINE
  8
_0-7_枠細線
  6
CONTINUOUS
 62
    5
 10
900
 20
908.94233397174685
 11
915
 21
908.94233397174685
  0
LINE
  8
_0-7_枠細線
  6
CONTINUOUS
 62
    5
 10
915
 20
908.94233397174685
 11
907.5
 21
923.94233397174685
  0
TEXT
  8
_0-7_枠細線
 62
    5
 10
902.36515126814822
 20
890.89465008156549
 40
12.5
 41
0.8
 50
0
  1
３
  0
LINE
  8
_0-7_枠細線
  6
CONTINUOUS
 62
    5
 10
907.5
 20
906.44233397174685
 11
900
 21
891.44233397174685
  0
LINE
  8
_0-7_枠細線
  6
CONTINUOUS
 62
    5
 10
900
 20
891.44233397174685
 11
915
 21
891.44233397174685
  0
LINE
  8
_0-7_枠細線
  6
CONTINUOUS
 62
    5
 10
915
 20
891.44233397174685
 11
907.5
 21
906.44233397174685
  0
LINE
  8
_0-7_枠細線
  6
CONTINUOUS
 62
    5
 10
1275
 20
890
 11
1275
 21
959.99999999999909
  0
LINE
  8
_0-7_枠細線
  6
CONTINUOUS
 62
    5
 10
1175
 20
890
 11
1175
 21
959.99999999999909
  0
LINE
  8
_0-7_枠細線
  6
CONTINUOUS
 62
    5
 10
925
 20
890
 11
925
 21
959.99999999999909
  0
LINE
  8
_0-7_枠細線
  6
CONTINUOUS
 62
    5
 10
890
 20
890
 11
890
 21
959.99999999999909
  0
TEXT
  8
_0-7_枠細線
 62
    5
 10
1059.0000000000005
 20
403.73352999148574
 40
15
 41
0.8000000000000001
 50
0
  1
ライトグレー
  0
TEXT
  8
_0-7_枠細線
 62
    5
 10
1071.0000000000005
 20
428.73352999148574
 40
15
 41
0.8000000000000001
 50
0
  1
ベージュ
  0
TEXT
  8
_0-7_枠細線
 62
    5
 10
1071.0000000000005
 20
378.73352999148574
 40
15
 41
0.8000000000000001
 50
0
  1
ホワイト
  0
TEXT
  8
_0-7_枠細線
 62
    5
 10
1077.0000000000005
 20
353.73352999148574
 40
15
 41
0.8000000000000001
 50
0
  1
ピンク
  0
TEXT
  8
_0-7_枠細線
 62
    5
 10
1077.0000000000005
 20
328.73352999148574
 40
15
 41
0.8000000000000001
 50
0
  1
ブルー
  0
TEXT
  8
_0-7_枠細線
 62
    5
 10
1059.0000000000005
 20
303.73352999148568
 40
15
 41
0.8000000000000001
 50
0
  1
ダークグレー
  0
TEXT
  8
_0-7_枠細線
 62
    5
 10
1077.0000000000005
 20
278.73352999148568
 40
15
 41
0.8000000000000001
 50
0
  1
ウッド
  0
TEXT
  8
_0-7_枠細線
 62
    5
 10
1071.0000000000005
 20
228.73352999148568
 40
15
 41
0.8000000000000001
 50
0
  1
ブラック
  0
TEXT
  8
_0-7_枠細線
 62
    5
 10
1071.0000000000005
 20
253.73352999148568
 40
15
 41
0.8000000000000001
 50
0
  1
ブラウン
  0
LINE
  8
_0-0_計極細
  6
CENTER1
 62
    2
 10
1116.3976690451429
 20
675.23749258327052
 11
1116.3976690451429
 21
713.3074925832741
  0
LINE
  8
_0-0_計極細
  6
CONTINUOUS
 62
    2
 10
871.39766904514261
 20
677.94899027454039
 11
871.39766904514261
 21
636.94899027453994
  0
LINE
  8
_0-0_計極細
  6
CONTINUOUS
 62
    2
 10
921.39766904514306
 20
636.94899027453994
 11
871.39766904514261
 21
636.94899027453994
  0
LINE
  8
_0-0_計極細
  6
CONTINUOUS
 62
    2
 10
871.39766904514261
 20
677.94899027454039
 11
852.89102075807364
 21
677.94899027454039
  0
LINE
  8
_0-0_計極細
  6
CONTINUOUS
 62
    2
 10
921.39766904514306
 20
636.94899027453994
 11
921.39766904514306
 21
621.2040300976729
  0
LINE
  8
_0-0_計極細
  6
CONTINUOUS
 62
    2
 10
898.94448430614898
 20
621.2040301675346
 11
914.68944441315466
 21
636.94899027453994
  0
LINE
  8
_0-0_計極細
  6
CONTINUOUS
 62
    2
 10
856.51807756696394
 20
621.20403029954275
 11
872.26303754196147
 21
636.94899027453994
  0
LINE
  8
_0-0_計極細
  6
CONTINUOUS
 62
    2
 10
852.89102075807364
 20
660.0033803618453
 11
870.83663067076884
 21
677.94899027454039
  0
LINE
  8
_0-0_計極細
  6
CONTINUOUS
 62
    2
 10
894.70184363223041
 20
621.20403018073557
 11
910.44680372603466
 21
636.94899027453994
  0
LINE
  8
_0-0_計極細
  6
CONTINUOUS
 62
    2
 10
852.89102075807364
 20
621.81961417777177
 11
871.39766904514261
 21
640.32626246484074
  0
LINE
  8
_0-0_計極細
  6
CONTINUOUS
 62
    2
 10
852.89102075807364
 20
664.24602104896485
 11
866.59398998364918
 21
677.94899027454039
  0
LINE
  8
_0-0_計極細
  6
CONTINUOUS
 62
    2
 10
890.45920295831206
 20
621.20403019393655
 11
906.20416303891557
 21
636.94899027453994
  0
LINE
  8
_0-0_計極細
  6
CONTINUOUS
 62
    2
 10
852.89102075807364
 20
626.06225486489143
 11
871.39766904514261
 21
644.56890315195994
  0
LINE
  8
_0-0_計極細
  6
CONTINUOUS
 62
    2
 10
852.89102075807364
 20
668.48866173608417
 11
862.35134929652986
 21
677.94899027454039
  0
CIRCLE
  8
_0-0_計極細
  6
CONTINUOUS
 62
    2
 10
863.62855346397396
 20
687.07103652453623
 40
0.3318518518518431
  0
CIRCLE
  8
_0-0_計極細
  6
CONTINUOUS
 62
    2
 10
857.43003494545621
 20
681.09770319120287
 40
0.3318518518518431
  0
CIRCLE
  8
_0-0_計極細
  6
CONTINUOUS
 62
    2
 10
863.7944793899004
 20
681.73770319120285
 40
0.3318518518518431
  0
CIRCLE
  8
_0-0_計極細
  6
CONTINUOUS
 62
    2
 10
871.36781272323356
 20
682.91103652453614
 40
0.3318518518518431
  0
CIRCLE
  8
_0-0_計極細
  6
CONTINUOUS
 62
    2
 10
888.43447938990028
 20
689.95103652453633
 40
0.3318518518518431
  0
CIRCLE
  8
_0-0_計極細
  6
CONTINUOUS
 62
    2
 10
903.36781272323321
 20
695.92436985786946
 40
0.3318518518518431
  0
CIRCLE
  8
_0-0_計極細
  6
CONTINUOUS
 62
    2
 10
906.78114605656663
 20
686.21770319120276
 40
0.3318518518518431
  0
CIRCLE
  8
_0-0_計極細
  6
CONTINUOUS
 62
    2
 10
891.84781272323357
 20
685.89770319120294
 40
0.3318518518518431
  0
CIRCLE
  8
_0-0_計極細
  6
CONTINUOUS
 62
    2
 10
884.80781272323372
 20
694.85770319120263
 40
0.3318518518518431
  0
CIRCLE
  8
_0-0_計極細
  6
CONTINUOUS
 62
    2
 10
875.53447938990064
 20
678.55770319120302
 40
0.3318518518518431
  0
CIRCLE
  8
_0-0_計極細
  6
CONTINUOUS
 62
    2
 10
887.80114605656672
 20
677.81103652453612
 40
0.3318518518518431
  0
CIRCLE
  8
_0-0_計極細
  6
CONTINUOUS
 62
    2
 10
902.84114605656669
 20
675.57103652453623
 40
0.3318518518518431
  0
CIRCLE
  8
_0-0_計極細
  6
CONTINUOUS
 62
    2
 10
895.26781272323319
 20
672.15770319120281
 40
0.3318518518518431
  0
CIRCLE
  8
_0-0_計極細
  6
CONTINUOUS
 62
    2
 10
886.41447938990029
 20
664.05103652453636
 40
0.3318518518518431
  0
CIRCLE
  8
_0-0_計極細
  6
CONTINUOUS
 62
    2
 10
902.84114605656669
 20
668.42436985786981
 40
0.3318518518518431
  0
CIRCLE
  8
_0-0_計極細
  6
CONTINUOUS
 62
    2
 10
878.17447938989994
 20
652.15770319120315
 40
0.3318518518518431
  0
CIRCLE
  8
_0-0_計極細
  6
CONTINUOUS
 62
    2
 10
874.76114605656664
 20
641.38436985786984
 40
0.3318518518518431
  0
CIRCLE
  8
_0-0_計極細
  6
CONTINUOUS
 62
    2
 10
879.98781272323356
 20
645.43770319120313
 40
0.3318518518518431
  0
CIRCLE
  8
_0-0_計極細
  6
CONTINUOUS
 62
    2
 10
883.72114605656657
 20
640.31770319120312
 40
0.3318518518518431
  0
CIRCLE
  8
_0-0_計極細
  6
CONTINUOUS
 62
    2
 10
907.30114605656684
 20
651.05103652453636
 40
0.3318518518518431
  0
CIRCLE
  8
_0-0_計極細
  6
CONTINUOUS
 62
    2
 10
900.58114605656669
 20
647.74436985786974
 40
0.3318518518518431
  0
CIRCLE
  8
_0-0_計極細
  6
CONTINUOUS
 62
    2
 10
904.31447938990027
 20
646.25103652453629
 40
0.3318518518518431
  0
CIRCLE
  8
_0-0_計極細
  6
CONTINUOUS
 62
    2
 10
902.1811460565666
 20
640.70436985786966
 40
0.3318518518518431
  0
CIRCLE
  8
_0-0_計極細
  6
CONTINUOUS
 62
    2
 10
914.12781272323343
 20
641.34436985786988
 40
0.3318518518518431
  0
CIRCLE
  8
_0-0_計極細
  6
CONTINUOUS
 62
    2
 10
921.91447938989995
 20
643.26436985786972
 40
0.3318518518518431
  0
CIRCLE
  8
_0-0_計極細
  6
CONTINUOUS
 62
    2
 10
930.12781272323298
 20
634.30436985787003
 40
0.3318518518518431
  0
CIRCLE
  8
_0-0_計極細
  6
CONTINUOUS
 62
    2
 10
925.96781272323312
 20
625.34436985786999
 40
0.3318518518518431
  0
CIRCLE
  8
_0-0_計極細
  6
CONTINUOUS
 62
    2
 10
915.96781272323358
 20
651.51325874675865
 40
0.3318518518518431
  0
CIRCLE
  8
_0-0_計極細
  6
CONTINUOUS
 62
    2
 10
924.82114605656648
 20
671.99325874675822
 40
0.3318518518518431
  0
CIRCLE
  8
_0-0_計極細
  6
CONTINUOUS
 62
    2
 10
933.88781272323286
 20
666.01992541342509
 40
0.3318518518518431
  0
CIRCLE
  8
_0-0_計極細
  6
CONTINUOUS
 62
    2
 10
934.20781272323279
 20
655.246592080092
 40
0.3318518518518431
  0
CIRCLE
  8
_0-0_計極細
  6
CONTINUOUS
 62
    2
 10
913.06114605656671
 20
673.08659208009192
 40
0.3318518518518431
  0
CIRCLE
  8
_0-0_計極細
  6
CONTINUOUS
 62
    2
 10
900.88781272323354
 20
686.27696245046207
 40
1.0953188836088352
  0
CIRCLE
  8
_0-0_計極細
  6
CONTINUOUS
 62
    2
 10
869.83054090237249
 20
690.4347310152807
 40
1.0953188836088352
  0
CIRCLE
  8
_0-0_計極細
  6
CONTINUOUS
 62
    2
 10
899.19447938990004
 20
666.51696245046253
 40
1.0953188836088352
  0
CIRCLE
  8
_0-0_計極細
  6
CONTINUOUS
 62
    2
 10
885.75447938989998
 20
672.59696245046234
 40
1.0953188836088352
  0
CIRCLE
  8
_0-0_計極細
  6
CONTINUOUS
 62
    2
 10
873.99447938990022
 20
649.79696245046227
 40
1.0953188836088352
  0
CIRCLE
  8
_0-0_計極細
  6
CONTINUOUS
 62
    2
 10
905.91447938989972
 20
642.11696245046244
 40
1.0953188836088352
  0
CIRCLE
  8
_0-0_計極細
  6
CONTINUOUS
 62
    2
 10
927.5011460565662
 20
639.95696245046258
 40
1.0953188836088352
  0
CIRCLE
  8
_0-0_計極細
  6
CONTINUOUS
 62
    2
 10
930.38114605656597
 20
628.75696245046288
 40
1.0953188836088352
  0
CIRCLE
  8
_0-0_計極細
  6
CONTINUOUS
 62
    2
 10
857.71229317772463
 20
690.97029578379545
 40
1.0953188836088352
  0
LINE
  8
_0-0_計極細
  6
CONTINUOUS
 62
    2
 10
940.89766904514272
 20
681.94899027453982
 11
941.39766904514272
 21
681.94899027453982
  0
LINE
  8
_0-0_計極細
  6
CONTINUOUS
 62
    2
 10
941.39766904514272
 20
681.94899027453982
 11
941.39766904514272
 21
621.2040300976729
  0
CIRCLE
  8
_0-0_計極細
  6
CONTINUOUS
 62
    2
 10
937.26520855656554
 20
672.35696245046245
 40
1.0953188836088352
  0
CIRCLE
  8
_0-0_計極細
  6
CONTINUOUS
 62
    2
 10
936.67003494545497
 20
639.53103652453649
 40
0.3318518518518431
  0
CIRCLE
  8
_0-0_計極細
  6
CONTINUOUS
 62
    2
 10
937.47003494545561
 20
625.93739390463475
 40
0.3318518518518431
  0
CIRCLE
  8
_0-0_計極細
  6
CONTINUOUS
 62
    2
 10
930.04781272323032
 20
660.89029578379586
 40
1.0953188836088352
  0
LINE
  8
_0-0_計極細
  6
CONTINUOUS
 62
    2
 10
906.39766904514306
 20
704.94899027454028
 11
906.39766904514306
 21
697.94899027454039
  0
LINE
  8
_0-0_計極細
  6
CONTINUOUS
 62
    2
 10
906.39766904514306
 20
704.94899027454028
 11
852.89102075807364
 21
704.94899027454028
  0
LINE
  8
_0-0_計極細
  6
CONTINUOUS
 62
    2
 10
911.39766904514306
 20
697.94899027454039
 11
852.89102075807364
 21
697.94899027454039
  0
LINE
  8
_0-0_計極細
  6
CONTINUOUS
 62
    2
 10
911.39766904514306
 20
704.94899027454028
 11
906.39766904514306
 21
704.94899027454028
  0
LINE
  8
_0-0_計極細
  6
CONTINUOUS
 62
    2
 10
911.39766904514306
 20
704.44899027453982
 11
911.39766904514306
 21
704.94899027454028
  0
LINE
  8
_0-0_計極細
  6
CONTINUOUS
 62
    2
 10
911.27881489132687
 20
697.94899027454039
 11
911.39766904514261
 21
698.06784442835567
  0
LINE
  8
_0-0_計極細
  6
CONTINUOUS
 62
    2
 10
908.73323047905558
 20
697.94899027454039
 11
911.39766904514306
 21
700.61342884062708
  0
LINE
  8
_0-0_計極細
  6
CONTINUOUS
 62
    2
 10
906.39766904514306
 20
698.15901325289872
 11
911.39766904514306
 21
703.15901325289872
  0
LINE
  8
_0-0_計極細
  6
CONTINUOUS
 62
    2
 10
906.39766904514306
 20
700.70459766517058
 11
910.64206165451219
 21
704.94899027454028
  0
LINE
  8
_0-0_計極細
  6
CONTINUOUS
 62
    2
 10
906.39766904514306
 20
703.2501820774421
 11
908.09647724224101
 21
704.94899027454028
  0
LINE
  8
_0-0_計極細
  6
CONTINUOUS
 62
    2
 10
911.39766904514306
 20
703.58041015118499
 11
910.02908892178789
 21
704.94899027454028
  0
LINE
  8
_0-0_計極細
  6
CONTINUOUS
 62
    2
 10
911.39766904514306
 20
701.03482573891347
 11
907.48350450951637
 21
704.94899027454028
  0
LINE
  8
_0-0_計極細
  6
CONTINUOUS
 62
    2
 10
906.39766904514306
 20
703.48924132664183
 11
911.39766904514306
 21
698.48924132664183
  0
LINE
  8
_0-0_計極細
  6
CONTINUOUS
 62
    2
 10
906.39766904514306
 20
700.94365691437031
 11
909.39233568497252
 21
697.94899027454039
  0
LINE
  8
_0-0_計極細
  6
CONTINUOUS
 62
    2
 10
906.39766904514306
 20
698.3980725020989
 11
906.84675127270111
 21
697.94899027454039
  0
LINE
  8
_0-0_計極細
  6
CONTINUOUS
 62
    2
 10
901.09647723856426
 20
697.94899027086387
 11
906.39766904514306
 21
703.2501820774421
  0
LINE
  8
_0-0_計極細
  6
CONTINUOUS
 62
    2
 10
888.36855516837954
 20
697.94899026203723
 11
895.36855518088282
 21
704.94899027454017
  0
LINE
  8
_0-0_計極細
  6
CONTINUOUS
 62
    2
 10
875.64063309819517
 20
697.94899025321047
 11
882.64063311952509
 21
704.94899027454028
  0
LINE
  8
_0-0_計極細
  6
CONTINUOUS
 62
    2
 10
862.91271102801034
 20
697.94899024438325
 11
869.91271105816691
 21
704.94899027454028
  0
LINE
  8
_0-0_計極細
  6
CONTINUOUS
 62
    2
 10
852.89102075807364
 20
700.65522203580474
 11
857.1847889968094
 21
704.94899027454017
  0
LINE
  8
_0-0_計極細
  6
DASHED2
 62
    2
 10
894.7325162034723
 20
697.94899026645044
 11
901.73251621156192
 21
704.94899027454028
  0
LINE
  8
_0-0_計極細
  6
DASHED2
 62
    2
 10
882.00459413328713
 20
697.94899025762379
 11
889.00459415020407
 21
704.94899027454028
  0
LINE
  8
_0-0_計極細
  6
DASHED2
 62
    2
 10
869.27667206310298
 20
697.94899024879714
 11
876.276672088846
 21
704.94899027454028
  0
LINE
  8
_0-0_計極細
  6
DASHED2
 62
    2
 10
856.54874999291849
 20
697.9489902399705
 11
863.54875002748827
 21
704.94899027454028
  0
CIRCLE
  8
_0-0_計極細
  6
CONTINUOUS
 62
    2
 10
893.50559050101106
 20
693.18362911712813
 40
1.0953188836088352
  0
LINE
  8
_0-0_計極細
  6
CONTINUOUS
 62
    2
 10
885.21362811285167
 20
651.87801097204203
 11
882.1354468229207
 21
660.33524455911538
  0
LINE
  8
_0-0_計極細
  6
CONTINUOUS
 62
    2
 10
915.21005371712931
 20
672.37341697866304
 11
918.28823500706017
 21
663.9161833915897
  0
LINE
  8
_0-0_計極細
  6
CONTINUOUS
 62
    2
 10
882.1354468229207
 20
660.33524455911538
 11
915.21005371712931
 21
672.37341697866304
  0
LINE
  8
_0-0_計極細
  6
CONTINUOUS
 62
    2
 10
885.21362811285167
 20
651.87801097204203
 11
918.28823500706017
 21
663.9161833915897
  0
LINE
  8
_0-0_計極細
  6
CENTER1
 62
    2
 10
880.70127743269063
 20
655.02444974156094
 11
919.1198897222298
 21
669.00768103258179
  0
LINE
  8
_0-0_計極細
  6
CONTINUOUS
 62
    2
 10
896.39766904514306
 20
636.94899027453994
 11
896.39766904514306
 21
663.40032708352953
  0
LINE
  8
_0-0_計極細
  6
CONTINUOUS
 62
    2
 10
896.39766904514306
 20
663.40032708352953
 11
887.39766904514295
 21
663.40032708352953
  0
LINE
  8
_0-0_計極細
  6
CONTINUOUS
 62
    2
 10
887.39766904514295
 20
663.40032708352953
 11
887.39766904514295
 21
636.94899027453994
  0
LINE
  8
_0-0_計極細
  6
CENTER1
 62
    2
 10
891.89766904514295
 20
631.98294610386813
 11
891.89766904514295
 21
665.96575918229519
  0
ARC
  8
_0-1_計細線
  6
CONTINUOUS
 62
    3
 10
914.39766904514295
 20
684.94899027453982
 40
3.0000000000000004
 50
179.99999999999983
 51
269.99999999999977
  0
LINE
  8
_0-1_計細線
  6
CONTINUOUS
 62
    3
 10
911.39766904514306
 20
684.94899027453982
 11
911.39766904514306
 21
704.44899027453982
  0
LINE
  8
_0-1_計細線
  6
CONTINUOUS
 62
    3
 10
914.39766904514295
 20
681.94899027453982
 11
940.89766904514272
 21
681.94899027453982
  0
LINE
  8
_0-1_計細線
  6
CONTINUOUS
 62
    3
 10
941.39766904514272
 20
682.44899027454028
 11
940.89766904514272
 21
681.94899027453982
  0
LINE
  8
_0-1_計細線
  6
CONTINUOUS
 62
    3
 10
941.39766904514272
 20
684.44899027454017
 11
941.39766904514272
 21
682.44899027454028
  0
LINE
  8
_0-1_計細線
  6
CONTINUOUS
 62
    3
 10
940.89766904514272
 20
684.94899027453982
 11
941.39766904514272
 21
684.44899027454017
  0
LINE
  8
_0-1_計細線
  6
CONTINUOUS
 62
    3
 10
914.39766904514295
 20
684.94899027453982
 11
940.89766904514272
 21
684.94899027453982
  0
LINE
  8
_0-1_計細線
  6
CONTINUOUS
 62
    3
 10
911.89766904514272
 20
704.94899027454028
 11
911.39766904514306
 21
704.44899027453982
  0
LINE
  8
_0-1_計細線
  6
CONTINUOUS
 62
    3
 10
913.89766904514306
 20
704.94899027454028
 11
911.89766904514272
 21
704.94899027454028
  0
LINE
  8
_0-1_計細線
  6
CONTINUOUS
 62
    3
 10
914.39766904514295
 20
704.44899027453982
 11
913.89766904514306
 21
704.94899027454028
  0
LINE
  8
_0-1_計細線
  6
CONTINUOUS
 62
    3
 10
914.39766904514295
 20
684.94899027453982
 11
914.39766904514295
 21
704.44899027453982
  0
LINE
  8
_0-5_寸法線
  6
CONTINUOUS
 62
    7
 10
900.19766904514313
 20
681.94899027454062
 11
822.16437521994965
 21
681.94899027454073
  0
LINE
  8
_0-5_寸法線
  6
CONTINUOUS
 62
    7
 10
827.16437521994965
 20
681.94899027454073
 11
829.75256567097472
 21
672.2897320116499
  0
LINE
  8
_0-5_寸法線
  6
CONTINUOUS
 62
    7
 10
827.16437521994965
 20
681.94899027454073
 11
824.57618476892435
 21
672.2897320116499
  0
LINE
  8
_0-5_寸法線
  6
CONTINUOUS
 62
    7
 10
900.19766904514313
 20
658.94899027454073
 11
822.16437521994965
 21
658.94899027454073
  0
LINE
  8
_0-5_寸法線
  6
CONTINUOUS
 62
    7
 10
827.16437521994965
 20
658.94899027454073
 11
824.57618476892435
 21
668.60824853743156
  0
LINE
  8
_0-5_寸法線
  6
CONTINUOUS
 62
    7
 10
827.16437521994965
 20
658.94899027454073
 11
829.75256567097472
 21
668.60824853743156
  0
LINE
  8
_0-5_寸法線
  6
CONTINUOUS
 62
    7
 10
827.16437521994965
 20
681.94899027454073
 11
827.16437521994965
 21
658.94899027454073
  0
TEXT
  8
_0-5_寸法線
 62
    7
 10
827.16437521994965
 20
662.94899027454085
 40
15
 41
1
 50
90
  1
23
  0
LINE
  8
_0-5_寸法線
  6
CONTINUOUS
 62
    7
 10
842.89102075807421
 20
704.94899027454028
 11
822.16437521994965
 21
704.94899027454028
  0
LINE
  8
_0-5_寸法線
  6
CONTINUOUS
 62
    7
 10
827.16437521994965
 20
704.94899027454028
 11
829.75256567097472
 21
695.28973201164956
  0
LINE
  8
_0-5_寸法線
  6
CONTINUOUS
 62
    7
 10
827.16437521994965
 20
704.94899027454028
 11
824.57618476892435
 21
695.28973201164956
  0
LINE
  8
_0-5_寸法線
  6
CONTINUOUS
 62
    7
 10
900.19766904514313
 20
681.94899027454062
 11
822.16437521994965
 21
681.94899027454073
  0
LINE
  8
_0-5_寸法線
  6
CONTINUOUS
 62
    7
 10
827.16437521994965
 20
681.94899027454073
 11
824.57618476892435
 21
691.60824853743134
  0
LINE
  8
_0-5_寸法線
  6
CONTINUOUS
 62
    7
 10
827.16437521994965
 20
681.94899027454073
 11
829.75256567097472
 21
691.60824853743134
  0
LINE
  8
_0-5_寸法線
  6
CONTINUOUS
 62
    7
 10
827.16437521994965
 20
704.94899027454028
 11
827.16437521994965
 21
681.94899027454073
  0
TEXT
  8
_0-5_寸法線
 62
    7
 10
827.16437521994965
 20
685.94899027454073
 40
15
 41
1
 50
90
  1
23
  0
LINE
  8
_0-0_計極細
  6
CONTINUOUS
 62
    2
 10
1361.3976690451429
 20
677.94899027454039
 11
1361.3976690451429
 21
636.94899027453994
  0
LINE
  8
_0-0_計極細
  6
CONTINUOUS
 62
    2
 10
1311.3976690451432
 20
636.94899027453994
 11
1361.3976690451429
 21
636.94899027453994
  0
LINE
  8
_0-0_計極細
  6
CONTINUOUS
 62
    2
 10
1361.3976690451429
 20
677.94899027454039
 11
1379.9043173322118
 21
677.94899027454039
  0
LINE
  8
_0-0_計極細
  6
CONTINUOUS
 62
    2
 10
1311.3976690451432
 20
636.94899027453994
 11
1311.3976690451432
 21
621.2040300976729
  0
LINE
  8
_0-0_計極細
  6
CONTINUOUS
 62
    2
 10
1366.3716704938988
 20
621.2040300976729
 11
1379.9043173571365
 21
634.7366769609099
  0
LINE
  8
_0-0_計極細
  6
CONTINUOUS
 62
    2
 10
1323.9452636227061
 20
621.2040300976729
 11
1339.6902237995735
 21
636.94899027453994
  0
LINE
  8
_0-0_計極細
  6
CONTINUOUS
 62
    2
 10
1361.3976690451429
 20
658.65643552010977
 11
1379.9043173326652
 21
677.16308380763155
  0
LINE
  8
_0-0_計極細
  6
CONTINUOUS
 62
    2
 10
1362.1290298067797
 20
621.2040300976729
 11
1379.9043173546895
 21
638.97931764558223
  0
LINE
  8
_0-0_計極細
  6
CONTINUOUS
 62
    2
 10
1319.7026229355868
 20
621.2040300976729
 11
1335.4475831124541
 21
636.94899027453994
  0
LINE
  8
_0-0_計極細
  6
CONTINUOUS
 62
    2
 10
1361.3976690451429
 20
662.89907620722897
 11
1376.447583004724
 21
677.94899016681006
  0
LINE
  8
_0-0_計極細
  6
CONTINUOUS
 62
    2
 10
1357.8863891196604
 20
621.2040300976729
 11
1379.9043173522421
 21
643.22195833025467
  0
LINE
  8
_0-0_計極細
  6
CONTINUOUS
 62
    2
 10
1315.4599822484672
 20
621.2040300976729
 11
1331.2049424253348
 21
636.94899027453994
  0
LINE
  8
_0-0_計極細
  6
CONTINUOUS
 62
    2
 10
1361.3976690451429
 20
667.14171689434852
 11
1372.2049423479746
 21
677.94899019717957
  0
CIRCLE
  8
_0-0_計極細
  6
CONTINUOUS
 62
    2
 10
1303.2411460565659
 20
672.26159208009199
 40
0.3318518518518431
  0
CIRCLE
  8
_0-0_計極細
  6
CONTINUOUS
 62
    2
 10
1309.2144793898988
 20
675.14159208009164
 40
0.3318518518518431
  0
CIRCLE
  8
_0-0_計極細
  6
CONTINUOUS
 62
    2
 10
1306.7611460565658
 20
660.15492541342542
 40
0.3318518518518431
  0
CIRCLE
  8
_0-0_計極細
  6
CONTINUOUS
 62
    2
 10
1317.2811460565654
 20
649.94159208009194
 40
0.3318518518518431
  0
CIRCLE
  8
_0-0_計極細
  6
CONTINUOUS
 62
    2
 10
1306.5811460565656
 20
635.96159208009215
 40
0.3318518518518431
  0
CIRCLE
  8
_0-0_計極細
  6
CONTINUOUS
 62
    2
 10
1300.9811460565656
 20
625.24159208009235
 40
0.3318518518518431
  0
CIRCLE
  8
_0-0_計極細
  6
CONTINUOUS
 62
    2
 10
1307.8611460565658
 20
643.16159208009208
 40
0.3318518518518431
  0
CIRCLE
  8
_0-0_計極細
  6
CONTINUOUS
 62
    2
 10
1316.1811460565652
 20
640.28159208009197
 40
0.3318518518518431
  0
CIRCLE
  8
_0-0_計極細
  6
CONTINUOUS
 62
    2
 10
1332.3411460565658
 20
640.44159208009216
 40
0.3318518518518431
  0
CIRCLE
  8
_0-0_計極細
  6
CONTINUOUS
 62
    2
 10
1325.1411460565655
 20
645.8815920800921
 40
0.3318518518518431
  0
CIRCLE
  8
_0-0_計極細
  6
CONTINUOUS
 62
    2
 10
1331.8611460565658
 20
649.241592080092
 40
0.3318518518518431
  0
CIRCLE
  8
_0-0_計極細
  6
CONTINUOUS
 62
    2
 10
1326.1678127232321
 20
693.65492541342496
 40
0.3318518518518431
  0
CIRCLE
  8
_0-0_計極細
  6
CONTINUOUS
 62
    2
 10
1324.6744793898986
 20
681.81492541342493
 40
0.3318518518518431
  0
CIRCLE
  8
_0-0_計極細
  6
CONTINUOUS
 62
    2
 10
1336.9944793898985
 20
681.3882587467582
 40
0.3318518518518431
  0
CIRCLE
  8
_0-0_計極細
  6
CONTINUOUS
 62
    2
 10
1330.0344793898987
 20
672.98825874675856
 40
0.3318518518518431
  0
CIRCLE
  8
_0-0_計極細
  6
CONTINUOUS
 62
    2
 10
1353.5544793898985
 20
641.06825874675883
 40
0.3318518518518431
  0
CIRCLE
  8
_0-0_計極細
  6
CONTINUOUS
 62
    2
 10
1357.8744793898986
 20
649.46825874675869
 40
0.3318518518518431
  0
CIRCLE
  8
_0-0_計極細
  6
CONTINUOUS
 62
    2
 10
1356.9144793898981
 20
661.9482587467586
 40
0.3318518518518431
  0
CIRCLE
  8
_0-0_計極細
  6
CONTINUOUS
 62
    2
 10
1346.1144793898984
 20
674.66825874675851
 40
0.3318518518518431
  0
CIRCLE
  8
_0-0_計極細
  6
CONTINUOUS
 62
    2
 10
1356.1944793898986
 20
686.42825874675839
 40
0.3318518518518431
  0
CIRCLE
  8
_0-0_計極細
  6
CONTINUOUS
 62
    2
 10
1354.5144793898985
 20
670.3482587467588
 40
0.3318518518518431
  0
CIRCLE
  8
_0-0_計極細
  6
CONTINUOUS
 62
    2
 10
1372.274479389898
 20
683.06825874675815
 40
0.3318518518518431
  0
CIRCLE
  8
_0-0_計極細
  6
CONTINUOUS
 62
    2
 10
1369.3944793898979
 20
691.33029578379535
 40
1.0953188836088352
  0
CIRCLE
  8
_0-0_計極細
  6
CONTINUOUS
 62
    2
 10
1360.0078127232312
 20
682.05029578379572
 40
1.0953188836088352
  0
CIRCLE
  8
_0-0_計極細
  6
CONTINUOUS
 62
    2
 10
1326.7544793898983
 20
685.99696245046221
 40
1.0953188836088352
  0
CIRCLE
  8
_0-0_計極細
  6
CONTINUOUS
 62
    2
 10
1345.9544793898986
 20
666.79696245046216
 40
1.0953188836088352
  0
CIRCLE
  8
_0-0_計極細
  6
CONTINUOUS
 62
    2
 10
1303.7178127232323
 20
640.0669624504626
 40
1.0953188836088352
  0
CIRCLE
  8
_0-0_計極細
  6
CONTINUOUS
 62
    2
 10
1309.8511460565655
 20
657.98696245046256
 40
1.0953188836088352
  0
CIRCLE
  8
_0-0_計極細
  6
CONTINUOUS
 62
    2
 10
1330.9711460565652
 20
644.54696245046262
 40
1.0953188836088352
  0
CIRCLE
  8
_0-0_計極細
  6
CONTINUOUS
 62
    2
 10
1358.7302616377358
 20
638.43473101528082
 40
1.0953188836088352
  0
CIRCLE
  8
_0-0_計極細
  6
CONTINUOUS
 62
    2
 10
1328.3311460565653
 20
670.46696245046235
 40
1.0953188836088352
  0
CIRCLE
  8
_0-0_計極細
  6
CONTINUOUS
 62
    2
 10
1299.8515164269359
 20
667.21303920624052
 40
0.3318518518518431
  0
CIRCLE
  8
_0-0_計極細
  6
CONTINUOUS
 62
    2
 10
1299.9715164269364
 20
652.83970587290742
 40
0.3318518518518431
  0
CIRCLE
  8
_0-0_計極細
  6
CONTINUOUS
 62
    2
 10
1364.5944793898982
 20
696.10825874675857
 40
0.3318518518518431
  0
CIRCLE
  8
_0-0_計極細
  6
CONTINUOUS
 62
    2
 10
1346.1144793898984
 20
693.06825874675826
 40
0.3318518518518431
  0
CIRCLE
  8
_0-0_計極細
  6
CONTINUOUS
 62
    2
 10
1346.1944793898986
 20
689.27696245046195
 40
1.0953188836088352
  0
CIRCLE
  8
_0-0_計極細
  6
CONTINUOUS
 62
    2
 10
1333.3944793898988
 20
696.6682587467584
 40
0.3318518518518431
  0
LINE
  8
_0-0_計極細
  6
CONTINUOUS
 62
    2
 10
1291.8976690451427
 20
681.94899027453982
 11
1291.3976690451429
 21
681.94899027453982
  0
LINE
  8
_0-0_計極細
  6
CONTINUOUS
 62
    2
 10
1291.3976690451429
 20
681.94899027453982
 11
1291.3976690451429
 21
621.2040300976729
  0
CIRCLE
  8
_0-0_計極細
  6
CONTINUOUS
 62
    2
 10
1294.9883065503932
 20
657.91492541342518
 40
0.3318518518518431
  0
CIRCLE
  8
_0-0_計極細
  6
CONTINUOUS
 62
    2
 10
1295.7722571676768
 20
634.36159208009235
 40
0.3318518518518431
  0
CIRCLE
  8
_0-0_計極細
  6
CONTINUOUS
 62
    2
 10
1295.3889238343431
 20
673.93362911712916
 40
1.0953188836088352
  0
CIRCLE
  8
_0-0_計極細
  6
CONTINUOUS
 62
    2
 10
1297.1578127232317
 20
630.36029578379589
 40
1.0953188836088352
  0
LINE
  8
_0-0_計極細
  6
CONTINUOUS
 62
    2
 10
1326.3976690451432
 20
704.94899027454028
 11
1326.3976690451432
 21
697.94899027454039
  0
LINE
  8
_0-0_計極細
  6
CONTINUOUS
 62
    2
 10
1326.3976690451432
 20
704.94899027454028
 11
1379.9043173322118
 21
704.94899027454028
  0
LINE
  8
_0-0_計極細
  6
CONTINUOUS
 62
    2
 10
1321.3976690451429
 20
697.94899027454039
 11
1379.9043173322118
 21
697.94899027454039
  0
LINE
  8
_0-0_計極細
  6
CONTINUOUS
 62
    2
 10
1321.3976690451429
 20
704.94899027454028
 11
1326.3976690451432
 21
704.94899027454028
  0
LINE
  8
_0-0_計極細
  6
CONTINUOUS
 62
    2
 10
1321.3976690451429
 20
704.44899027453982
 11
1321.3976690451429
 21
704.94899027454028
  0
LINE
  8
_0-0_計極細
  6
CONTINUOUS
 62
    2
 10
1326.3976690451432
 20
700.15044204297487
 11
1324.1962172767082
 21
697.94899027454039
  0
LINE
  8
_0-0_計極細
  6
CONTINUOUS
 62
    2
 10
1326.3976690451432
 20
702.69602645524617
 11
1321.6506328644366
 21
697.94899027454039
  0
LINE
  8
_0-0_計極細
  6
CONTINUOUS
 62
    2
 10
1321.3976690451429
 20
700.24161086751815
 11
1326.1050484521652
 21
704.94899027454028
  0
LINE
  8
_0-0_計極細
  6
CONTINUOUS
 62
    2
 10
1321.3976690451429
 20
702.78719527978967
 11
1323.5594640398936
 21
704.94899027454017
  0
LINE
  8
_0-0_計極細
  6
CONTINUOUS
 62
    2
 10
1326.3976690451432
 20
704.0433969488372
 11
1325.4920757194398
 21
704.94899027454028
  0
LINE
  8
_0-0_計極細
  6
CONTINUOUS
 62
    2
 10
1326.3976690451432
 20
701.49781253656533
 11
1322.9464913071683
 21
704.94899027454028
  0
LINE
  8
_0-0_計極細
  6
CONTINUOUS
 62
    2
 10
1326.3976690451432
 20
698.9522281242937
 11
1321.3976690451429
 21
703.95222812429381
  0
LINE
  8
_0-0_計極細
  6
CONTINUOUS
 62
    2
 10
1324.8553224826251
 20
697.94899027454039
 11
1321.3976690451429
 21
701.40664371202217
  0
LINE
  8
_0-0_計極細
  6
CONTINUOUS
 62
    2
 10
1322.3097380703539
 20
697.94899027454039
 11
1321.3976690451429
 21
698.86105929975031
  0
LINE
  8
_0-0_計極細
  6
CONTINUOUS
 62
    2
 10
1367.4711522853252
 20
697.94899027454039
 11
1374.4711519092516
 21
704.94898989846706
  0
LINE
  8
_0-0_計極細
  6
CONTINUOUS
 62
    2
 10
1354.743230223967
 20
697.94899027454039
 11
1361.7432299474629
 21
704.9489899980357
  0
LINE
  8
_0-0_計極細
  6
CONTINUOUS
 62
    2
 10
1342.0153081626095
 20
697.94899027454039
 11
1349.0153079856739
 21
704.94899009760491
  0
LINE
  8
_0-0_計極細
  6
CONTINUOUS
 62
    2
 10
1329.2873861012515
 20
697.94899027454039
 11
1336.2873860238856
 21
704.94899019717411
  0
LINE
  8
_0-0_計極細
  6
DASHED2
 62
    2
 10
1373.835113316004
 20
697.94899027454039
 11
1379.9043173322118
 21
704.01819429074806
  0
LINE
  8
_0-0_計極細
  6
DASHED2
 62
    2
 10
1361.1071912546461
 20
697.94899027454039
 11
1368.1071909283571
 21
704.94898994825132
  0
LINE
  8
_0-0_計極細
  6
DASHED2
 62
    2
 10
1348.3792691932881
 20
697.94899027454039
 11
1355.3792689665688
 21
704.94899004782019
  0
LINE
  8
_0-0_計極細
  6
DASHED2
 62
    2
 10
1335.6513471319304
 20
697.94899027454039
 11
1342.6513470047794
 21
704.9489901473894
  0
LINE
  8
_0-0_計極細
  6
DASHED2
 62
    2
 10
1326.3976690451432
 20
701.42323424911081
 11
1329.9234250429911
 21
704.9489902469586
  0
LINE
  8
_0-0_計極細
  6
CONTINUOUS
 62
    2
 10
1347.5817099774345
 20
651.87801097204203
 11
1350.6598912673655
 21
660.33524455911538
  0
LINE
  8
_0-0_計極細
  6
CONTINUOUS
 62
    2
 10
1317.5852843731564
 20
672.37341697866304
 11
1314.507103083226
 21
663.9161833915897
  0
LINE
  8
_0-0_計極細
  6
CONTINUOUS
 62
    2
 10
1350.6598912673655
 20
660.33524455911538
 11
1317.5852843731564
 21
672.37341697866304
  0
LINE
  8
_0-0_計極細
  6
CONTINUOUS
 62
    2
 10
1347.5817099774345
 20
651.87801097204203
 11
1314.507103083226
 21
663.9161833915897
  0
LINE
  8
_0-0_計極細
  6
CENTER1
 62
    2
 10
1352.0940606575957
 20
655.02444974156094
 11
1313.6754483680559
 21
669.00768103258179
  0
LINE
  8
_0-0_計極細
  6
CONTINUOUS
 62
    2
 10
1336.3976690451432
 20
636.94899027453994
 11
1336.3976690451432
 21
663.40032708352953
  0
LINE
  8
_0-0_計極細
  6
CONTINUOUS
 62
    2
 10
1345.3976690451436
 20
663.40032708352953
 11
1345.3976690451436
 21
636.94899027453994
  0
LINE
  8
_0-0_計極細
  6
CENTER1
 62
    2
 10
1340.8976690451434
 20
631.98294610386813
 11
1340.8976690451434
 21
665.96575918229519
  0
LINE
  8
_0-0_計極細
  6
CONTINUOUS
 62
    2
 10
1336.3976690451432
 20
663.40032708352953
 11
1345.3976690451436
 21
663.40032708352953
  0
CIRCLE
  8
_0-0_計極細
  6
CONTINUOUS
 62
    2
 10
1349.5544793898987
 20
666.70085133935095
 40
0.3318518518518431
  0
CIRCLE
  8
_0-0_計極細
  6
CONTINUOUS
 62
    2
 10
1337.7944793898987
 20
670.06085133935119
 40
0.3318518518518431
  0
ARC
  8
_0-1_計細線
  6
CONTINUOUS
 62
    3
 10
1318.3976690451434
 20
684.94899027453982
 40
3.0000000000000004
 50
269.99999999999977
 51
359.99999999999966
  0
LINE
  8
_0-1_計細線
  6
CONTINUOUS
 62
    3
 10
1321.3976690451429
 20
684.94899027453982
 11
1321.3976690451429
 21
704.44899027453982
  0
LINE
  8
_0-1_計細線
  6
CONTINUOUS
 62
    3
 10
1318.3976690451434
 20
681.94899027453982
 11
1291.8976690451427
 21
681.94899027453982
  0
LINE
  8
_0-1_計細線
  6
CONTINUOUS
 62
    3
 10
1291.3976690451429
 20
682.44899027454028
 11
1291.8976690451427
 21
681.94899027453982
  0
LINE
  8
_0-1_計細線
  6
CONTINUOUS
 62
    3
 10
1291.3976690451429
 20
684.44899027454017
 11
1291.3976690451429
 21
682.44899027454028
  0
LINE
  8
_0-1_計細線
  6
CONTINUOUS
 62
    3
 10
1291.8976690451427
 20
684.94899027453982
 11
1291.3976690451429
 21
684.44899027454017
  0
LINE
  8
_0-1_計細線
  6
CONTINUOUS
 62
    3
 10
1318.3976690451434
 20
684.94899027453982
 11
1291.8976690451427
 21
684.94899027453982
  0
LINE
  8
_0-1_計細線
  6
CONTINUOUS
 62
    3
 10
1320.8976690451432
 20
704.94899027454028
 11
1321.3976690451429
 21
704.44899027453982
  0
LINE
  8
_0-1_計細線
  6
CONTINUOUS
 62
    3
 10
1318.8976690451432
 20
704.94899027454028
 11
1320.8976690451432
 21
704.94899027454028
  0
LINE
  8
_0-1_計細線
  6
CONTINUOUS
 62
    3
 10
1318.3976690451434
 20
704.44899027453982
 11
1318.8976690451432
 21
704.94899027454028
  0
LINE
  8
_0-1_計細線
  6
CONTINUOUS
 62
    3
 10
1318.3976690451434
 20
684.94899027453982
 11
1318.3976690451434
 21
704.44899027453982
  0
LINE
  8
_0-0_計極細
  6
CENTER1
 62
    2
 10
1323.7115079225989
 20
693.74877127353318
 11
908.38619928062394
 21
693.74877127353318
  0
LINE
  8
_0-5_寸法線
  6
CONTINUOUS
 62
    7
 10
911.39766904514306
 20
648.94899027454028
 11
911.39766904514306
 21
584.62627132142291
  0
LINE
  8
_0-5_寸法線
  6
CONTINUOUS
 62
    7
 10
911.39766904514306
 20
589.62627132142291
 11
921.05692730803366
 21
592.2144617724482
  0
LINE
  8
_0-5_寸法線
  6
CONTINUOUS
 62
    7
 10
911.39766904514306
 20
589.62627132142291
 11
921.05692730803366
 21
587.03808087039772
  0
LINE
  8
_0-5_寸法線
  6
CONTINUOUS
 62
    7
 10
941.39766904514272
 20
611.2040300976729
 11
941.39766904514272
 21
584.62627132142291
  0
LINE
  8
_0-5_寸法線
  6
CONTINUOUS
 62
    7
 10
941.39766904514272
 20
589.62627132142291
 11
931.73841078225212
 21
587.03808087039772
  0
LINE
  8
_0-5_寸法線
  6
CONTINUOUS
 62
    7
 10
941.39766904514272
 20
589.62627132142291
 11
931.73841078225212
 21
592.2144617724482
  0
LINE
  8
_0-5_寸法線
  6
CONTINUOUS
 62
    7
 10
911.39766904514306
 20
589.62627132142291
 11
941.39766904514272
 21
589.62627132142291
  0
TEXT
  8
_0-5_寸法線
 62
    7
 10
918.89766904514272
 20
589.62627132142291
 40
15
 41
1
 50
0
  1
30
  0
LINE
  8
_0-5_寸法線
  6
CONTINUOUS
 62
    7
 10
941.39766904514272
 20
589.62627132142291
 11
951.05692730803355
 21
592.2144617724482
  0
LINE
  8
_0-5_寸法線
  6
CONTINUOUS
 62
    7
 10
941.39766904514272
 20
589.62627132142291
 11
951.05692730803355
 21
587.03808087039761
  0
LINE
  8
_0-5_寸法線
  6
CONTINUOUS
 62
    7
 10
1291.3976690451429
 20
611.2040300976729
 11
1291.3976690451429
 21
584.62627132142291
  0
LINE
  8
_0-5_寸法線
  6
CONTINUOUS
 62
    7
 10
1291.3976690451429
 20
589.62627132142291
 11
1281.7384107822522
 21
587.03808087039772
  0
LINE
  8
_0-5_寸法線
  6
CONTINUOUS
 62
    7
 10
1291.3976690451429
 20
589.62627132142291
 11
1281.7384107822522
 21
592.2144617724482
  0
LINE
  8
_0-5_寸法線
  6
CONTINUOUS
 62
    7
 10
941.39766904514272
 20
589.62627132142291
 11
1291.3976690451429
 21
589.62627132142291
  0
TEXT
  8
_0-5_寸法線
 62
    7
 10
1105.1476690451429
 20
589.62627132142291
 40
15
 41
1
 50
0
  1
350
  0
LINE
  8
_0-5_寸法線
  6
CONTINUOUS
 62
    7
 10
1291.3976690451429
 20
589.62627132142291
 11
1301.0569273080339
 21
592.2144617724482
  0
LINE
  8
_0-5_寸法線
  6
CONTINUOUS
 62
    7
 10
1291.3976690451429
 20
589.62627132142291
 11
1301.0569273080339
 21
587.03808087039761
  0
LINE
  8
_0-5_寸法線
  6
CONTINUOUS
 62
    7
 10
1321.3976690451429
 20
648.94899027454028
 11
1321.3976690451429
 21
584.62627132142291
  0
LINE
  8
_0-5_寸法線
  6
CONTINUOUS
 62
    7
 10
1321.3976690451429
 20
589.62627132142291
 11
1311.7384107822522
 21
587.03808087039772
  0
LINE
  8
_0-5_寸法線
  6
CONTINUOUS
 62
    7
 10
1321.3976690451429
 20
589.62627132142291
 11
1311.7384107822522
 21
592.2144617724482
  0
LINE
  8
_0-5_寸法線
  6
CONTINUOUS
 62
    7
 10
1291.3976690451429
 20
589.62627132142291
 11
1321.3976690451429
 21
589.62627132142291
  0
TEXT
  8
_0-5_寸法線
 62
    7
 10
1298.8976690451429
 20
589.62627132142291
 40
15
 41
1
 50
0
  1
30
  0
LINE
  8
_0-1_計細線
  6
CONTINUOUS
 62
    3
 10
1118.7476690451431
 20
687.24877127353341
 11
1123.1976690449615
 21
687.24877127353341
  0
LINE
  8
_0-1_計細線
  6
CONTINUOUS
 62
    3
 10
1109.5976690445634
 20
687.24877127353341
 11
1114.0476690451426
 21
687.24877127353341
  0
LINE
  8
_0-1_計細線
  6
CONTINUOUS
 62
    3
 10
1109.5976690455286
 20
700.24877127353318
 11
1114.0476690451426
 21
700.24877127353318
  0
LINE
  8
_0-1_計細線
  6
CONTINUOUS
 62
    3
 10
1118.7476690451431
 20
700.24877127353318
 11
1123.1976690449617
 21
700.24877127353318
  0
ARC
  8
_0-1_計細線
  6
CONTINUOUS
 62
    3
 10
1103.1976690455133
 20
702.94877127353334
 40
1.0000000000000004
 50
89.999999999999915
 51
179.99999999999983
  0
ARC
  8
_0-1_計細線
  6
CONTINUOUS
 62
    3
 10
1103.6656182368411
 20
704.94877127353311
 40
1.0000000000000004
 50
269.99999999999977
 51
330.00000000002012
  0
ARC
  8
_0-1_計細線
  6
CONTINUOUS
 62
    3
 10
1105.3976690444101
 20
703.94877127353334
 40
1.0000000000000004
 50
89.999999999999915
 51
150.00000000000185
  0
LINE
  8
_0-1_計細線
  6
CONTINUOUS
 62
    3
 10
1103.1976690455133
 20
703.94877127353334
 11
1103.6656182368411
 21
703.94877127353334
  0
ARC
  8
_0-1_計細線
  6
CONTINUOUS
 62
    3
 10
1112.5976690433067
 20
702.94877127353334
 40
1.0000000000000004
 50
0
 51
89.999999999999915
  0
ARC
  8
_0-1_計細線
  6
CONTINUOUS
 62
    3
 10
1112.129719851979
 20
704.94877127353311
 40
1.0000000000000004
 50
209.99999999998565
 51
269.99999999999977
  0
ARC
  8
_0-1_計細線
  6
CONTINUOUS
 62
    3
 10
1110.3976690444099
 20
703.94877127353334
 40
1.0000000000000004
 50
29.999999999991644
 51
89.999999999999915
  0
LINE
  8
_0-1_計細線
  6
CONTINUOUS
 62
    3
 10
1112.5976690433067
 20
703.94877127353334
 11
1112.129719851979
 21
703.94877127353334
  0
ARC
  8
_0-1_計細線
  6
CONTINUOUS
 62
    3
 10
1102.6976690455135
 20
701.54877127353348
 40
0.5000000000000002
 50
179.99999999999983
 51
269.99999999999977
  0
LINE
  8
_0-1_計細線
  6
CONTINUOUS
 62
    3
 10
1102.1976690455135
 20
702.94877127353334
 11
1102.1976690455135
 21
701.54877127353348
  0
ARC
  8
_0-1_計細線
  6
CONTINUOUS
 62
    3
 10
1113.0976690433065
 20
701.54877127353348
 40
0.5000000000000002
 50
269.99999999999977
 51
359.99999999999966
  0
LINE
  8
_0-1_計細線
  6
CONTINUOUS
 62
    3
 10
1113.5976690433065
 20
702.94877127353334
 11
1113.5976690433065
 21
701.54877127353348
  0
ARC
  8
_0-1_計細線
  6
CONTINUOUS
 62
    3
 10
1105.1976690455135
 20
700.04877127353348
 40
1.0000000000000004
 50
0
 51
89.999999999999915
  0
LINE
  8
_0-1_計細線
  6
CONTINUOUS
 62
    3
 10
1105.1976690455135
 20
701.04877127353325
 11
1102.6976690455135
 21
701.04877127353325
  0
ARC
  8
_0-1_計細線
  6
CONTINUOUS
 62
    3
 10
1110.5976690455141
 20
700.04877127353348
 40
1.0000000000000004
 50
89.999999999999915
 51
179.99999999999983
  0
LINE
  8
_0-1_計細線
  6
CONTINUOUS
 62
    3
 10
1110.5976690433063
 20
701.04877127353325
 11
1113.0976690433065
 21
701.04877127353325
  0
LINE
  8
_0-1_計細線
  6
CONTINUOUS
 62
    3
 10
1110.3976690444099
 20
704.94877127353311
 11
1105.3976690444101
 21
704.94877127353311
  0
LINE
  8
_0-1_計細線
  6
CONTINUOUS
 62
    3
 10
1106.1976690444101
 20
684.94877127353323
 11
1106.1976690455135
 21
700.04877127353348
  0
LINE
  8
_0-1_計細線
  6
CONTINUOUS
 62
    3
 10
1109.5976690444099
 20
684.94877127353323
 11
1109.5976690455136
 21
700.04877127353348
  0
LINE
  8
_0-1_計細線
  6
CONTINUOUS
 62
    3
 10
1109.5976690444099
 20
684.94877127353323
 11
1106.1976690444101
 21
684.94877127353323
  0
LINE
  8
_0-1_計細線
  6
CONTINUOUS
 62
    3
 10
1004.1976692336026
 20
700.24877127353318
 11
990.59766923360246
 21
700.24877127353318
  0
LINE
  8
_0-1_計細線
  6
CONTINUOUS
 62
    3
 10
1021.1976692337743
 20
700.24877127353318
 11
1007.5976692337742
 21
700.24877127353318
  0
LINE
  8
_0-1_計細線
  6
CONTINUOUS
 62
    3
 10
1038.1976692339458
 20
700.24877127353318
 11
1024.5976692339457
 21
700.24877127353318
  0
LINE
  8
_0-1_計細線
  6
CONTINUOUS
 62
    3
 10
1004.1976692336021
 20
687.24877127353341
 11
990.59766923360246
 21
687.24877127353341
  0
LINE
  8
_0-1_計細線
  6
CONTINUOUS
 62
    3
 10
1021.1976692337743
 20
687.24877127353341
 11
1007.5976692337742
 21
687.24877127353341
  0
LINE
  8
_0-1_計細線
  6
CONTINUOUS
 62
    3
 10
1038.197669233946
 20
687.24877127353341
 11
1024.5976692339464
 21
687.24877127353341
  0
LINE
  8
_0-1_計細線
  6
CONTINUOUS
 62
    3
 10
1211.5976690465625
 20
700.24877127353318
 11
1225.1976690465626
 21
700.24877127353318
  0
LINE
  8
_0-1_計細線
  6
CONTINUOUS
 62
    3
 10
1194.5976690463906
 20
700.24877127353318
 11
1208.197669046391
 21
700.24877127353318
  0
LINE
  8
_0-1_計細線
  6
CONTINUOUS
 62
    3
 10
1041.5976690438761
 20
700.24877127353318
 11
1055.1976690438762
 21
700.24877127353318
  0
LINE
  8
_0-1_計細線
  6
CONTINUOUS
 62
    3
 10
1177.5976690462189
 20
700.24877127353318
 11
1191.1976690462191
 21
700.24877127353318
  0
LINE
  8
_0-1_計細線
  6
CONTINUOUS
 62
    3
 10
1160.5976690458567
 20
700.24877127353318
 11
1174.1976690458571
 21
700.24877127353318
  0
LINE
  8
_0-1_計細線
  6
CONTINUOUS
 62
    3
 10
1058.5976690438765
 20
700.24877127353318
 11
1072.1976690438764
 21
700.24877127353318
  0
LINE
  8
_0-1_計細線
  6
CONTINUOUS
 62
    3
 10
1075.5976690442385
 20
700.24877127353318
 11
1089.1976690442382
 21
700.24877127353318
  0
LINE
  8
_0-1_計細線
  6
CONTINUOUS
 62
    3
 10
1092.5976690446005
 20
700.24877127353318
 11
1106.1976690445999
 21
700.24877127353318
  0
LINE
  8
_0-1_計細線
  6
CONTINUOUS
 62
    3
 10
1126.5976690453235
 20
700.24877127353318
 11
1140.1976690453237
 21
700.24877127353318
  0
LINE
  8
_0-1_計細線
  6
CONTINUOUS
 62
    3
 10
1143.5976690456857
 20
700.24877127353318
 11
1157.1976690456854
 21
700.24877127353318
  0
LINE
  8
_0-1_計細線
  6
CONTINUOUS
 62
    3
 10
1211.5976690465627
 20
687.24877127353341
 11
1225.1976690465626
 21
687.24877127353341
  0
LINE
  8
_0-1_計細線
  6
CONTINUOUS
 62
    3
 10
1194.5976690463906
 20
687.24877127353341
 11
1208.1976690463905
 21
687.24877127353341
  0
LINE
  8
_0-1_計細線
  6
CONTINUOUS
 62
    3
 10
1041.5976690438761
 20
687.24877127353341
 11
1055.1976690438762
 21
687.24877127353341
  0
LINE
  8
_0-1_計細線
  6
CONTINUOUS
 62
    3
 10
1177.5976690462185
 20
687.24877127353341
 11
1191.1976690462188
 21
687.24877127353341
  0
LINE
  8
_0-1_計細線
  6
CONTINUOUS
 62
    3
 10
1160.5976690458574
 20
687.24877127353341
 11
1174.1976690458571
 21
687.24877127353341
  0
LINE
  8
_0-1_計細線
  6
CONTINUOUS
 62
    3
 10
1058.5976690438765
 20
687.24877127353341
 11
1072.1976690438762
 21
687.24877127353341
  0
LINE
  8
_0-1_計細線
  6
CONTINUOUS
 62
    3
 10
1075.5976690442385
 20
687.24877127353341
 11
1089.1976690442382
 21
687.24877127353341
  0
LINE
  8
_0-1_計細線
  6
CONTINUOUS
 62
    3
 10
1092.5976690446
 20
687.24877127353341
 11
1106.1976690445999
 21
687.24877127353341
  0
LINE
  8
_0-1_計細線
  6
CONTINUOUS
 62
    3
 10
1126.5976690453235
 20
687.24877127353341
 11
1140.1976690453234
 21
687.24877127353341
  0
LINE
  8
_0-1_計細線
  6
CONTINUOUS
 62
    3
 10
1143.5976690456853
 20
687.24877127353341
 11
1157.1976690456854
 21
687.24877127353341
  0
ARC
  8
_0-1_計細線
  6
CONTINUOUS
 62
    3
 10
993.5976692326891
 20
702.94877127353334
 40
1.0000000000000004
 50
0
 51
89.999999999999915
  0
ARC
  8
_0-1_計細線
  6
CONTINUOUS
 62
    3
 10
993.12972004136122
 20
704.94877127353311
 40
1.0000000000000004
 50
209.99999999999216
 51
269.99999999999977
  0
ARC
  8
_0-1_計細線
  6
CONTINUOUS
 62
    3
 10
991.39766923379273
 20
703.94877127353334
 40
1.0000000000000004
 50
29.99999999999816
 51
89.999999999999915
  0
LINE
  8
_0-1_計細線
  6
CONTINUOUS
 62
    3
 10
993.5976692326891
 20
703.94877127353334
 11
993.12972004136122
 21
703.94877127353334
  0
ARC
  8
_0-1_計細線
  6
CONTINUOUS
 62
    3
 10
984.1976692348959
 20
702.94877127353334
 40
1.0000000000000004
 50
89.999999999999915
 51
179.99999999999983
  0
ARC
  8
_0-1_計細線
  6
CONTINUOUS
 62
    3
 10
984.66561842622355
 20
704.94877127353311
 40
1.0000000000000004
 50
269.99999999999977
 51
330.00000000000711
  0
ARC
  8
_0-1_計細線
  6
CONTINUOUS
 62
    3
 10
986.39766923379273
 20
703.94877127353334
 40
1.0000000000000004
 50
90.000000000026048
 51
150.00000000001486
  0
LINE
  8
_0-1_計細線
  6
CONTINUOUS
 62
    3
 10
984.1976692348959
 20
703.94877127353334
 11
984.66561842622355
 21
703.94877127353334
  0
ARC
  8
_0-1_計細線
  6
CONTINUOUS
 62
    3
 10
994.09766923268876
 20
701.54877127353348
 40
0.5000000000000002
 50
269.99999999999977
 51
359.99999999999966
  0
LINE
  8
_0-1_計細線
  6
CONTINUOUS
 62
    3
 10
994.59766923268899
 20
702.94877127353334
 11
994.59766923268899
 21
701.54877127353348
  0
ARC
  8
_0-1_計細線
  6
CONTINUOUS
 62
    3
 10
983.69766923489578
 20
701.54877127353348
 40
0.5000000000000002
 50
179.99999999999983
 51
269.99999999999977
  0
LINE
  8
_0-1_計細線
  6
CONTINUOUS
 62
    3
 10
983.19766923489613
 20
702.94877127353334
 11
983.19766923489613
 21
701.54877127353348
  0
ARC
  8
_0-1_計細線
  6
CONTINUOUS
 62
    3
 10
991.59766923268876
 20
700.04877127353348
 40
1.0000000000000004
 50
89.999999999999915
 51
179.99999999999983
  0
LINE
  8
_0-1_計細線
  6
CONTINUOUS
 62
    3
 10
991.59766923268876
 20
701.04877127353325
 11
994.09766923268876
 21
701.04877127353325
  0
ARC
  8
_0-1_計細線
  6
CONTINUOUS
 62
    3
 10
986.19766923268901
 20
700.04877127353348
 40
1.0000000000000004
 50
0
 51
89.999999999999915
  0
LINE
  8
_0-1_計細線
  6
CONTINUOUS
 62
    3
 10
986.19766923489601
 20
701.04877127353325
 11
983.69766923489578
 21
701.04877127353325
  0
LINE
  8
_0-1_計細線
  6
CONTINUOUS
 62
    3
 10
986.39766923379273
 20
704.94877127353311
 11
991.39766923379273
 21
704.94877127353311
  0
LINE
  8
_0-1_計細線
  6
CONTINUOUS
 62
    3
 10
990.59766923379243
 20
684.94877127353323
 11
990.59766923268876
 21
700.04877127353348
  0
LINE
  8
_0-1_計細線
  6
CONTINUOUS
 62
    3
 10
987.19766923379234
 20
684.94877127353323
 11
987.1976692326889
 21
700.04877127353348
  0
LINE
  8
_0-1_計細線
  6
CONTINUOUS
 62
    3
 10
987.19766923379234
 20
684.94877127353323
 11
990.59766923379243
 21
684.94877127353323
  0
ARC
  8
_0-1_計細線
  6
CONTINUOUS
 62
    3
 10
1010.5976692328608
 20
702.94877127353334
 40
1.0000000000000004
 50
0
 51
89.999999999999915
  0
ARC
  8
_0-1_計細線
  6
CONTINUOUS
 62
    3
 10
1010.129720041533
 20
704.94877127353311
 40
1.0000000000000004
 50
209.99999999999216
 51
269.99999999999977
  0
ARC
  8
_0-1_計細線
  6
CONTINUOUS
 62
    3
 10
1008.3976692339645
 20
703.94877127353334
 40
1.0000000000000004
 50
30.000000000004672
 51
89.999999999999915
  0
LINE
  8
_0-1_計細線
  6
CONTINUOUS
 62
    3
 10
1010.5976692328608
 20
703.94877127353334
 11
1010.129720041533
 21
703.94877127353334
  0
ARC
  8
_0-1_計細線
  6
CONTINUOUS
 62
    3
 10
1001.1976692350677
 20
702.94877127353334
 40
1.0000000000000004
 50
89.999999999999915
 51
179.99999999999983
  0
ARC
  8
_0-1_計細線
  6
CONTINUOUS
 62
    3
 10
1001.6656184263956
 20
704.94877127353311
 40
1.0000000000000004
 50
269.99999999999977
 51
330.00000000000711
  0
ARC
  8
_0-1_計細線
  6
CONTINUOUS
 62
    3
 10
1003.3976692339641
 20
703.94877127353334
 40
1.0000000000000004
 50
90.000000000013031
 51
150.00000000000185
  0
LINE
  8
_0-1_計細線
  6
CONTINUOUS
 62
    3
 10
1001.1976692350677
 20
703.94877127353334
 11
1001.6656184263956
 21
703.94877127353334
  0
ARC
  8
_0-1_計細線
  6
CONTINUOUS
 62
    3
 10
1011.0976692328608
 20
701.54877127353348
 40
0.5000000000000002
 50
269.99999999999977
 51
359.99999999999966
  0
LINE
  8
_0-1_計細線
  6
CONTINUOUS
 62
    3
 10
1011.5976692328604
 20
702.94877127353334
 11
1011.5976692328604
 21
701.54877127353348
  0
ARC
  8
_0-1_計細線
  6
CONTINUOUS
 62
    3
 10
1000.6976692350678
 20
701.54877127353348
 40
0.5000000000000002
 50
179.99999999999983
 51
269.99999999999977
  0
LINE
  8
_0-1_計細線
  6
CONTINUOUS
 62
    3
 10
1000.1976692350679
 20
702.94877127353334
 11
1000.1976692350679
 21
701.54877127353348
  0
ARC
  8
_0-1_計細線
  6
CONTINUOUS
 62
    3
 10
1008.5976692328608
 20
700.04877127353348
 40
1.0000000000000004
 50
89.999999999999915
 51
179.99999999999983
  0
LINE
  8
_0-1_計細線
  6
CONTINUOUS
 62
    3
 10
1008.5976692328608
 20
701.04877127353325
 11
1011.0976692328608
 21
701.04877127353325
  0
ARC
  8
_0-1_計細線
  6
CONTINUOUS
 62
    3
 10
1003.1976692328607
 20
700.04877127353348
 40
1.0000000000000004
 50
0
 51
89.999999999999915
  0
LINE
  8
_0-1_計細線
  6
CONTINUOUS
 62
    3
 10
1003.1976692350679
 20
701.04877127353325
 11
1000.6976692350678
 21
701.04877127353325
  0
LINE
  8
_0-1_計細線
  6
CONTINUOUS
 62
    3
 10
1003.3976692339641
 20
704.94877127353311
 11
1008.3976692339645
 21
704.94877127353311
  0
LINE
  8
_0-1_計細線
  6
CONTINUOUS
 62
    3
 10
1007.5976692339644
 20
684.94877127353323
 11
1007.5976692328607
 21
700.04877127353348
  0
LINE
  8
_0-1_計細線
  6
CONTINUOUS
 62
    3
 10
1004.1976692339641
 20
684.94877127353323
 11
1004.1976692328603
 21
700.04877127353348
  0
LINE
  8
_0-1_計細線
  6
CONTINUOUS
 62
    3
 10
1004.1976692339641
 20
684.94877127353323
 11
1007.5976692339644
 21
684.94877127353323
  0
ARC
  8
_0-1_計細線
  6
CONTINUOUS
 62
    3
 10
1027.5976692330323
 20
702.94877127353334
 40
1.0000000000000004
 50
0
 51
89.999999999999915
  0
ARC
  8
_0-1_計細線
  6
CONTINUOUS
 62
    3
 10
1027.1297200417048
 20
704.94877127353311
 40
1.0000000000000004
 50
209.99999999999216
 51
269.99999999999977
  0
ARC
  8
_0-1_計細線
  6
CONTINUOUS
 62
    3
 10
1025.3976692341359
 20
703.94877127353334
 40
1.0000000000000004
 50
29.99999999999816
 51
89.999999999999915
  0
LINE
  8
_0-1_計細線
  6
CONTINUOUS
 62
    3
 10
1027.5976692330323
 20
703.94877127353334
 11
1027.1297200417048
 21
703.94877127353334
  0
ARC
  8
_0-1_計細線
  6
CONTINUOUS
 62
    3
 10
1018.1976692352396
 20
702.94877127353334
 40
1.0000000000000004
 50
89.999999999999915
 51
179.99999999999983
  0
ARC
  8
_0-1_計細線
  6
CONTINUOUS
 62
    3
 10
1018.6656184265672
 20
704.94877127353311
 40
1.0000000000000004
 50
269.99999999999977
 51
330.00000000001364
  0
ARC
  8
_0-1_計細線
  6
CONTINUOUS
 62
    3
 10
1020.3976692341359
 20
703.94877127353334
 40
1.0000000000000004
 50
89.999999999999915
 51
150.00000000000185
  0
LINE
  8
_0-1_計細線
  6
CONTINUOUS
 62
    3
 10
1018.1976692352396
 20
703.94877127353334
 11
1018.6656184265672
 21
703.94877127353334
  0
ARC
  8
_0-1_計細線
  6
CONTINUOUS
 62
    3
 10
1028.0976692330325
 20
701.54877127353348
 40
0.5000000000000002
 50
269.99999999999977
 51
359.99999999999966
  0
LINE
  8
_0-1_計細線
  6
CONTINUOUS
 62
    3
 10
1028.5976692330323
 20
702.94877127353334
 11
1028.5976692330323
 21
701.54877127353348
  0
ARC
  8
_0-1_計細線
  6
CONTINUOUS
 62
    3
 10
1017.6976692352396
 20
701.54877127353348
 40
0.5000000000000002
 50
179.99999999999983
 51
269.99999999999977
  0
LINE
  8
_0-1_計細線
  6
CONTINUOUS
 62
    3
 10
1017.1976692352396
 20
702.94877127353334
 11
1017.1976692352396
 21
701.54877127353348
  0
ARC
  8
_0-1_計細線
  6
CONTINUOUS
 62
    3
 10
1025.5976692330325
 20
700.04877127353348
 40
1.0000000000000004
 50
89.999999999999915
 51
179.99999999999983
  0
LINE
  8
_0-1_計細線
  6
CONTINUOUS
 62
    3
 10
1025.5976692330325
 20
701.04877127353325
 11
1028.0976692330325
 21
701.04877127353325
  0
ARC
  8
_0-1_計細線
  6
CONTINUOUS
 62
    3
 10
1020.1976692330322
 20
700.04877127353348
 40
1.0000000000000004
 50
0
 51
89.999999999999915
  0
LINE
  8
_0-1_計細線
  6
CONTINUOUS
 62
    3
 10
1020.1976692352399
 20
701.04877127353325
 11
1017.6976692352396
 21
701.04877127353325
  0
LINE
  8
_0-1_計細線
  6
CONTINUOUS
 62
    3
 10
1020.3976692341359
 20
704.94877127353311
 11
1025.3976692341359
 21
704.94877127353311
  0
LINE
  8
_0-1_計細線
  6
CONTINUOUS
 62
    3
 10
1024.5976692341362
 20
684.94877127353323
 11
1024.5976692330325
 21
700.04877127353348
  0
LINE
  8
_0-1_計細線
  6
CONTINUOUS
 62
    3
 10
1021.1976692341358
 20
684.94877127353323
 11
1021.1976692330323
 21
700.04877127353348
  0
LINE
  8
_0-1_計細線
  6
CONTINUOUS
 62
    3
 10
1021.1976692341358
 20
684.94877127353323
 11
1024.5976692341362
 21
684.94877127353323
  0
ARC
  8
_0-1_計細線
  6
CONTINUOUS
 62
    3
 10
1222.197669047476
 20
702.94877127353334
 40
1.0000000000000004
 50
89.999999999999915
 51
179.99999999999983
  0
ARC
  8
_0-1_計細線
  6
CONTINUOUS
 62
    3
 10
1222.6656182388035
 20
704.94877127353311
 40
1.0000000000000004
 50
269.99999999999977
 51
330.00000000000711
  0
ARC
  8
_0-1_計細線
  6
CONTINUOUS
 62
    3
 10
1224.3976690463724
 20
703.94877127353334
 40
1.0000000000000004
 50
89.999999999999915
 51
150.00000000000836
  0
LINE
  8
_0-1_計細線
  6
CONTINUOUS
 62
    3
 10
1222.197669047476
 20
703.94877127353334
 11
1222.6656182388035
 21
703.94877127353334
  0
ARC
  8
_0-1_計細線
  6
CONTINUOUS
 62
    3
 10
1231.597669045269
 20
702.94877127353334
 40
1.0000000000000004
 50
0
 51
89.999999999999915
  0
ARC
  8
_0-1_計細線
  6
CONTINUOUS
 62
    3
 10
1231.1297198539412
 20
704.94877127353311
 40
1.0000000000000004
 50
209.99999999999216
 51
269.99999999999977
  0
ARC
  8
_0-1_計細線
  6
CONTINUOUS
 62
    3
 10
1229.3976690463724
 20
703.94877127353334
 40
1.0000000000000004
 50
29.999999999985132
 51
89.999999999973952
  0
LINE
  8
_0-1_計細線
  6
CONTINUOUS
 62
    3
 10
1231.597669045269
 20
703.94877127353334
 11
1231.1297198539412
 21
703.94877127353334
  0
ARC
  8
_0-1_計細線
  6
CONTINUOUS
 62
    3
 10
1221.697669047476
 20
701.54877127353348
 40
0.5000000000000002
 50
179.99999999999983
 51
269.99999999999977
  0
LINE
  8
_0-1_計細線
  6
CONTINUOUS
 62
    3
 10
1221.197669047476
 20
702.94877127353334
 11
1221.197669047476
 21
701.54877127353348
  0
ARC
  8
_0-1_計細線
  6
CONTINUOUS
 62
    3
 10
1232.0976690452687
 20
701.54877127353348
 40
0.5000000000000002
 50
269.99999999999977
 51
359.99999999999966
  0
LINE
  8
_0-1_計細線
  6
CONTINUOUS
 62
    3
 10
1232.597669045269
 20
702.94877127353334
 11
1232.597669045269
 21
701.54877127353348
  0
ARC
  8
_0-1_計細線
  6
CONTINUOUS
 62
    3
 10
1224.197669047476
 20
700.04877127353348
 40
1.0000000000000004
 50
0
 51
89.999999999999915
  0
LINE
  8
_0-1_計細線
  6
CONTINUOUS
 62
    3
 10
1224.197669047476
 20
701.04877127353325
 11
1221.697669047476
 21
701.04877127353325
  0
ARC
  8
_0-1_計細線
  6
CONTINUOUS
 62
    3
 10
1229.5976690474758
 20
700.04877127353348
 40
1.0000000000000004
 50
89.999999999999915
 51
179.99999999999983
  0
LINE
  8
_0-1_計細線
  6
CONTINUOUS
 62
    3
 10
1229.5976690452685
 20
701.04877127353325
 11
1232.0976690452687
 21
701.04877127353325
  0
LINE
  8
_0-1_計細線
  6
CONTINUOUS
 62
    3
 10
1229.3976690463724
 20
704.94877127353311
 11
1224.3976690463724
 21
704.94877127353311
  0
LINE
  8
_0-1_計細線
  6
CONTINUOUS
 62
    3
 10
1225.1976690463723
 20
684.94877127353323
 11
1225.197669047476
 21
700.04877127353348
  0
LINE
  8
_0-1_計細線
  6
CONTINUOUS
 62
    3
 10
1228.5976690463724
 20
684.94877127353323
 11
1228.5976690474763
 21
700.04877127353348
  0
LINE
  8
_0-1_計細線
  6
CONTINUOUS
 62
    3
 10
1228.5976690463724
 20
684.94877127353323
 11
1225.1976690463723
 21
684.94877127353323
  0
ARC
  8
_0-1_計細線
  6
CONTINUOUS
 62
    3
 10
1205.1976690473043
 20
702.94877127353334
 40
1.0000000000000004
 50
89.999999999999915
 51
179.99999999999983
  0
ARC
  8
_0-1_計細線
  6
CONTINUOUS
 62
    3
 10
1205.6656182386316
 20
704.94877127353311
 40
1.0000000000000004
 50
269.99999999999977
 51
330.00000000001364
  0
ARC
  8
_0-1_計細線
  6
CONTINUOUS
 62
    3
 10
1207.3976690462007
 20
703.94877127353334
 40
1.0000000000000004
 50
89.999999999999915
 51
150.00000000000836
  0
LINE
  8
_0-1_計細線
  6
CONTINUOUS
 62
    3
 10
1205.1976690473043
 20
703.94877127353334
 11
1205.6656182386316
 21
703.94877127353334
  0
ARC
  8
_0-1_計細線
  6
CONTINUOUS
 62
    3
 10
1214.5976690450968
 20
702.94877127353334
 40
1.0000000000000004
 50
0
 51
89.999999999999915
  0
ARC
  8
_0-1_計細線
  6
CONTINUOUS
 62
    3
 10
1214.1297198537695
 20
704.94877127353311
 40
1.0000000000000004
 50
209.99999999998565
 51
269.99999999999977
  0
ARC
  8
_0-1_計細線
  6
CONTINUOUS
 62
    3
 10
1212.3976690462005
 20
703.94877127353334
 40
1.0000000000000004
 50
29.99999999999816
 51
89.999999999973952
  0
LINE
  8
_0-1_計細線
  6
CONTINUOUS
 62
    3
 10
1214.5976690450968
 20
703.94877127353334
 11
1214.1297198537695
 21
703.94877127353334
  0
ARC
  8
_0-1_計細線
  6
CONTINUOUS
 62
    3
 10
1204.6976690473043
 20
701.54877127353348
 40
0.5000000000000002
 50
179.99999999999983
 51
269.99999999999977
  0
LINE
  8
_0-1_計細線
  6
CONTINUOUS
 62
    3
 10
1204.1976690473041
 20
702.94877127353334
 11
1204.1976690473041
 21
701.54877127353348
  0
ARC
  8
_0-1_計細線
  6
CONTINUOUS
 62
    3
 10
1215.0976690450971
 20
701.54877127353348
 40
0.5000000000000002
 50
269.99999999999977
 51
359.99999999999966
  0
LINE
  8
_0-1_計細線
  6
CONTINUOUS
 62
    3
 10
1215.5976690450968
 20
702.94877127353334
 11
1215.5976690450968
 21
701.54877127353348
  0
ARC
  8
_0-1_計細線
  6
CONTINUOUS
 62
    3
 10
1207.1976690473043
 20
700.04877127353348
 40
1.0000000000000004
 50
0
 51
89.999999999999915
  0
LINE
  8
_0-1_計細線
  6
CONTINUOUS
 62
    3
 10
1207.1976690473043
 20
701.04877127353325
 11
1204.6976690473043
 21
701.04877127353325
  0
ARC
  8
_0-1_計細線
  6
CONTINUOUS
 62
    3
 10
1212.5976690473042
 20
700.04877127353348
 40
1.0000000000000004
 50
89.999999999999915
 51
179.99999999999983
  0
LINE
  8
_0-1_計細線
  6
CONTINUOUS
 62
    3
 10
1212.5976690450968
 20
701.04877127353325
 11
1215.0976690450971
 21
701.04877127353325
  0
LINE
  8
_0-1_計細線
  6
CONTINUOUS
 62
    3
 10
1212.3976690462005
 20
704.94877127353311
 11
1207.3976690462007
 21
704.94877127353311
  0
LINE
  8
_0-1_計細線
  6
CONTINUOUS
 62
    3
 10
1208.1976690462006
 20
684.94877127353323
 11
1208.1976690473043
 21
700.04877127353348
  0
LINE
  8
_0-1_計細線
  6
CONTINUOUS
 62
    3
 10
1211.5976690462005
 20
684.94877127353323
 11
1211.5976690473049
 21
700.04877127353348
  0
LINE
  8
_0-1_計細線
  6
CONTINUOUS
 62
    3
 10
1211.5976690462005
 20
684.94877127353323
 11
1208.1976690462006
 21
684.94877127353323
  0
ARC
  8
_0-1_計細線
  6
CONTINUOUS
 62
    3
 10
1035.1976690444278
 20
702.94877127353334
 40
1.0000000000000004
 50
89.999999999999915
 51
179.99999999999983
  0
ARC
  8
_0-1_計細線
  6
CONTINUOUS
 62
    3
 10
1035.6656182357556
 20
704.94877127353311
 40
1.0000000000000004
 50
269.99999999999977
 51
330.00000000001364
  0
ARC
  8
_0-1_計細線
  6
CONTINUOUS
 62
    3
 10
1037.3976690433244
 20
703.94877127353334
 40
1.0000000000000004
 50
89.999999999999915
 51
150.00000000000185
  0
LINE
  8
_0-1_計細線
  6
CONTINUOUS
 62
    3
 10
1035.1976690444278
 20
703.94877127353334
 11
1035.6656182357556
 21
703.94877127353334
  0
ARC
  8
_0-1_計細線
  6
CONTINUOUS
 62
    3
 10
1044.5976690422208
 20
702.94877127353334
 40
1.0000000000000004
 50
0
 51
89.999999999999915
  0
ARC
  8
_0-1_計細線
  6
CONTINUOUS
 62
    3
 10
1044.1297198508935
 20
704.94877127353311
 40
1.0000000000000004
 50
209.99999999997914
 51
269.99999999999977
  0
ARC
  8
_0-1_計細線
  6
CONTINUOUS
 62
    3
 10
1042.3976690433242
 20
703.94877127353334
 40
1.0000000000000004
 50
29.999999999991644
 51
89.999999999986969
  0
LINE
  8
_0-1_計細線
  6
CONTINUOUS
 62
    3
 10
1044.5976690422208
 20
703.94877127353334
 11
1044.1297198508935
 21
703.94877127353334
  0
ARC
  8
_0-1_計細線
  6
CONTINUOUS
 62
    3
 10
1034.697669044428
 20
701.54877127353348
 40
0.5000000000000002
 50
179.99999999999983
 51
269.99999999999977
  0
LINE
  8
_0-1_計細線
  6
CONTINUOUS
 62
    3
 10
1034.197669044428
 20
702.94877127353334
 11
1034.197669044428
 21
701.54877127353348
  0
ARC
  8
_0-1_計細線
  6
CONTINUOUS
 62
    3
 10
1045.0976690422208
 20
701.54877127353348
 40
0.5000000000000002
 50
269.99999999999977
 51
359.99999999999966
  0
LINE
  8
_0-1_計細線
  6
CONTINUOUS
 62
    3
 10
1045.5976690422212
 20
702.94877127353334
 11
1045.5976690422212
 21
701.54877127353348
  0
ARC
  8
_0-1_計細線
  6
CONTINUOUS
 62
    3
 10
1037.197669044428
 20
700.04877127353348
 40
1.0000000000000004
 50
0
 51
89.999999999999915
  0
LINE
  8
_0-1_計細線
  6
CONTINUOUS
 62
    3
 10
1037.197669044428
 20
701.04877127353325
 11
1034.697669044428
 21
701.04877127353325
  0
ARC
  8
_0-1_計細線
  6
CONTINUOUS
 62
    3
 10
1042.5976690444279
 20
700.04877127353348
 40
1.0000000000000004
 50
89.999999999999915
 51
179.99999999999983
  0
LINE
  8
_0-1_計細線
  6
CONTINUOUS
 62
    3
 10
1042.5976690422206
 20
701.04877127353325
 11
1045.0976690422208
 21
701.04877127353325
  0
LINE
  8
_0-1_計細線
  6
CONTINUOUS
 62
    3
 10
1042.3976690433242
 20
704.94877127353311
 11
1037.3976690433244
 21
704.94877127353311
  0
LINE
  8
_0-1_計細線
  6
CONTINUOUS
 62
    3
 10
1038.1976690433246
 20
684.94877127353323
 11
1038.1976690444278
 21
700.04877127353348
  0
LINE
  8
_0-1_計細線
  6
CONTINUOUS
 62
    3
 10
1041.5976690433245
 20
684.94877127353323
 11
1041.5976690444286
 21
700.04877127353348
  0
LINE
  8
_0-1_計細線
  6
CONTINUOUS
 62
    3
 10
1041.5976690433245
 20
684.94877127353323
 11
1038.1976690433246
 21
684.94877127353323
  0
ARC
  8
_0-1_計細線
  6
CONTINUOUS
 62
    3
 10
1188.1976690471324
 20
702.94877127353334
 40
1.0000000000000004
 50
89.999999999999915
 51
179.99999999999983
  0
ARC
  8
_0-1_計細線
  6
CONTINUOUS
 62
    3
 10
1188.66561823846
 20
704.94877127353311
 40
1.0000000000000004
 50
269.99999999999977
 51
330.00000000001364
  0
ARC
  8
_0-1_計細線
  6
CONTINUOUS
 62
    3
 10
1190.3976690460288
 20
703.94877127353334
 40
1.0000000000000004
 50
89.999999999999915
 51
150.00000000000185
  0
LINE
  8
_0-1_計細線
  6
CONTINUOUS
 62
    3
 10
1188.1976690471324
 20
703.94877127353334
 11
1188.66561823846
 21
703.94877127353334
  0
ARC
  8
_0-1_計細線
  6
CONTINUOUS
 62
    3
 10
1197.5976690449252
 20
702.94877127353334
 40
1.0000000000000004
 50
0
 51
89.999999999999915
  0
ARC
  8
_0-1_計細線
  6
CONTINUOUS
 62
    3
 10
1197.1297198535976
 20
704.94877127353311
 40
1.0000000000000004
 50
209.99999999998565
 51
269.99999999999977
  0
ARC
  8
_0-1_計細線
  6
CONTINUOUS
 62
    3
 10
1195.3976690460288
 20
703.94877127353334
 40
1.0000000000000004
 50
29.99999999999816
 51
89.999999999999915
  0
LINE
  8
_0-1_計細線
  6
CONTINUOUS
 62
    3
 10
1197.5976690449252
 20
703.94877127353334
 11
1197.1297198535976
 21
703.94877127353334
  0
ARC
  8
_0-1_計細線
  6
CONTINUOUS
 62
    3
 10
1187.6976690471322
 20
701.54877127353348
 40
0.5000000000000002
 50
179.99999999999983
 51
269.99999999999977
  0
LINE
  8
_0-1_計細線
  6
CONTINUOUS
 62
    3
 10
1187.1976690471324
 20
702.94877127353334
 11
1187.1976690471324
 21
701.54877127353348
  0
ARC
  8
_0-1_計細線
  6
CONTINUOUS
 62
    3
 10
1198.0976690449254
 20
701.54877127353348
 40
0.5000000000000002
 50
269.99999999999977
 51
359.99999999999966
  0
LINE
  8
_0-1_計細線
  6
CONTINUOUS
 62
    3
 10
1198.5976690449252
 20
702.94877127353334
 11
1198.5976690449252
 21
701.54877127353348
  0
ARC
  8
_0-1_計細線
  6
CONTINUOUS
 62
    3
 10
1190.1976690471324
 20
700.04877127353348
 40
1.0000000000000004
 50
0
 51
89.999999999999915
  0
LINE
  8
_0-1_計細線
  6
CONTINUOUS
 62
    3
 10
1190.1976690471324
 20
701.04877127353325
 11
1187.6976690471322
 21
701.04877127353325
  0
ARC
  8
_0-1_計細線
  6
CONTINUOUS
 62
    3
 10
1195.5976690471325
 20
700.04877127353348
 40
1.0000000000000004
 50
89.999999999999915
 51
179.99999999999983
  0
LINE
  8
_0-1_計細線
  6
CONTINUOUS
 62
    3
 10
1195.5976690449252
 20
701.04877127353325
 11
1198.0976690449254
 21
701.04877127353325
  0
LINE
  8
_0-1_計細線
  6
CONTINUOUS
 62
    3
 10
1195.3976690460288
 20
704.94877127353311
 11
1190.3976690460288
 21
704.94877127353311
  0
LINE
  8
_0-1_計細線
  6
CONTINUOUS
 62
    3
 10
1191.1976690460288
 20
684.94877127353323
 11
1191.1976690471324
 21
700.04877127353348
  0
LINE
  8
_0-1_計細線
  6
CONTINUOUS
 62
    3
 10
1194.5976690460288
 20
684.94877127353323
 11
1194.5976690471325
 21
700.04877127353348
  0
LINE
  8
_0-1_計細線
  6
CONTINUOUS
 62
    3
 10
1194.5976690460288
 20
684.94877127353323
 11
1191.1976690460288
 21
684.94877127353323
  0
ARC
  8
_0-1_計細線
  6
CONTINUOUS
 62
    3
 10
1171.1976690467704
 20
702.94877127353334
 40
1.0000000000000004
 50
89.999999999999915
 51
179.99999999999983
  0
ARC
  8
_0-1_計細線
  6
CONTINUOUS
 62
    3
 10
1171.665618238098
 20
704.94877127353311
 40
1.0000000000000004
 50
269.99999999999977
 51
330.00000000001364
  0
ARC
  8
_0-1_計細線
  6
CONTINUOUS
 62
    3
 10
1173.3976690456668
 20
703.94877127353334
 40
1.0000000000000004
 50
89.999999999999915
 51
150.00000000000836
  0
LINE
  8
_0-1_計細線
  6
CONTINUOUS
 62
    3
 10
1171.1976690467704
 20
703.94877127353334
 11
1171.665618238098
 21
703.94877127353334
  0
ARC
  8
_0-1_計細線
  6
CONTINUOUS
 62
    3
 10
1180.5976690445636
 20
702.94877127353334
 40
1.0000000000000004
 50
0
 51
89.999999999999915
  0
ARC
  8
_0-1_計細線
  6
CONTINUOUS
 62
    3
 10
1180.1297198532359
 20
704.94877127353311
 40
1.0000000000000004
 50
209.99999999999216
 51
269.99999999999977
  0
ARC
  8
_0-1_計細線
  6
CONTINUOUS
 62
    3
 10
1178.397669045667
 20
703.94877127353334
 40
1.0000000000000004
 50
29.999999999991644
 51
89.999999999999915
  0
LINE
  8
_0-1_計細線
  6
CONTINUOUS
 62
    3
 10
1180.5976690445636
 20
703.94877127353334
 11
1180.1297198532359
 21
703.94877127353334
  0
ARC
  8
_0-1_計細線
  6
CONTINUOUS
 62
    3
 10
1170.6976690467707
 20
701.54877127353348
 40
0.5000000000000002
 50
179.99999999999983
 51
269.99999999999977
  0
LINE
  8
_0-1_計細線
  6
CONTINUOUS
 62
    3
 10
1170.1976690467702
 20
702.94877127353334
 11
1170.1976690467702
 21
701.54877127353348
  0
ARC
  8
_0-1_計細線
  6
CONTINUOUS
 62
    3
 10
1181.0976690445636
 20
701.54877127353348
 40
0.5000000000000002
 50
269.99999999999977
 51
359.99999999999966
  0
LINE
  8
_0-1_計細線
  6
CONTINUOUS
 62
    3
 10
1181.5976690445634
 20
702.94877127353334
 11
1181.5976690445634
 21
701.54877127353348
  0
ARC
  8
_0-1_計細線
  6
CONTINUOUS
 62
    3
 10
1173.1976690467702
 20
700.04877127353348
 40
1.0000000000000004
 50
0
 51
89.999999999999915
  0
LINE
  8
_0-1_計細線
  6
CONTINUOUS
 62
    3
 10
1173.1976690467702
 20
701.04877127353325
 11
1170.6976690467707
 21
701.04877127353325
  0
ARC
  8
_0-1_計細線
  6
CONTINUOUS
 62
    3
 10
1178.5976690467705
 20
700.04877127353348
 40
1.0000000000000004
 50
89.999999999999915
 51
179.99999999999983
  0
LINE
  8
_0-1_計細線
  6
CONTINUOUS
 62
    3
 10
1178.5976690445634
 20
701.04877127353325
 11
1181.0976690445636
 21
701.04877127353325
  0
LINE
  8
_0-1_計細線
  6
CONTINUOUS
 62
    3
 10
1178.397669045667
 20
704.94877127353311
 11
1173.3976690456668
 21
704.94877127353311
  0
LINE
  8
_0-1_計細線
  6
CONTINUOUS
 62
    3
 10
1174.197669045667
 20
684.94877127353323
 11
1174.1976690467704
 21
700.04877127353348
  0
LINE
  8
_0-1_計細線
  6
CONTINUOUS
 62
    3
 10
1177.5976690456673
 20
684.94877127353323
 11
1177.5976690467708
 21
700.04877127353348
  0
LINE
  8
_0-1_計細線
  6
CONTINUOUS
 62
    3
 10
1177.5976690456673
 20
684.94877127353323
 11
1174.197669045667
 21
684.94877127353323
  0
ARC
  8
_0-1_計細線
  6
CONTINUOUS
 62
    3
 10
1052.197669044428
 20
702.94877127353334
 40
1.0000000000000004
 50
89.999999999999915
 51
179.99999999999983
  0
ARC
  8
_0-1_計細線
  6
CONTINUOUS
 62
    3
 10
1052.6656182357556
 20
704.94877127353311
 40
1.0000000000000004
 50
269.99999999999977
 51
330.00000000001364
  0
ARC
  8
_0-1_計細線
  6
CONTINUOUS
 62
    3
 10
1054.3976690433249
 20
703.94877127353334
 40
1.0000000000000004
 50
89.999999999999915
 51
150.00000000001486
  0
LINE
  8
_0-1_計細線
  6
CONTINUOUS
 62
    3
 10
1052.197669044428
 20
703.94877127353334
 11
1052.6656182357556
 21
703.94877127353334
  0
ARC
  8
_0-1_計細線
  6
CONTINUOUS
 62
    3
 10
1061.5976690422208
 20
702.94877127353334
 40
1.0000000000000004
 50
0
 51
89.999999999999915
  0
ARC
  8
_0-1_計細線
  6
CONTINUOUS
 62
    3
 10
1061.1297198508937
 20
704.94877127353311
 40
1.0000000000000004
 50
209.99999999997914
 51
269.99999999999977
  0
ARC
  8
_0-1_計細線
  6
CONTINUOUS
 62
    3
 10
1059.3976690433246
 20
703.94877127353334
 40
1.0000000000000004
 50
30.000000000004672
 51
89.999999999999915
  0
LINE
  8
_0-1_計細線
  6
CONTINUOUS
 62
    3
 10
1061.5976690422208
 20
703.94877127353334
 11
1061.1297198508937
 21
703.94877127353334
  0
ARC
  8
_0-1_計細線
  6
CONTINUOUS
 62
    3
 10
1051.6976690444285
 20
701.54877127353348
 40
0.5000000000000002
 50
179.99999999999983
 51
269.99999999999977
  0
LINE
  8
_0-1_計細線
  6
CONTINUOUS
 62
    3
 10
1051.197669044428
 20
702.94877127353334
 11
1051.197669044428
 21
701.54877127353348
  0
ARC
  8
_0-1_計細線
  6
CONTINUOUS
 62
    3
 10
1062.0976690422212
 20
701.54877127353348
 40
0.5000000000000002
 50
269.99999999999977
 51
359.99999999999966
  0
LINE
  8
_0-1_計細線
  6
CONTINUOUS
 62
    3
 10
1062.5976690422212
 20
702.94877127353334
 11
1062.5976690422212
 21
701.54877127353348
  0
ARC
  8
_0-1_計細線
  6
CONTINUOUS
 62
    3
 10
1054.197669044428
 20
700.04877127353348
 40
1.0000000000000004
 50
0
 51
89.999999999999915
  0
LINE
  8
_0-1_計細線
  6
CONTINUOUS
 62
    3
 10
1054.197669044428
 20
701.04877127353325
 11
1051.6976690444285
 21
701.04877127353325
  0
ARC
  8
_0-1_計細線
  6
CONTINUOUS
 62
    3
 10
1059.5976690444281
 20
700.04877127353348
 40
1.0000000000000004
 50
89.999999999999915
 51
179.99999999999983
  0
LINE
  8
_0-1_計細線
  6
CONTINUOUS
 62
    3
 10
1059.5976690422208
 20
701.04877127353325
 11
1062.0976690422212
 21
701.04877127353325
  0
LINE
  8
_0-1_計細線
  6
CONTINUOUS
 62
    3
 10
1059.3976690433246
 20
704.94877127353311
 11
1054.3976690433249
 21
704.94877127353311
  0
LINE
  8
_0-1_計細線
  6
CONTINUOUS
 62
    3
 10
1055.1976690433248
 20
684.94877127353323
 11
1055.197669044428
 21
700.04877127353348
  0
LINE
  8
_0-1_計細線
  6
CONTINUOUS
 62
    3
 10
1058.5976690433245
 20
684.94877127353323
 11
1058.5976690444281
 21
700.04877127353348
  0
LINE
  8
_0-1_計細線
  6
CONTINUOUS
 62
    3
 10
1058.5976690433245
 20
684.94877127353323
 11
1055.1976690433248
 21
684.94877127353323
  0
ARC
  8
_0-1_計細線
  6
CONTINUOUS
 62
    3
 10
1069.19766904479
 20
702.94877127353334
 40
1.0000000000000004
 50
89.999999999999915
 51
179.99999999999983
  0
ARC
  8
_0-1_計細線
  6
CONTINUOUS
 62
    3
 10
1069.6656182361176
 20
704.94877127353311
 40
1.0000000000000004
 50
269.99999999999977
 51
330.00000000000711
  0
ARC
  8
_0-1_計細線
  6
CONTINUOUS
 62
    3
 10
1071.3976690436866
 20
703.94877127353334
 40
1.0000000000000004
 50
89.999999999999915
 51
150.00000000001486
  0
LINE
  8
_0-1_計細線
  6
CONTINUOUS
 62
    3
 10
1069.19766904479
 20
703.94877127353334
 11
1069.6656182361176
 21
703.94877127353334
  0
ARC
  8
_0-1_計細線
  6
CONTINUOUS
 62
    3
 10
1078.5976690425828
 20
702.94877127353334
 40
1.0000000000000004
 50
0
 51
89.999999999999915
  0
ARC
  8
_0-1_計細線
  6
CONTINUOUS
 62
    3
 10
1078.129719851255
 20
704.94877127353311
 40
1.0000000000000004
 50
209.99999999999216
 51
269.99999999999977
  0
ARC
  8
_0-1_計細線
  6
CONTINUOUS
 62
    3
 10
1076.3976690436868
 20
703.94877127353334
 40
1.0000000000000004
 50
30.000000000011187
 51
89.999999999999915
  0
LINE
  8
_0-1_計細線
  6
CONTINUOUS
 62
    3
 10
1078.5976690425828
 20
703.94877127353334
 11
1078.129719851255
 21
703.94877127353334
  0
ARC
  8
_0-1_計細線
  6
CONTINUOUS
 62
    3
 10
1068.69766904479
 20
701.54877127353348
 40
0.5000000000000002
 50
179.99999999999983
 51
269.99999999999977
  0
LINE
  8
_0-1_計細線
  6
CONTINUOUS
 62
    3
 10
1068.19766904479
 20
702.94877127353334
 11
1068.19766904479
 21
701.54877127353348
  0
ARC
  8
_0-1_計細線
  6
CONTINUOUS
 62
    3
 10
1079.0976690425828
 20
701.54877127353348
 40
0.5000000000000002
 50
269.99999999999977
 51
359.99999999999966
  0
LINE
  8
_0-1_計細線
  6
CONTINUOUS
 62
    3
 10
1079.5976690425825
 20
702.94877127353334
 11
1079.5976690425825
 21
701.54877127353348
  0
ARC
  8
_0-1_計細線
  6
CONTINUOUS
 62
    3
 10
1071.19766904479
 20
700.04877127353348
 40
1.0000000000000004
 50
0
 51
89.999999999999915
  0
LINE
  8
_0-1_計細線
  6
CONTINUOUS
 62
    3
 10
1071.19766904479
 20
701.04877127353325
 11
1068.69766904479
 21
701.04877127353325
  0
ARC
  8
_0-1_計細線
  6
CONTINUOUS
 62
    3
 10
1076.5976690447901
 20
700.04877127353348
 40
1.0000000000000004
 50
89.999999999999915
 51
179.99999999999983
  0
LINE
  8
_0-1_計細線
  6
CONTINUOUS
 62
    3
 10
1076.5976690425825
 20
701.04877127353325
 11
1079.0976690425828
 21
701.04877127353325
  0
LINE
  8
_0-1_計細線
  6
CONTINUOUS
 62
    3
 10
1076.3976690436868
 20
704.94877127353311
 11
1071.3976690436866
 21
704.94877127353311
  0
LINE
  8
_0-1_計細線
  6
CONTINUOUS
 62
    3
 10
1072.1976690436861
 20
684.94877127353323
 11
1072.1976690447902
 21
700.04877127353348
  0
LINE
  8
_0-1_計細線
  6
CONTINUOUS
 62
    3
 10
1075.5976690436864
 20
684.94877127353323
 11
1075.5976690447901
 21
700.04877127353348
  0
LINE
  8
_0-1_計細線
  6
CONTINUOUS
 62
    3
 10
1075.5976690436864
 20
684.94877127353323
 11
1072.1976690436861
 21
684.94877127353323
  0
ARC
  8
_0-1_計細線
  6
CONTINUOUS
 62
    3
 10
1086.197669045152
 20
702.94877127353334
 40
1.0000000000000004
 50
89.999999999999915
 51
179.99999999999983
  0
ARC
  8
_0-1_計細線
  6
CONTINUOUS
 62
    3
 10
1086.6656182364798
 20
704.94877127353311
 40
1.0000000000000004
 50
269.99999999999977
 51
330.00000000000057
  0
ARC
  8
_0-1_計細線
  6
CONTINUOUS
 62
    3
 10
1088.3976690440486
 20
703.94877127353334
 40
1.0000000000000004
 50
89.999999999999915
 51
150.00000000001486
  0
LINE
  8
_0-1_計細線
  6
CONTINUOUS
 62
    3
 10
1086.197669045152
 20
703.94877127353334
 11
1086.6656182364798
 21
703.94877127353334
  0
ARC
  8
_0-1_計細線
  6
CONTINUOUS
 62
    3
 10
1095.5976690429447
 20
702.94877127353334
 40
1.0000000000000004
 50
0
 51
89.999999999999915
  0
ARC
  8
_0-1_計細線
  6
CONTINUOUS
 62
    3
 10
1095.1297198516172
 20
704.94877127353311
 40
1.0000000000000004
 50
209.99999999999216
 51
269.99999999999977
  0
ARC
  8
_0-1_計細線
  6
CONTINUOUS
 62
    3
 10
1093.3976690440481
 20
703.94877127353334
 40
1.0000000000000004
 50
29.999999999985132
 51
89.999999999973952
  0
LINE
  8
_0-1_計細線
  6
CONTINUOUS
 62
    3
 10
1095.5976690429447
 20
703.94877127353334
 11
1095.1297198516172
 21
703.94877127353334
  0
ARC
  8
_0-1_計細線
  6
CONTINUOUS
 62
    3
 10
1085.697669045152
 20
701.54877127353348
 40
0.5000000000000002
 50
179.99999999999983
 51
269.99999999999977
  0
LINE
  8
_0-1_計細線
  6
CONTINUOUS
 62
    3
 10
1085.1976690451522
 20
702.94877127353334
 11
1085.1976690451522
 21
701.54877127353348
  0
ARC
  8
_0-1_計細線
  6
CONTINUOUS
 62
    3
 10
1096.0976690429447
 20
701.54877127353348
 40
0.5000000000000002
 50
269.99999999999977
 51
359.99999999999966
  0
LINE
  8
_0-1_計細線
  6
CONTINUOUS
 62
    3
 10
1096.5976690429447
 20
702.94877127353334
 11
1096.5976690429447
 21
701.54877127353348
  0
ARC
  8
_0-1_計細線
  6
CONTINUOUS
 62
    3
 10
1088.1976690451518
 20
700.04877127353348
 40
1.0000000000000004
 50
0
 51
89.999999999999915
  0
LINE
  8
_0-1_計細線
  6
CONTINUOUS
 62
    3
 10
1088.1976690451518
 20
701.04877127353325
 11
1085.697669045152
 21
701.04877127353325
  0
ARC
  8
_0-1_計細線
  6
CONTINUOUS
 62
    3
 10
1093.5976690451521
 20
700.04877127353348
 40
1.0000000000000004
 50
89.999999999999915
 51
179.99999999999983
  0
LINE
  8
_0-1_計細線
  6
CONTINUOUS
 62
    3
 10
1093.5976690429447
 20
701.04877127353325
 11
1096.0976690429447
 21
701.04877127353325
  0
LINE
  8
_0-1_計細線
  6
CONTINUOUS
 62
    3
 10
1093.3976690440481
 20
704.94877127353311
 11
1088.3976690440486
 21
704.94877127353311
  0
LINE
  8
_0-1_計細線
  6
CONTINUOUS
 62
    3
 10
1089.1976690440483
 20
684.94877127353323
 11
1089.1976690451518
 21
700.04877127353348
  0
LINE
  8
_0-1_計細線
  6
CONTINUOUS
 62
    3
 10
1092.5976690440486
 20
684.94877127353323
 11
1092.5976690451519
 21
700.04877127353348
  0
LINE
  8
_0-1_計細線
  6
CONTINUOUS
 62
    3
 10
1092.5976690440486
 20
684.94877127353323
 11
1089.1976690440483
 21
684.94877127353323
  0
ARC
  8
_0-1_計細線
  6
CONTINUOUS
 62
    3
 10
1137.1976690462373
 20
702.94877127353334
 40
1.0000000000000004
 50
89.999999999999915
 51
179.99999999999983
  0
ARC
  8
_0-1_計細線
  6
CONTINUOUS
 62
    3
 10
1137.6656182375646
 20
704.94877127353311
 40
1.0000000000000004
 50
269.99999999999977
 51
330.00000000000711
  0
ARC
  8
_0-1_計細線
  6
CONTINUOUS
 62
    3
 10
1139.3976690451334
 20
703.94877127353334
 40
1.0000000000000004
 50
89.999999999999915
 51
150.00000000000836
  0
LINE
  8
_0-1_計細線
  6
CONTINUOUS
 62
    3
 10
1137.1976690462373
 20
703.94877127353334
 11
1137.6656182375646
 21
703.94877127353334
  0
ARC
  8
_0-1_計細線
  6
CONTINUOUS
 62
    3
 10
1146.5976690440298
 20
702.94877127353334
 40
1.0000000000000004
 50
0
 51
89.999999999999915
  0
ARC
  8
_0-1_計細線
  6
CONTINUOUS
 62
    3
 10
1146.1297198527027
 20
704.94877127353311
 40
1.0000000000000004
 50
209.9999999999726
 51
269.99999999999977
  0
ARC
  8
_0-1_計細線
  6
CONTINUOUS
 62
    3
 10
1144.3976690451334
 20
703.94877127353334
 40
1.0000000000000004
 50
29.99999999999816
 51
89.999999999999915
  0
LINE
  8
_0-1_計細線
  6
CONTINUOUS
 62
    3
 10
1146.5976690440298
 20
703.94877127353334
 11
1146.1297198527027
 21
703.94877127353334
  0
ARC
  8
_0-1_計細線
  6
CONTINUOUS
 62
    3
 10
1136.6976690462373
 20
701.54877127353348
 40
0.5000000000000002
 50
179.99999999999983
 51
269.99999999999977
  0
LINE
  8
_0-1_計細線
  6
CONTINUOUS
 62
    3
 10
1136.197669046237
 20
702.94877127353334
 11
1136.197669046237
 21
701.54877127353348
  0
ARC
  8
_0-1_計細線
  6
CONTINUOUS
 62
    3
 10
1147.0976690440298
 20
701.54877127353348
 40
0.5000000000000002
 50
269.99999999999977
 51
359.99999999999966
  0
LINE
  8
_0-1_計細線
  6
CONTINUOUS
 62
    3
 10
1147.59766904403
 20
702.94877127353334
 11
1147.59766904403
 21
701.54877127353348
  0
ARC
  8
_0-1_計細線
  6
CONTINUOUS
 62
    3
 10
1139.197669046237
 20
700.04877127353348
 40
1.0000000000000004
 50
0
 51
89.999999999999915
  0
LINE
  8
_0-1_計細線
  6
CONTINUOUS
 62
    3
 10
1139.197669046237
 20
701.04877127353325
 11
1136.6976690462373
 21
701.04877127353325
  0
ARC
  8
_0-1_計細線
  6
CONTINUOUS
 62
    3
 10
1144.5976690462376
 20
700.04877127353348
 40
1.0000000000000004
 50
89.999999999999915
 51
179.99999999999983
  0
LINE
  8
_0-1_計細線
  6
CONTINUOUS
 62
    3
 10
1144.5976690440302
 20
701.04877127353325
 11
1147.0976690440298
 21
701.04877127353325
  0
LINE
  8
_0-1_計細線
  6
CONTINUOUS
 62
    3
 10
1144.3976690451334
 20
704.94877127353311
 11
1139.3976690451334
 21
704.94877127353311
  0
LINE
  8
_0-1_計細線
  6
CONTINUOUS
 62
    3
 10
1140.1976690451338
 20
684.94877127353323
 11
1140.1976690462375
 21
700.04877127353348
  0
LINE
  8
_0-1_計細線
  6
CONTINUOUS
 62
    3
 10
1143.5976690451334
 20
684.94877127353323
 11
1143.5976690462373
 21
700.04877127353348
  0
LINE
  8
_0-1_計細線
  6
CONTINUOUS
 62
    3
 10
1143.5976690451334
 20
684.94877127353323
 11
1140.1976690451338
 21
684.94877127353323
  0
ARC
  8
_0-1_計細線
  6
CONTINUOUS
 62
    3
 10
1154.1976690465988
 20
702.94877127353334
 40
1.0000000000000004
 50
89.999999999999915
 51
179.99999999999983
  0
ARC
  8
_0-1_計細線
  6
CONTINUOUS
 62
    3
 10
1154.665618237927
 20
704.94877127353311
 40
1.0000000000000004
 50
269.99999999999977
 51
330.00000000000711
  0
ARC
  8
_0-1_計細線
  6
CONTINUOUS
 62
    3
 10
1156.3976690454951
 20
703.94877127353334
 40
1.0000000000000004
 50
89.999999999999915
 51
149.9999999999888
  0
LINE
  8
_0-1_計細線
  6
CONTINUOUS
 62
    3
 10
1154.1976690465988
 20
703.94877127353334
 11
1154.665618237927
 21
703.94877127353334
  0
ARC
  8
_0-1_計細線
  6
CONTINUOUS
 62
    3
 10
1163.5976690443915
 20
702.94877127353334
 40
1.0000000000000004
 50
0
 51
89.999999999999915
  0
ARC
  8
_0-1_計細線
  6
CONTINUOUS
 62
    3
 10
1163.1297198530642
 20
704.94877127353311
 40
1.0000000000000004
 50
209.99999999999216
 51
269.99999999999977
  0
ARC
  8
_0-1_計細線
  6
CONTINUOUS
 62
    3
 10
1161.3976690454954
 20
703.94877127353334
 40
1.0000000000000004
 50
29.999999999991644
 51
89.999999999999915
  0
LINE
  8
_0-1_計細線
  6
CONTINUOUS
 62
    3
 10
1163.5976690443915
 20
703.94877127353334
 11
1163.1297198530642
 21
703.94877127353334
  0
ARC
  8
_0-1_計細線
  6
CONTINUOUS
 62
    3
 10
1153.697669046599
 20
701.54877127353348
 40
0.5000000000000002
 50
179.99999999999983
 51
269.99999999999977
  0
LINE
  8
_0-1_計細線
  6
CONTINUOUS
 62
    3
 10
1153.1976690465988
 20
702.94877127353334
 11
1153.1976690465988
 21
701.54877127353348
  0
ARC
  8
_0-1_計細線
  6
CONTINUOUS
 62
    3
 10
1164.0976690443922
 20
701.54877127353348
 40
0.5000000000000002
 50
269.99999999999977
 51
359.99999999999966
  0
LINE
  8
_0-1_計細線
  6
CONTINUOUS
 62
    3
 10
1164.5976690443918
 20
702.94877127353334
 11
1164.5976690443918
 21
701.54877127353348
  0
ARC
  8
_0-1_計細線
  6
CONTINUOUS
 62
    3
 10
1156.1976690465992
 20
700.04877127353348
 40
1.0000000000000004
 50
0
 51
89.999999999999915
  0
LINE
  8
_0-1_計細線
  6
CONTINUOUS
 62
    3
 10
1156.1976690465992
 20
701.04877127353325
 11
1153.697669046599
 21
701.04877127353325
  0
ARC
  8
_0-1_計細線
  6
CONTINUOUS
 62
    3
 10
1161.5976690465989
 20
700.04877127353348
 40
1.0000000000000004
 50
89.999999999999915
 51
179.99999999999983
  0
LINE
  8
_0-1_計細線
  6
CONTINUOUS
 62
    3
 10
1161.5976690443918
 20
701.04877127353325
 11
1164.0976690443922
 21
701.04877127353325
  0
LINE
  8
_0-1_計細線
  6
CONTINUOUS
 62
    3
 10
1161.3976690454954
 20
704.94877127353311
 11
1156.3976690454951
 21
704.94877127353311
  0
LINE
  8
_0-1_計細線
  6
CONTINUOUS
 62
    3
 10
1157.1976690454953
 20
684.94877127353323
 11
1157.1976690465988
 21
700.04877127353348
  0
LINE
  8
_0-1_計細線
  6
CONTINUOUS
 62
    3
 10
1160.5976690454959
 20
684.94877127353323
 11
1160.5976690465989
 21
700.04877127353348
  0
LINE
  8
_0-1_計細線
  6
CONTINUOUS
 62
    3
 10
1160.5976690454959
 20
684.94877127353323
 11
1157.1976690454953
 21
684.94877127353323
  0
LINE
  8
_0-1_計細線
  6
CONTINUOUS
 62
    3
 10
987.19766923343104
 20
700.24877127353318
 11
973.59766923343091
 21
700.24877127353318
  0
LINE
  8
_0-1_計細線
  6
CONTINUOUS
 62
    3
 10
987.19766923343059
 20
687.24877127353341
 11
973.59766923343091
 21
687.24877127353341
  0
ARC
  8
_0-1_計細線
  6
CONTINUOUS
 62
    3
 10
976.59766923251755
 20
702.94877127353334
 40
1.0000000000000004
 50
0
 51
89.999999999999915
  0
ARC
  8
_0-1_計細線
  6
CONTINUOUS
 62
    3
 10
976.12972004118978
 20
704.94877127353311
 40
1.0000000000000004
 50
209.99999999999216
 51
269.99999999999977
  0
ARC
  8
_0-1_計細線
  6
CONTINUOUS
 62
    3
 10
974.39766923362117
 20
703.94877127353334
 40
1.0000000000000004
 50
29.99999999999816
 51
89.999999999999915
  0
LINE
  8
_0-1_計細線
  6
CONTINUOUS
 62
    3
 10
976.59766923251755
 20
703.94877127353334
 11
976.12972004118978
 21
703.94877127353334
  0
ARC
  8
_0-1_計細線
  6
CONTINUOUS
 62
    3
 10
967.19766923472434
 20
702.94877127353334
 40
1.0000000000000004
 50
89.999999999999915
 51
179.99999999999983
  0
ARC
  8
_0-1_計細線
  6
CONTINUOUS
 62
    3
 10
967.66561842605199
 20
704.94877127353311
 40
1.0000000000000004
 50
269.99999999999977
 51
330.00000000000711
  0
ARC
  8
_0-1_計細線
  6
CONTINUOUS
 62
    3
 10
969.39766923362117
 20
703.94877127353334
 40
1.0000000000000004
 50
90.000000000026048
 51
150.00000000001486
  0
LINE
  8
_0-1_計細線
  6
CONTINUOUS
 62
    3
 10
967.19766923472434
 20
703.94877127353334
 11
967.66561842605199
 21
703.94877127353334
  0
ARC
  8
_0-1_計細線
  6
CONTINUOUS
 62
    3
 10
977.09766923251721
 20
701.54877127353348
 40
0.5000000000000002
 50
269.99999999999977
 51
359.99999999999966
  0
LINE
  8
_0-1_計細線
  6
CONTINUOUS
 62
    3
 10
977.59766923251743
 20
702.94877127353334
 11
977.59766923251743
 21
701.54877127353348
  0
ARC
  8
_0-1_計細線
  6
CONTINUOUS
 62
    3
 10
966.69766923472423
 20
701.54877127353348
 40
0.5000000000000002
 50
179.99999999999983
 51
269.99999999999977
  0
LINE
  8
_0-1_計細線
  6
CONTINUOUS
 62
    3
 10
966.19766923472457
 20
702.94877127353334
 11
966.19766923472457
 21
701.54877127353348
  0
ARC
  8
_0-1_計細線
  6
CONTINUOUS
 62
    3
 10
974.59766923251721
 20
700.04877127353348
 40
1.0000000000000004
 50
89.999999999999915
 51
179.99999999999983
  0
LINE
  8
_0-1_計細線
  6
CONTINUOUS
 62
    3
 10
974.59766923251721
 20
701.04877127353325
 11
977.09766923251721
 21
701.04877127353325
  0
ARC
  8
_0-1_計細線
  6
CONTINUOUS
 62
    3
 10
969.19766923251746
 20
700.04877127353348
 40
1.0000000000000004
 50
0
 51
89.999999999999915
  0
LINE
  8
_0-1_計細線
  6
CONTINUOUS
 62
    3
 10
969.19766923472457
 20
701.04877127353325
 11
966.69766923472423
 21
701.04877127353325
  0
LINE
  8
_0-1_計細線
  6
CONTINUOUS
 62
    3
 10
969.39766923362117
 20
704.94877127353311
 11
974.39766923362117
 21
704.94877127353311
  0
LINE
  8
_0-1_計細線
  6
CONTINUOUS
 62
    3
 10
973.59766923362088
 20
684.94877127353323
 11
973.59766923251732
 21
700.04877127353348
  0
LINE
  8
_0-1_計細線
  6
CONTINUOUS
 62
    3
 10
970.1976692336209
 20
684.94877127353323
 11
970.19766923251734
 21
700.04877127353348
  0
LINE
  8
_0-1_計細線
  6
CONTINUOUS
 62
    3
 10
970.1976692336209
 20
684.94877127353323
 11
973.59766923362088
 21
684.94877127353323
  0
LINE
  8
_0-1_計細線
  6
CONTINUOUS
 62
    3
 10
970.19766923325949
 20
700.24877127353318
 11
956.59766923325935
 21
700.24877127353318
  0
LINE
  8
_0-1_計細線
  6
CONTINUOUS
 62
    3
 10
970.19766923325903
 20
687.24877127353341
 11
956.59766923325935
 21
687.24877127353341
  0
ARC
  8
_0-1_計細線
  6
CONTINUOUS
 62
    3
 10
959.59766923234599
 20
702.94877127353334
 40
1.0000000000000004
 50
0
 51
89.999999999999915
  0
ARC
  8
_0-1_計細線
  6
CONTINUOUS
 62
    3
 10
959.12972004101812
 20
704.94877127353311
 40
1.0000000000000004
 50
209.99999999999216
 51
269.99999999999977
  0
ARC
  8
_0-1_計細線
  6
CONTINUOUS
 62
    3
 10
957.39766923344962
 20
703.94877127353334
 40
1.0000000000000004
 50
29.99999999999816
 51
89.999999999999915
  0
LINE
  8
_0-1_計細線
  6
CONTINUOUS
 62
    3
 10
959.59766923234599
 20
703.94877127353334
 11
959.12972004101812
 21
703.94877127353334
  0
ARC
  8
_0-1_計細線
  6
CONTINUOUS
 62
    3
 10
950.19766923455279
 20
702.94877127353334
 40
1.0000000000000004
 50
89.999999999999915
 51
179.99999999999983
  0
ARC
  8
_0-1_計細線
  6
CONTINUOUS
 62
    3
 10
950.66561842588044
 20
704.94877127353311
 40
1.0000000000000004
 50
269.99999999999977
 51
330.00000000000711
  0
ARC
  8
_0-1_計細線
  6
CONTINUOUS
 62
    3
 10
952.39766923344962
 20
703.94877127353334
 40
1.0000000000000004
 50
90.000000000026048
 51
150.00000000001486
  0
LINE
  8
_0-1_計細線
  6
CONTINUOUS
 62
    3
 10
950.19766923455279
 20
703.94877127353334
 11
950.66561842588044
 21
703.94877127353334
  0
ARC
  8
_0-1_計細線
  6
CONTINUOUS
 62
    3
 10
960.09766923234565
 20
701.54877127353348
 40
0.5000000000000002
 50
269.99999999999977
 51
359.99999999999966
  0
LINE
  8
_0-1_計細線
  6
CONTINUOUS
 62
    3
 10
960.59766923234588
 20
702.94877127353334
 11
960.59766923234588
 21
701.54877127353348
  0
ARC
  8
_0-1_計細線
  6
CONTINUOUS
 62
    3
 10
949.69766923455268
 20
701.54877127353348
 40
0.5000000000000002
 50
179.99999999999983
 51
269.99999999999977
  0
LINE
  8
_0-1_計細線
  6
CONTINUOUS
 62
    3
 10
949.19766923455302
 20
702.94877127353334
 11
949.19766923455302
 21
701.54877127353348
  0
ARC
  8
_0-1_計細線
  6
CONTINUOUS
 62
    3
 10
957.59766923234565
 20
700.04877127353348
 40
1.0000000000000004
 50
89.999999999999915
 51
179.99999999999983
  0
LINE
  8
_0-1_計細線
  6
CONTINUOUS
 62
    3
 10
957.59766923234565
 20
701.04877127353325
 11
960.09766923234565
 21
701.04877127353325
  0
ARC
  8
_0-1_計細線
  6
CONTINUOUS
 62
    3
 10
952.1976692323459
 20
700.04877127353348
 40
1.0000000000000004
 50
0
 51
89.999999999999915
  0
LINE
  8
_0-1_計細線
  6
CONTINUOUS
 62
    3
 10
952.1976692345529
 20
701.04877127353325
 11
949.69766923455268
 21
701.04877127353325
  0
LINE
  8
_0-1_計細線
  6
CONTINUOUS
 62
    3
 10
952.39766923344962
 20
704.94877127353311
 11
957.39766923344962
 21
704.94877127353311
  0
LINE
  8
_0-1_計細線
  6
CONTINUOUS
 62
    3
 10
956.59766923344932
 20
684.94877127353323
 11
956.59766923234565
 21
700.04877127353348
  0
LINE
  8
_0-1_計細線
  6
CONTINUOUS
 62
    3
 10
953.19766923344923
 20
684.94877127353323
 11
953.19766923234579
 21
700.04877127353348
  0
LINE
  8
_0-1_計細線
  6
CONTINUOUS
 62
    3
 10
953.19766923344923
 20
684.94877127353323
 11
956.59766923344932
 21
684.94877127353323
  0
LINE
  8
_0-1_計細線
  6
CONTINUOUS
 62
    3
 10
953.19766923308794
 20
700.24877127353318
 11
939.5976692330878
 21
700.24877127353318
  0
LINE
  8
_0-1_計細線
  6
CONTINUOUS
 62
    3
 10
953.19766923308748
 20
687.24877127353341
 11
939.5976692330878
 21
687.24877127353341
  0
ARC
  8
_0-1_計細線
  6
CONTINUOUS
 62
    3
 10
942.59766923217444
 20
702.94877127353334
 40
1.0000000000000004
 50
0
 51
89.999999999999915
  0
ARC
  8
_0-1_計細線
  6
CONTINUOUS
 62
    3
 10
942.12972004084668
 20
704.94877127353311
 40
1.0000000000000004
 50
209.99999999999216
 51
269.99999999999977
  0
ARC
  8
_0-1_計細線
  6
CONTINUOUS
 62
    3
 10
940.39766923327807
 20
703.94877127353334
 40
1.0000000000000004
 50
29.99999999999816
 51
89.999999999999915
  0
LINE
  8
_0-1_計細線
  6
CONTINUOUS
 62
    3
 10
942.59766923217444
 20
703.94877127353334
 11
942.12972004084668
 21
703.94877127353334
  0
ARC
  8
_0-1_計細線
  6
CONTINUOUS
 62
    3
 10
933.19766923438124
 20
702.94877127353334
 40
1.0000000000000004
 50
89.999999999999915
 51
179.99999999999983
  0
ARC
  8
_0-1_計細線
  6
CONTINUOUS
 62
    3
 10
933.66561842570889
 20
704.94877127353311
 40
1.0000000000000004
 50
269.99999999999977
 51
330.00000000000711
  0
ARC
  8
_0-1_計細線
  6
CONTINUOUS
 62
    3
 10
935.39766923327807
 20
703.94877127353334
 40
1.0000000000000004
 50
90.000000000026048
 51
150.00000000001486
  0
LINE
  8
_0-1_計細線
  6
CONTINUOUS
 62
    3
 10
933.19766923438124
 20
703.94877127353334
 11
933.66561842570889
 21
703.94877127353334
  0
ARC
  8
_0-1_計細線
  6
CONTINUOUS
 62
    3
 10
943.0976692321741
 20
701.54877127353348
 40
0.5000000000000002
 50
269.99999999999977
 51
359.99999999999966
  0
LINE
  8
_0-1_計細線
  6
CONTINUOUS
 62
    3
 10
943.59766923217433
 20
702.94877127353334
 11
943.59766923217433
 21
701.54877127353348
  0
ARC
  8
_0-1_計細線
  6
CONTINUOUS
 62
    3
 10
932.69766923438112
 20
701.54877127353348
 40
0.5000000000000002
 50
179.99999999999983
 51
269.99999999999977
  0
LINE
  8
_0-1_計細線
  6
CONTINUOUS
 62
    3
 10
932.19766923438146
 20
702.94877127353334
 11
932.19766923438146
 21
701.54877127353348
  0
ARC
  8
_0-1_計細線
  6
CONTINUOUS
 62
    3
 10
940.5976692321741
 20
700.04877127353348
 40
1.0000000000000004
 50
89.999999999999915
 51
179.99999999999983
  0
LINE
  8
_0-1_計細線
  6
CONTINUOUS
 62
    3
 10
940.5976692321741
 20
701.04877127353325
 11
943.0976692321741
 21
701.04877127353325
  0
ARC
  8
_0-1_計細線
  6
CONTINUOUS
 62
    3
 10
935.19766923217435
 20
700.04877127353348
 40
1.0000000000000004
 50
0
 51
89.999999999999915
  0
LINE
  8
_0-1_計細線
  6
CONTINUOUS
 62
    3
 10
935.19766923438146
 20
701.04877127353325
 11
932.69766923438112
 21
701.04877127353325
  0
LINE
  8
_0-1_計細線
  6
CONTINUOUS
 62
    3
 10
935.39766923327807
 20
704.94877127353311
 11
940.39766923327807
 21
704.94877127353311
  0
LINE
  8
_0-1_計細線
  6
CONTINUOUS
 62
    3
 10
939.59766923327777
 20
684.94877127353323
 11
939.59766923217421
 21
700.04877127353348
  0
LINE
  8
_0-1_計細線
  6
CONTINUOUS
 62
    3
 10
936.19766923327779
 20
684.94877127353323
 11
936.19766923217423
 21
700.04877127353348
  0
LINE
  8
_0-1_計細線
  6
CONTINUOUS
 62
    3
 10
936.19766923327779
 20
684.94877127353323
 11
939.59766923327777
 21
684.94877127353323
  0
LINE
  8
_0-1_計細線
  6
CONTINUOUS
 62
    3
 10
1228.5976690467346
 20
700.24877127353318
 11
1242.1976690467345
 21
700.24877127353318
  0
LINE
  8
_0-1_計細線
  6
CONTINUOUS
 62
    3
 10
1228.5976690467346
 20
687.24877127353341
 11
1242.1976690467345
 21
687.24877127353341
  0
ARC
  8
_0-1_計細線
  6
CONTINUOUS
 62
    3
 10
1239.1976690476481
 20
702.94877127353334
 40
1.0000000000000004
 50
89.999999999999915
 51
179.99999999999983
  0
ARC
  8
_0-1_計細線
  6
CONTINUOUS
 62
    3
 10
1239.6656182389754
 20
704.94877127353311
 40
1.0000000000000004
 50
269.99999999999977
 51
330.00000000000711
  0
ARC
  8
_0-1_計細線
  6
CONTINUOUS
 62
    3
 10
1241.3976690465443
 20
703.94877127353334
 40
1.0000000000000004
 50
89.999999999999915
 51
150.00000000000836
  0
LINE
  8
_0-1_計細線
  6
CONTINUOUS
 62
    3
 10
1239.1976690476481
 20
703.94877127353334
 11
1239.6656182389754
 21
703.94877127353334
  0
ARC
  8
_0-1_計細線
  6
CONTINUOUS
 62
    3
 10
1248.5976690454409
 20
702.94877127353334
 40
1.0000000000000004
 50
0
 51
89.999999999999915
  0
ARC
  8
_0-1_計細線
  6
CONTINUOUS
 62
    3
 10
1248.1297198541131
 20
704.94877127353311
 40
1.0000000000000004
 50
209.99999999999216
 51
269.99999999999977
  0
ARC
  8
_0-1_計細線
  6
CONTINUOUS
 62
    3
 10
1246.397669046544
 20
703.94877127353334
 40
1.0000000000000004
 50
29.999999999985132
 51
89.999999999973952
  0
LINE
  8
_0-1_計細線
  6
CONTINUOUS
 62
    3
 10
1248.5976690454409
 20
703.94877127353334
 11
1248.1297198541131
 21
703.94877127353334
  0
ARC
  8
_0-1_計細線
  6
CONTINUOUS
 62
    3
 10
1238.6976690476479
 20
701.54877127353348
 40
0.5000000000000002
 50
179.99999999999983
 51
269.99999999999977
  0
LINE
  8
_0-1_計細線
  6
CONTINUOUS
 62
    3
 10
1238.1976690476479
 20
702.94877127353334
 11
1238.1976690476479
 21
701.54877127353348
  0
ARC
  8
_0-1_計細線
  6
CONTINUOUS
 62
    3
 10
1249.0976690454406
 20
701.54877127353348
 40
0.5000000000000002
 50
269.99999999999977
 51
359.99999999999966
  0
LINE
  8
_0-1_計細線
  6
CONTINUOUS
 62
    3
 10
1249.5976690454406
 20
702.94877127353334
 11
1249.5976690454406
 21
701.54877127353348
  0
ARC
  8
_0-1_計細線
  6
CONTINUOUS
 62
    3
 10
1241.1976690476479
 20
700.04877127353348
 40
1.0000000000000004
 50
0
 51
89.999999999999915
  0
LINE
  8
_0-1_計細線
  6
CONTINUOUS
 62
    3
 10
1241.1976690476479
 20
701.04877127353325
 11
1238.6976690476479
 21
701.04877127353325
  0
ARC
  8
_0-1_計細線
  6
CONTINUOUS
 62
    3
 10
1246.5976690476477
 20
700.04877127353348
 40
1.0000000000000004
 50
89.999999999999915
 51
179.99999999999983
  0
LINE
  8
_0-1_計細線
  6
CONTINUOUS
 62
    3
 10
1246.5976690454404
 20
701.04877127353325
 11
1249.0976690454406
 21
701.04877127353325
  0
LINE
  8
_0-1_計細線
  6
CONTINUOUS
 62
    3
 10
1246.397669046544
 20
704.94877127353311
 11
1241.3976690465443
 21
704.94877127353311
  0
LINE
  8
_0-1_計細線
  6
CONTINUOUS
 62
    3
 10
1242.1976690465442
 20
684.94877127353323
 11
1242.1976690476479
 21
700.04877127353348
  0
LINE
  8
_0-1_計細線
  6
CONTINUOUS
 62
    3
 10
1245.5976690465443
 20
684.94877127353323
 11
1245.5976690476482
 21
700.04877127353348
  0
LINE
  8
_0-1_計細線
  6
CONTINUOUS
 62
    3
 10
1245.5976690465443
 20
684.94877127353323
 11
1242.1976690465442
 21
684.94877127353323
  0
LINE
  8
_0-1_計細線
  6
CONTINUOUS
 62
    3
 10
1245.5976690469063
 20
700.24877127353318
 11
1259.1976690469064
 21
700.24877127353318
  0
LINE
  8
_0-1_計細線
  6
CONTINUOUS
 62
    3
 10
1245.5976690469065
 20
687.24877127353341
 11
1259.1976690469064
 21
687.24877127353341
  0
ARC
  8
_0-1_計細線
  6
CONTINUOUS
 62
    3
 10
1256.1976690478198
 20
702.94877127353334
 40
1.0000000000000004
 50
89.999999999999915
 51
179.99999999999983
  0
ARC
  8
_0-1_計細線
  6
CONTINUOUS
 62
    3
 10
1256.6656182391473
 20
704.94877127353311
 40
1.0000000000000004
 50
269.99999999999977
 51
330.00000000000711
  0
ARC
  8
_0-1_計細線
  6
CONTINUOUS
 62
    3
 10
1258.3976690467161
 20
703.94877127353334
 40
1.0000000000000004
 50
89.999999999999915
 51
150.00000000000836
  0
LINE
  8
_0-1_計細線
  6
CONTINUOUS
 62
    3
 10
1256.1976690478198
 20
703.94877127353334
 11
1256.6656182391473
 21
703.94877127353334
  0
ARC
  8
_0-1_計細線
  6
CONTINUOUS
 62
    3
 10
1265.5976690456127
 20
702.94877127353334
 40
1.0000000000000004
 50
0
 51
89.999999999999915
  0
ARC
  8
_0-1_計細線
  6
CONTINUOUS
 62
    3
 10
1265.129719854285
 20
704.94877127353311
 40
1.0000000000000004
 50
209.99999999999216
 51
269.99999999999977
  0
ARC
  8
_0-1_計細線
  6
CONTINUOUS
 62
    3
 10
1263.3976690467159
 20
703.94877127353334
 40
1.0000000000000004
 50
29.999999999985132
 51
89.999999999973952
  0
LINE
  8
_0-1_計細線
  6
CONTINUOUS
 62
    3
 10
1265.5976690456127
 20
703.94877127353334
 11
1265.129719854285
 21
703.94877127353334
  0
ARC
  8
_0-1_計細線
  6
CONTINUOUS
 62
    3
 10
1255.6976690478198
 20
701.54877127353348
 40
0.5000000000000002
 50
179.99999999999983
 51
269.99999999999977
  0
LINE
  8
_0-1_計細線
  6
CONTINUOUS
 62
    3
 10
1255.19766904782
 20
702.94877127353334
 11
1255.19766904782
 21
701.54877127353348
  0
ARC
  8
_0-1_計細線
  6
CONTINUOUS
 62
    3
 10
1266.0976690456125
 20
701.54877127353348
 40
0.5000000000000002
 50
269.99999999999977
 51
359.99999999999966
  0
LINE
  8
_0-1_計細線
  6
CONTINUOUS
 62
    3
 10
1266.5976690456125
 20
702.94877127353334
 11
1266.5976690456125
 21
701.54877127353348
  0
ARC
  8
_0-1_計細線
  6
CONTINUOUS
 62
    3
 10
1258.1976690478198
 20
700.04877127353348
 40
1.0000000000000004
 50
0
 51
89.999999999999915
  0
LINE
  8
_0-1_計細線
  6
CONTINUOUS
 62
    3
 10
1258.1976690478198
 20
701.04877127353325
 11
1255.6976690478198
 21
701.04877127353325
  0
ARC
  8
_0-1_計細線
  6
CONTINUOUS
 62
    3
 10
1263.5976690478196
 20
700.04877127353348
 40
1.0000000000000004
 50
89.999999999999915
 51
179.99999999999983
  0
LINE
  8
_0-1_計細線
  6
CONTINUOUS
 62
    3
 10
1263.5976690456123
 20
701.04877127353325
 11
1266.0976690456125
 21
701.04877127353325
  0
LINE
  8
_0-1_計細線
  6
CONTINUOUS
 62
    3
 10
1263.3976690467159
 20
704.94877127353311
 11
1258.3976690467161
 21
704.94877127353311
  0
LINE
  8
_0-1_計細線
  6
CONTINUOUS
 62
    3
 10
1259.1976690467161
 20
684.94877127353323
 11
1259.1976690478198
 21
700.04877127353348
  0
LINE
  8
_0-1_計細線
  6
CONTINUOUS
 62
    3
 10
1262.5976690467162
 20
684.94877127353323
 11
1262.5976690478201
 21
700.04877127353348
  0
LINE
  8
_0-1_計細線
  6
CONTINUOUS
 62
    3
 10
1262.5976690467162
 20
684.94877127353323
 11
1259.1976690467161
 21
684.94877127353323
  0
LINE
  8
_0-1_計細線
  6
CONTINUOUS
 62
    3
 10
1262.5976690470782
 20
700.24877127353318
 11
1276.1976690470783
 21
700.24877127353318
  0
LINE
  8
_0-1_計細線
  6
CONTINUOUS
 62
    3
 10
1262.5976690470784
 20
687.24877127353341
 11
1276.1976690470783
 21
687.24877127353341
  0
ARC
  8
_0-1_計細線
  6
CONTINUOUS
 62
    3
 10
1273.1976690479917
 20
702.94877127353334
 40
1.0000000000000004
 50
89.999999999999915
 51
179.99999999999983
  0
ARC
  8
_0-1_計細線
  6
CONTINUOUS
 62
    3
 10
1273.6656182393194
 20
704.94877127353311
 40
1.0000000000000004
 50
269.99999999999977
 51
330.00000000000711
  0
ARC
  8
_0-1_計細線
  6
CONTINUOUS
 62
    3
 10
1275.397669046888
 20
703.94877127353334
 40
1.0000000000000004
 50
89.999999999999915
 51
150.00000000000836
  0
LINE
  8
_0-1_計細線
  6
CONTINUOUS
 62
    3
 10
1273.1976690479917
 20
703.94877127353334
 11
1273.6656182393194
 21
703.94877127353334
  0
ARC
  8
_0-1_計細線
  6
CONTINUOUS
 62
    3
 10
1282.5976690457846
 20
702.94877127353334
 40
1.0000000000000004
 50
0
 51
89.999999999999915
  0
ARC
  8
_0-1_計細線
  6
CONTINUOUS
 62
    3
 10
1282.1297198544571
 20
704.94877127353311
 40
1.0000000000000004
 50
209.99999999999216
 51
269.99999999999977
  0
ARC
  8
_0-1_計細線
  6
CONTINUOUS
 62
    3
 10
1280.3976690468878
 20
703.94877127353334
 40
1.0000000000000004
 50
29.999999999985132
 51
89.999999999973952
  0
LINE
  8
_0-1_計細線
  6
CONTINUOUS
 62
    3
 10
1282.5976690457846
 20
703.94877127353334
 11
1282.1297198544571
 21
703.94877127353334
  0
ARC
  8
_0-1_計細線
  6
CONTINUOUS
 62
    3
 10
1272.6976690479917
 20
701.54877127353348
 40
0.5000000000000002
 50
179.99999999999983
 51
269.99999999999977
  0
LINE
  8
_0-1_計細線
  6
CONTINUOUS
 62
    3
 10
1272.1976690479917
 20
702.94877127353334
 11
1272.1976690479917
 21
701.54877127353348
  0
ARC
  8
_0-1_計細線
  6
CONTINUOUS
 62
    3
 10
1283.0976690457846
 20
701.54877127353348
 40
0.5000000000000002
 50
269.99999999999977
 51
359.99999999999966
  0
LINE
  8
_0-1_計細線
  6
CONTINUOUS
 62
    3
 10
1283.5976690457844
 20
702.94877127353334
 11
1283.5976690457844
 21
701.54877127353348
  0
ARC
  8
_0-1_計細線
  6
CONTINUOUS
 62
    3
 10
1275.1976690479917
 20
700.04877127353348
 40
1.0000000000000004
 50
0
 51
89.999999999999915
  0
LINE
  8
_0-1_計細線
  6
CONTINUOUS
 62
    3
 10
1275.1976690479917
 20
701.04877127353325
 11
1272.6976690479917
 21
701.04877127353325
  0
ARC
  8
_0-1_計細線
  6
CONTINUOUS
 62
    3
 10
1280.5976690479915
 20
700.04877127353348
 40
1.0000000000000004
 50
89.999999999999915
 51
179.99999999999983
  0
LINE
  8
_0-1_計細線
  6
CONTINUOUS
 62
    3
 10
1280.5976690457842
 20
701.04877127353325
 11
1283.0976690457846
 21
701.04877127353325
  0
LINE
  8
_0-1_計細線
  6
CONTINUOUS
 62
    3
 10
1280.3976690468878
 20
704.94877127353311
 11
1275.397669046888
 21
704.94877127353311
  0
LINE
  8
_0-1_計細線
  6
CONTINUOUS
 62
    3
 10
1276.197669046888
 20
684.94877127353323
 11
1276.1976690479919
 21
700.04877127353348
  0
LINE
  8
_0-1_計細線
  6
CONTINUOUS
 62
    3
 10
1279.5976690468883
 20
684.94877127353323
 11
1279.597669047992
 21
700.04877127353348
  0
LINE
  8
_0-1_計細線
  6
CONTINUOUS
 62
    3
 10
1279.5976690468883
 20
684.94877127353323
 11
1276.197669046888
 21
684.94877127353323
  0
LINE
  8
_0-1_計細線
  6
CONTINUOUS
 62
    3
 10
1279.5976690472501
 20
700.24877127353318
 11
1293.1976690472502
 21
700.24877127353318
  0
LINE
  8
_0-1_計細線
  6
CONTINUOUS
 62
    3
 10
1279.5976690472503
 20
687.24877127353341
 11
1293.1976690472502
 21
687.24877127353341
  0
ARC
  8
_0-1_計細線
  6
CONTINUOUS
 62
    3
 10
1290.1976690481636
 20
702.94877127353334
 40
1.0000000000000004
 50
89.999999999999915
 51
179.99999999999983
  0
ARC
  8
_0-1_計細線
  6
CONTINUOUS
 62
    3
 10
1290.6656182394911
 20
704.94877127353311
 40
1.0000000000000004
 50
269.99999999999977
 51
330.00000000000711
  0
ARC
  8
_0-1_計細線
  6
CONTINUOUS
 62
    3
 10
1292.3976690470599
 20
703.94877127353334
 40
1.0000000000000004
 50
89.999999999999915
 51
150.00000000000836
  0
LINE
  8
_0-1_計細線
  6
CONTINUOUS
 62
    3
 10
1290.1976690481636
 20
703.94877127353334
 11
1290.6656182394911
 21
703.94877127353334
  0
ARC
  8
_0-1_計細線
  6
CONTINUOUS
 62
    3
 10
1299.5976690459565
 20
702.94877127353334
 40
1.0000000000000004
 50
0
 51
89.999999999999915
  0
ARC
  8
_0-1_計細線
  6
CONTINUOUS
 62
    3
 10
1299.129719854629
 20
704.94877127353311
 40
1.0000000000000004
 50
209.99999999999216
 51
269.99999999999977
  0
ARC
  8
_0-1_計細線
  6
CONTINUOUS
 62
    3
 10
1297.3976690470599
 20
703.94877127353334
 40
1.0000000000000004
 50
29.999999999985132
 51
89.999999999973952
  0
LINE
  8
_0-1_計細線
  6
CONTINUOUS
 62
    3
 10
1299.5976690459565
 20
703.94877127353334
 11
1299.129719854629
 21
703.94877127353334
  0
ARC
  8
_0-1_計細線
  6
CONTINUOUS
 62
    3
 10
1289.6976690481638
 20
701.54877127353348
 40
0.5000000000000002
 50
179.99999999999983
 51
269.99999999999977
  0
LINE
  8
_0-1_計細線
  6
CONTINUOUS
 62
    3
 10
1289.1976690481636
 20
702.94877127353334
 11
1289.1976690481636
 21
701.54877127353348
  0
ARC
  8
_0-1_計細線
  6
CONTINUOUS
 62
    3
 10
1300.0976690459563
 20
701.54877127353348
 40
0.5000000000000002
 50
269.99999999999977
 51
359.99999999999966
  0
LINE
  8
_0-1_計細線
  6
CONTINUOUS
 62
    3
 10
1300.5976690459565
 20
702.94877127353334
 11
1300.5976690459565
 21
701.54877127353348
  0
ARC
  8
_0-1_計細線
  6
CONTINUOUS
 62
    3
 10
1292.1976690481638
 20
700.04877127353348
 40
1.0000000000000004
 50
0
 51
89.999999999999915
  0
LINE
  8
_0-1_計細線
  6
CONTINUOUS
 62
    3
 10
1292.1976690481638
 20
701.04877127353325
 11
1289.6976690481638
 21
701.04877127353325
  0
ARC
  8
_0-1_計細線
  6
CONTINUOUS
 62
    3
 10
1297.5976690481637
 20
700.04877127353348
 40
1.0000000000000004
 50
89.999999999999915
 51
179.99999999999983
  0
LINE
  8
_0-1_計細線
  6
CONTINUOUS
 62
    3
 10
1297.5976690459561
 20
701.04877127353325
 11
1300.0976690459563
 21
701.04877127353325
  0
LINE
  8
_0-1_計細線
  6
CONTINUOUS
 62
    3
 10
1297.3976690470599
 20
704.94877127353311
 11
1292.3976690470599
 21
704.94877127353311
  0
LINE
  8
_0-1_計細線
  6
CONTINUOUS
 62
    3
 10
1293.1976690470601
 20
684.94877127353323
 11
1293.1976690481636
 21
700.04877127353348
  0
LINE
  8
_0-1_計細線
  6
CONTINUOUS
 62
    3
 10
1296.59766904706
 20
684.94877127353323
 11
1296.5976690481639
 21
700.04877127353348
  0
LINE
  8
_0-1_計細線
  6
CONTINUOUS
 62
    3
 10
1296.59766904706
 20
684.94877127353323
 11
1293.1976690470601
 21
684.94877127353323
  0
LINE
  8
_0-1_計細線
  6
CONTINUOUS
 62
    3
 10
918.40092104375708
 20
693.74877127353318
 11
915.396405043757
 21
693.74877127353318
  0
LINE
  8
_0-1_計細線
  6
CONTINUOUS
 62
    3
 10
918.40092104375708
 20
690.24877127353352
 11
915.39639304375771
 21
690.24877127353352
  0
ARC
  8
_0-1_計細線
  6
CONTINUOUS
 62
    3
 10
915.39639304375771
 20
690.44877127353334
 40
0.2000000000000001
 50
179.99999999999983
 51
269.99999999999977
  0
ARC
  8
_0-1_計細線
  6
CONTINUOUS
 62
    3
 10
922.95437304375719
 20
691.99862527353378
 40
7.7579560000000019
 50
166.96197800000505
 51
193.03566999999961
  0
ARC
  8
_0-1_計細線
  6
CONTINUOUS
 62
    3
 10
915.39639304375771
 20
697.04877127353359
 40
0.2000000000000001
 50
89.999999999999915
 51
179.99999999999983
  0
ARC
  8
_0-1_計細線
  6
CONTINUOUS
 62
    3
 10
922.95437304375719
 20
695.49891527353327
 40
7.7579560000000019
 50
166.96433000000002
 51
193.03802199999868
  0
LINE
  8
_0-1_計細線
  6
CONTINUOUS
 62
    3
 10
918.40092104375708
 20
697.24877127353341
 11
915.39639304375771
 21
697.24877127353341
  0
LINE
  8
_0-1_計細線
  6
CONTINUOUS
 62
    3
 10
915.1963930437571
 20
690.44877127353334
 11
915.1963930437571
 21
697.04877127353359
  0
ARC
  8
_0-1_計細線
  6
CONTINUOUS
 62
    3
 10
918.60092104375769
 20
687.44877127353334
 40
0.2000000000000001
 50
179.99999999999983
 51
269.99999999999977
  0
LINE
  8
_0-1_計細線
  6
CONTINUOUS
 62
    3
 10
919.89766904375779
 20
687.24877127353329
 11
918.60092104375769
 21
687.24877127353329
  0
ARC
  8
_0-1_計細線
  6
CONTINUOUS
 62
    3
 10
918.60092104375769
 20
700.04877127353313
 40
0.2000000000000001
 50
89.999999999999915
 51
179.99999999999983
  0
LINE
  8
_0-1_計細線
  6
CONTINUOUS
 62
    3
 10
919.89766904375779
 20
700.24877127353352
 11
918.60092104375769
 21
700.24877127353352
  0
LINE
  8
_0-1_計細線
  6
CONTINUOUS
 62
    3
 10
918.40092104375708
 20
693.24877127353318
 11
918.40092104375708
 21
687.44877127353334
  0
LINE
  8
_0-1_計細線
  6
CONTINUOUS
 62
    3
 10
918.40092104375708
 20
700.04877127353313
 11
918.40092104375708
 21
693.24877127353318
  0
LINE
  8
_0-1_計細線
  6
CONTINUOUS
 62
    3
 10
936.17746512928761
 20
700.24877127353318
 11
923.29766904522319
 21
700.24877127353318
  0
LINE
  8
_0-1_計細線
  6
CONTINUOUS
 62
    3
 10
936.19766923310976
 20
687.24877127353341
 11
923.29766904522319
 21
687.24877127353341
  0
LINE
  8
_0-1_計細線
  6
CONTINUOUS
 62
    3
 10
1314.3944168579321
 20
693.74877127353318
 11
1317.3989328579319
 21
693.74877127353318
  0
LINE
  8
_0-1_計細線
  6
CONTINUOUS
 62
    3
 10
1314.3944168579321
 20
690.24877127353352
 11
1317.3989448579318
 21
690.24877127353352
  0
ARC
  8
_0-1_計細線
  6
CONTINUOUS
 62
    3
 10
1317.3989448579318
 20
690.44877127353334
 40
0.2000000000000001
 50
269.99999999999977
 51
359.99999999999966
  0
ARC
  8
_0-1_計細線
  6
CONTINUOUS
 62
    3
 10
1309.840964857932
 20
691.99862527353378
 40
7.7579560000000019
 50
346.96432999999888
 51
13.038021999995337
  0
ARC
  8
_0-1_計細線
  6
CONTINUOUS
 62
    3
 10
1317.3989448579318
 20
697.04877127353359
 40
0.2000000000000001
 50
0
 51
89.999999999999915
  0
ARC
  8
_0-1_計細線
  6
CONTINUOUS
 62
    3
 10
1309.840964857932
 20
695.49891527353327
 40
7.7579560000000019
 50
346.96197799999982
 51
13.035670000000389
  0
LINE
  8
_0-1_計細線
  6
CONTINUOUS
 62
    3
 10
1314.3944168579321
 20
697.24877127353341
 11
1317.3989448579318
 21
697.24877127353341
  0
LINE
  8
_0-1_計細線
  6
CONTINUOUS
 62
    3
 10
1317.5989448579319
 20
690.44877127353334
 11
1317.5989448579319
 21
697.04877127353359
  0
ARC
  8
_0-1_計細線
  6
CONTINUOUS
 62
    3
 10
1314.1944168579316
 20
687.44877127353334
 40
0.2000000000000001
 50
269.99999999999977
 51
359.99999999999966
  0
LINE
  8
_0-1_計細線
  6
CONTINUOUS
 62
    3
 10
1312.8976688579314
 20
687.24877127353329
 11
1314.1944168579316
 21
687.24877127353329
  0
ARC
  8
_0-1_計細線
  6
CONTINUOUS
 62
    3
 10
1314.1944168579316
 20
700.04877127353313
 40
0.2000000000000001
 50
0
 51
89.999999999999915
  0
LINE
  8
_0-1_計細線
  6
CONTINUOUS
 62
    3
 10
1312.8976688579314
 20
700.24877127353352
 11
1314.1944168579316
 21
700.24877127353352
  0
LINE
  8
_0-1_計細線
  6
CONTINUOUS
 62
    3
 10
1314.3944168579321
 20
693.24877127353318
 11
1314.3944168579321
 21
687.44877127353334
  0
LINE
  8
_0-1_計細線
  6
CONTINUOUS
 62
    3
 10
1314.3944168579321
 20
700.04877127353313
 11
1314.3944168579321
 21
693.24877127353318
  0
ARC
  8
_0-1_計細線
  6
CONTINUOUS
 62
    3
 10
1306.497669048724
 20
702.94877127353334
 40
1.0000000000000004
 50
89.999999999999915
 51
179.99999999999983
  0
ARC
  8
_0-1_計細線
  6
CONTINUOUS
 62
    3
 10
1306.9656182400522
 20
704.94877127353311
 40
1.0000000000000004
 50
269.99999999999977
 51
330.00000000001364
  0
ARC
  8
_0-1_計細線
  6
CONTINUOUS
 62
    3
 10
1308.6976690476204
 20
703.94877127353334
 40
1.0000000000000004
 50
89.999999999999915
 51
149.9999999999888
  0
LINE
  8
_0-1_計細線
  6
CONTINUOUS
 62
    3
 10
1306.497669048724
 20
703.94877127353334
 11
1306.9656182400522
 21
703.94877127353334
  0
ARC
  8
_0-1_計細線
  6
CONTINUOUS
 62
    3
 10
1315.8976690465172
 20
702.94877127353334
 40
1.0000000000000004
 50
0
 51
89.999999999999915
  0
ARC
  8
_0-1_計細線
  6
CONTINUOUS
 62
    3
 10
1315.4297198551897
 20
704.94877127353311
 40
1.0000000000000004
 50
209.99999999998565
 51
269.99999999999977
  0
ARC
  8
_0-1_計細線
  6
CONTINUOUS
 62
    3
 10
1313.6976690476206
 20
703.94877127353334
 40
1.0000000000000004
 50
29.999999999991644
 51
89.999999999973952
  0
LINE
  8
_0-1_計細線
  6
CONTINUOUS
 62
    3
 10
1315.8976690465172
 20
703.94877127353334
 11
1315.4297198551897
 21
703.94877127353334
  0
ARC
  8
_0-1_計細線
  6
CONTINUOUS
 62
    3
 10
1305.9976690487244
 20
701.54877127353348
 40
0.5000000000000002
 50
179.99999999999983
 51
269.99999999999977
  0
LINE
  8
_0-1_計細線
  6
CONTINUOUS
 62
    3
 10
1305.4976690487247
 20
702.94877127353334
 11
1305.4976690487247
 21
701.54877127353348
  0
ARC
  8
_0-1_計細線
  6
CONTINUOUS
 62
    3
 10
1316.3976690465174
 20
701.54877127353348
 40
0.5000000000000002
 50
269.99999999999977
 51
359.99999999999966
  0
LINE
  8
_0-1_計細線
  6
CONTINUOUS
 62
    3
 10
1316.8976690465172
 20
702.94877127353334
 11
1316.8976690465172
 21
701.54877127353348
  0
ARC
  8
_0-1_計細線
  6
CONTINUOUS
 62
    3
 10
1308.4976690487244
 20
700.04877127353348
 40
1.0000000000000004
 50
0
 51
89.999999999999915
  0
LINE
  8
_0-1_計細線
  6
CONTINUOUS
 62
    3
 10
1308.4976690487244
 20
701.04877127353325
 11
1305.9976690487244
 21
701.04877127353325
  0
ARC
  8
_0-1_計細線
  6
CONTINUOUS
 62
    3
 10
1313.8976690487245
 20
700.04877127353348
 40
1.0000000000000004
 50
89.999999999999915
 51
179.99999999999983
  0
LINE
  8
_0-1_計細線
  6
CONTINUOUS
 62
    3
 10
1313.8976690465174
 20
701.04877127353325
 11
1316.3976690465174
 21
701.04877127353325
  0
LINE
  8
_0-1_計細線
  6
CONTINUOUS
 62
    3
 10
1313.6976690476206
 20
704.94877127353311
 11
1308.6976690476204
 21
704.94877127353311
  0
LINE
  8
_0-1_計細線
  6
CONTINUOUS
 62
    3
 10
1309.4976690476208
 20
684.94877127353323
 11
1309.497669048724
 21
700.04877127353348
  0
LINE
  8
_0-1_計細線
  6
CONTINUOUS
 62
    3
 10
1312.8976690476211
 20
684.94877127353323
 11
1312.8976690487248
 21
700.04877127353348
  0
LINE
  8
_0-1_計細線
  6
CONTINUOUS
 62
    3
 10
1312.8976690476211
 20
684.94877127353323
 11
1309.4976690476208
 21
684.94877127353323
  0
LINE
  8
_0-1_計細線
  6
CONTINUOUS
 62
    3
 10
1296.6178732671606
 20
700.24877127353318
 11
1309.497669162628
 21
700.24877127353318
  0
LINE
  8
_0-1_計細線
  6
CONTINUOUS
 62
    3
 10
1296.5976691633384
 20
687.24877127353341
 11
1309.497669162628
 21
687.24877127353341
  0
LINE
  8
_0-1_計細線
  6
CONTINUOUS
 62
    3
 10
911.39766904514306
 20
693.94899027453994
 11
911.39766904514306
 21
658.94899027453994
  0
LINE
  8
_0-1_計細線
  6
CONTINUOUS
 62
    3
 10
911.39766904514306
 20
658.94899027453994
 11
909.09766904514299
 21
658.94899027453994
  0
LINE
  8
_0-1_計細線
  6
CONTINUOUS
 62
    3
 10
909.09766904514299
 20
658.94899027453994
 11
909.09766904514299
 21
693.94899027453994
  0
LINE
  8
_0-1_計細線
  6
CONTINUOUS
 62
    3
 10
909.09766904514299
 20
693.94899027453994
 11
911.39766904514306
 21
693.94899027453994
  0
LINE
  8
_0-0_計極細
  6
CONTINUOUS
 62
    2
 10
909.09766904514299
 20
677.94899027453982
 11
911.39766904514306
 21
677.94899027453982
  0
LINE
  8
_0-0_計極細
  6
CONTINUOUS
 62
    2
 10
909.09766904514299
 20
679.94899027453982
 11
911.39766904514306
 21
679.94899027453982
  0
LINE
  8
_0-0_計極細
  6
CONTINUOUS
 62
    2
 10
909.09766904514299
 20
675.94899027453994
 11
911.39766904514306
 21
675.94899027453994
  0
LINE
  8
_0-0_計極細
  6
CONTINUOUS
 62
    2
 10
909.09766904514299
 20
681.94899027453982
 11
911.39766904514306
 21
681.94899027453982
  0
LINE
  8
_0-0_計極細
  6
CONTINUOUS
 62
    2
 10
911.39766904514306
 20
661.94899027453982
 11
909.09766904514299
 21
661.94899027453982
  0
LINE
  8
_0-0_計極細
  6
CONTINUOUS
 62
    2
 10
909.09766904514299
 20
691.94899027453982
 11
911.39766904514306
 21
691.94899027453982
  0
LINE
  8
_0-1_計細線
  6
CONTINUOUS
 62
    3
 10
1321.3976690451432
 20
693.94899027453994
 11
1321.3976690451432
 21
658.94899027453994
  0
LINE
  8
_0-1_計細線
  6
CONTINUOUS
 62
    3
 10
1321.3976690451432
 20
658.94899027453994
 11
1323.6976690451434
 21
658.94899027453994
  0
LINE
  8
_0-1_計細線
  6
CONTINUOUS
 62
    3
 10
1323.6976690451434
 20
658.94899027453994
 11
1323.6976690451434
 21
693.94899027453994
  0
LINE
  8
_0-1_計細線
  6
CONTINUOUS
 62
    3
 10
1323.6976690451434
 20
693.94899027453994
 11
1321.3976690451432
 21
693.94899027453994
  0
LINE
  8
_0-0_計極細
  6
CONTINUOUS
 62
    2
 10
1323.6976690451434
 20
677.94899027453982
 11
1321.3976690451432
 21
677.94899027453982
  0
LINE
  8
_0-0_計極細
  6
CONTINUOUS
 62
    2
 10
1323.6976690451434
 20
679.94899027453982
 11
1321.3976690451432
 21
679.94899027453982
  0
LINE
  8
_0-0_計極細
  6
CONTINUOUS
 62
    2
 10
1323.6976690451434
 20
675.94899027453994
 11
1321.3976690451432
 21
675.94899027453994
  0
LINE
  8
_0-0_計極細
  6
CONTINUOUS
 62
    2
 10
1323.6976690451434
 20
681.94899027453982
 11
1321.3976690451432
 21
681.94899027453982
  0
LINE
  8
_0-0_計極細
  6
CONTINUOUS
 62
    2
 10
1321.3976690451432
 20
661.94899027453982
 11
1323.6976690451434
 21
661.94899027453982
  0
LINE
  8
_0-0_計極細
  6
CONTINUOUS
 62
    2
 10
1323.6976690451434
 20
691.94899027453982
 11
1321.3976690451432
 21
691.94899027453982
  0
LINE
  8
_0-7_枠細線
  6
CONTINUOUS
 62
    5
 10
1340.3116978659639
 20
679.09707410560429
 11
1332.8116978659639
 21
694.09707410560429
  0
LINE
  8
_0-7_枠細線
  6
CONTINUOUS
 62
    5
 10
1325.3116978659639
 20
679.09707410560429
 11
1340.3116978659639
 21
679.09707410560429
  0
LINE
  8
_0-7_枠細線
  6
CONTINUOUS
 62
    5
 10
1332.8116978659639
 20
694.09707410560429
 11
1325.3116978659639
 21
679.09707410560429
  0
TEXT
  8
_0-7_枠細線
 62
    5
 10
1327.6768491341122
 20
678.14825414075449
 40
12.5
 41
0.8
 50
0
  1
１
  0
TEXT
  8
_0-7_枠細線
 62
    5
 10
1066.6894272843072
 20
547.96679242918071
 40
25
 41
0.8
 50
0
  1
断面詳細図
  0
TEXT
  8
_0-7_枠細線
 62
    5
 10
1181.638397033475
 20
550.46255451644481
 40
20
 41
0.6
 50
0
  1
Ｓ＝１：５
  0
ARC
  8
_0-1_計細線
  6
CONTINUOUS
 62
    3
 10
926.29766904430949
 20
702.94877127353334
 40
1.0000000000000004
 50
0
 51
89.999999999999915
  0
ARC
  8
_0-1_計細線
  6
CONTINUOUS
 62
    3
 10
925.82971985298195
 20
704.94877127353311
 40
1.0000000000000004
 50
209.99999999999866
 51
269.99999999999977
  0
ARC
  8
_0-1_計細線
  6
CONTINUOUS
 62
    3
 10
924.09766904541345
 20
703.94877127353334
 40
1.0000000000000004
 50
29.999999999991644
 51
89.999999999999915
  0
LINE
  8
_0-1_計細線
  6
CONTINUOUS
 62
    3
 10
926.29766904430949
 20
703.94877127353334
 11
925.82971985298195
 21
703.94877127353334
  0
ARC
  8
_0-1_計細線
  6
CONTINUOUS
 62
    3
 10
916.89766904651674
 20
702.94877127353334
 40
1.0000000000000004
 50
89.999999999999915
 51
179.99999999999983
  0
ARC
  8
_0-1_計細線
  6
CONTINUOUS
 62
    3
 10
917.36561823784427
 20
704.94877127353311
 40
1.0000000000000004
 50
269.99999999999977
 51
330.00000000000057
  0
ARC
  8
_0-1_計細線
  6
CONTINUOUS
 62
    3
 10
919.09766904541345
 20
703.94877127353334
 40
1.0000000000000004
 50
90.000000000026048
 51
150.00000000002137
  0
LINE
  8
_0-1_計細線
  6
CONTINUOUS
 62
    3
 10
916.89766904651674
 20
703.94877127353334
 11
917.36561823784427
 21
703.94877127353334
  0
ARC
  8
_0-1_計細線
  6
CONTINUOUS
 62
    3
 10
926.79766904430949
 20
701.54877127353348
 40
0.5000000000000002
 50
269.99999999999977
 51
359.99999999999966
  0
LINE
  8
_0-1_計細線
  6
CONTINUOUS
 62
    3
 10
927.29766904430903
 20
702.94877127353334
 11
927.29766904430903
 21
701.54877127353348
  0
ARC
  8
_0-1_計細線
  6
CONTINUOUS
 62
    3
 10
916.39766904651674
 20
701.54877127353348
 40
0.5000000000000002
 50
179.99999999999983
 51
269.99999999999977
  0
LINE
  8
_0-1_計細線
  6
CONTINUOUS
 62
    3
 10
915.89766904651719
 20
702.94877127353334
 11
915.89766904651719
 21
701.54877127353348
  0
ARC
  8
_0-1_計細線
  6
CONTINUOUS
 62
    3
 10
924.29766904430949
 20
700.04877127353348
 40
1.0000000000000004
 50
89.999999999999915
 51
179.99999999999983
  0
LINE
  8
_0-1_計細線
  6
CONTINUOUS
 62
    3
 10
924.29766904430949
 20
701.04877127353325
 11
926.79766904430949
 21
701.04877127353325
  0
ARC
  8
_0-1_計細線
  6
CONTINUOUS
 62
    3
 10
918.8976690443094
 20
700.04877127353348
 40
1.0000000000000004
 50
0
 51
89.999999999999915
  0
LINE
  8
_0-1_計細線
  6
CONTINUOUS
 62
    3
 10
918.89766904651674
 20
701.04877127353325
 11
916.39766904651674
 21
701.04877127353325
  0
LINE
  8
_0-1_計細線
  6
CONTINUOUS
 62
    3
 10
919.09766904541345
 20
704.94877127353311
 11
924.09766904541345
 21
704.94877127353311
  0
LINE
  8
_0-1_計細線
  6
CONTINUOUS
 62
    3
 10
923.29766904541316
 20
684.94877127353323
 11
923.29766904430949
 21
700.04877127353348
  0
LINE
  8
_0-1_計細線
  6
CONTINUOUS
 62
    3
 10
919.89766904541307
 20
684.94877127353323
 11
919.89766904430894
 21
700.04877127353348
  0
LINE
  8
_0-1_計細線
  6
CONTINUOUS
 62
    3
 10
919.89766904541307
 20
684.94877127353323
 11
923.29766904541316
 21
684.94877127353323
  0
LINE
  8
_0-1_計細線
  6
CONTINUOUS
 62
    3
 10
1118.7476690451431
 20
705.14901253334062
 11
1118.7476690451431
 21
685.14901253334051
  0
LINE
  8
_0-1_計細線
  6
CONTINUOUS
 62
    3
 10
1114.0476690451426
 20
685.14901253334051
 11
1114.0476690451426
 21
705.14901253334062
  0
LINE
  8
_0-1_計細線
  6
CONTINUOUS
 62
    3
 10
1118.7476690451431
 20
685.14901253334051
 11
1114.0476690451426
 21
685.14901253334051
  0
LINE
  8
_0-1_計細線
  6
CONTINUOUS
 62
    3
 10
1114.0476690451426
 20
705.14901253334062
 11
1118.7476690451431
 21
705.14901253334062
  0
LINE
  8
_0-1_計細線
  6
DASHED2
 62
    3
 10
1114.0476690451426
 20
688.1490125333404
 11
1118.7476690451431
 21
688.1490125333404
  0
LINE
  8
_0-1_計細線
  6
DASHED2
 62
    3
 10
1114.0476690451426
 20
702.14901253334062
 11
1118.7476690451431
 21
702.14901253334062
  0
ARC
  8
_0-1_計細線
  6
CONTINUOUS
 62
    3
 10
1120.1976690458753
 20
702.94877127353334
 40
1.0000000000000004
 50
89.999999999999915
 51
179.99999999999983
  0
ARC
  8
_0-1_計細線
  6
CONTINUOUS
 62
    3
 10
1120.665618237203
 20
704.94877127353311
 40
1.0000000000000004
 50
269.99999999999977
 51
330.00000000001364
  0
ARC
  8
_0-1_計細線
  6
CONTINUOUS
 62
    3
 10
1122.3976690447719
 20
703.94877127353334
 40
1.0000000000000004
 50
89.999999999999915
 51
150.00000000000836
  0
LINE
  8
_0-1_計細線
  6
CONTINUOUS
 62
    3
 10
1120.1976690458753
 20
703.94877127353334
 11
1120.665618237203
 21
703.94877127353334
  0
ARC
  8
_0-1_計細線
  6
CONTINUOUS
 62
    3
 10
1129.5976690436687
 20
702.94877127353334
 40
1.0000000000000004
 50
0
 51
89.999999999999915
  0
ARC
  8
_0-1_計細線
  6
CONTINUOUS
 62
    3
 10
1129.1297198523405
 20
704.94877127353311
 40
1.0000000000000004
 50
209.99999999998565
 51
269.99999999999977
  0
ARC
  8
_0-1_計細線
  6
CONTINUOUS
 62
    3
 10
1127.3976690447716
 20
703.94877127353334
 40
1.0000000000000004
 50
29.99999999999816
 51
89.999999999973952
  0
LINE
  8
_0-1_計細線
  6
CONTINUOUS
 62
    3
 10
1129.5976690436687
 20
703.94877127353334
 11
1129.1297198523405
 21
703.94877127353334
  0
ARC
  8
_0-1_計細線
  6
CONTINUOUS
 62
    3
 10
1119.6976690458753
 20
701.54877127353348
 40
0.5000000000000002
 50
179.99999999999983
 51
269.99999999999977
  0
LINE
  8
_0-1_計細線
  6
CONTINUOUS
 62
    3
 10
1119.1976690458753
 20
702.94877127353334
 11
1119.1976690458753
 21
701.54877127353348
  0
ARC
  8
_0-1_計細線
  6
CONTINUOUS
 62
    3
 10
1130.0976690436682
 20
701.54877127353348
 40
0.5000000000000002
 50
269.99999999999977
 51
359.99999999999966
  0
LINE
  8
_0-1_計細線
  6
CONTINUOUS
 62
    3
 10
1130.597669043668
 20
702.94877127353334
 11
1130.597669043668
 21
701.54877127353348
  0
ARC
  8
_0-1_計細線
  6
CONTINUOUS
 62
    3
 10
1122.1976690458753
 20
700.04877127353348
 40
1.0000000000000004
 50
0
 51
89.999999999999915
  0
LINE
  8
_0-1_計細線
  6
CONTINUOUS
 62
    3
 10
1122.1976690458753
 20
701.04877127353325
 11
1119.6976690458753
 21
701.04877127353325
  0
ARC
  8
_0-1_計細線
  6
CONTINUOUS
 62
    3
 10
1127.5976690458754
 20
700.04877127353348
 40
1.0000000000000004
 50
89.999999999999915
 51
179.99999999999983
  0
LINE
  8
_0-1_計細線
  6
CONTINUOUS
 62
    3
 10
1127.5976690436682
 20
701.04877127353325
 11
1130.0976690436682
 21
701.04877127353325
  0
LINE
  8
_0-1_計細線
  6
CONTINUOUS
 62
    3
 10
1127.3976690447716
 20
704.94877127353311
 11
1122.3976690447719
 21
704.94877127353311
  0
LINE
  8
_0-1_計細線
  6
CONTINUOUS
 62
    3
 10
1123.1976690447716
 20
684.94877127353323
 11
1123.1976690458755
 21
700.04877127353348
  0
LINE
  8
_0-1_計細線
  6
CONTINUOUS
 62
    3
 10
1126.5976690447719
 20
684.94877127353323
 11
1126.5976690458754
 21
700.04877127353348
  0
LINE
  8
_0-1_計細線
  6
CONTINUOUS
 62
    3
 10
1126.5976690447719
 20
684.94877127353323
 11
1123.1976690447716
 21
684.94877127353323
  0
LINE
  8
_0-0_計極細
  6
CENTER1
 62
    2
 10
278.68632075471794
 20
651.37053074521134
 11
278.68632075471794
 21
235.06198757974232
  0
LINE
  8
_0-0_計極細
  6
CENTER1
 62
    2
 10
375.68632075471794
 20
651.37053074521134
 11
375.68632075471794
 21
235.06198757974232
  0
LINE
  8
_0-0_計極細
  6
CENTER1
 62
    2
 10
424.186320754718
 20
651.37053074521134
 11
424.186320754718
 21
235.06198757974232
  0
LINE
  8
_0-0_計極細
  6
CONTINUOUS
 62
    2
 10
272.18632075471794
 20
428.41981132075387
 11
272.18632075471794
 21
422.81981132075401
  0
LINE
  8
_0-0_計極細
  6
CONTINUOUS
 62
    2
 10
285.186320754718
 20
428.41981132075387
 11
285.186320754718
 21
422.81981132075401
  0
LINE
  8
_0-0_計極細
  6
CONTINUOUS
 62
    2
 10
272.18632075471794
 20
445.41981132075477
 11
272.18632075471794
 21
439.81981132075447
  0
LINE
  8
_0-0_計極細
  6
CONTINUOUS
 62
    2
 10
285.186320754718
 20
445.41981132075477
 11
285.186320754718
 21
439.81981132075447
  0
LINE
  8
_0-0_計極細
  6
CONTINUOUS
 62
    2
 10
272.18632075471794
 20
462.41981132075523
 11
272.18632075471794
 21
456.81981132075532
  0
LINE
  8
_0-0_計極細
  6
CONTINUOUS
 62
    2
 10
285.186320754718
 20
462.41981132075523
 11
285.186320754718
 21
456.81981132075532
  0
LINE
  8
_0-0_計極細
  6
CONTINUOUS
 62
    2
 10
272.18632075471794
 20
479.4198113207562
 11
272.18632075471794
 21
473.81981132075578
  0
LINE
  8
_0-0_計極細
  6
CONTINUOUS
 62
    2
 10
285.186320754718
 20
479.4198113207562
 11
285.186320754718
 21
473.81981132075578
  0
LINE
  8
_0-0_計極細
  6
CONTINUOUS
 62
    2
 10
272.18632075471794
 20
496.41981132075665
 11
272.18632075471794
 21
490.81981132075668
  0
LINE
  8
_0-0_計極細
  6
CONTINUOUS
 62
    2
 10
285.186320754718
 20
496.41981132075665
 11
285.186320754718
 21
490.81981132075668
  0
LINE
  8
_0-0_計極細
  6
CONTINUOUS
 62
    2
 10
272.18632075471794
 20
513.4198113207558
 11
272.18632075471794
 21
507.81981132075578
  0
LINE
  8
_0-0_計極細
  6
CONTINUOUS
 62
    2
 10
285.186320754718
 20
513.4198113207558
 11
285.186320754718
 21
507.81981132075578
  0
LINE
  8
_0-0_計極細
  6
CONTINUOUS
 62
    2
 10
272.18632075471794
 20
530.41981132075477
 11
272.18632075471794
 21
524.81981132075487
  0
LINE
  8
_0-0_計極細
  6
CONTINUOUS
 62
    2
 10
285.186320754718
 20
530.41981132075477
 11
285.186320754718
 21
524.81981132075487
  0
LINE
  8
_0-0_計極細
  6
CONTINUOUS
 62
    2
 10
272.18632075471794
 20
547.41981132075387
 11
272.18632075471794
 21
541.81981132075396
  0
LINE
  8
_0-0_計極細
  6
CONTINUOUS
 62
    2
 10
285.186320754718
 20
547.41981132075387
 11
285.186320754718
 21
541.81981132075396
  0
LINE
  8
_0-0_計極細
  6
CONTINUOUS
 62
    2
 10
272.18632075471794
 20
564.41981132075296
 11
272.18632075471794
 21
558.81981132075316
  0
LINE
  8
_0-0_計極細
  6
CONTINUOUS
 62
    2
 10
285.186320754718
 20
564.41981132075296
 11
285.186320754718
 21
558.81981132075316
  0
LINE
  8
_0-0_計極細
  6
CONTINUOUS
 62
    2
 10
272.18632075471794
 20
581.11981132075596
 11
272.18632075471794
 21
575.81981132075623
  0
LINE
  8
_0-0_計極細
  6
CONTINUOUS
 62
    2
 10
285.186320754718
 20
581.11981132075596
 11
285.186320754718
 21
575.81981132075623
  0
LINE
  8
_0-0_計極細
  6
CONTINUOUS
 62
    2
 10
272.18632075471794
 20
405.81981132075305
 11
272.18632075471794
 21
411.41981132075301
  0
LINE
  8
_0-0_計極細
  6
CONTINUOUS
 62
    2
 10
285.186320754718
 20
405.81981132075305
 11
285.186320754718
 21
411.41981132075301
  0
LINE
  8
_0-0_計極細
  6
CONTINUOUS
 62
    2
 10
272.18632075471794
 20
388.81981132075219
 11
272.18632075471794
 21
394.41981132075256
  0
LINE
  8
_0-0_計極細
  6
CONTINUOUS
 62
    2
 10
285.186320754718
 20
388.81981132075219
 11
285.186320754718
 21
394.41981132075256
  0
LINE
  8
_0-0_計極細
  6
CONTINUOUS
 62
    2
 10
272.18632075471794
 20
371.81981132075174
 11
272.18632075471794
 21
377.41981132075159
  0
LINE
  8
_0-0_計極細
  6
CONTINUOUS
 62
    2
 10
285.186320754718
 20
371.81981132075174
 11
285.186320754718
 21
377.41981132075159
  0
LINE
  8
_0-0_計極細
  6
CONTINUOUS
 62
    2
 10
272.18632075471794
 20
354.81981132075259
 11
272.18632075471794
 21
360.4198113207525
  0
LINE
  8
_0-0_計極細
  6
CONTINUOUS
 62
    2
 10
285.186320754718
 20
354.81981132075259
 11
285.186320754718
 21
360.4198113207525
  0
LINE
  8
_0-0_計極細
  6
CONTINUOUS
 62
    2
 10
272.18632075471794
 20
337.8198113207535
 11
272.18632075471794
 21
343.41981132075341
  0
LINE
  8
_0-0_計極細
  6
CONTINUOUS
 62
    2
 10
285.186320754718
 20
337.8198113207535
 11
285.186320754718
 21
343.41981132075341
  0
LINE
  8
_0-0_計極細
  6
CONTINUOUS
 62
    2
 10
272.18632075471794
 20
320.81981132075441
 11
272.18632075471794
 21
326.41981132075438
  0
LINE
  8
_0-0_計極細
  6
CONTINUOUS
 62
    2
 10
285.186320754718
 20
320.81981132075441
 11
285.186320754718
 21
326.41981132075438
  0
LINE
  8
_0-0_計極細
  6
CONTINUOUS
 62
    2
 10
272.18632075471794
 20
303.81981132075532
 11
272.18632075471794
 21
309.41981132075523
  0
LINE
  8
_0-0_計極細
  6
CONTINUOUS
 62
    2
 10
285.186320754718
 20
303.81981132075532
 11
285.186320754718
 21
309.41981132075523
  0
LINE
  8
_0-0_計極細
  6
CONTINUOUS
 62
    2
 10
272.18632075471794
 20
287.11981132075232
 11
272.18632075471794
 21
292.41981132075205
  0
LINE
  8
_0-0_計極細
  6
CONTINUOUS
 62
    2
 10
285.186320754718
 20
287.11981132075232
 11
285.186320754718
 21
292.41981132075205
  0
LINE
  8
_0-0_計極細
  6
CONTINUOUS
 62
    2
 10
369.186320754718
 20
428.41981132075387
 11
369.186320754718
 21
422.81981132075401
  0
LINE
  8
_0-0_計極細
  6
CONTINUOUS
 62
    2
 10
382.18632075471794
 20
428.41981132075387
 11
382.18632075471794
 21
422.81981132075401
  0
LINE
  8
_0-0_計極細
  6
CONTINUOUS
 62
    2
 10
369.186320754718
 20
462.41981132075523
 11
369.186320754718
 21
456.81981132075532
  0
LINE
  8
_0-0_計極細
  6
CONTINUOUS
 62
    2
 10
382.18632075471794
 20
462.41981132075523
 11
382.18632075471794
 21
456.81981132075532
  0
LINE
  8
_0-0_計極細
  6
CONTINUOUS
 62
    2
 10
369.186320754718
 20
479.4198113207562
 11
369.186320754718
 21
473.81981132075578
  0
LINE
  8
_0-0_計極細
  6
CONTINUOUS
 62
    2
 10
382.18632075471794
 20
479.4198113207562
 11
382.18632075471794
 21
473.81981132075578
  0
LINE
  8
_0-0_計極細
  6
CONTINUOUS
 62
    2
 10
369.186320754718
 20
496.41981132075665
 11
369.186320754718
 21
490.81981132075668
  0
LINE
  8
_0-0_計極細
  6
CONTINUOUS
 62
    2
 10
382.18632075471794
 20
496.41981132075665
 11
382.18632075471794
 21
490.81981132075668
  0
LINE
  8
_0-0_計極細
  6
CONTINUOUS
 62
    2
 10
369.186320754718
 20
513.4198113207558
 11
369.186320754718
 21
507.81981132075578
  0
LINE
  8
_0-0_計極細
  6
CONTINUOUS
 62
    2
 10
382.18632075471794
 20
513.4198113207558
 11
382.18632075471794
 21
507.81981132075578
  0
LINE
  8
_0-0_計極細
  6
CONTINUOUS
 62
    2
 10
369.186320754718
 20
530.41981132075477
 11
369.186320754718
 21
524.81981132075487
  0
LINE
  8
_0-0_計極細
  6
CONTINUOUS
 62
    2
 10
382.18632075471794
 20
530.41981132075477
 11
382.18632075471794
 21
524.81981132075487
  0
LINE
  8
_0-0_計極細
  6
CONTINUOUS
 62
    2
 10
369.186320754718
 20
547.41981132075387
 11
369.186320754718
 21
541.81981132075396
  0
LINE
  8
_0-0_計極細
  6
CONTINUOUS
 62
    2
 10
382.18632075471794
 20
547.41981132075387
 11
382.18632075471794
 21
541.81981132075396
  0
LINE
  8
_0-0_計極細
  6
CONTINUOUS
 62
    2
 10
369.186320754718
 20
564.41981132075296
 11
369.186320754718
 21
558.81981132075316
  0
LINE
  8
_0-0_計極細
  6
CONTINUOUS
 62
    2
 10
382.18632075471794
 20
564.41981132075296
 11
382.18632075471794
 21
558.81981132075316
  0
LINE
  8
_0-0_計極細
  6
CONTINUOUS
 62
    2
 10
369.186320754718
 20
581.11981132075596
 11
369.186320754718
 21
575.81981132075623
  0
LINE
  8
_0-0_計極細
  6
CONTINUOUS
 62
    2
 10
382.18632075471794
 20
581.11981132075596
 11
382.18632075471794
 21
575.81981132075623
  0
LINE
  8
_0-0_計極細
  6
CONTINUOUS
 62
    2
 10
369.186320754718
 20
405.81981132075305
 11
369.186320754718
 21
411.41981132075301
  0
LINE
  8
_0-0_計極細
  6
CONTINUOUS
 62
    2
 10
382.18632075471794
 20
405.81981132075305
 11
382.18632075471794
 21
411.41981132075301
  0
LINE
  8
_0-0_計極細
  6
CONTINUOUS
 62
    2
 10
369.186320754718
 20
388.81981132075219
 11
369.186320754718
 21
394.41981132075256
  0
LINE
  8
_0-0_計極細
  6
CONTINUOUS
 62
    2
 10
382.18632075471794
 20
388.81981132075219
 11
382.18632075471794
 21
394.41981132075256
  0
LINE
  8
_0-0_計極細
  6
CONTINUOUS
 62
    2
 10
369.186320754718
 20
371.81981132075174
 11
369.186320754718
 21
377.41981132075159
  0
LINE
  8
_0-0_計極細
  6
CONTINUOUS
 62
    2
 10
382.18632075471794
 20
371.81981132075174
 11
382.18632075471794
 21
377.41981132075159
  0
LINE
  8
_0-0_計極細
  6
CONTINUOUS
 62
    2
 10
369.186320754718
 20
354.81981132075259
 11
369.186320754718
 21
360.4198113207525
  0
LINE
  8
_0-0_計極細
  6
CONTINUOUS
 62
    2
 10
382.18632075471794
 20
354.81981132075259
 11
382.18632075471794
 21
360.4198113207525
  0
LINE
  8
_0-0_計極細
  6
CONTINUOUS
 62
    2
 10
369.186320754718
 20
337.8198113207535
 11
369.186320754718
 21
343.41981132075341
  0
LINE
  8
_0-0_計極細
  6
CONTINUOUS
 62
    2
 10
382.18632075471794
 20
337.8198113207535
 11
382.18632075471794
 21
343.41981132075341
  0
LINE
  8
_0-0_計極細
  6
CONTINUOUS
 62
    2
 10
369.186320754718
 20
320.81981132075441
 11
369.186320754718
 21
326.41981132075438
  0
LINE
  8
_0-0_計極細
  6
CONTINUOUS
 62
    2
 10
382.18632075471794
 20
320.81981132075441
 11
382.18632075471794
 21
326.41981132075438
  0
LINE
  8
_0-0_計極細
  6
CONTINUOUS
 62
    2
 10
369.186320754718
 20
303.81981132075532
 11
369.186320754718
 21
309.41981132075523
  0
LINE
  8
_0-0_計極細
  6
CONTINUOUS
 62
    2
 10
382.18632075471794
 20
303.81981132075532
 11
382.18632075471794
 21
309.41981132075523
  0
LINE
  8
_0-0_計極細
  6
CONTINUOUS
 62
    2
 10
369.186320754718
 20
287.11981132075232
 11
369.186320754718
 21
292.41981132075205
  0
LINE
  8
_0-0_計極細
  6
CONTINUOUS
 62
    2
 10
382.18632075471794
 20
287.11981132075232
 11
382.18632075471794
 21
292.41981132075205
  0
LINE
  8
_0-0_計極細
  6
CONTINUOUS
 62
    2
 10
369.186320754718
 20
445.41981132075477
 11
369.186320754718
 21
444.96981132075456
  0
LINE
  8
_0-0_計極細
  6
CONTINUOUS
 62
    2
 10
369.186320754718
 20
440.26981132075468
 11
369.186320754718
 21
439.81981132075447
  0
LINE
  8
_0-0_計極細
  6
CONTINUOUS
 62
    2
 10
382.18632075471794
 20
445.41981132075477
 11
382.18632075471794
 21
444.96981132075456
  0
LINE
  8
_0-0_計極細
  6
CONTINUOUS
 62
    2
 10
382.18632075471794
 20
440.26981132075468
 11
382.18632075471794
 21
439.81981132075447
  0
LINE
  8
_0-0_計極細
  6
CONTINUOUS
 62
    2
 10
417.686320754718
 20
428.41981132075387
 11
417.686320754718
 21
422.81981132075401
  0
LINE
  8
_0-0_計極細
  6
CONTINUOUS
 62
    2
 10
430.68632075471794
 20
428.41981132075387
 11
430.68632075471794
 21
422.81981132075401
  0
LINE
  8
_0-0_計極細
  6
CONTINUOUS
 62
    2
 10
417.686320754718
 20
445.41981132075477
 11
417.686320754718
 21
439.81981132075447
  0
LINE
  8
_0-0_計極細
  6
CONTINUOUS
 62
    2
 10
430.68632075471794
 20
445.41981132075477
 11
430.68632075471794
 21
439.81981132075447
  0
LINE
  8
_0-0_計極細
  6
CONTINUOUS
 62
    2
 10
417.686320754718
 20
462.41981132075523
 11
417.686320754718
 21
456.81981132075532
  0
LINE
  8
_0-0_計極細
  6
CONTINUOUS
 62
    2
 10
430.68632075471794
 20
462.41981132075523
 11
430.68632075471794
 21
456.81981132075532
  0
LINE
  8
_0-0_計極細
  6
CONTINUOUS
 62
    2
 10
417.686320754718
 20
479.4198113207562
 11
417.686320754718
 21
473.81981132075578
  0
LINE
  8
_0-0_計極細
  6
CONTINUOUS
 62
    2
 10
430.68632075471794
 20
479.4198113207562
 11
430.68632075471794
 21
473.81981132075578
  0
LINE
  8
_0-0_計極細
  6
CONTINUOUS
 62
    2
 10
417.686320754718
 20
496.41981132075665
 11
417.686320754718
 21
490.81981132075668
  0
LINE
  8
_0-0_計極細
  6
CONTINUOUS
 62
    2
 10
430.68632075471794
 20
496.41981132075665
 11
430.68632075471794
 21
490.81981132075668
  0
LINE
  8
_0-0_計極細
  6
CONTINUOUS
 62
    2
 10
417.686320754718
 20
513.4198113207558
 11
417.686320754718
 21
507.81981132075578
  0
LINE
  8
_0-0_計極細
  6
CONTINUOUS
 62
    2
 10
430.68632075471794
 20
513.4198113207558
 11
430.68632075471794
 21
507.81981132075578
  0
LINE
  8
_0-0_計極細
  6
CONTINUOUS
 62
    2
 10
417.686320754718
 20
530.41981132075477
 11
417.686320754718
 21
524.81981132075487
  0
LINE
  8
_0-0_計極細
  6
CONTINUOUS
 62
    2
 10
430.68632075471794
 20
530.41981132075477
 11
430.68632075471794
 21
524.81981132075487
  0
LINE
  8
_0-0_計極細
  6
CONTINUOUS
 62
    2
 10
417.686320754718
 20
547.41981132075387
 11
417.686320754718
 21
541.81981132075396
  0
LINE
  8
_0-0_計極細
  6
CONTINUOUS
 62
    2
 10
430.68632075471794
 20
547.41981132075387
 11
430.68632075471794
 21
541.81981132075396
  0
LINE
  8
_0-0_計極細
  6
CONTINUOUS
 62
    2
 10
417.686320754718
 20
564.41981132075296
 11
417.686320754718
 21
558.81981132075316
  0
LINE
  8
_0-0_計極細
  6
CONTINUOUS
 62
    2
 10
430.68632075471794
 20
564.41981132075296
 11
430.68632075471794
 21
558.81981132075316
  0
LINE
  8
_0-0_計極細
  6
CONTINUOUS
 62
    2
 10
417.686320754718
 20
581.11981132075596
 11
417.686320754718
 21
575.81981132075623
  0
LINE
  8
_0-0_計極細
  6
CONTINUOUS
 62
    2
 10
430.68632075471794
 20
581.11981132075596
 11
430.68632075471794
 21
575.81981132075623
  0
LINE
  8
_0-0_計極細
  6
CONTINUOUS
 62
    2
 10
417.686320754718
 20
405.81981132075305
 11
417.686320754718
 21
411.41981132075301
  0
LINE
  8
_0-0_計極細
  6
CONTINUOUS
 62
    2
 10
430.68632075471794
 20
405.81981132075305
 11
430.68632075471794
 21
411.41981132075301
  0
LINE
  8
_0-0_計極細
  6
CONTINUOUS
 62
    2
 10
417.686320754718
 20
388.81981132075219
 11
417.686320754718
 21
394.41981132075256
  0
LINE
  8
_0-0_計極細
  6
CONTINUOUS
 62
    2
 10
430.68632075471794
 20
388.81981132075219
 11
430.68632075471794
 21
394.41981132075256
  0
LINE
  8
_0-0_計極細
  6
CONTINUOUS
 62
    2
 10
417.686320754718
 20
371.81981132075174
 11
417.686320754718
 21
377.41981132075159
  0
LINE
  8
_0-0_計極細
  6
CONTINUOUS
 62
    2
 10
430.68632075471794
 20
371.81981132075174
 11
430.68632075471794
 21
377.41981132075159
  0
LINE
  8
_0-0_計極細
  6
CONTINUOUS
 62
    2
 10
417.686320754718
 20
354.81981132075259
 11
417.686320754718
 21
360.4198113207525
  0
LINE
  8
_0-0_計極細
  6
CONTINUOUS
 62
    2
 10
430.68632075471794
 20
354.81981132075259
 11
430.68632075471794
 21
360.4198113207525
  0
LINE
  8
_0-0_計極細
  6
CONTINUOUS
 62
    2
 10
417.686320754718
 20
337.8198113207535
 11
417.686320754718
 21
343.41981132075341
  0
LINE
  8
_0-0_計極細
  6
CONTINUOUS
 62
    2
 10
430.68632075471794
 20
337.8198113207535
 11
430.68632075471794
 21
343.41981132075341
  0
LINE
  8
_0-0_計極細
  6
CONTINUOUS
 62
    2
 10
417.686320754718
 20
320.81981132075441
 11
417.686320754718
 21
326.41981132075438
  0
LINE
  8
_0-0_計極細
  6
CONTINUOUS
 62
    2
 10
430.68632075471794
 20
320.81981132075441
 11
430.68632075471794
 21
326.41981132075438
  0
LINE
  8
_0-0_計極細
  6
CONTINUOUS
 62
    2
 10
417.686320754718
 20
303.81981132075532
 11
417.686320754718
 21
309.41981132075523
  0
LINE
  8
_0-0_計極細
  6
CONTINUOUS
 62
    2
 10
430.68632075471794
 20
303.81981132075532
 11
430.68632075471794
 21
309.41981132075523
  0
LINE
  8
_0-0_計極細
  6
CONTINUOUS
 62
    2
 10
417.686320754718
 20
287.11981132075232
 11
417.686320754718
 21
292.41981132075205
  0
LINE
  8
_0-0_計極細
  6
CONTINUOUS
 62
    2
 10
430.68632075471794
 20
287.11981132075232
 11
430.68632075471794
 21
292.41981132075205
  0
LINE
  8
_0-0_計極細
  6
CONTINUOUS
 62
    2
 10
272.18632075471794
 20
270.41981132075341
 11
272.18632075471794
 21
275.71981132075314
  0
LINE
  8
_0-0_計極細
  6
CONTINUOUS
 62
    2
 10
285.186320754718
 20
270.41981132075341
 11
285.186320754718
 21
275.71981132075314
  0
LINE
  8
_0-0_計極細
  6
CONTINUOUS
 62
    2
 10
369.186320754718
 20
270.41981132075341
 11
369.186320754718
 21
275.71981132075314
  0
LINE
  8
_0-0_計極細
  6
CONTINUOUS
 62
    2
 10
382.18632075471794
 20
270.41981132075341
 11
382.18632075471794
 21
275.71981132075314
  0
LINE
  8
_0-0_計極細
  6
CONTINUOUS
 62
    2
 10
417.686320754718
 20
270.41981132075341
 11
417.686320754718
 21
275.71981132075314
  0
LINE
  8
_0-0_計極細
  6
CONTINUOUS
 62
    2
 10
430.68632075471794
 20
270.41981132075341
 11
430.68632075471794
 21
275.71981132075314
  0
LINE
  8
_0-0_計極細
  6
CONTINUOUS
 62
    2
 10
272.18632075471794
 20
597.81981132075487
 11
272.18632075471794
 21
592.51981132075514
  0
LINE
  8
_0-0_計極細
  6
CONTINUOUS
 62
    2
 10
285.186320754718
 20
597.81981132075487
 11
285.186320754718
 21
592.51981132075514
  0
LINE
  8
_0-0_計極細
  6
CONTINUOUS
 62
    2
 10
369.186320754718
 20
597.81981132075487
 11
369.186320754718
 21
592.51981132075514
  0
LINE
  8
_0-0_計極細
  6
CONTINUOUS
 62
    2
 10
382.18632075471794
 20
597.81981132075487
 11
382.18632075471794
 21
592.51981132075514
  0
LINE
  8
_0-0_計極細
  6
CONTINUOUS
 62
    2
 10
417.686320754718
 20
597.81981132075487
 11
417.686320754718
 21
592.51981132075514
  0
LINE
  8
_0-0_計極細
  6
CONTINUOUS
 62
    2
 10
430.68632075471794
 20
597.81981132075487
 11
430.68632075471794
 21
592.51981132075514
  0
LINE
  8
_0-0_計極細
  6
CONTINUOUS
 62
    2
 10
272.18632075471794
 20
614.51981132075377
 11
272.18632075471794
 21
609.21981132075405
  0
LINE
  8
_0-0_計極細
  6
CONTINUOUS
 62
    2
 10
285.186320754718
 20
614.51981132075377
 11
285.186320754718
 21
609.21981132075405
  0
LINE
  8
_0-0_計極細
  6
CONTINUOUS
 62
    2
 10
369.186320754718
 20
614.51981132075377
 11
369.186320754718
 21
609.21981132075405
  0
LINE
  8
_0-0_計極細
  6
CONTINUOUS
 62
    2
 10
382.18632075471794
 20
614.51981132075377
 11
382.18632075471794
 21
609.21981132075405
  0
LINE
  8
_0-0_計極細
  6
CONTINUOUS
 62
    2
 10
417.686320754718
 20
614.51981132075377
 11
417.686320754718
 21
609.21981132075405
  0
LINE
  8
_0-0_計極細
  6
CONTINUOUS
 62
    2
 10
430.68632075471794
 20
614.51981132075377
 11
430.68632075471794
 21
609.21981132075405
  0
LINE
  8
_0-0_計極細
  6
CENTER2
 62
    2
 10
255.79772121769878
 20
442.61981132075459
 11
687.73105455107589
 21
442.61981132075459
  0
LINE
  8
_0-5_寸法線
  6
CONTINUOUS
 62
    7
 10
676.16677235514305
 20
397.05314465408958
 11
683.23784016700859
 21
404.12421246595505
  0
LINE
  8
_0-5_寸法線
  6
CONTINUOUS
 62
    7
 10
676.16677235514305
 20
397.05314465408958
 11
685.82603061803388
 21
399.64133510511482
  0
LINE
  8
_0-5_寸法線
  6
CONTINUOUS
 62
    7
 10
676.16677235514305
 20
397.05314465408958
 11
717.5667723551436
 21
420.95544579854021
  0
LINE
  8
_0-5_寸法線
  6
CONTINUOUS
 62
    7
 10
717.5667723551436
 20
420.95544579854021
 11
825.56677235514371
 21
420.95544579854021
  0
TEXT
  8
_0-5_寸法線
 62
    7
 10
717.5667723551436
 20
420.95544579854021
 40
15
 41
0.8000000000000001
 50
0
  1
ＳＵＳアングル受枠
  0
TEXT
  8
_0-5_寸法線
 62
    7
 10
717.5667723551436
 20
405.95544579854021
 40
15
 41
0.8000000000000001
 50
0
  1
ＧＳＬ－２０
  0
LINE
  8
_0-1_計細線
  6
CONTINUOUS
 62
    3
 10
266.68632075471794
 20
647.6198113207497
 11
266.68632075471794
 21
237.61981132074962
  0
LINE
  8
_0-1_計細線
  6
CONTINUOUS
 62
    3
 10
266.68632075471794
 20
237.61981132074962
 11
676.68632075471794
 21
237.61981132074962
  0
LINE
  8
_0-1_計細線
  6
CONTINUOUS
 62
    3
 10
676.68632075471794
 20
237.61981132074962
 11
676.68632075471794
 21
647.6198113207497
  0
LINE
  8
_0-1_計細線
  6
CONTINUOUS
 62
    3
 10
676.68632075471794
 20
647.6198113207497
 11
266.68632075471794
 21
647.6198113207497
  0
LINE
  8
_0-1_計細線
  6
CONTINUOUS
 62
    3
 10
673.68632075471794
 20
240.61981132074962
 11
673.68632075471794
 21
644.6198113207497
  0
LINE
  8
_0-1_計細線
  6
CONTINUOUS
 62
    3
 10
673.68632075471794
 20
644.6198113207497
 11
269.68632075471794
 21
644.6198113207497
  0
LINE
  8
_0-1_計細線
  6
CONTINUOUS
 62
    3
 10
269.68632075471794
 20
644.6198113207497
 11
269.68632075471794
 21
240.61981132074962
  0
LINE
  8
_0-1_計細線
  6
CONTINUOUS
 62
    3
 10
269.68632075471794
 20
240.61981132074962
 11
673.68632075471794
 21
240.61981132074962
  0
LINE
  8
_0-0_計極細
  6
CENTER1
 62
    2
 10
664.68632075471805
 20
651.37053074521134
 11
664.68632075471805
 21
235.06198757974232
  0
LINE
  8
_0-0_計極細
  6
CENTER1
 62
    2
 10
567.68632075471805
 20
651.37053074521134
 11
567.68632075471805
 21
235.06198757974232
  0
LINE
  8
_0-1_計細線
  6
CONTINUOUS
 62
    3
 10
271.68632075471794
 20
411.41981132075796
 11
671.68632075471794
 21
411.41981132075796
  0
LINE
  8
_0-1_計細線
  6
CONTINUOUS
 62
    3
 10
271.68632075471794
 20
422.81981132075856
 11
671.68632075471794
 21
422.81981132075856
  0
LINE
  8
_0-1_計細線
  6
CONTINUOUS
 62
    3
 10
271.68632075471794
 20
411.41981132075796
 11
271.68632075471794
 21
422.81981132075856
  0
LINE
  8
_0-1_計細線
  6
CONTINUOUS
 62
    3
 10
671.68632075471794
 20
411.41981132075796
 11
671.68632075471794
 21
422.81981132075856
  0
LINE
  8
_0-0_計極細
  6
CONTINUOUS
 62
    2
 10
271.68632075471794
 20
419.61981132075829
 11
671.68632075471794
 21
419.61981132075829
  0
LINE
  8
_0-0_計極細
  6
CONTINUOUS
 62
    2
 10
271.68632075471794
 20
414.61981132075829
 11
671.68632075471794
 21
414.61981132075829
  0
LINE
  8
_0-1_計細線
  6
CONTINUOUS
 62
    3
 10
271.68632075471794
 20
507.81981132075578
 11
671.68632075471794
 21
507.81981132075578
  0
LINE
  8
_0-1_計細線
  6
CONTINUOUS
 62
    3
 10
271.68632075471794
 20
496.41981132075529
 11
671.68632075471794
 21
496.41981132075529
  0
LINE
  8
_0-1_計細線
  6
CONTINUOUS
 62
    3
 10
271.68632075471794
 20
507.81981132075578
 11
271.68632075471794
 21
496.41981132075529
  0
LINE
  8
_0-1_計細線
  6
CONTINUOUS
 62
    3
 10
671.68632075471794
 20
507.81981132075578
 11
671.68632075471794
 21
496.41981132075529
  0
LINE
  8
_0-0_計極細
  6
CONTINUOUS
 62
    2
 10
271.68632075471794
 20
499.6198113207555
 11
671.68632075471794
 21
499.6198113207555
  0
LINE
  8
_0-0_計極細
  6
CONTINUOUS
 62
    2
 10
271.68632075471794
 20
504.6198113207555
 11
671.68632075471794
 21
504.6198113207555
  0
LINE
  8
_0-1_計細線
  6
CONTINUOUS
 62
    3
 10
271.68632075471794
 20
473.81981132075578
 11
671.68632075471794
 21
473.81981132075578
  0
LINE
  8
_0-1_計細線
  6
CONTINUOUS
 62
    3
 10
271.68632075471794
 20
462.41981132075523
 11
671.68632075471794
 21
462.41981132075523
  0
LINE
  8
_0-1_計細線
  6
CONTINUOUS
 62
    3
 10
271.68632075471794
 20
473.81981132075578
 11
271.68632075471794
 21
462.41981132075523
  0
LINE
  8
_0-1_計細線
  6
CONTINUOUS
 62
    3
 10
671.68632075471794
 20
473.81981132075578
 11
671.68632075471794
 21
462.41981132075523
  0
LINE
  8
_0-0_計極細
  6
CONTINUOUS
 62
    2
 10
271.68632075471794
 20
465.6198113207555
 11
671.68632075471794
 21
465.6198113207555
  0
LINE
  8
_0-0_計極細
  6
CONTINUOUS
 62
    2
 10
271.68632075471794
 20
470.6198113207555
 11
671.68632075471794
 21
470.6198113207555
  0
LINE
  8
_0-1_計細線
  6
CONTINUOUS
 62
    3
 10
271.68632075471794
 20
490.81981132075668
 11
671.68632075471794
 21
490.81981132075668
  0
LINE
  8
_0-1_計細線
  6
CONTINUOUS
 62
    3
 10
271.68632075471794
 20
479.4198113207562
 11
671.68632075471794
 21
479.4198113207562
  0
LINE
  8
_0-1_計細線
  6
CONTINUOUS
 62
    3
 10
271.68632075471794
 20
490.81981132075668
 11
271.68632075471794
 21
479.4198113207562
  0
LINE
  8
_0-1_計細線
  6
CONTINUOUS
 62
    3
 10
671.68632075471794
 20
490.81981132075668
 11
671.68632075471794
 21
479.4198113207562
  0
LINE
  8
_0-0_計極細
  6
CONTINUOUS
 62
    2
 10
271.68632075471794
 20
482.61981132075647
 11
671.68632075471794
 21
482.61981132075647
  0
LINE
  8
_0-0_計極細
  6
CONTINUOUS
 62
    2
 10
271.68632075471794
 20
487.61981132075647
 11
671.68632075471794
 21
487.61981132075647
  0
LINE
  8
_0-1_計細線
  6
CONTINUOUS
 62
    3
 10
271.68632075471794
 20
575.81981132075623
 11
671.68632075471794
 21
575.81981132075623
  0
LINE
  8
_0-1_計細線
  6
CONTINUOUS
 62
    3
 10
271.68632075471794
 20
564.41981132075568
 11
671.68632075471794
 21
564.41981132075568
  0
LINE
  8
_0-1_計細線
  6
CONTINUOUS
 62
    3
 10
271.68632075471794
 20
575.81981132075623
 11
271.68632075471794
 21
564.41981132075568
  0
LINE
  8
_0-1_計細線
  6
CONTINUOUS
 62
    3
 10
671.68632075471794
 20
575.81981132075623
 11
671.68632075471794
 21
564.41981132075568
  0
LINE
  8
_0-0_計極細
  6
CONTINUOUS
 62
    2
 10
271.68632075471794
 20
567.61981132075653
 11
671.68632075471794
 21
567.61981132075653
  0
LINE
  8
_0-0_計極細
  6
CONTINUOUS
 62
    2
 10
271.68632075471794
 20
572.61981132075653
 11
671.68632075471794
 21
572.61981132075653
  0
LINE
  8
_0-1_計細線
  6
CONTINUOUS
 62
    3
 10
271.68632075471794
 20
524.81981132075487
 11
671.68632075471794
 21
524.81981132075487
  0
LINE
  8
_0-1_計細線
  6
CONTINUOUS
 62
    3
 10
271.68632075471794
 20
513.41981132075432
 11
671.68632075471794
 21
513.41981132075432
  0
LINE
  8
_0-1_計細線
  6
CONTINUOUS
 62
    3
 10
271.68632075471794
 20
524.81981132075487
 11
271.68632075471794
 21
513.41981132075432
  0
LINE
  8
_0-1_計細線
  6
CONTINUOUS
 62
    3
 10
671.68632075471794
 20
524.81981132075487
 11
671.68632075471794
 21
513.41981132075432
  0
LINE
  8
_0-0_計極細
  6
CONTINUOUS
 62
    2
 10
271.68632075471794
 20
516.61981132075459
 11
671.68632075471794
 21
516.61981132075459
  0
LINE
  8
_0-0_計極細
  6
CONTINUOUS
 62
    2
 10
271.68632075471794
 20
521.61981132075459
 11
671.68632075471794
 21
521.61981132075459
  0
LINE
  8
_0-1_計細線
  6
CONTINUOUS
 62
    3
 10
271.68632075471794
 20
541.81981132075396
 11
671.68632075471794
 21
541.81981132075396
  0
LINE
  8
_0-1_計細線
  6
CONTINUOUS
 62
    3
 10
271.68632075471794
 20
530.41981132075341
 11
671.68632075471794
 21
530.41981132075341
  0
LINE
  8
_0-1_計細線
  6
CONTINUOUS
 62
    3
 10
271.68632075471794
 20
541.81981132075396
 11
271.68632075471794
 21
530.41981132075341
  0
LINE
  8
_0-1_計細線
  6
CONTINUOUS
 62
    3
 10
671.68632075471794
 20
541.81981132075396
 11
671.68632075471794
 21
530.41981132075341
  0
LINE
  8
_0-0_計極細
  6
CONTINUOUS
 62
    2
 10
271.68632075471794
 20
533.61981132075368
 11
671.68632075471794
 21
533.61981132075368
  0
LINE
  8
_0-0_計極細
  6
CONTINUOUS
 62
    2
 10
271.68632075471794
 20
538.61981132075368
 11
671.68632075471794
 21
538.61981132075368
  0
LINE
  8
_0-1_計細線
  6
CONTINUOUS
 62
    3
 10
271.68632075471794
 20
558.81981132075316
 11
671.68632075471794
 21
558.81981132075316
  0
LINE
  8
_0-1_計細線
  6
CONTINUOUS
 62
    3
 10
271.68632075471794
 20
547.4198113207525
 11
671.68632075471794
 21
547.4198113207525
  0
LINE
  8
_0-1_計細線
  6
CONTINUOUS
 62
    3
 10
271.68632075471794
 20
558.81981132075316
 11
271.68632075471794
 21
547.4198113207525
  0
LINE
  8
_0-1_計細線
  6
CONTINUOUS
 62
    3
 10
671.68632075471794
 20
558.81981132075316
 11
671.68632075471794
 21
547.4198113207525
  0
LINE
  8
_0-0_計極細
  6
CONTINUOUS
 62
    2
 10
271.68632075471794
 20
550.61981132075277
 11
671.68632075471794
 21
550.61981132075277
  0
LINE
  8
_0-0_計極細
  6
CONTINUOUS
 62
    2
 10
271.68632075471794
 20
555.61981132075277
 11
671.68632075471794
 21
555.61981132075277
  0
LINE
  8
_0-1_計細線
  6
CONTINUOUS
 62
    3
 10
271.68632075471794
 20
592.51981132075514
 11
671.68632075471794
 21
592.51981132075514
  0
LINE
  8
_0-1_計細線
  6
CONTINUOUS
 62
    3
 10
271.68632075471794
 20
581.11981132075459
 11
671.68632075471794
 21
581.11981132075459
  0
LINE
  8
_0-1_計細線
  6
CONTINUOUS
 62
    3
 10
271.68632075471794
 20
592.51981132075514
 11
271.68632075471794
 21
581.11981132075459
  0
LINE
  8
_0-1_計細線
  6
CONTINUOUS
 62
    3
 10
671.68632075471794
 20
592.51981132075514
 11
671.68632075471794
 21
581.11981132075459
  0
LINE
  8
_0-0_計極細
  6
CONTINUOUS
 62
    2
 10
271.68632075471794
 20
584.31981132075498
 11
671.68632075471794
 21
584.31981132075498
  0
LINE
  8
_0-0_計極細
  6
CONTINUOUS
 62
    2
 10
271.68632075471794
 20
589.31981132075498
 11
671.68632075471794
 21
589.31981132075498
  0
LINE
  8
_0-1_計細線
  6
CONTINUOUS
 62
    3
 10
271.68632075471794
 20
360.4198113207525
 11
671.68632075471794
 21
360.4198113207525
  0
LINE
  8
_0-1_計細線
  6
CONTINUOUS
 62
    3
 10
271.68632075471794
 20
371.81981132075305
 11
671.68632075471794
 21
371.81981132075305
  0
LINE
  8
_0-1_計細線
  6
CONTINUOUS
 62
    3
 10
271.68632075471794
 20
360.4198113207525
 11
271.68632075471794
 21
371.81981132075305
  0
LINE
  8
_0-1_計細線
  6
CONTINUOUS
 62
    3
 10
671.68632075471794
 20
360.4198113207525
 11
671.68632075471794
 21
371.81981132075305
  0
LINE
  8
_0-0_計極細
  6
CONTINUOUS
 62
    2
 10
271.68632075471794
 20
368.61981132075277
 11
671.68632075471794
 21
368.61981132075277
  0
LINE
  8
_0-0_計極細
  6
CONTINUOUS
 62
    2
 10
271.68632075471794
 20
363.61981132075277
 11
671.68632075471794
 21
363.61981132075277
  0
LINE
  8
_0-1_計細線
  6
CONTINUOUS
 62
    3
 10
271.68632075471794
 20
394.41981132075256
 11
671.68632075471794
 21
394.41981132075256
  0
LINE
  8
_0-1_計細線
  6
CONTINUOUS
 62
    3
 10
271.68632075471794
 20
405.81981132075305
 11
671.68632075471794
 21
405.81981132075305
  0
LINE
  8
_0-1_計細線
  6
CONTINUOUS
 62
    3
 10
271.68632075471794
 20
394.41981132075256
 11
271.68632075471794
 21
405.81981132075305
  0
LINE
  8
_0-1_計細線
  6
CONTINUOUS
 62
    3
 10
671.68632075471794
 20
394.41981132075256
 11
671.68632075471794
 21
405.81981132075305
  0
LINE
  8
_0-0_計極細
  6
CONTINUOUS
 62
    2
 10
271.68632075471794
 20
402.61981132075277
 11
671.68632075471794
 21
402.61981132075277
  0
LINE
  8
_0-0_計極細
  6
CONTINUOUS
 62
    2
 10
271.68632075471794
 20
397.61981132075277
 11
671.68632075471794
 21
397.61981132075277
  0
LINE
  8
_0-1_計細線
  6
CONTINUOUS
 62
    3
 10
271.68632075471794
 20
377.41981132075159
 11
671.68632075471794
 21
377.41981132075159
  0
LINE
  8
_0-1_計細線
  6
CONTINUOUS
 62
    3
 10
271.68632075471794
 20
388.81981132075219
 11
671.68632075471794
 21
388.81981132075219
  0
LINE
  8
_0-1_計細線
  6
CONTINUOUS
 62
    3
 10
271.68632075471794
 20
377.41981132075159
 11
271.68632075471794
 21
388.81981132075219
  0
LINE
  8
_0-1_計細線
  6
CONTINUOUS
 62
    3
 10
671.68632075471794
 20
377.41981132075159
 11
671.68632075471794
 21
388.81981132075219
  0
LINE
  8
_0-0_計極細
  6
CONTINUOUS
 62
    2
 10
271.68632075471794
 20
385.61981132075186
 11
671.68632075471794
 21
385.61981132075186
  0
LINE
  8
_0-0_計極細
  6
CONTINUOUS
 62
    2
 10
271.68632075471794
 20
380.61981132075186
 11
671.68632075471794
 21
380.61981132075186
  0
LINE
  8
_0-1_計細線
  6
CONTINUOUS
 62
    3
 10
271.68632075471794
 20
292.41981132075205
 11
671.68632075471794
 21
292.41981132075205
  0
LINE
  8
_0-1_計細線
  6
CONTINUOUS
 62
    3
 10
271.68632075471794
 20
303.81981132075259
 11
671.68632075471794
 21
303.81981132075259
  0
LINE
  8
_0-1_計細線
  6
CONTINUOUS
 62
    3
 10
271.68632075471794
 20
292.41981132075205
 11
271.68632075471794
 21
303.81981132075259
  0
LINE
  8
_0-1_計細線
  6
CONTINUOUS
 62
    3
 10
671.68632075471794
 20
292.41981132075205
 11
671.68632075471794
 21
303.81981132075259
  0
LINE
  8
_0-0_計極細
  6
CONTINUOUS
 62
    2
 10
271.68632075471794
 20
300.61981132075186
 11
671.68632075471794
 21
300.61981132075186
  0
LINE
  8
_0-0_計極細
  6
CONTINUOUS
 62
    2
 10
271.68632075471794
 20
295.61981132075186
 11
671.68632075471794
 21
295.61981132075186
  0
LINE
  8
_0-1_計細線
  6
CONTINUOUS
 62
    3
 10
271.68632075471794
 20
343.41981132075341
 11
671.68632075471794
 21
343.41981132075341
  0
LINE
  8
_0-1_計細線
  6
CONTINUOUS
 62
    3
 10
271.68632075471794
 20
354.81981132075396
 11
671.68632075471794
 21
354.81981132075396
  0
LINE
  8
_0-1_計細線
  6
CONTINUOUS
 62
    3
 10
271.68632075471794
 20
343.41981132075341
 11
271.68632075471794
 21
354.81981132075396
  0
LINE
  8
_0-1_計細線
  6
CONTINUOUS
 62
    3
 10
671.68632075471794
 20
343.41981132075341
 11
671.68632075471794
 21
354.81981132075396
  0
LINE
  8
_0-0_計極細
  6
CONTINUOUS
 62
    2
 10
271.68632075471794
 20
351.61981132075368
 11
671.68632075471794
 21
351.61981132075368
  0
LINE
  8
_0-0_計極細
  6
CONTINUOUS
 62
    2
 10
271.68632075471794
 20
346.61981132075368
 11
671.68632075471794
 21
346.61981132075368
  0
LINE
  8
_0-1_計細線
  6
CONTINUOUS
 62
    3
 10
271.68632075471794
 20
326.41981132075438
 11
671.68632075471794
 21
326.41981132075438
  0
LINE
  8
_0-1_計細線
  6
CONTINUOUS
 62
    3
 10
271.68632075471794
 20
337.81981132075487
 11
671.68632075471794
 21
337.81981132075487
  0
LINE
  8
_0-1_計細線
  6
CONTINUOUS
 62
    3
 10
271.68632075471794
 20
326.41981132075438
 11
271.68632075471794
 21
337.81981132075487
  0
LINE
  8
_0-1_計細線
  6
CONTINUOUS
 62
    3
 10
671.68632075471794
 20
326.41981132075438
 11
671.68632075471794
 21
337.81981132075487
  0
LINE
  8
_0-0_計極細
  6
CONTINUOUS
 62
    2
 10
271.68632075471794
 20
334.61981132075459
 11
671.68632075471794
 21
334.61981132075459
  0
LINE
  8
_0-0_計極細
  6
CONTINUOUS
 62
    2
 10
271.68632075471794
 20
329.61981132075459
 11
671.68632075471794
 21
329.61981132075459
  0
LINE
  8
_0-1_計細線
  6
CONTINUOUS
 62
    3
 10
271.68632075471794
 20
309.41981132075523
 11
671.68632075471794
 21
309.41981132075523
  0
LINE
  8
_0-1_計細線
  6
CONTINUOUS
 62
    3
 10
271.68632075471794
 20
320.81981132075578
 11
671.68632075471794
 21
320.81981132075578
  0
LINE
  8
_0-1_計細線
  6
CONTINUOUS
 62
    3
 10
271.68632075471794
 20
309.41981132075523
 11
271.68632075471794
 21
320.81981132075578
  0
LINE
  8
_0-1_計細線
  6
CONTINUOUS
 62
    3
 10
671.68632075471794
 20
309.41981132075523
 11
671.68632075471794
 21
320.81981132075578
  0
LINE
  8
_0-0_計極細
  6
CONTINUOUS
 62
    2
 10
271.68632075471794
 20
317.6198113207555
 11
671.68632075471794
 21
317.6198113207555
  0
LINE
  8
_0-0_計極細
  6
CONTINUOUS
 62
    2
 10
271.68632075471794
 20
312.6198113207555
 11
671.68632075471794
 21
312.6198113207555
  0
LINE
  8
_0-1_計細線
  6
CONTINUOUS
 62
    3
 10
271.68632075471794
 20
275.71981132075314
 11
671.68632075471794
 21
275.71981132075314
  0
LINE
  8
_0-1_計細線
  6
CONTINUOUS
 62
    3
 10
271.68632075471794
 20
287.11981132075368
 11
671.68632075471794
 21
287.11981132075368
  0
LINE
  8
_0-1_計細線
  6
CONTINUOUS
 62
    3
 10
271.68632075471794
 20
275.71981132075314
 11
271.68632075471794
 21
287.11981132075368
  0
LINE
  8
_0-1_計細線
  6
CONTINUOUS
 62
    3
 10
671.68632075471794
 20
275.71981132075314
 11
671.68632075471794
 21
287.11981132075368
  0
LINE
  8
_0-0_計極細
  6
CONTINUOUS
 62
    2
 10
271.68632075471794
 20
283.91981132075341
 11
671.68632075471794
 21
283.91981132075341
  0
LINE
  8
_0-0_計極細
  6
CONTINUOUS
 62
    2
 10
271.68632075471794
 20
278.91981132075341
 11
671.68632075471794
 21
278.91981132075341
  0
LINE
  8
_0-1_計細線
  6
CONTINUOUS
 62
    3
 10
271.68632075471794
 20
428.41981132075387
 11
671.68632075471794
 21
428.41981132075387
  0
LINE
  8
_0-1_計細線
  6
CONTINUOUS
 62
    3
 10
671.68632075471794
 20
439.81981132075447
 11
671.68632075471794
 21
428.41981132075387
  0
LINE
  8
_0-0_計極細
  6
CONTINUOUS
 62
    2
 10
271.68632075471794
 20
431.6198113207542
 11
671.68632075471794
 21
431.6198113207542
  0
LINE
  8
_0-0_計極細
  6
CONTINUOUS
 62
    2
 10
271.68632075471794
 20
436.6198113207542
 11
671.68632075471794
 21
436.6198113207542
  0
LINE
  8
_0-1_計細線
  6
CONTINUOUS
 62
    3
 10
271.68632075471794
 20
439.81981132075447
 11
271.68632075471794
 21
428.41981132075387
  0
LINE
  8
_0-1_計細線
  6
CONTINUOUS
 62
    3
 10
271.68632075471794
 20
439.81981132075447
 11
671.68632075471794
 21
439.81981132075447
  0
LINE
  8
_0-1_計細線
  6
CONTINUOUS
 62
    3
 10
271.68632075471794
 20
456.81981132075532
 11
671.68632075471794
 21
456.81981132075532
  0
LINE
  8
_0-1_計細線
  6
CONTINUOUS
 62
    3
 10
671.68632075471794
 20
456.81981132075532
 11
671.68632075471794
 21
445.41981132075477
  0
LINE
  8
_0-0_計極細
  6
CONTINUOUS
 62
    2
 10
271.68632075471794
 20
448.61981132075505
 11
671.68632075471794
 21
448.61981132075505
  0
LINE
  8
_0-0_計極細
  6
CONTINUOUS
 62
    2
 10
271.68632075471794
 20
453.61981132075505
 11
671.68632075471794
 21
453.61981132075505
  0
LINE
  8
_0-1_計細線
  6
CONTINUOUS
 62
    3
 10
271.68632075471794
 20
445.41981132075477
 11
671.68632075471794
 21
445.41981132075477
  0
LINE
  8
_0-1_計細線
  6
CONTINUOUS
 62
    3
 10
271.68632075471794
 20
456.81981132075532
 11
271.68632075471794
 21
445.41981132075477
  0
LINE
  8
_0-0_計極細
  6
CONTINUOUS
 62
    2
 10
658.18632075471794
 20
428.41981132075387
 11
658.18632075471794
 21
422.81981132075401
  0
LINE
  8
_0-0_計極細
  6
CONTINUOUS
 62
    2
 10
671.18632075471794
 20
428.41981132075387
 11
671.18632075471794
 21
422.81981132075401
  0
LINE
  8
_0-0_計極細
  6
CONTINUOUS
 62
    2
 10
658.18632075471794
 20
445.41981132075477
 11
658.18632075471794
 21
439.81981132075447
  0
LINE
  8
_0-0_計極細
  6
CONTINUOUS
 62
    2
 10
671.18632075471794
 20
445.41981132075477
 11
671.18632075471794
 21
439.81981132075447
  0
LINE
  8
_0-0_計極細
  6
CONTINUOUS
 62
    2
 10
658.18632075471794
 20
462.41981132075523
 11
658.18632075471794
 21
456.81981132075532
  0
LINE
  8
_0-0_計極細
  6
CONTINUOUS
 62
    2
 10
671.18632075471794
 20
462.41981132075523
 11
671.18632075471794
 21
456.81981132075532
  0
LINE
  8
_0-0_計極細
  6
CONTINUOUS
 62
    2
 10
658.18632075471794
 20
479.4198113207562
 11
658.18632075471794
 21
473.81981132075578
  0
LINE
  8
_0-0_計極細
  6
CONTINUOUS
 62
    2
 10
671.18632075471794
 20
479.4198113207562
 11
671.18632075471794
 21
473.81981132075578
  0
LINE
  8
_0-0_計極細
  6
CONTINUOUS
 62
    2
 10
658.18632075471794
 20
496.41981132075665
 11
658.18632075471794
 21
490.81981132075668
  0
LINE
  8
_0-0_計極細
  6
CONTINUOUS
 62
    2
 10
671.18632075471794
 20
496.41981132075665
 11
671.18632075471794
 21
490.81981132075668
  0
LINE
  8
_0-0_計極細
  6
CONTINUOUS
 62
    2
 10
658.18632075471794
 20
513.4198113207558
 11
658.18632075471794
 21
507.81981132075578
  0
LINE
  8
_0-0_計極細
  6
CONTINUOUS
 62
    2
 10
671.18632075471794
 20
513.4198113207558
 11
671.18632075471794
 21
507.81981132075578
  0
LINE
  8
_0-0_計極細
  6
CONTINUOUS
 62
    2
 10
658.18632075471794
 20
530.41981132075477
 11
658.18632075471794
 21
524.81981132075487
  0
LINE
  8
_0-0_計極細
  6
CONTINUOUS
 62
    2
 10
671.18632075471794
 20
530.41981132075477
 11
671.18632075471794
 21
524.81981132075487
  0
LINE
  8
_0-0_計極細
  6
CONTINUOUS
 62
    2
 10
658.18632075471794
 20
547.41981132075387
 11
658.18632075471794
 21
541.81981132075396
  0
LINE
  8
_0-0_計極細
  6
CONTINUOUS
 62
    2
 10
671.18632075471794
 20
547.41981132075387
 11
671.18632075471794
 21
541.81981132075396
  0
LINE
  8
_0-0_計極細
  6
CONTINUOUS
 62
    2
 10
658.18632075471794
 20
564.41981132075296
 11
658.18632075471794
 21
558.81981132075316
  0
LINE
  8
_0-0_計極細
  6
CONTINUOUS
 62
    2
 10
671.18632075471794
 20
564.41981132075296
 11
671.18632075471794
 21
558.81981132075316
  0
LINE
  8
_0-0_計極細
  6
CONTINUOUS
 62
    2
 10
658.18632075471794
 20
581.11981132075596
 11
658.18632075471794
 21
575.81981132075623
  0
LINE
  8
_0-0_計極細
  6
CONTINUOUS
 62
    2
 10
671.18632075471794
 20
581.11981132075596
 11
671.18632075471794
 21
575.81981132075623
  0
LINE
  8
_0-0_計極細
  6
CONTINUOUS
 62
    2
 10
658.18632075471794
 20
405.81981132075305
 11
658.18632075471794
 21
411.41981132075301
  0
LINE
  8
_0-0_計極細
  6
CONTINUOUS
 62
    2
 10
671.18632075471794
 20
405.81981132075305
 11
671.18632075471794
 21
411.41981132075301
  0
LINE
  8
_0-0_計極細
  6
CONTINUOUS
 62
    2
 10
658.18632075471794
 20
388.81981132075219
 11
658.18632075471794
 21
394.41981132075256
  0
LINE
  8
_0-0_計極細
  6
CONTINUOUS
 62
    2
 10
671.18632075471794
 20
388.81981132075219
 11
671.18632075471794
 21
394.41981132075256
  0
LINE
  8
_0-0_計極細
  6
CONTINUOUS
 62
    2
 10
658.18632075471794
 20
371.81981132075174
 11
658.18632075471794
 21
377.41981132075159
  0
LINE
  8
_0-0_計極細
  6
CONTINUOUS
 62
    2
 10
671.18632075471794
 20
371.81981132075174
 11
671.18632075471794
 21
377.41981132075159
  0
LINE
  8
_0-0_計極細
  6
CONTINUOUS
 62
    2
 10
658.18632075471794
 20
354.81981132075259
 11
658.18632075471794
 21
360.4198113207525
  0
LINE
  8
_0-0_計極細
  6
CONTINUOUS
 62
    2
 10
671.18632075471794
 20
354.81981132075259
 11
671.18632075471794
 21
360.4198113207525
  0
LINE
  8
_0-0_計極細
  6
CONTINUOUS
 62
    2
 10
658.18632075471794
 20
337.8198113207535
 11
658.18632075471794
 21
343.41981132075341
  0
LINE
  8
_0-0_計極細
  6
CONTINUOUS
 62
    2
 10
671.18632075471794
 20
337.8198113207535
 11
671.18632075471794
 21
343.41981132075341
  0
LINE
  8
_0-0_計極細
  6
CONTINUOUS
 62
    2
 10
658.18632075471794
 20
320.81981132075441
 11
658.18632075471794
 21
326.41981132075438
  0
LINE
  8
_0-0_計極細
  6
CONTINUOUS
 62
    2
 10
671.18632075471794
 20
320.81981132075441
 11
671.18632075471794
 21
326.41981132075438
  0
LINE
  8
_0-0_計極細
  6
CONTINUOUS
 62
    2
 10
658.18632075471794
 20
303.81981132075532
 11
658.18632075471794
 21
309.41981132075523
  0
LINE
  8
_0-0_計極細
  6
CONTINUOUS
 62
    2
 10
671.18632075471794
 20
303.81981132075532
 11
671.18632075471794
 21
309.41981132075523
  0
LINE
  8
_0-0_計極細
  6
CONTINUOUS
 62
    2
 10
658.18632075471794
 20
287.11981132075232
 11
658.18632075471794
 21
292.41981132075205
  0
LINE
  8
_0-0_計極細
  6
CONTINUOUS
 62
    2
 10
671.18632075471794
 20
287.11981132075232
 11
671.18632075471794
 21
292.41981132075205
  0
LINE
  8
_0-0_計極細
  6
CONTINUOUS
 62
    2
 10
561.18632075471794
 20
428.41981132075387
 11
561.18632075471794
 21
422.81981132075401
  0
LINE
  8
_0-0_計極細
  6
CONTINUOUS
 62
    2
 10
574.18632075471794
 20
428.41981132075387
 11
574.18632075471794
 21
422.81981132075401
  0
LINE
  8
_0-0_計極細
  6
CONTINUOUS
 62
    2
 10
561.18632075471794
 20
445.41981132075477
 11
561.18632075471794
 21
439.81981132075447
  0
LINE
  8
_0-0_計極細
  6
CONTINUOUS
 62
    2
 10
574.18632075471794
 20
445.41981132075477
 11
574.18632075471794
 21
439.81981132075447
  0
LINE
  8
_0-0_計極細
  6
CONTINUOUS
 62
    2
 10
561.18632075471794
 20
462.41981132075523
 11
561.18632075471794
 21
456.81981132075532
  0
LINE
  8
_0-0_計極細
  6
CONTINUOUS
 62
    2
 10
574.18632075471794
 20
462.41981132075523
 11
574.18632075471794
 21
456.81981132075532
  0
LINE
  8
_0-0_計極細
  6
CONTINUOUS
 62
    2
 10
561.18632075471794
 20
479.4198113207562
 11
561.18632075471794
 21
473.81981132075578
  0
LINE
  8
_0-0_計極細
  6
CONTINUOUS
 62
    2
 10
574.18632075471794
 20
479.4198113207562
 11
574.18632075471794
 21
473.81981132075578
  0
LINE
  8
_0-0_計極細
  6
CONTINUOUS
 62
    2
 10
561.18632075471794
 20
496.41981132075665
 11
561.18632075471794
 21
490.81981132075668
  0
LINE
  8
_0-0_計極細
  6
CONTINUOUS
 62
    2
 10
574.18632075471794
 20
496.41981132075665
 11
574.18632075471794
 21
490.81981132075668
  0
LINE
  8
_0-0_計極細
  6
CONTINUOUS
 62
    2
 10
561.18632075471794
 20
513.4198113207558
 11
561.18632075471794
 21
507.81981132075578
  0
LINE
  8
_0-0_計極細
  6
CONTINUOUS
 62
    2
 10
574.18632075471794
 20
513.4198113207558
 11
574.18632075471794
 21
507.81981132075578
  0
LINE
  8
_0-0_計極細
  6
CONTINUOUS
 62
    2
 10
561.18632075471794
 20
530.41981132075477
 11
561.18632075471794
 21
524.81981132075487
  0
LINE
  8
_0-0_計極細
  6
CONTINUOUS
 62
    2
 10
574.18632075471794
 20
530.41981132075477
 11
574.18632075471794
 21
524.81981132075487
  0
LINE
  8
_0-0_計極細
  6
CONTINUOUS
 62
    2
 10
561.18632075471794
 20
547.41981132075387
 11
561.18632075471794
 21
541.81981132075396
  0
LINE
  8
_0-0_計極細
  6
CONTINUOUS
 62
    2
 10
574.18632075471794
 20
547.41981132075387
 11
574.18632075471794
 21
541.81981132075396
  0
LINE
  8
_0-0_計極細
  6
CONTINUOUS
 62
    2
 10
561.18632075471794
 20
564.41981132075296
 11
561.18632075471794
 21
558.81981132075316
  0
LINE
  8
_0-0_計極細
  6
CONTINUOUS
 62
    2
 10
574.18632075471794
 20
564.41981132075296
 11
574.18632075471794
 21
558.81981132075316
  0
LINE
  8
_0-0_計極細
  6
CONTINUOUS
 62
    2
 10
561.18632075471794
 20
581.11981132075596
 11
561.18632075471794
 21
575.81981132075623
  0
LINE
  8
_0-0_計極細
  6
CONTINUOUS
 62
    2
 10
574.18632075471794
 20
581.11981132075596
 11
574.18632075471794
 21
575.81981132075623
  0
LINE
  8
_0-0_計極細
  6
CONTINUOUS
 62
    2
 10
561.18632075471794
 20
405.81981132075305
 11
561.18632075471794
 21
411.41981132075301
  0
LINE
  8
_0-0_計極細
  6
CONTINUOUS
 62
    2
 10
574.18632075471794
 20
405.81981132075305
 11
574.18632075471794
 21
411.41981132075301
  0
LINE
  8
_0-0_計極細
  6
CONTINUOUS
 62
    2
 10
561.18632075471794
 20
388.81981132075219
 11
561.18632075471794
 21
394.41981132075256
  0
LINE
  8
_0-0_計極細
  6
CONTINUOUS
 62
    2
 10
574.18632075471794
 20
388.81981132075219
 11
574.18632075471794
 21
394.41981132075256
  0
LINE
  8
_0-0_計極細
  6
CONTINUOUS
 62
    2
 10
561.18632075471794
 20
371.81981132075174
 11
561.18632075471794
 21
377.41981132075159
  0
LINE
  8
_0-0_計極細
  6
CONTINUOUS
 62
    2
 10
574.18632075471794
 20
371.81981132075174
 11
574.18632075471794
 21
377.41981132075159
  0
LINE
  8
_0-0_計極細
  6
CONTINUOUS
 62
    2
 10
561.18632075471794
 20
354.81981132075259
 11
561.18632075471794
 21
360.4198113207525
  0
LINE
  8
_0-0_計極細
  6
CONTINUOUS
 62
    2
 10
574.18632075471794
 20
354.81981132075259
 11
574.18632075471794
 21
360.4198113207525
  0
LINE
  8
_0-0_計極細
  6
CONTINUOUS
 62
    2
 10
561.18632075471794
 20
337.8198113207535
 11
561.18632075471794
 21
343.41981132075341
  0
LINE
  8
_0-0_計極細
  6
CONTINUOUS
 62
    2
 10
574.18632075471794
 20
337.8198113207535
 11
574.18632075471794
 21
343.41981132075341
  0
LINE
  8
_0-0_計極細
  6
CONTINUOUS
 62
    2
 10
561.18632075471794
 20
320.81981132075441
 11
561.18632075471794
 21
326.41981132075438
  0
LINE
  8
_0-0_計極細
  6
CONTINUOUS
 62
    2
 10
574.18632075471794
 20
320.81981132075441
 11
574.18632075471794
 21
326.41981132075438
  0
LINE
  8
_0-0_計極細
  6
CONTINUOUS
 62
    2
 10
561.18632075471794
 20
303.81981132075532
 11
561.18632075471794
 21
309.41981132075523
  0
LINE
  8
_0-0_計極細
  6
CONTINUOUS
 62
    2
 10
574.18632075471794
 20
303.81981132075532
 11
574.18632075471794
 21
309.41981132075523
  0
LINE
  8
_0-0_計極細
  6
CONTINUOUS
 62
    2
 10
561.18632075471794
 20
287.11981132075232
 11
561.18632075471794
 21
292.41981132075205
  0
LINE
  8
_0-0_計極細
  6
CONTINUOUS
 62
    2
 10
574.18632075471794
 20
287.11981132075232
 11
574.18632075471794
 21
292.41981132075205
  0
LINE
  8
_0-1_計細線
  6
CONTINUOUS
 62
    3
 10
271.68632075471794
 20
259.01981132075423
 11
671.68632075471794
 21
259.01981132075423
  0
LINE
  8
_0-1_計細線
  6
CONTINUOUS
 62
    3
 10
271.68632075471794
 20
270.41981132075477
 11
671.68632075471794
 21
270.41981132075477
  0
LINE
  8
_0-1_計細線
  6
CONTINUOUS
 62
    3
 10
271.68632075471794
 20
259.01981132075423
 11
271.68632075471794
 21
270.41981132075477
  0
LINE
  8
_0-1_計細線
  6
CONTINUOUS
 62
    3
 10
671.68632075471794
 20
259.01981132075423
 11
671.68632075471794
 21
270.41981132075477
  0
LINE
  8
_0-0_計極細
  6
CONTINUOUS
 62
    2
 10
271.68632075471794
 20
267.2198113207545
 11
671.68632075471794
 21
267.2198113207545
  0
LINE
  8
_0-0_計極細
  6
CONTINUOUS
 62
    2
 10
271.68632075471794
 20
262.2198113207545
 11
671.68632075471794
 21
262.2198113207545
  0
LINE
  8
_0-0_計極細
  6
CONTINUOUS
 62
    2
 10
658.18632075471794
 20
270.41981132075341
 11
658.18632075471794
 21
275.71981132075314
  0
LINE
  8
_0-0_計極細
  6
CONTINUOUS
 62
    2
 10
671.18632075471794
 20
270.41981132075341
 11
671.18632075471794
 21
275.71981132075314
  0
LINE
  8
_0-0_計極細
  6
CONTINUOUS
 62
    2
 10
561.18632075471794
 20
270.41981132075341
 11
561.18632075471794
 21
275.71981132075314
  0
LINE
  8
_0-0_計極細
  6
CONTINUOUS
 62
    2
 10
574.18632075471794
 20
270.41981132075341
 11
574.18632075471794
 21
275.71981132075314
  0
LINE
  8
_0-1_計細線
  6
CONTINUOUS
 62
    3
 10
271.68632075471794
 20
609.21981132075405
 11
671.68632075471794
 21
609.21981132075405
  0
LINE
  8
_0-1_計細線
  6
CONTINUOUS
 62
    3
 10
271.68632075471794
 20
597.8198113207535
 11
671.68632075471794
 21
597.8198113207535
  0
LINE
  8
_0-1_計細線
  6
CONTINUOUS
 62
    3
 10
271.68632075471794
 20
609.21981132075405
 11
271.68632075471794
 21
597.8198113207535
  0
LINE
  8
_0-1_計細線
  6
CONTINUOUS
 62
    3
 10
671.68632075471794
 20
609.21981132075405
 11
671.68632075471794
 21
597.8198113207535
  0
LINE
  8
_0-0_計極細
  6
CONTINUOUS
 62
    2
 10
271.68632075471794
 20
601.01981132075377
 11
671.68632075471794
 21
601.01981132075377
  0
LINE
  8
_0-0_計極細
  6
CONTINUOUS
 62
    2
 10
271.68632075471794
 20
606.01981132075377
 11
671.68632075471794
 21
606.01981132075377
  0
LINE
  8
_0-0_計極細
  6
CONTINUOUS
 62
    2
 10
658.18632075471794
 20
597.81981132075487
 11
658.18632075471794
 21
592.51981132075514
  0
LINE
  8
_0-0_計極細
  6
CONTINUOUS
 62
    2
 10
671.18632075471794
 20
597.81981132075487
 11
671.18632075471794
 21
592.51981132075514
  0
LINE
  8
_0-0_計極細
  6
CONTINUOUS
 62
    2
 10
561.18632075471794
 20
597.81981132075487
 11
561.18632075471794
 21
592.51981132075514
  0
LINE
  8
_0-0_計極細
  6
CONTINUOUS
 62
    2
 10
574.18632075471794
 20
597.81981132075487
 11
574.18632075471794
 21
592.51981132075514
  0
LINE
  8
_0-1_計細線
  6
CONTINUOUS
 62
    3
 10
271.68632075471794
 20
625.91981132075296
 11
671.68632075471794
 21
625.91981132075296
  0
LINE
  8
_0-1_計細線
  6
CONTINUOUS
 62
    3
 10
271.68632075471794
 20
614.51981132075252
 11
671.68632075471794
 21
614.51981132075252
  0
LINE
  8
_0-1_計細線
  6
CONTINUOUS
 62
    3
 10
271.68632075471794
 20
625.91981132075296
 11
271.68632075471794
 21
614.51981132075252
  0
LINE
  8
_0-1_計細線
  6
CONTINUOUS
 62
    3
 10
671.68632075471794
 20
625.91981132075296
 11
671.68632075471794
 21
614.51981132075252
  0
LINE
  8
_0-0_計極細
  6
CONTINUOUS
 62
    2
 10
271.68632075471794
 20
617.71981132075268
 11
671.68632075471794
 21
617.71981132075268
  0
LINE
  8
_0-0_計極細
  6
CONTINUOUS
 62
    2
 10
271.68632075471794
 20
622.71981132075268
 11
671.68632075471794
 21
622.71981132075268
  0
LINE
  8
_0-0_計極細
  6
CONTINUOUS
 62
    2
 10
658.18632075471794
 20
614.51981132075377
 11
658.18632075471794
 21
609.21981132075405
  0
LINE
  8
_0-0_計極細
  6
CONTINUOUS
 62
    2
 10
671.18632075471794
 20
614.51981132075377
 11
671.18632075471794
 21
609.21981132075405
  0
LINE
  8
_0-0_計極細
  6
CONTINUOUS
 62
    2
 10
561.18632075471794
 20
614.51981132075377
 11
561.18632075471794
 21
609.21981132075405
  0
LINE
  8
_0-0_計極細
  6
CONTINUOUS
 62
    2
 10
574.18632075471794
 20
614.51981132075377
 11
574.18632075471794
 21
609.21981132075405
  0
LINE
  8
_0-0_計極細
  6
CENTER1
 62
    2
 10
472.686320754718
 20
651.37053074521134
 11
472.686320754718
 21
235.06198757974232
  0
LINE
  8
_0-0_計極細
  6
CONTINUOUS
 62
    2
 10
466.18632075471794
 20
428.41981132075387
 11
466.18632075471794
 21
422.81981132075401
  0
LINE
  8
_0-0_計極細
  6
CONTINUOUS
 62
    2
 10
479.186320754718
 20
428.41981132075387
 11
479.186320754718
 21
422.81981132075401
  0
LINE
  8
_0-0_計極細
  6
CONTINUOUS
 62
    2
 10
466.18632075471794
 20
445.41981132075477
 11
466.18632075471794
 21
439.81981132075447
  0
LINE
  8
_0-0_計極細
  6
CONTINUOUS
 62
    2
 10
479.186320754718
 20
445.41981132075477
 11
479.186320754718
 21
439.81981132075447
  0
LINE
  8
_0-0_計極細
  6
CONTINUOUS
 62
    2
 10
466.18632075471794
 20
462.41981132075523
 11
466.18632075471794
 21
456.81981132075532
  0
LINE
  8
_0-0_計極細
  6
CONTINUOUS
 62
    2
 10
479.186320754718
 20
462.41981132075523
 11
479.186320754718
 21
456.81981132075532
  0
LINE
  8
_0-0_計極細
  6
CONTINUOUS
 62
    2
 10
466.18632075471794
 20
479.4198113207562
 11
466.18632075471794
 21
473.81981132075578
  0
LINE
  8
_0-0_計極細
  6
CONTINUOUS
 62
    2
 10
479.186320754718
 20
479.4198113207562
 11
479.186320754718
 21
473.81981132075578
  0
LINE
  8
_0-0_計極細
  6
CONTINUOUS
 62
    2
 10
466.18632075471794
 20
496.41981132075665
 11
466.18632075471794
 21
490.81981132075668
  0
LINE
  8
_0-0_計極細
  6
CONTINUOUS
 62
    2
 10
479.186320754718
 20
496.41981132075665
 11
479.186320754718
 21
490.81981132075668
  0
LINE
  8
_0-0_計極細
  6
CONTINUOUS
 62
    2
 10
466.18632075471794
 20
513.4198113207558
 11
466.18632075471794
 21
507.81981132075578
  0
LINE
  8
_0-0_計極細
  6
CONTINUOUS
 62
    2
 10
479.186320754718
 20
513.4198113207558
 11
479.186320754718
 21
507.81981132075578
  0
LINE
  8
_0-0_計極細
  6
CONTINUOUS
 62
    2
 10
466.18632075471794
 20
530.41981132075477
 11
466.18632075471794
 21
524.81981132075487
  0
LINE
  8
_0-0_計極細
  6
CONTINUOUS
 62
    2
 10
479.186320754718
 20
530.41981132075477
 11
479.186320754718
 21
524.81981132075487
  0
LINE
  8
_0-0_計極細
  6
CONTINUOUS
 62
    2
 10
466.18632075471794
 20
547.41981132075387
 11
466.18632075471794
 21
541.81981132075396
  0
LINE
  8
_0-0_計極細
  6
CONTINUOUS
 62
    2
 10
479.186320754718
 20
547.41981132075387
 11
479.186320754718
 21
541.81981132075396
  0
LINE
  8
_0-0_計極細
  6
CONTINUOUS
 62
    2
 10
466.18632075471794
 20
564.41981132075296
 11
466.18632075471794
 21
558.81981132075316
  0
LINE
  8
_0-0_計極細
  6
CONTINUOUS
 62
    2
 10
479.186320754718
 20
564.41981132075296
 11
479.186320754718
 21
558.81981132075316
  0
LINE
  8
_0-0_計極細
  6
CONTINUOUS
 62
    2
 10
466.18632075471794
 20
581.11981132075596
 11
466.18632075471794
 21
575.81981132075623
  0
LINE
  8
_0-0_計極細
  6
CONTINUOUS
 62
    2
 10
479.186320754718
 20
581.11981132075596
 11
479.186320754718
 21
575.81981132075623
  0
LINE
  8
_0-0_計極細
  6
CONTINUOUS
 62
    2
 10
466.18632075471794
 20
405.81981132075305
 11
466.18632075471794
 21
411.41981132075301
  0
LINE
  8
_0-0_計極細
  6
CONTINUOUS
 62
    2
 10
479.186320754718
 20
405.81981132075305
 11
479.186320754718
 21
411.41981132075301
  0
LINE
  8
_0-0_計極細
  6
CONTINUOUS
 62
    2
 10
466.18632075471794
 20
388.81981132075219
 11
466.18632075471794
 21
394.41981132075256
  0
LINE
  8
_0-0_計極細
  6
CONTINUOUS
 62
    2
 10
479.186320754718
 20
388.81981132075219
 11
479.186320754718
 21
394.41981132075256
  0
LINE
  8
_0-0_計極細
  6
CONTINUOUS
 62
    2
 10
466.18632075471794
 20
371.81981132075174
 11
466.18632075471794
 21
377.41981132075159
  0
LINE
  8
_0-0_計極細
  6
CONTINUOUS
 62
    2
 10
479.186320754718
 20
371.81981132075174
 11
479.186320754718
 21
377.41981132075159
  0
LINE
  8
_0-0_計極細
  6
CONTINUOUS
 62
    2
 10
466.18632075471794
 20
354.81981132075259
 11
466.18632075471794
 21
360.4198113207525
  0
LINE
  8
_0-0_計極細
  6
CONTINUOUS
 62
    2
 10
479.186320754718
 20
354.81981132075259
 11
479.186320754718
 21
360.4198113207525
  0
LINE
  8
_0-0_計極細
  6
CONTINUOUS
 62
    2
 10
466.18632075471794
 20
337.8198113207535
 11
466.18632075471794
 21
343.41981132075341
  0
LINE
  8
_0-0_計極細
  6
CONTINUOUS
 62
    2
 10
479.186320754718
 20
337.8198113207535
 11
479.186320754718
 21
343.41981132075341
  0
LINE
  8
_0-0_計極細
  6
CONTINUOUS
 62
    2
 10
466.18632075471794
 20
320.81981132075441
 11
466.18632075471794
 21
326.41981132075438
  0
LINE
  8
_0-0_計極細
  6
CONTINUOUS
 62
    2
 10
479.186320754718
 20
320.81981132075441
 11
479.186320754718
 21
326.41981132075438
  0
LINE
  8
_0-0_計極細
  6
CONTINUOUS
 62
    2
 10
466.18632075471794
 20
303.81981132075532
 11
466.18632075471794
 21
309.41981132075523
  0
LINE
  8
_0-0_計極細
  6
CONTINUOUS
 62
    2
 10
479.186320754718
 20
303.81981132075532
 11
479.186320754718
 21
309.41981132075523
  0
LINE
  8
_0-0_計極細
  6
CONTINUOUS
 62
    2
 10
466.18632075471794
 20
287.11981132075232
 11
466.18632075471794
 21
292.41981132075205
  0
LINE
  8
_0-0_計極細
  6
CONTINUOUS
 62
    2
 10
479.186320754718
 20
287.11981132075232
 11
479.186320754718
 21
292.41981132075205
  0
LINE
  8
_0-0_計極細
  6
CONTINUOUS
 62
    2
 10
466.18632075471794
 20
270.41981132075341
 11
466.18632075471794
 21
275.71981132075314
  0
LINE
  8
_0-0_計極細
  6
CONTINUOUS
 62
    2
 10
479.186320754718
 20
270.41981132075341
 11
479.186320754718
 21
275.71981132075314
  0
LINE
  8
_0-0_計極細
  6
CONTINUOUS
 62
    2
 10
466.18632075471794
 20
597.81981132075487
 11
466.18632075471794
 21
592.51981132075514
  0
LINE
  8
_0-0_計極細
  6
CONTINUOUS
 62
    2
 10
479.186320754718
 20
597.81981132075487
 11
479.186320754718
 21
592.51981132075514
  0
LINE
  8
_0-0_計極細
  6
CONTINUOUS
 62
    2
 10
466.18632075471794
 20
614.51981132075377
 11
466.18632075471794
 21
609.21981132075405
  0
LINE
  8
_0-0_計極細
  6
CONTINUOUS
 62
    2
 10
479.186320754718
 20
614.51981132075377
 11
479.186320754718
 21
609.21981132075405
  0
LINE
  8
_0-0_計極細
  6
CENTER1
 62
    2
 10
519.18632075471794
 20
651.37053074521134
 11
519.18632075471794
 21
235.06198757974232
  0
LINE
  8
_0-0_計極細
  6
CONTINUOUS
 62
    2
 10
512.68632075471805
 20
428.41981132075387
 11
512.68632075471805
 21
422.81981132075401
  0
LINE
  8
_0-0_計極細
  6
CONTINUOUS
 62
    2
 10
525.68632075471794
 20
428.41981132075387
 11
525.68632075471794
 21
422.81981132075401
  0
LINE
  8
_0-0_計極細
  6
CONTINUOUS
 62
    2
 10
512.68632075471805
 20
445.41981132075477
 11
512.68632075471805
 21
439.81981132075447
  0
LINE
  8
_0-0_計極細
  6
CONTINUOUS
 62
    2
 10
525.68632075471794
 20
445.41981132075477
 11
525.68632075471794
 21
439.81981132075447
  0
LINE
  8
_0-0_計極細
  6
CONTINUOUS
 62
    2
 10
512.68632075471805
 20
462.41981132075523
 11
512.68632075471805
 21
456.81981132075532
  0
LINE
  8
_0-0_計極細
  6
CONTINUOUS
 62
    2
 10
525.68632075471794
 20
462.41981132075523
 11
525.68632075471794
 21
456.81981132075532
  0
LINE
  8
_0-0_計極細
  6
CONTINUOUS
 62
    2
 10
512.68632075471805
 20
479.4198113207562
 11
512.68632075471805
 21
473.81981132075578
  0
LINE
  8
_0-0_計極細
  6
CONTINUOUS
 62
    2
 10
525.68632075471794
 20
479.4198113207562
 11
525.68632075471794
 21
473.81981132075578
  0
LINE
  8
_0-0_計極細
  6
CONTINUOUS
 62
    2
 10
512.68632075471805
 20
496.41981132075665
 11
512.68632075471805
 21
490.81981132075668
  0
LINE
  8
_0-0_計極細
  6
CONTINUOUS
 62
    2
 10
525.68632075471794
 20
496.41981132075665
 11
525.68632075471794
 21
490.81981132075668
  0
LINE
  8
_0-0_計極細
  6
CONTINUOUS
 62
    2
 10
512.68632075471805
 20
513.4198113207558
 11
512.68632075471805
 21
507.81981132075578
  0
LINE
  8
_0-0_計極細
  6
CONTINUOUS
 62
    2
 10
525.68632075471794
 20
513.4198113207558
 11
525.68632075471794
 21
507.81981132075578
  0
LINE
  8
_0-0_計極細
  6
CONTINUOUS
 62
    2
 10
512.68632075471805
 20
530.41981132075477
 11
512.68632075471805
 21
524.81981132075487
  0
LINE
  8
_0-0_計極細
  6
CONTINUOUS
 62
    2
 10
525.68632075471794
 20
530.41981132075477
 11
525.68632075471794
 21
524.81981132075487
  0
LINE
  8
_0-0_計極細
  6
CONTINUOUS
 62
    2
 10
512.68632075471805
 20
547.41981132075387
 11
512.68632075471805
 21
541.81981132075396
  0
LINE
  8
_0-0_計極細
  6
CONTINUOUS
 62
    2
 10
525.68632075471794
 20
547.41981132075387
 11
525.68632075471794
 21
541.81981132075396
  0
LINE
  8
_0-0_計極細
  6
CONTINUOUS
 62
    2
 10
512.68632075471805
 20
564.41981132075296
 11
512.68632075471805
 21
558.81981132075316
  0
LINE
  8
_0-0_計極細
  6
CONTINUOUS
 62
    2
 10
525.68632075471794
 20
564.41981132075296
 11
525.68632075471794
 21
558.81981132075316
  0
LINE
  8
_0-0_計極細
  6
CONTINUOUS
 62
    2
 10
512.68632075471805
 20
581.11981132075596
 11
512.68632075471805
 21
575.81981132075623
  0
LINE
  8
_0-0_計極細
  6
CONTINUOUS
 62
    2
 10
525.68632075471794
 20
581.11981132075596
 11
525.68632075471794
 21
575.81981132075623
  0
LINE
  8
_0-0_計極細
  6
CONTINUOUS
 62
    2
 10
512.68632075471805
 20
405.81981132075305
 11
512.68632075471805
 21
411.41981132075301
  0
LINE
  8
_0-0_計極細
  6
CONTINUOUS
 62
    2
 10
525.68632075471794
 20
405.81981132075305
 11
525.68632075471794
 21
411.41981132075301
  0
LINE
  8
_0-0_計極細
  6
CONTINUOUS
 62
    2
 10
512.68632075471805
 20
388.81981132075219
 11
512.68632075471805
 21
394.41981132075256
  0
LINE
  8
_0-0_計極細
  6
CONTINUOUS
 62
    2
 10
525.68632075471794
 20
388.81981132075219
 11
525.68632075471794
 21
394.41981132075256
  0
LINE
  8
_0-0_計極細
  6
CONTINUOUS
 62
    2
 10
512.68632075471805
 20
371.81981132075174
 11
512.68632075471805
 21
377.41981132075159
  0
LINE
  8
_0-0_計極細
  6
CONTINUOUS
 62
    2
 10
525.68632075471794
 20
371.81981132075174
 11
525.68632075471794
 21
377.41981132075159
  0
LINE
  8
_0-0_計極細
  6
CONTINUOUS
 62
    2
 10
512.68632075471805
 20
354.81981132075259
 11
512.68632075471805
 21
360.4198113207525
  0
LINE
  8
_0-0_計極細
  6
CONTINUOUS
 62
    2
 10
525.68632075471794
 20
354.81981132075259
 11
525.68632075471794
 21
360.4198113207525
  0
LINE
  8
_0-0_計極細
  6
CONTINUOUS
 62
    2
 10
512.68632075471805
 20
337.8198113207535
 11
512.68632075471805
 21
343.41981132075341
  0
LINE
  8
_0-0_計極細
  6
CONTINUOUS
 62
    2
 10
525.68632075471794
 20
337.8198113207535
 11
525.68632075471794
 21
343.41981132075341
  0
LINE
  8
_0-0_計極細
  6
CONTINUOUS
 62
    2
 10
512.68632075471805
 20
320.81981132075441
 11
512.68632075471805
 21
326.41981132075438
  0
LINE
  8
_0-0_計極細
  6
CONTINUOUS
 62
    2
 10
525.68632075471794
 20
320.81981132075441
 11
525.68632075471794
 21
326.41981132075438
  0
LINE
  8
_0-0_計極細
  6
CONTINUOUS
 62
    2
 10
512.68632075471805
 20
303.81981132075532
 11
512.68632075471805
 21
309.41981132075523
  0
LINE
  8
_0-0_計極細
  6
CONTINUOUS
 62
    2
 10
525.68632075471794
 20
303.81981132075532
 11
525.68632075471794
 21
309.41981132075523
  0
LINE
  8
_0-0_計極細
  6
CONTINUOUS
 62
    2
 10
512.68632075471805
 20
287.11981132075232
 11
512.68632075471805
 21
292.41981132075205
  0
LINE
  8
_0-0_計極細
  6
CONTINUOUS
 62
    2
 10
525.68632075471794
 20
287.11981132075232
 11
525.68632075471794
 21
292.41981132075205
  0
LINE
  8
_0-0_計極細
  6
CONTINUOUS
 62
    2
 10
512.68632075471805
 20
270.41981132075341
 11
512.68632075471805
 21
275.71981132075314
  0
LINE
  8
_0-0_計極細
  6
CONTINUOUS
 62
    2
 10
525.68632075471794
 20
270.41981132075341
 11
525.68632075471794
 21
275.71981132075314
  0
LINE
  8
_0-0_計極細
  6
CONTINUOUS
 62
    2
 10
512.68632075471805
 20
597.81981132075487
 11
512.68632075471805
 21
592.51981132075514
  0
LINE
  8
_0-0_計極細
  6
CONTINUOUS
 62
    2
 10
525.68632075471794
 20
597.81981132075487
 11
525.68632075471794
 21
592.51981132075514
  0
LINE
  8
_0-0_計極細
  6
CONTINUOUS
 62
    2
 10
512.68632075471805
 20
614.51981132075377
 11
512.68632075471805
 21
609.21981132075405
  0
LINE
  8
_0-0_計極細
  6
CONTINUOUS
 62
    2
 10
525.68632075471794
 20
614.51981132075377
 11
525.68632075471794
 21
609.21981132075405
  0
LINE
  8
_0-5_寸法線
  6
CONTINUOUS
 62
    7
 10
638.45563710877411
 20
485.3345693942947
 11
645.52670492063965
 21
492.40563720616024
  0
LINE
  8
_0-5_寸法線
  6
CONTINUOUS
 62
    7
 10
638.45563710877411
 20
485.3345693942947
 11
648.11489537166483
 21
487.92275984531989
  0
LINE
  8
_0-5_寸法線
  6
CONTINUOUS
 62
    7
 10
638.45563710877411
 20
485.3345693942947
 11
717.5667723551436
 21
531.00940462468293
  0
LINE
  8
_0-5_寸法線
  6
CONTINUOUS
 62
    7
 10
717.5667723551436
 20
531.00940462468293
 11
849.56677235514348
 21
531.00940462468293
  0
TEXT
  8
_0-5_寸法線
 62
    7
 10
717.5667723551436
 20
531.00940462468293
 40
15
 41
0.8000000000000001
 50
0
  1
セーフティグレーチング
  0
LINE
  8
_0-0_計極細
  6
CONTINUOUS
 62
    2
 10
430.68632075471794
 20
631.71981132075905
 11
430.68632075471794
 21
626.21981132075496
  0
LINE
  8
_0-0_計極細
  6
CONTINUOUS
 62
    2
 10
417.686320754718
 20
631.71981132075905
 11
417.686320754718
 21
626.21981132075496
  0
LINE
  8
_0-0_計極細
  6
CONTINUOUS
 62
    2
 10
382.18632075471794
 20
631.71981132075905
 11
382.18632075471794
 21
626.21981132075496
  0
LINE
  8
_0-0_計極細
  6
CONTINUOUS
 62
    2
 10
369.186320754718
 20
631.71981132075905
 11
369.186320754718
 21
626.21981132075496
  0
LINE
  8
_0-0_計極細
  6
CONTINUOUS
 62
    2
 10
285.186320754718
 20
631.71981132075905
 11
285.186320754718
 21
626.21981132075496
  0
LINE
  8
_0-0_計極細
  6
CONTINUOUS
 62
    2
 10
272.18632075471794
 20
631.71981132075905
 11
272.18632075471794
 21
626.21981132075496
  0
LINE
  8
_0-1_計細線
  6
CONTINUOUS
 62
    3
 10
271.68632075471794
 20
643.11981132074959
 11
671.68632075471794
 21
643.11981132074959
  0
LINE
  8
_0-1_計細線
  6
CONTINUOUS
 62
    3
 10
271.68632075471794
 20
631.71981132074905
 11
671.68632075471794
 21
631.71981132074905
  0
LINE
  8
_0-1_計細線
  6
CONTINUOUS
 62
    3
 10
271.68632075471794
 20
643.11981132074959
 11
271.68632075471794
 21
631.71981132074905
  0
LINE
  8
_0-1_計細線
  6
CONTINUOUS
 62
    3
 10
671.68632075471794
 20
643.11981132074959
 11
671.68632075471794
 21
631.71981132074905
  0
LINE
  8
_0-0_計極細
  6
CONTINUOUS
 62
    2
 10
271.68632075471794
 20
634.91981132074932
 11
671.68632075471794
 21
634.91981132074932
  0
LINE
  8
_0-0_計極細
  6
CONTINUOUS
 62
    2
 10
271.68632075471794
 20
639.91981132074932
 11
671.68632075471794
 21
639.91981132074932
  0
LINE
  8
_0-0_計極細
  6
CONTINUOUS
 62
    2
 10
574.18632075471794
 20
631.71981132075905
 11
574.18632075471794
 21
626.21981132075496
  0
LINE
  8
_0-0_計極細
  6
CONTINUOUS
 62
    2
 10
561.18632075471794
 20
631.71981132075905
 11
561.18632075471794
 21
626.21981132075496
  0
LINE
  8
_0-0_計極細
  6
CONTINUOUS
 62
    2
 10
671.18632075471794
 20
631.71981132075905
 11
671.18632075471794
 21
626.21981132075496
  0
LINE
  8
_0-0_計極細
  6
CONTINUOUS
 62
    2
 10
658.18632075471794
 20
631.71981132075905
 11
658.18632075471794
 21
626.21981132075496
  0
LINE
  8
_0-0_計極細
  6
CONTINUOUS
 62
    2
 10
479.186320754718
 20
631.71981132075905
 11
479.186320754718
 21
626.21981132075496
  0
LINE
  8
_0-0_計極細
  6
CONTINUOUS
 62
    2
 10
466.18632075471794
 20
631.71981132075905
 11
466.18632075471794
 21
626.21981132075496
  0
LINE
  8
_0-0_計極細
  6
CONTINUOUS
 62
    2
 10
525.68632075471794
 20
631.71981132075905
 11
525.68632075471794
 21
626.21981132075496
  0
LINE
  8
_0-0_計極細
  6
CONTINUOUS
 62
    2
 10
512.68632075471805
 20
631.71981132075905
 11
512.68632075471805
 21
626.21981132075496
  0
LINE
  8
_0-0_計極細
  6
CONTINUOUS
 62
    2
 10
430.68632075471794
 20
253.51981132075014
 11
430.68632075471794
 21
259.01981132075423
  0
LINE
  8
_0-0_計極細
  6
CONTINUOUS
 62
    2
 10
417.686320754718
 20
253.51981132075014
 11
417.686320754718
 21
259.01981132075423
  0
LINE
  8
_0-0_計極細
  6
CONTINUOUS
 62
    2
 10
382.18632075471794
 20
253.51981132075014
 11
382.18632075471794
 21
259.01981132075423
  0
LINE
  8
_0-0_計極細
  6
CONTINUOUS
 62
    2
 10
369.186320754718
 20
253.51981132075014
 11
369.186320754718
 21
259.01981132075423
  0
LINE
  8
_0-0_計極細
  6
CONTINUOUS
 62
    2
 10
285.186320754718
 20
253.51981132075014
 11
285.186320754718
 21
259.01981132075423
  0
LINE
  8
_0-0_計極細
  6
CONTINUOUS
 62
    2
 10
272.18632075471794
 20
253.51981132075014
 11
272.18632075471794
 21
259.01981132075423
  0
LINE
  8
_0-0_計極細
  6
CONTINUOUS
 62
    2
 10
574.18632075471794
 20
253.51981132075014
 11
574.18632075471794
 21
259.01981132075423
  0
LINE
  8
_0-0_計極細
  6
CONTINUOUS
 62
    2
 10
561.18632075471794
 20
253.51981132075014
 11
561.18632075471794
 21
259.01981132075423
  0
LINE
  8
_0-0_計極細
  6
CONTINUOUS
 62
    2
 10
671.18632075471794
 20
253.51981132075014
 11
671.18632075471794
 21
259.01981132075423
  0
LINE
  8
_0-0_計極細
  6
CONTINUOUS
 62
    2
 10
658.18632075471794
 20
253.51981132075014
 11
658.18632075471794
 21
259.01981132075423
  0
LINE
  8
_0-1_計細線
  6
CONTINUOUS
 62
    3
 10
271.68632075471794
 20
242.11981132074959
 11
671.68632075471794
 21
242.11981132074959
  0
LINE
  8
_0-1_計細線
  6
CONTINUOUS
 62
    3
 10
271.68632075471794
 20
253.51981132075014
 11
671.68632075471794
 21
253.51981132075014
  0
LINE
  8
_0-1_計細線
  6
CONTINUOUS
 62
    3
 10
271.68632075471794
 20
242.11981132074959
 11
271.68632075471794
 21
253.51981132075014
  0
LINE
  8
_0-1_計細線
  6
CONTINUOUS
 62
    3
 10
671.68632075471794
 20
242.11981132074959
 11
671.68632075471794
 21
253.51981132075014
  0
LINE
  8
_0-0_計極細
  6
CONTINUOUS
 62
    2
 10
271.68632075471794
 20
250.31981132074989
 11
671.68632075471794
 21
250.31981132074989
  0
LINE
  8
_0-0_計極細
  6
CONTINUOUS
 62
    2
 10
271.68632075471794
 20
245.31981132074989
 11
671.68632075471794
 21
245.31981132074989
  0
LINE
  8
_0-0_計極細
  6
CONTINUOUS
 62
    2
 10
479.186320754718
 20
253.51981132075014
 11
479.186320754718
 21
259.01981132075423
  0
LINE
  8
_0-0_計極細
  6
CONTINUOUS
 62
    2
 10
466.18632075471794
 20
253.51981132075014
 11
466.18632075471794
 21
259.01981132075423
  0
LINE
  8
_0-0_計極細
  6
CONTINUOUS
 62
    2
 10
525.68632075471794
 20
253.51981132075014
 11
525.68632075471794
 21
259.01981132075423
  0
LINE
  8
_0-0_計極細
  6
CONTINUOUS
 62
    2
 10
512.68632075471805
 20
253.51981132075014
 11
512.68632075471805
 21
259.01981132075423
  0
TEXT
  8
_0-5_寸法線
 62
    7
 10
717.5667723551436
 20
516.00940462468293
 40
15
 41
0.8000000000000001
 50
0
  1
補強仕様
  0
LINE
  8
_0-0_計極細
  6
CENTER1
 62
    2
 10
327.18632075471794
 20
651.37053074521134
 11
327.18632075471794
 21
235.06198757974232
  0
LINE
  8
_0-0_計極細
  6
CONTINUOUS
 62
    2
 10
320.68632075471794
 20
428.41981132075387
 11
320.68632075471794
 21
422.81981132075401
  0
LINE
  8
_0-0_計極細
  6
CONTINUOUS
 62
    2
 10
333.68632075471794
 20
428.41981132075387
 11
333.68632075471794
 21
422.81981132075401
  0
LINE
  8
_0-0_計極細
  6
CONTINUOUS
 62
    2
 10
320.68632075471794
 20
445.41981132075477
 11
320.68632075471794
 21
439.81981132075447
  0
LINE
  8
_0-0_計極細
  6
CONTINUOUS
 62
    2
 10
333.68632075471794
 20
445.41981132075477
 11
333.68632075471794
 21
439.81981132075447
  0
LINE
  8
_0-0_計極細
  6
CONTINUOUS
 62
    2
 10
320.68632075471794
 20
462.41981132075523
 11
320.68632075471794
 21
456.81981132075532
  0
LINE
  8
_0-0_計極細
  6
CONTINUOUS
 62
    2
 10
333.68632075471794
 20
462.41981132075523
 11
333.68632075471794
 21
456.81981132075532
  0
LINE
  8
_0-0_計極細
  6
CONTINUOUS
 62
    2
 10
320.68632075471794
 20
479.4198113207562
 11
320.68632075471794
 21
473.81981132075578
  0
LINE
  8
_0-0_計極細
  6
CONTINUOUS
 62
    2
 10
333.68632075471794
 20
479.4198113207562
 11
333.68632075471794
 21
473.81981132075578
  0
LINE
  8
_0-0_計極細
  6
CONTINUOUS
 62
    2
 10
320.68632075471794
 20
496.41981132075665
 11
320.68632075471794
 21
490.81981132075668
  0
LINE
  8
_0-0_計極細
  6
CONTINUOUS
 62
    2
 10
333.68632075471794
 20
496.41981132075665
 11
333.68632075471794
 21
490.81981132075668
  0
LINE
  8
_0-0_計極細
  6
CONTINUOUS
 62
    2
 10
320.68632075471794
 20
513.4198113207558
 11
320.68632075471794
 21
507.81981132075578
  0
LINE
  8
_0-0_計極細
  6
CONTINUOUS
 62
    2
 10
333.68632075471794
 20
513.4198113207558
 11
333.68632075471794
 21
507.81981132075578
  0
LINE
  8
_0-0_計極細
  6
CONTINUOUS
 62
    2
 10
320.68632075471794
 20
530.41981132075477
 11
320.68632075471794
 21
524.81981132075487
  0
LINE
  8
_0-0_計極細
  6
CONTINUOUS
 62
    2
 10
333.68632075471794
 20
530.41981132075477
 11
333.68632075471794
 21
524.81981132075487
  0
LINE
  8
_0-0_計極細
  6
CONTINUOUS
 62
    2
 10
320.68632075471794
 20
547.41981132075387
 11
320.68632075471794
 21
541.81981132075396
  0
LINE
  8
_0-0_計極細
  6
CONTINUOUS
 62
    2
 10
333.68632075471794
 20
547.41981132075387
 11
333.68632075471794
 21
541.81981132075396
  0
LINE
  8
_0-0_計極細
  6
CONTINUOUS
 62
    2
 10
320.68632075471794
 20
564.41981132075296
 11
320.68632075471794
 21
558.81981132075316
  0
LINE
  8
_0-0_計極細
  6
CONTINUOUS
 62
    2
 10
333.68632075471794
 20
564.41981132075296
 11
333.68632075471794
 21
558.81981132075316
  0
LINE
  8
_0-0_計極細
  6
CONTINUOUS
 62
    2
 10
320.68632075471794
 20
581.11981132075596
 11
320.68632075471794
 21
575.81981132075623
  0
LINE
  8
_0-0_計極細
  6
CONTINUOUS
 62
    2
 10
333.68632075471794
 20
581.11981132075596
 11
333.68632075471794
 21
575.81981132075623
  0
LINE
  8
_0-0_計極細
  6
CONTINUOUS
 62
    2
 10
320.68632075471794
 20
405.81981132075305
 11
320.68632075471794
 21
411.41981132075301
  0
LINE
  8
_0-0_計極細
  6
CONTINUOUS
 62
    2
 10
333.68632075471794
 20
405.81981132075305
 11
333.68632075471794
 21
411.41981132075301
  0
LINE
  8
_0-0_計極細
  6
CONTINUOUS
 62
    2
 10
320.68632075471794
 20
388.81981132075219
 11
320.68632075471794
 21
394.41981132075256
  0
LINE
  8
_0-0_計極細
  6
CONTINUOUS
 62
    2
 10
333.68632075471794
 20
388.81981132075219
 11
333.68632075471794
 21
394.41981132075256
  0
LINE
  8
_0-0_計極細
  6
CONTINUOUS
 62
    2
 10
320.68632075471794
 20
371.81981132075174
 11
320.68632075471794
 21
377.41981132075159
  0
LINE
  8
_0-0_計極細
  6
CONTINUOUS
 62
    2
 10
333.68632075471794
 20
371.81981132075174
 11
333.68632075471794
 21
377.41981132075159
  0
LINE
  8
_0-0_計極細
  6
CONTINUOUS
 62
    2
 10
320.68632075471794
 20
354.81981132075259
 11
320.68632075471794
 21
360.4198113207525
  0
LINE
  8
_0-0_計極細
  6
CONTINUOUS
 62
    2
 10
333.68632075471794
 20
354.81981132075259
 11
333.68632075471794
 21
360.4198113207525
  0
LINE
  8
_0-0_計極細
  6
CONTINUOUS
 62
    2
 10
320.68632075471794
 20
337.8198113207535
 11
320.68632075471794
 21
343.41981132075341
  0
LINE
  8
_0-0_計極細
  6
CONTINUOUS
 62
    2
 10
333.68632075471794
 20
337.8198113207535
 11
333.68632075471794
 21
343.41981132075341
  0
LINE
  8
_0-0_計極細
  6
CONTINUOUS
 62
    2
 10
320.68632075471794
 20
320.81981132075441
 11
320.68632075471794
 21
326.41981132075438
  0
LINE
  8
_0-0_計極細
  6
CONTINUOUS
 62
    2
 10
333.68632075471794
 20
320.81981132075441
 11
333.68632075471794
 21
326.41981132075438
  0
LINE
  8
_0-0_計極細
  6
CONTINUOUS
 62
    2
 10
320.68632075471794
 20
303.81981132075532
 11
320.68632075471794
 21
309.41981132075523
  0
LINE
  8
_0-0_計極細
  6
CONTINUOUS
 62
    2
 10
333.68632075471794
 20
303.81981132075532
 11
333.68632075471794
 21
309.41981132075523
  0
LINE
  8
_0-0_計極細
  6
CONTINUOUS
 62
    2
 10
320.68632075471794
 20
287.11981132075232
 11
320.68632075471794
 21
292.41981132075205
  0
LINE
  8
_0-0_計極細
  6
CONTINUOUS
 62
    2
 10
333.68632075471794
 20
287.11981132075232
 11
333.68632075471794
 21
292.41981132075205
  0
LINE
  8
_0-0_計極細
  6
CONTINUOUS
 62
    2
 10
320.68632075471794
 20
270.41981132075341
 11
320.68632075471794
 21
275.71981132075314
  0
LINE
  8
_0-0_計極細
  6
CONTINUOUS
 62
    2
 10
333.68632075471794
 20
270.41981132075341
 11
333.68632075471794
 21
275.71981132075314
  0
LINE
  8
_0-0_計極細
  6
CONTINUOUS
 62
    2
 10
320.68632075471794
 20
597.81981132075487
 11
320.68632075471794
 21
592.51981132075514
  0
LINE
  8
_0-0_計極細
  6
CONTINUOUS
 62
    2
 10
333.68632075471794
 20
597.81981132075487
 11
333.68632075471794
 21
592.51981132075514
  0
LINE
  8
_0-0_計極細
  6
CONTINUOUS
 62
    2
 10
320.68632075471794
 20
614.51981132075377
 11
320.68632075471794
 21
609.21981132075405
  0
LINE
  8
_0-0_計極細
  6
CONTINUOUS
 62
    2
 10
333.68632075471794
 20
614.51981132075377
 11
333.68632075471794
 21
609.21981132075405
  0
LINE
  8
_0-0_計極細
  6
CONTINUOUS
 62
    2
 10
333.68632075471794
 20
631.71981132075905
 11
333.68632075471794
 21
626.21981132075496
  0
LINE
  8
_0-0_計極細
  6
CONTINUOUS
 62
    2
 10
320.68632075471794
 20
631.71981132075905
 11
320.68632075471794
 21
626.21981132075496
  0
LINE
  8
_0-0_計極細
  6
CONTINUOUS
 62
    2
 10
333.68632075471794
 20
253.51981132075014
 11
333.68632075471794
 21
259.01981132075423
  0
LINE
  8
_0-0_計極細
  6
CONTINUOUS
 62
    2
 10
320.68632075471794
 20
253.51981132075014
 11
320.68632075471794
 21
259.01981132075423
  0
LINE
  8
_0-0_計極細
  6
CENTER1
 62
    2
 10
616.18632075471794
 20
651.37053074521134
 11
616.18632075471794
 21
235.06198757974232
  0
LINE
  8
_0-0_計極細
  6
CONTINUOUS
 62
    2
 10
609.68632075471794
 20
428.41981132075387
 11
609.68632075471794
 21
422.81981132075401
  0
LINE
  8
_0-0_計極細
  6
CONTINUOUS
 62
    2
 10
622.68632075471805
 20
428.41981132075387
 11
622.68632075471805
 21
422.81981132075401
  0
LINE
  8
_0-0_計極細
  6
CONTINUOUS
 62
    2
 10
609.68632075471794
 20
445.41981132075477
 11
609.68632075471794
 21
439.81981132075447
  0
LINE
  8
_0-0_計極細
  6
CONTINUOUS
 62
    2
 10
622.68632075471805
 20
445.41981132075477
 11
622.68632075471805
 21
439.81981132075447
  0
LINE
  8
_0-0_計極細
  6
CONTINUOUS
 62
    2
 10
609.68632075471794
 20
462.41981132075523
 11
609.68632075471794
 21
456.81981132075532
  0
LINE
  8
_0-0_計極細
  6
CONTINUOUS
 62
    2
 10
622.68632075471805
 20
462.41981132075523
 11
622.68632075471805
 21
456.81981132075532
  0
LINE
  8
_0-0_計極細
  6
CONTINUOUS
 62
    2
 10
609.68632075471794
 20
479.4198113207562
 11
609.68632075471794
 21
473.81981132075578
  0
LINE
  8
_0-0_計極細
  6
CONTINUOUS
 62
    2
 10
622.68632075471805
 20
479.4198113207562
 11
622.68632075471805
 21
473.81981132075578
  0
LINE
  8
_0-0_計極細
  6
CONTINUOUS
 62
    2
 10
609.68632075471794
 20
496.41981132075665
 11
609.68632075471794
 21
490.81981132075668
  0
LINE
  8
_0-0_計極細
  6
CONTINUOUS
 62
    2
 10
622.68632075471805
 20
496.41981132075665
 11
622.68632075471805
 21
490.81981132075668
  0
LINE
  8
_0-0_計極細
  6
CONTINUOUS
 62
    2
 10
609.68632075471794
 20
513.4198113207558
 11
609.68632075471794
 21
507.81981132075578
  0
LINE
  8
_0-0_計極細
  6
CONTINUOUS
 62
    2
 10
622.68632075471805
 20
513.4198113207558
 11
622.68632075471805
 21
507.81981132075578
  0
LINE
  8
_0-0_計極細
  6
CONTINUOUS
 62
    2
 10
609.68632075471794
 20
530.41981132075477
 11
609.68632075471794
 21
524.81981132075487
  0
LINE
  8
_0-0_計極細
  6
CONTINUOUS
 62
    2
 10
622.68632075471805
 20
530.41981132075477
 11
622.68632075471805
 21
524.81981132075487
  0
LINE
  8
_0-0_計極細
  6
CONTINUOUS
 62
    2
 10
609.68632075471794
 20
547.41981132075387
 11
609.68632075471794
 21
541.81981132075396
  0
LINE
  8
_0-0_計極細
  6
CONTINUOUS
 62
    2
 10
622.68632075471805
 20
547.41981132075387
 11
622.68632075471805
 21
541.81981132075396
  0
LINE
  8
_0-0_計極細
  6
CONTINUOUS
 62
    2
 10
609.68632075471794
 20
564.41981132075296
 11
609.68632075471794
 21
558.81981132075316
  0
LINE
  8
_0-0_計極細
  6
CONTINUOUS
 62
    2
 10
622.68632075471805
 20
564.41981132075296
 11
622.68632075471805
 21
558.81981132075316
  0
LINE
  8
_0-0_計極細
  6
CONTINUOUS
 62
    2
 10
609.68632075471794
 20
581.11981132075596
 11
609.68632075471794
 21
575.81981132075623
  0
LINE
  8
_0-0_計極細
  6
CONTINUOUS
 62
    2
 10
622.68632075471805
 20
581.11981132075596
 11
622.68632075471805
 21
575.81981132075623
  0
LINE
  8
_0-0_計極細
  6
CONTINUOUS
 62
    2
 10
609.68632075471794
 20
405.81981132075305
 11
609.68632075471794
 21
411.41981132075301
  0
LINE
  8
_0-0_計極細
  6
CONTINUOUS
 62
    2
 10
622.68632075471805
 20
405.81981132075305
 11
622.68632075471805
 21
411.41981132075301
  0
LINE
  8
_0-0_計極細
  6
CONTINUOUS
 62
    2
 10
609.68632075471794
 20
388.81981132075219
 11
609.68632075471794
 21
394.41981132075256
  0
LINE
  8
_0-0_計極細
  6
CONTINUOUS
 62
    2
 10
622.68632075471805
 20
388.81981132075219
 11
622.68632075471805
 21
394.41981132075256
  0
LINE
  8
_0-0_計極細
  6
CONTINUOUS
 62
    2
 10
609.68632075471794
 20
371.81981132075174
 11
609.68632075471794
 21
377.41981132075159
  0
LINE
  8
_0-0_計極細
  6
CONTINUOUS
 62
    2
 10
622.68632075471805
 20
371.81981132075174
 11
622.68632075471805
 21
377.41981132075159
  0
LINE
  8
_0-0_計極細
  6
CONTINUOUS
 62
    2
 10
609.68632075471794
 20
354.81981132075259
 11
609.68632075471794
 21
360.4198113207525
  0
LINE
  8
_0-0_計極細
  6
CONTINUOUS
 62
    2
 10
622.68632075471805
 20
354.81981132075259
 11
622.68632075471805
 21
360.4198113207525
  0
LINE
  8
_0-0_計極細
  6
CONTINUOUS
 62
    2
 10
609.68632075471794
 20
337.8198113207535
 11
609.68632075471794
 21
343.41981132075341
  0
LINE
  8
_0-0_計極細
  6
CONTINUOUS
 62
    2
 10
622.68632075471805
 20
337.8198113207535
 11
622.68632075471805
 21
343.41981132075341
  0
LINE
  8
_0-0_計極細
  6
CONTINUOUS
 62
    2
 10
609.68632075471794
 20
320.81981132075441
 11
609.68632075471794
 21
326.41981132075438
  0
LINE
  8
_0-0_計極細
  6
CONTINUOUS
 62
    2
 10
622.68632075471805
 20
320.81981132075441
 11
622.68632075471805
 21
326.41981132075438
  0
LINE
  8
_0-0_計極細
  6
CONTINUOUS
 62
    2
 10
609.68632075471794
 20
303.81981132075532
 11
609.68632075471794
 21
309.41981132075523
  0
LINE
  8
_0-0_計極細
  6
CONTINUOUS
 62
    2
 10
622.68632075471805
 20
303.81981132075532
 11
622.68632075471805
 21
309.41981132075523
  0
LINE
  8
_0-0_計極細
  6
CONTINUOUS
 62
    2
 10
609.68632075471794
 20
287.11981132075232
 11
609.68632075471794
 21
292.41981132075205
  0
LINE
  8
_0-0_計極細
  6
CONTINUOUS
 62
    2
 10
622.68632075471805
 20
287.11981132075232
 11
622.68632075471805
 21
292.41981132075205
  0
LINE
  8
_0-0_計極細
  6
CONTINUOUS
 62
    2
 10
609.68632075471794
 20
270.41981132075341
 11
609.68632075471794
 21
275.71981132075314
  0
LINE
  8
_0-0_計極細
  6
CONTINUOUS
 62
    2
 10
622.68632075471805
 20
270.41981132075341
 11
622.68632075471805
 21
275.71981132075314
  0
LINE
  8
_0-0_計極細
  6
CONTINUOUS
 62
    2
 10
609.68632075471794
 20
597.81981132075487
 11
609.68632075471794
 21
592.51981132075514
  0
LINE
  8
_0-0_計極細
  6
CONTINUOUS
 62
    2
 10
622.68632075471805
 20
597.81981132075487
 11
622.68632075471805
 21
592.51981132075514
  0
LINE
  8
_0-0_計極細
  6
CONTINUOUS
 62
    2
 10
609.68632075471794
 20
614.51981132075377
 11
609.68632075471794
 21
609.21981132075405
  0
LINE
  8
_0-0_計極細
  6
CONTINUOUS
 62
    2
 10
622.68632075471805
 20
614.51981132075377
 11
622.68632075471805
 21
609.21981132075405
  0
LINE
  8
_0-0_計極細
  6
CONTINUOUS
 62
    2
 10
622.68632075471805
 20
631.71981132075905
 11
622.68632075471805
 21
626.21981132075496
  0
LINE
  8
_0-0_計極細
  6
CONTINUOUS
 62
    2
 10
609.68632075471794
 20
631.71981132075905
 11
609.68632075471794
 21
626.21981132075496
  0
LINE
  8
_0-0_計極細
  6
CONTINUOUS
 62
    2
 10
622.68632075471805
 20
253.51981132075014
 11
622.68632075471805
 21
259.01981132075423
  0
LINE
  8
_0-0_計極細
  6
CONTINUOUS
 62
    2
 10
609.68632075471794
 20
253.51981132075014
 11
609.68632075471794
 21
259.01981132075423
  0
LINE
  8
_0-5_寸法線
  6
CONTINUOUS
 62
    7
 10
256.68632075471794
 20
237.61981132074965
 11
176.68632075471791
 21
237.61981132074982
  0
LINE
  8
_0-5_寸法線
  6
CONTINUOUS
 62
    7
 10
181.68632075471791
 20
237.61981132074982
 11
179.09813030369278
 21
247.27906958364053
  0
LINE
  8
_0-5_寸法線
  6
CONTINUOUS
 62
    7
 10
181.68632075471791
 20
237.61981132074982
 11
184.27451120574318
 21
247.27906958364053
  0
LINE
  8
_0-5_寸法線
  6
CONTINUOUS
 62
    7
 10
256.68632075471794
 20
647.6198113207497
 11
176.68632075471791
 21
647.61981132074982
  0
LINE
  8
_0-5_寸法線
  6
CONTINUOUS
 62
    7
 10
181.68632075471791
 20
647.61981132074982
 11
184.27451120574318
 21
637.9605530578591
  0
LINE
  8
_0-5_寸法線
  6
CONTINUOUS
 62
    7
 10
181.68632075471791
 20
647.61981132074982
 11
179.09813030369278
 21
637.9605530578591
  0
LINE
  8
_0-5_寸法線
  6
CONTINUOUS
 62
    7
 10
181.68632075471791
 20
237.61981132074982
 11
181.68632075471791
 21
647.61981132074982
  0
TEXT
  8
_0-5_寸法線
 62
    7
 10
181.68632075471791
 20
431.36981132074993
 40
15
 41
1
 50
89.999999999999815
  1
410
  0
LINE
  8
_0-5_寸法線
  6
CONTINUOUS
 62
    7
 10
256.68632075471794
 20
237.61981132074965
 11
211.68632075471791
 21
237.61981132074987
  0
LINE
  8
_0-5_寸法線
  6
CONTINUOUS
 62
    7
 10
216.68632075471791
 20
237.61981132074982
 11
219.27451120574312
 21
227.96055305785913
  0
LINE
  8
_0-5_寸法線
  6
CONTINUOUS
 62
    7
 10
216.68632075471791
 20
237.61981132074982
 11
214.0981303036927
 21
227.96055305785916
  0
LINE
  8
_0-5_寸法線
  6
CONTINUOUS
 62
    7
 10
256.68632075471794
 20
240.61981132074965
 11
211.68632075471791
 21
240.61981132074987
  0
CIRCLE
  8
_0-5_寸法線
  6
CONTINUOUS
 62
    1
 10
216.68632075471791
 20
240.61981132074982
 40
1.5000000000000002
  0
LINE
  8
_0-5_寸法線
  6
CONTINUOUS
 62
    7
 10
216.68632075471791
 20
212.61981132074982
 11
216.68632075471791
 21
240.61981132074982
  0
TEXT
  8
_0-5_寸法線
 62
    7
 10
216.68632075471791
 20
215.9786921501474
 40
15
 41
1
 50
90
  1
3
  0
LINE
  8
_0-5_寸法線
  6
CONTINUOUS
 62
    7
 10
256.68632075471794
 20
242.11981132074968
 11
211.68632075471791
 21
242.11981132074985
  0
LINE
  8
_0-5_寸法線
  6
CONTINUOUS
 62
    7
 10
216.68632075471791
 20
240.61981132074982
 11
216.68632075471791
 21
242.11981132074982
  0
TEXT
  8
_0-5_寸法線
 62
    7
 10
234.11358617694793
 20
245.27247163128467
 40
15
 41
1
 50
89.999999999999815
  1
1.5
  0
LINE
  8
_0-5_寸法線
  6
CONTINUOUS
 62
    7
 10
216.68632075471791
 20
242.11981132074982
 11
214.09813030369278
 21
251.77906958364051
  0
LINE
  8
_0-5_寸法線
  6
CONTINUOUS
 62
    7
 10
216.68632075471791
 20
242.11981132074982
 11
219.27451120574318
 21
251.77906958364051
  0
LINE
  8
_0-5_寸法線
  6
CONTINUOUS
 62
    7
 10
256.68632075471794
 20
643.11981132074959
 11
211.68632075471791
 21
643.1198113207497
  0
LINE
  8
_0-5_寸法線
  6
CONTINUOUS
 62
    7
 10
216.68632075471791
 20
643.1198113207497
 11
219.27451120574312
 21
633.46055305785899
  0
LINE
  8
_0-5_寸法線
  6
CONTINUOUS
 62
    7
 10
216.68632075471791
 20
643.1198113207497
 11
214.0981303036927
 21
633.46055305785899
  0
LINE
  8
_0-5_寸法線
  6
CONTINUOUS
 62
    7
 10
216.68632075471791
 20
242.11981132074982
 11
216.68632075471791
 21
643.1198113207497
  0
TEXT
  8
_0-5_寸法線
 62
    7
 10
216.68632075471791
 20
431.3698113207497
 40
15
 41
1
 50
89.999999999999815
  1
401
  0
LINE
  8
_0-5_寸法線
  6
CONTINUOUS
 62
    7
 10
256.68632075471794
 20
644.6198113207497
 11
211.68632075471791
 21
644.6198113207497
  0
CIRCLE
  8
_0-5_寸法線
  6
CONTINUOUS
 62
    1
 10
216.68632075471791
 20
644.6198113207497
 40
1.5000000000000002
  0
LINE
  8
_0-5_寸法線
  6
CONTINUOUS
 62
    7
 10
216.68632075471791
 20
643.1198113207497
 11
216.68632075471791
 21
644.6198113207497
  0
TEXT
  8
_0-5_寸法線
 62
    7
 10
233.10754254487193
 20
619.55895453221831
 40
15
 41
1
 50
89.999999999999815
  1
1.5
  0
LINE
  8
_0-5_寸法線
  6
CONTINUOUS
 62
    7
 10
256.68632075471794
 20
647.6198113207497
 11
211.68632075471791
 21
647.61981132074982
  0
LINE
  8
_0-5_寸法線
  6
CONTINUOUS
 62
    7
 10
216.68632075471791
 20
647.61981132074982
 11
214.09813030369278
 21
657.27906958364042
  0
LINE
  8
_0-5_寸法線
  6
CONTINUOUS
 62
    7
 10
216.68632075471791
 20
647.61981132074982
 11
219.27451120574318
 21
657.27906958364042
  0
LINE
  8
_0-5_寸法線
  6
CONTINUOUS
 62
    7
 10
216.68632075471791
 20
644.6198113207497
 11
216.68632075471791
 21
672.61981132074982
  0
TEXT
  8
_0-5_寸法線
 62
    7
 10
216.68632075471791
 20
661.72456479165692
 40
15
 41
1
 50
90
  1
3
  0
LINE
  8
_0-5_寸法線
  6
CONTINUOUS
 62
    7
 10
266.68632075471839
 20
657.6198113207497
 11
266.68632075471839
 21
807.6198113207497
  0
LINE
  8
_0-5_寸法線
  6
CONTINUOUS
 62
    7
 10
266.68632075471839
 20
802.6198113207497
 11
276.34557901760905
 21
805.20800177177478
  0
LINE
  8
_0-5_寸法線
  6
CONTINUOUS
 62
    7
 10
266.68632075471839
 20
802.6198113207497
 11
276.34557901760905
 21
800.03162086972452
  0
LINE
  8
_0-5_寸法線
  6
CONTINUOUS
 62
    7
 10
676.68632075471794
 20
657.6198113207497
 11
676.68632075471794
 21
807.6198113207497
  0
LINE
  8
_0-5_寸法線
  6
CONTINUOUS
 62
    7
 10
676.68632075471794
 20
802.6198113207497
 11
667.02706249182722
 21
800.03162086972452
  0
LINE
  8
_0-5_寸法線
  6
CONTINUOUS
 62
    7
 10
676.68632075471794
 20
802.6198113207497
 11
667.02706249182722
 21
805.20800177177478
  0
LINE
  8
_0-5_寸法線
  6
CONTINUOUS
 62
    7
 10
266.68632075471839
 20
802.6198113207497
 11
676.68632075471794
 21
802.6198113207497
  0
TEXT
  8
_0-5_寸法線
 62
    7
 10
460.43632075471839
 20
802.6198113207497
 40
15
 41
1
 50
0
  1
410
  0
LINE
  8
_0-5_寸法線
  6
CONTINUOUS
 62
    7
 10
671.68632075471805
 20
657.6198113207497
 11
671.68632075471896
 21
737.6198113207497
  0
LINE
  8
_0-5_寸法線
  6
CONTINUOUS
 62
    7
 10
671.68632075471896
 20
732.6198113207497
 11
662.02706249182813
 21
730.03162086972441
  0
LINE
  8
_0-5_寸法線
  6
CONTINUOUS
 62
    7
 10
671.68632075471896
 20
732.6198113207497
 11
662.02706249182813
 21
735.20800177177478
  0
LINE
  8
_0-5_寸法線
  6
CONTINUOUS
 62
    7
 10
271.68632075471805
 20
657.6198113207497
 11
271.68632075471891
 21
737.6198113207497
  0
LINE
  8
_0-5_寸法線
  6
CONTINUOUS
 62
    7
 10
271.68632075471891
 20
732.6198113207497
 11
281.34557901760957
 21
735.20800177177478
  0
LINE
  8
_0-5_寸法線
  6
CONTINUOUS
 62
    7
 10
271.68632075471891
 20
732.6198113207497
 11
281.34557901760957
 21
730.03162086972441
  0
LINE
  8
_0-5_寸法線
  6
CONTINUOUS
 62
    7
 10
671.68632075471896
 20
732.6198113207497
 11
271.68632075471891
 21
732.6198113207497
  0
TEXT
  8
_0-5_寸法線
 62
    7
 10
460.43632075471839
 20
732.6198113207497
 40
15
 41
1
 50
0
  1
400
  0
LINE
  8
_0-5_寸法線
  6
CONTINUOUS
 62
    7
 10
266.68632075471805
 20
657.6198113207497
 11
266.68632075471839
 21
772.6198113207497
  0
LINE
  8
_0-5_寸法線
  6
CONTINUOUS
 62
    7
 10
266.68632075471839
 20
767.6198113207497
 11
257.02706249182768
 21
765.03162086972441
  0
LINE
  8
_0-5_寸法線
  6
CONTINUOUS
 62
    7
 10
266.68632075471839
 20
767.6198113207497
 11
257.02706249182773
 21
770.20800177177478
  0
LINE
  8
_0-5_寸法線
  6
CONTINUOUS
 62
    7
 10
269.68632075471805
 20
657.6198113207497
 11
269.68632075471845
 21
772.6198113207497
  0
LINE
  8
_0-5_寸法線
  6
CONTINUOUS
 62
    7
 10
241.68632075471839
 20
767.6198113207497
 11
269.68632075471845
 21
767.6198113207497
  0
TEXT
  8
_0-5_寸法線
 62
    7
 10
243.497430516571
 20
767.6198113207497
 40
15
 41
1
 50
0
  1
3
  0
LINE
  8
_0-5_寸法線
  6
CONTINUOUS
 62
    7
 10
269.68632075471845
 20
767.6198113207497
 11
279.34557901760911
 21
770.20800177177478
  0
LINE
  8
_0-5_寸法線
  6
CONTINUOUS
 62
    7
 10
269.68632075471845
 20
767.6198113207497
 11
279.34557901760911
 21
765.03162086972441
  0
LINE
  8
_0-5_寸法線
  6
CONTINUOUS
 62
    7
 10
673.68632075471794
 20
657.61981132074948
 11
673.68632075471794
 21
772.6198113207497
  0
LINE
  8
_0-5_寸法線
  6
CONTINUOUS
 62
    7
 10
673.68632075471794
 20
767.6198113207497
 11
664.02706249182734
 21
765.03162086972441
  0
LINE
  8
_0-5_寸法線
  6
CONTINUOUS
 62
    7
 10
673.68632075471794
 20
767.6198113207497
 11
664.02706249182734
 21
770.20800177177478
  0
LINE
  8
_0-5_寸法線
  6
CONTINUOUS
 62
    7
 10
269.68632075471845
 20
767.6198113207497
 11
673.68632075471794
 21
767.6198113207497
  0
TEXT
  8
_0-5_寸法線
 62
    7
 10
460.43632075471839
 20
767.61981132074948
 40
15
 41
1
 50
0
  1
404
  0
LINE
  8
_0-5_寸法線
  6
CONTINUOUS
 62
    7
 10
676.68632075471794
 20
657.6198113207497
 11
676.68632075471794
 21
772.6198113207497
  0
LINE
  8
_0-5_寸法線
  6
CONTINUOUS
 62
    7
 10
676.68632075471794
 20
767.6198113207497
 11
686.34557901760877
 21
770.20800177177478
  0
LINE
  8
_0-5_寸法線
  6
CONTINUOUS
 62
    7
 10
676.68632075471794
 20
767.6198113207497
 11
686.34557901760877
 21
765.03162086972441
  0
LINE
  8
_0-5_寸法線
  6
CONTINUOUS
 62
    7
 10
673.68632075471794
 20
767.6198113207497
 11
701.68632075471794
 21
767.6198113207497
  0
TEXT
  8
_0-5_寸法線
 62
    7
 10
692.95792579959061
 20
767.6198113207497
 40
15
 41
1
 50
0
  1
3
  0
LINE
  8
_0-7_枠細線
  6
CONTINUOUS
 62
    5
 10
351.95642367154221
 20
715.42252270674635
 11
344.45642367154221
 21
730.42252270674635
  0
LINE
  8
_0-7_枠細線
  6
CONTINUOUS
 62
    5
 10
336.95642367154221
 20
715.42252270674635
 11
351.95642367154221
 21
715.42252270674635
  0
LINE
  8
_0-7_枠細線
  6
CONTINUOUS
 62
    5
 10
344.45642367154221
 20
730.42252270674635
 11
336.95642367154221
 21
715.42252270674635
  0
LINE
  8
_0-7_枠細線
  6
CONTINUOUS
 62
    5
 10
180.34335540952895
 20
732.56785947115691
 11
172.84335540952895
 21
747.56785947115691
  0
LINE
  8
_0-7_枠細線
  6
CONTINUOUS
 62
    5
 10
165.34335540952895
 20
732.56785947115691
 11
180.34335540952895
 21
732.56785947115691
  0
LINE
  8
_0-7_枠細線
  6
CONTINUOUS
 62
    5
 10
172.84335540952895
 20
747.56785947115691
 11
165.34335540952895
 21
732.56785947115691
  0
LINE
  8
_0-5_寸法線
  6
CONTINUOUS
 62
    7
 10
369.186320754718
 20
444.11989607900875
 11
362.38621113653716
 21
451.45191552665926
  0
LINE
  8
_0-5_寸法線
  6
CONTINUOUS
 62
    7
 10
369.186320754718
 20
444.11989607900875
 11
366.96326280067973
 21
453.86966599080608
  0
LINE
  8
_0-5_寸法線
  6
CONTINUOUS
 62
    7
 10
369.186320754718
 20
444.11989607900875
 11
226.33347726338471
 21
714.55510216229845
  0
LINE
  8
_0-5_寸法線
  6
CONTINUOUS
 62
    7
 10
226.33347726338471
 20
714.55510216229845
 11
166.33347726338471
 21
714.55510216229845
  0
TEXT
  8
_0-5_寸法線
 62
    7
 10
166.33347726338471
 20
714.55510216229845
 40
15
 41
0.8000000000000001
 50
0
  1
取　外　具
  0
LINE
  8
_0-5_寸法線
  6
CONTINUOUS
 62
    7
 10
271.68632075471794
 20
657.6198113207497
 11
271.68632075471794
 21
702.6198113207497
  0
LINE
  8
_0-5_寸法線
  6
CONTINUOUS
 62
    7
 10
271.68632075471794
 20
697.6198113207497
 11
281.34557901760854
 21
700.20800177177478
  0
LINE
  8
_0-5_寸法線
  6
CONTINUOUS
 62
    7
 10
271.68632075471794
 20
697.6198113207497
 11
281.34557901760854
 21
695.03162086972441
  0
LINE
  8
_0-5_寸法線
  6
CONTINUOUS
 62
    7
 10
278.68632075471794
 20
657.6198113207497
 11
278.68632075471794
 21
702.6198113207497
  0
LINE
  8
_0-5_寸法線
  6
CONTINUOUS
 62
    7
 10
278.68632075471794
 20
697.6198113207497
 11
269.02706249182728
 21
695.03162086972441
  0
LINE
  8
_0-5_寸法線
  6
CONTINUOUS
 62
    7
 10
278.68632075471794
 20
697.6198113207497
 11
269.02706249182728
 21
700.20800177177478
  0
LINE
  8
_0-5_寸法線
  6
CONTINUOUS
 62
    7
 10
271.68632075471794
 20
697.6198113207497
 11
287.56706957547931
 21
697.6198113207497
  0
TEXT
  8
_0-5_寸法線
 62
    7
 10
280.06706957547931
 20
697.6198113207497
 40
15
 41
1
 50
0
  1
7
  0
LINE
  8
_0-5_寸法線
  6
CONTINUOUS
 62
    7
 10
278.68632075471794
 20
697.6198113207497
 11
288.34557901760866
 21
700.20800177177478
  0
LINE
  8
_0-5_寸法線
  6
CONTINUOUS
 62
    7
 10
278.68632075471794
 20
697.6198113207497
 11
288.3455790176086
 21
695.03162086972441
  0
LINE
  8
_0-5_寸法線
  6
CONTINUOUS
 62
    7
 10
472.686320754718
 20
657.6198113207497
 11
472.686320754718
 21
702.6198113207497
  0
LINE
  8
_0-5_寸法線
  6
CONTINUOUS
 62
    7
 10
472.686320754718
 20
697.6198113207497
 11
463.02706249182728
 21
695.03162086972441
  0
LINE
  8
_0-5_寸法線
  6
CONTINUOUS
 62
    7
 10
472.686320754718
 20
697.6198113207497
 11
463.02706249182734
 21
700.20800177177478
  0
LINE
  8
_0-5_寸法線
  6
CONTINUOUS
 62
    7
 10
278.68632075471794
 20
697.6198113207497
 11
472.686320754718
 21
697.6198113207497
  0
TEXT
  8
_0-5_寸法線
 62
    7
 10
338.18632075471794
 20
697.61981132074948
 40
15
 41
1
 50
0
  1
4@48.5=194
  0
LINE
  8
_0-5_寸法線
  6
CONTINUOUS
 62
    7
 10
472.686320754718
 20
697.6198113207497
 11
482.34557901760866
 21
700.20800177177478
  0
LINE
  8
_0-5_寸法線
  6
CONTINUOUS
 62
    7
 10
472.686320754718
 20
697.6198113207497
 11
482.34557901760866
 21
695.03162086972441
  0
LINE
  8
_0-5_寸法線
  6
CONTINUOUS
 62
    7
 10
519.18632075471794
 20
657.6198113207497
 11
519.18632075471794
 21
702.6198113207497
  0
LINE
  8
_0-5_寸法線
  6
CONTINUOUS
 62
    7
 10
519.18632075471794
 20
697.6198113207497
 11
509.52706249182722
 21
695.03162086972441
  0
LINE
  8
_0-5_寸法線
  6
CONTINUOUS
 62
    7
 10
519.18632075471794
 20
697.6198113207497
 11
509.52706249182734
 21
700.20800177177478
  0
LINE
  8
_0-5_寸法線
  6
CONTINUOUS
 62
    7
 10
472.686320754718
 20
697.6198113207497
 11
519.18632075471794
 21
697.6198113207497
  0
TEXT
  8
_0-5_寸法線
 62
    7
 10
480.93632075471794
 20
697.61981132074948
 40
15
 41
1
 50
0
  1
46.5
  0
LINE
  8
_0-5_寸法線
  6
CONTINUOUS
 62
    7
 10
519.18632075471794
 20
697.6198113207497
 11
528.84557901760877
 21
700.20800177177478
  0
LINE
  8
_0-5_寸法線
  6
CONTINUOUS
 62
    7
 10
519.18632075471794
 20
697.6198113207497
 11
528.84557901760877
 21
695.03162086972441
  0
LINE
  8
_0-5_寸法線
  6
CONTINUOUS
 62
    7
 10
664.68632075471805
 20
657.6198113207497
 11
664.68632075471805
 21
702.6198113207497
  0
LINE
  8
_0-5_寸法線
  6
CONTINUOUS
 62
    7
 10
664.68632075471805
 20
697.6198113207497
 11
655.02706249182722
 21
695.03162086972441
  0
LINE
  8
_0-5_寸法線
  6
CONTINUOUS
 62
    7
 10
664.68632075471805
 20
697.6198113207497
 11
655.02706249182722
 21
700.20800177177478
  0
LINE
  8
_0-5_寸法線
  6
CONTINUOUS
 62
    7
 10
519.18632075471794
 20
697.6198113207497
 11
664.68632075471805
 21
697.6198113207497
  0
TEXT
  8
_0-5_寸法線
 62
    7
 10
546.93632075471794
 20
697.61981132074948
 40
15
 41
1
 50
0
  1
3@48.5=145.5
  0
LINE
  8
_0-5_寸法線
  6
CONTINUOUS
 62
    7
 10
664.68632075471805
 20
697.6198113207497
 11
674.34557901760866
 21
700.20800177177478
  0
LINE
  8
_0-5_寸法線
  6
CONTINUOUS
 62
    7
 10
664.68632075471805
 20
697.6198113207497
 11
674.34557901760866
 21
695.03162086972441
  0
LINE
  8
_0-5_寸法線
  6
CONTINUOUS
 62
    7
 10
671.68632075471794
 20
657.6198113207497
 11
671.68632075471794
 21
702.6198113207497
  0
LINE
  8
_0-5_寸法線
  6
CONTINUOUS
 62
    7
 10
671.68632075471794
 20
697.6198113207497
 11
662.02706249182722
 21
695.03162086972441
  0
LINE
  8
_0-5_寸法線
  6
CONTINUOUS
 62
    7
 10
671.68632075471794
 20
697.6198113207497
 11
662.02706249182722
 21
700.20800177177478
  0
LINE
  8
_0-5_寸法線
  6
CONTINUOUS
 62
    7
 10
656.52749115566519
 20
697.6198113207497
 11
671.68632075471794
 21
697.6198113207497
  0
TEXT
  8
_0-5_寸法線
 62
    7
 10
656.52749115566519
 20
697.6198113207497
 40
15
 41
1
 50
0
  1
7
  0
LINE
  8
_0-1_計細線
  6
CONTINUOUS
 62
    3
 10
336.68632075471749
 20
440.26981132075468
 11
389.68632075471754
 21
440.26981132075468
  0
LINE
  8
_0-1_計細線
  6
CONTINUOUS
 62
    3
 10
389.68632075471754
 20
444.96981132075456
 11
336.68632075471749
 21
444.96981132075456
  0
LINE
  8
_0-1_計細線
  6
CONTINUOUS
 62
    3
 10
336.68632075471749
 20
444.96981132075456
 11
336.68632075471749
 21
440.26981132075468
  0
LINE
  8
_0-1_計細線
  6
CONTINUOUS
 62
    3
 10
379.68632075471754
 20
444.96981132075456
 11
379.68632075471754
 21
440.26981132075468
  0
LINE
  8
_0-1_計細線
  6
CONTINUOUS
 62
    3
 10
387.68632075471749
 20
444.96981132075456
 11
387.68632075471749
 21
440.26981132075468
  0
LINE
  8
_0-1_計細線
  6
CONTINUOUS
 62
    3
 10
389.68632075471754
 20
444.96981132075456
 11
389.68632075471754
 21
440.26981132075468
  0
LINE
  8
_0-1_計細線
  6
CONTINUOUS
 62
    3
 10
385.68632075471754
 20
444.96981132075456
 11
385.68632075471754
 21
440.26981132075468
  0
LINE
  8
_0-1_計細線
  6
CONTINUOUS
 62
    3
 10
383.68632075471749
 20
444.96981132075456
 11
383.68632075471749
 21
440.26981132075468
  0
LINE
  8
_0-1_計細線
  6
CONTINUOUS
 62
    3
 10
381.68632075471749
 20
444.96981132075456
 11
381.68632075471749
 21
440.26981132075468
  0
TEXT
  8
_0-7_枠細線
 62
    5
 10
1180
 20
910
 40
12.5
 41
0.7199999999999999
 50
0
  1
２０２０．０９．０１
  0
LINE
  8
_0-5_寸法線
  6
CONTINUOUS
 62
    7
 10
911.39766904514306
 20
709.94896772675577
 11
911.39766904514306
 21
829.94877127353334
  0
LINE
  8
_0-5_寸法線
  6
CONTINUOUS
 62
    7
 10
911.39766904514306
 20
824.94877127353334
 11
921.05692730803366
 21
827.53696172455852
  0
LINE
  8
_0-5_寸法線
  6
CONTINUOUS
 62
    7
 10
911.39766904514306
 20
824.94877127353334
 11
921.05692730803366
 21
822.36058082250804
  0
LINE
  8
_0-5_寸法線
  6
CONTINUOUS
 62
    7
 10
1321.3976690451429
 20
709.94896772675577
 11
1321.3976690451429
 21
829.94877127353334
  0
LINE
  8
_0-5_寸法線
  6
CONTINUOUS
 62
    7
 10
1321.3976690451429
 20
824.94877127353334
 11
1311.7384107822522
 21
822.36058082250804
  0
LINE
  8
_0-5_寸法線
  6
CONTINUOUS
 62
    7
 10
1321.3976690451429
 20
824.94877127353334
 11
1311.7384107822522
 21
827.53696172455852
  0
LINE
  8
_0-5_寸法線
  6
CONTINUOUS
 62
    7
 10
911.39766904514306
 20
824.94877127353334
 11
1321.3976690451429
 21
824.94877127353334
  0
TEXT
  8
_0-5_寸法線
 62
    7
 10
1105.1476690451432
 20
824.94877127353334
 40
15
 41
1
 50
0
  1
410
  0
LINE
  8
_0-5_寸法線
  6
CONTINUOUS
 62
    7
 10
911.39766904514306
 20
789.94877127353334
 11
901.73841078225223
 21
787.36058082250804
  0
LINE
  8
_0-5_寸法線
  6
CONTINUOUS
 62
    7
 10
911.39766904514306
 20
789.94877127353334
 11
901.73841078225223
 21
792.53696172455852
  0
LINE
  8
_0-5_寸法線
  6
CONTINUOUS
 62
    7
 10
914.39766904514295
 20
709.44896772675588
 11
914.39766904514295
 21
794.94877127353334
  0
CIRCLE
  8
_0-5_寸法線
  6
CONTINUOUS
 62
    1
 10
914.39766904514295
 20
789.94877127353334
 40
1.5000000000000002
  0
LINE
  8
_0-5_寸法線
  6
CONTINUOUS
 62
    7
 10
886.39766904514306
 20
789.94877127353334
 11
914.39766904514295
 21
789.94877127353334
  0
TEXT
  8
_0-5_寸法線
 62
    7
 10
889.16075804477077
 20
789.94877127353334
 40
15
 41
1
 50
0
  1
3
  0
LINE
  8
_0-5_寸法線
  6
CONTINUOUS
 62
    7
 10
915.89766904651719
 20
707.94896672574907
 11
915.89766904651788
 21
794.94877127353334
  0
LINE
  8
_0-5_寸法線
  6
CONTINUOUS
 62
    7
 10
914.39766904514295
 20
789.94877127353334
 11
915.89766904651788
 21
789.94877127353334
  0
TEXT
  8
_0-5_寸法線
 62
    7
 10
914.42622346697726
 20
789.94877127353334
 40
15
 41
1
 50
0
  1
1.5
  0
LINE
  8
_0-5_寸法線
  6
CONTINUOUS
 62
    7
 10
915.89766904651788
 20
789.94877127353334
 11
925.55692730940848
 21
792.53696172455852
  0
LINE
  8
_0-5_寸法線
  6
CONTINUOUS
 62
    7
 10
915.89766904651788
 20
789.94877127353334
 11
925.55692730940848
 21
787.36058082250804
  0
LINE
  8
_0-5_寸法線
  6
CONTINUOUS
 62
    7
 10
1316.8976690465172
 20
707.94896672574907
 11
1316.8976690465172
 21
794.94877127353334
  0
LINE
  8
_0-5_寸法線
  6
CONTINUOUS
 62
    7
 10
1316.8976690465172
 20
789.94877127353334
 11
1307.2384107836265
 21
787.36058082250804
  0
LINE
  8
_0-5_寸法線
  6
CONTINUOUS
 62
    7
 10
1316.8976690465172
 20
789.94877127353334
 11
1307.2384107836265
 21
792.53696172455852
  0
LINE
  8
_0-5_寸法線
  6
CONTINUOUS
 62
    7
 10
915.89766904651788
 20
789.94877127353334
 11
1316.8976690465172
 21
789.94877127353334
  0
TEXT
  8
_0-5_寸法線
 62
    7
 10
1105.1476690465174
 20
789.94877127353334
 40
15
 41
1
 50
0
  1
401
  0
LINE
  8
_0-5_寸法線
  6
CONTINUOUS
 62
    7
 10
1318.3976690451432
 20
709.44896772675588
 11
1318.3976690451432
 21
794.94877127353334
  0
CIRCLE
  8
_0-5_寸法線
  6
CONTINUOUS
 62
    1
 10
1318.3976690451432
 20
789.94877127353334
 40
1.5000000000000002
  0
LINE
  8
_0-5_寸法線
  6
CONTINUOUS
 62
    7
 10
1316.8976690465172
 20
789.94877127353334
 11
1318.3976690451432
 21
789.94877127353334
  0
TEXT
  8
_0-5_寸法線
 62
    7
 10
1293.9755306603709
 20
789.94877127353334
 40
15
 41
1
 50
0
  1
1.5
  0
LINE
  8
_0-5_寸法線
  6
CONTINUOUS
 62
    7
 10
1321.3976690451429
 20
789.94877127353334
 11
1331.0569273080339
 21
792.53696172455852
  0
LINE
  8
_0-5_寸法線
  6
CONTINUOUS
 62
    7
 10
1321.3976690451429
 20
789.94877127353334
 11
1331.0569273080339
 21
787.36058082250793
  0
LINE
  8
_0-5_寸法線
  6
CONTINUOUS
 62
    7
 10
1318.3976690451432
 20
789.94877127353334
 11
1346.3976690451429
 21
789.94877127353334
  0
TEXT
  8
_0-5_寸法線
 62
    7
 10
1335.5441664895479
 20
789.94877127353334
 40
15
 41
1
 50
0
  1
3
  0
LINE
  8
_0-5_寸法線
  6
CONTINUOUS
 62
    7
 10
1028.5976692326622
 20
712.948771273533
 11
1028.5976692326622
 21
759.94877127353323
  0
LINE
  8
_0-5_寸法線
  6
CONTINUOUS
 62
    7
 10
1028.5976692326622
 20
754.94877127353323
 11
1018.9384109697716
 21
752.36058082250793
  0
LINE
  8
_0-5_寸法線
  6
CONTINUOUS
 62
    7
 10
1028.5976692326622
 20
754.94877127353323
 11
1018.9384109697716
 21
757.5369617245583
  0
LINE
  8
_0-5_寸法線
  6
CONTINUOUS
 62
    7
 10
1034.1976692352309
 20
712.948771273533
 11
1034.1976692352309
 21
759.94877127353323
  0
LINE
  8
_0-5_寸法線
  6
CONTINUOUS
 62
    7
 10
989.22371354949519
 20
754.94877127353323
 11
1034.1976692352309
 21
754.94877127353323
  0
TEXT
  8
_0-5_寸法線
 62
    7
 10
989.22371354949519
 20
739.94877127353323
 40
15
 41
1
 50
0
  1
(5.6)
  0
LINE
  8
_0-5_寸法線
  6
CONTINUOUS
 62
    7
 10
1034.1976692352309
 20
754.94877127353323
 11
1043.8569274981216
 21
757.5369617245583
  0
LINE
  8
_0-5_寸法線
  6
CONTINUOUS
 62
    7
 10
1034.1976692352309
 20
754.94877127353323
 11
1043.8569274981216
 21
752.36058082250793
  0
LINE
  8
_0-5_寸法線
  6
CONTINUOUS
 62
    7
 10
1045.5976692330237
 20
712.948771273533
 11
1045.5976692330237
 21
759.94877127353323
  0
LINE
  8
_0-5_寸法線
  6
CONTINUOUS
 62
    7
 10
1045.5976692330237
 20
754.94877127353323
 11
1035.938410970133
 21
752.36058082250793
  0
LINE
  8
_0-5_寸法線
  6
CONTINUOUS
 62
    7
 10
1045.5976692330237
 20
754.94877127353323
 11
1035.938410970133
 21
757.5369617245583
  0
LINE
  8
_0-5_寸法線
  6
CONTINUOUS
 62
    7
 10
1034.1976692352309
 20
754.94877127353323
 11
1045.5976692330237
 21
754.94877127353323
  0
TEXT
  8
_0-5_寸法線
 62
    7
 10
1021.1329728077774
 20
754.94877127353323
 40
15
 41
1
 50
0
  1
11.4
  0
LINE
  8
_0-5_寸法線
  6
CONTINUOUS
 62
    7
 10
1192.8976690467616
 20
714.94877127353323
 11
1192.8976690467616
 21
759.94877127353323
  0
LINE
  8
_0-5_寸法線
  6
CONTINUOUS
 62
    7
 10
1192.8976690467616
 20
754.94877127353323
 11
1202.5569273096523
 21
757.5369617245583
  0
LINE
  8
_0-5_寸法線
  6
CONTINUOUS
 62
    7
 10
1192.8976690467616
 20
754.94877127353323
 11
1202.5569273096523
 21
752.36058082250793
  0
LINE
  8
_0-5_寸法線
  6
CONTINUOUS
 62
    7
 10
1209.8976690471236
 20
714.94877127353323
 11
1209.8976690471236
 21
759.94877127353323
  0
LINE
  8
_0-5_寸法線
  6
CONTINUOUS
 62
    7
 10
1209.8976690471236
 20
754.94877127353323
 11
1200.2384107842329
 21
752.36058082250793
  0
LINE
  8
_0-5_寸法線
  6
CONTINUOUS
 62
    7
 10
1209.8976690471236
 20
754.94877127353323
 11
1200.2384107842329
 21
757.5369617245583
  0
LINE
  8
_0-5_寸法線
  6
CONTINUOUS
 62
    7
 10
1192.8976690467616
 20
754.94877127353323
 11
1209.8976690471236
 21
754.94877127353323
  0
TEXT
  8
_0-5_寸法線
 62
    7
 10
1185.2416917543378
 20
739.94877127353323
 40
15
 41
1
 50
0
  1
(17)
  0
LINE
  8
_0-5_寸法線
  6
CONTINUOUS
 62
    7
 10
1209.8976690471236
 20
754.94877127353323
 11
1219.5569273100143
 21
757.5369617245583
  0
LINE
  8
_0-5_寸法線
  6
CONTINUOUS
 62
    7
 10
1209.8976690471236
 20
754.94877127353323
 11
1219.5569273100143
 21
752.36058082250781
  0
LINE
  8
_0-5_寸法線
  6
CONTINUOUS
 62
    7
 10
1226.8976690474854
 20
714.94877127353323
 11
1226.8976690474854
 21
759.94877127353323
  0
LINE
  8
_0-5_寸法線
  6
CONTINUOUS
 62
    7
 10
1226.8976690474854
 20
754.94877127353323
 11
1217.2384107845946
 21
752.36058082250793
  0
LINE
  8
_0-5_寸法線
  6
CONTINUOUS
 62
    7
 10
1226.8976690474854
 20
754.94877127353323
 11
1217.2384107845946
 21
757.5369617245583
  0
LINE
  8
_0-5_寸法線
  6
CONTINUOUS
 62
    7
 10
1209.8976690471236
 20
754.94877127353323
 11
1226.8976690474854
 21
754.94877127353323
  0
TEXT
  8
_0-5_寸法線
 62
    7
 10
1204.3083584207632
 20
754.94877127353323
 40
15
 41
1
 50
0
  1
(17)
  0
TEXT
  8
_0-5_寸法線
 62
    7
 10
166.63742710745183
 20
699.55510216229845
 40
15
 41
0.8000000000000001
 50
0
  1
(標準付属)
  0
LINE
  8
_0-5_寸法線
  6
CONTINUOUS
 62
    7
 10
1099.8341166426346
 20
690.59493144072678
 11
1080.2610156958012
 21
704.30016426983912
  0
LINE
  8
_0-5_寸法線
  6
CONTINUOUS
 62
    7
 10
1084.3567759172465
 20
701.43228208808398
 11
1081.7685854662211
 21
711.09154035097458
  0
LINE
  8
_0-5_寸法線
  6
CONTINUOUS
 62
    7
 10
1084.3567759172465
 20
701.43228208808398
 11
1086.9449663682715
 21
711.09154035097458
  0
LINE
  8
_0-5_寸法線
  6
CONTINUOUS
 62
    7
 10
1099.8341166426346
 20
710.5949314407269
 11
1080.2610156958012
 21
724.30016426983923
  0
LINE
  8
_0-5_寸法線
  6
CONTINUOUS
 62
    7
 10
1084.3567759172465
 20
721.43228208808398
 11
1086.9449663682715
 21
711.77302382519326
  0
LINE
  8
_0-5_寸法線
  6
CONTINUOUS
 62
    7
 10
1084.3567759172465
 20
721.43228208808398
 11
1081.7685854662211
 21
711.77302382519326
  0
LINE
  8
_0-5_寸法線
  6
CONTINUOUS
 62
    7
 10
1084.3567759172465
 20
701.43228208808398
 11
1084.3567759172465
 21
721.43228208808398
  0
TEXT
  8
_0-5_寸法線
 62
    7
 10
1084.3567759172465
 20
703.93228208808364
 40
15
 41
1
 50
90
  1
20
  0
TEXT
  8
_0-7_枠細線
 62
    5
 10
1180
 20
892.5
 40
12.5
 41
0.7199999999999999
 50
0
  1
２０２０．１０．０１
  0
TEXT
  8
_0-7_枠細線
 62
    5
 10
938.85037037037023
 20
910
 40
12.5
 41
1
 50
0
  1
クロスバーピッチ変更
  0
TEXT
  8
_0-7_枠細線
 62
    5
 10
938.85037037037023
 20
892.5
 40
12.5
 41
1
 50
0
  1
取外具形状変更
  0
TEXT
  8
_0-7_枠細線
 62
    5
 10
339.32157493969038
 20
715.1155204613658
 40
12.5
 41
0.8
 50
0
  1
２
  0
TEXT
  8
_0-7_枠細線
 62
    5
 10
167.70850667767704
 20
732.26085722577625
 40
12.5
 41
0.8
 50
0
  1
３
  0
ENDSEC
  0
EOF
