  0
SECTION
  2
HEADER
  9
$ACADVER
  1
AC1009
  9
$INSBASE
 10
0
 20
0
 30
0
  9
$EXTMIN
 10
0
 20
0
  9
$EXTMAX
 10
1485
 20
1050
  9
$LIMMIN
 10
0
 20
0
  9
$LIMMAX
 10
1485
 20
1050
  9
$LTSCALE
 40
5
  0
ENDSEC
  0
SECTION
  2
TABLES
  0
TABLE
  2
LTYPE
 70
     9
  0
LTYPE
  2
CONTINUOUS
 70
    64
  3
実線
 72
    65
 73
     0
 40
0.0
  0
LTYPE
  2
DASHED1
 70
    64
  3
--  --  --  --  --  --  --  --  
 72
    65
 73
     2
 40
2.5
 49
1.25
 49
-1.25
  0
LTYPE
  2
DASHED2
 70
    64
  3
----    ----    ----    ----    
 72
    65
 73
     2
 40
5.0
 49
2.5
 49
-2.5
  0
LTYPE
  2
DASHED3
 70
    64
  3
------  ------  ------  ------  
 72
    65
 73
     2
 40
5.0
 49
3.75
 49
-1.25
  0
LTYPE
  2
CENTER1
 70
    64
  3
----- - ----- - ----- - ----- - 
 72
    65
 73
     4
 40
10.0
 49
6.25
 49
-1.25
 49
1.25
 49
-1.25
  0
LTYPE
  2
CENTER2
 70
    64
  3
----------  --  ----------  --  
 72
    65
 73
     4
 40
20.0
 49
12.5
 49
-2.5
 49
2.5
 49
-2.5
  0
LTYPE
  2
PHANTOM1
 70
    64
  3
--- - - --- - - --- - - --- - - 
 72
    65
 73
     6
 40
10.0
 49
3.25
 49
-1.25
 49
1.25
 49
-1.25
 49
1.25
 49
-1.25
  0
LTYPE
  2
PHANTOM2
 70
    64
  3
--------  -  -  --------  -  -  
 72
    65
 73
     6
 40
20.0
 49
10.0
 49
-2.5
 49
1.25
 49
-2.5
 49
1.25
 49
-2.5
  0
LTYPE
  2
DOT
 70
    64
  3
-   -   -   -   -   -   -   -   
 72
    65
 73
     2
 40
2.5
 49
0.625
 49
-1.875
  0
LTYPE
  2
DUMMY
 70
    64
  3
ダミー
 72
    65
 73
     0
 40
0.0
  0
LTYPE
  2
RAND1
 70
    64
  3
ランダム線1
 72
    65
 73
     4
 40
10.0
 49
1.0
 49
-2.0
 49
3.0
 49
-4.0
  0
LTYPE
  2
RAND2
 70
    64
  3
ランダム線2
 72
    65
 73
     4
 40
14.0
 49
2.0
 49
-3.0
 49
4.0
 49
-5.0
  0
LTYPE
  2
RAND3
 70
    64
  3
ランダム線3
 72
    65
 73
     4
 40
18.0
 49
3.0
 49
-4.0
 49
5.0
 49
-6.0
  0
LTYPE
  2
RAND4
 70
    64
  3
ランダム線4
 72
    65
 73
     4
 40
22.0
 49
4.0
 49
-5.0
 49
6.0
 49
-7.0
  0
LTYPE
  2
RAND5
 70
    64
  3
ランダム線5
 72
    65
 73
     4
 40
26.0
 49
5.0
 49
-6.0
 49
7.0
 49
-8.0
  0
LTYPE
  2
LONG1
 70
    64
  3
----------  --  ----------  --  
 72
    65
 73
     4
 40
40.0
 49
32.5
 49
-2.5
 49
2.5
 49
-2.5
  0
LTYPE
  2
LONG2
 70
    64
  3
--------  -  -  --------  -  -  
 72
    65
 73
     6
 40
40.0
 49
30.0
 49
-2.5
 49
1.25
 49
-2.5
 49
1.25
 49
-2.5
  0
LTYPE
  2
LONG3
 70
    64
  3
+++++++++++++++..+++++++++++++++
 72
    65
 73
     2
 40
40.0
 49
37.5
 49
-2.5
  0
LTYPE
  2
LONG4
 70
    64
  3
+++++++++++++++..+++++++++++++++
 72
    65
 73
     2
 40
80.0
 49
75.0
 49
-5.0
  0
LTYPE
  2
LONG5
 70
    64
  3
----------  --  ----------  --  
 72
    65
 73
     4
 40
60.0
 49
37.5
 49
-7.5
 49
7.5
 49
-7.5
  0
LTYPE
  2
dashed
 70
   64
  3
-------   -------------   ------
 72
   65
 73
    2
 40
7.5
 49
6
 49
-1.5
  0
LTYPE
  2
dashed_spaced
 70
   64
  3
----        --------        ----
 72
   65
 73
    2
 40
12
 49
6
 49
-6
  0
LTYPE
  2
long_dashed_dotted
 70
   64
  3
------------- --- --------------
 72
   65
 73
    4
 40
15.25
 49
12
 49
-1.5
 49
0.25
 49
-1.5
  0
LTYPE
  2
long_dashed_double-dotted
 70
   64
  3
----------- --- --- ------------
 72
   65
 73
    6
 40
17
 49
12
 49
-1.5
 49
0.25
 49
-1.5
 49
0.25
 49
-1.5
  0
LTYPE
  2
long_dashed_triplicate-dotted
 70
   64
  3
--------- --- --- --- ----------
 72
   65
 73
    8
 40
18.75
 49
12
 49
-1.5
 49
0.25
 49
-1.5
 49
0.25
 49
-1.5
 49
0.25
 49
-1.5
  0
LTYPE
  2
dotted
 70
   64
  3
   -       -       -       -    
 72
   65
 73
    2
 40
1.75
 49
0.25
 49
-1.5
  0
LTYPE
  2
chain
 70
   64
  3
-------------- -- --------------
 72
   65
 73
    4
 40
18.5
 49
12
 49
-1.5
 49
3.5
 49
-1.5
  0
LTYPE
  2
chain_double_dash
 70
   64
  3
------------ -- -- -------------
 72
   65
 73
    6
 40
23.5
 49
12
 49
-1.5
 49
3.5
 49
-1.5
 49
3.5
 49
-1.5
  0
LTYPE
  2
dashed_dotted
 70
   64
  3
-----------     -     ----------
 72
   65
 73
    4
 40
9.25
 49
6
 49
-1.5
 49
0.25
 49
-1.5
  0
LTYPE
  2
double-dashed_dotted
 70
   64
  3
------   -----------   -   -----
 72
   65
 73
    6
 40
16.75
 49
6
 49
-1.5
 49
6
 49
-1.5
 49
0.25
 49
-1.5
  0
LTYPE
  2
dashed_double-dotted
 70
   64
  3
---------    -    -    ---------
 72
   65
 73
    6
 40
11
 49
6
 49
-1.5
 49
0.25
 49
-1.5
 49
0.25
 49
-1.5
  0
LTYPE
  2
double-dashed_double-dotted
 70
   64
  3
-----   ---------   -   -   ----
 72
   65
 73
    8
 40
18.5
 49
6
 49
-1.5
 49
6
 49
-1.5
 49
0.25
 49
-1.5
 49
0.25
 49
-1.5
  0
LTYPE
  2
dashed_triplicate-dotted
 70
   64
  3
-------    -    -    -    ------
 72
   65
 73
    8
 40
12.75
 49
6
 49
-1.5
 49
0.25
 49
-1.5
 49
0.25
 49
-1.5
 49
0.25
 49
-1.5
  0
LTYPE
  2
double-dashed_triplicate-dotted
 70
   64
  3
-----  ---------  -  -  -  -----
 72
   65
 73
   10
 40
20.25
 49
6
 49
-1.5
 49
6
 49
-1.5
 49
0.25
 49
-1.5
 49
0.25
 49
-1.5
 49
0.25
 49
-1.5
  0
LTYPE
  2
undefined
 70
   64
  3
--------------------------------
 72
   65
 73
    0
 40
0
  0
ENDTAB
  0
TABLE
  2
STYLE
  5
3
100
AcDbSymbolTable
 70
     1
  0
STYLE
  5
10
100
AcDbSymbolTableRecord
100
AcDbTextStyleTableRecord
  2
STANDARD
 70
     0
 40
0.0
 41
1.0
 50
0.0
 71
     0
 42
0.2
  3
txt
  4
bigfont.shx
  0
STYLE
  5
26
100
AcDbSymbolTableRecord
100
AcDbTextStyleTableRecord
  2
TATEGAKI
 70
    68
 40
0.0
 41
1.0
 50
0.0
 71
     0
 42
1.0
  3
txt
  4
bigfont.shx
  0
ENDTAB
  0
TABLE
  2
LAYER
 70
    7
  0
LAYER
  2
_0-0_計極細
 70
   64
 62
    7
  6
CONTINUOUS
  0
LAYER
  2
_0-1_計細線
 70
   64
 62
    7
  6
CONTINUOUS
  0
LAYER
  2
_0-5_寸法線
 70
   64
 62
    7
  6
CONTINUOUS
  0
LAYER
  2
_0-7_枠細線
 70
   64
 62
    7
  6
CONTINUOUS
  0
LAYER
  2
_0-8_枠中線
 70
   64
 62
    7
  6
CONTINUOUS
  0
LAYER
  2
_0-9_枠極太
 70
   64
 62
    7
  6
CONTINUOUS
  0
LAYER
  2
ADD_LINE
 70
   64
 62
    7
  6
CONTINUOUS
  0
ENDTAB
  0
ENDSEC
  0
SECTION
  2
BLOCKS
  0
ENDSEC
  0
SECTION
  2
ENTITIES
  0
LINE
  8
_0-7_枠細線
  6
CONTINUOUS
 62
    5
 10
1185
 20
180
 11
1185
 21
100
  0
TEXT
  8
_0-7_枠細線
 62
    5
 10
937.5
 20
97.5
 40
17.5
 41
1
 50
0
  1
備考
  7
TATEGAKI
  0
TEXT
  8
_0-7_枠細線
 62
    5
 10
937.5
 20
137.5
 40
17.5
 41
1
 50
0
  1
品番
  7
TATEGAKI
  0
TEXT
  8
_0-7_枠細線
 62
    5
 10
937.5
 20
177.5
 40
17.5
 41
1
 50
0
  1
品名
  7
TATEGAKI
  0
LINE
  8
_0-7_枠細線
  6
CONTINUOUS
 62
    5
 10
1185
 20
140
 11
925
 21
140
  0
LINE
  8
_0-7_枠細線
  6
CONTINUOUS
 62
    5
 10
950
 20
180
 11
950
 21
60
  0
LINE
  8
_0-8_枠中線
  6
CONTINUOUS
 62
    5
 10
1425
 20
180
 11
925
 21
180
  0
LINE
  8
_0-8_枠中線
  6
CONTINUOUS
 62
    5
 10
925
 20
180
 11
925
 21
60
  0
LINE
  8
_0-7_枠細線
  6
CONTINUOUS
 62
    5
 10
1245
 20
180
 11
1245
 21
60
  0
TEXT
  8
_0-7_枠細線
 62
    5
 10
1192.5
 20
160
 40
15
 41
1
 50
0
  1
縮　尺
  0
LINE
  8
_0-7_枠細線
  6
CONTINUOUS
 62
    5
 10
1185
 20
155
 11
1245
 21
155
  0
LINE
  8
_0-7_枠細線
  6
CONTINUOUS
 62
    5
 10
1245
 20
100
 11
925
 21
100
  0
LINE
  8
_0-7_枠細線
  6
CONTINUOUS
 62
    5
 10
1425
 20
90
 11
1245
 21
90
  0
LINE
  8
_0-7_枠細線
  6
CONTINUOUS
 62
    5
 10
1245
 20
120
 11
1425
 21
120
  0
LINE
  8
_0-7_枠細線
  6
CONTINUOUS
 62
    5
 10
1425
 20
140
 11
1245
 21
140
  0
TEXT
  8
_0-7_枠細線
 62
    5
 10
1255
 20
147.5
 40
25
 41
0.8
 50
0
  1
株式会社シマブン
  0
TEXT
  8
_0-7_枠細線
 62
    5
 10
1252.5
 20
60
 40
15
 41
1
 50
0
  1
年月日
  0
TEXT
  8
_0-7_枠細線
 62
    5
 10
1252.5
 20
75
 40
15
 41
1
 50
0
  1
作　成
  0
TEXT
  8
_0-7_枠細線
 62
    5
 10
1256.25
 20
122.5
 40
15
 41
1
 50
0
  1
承 認
  0
LINE
  8
_0-7_枠細線
  6
CONTINUOUS
 62
    5
 10
1305
 20
140
 11
1305
 21
60
  0
TEXT
  8
_0-7_枠細線
 62
    5
 10
1316.25
 20
122.5
 40
15
 41
1
 50
0
  1
検 図
  0
LINE
  8
_0-7_枠細線
  6
CONTINUOUS
 62
    5
 10
1365
 20
140
 11
1365
 21
90
  0
TEXT
  8
_0-7_枠細線
 62
    5
 10
1375
 20
95
 40
20
 41
1
 50
0
  1
藤戸
  0
TEXT
  8
_0-7_枠細線
 62
    5
 10
1376.25
 20
122.5
 40
15
 41
1
 50
0
  1
設 計
  0
TEXT
  8
_0-7_枠細線
 62
    5
 10
1193.9999999999998
 20
117.5
 40
20
 41
0.7000000000000001
 50
0
  1
１：５
  0
TEXT
  8
_0-7_枠細線
 62
    5
 10
960.5
 20
158.74999999999994
 40
20.000000000000007
 41
0.5999999999999998
 50
0
  1
セーフティグレーチングＨ２５タイプ
  0
TEXT
  8
_0-7_枠細線
 62
    5
 10
1068.5
 20
141.25
 40
20.000000000000007
 41
0.5999999999999998
 50
0
  1
集水マス　補強仕様
  0
TEXT
  8
_0-7_枠細線
 62
    5
 10
960.5
 20
69.999999999999858
 40
20
 41
0.5999999999999998
 50
0
  1
色については表参照のこと
  0
LINE
  8
_0-0_計極細
  6
CENTER1
 62
    2
 10
1209.374843413706
 20
680.09582880040784
 11
997.18244794698182
 21
680.09582880040784
  0
CIRCLE
  8
_0-0_計極細
  6
CONTINUOUS
 62
    2
 10
1225.0931352399439
 20
651.0758380133675
 40
0.3318518518518431
  0
CIRCLE
  8
_0-0_計極細
  6
CONTINUOUS
 62
    2
 10
1236.8531352399441
 20
647.71583801336749
 40
0.3318518518518431
  0
LINE
  8
_0-0_計極細
  6
CONTINUOUS
 62
    2
 10
1223.1748434137062
 20
644.7471656093976
 11
1232.1748434137062
 21
644.7471656093976
  0
LINE
  8
_0-0_計極細
  6
CENTER1
 62
    2
 10
1227.6748434137062
 20
613.3297846297362
 11
1227.6748434137062
 21
647.31259770816325
  0
LINE
  8
_0-0_計極細
  6
CONTINUOUS
 62
    2
 10
1232.1748434137062
 20
644.7471656093976
 11
1232.1748434137062
 21
618.29582880040778
  0
LINE
  8
_0-0_計極細
  6
CONTINUOUS
 62
    2
 10
1223.1748434137062
 20
618.29582880040778
 11
1223.1748434137062
 21
644.7471656093976
  0
LINE
  8
_0-0_計極細
  6
CENTER1
 62
    2
 10
1238.8712350261583
 20
636.37128826742867
 11
1200.4526227366189
 21
650.35451955844974
  0
LINE
  8
_0-0_計極細
  6
CONTINUOUS
 62
    2
 10
1234.358884345997
 20
633.22484949790987
 11
1201.2842774517885
 21
645.26302191745776
  0
LINE
  8
_0-0_計極細
  6
CONTINUOUS
 62
    2
 10
1237.4370656359281
 20
641.68208308498311
 11
1204.3624587417196
 21
653.72025550453088
  0
LINE
  8
_0-0_計極細
  6
CONTINUOUS
 62
    2
 10
1204.3624587417196
 20
653.72025550453077
 11
1201.2842774517885
 21
645.26302191745776
  0
LINE
  8
_0-0_計極細
  6
CONTINUOUS
 62
    2
 10
1234.358884345997
 20
633.22484949790987
 11
1237.4370656359281
 21
641.68208308498311
  0
LINE
  8
_0-0_計極細
  6
CENTER1
 62
    2
 10
978.67484341370584
 20
613.3297846297362
 11
978.67484341370584
 21
647.31259770816325
  0
LINE
  8
_0-0_計極細
  6
CONTINUOUS
 62
    2
 10
974.17484341370584
 20
644.7471656093976
 11
974.17484341370584
 21
618.29582880040778
  0
LINE
  8
_0-0_計極細
  6
CONTINUOUS
 62
    2
 10
983.17484341370573
 20
644.7471656093976
 11
974.17484341370584
 21
644.7471656093976
  0
LINE
  8
_0-0_計極細
  6
CONTINUOUS
 62
    2
 10
983.17484341370573
 20
618.29582880040778
 11
983.17484341370573
 21
644.7471656093976
  0
LINE
  8
_0-0_計極細
  6
CENTER1
 62
    2
 10
967.47845180125364
 20
636.37128826742867
 11
1005.8970640907932
 21
650.35451955844974
  0
LINE
  8
_0-0_計極細
  6
CONTINUOUS
 62
    2
 10
971.99080248141502
 20
633.22484949790987
 11
1005.0654093756235
 21
645.26302191745776
  0
LINE
  8
_0-0_計極細
  6
CONTINUOUS
 62
    2
 10
968.91262119148394
 20
641.68208308498311
 11
1001.9872280856925
 21
653.72025550453088
  0
LINE
  8
_0-0_計極細
  6
CONTINUOUS
 62
    2
 10
1001.9872280856925
 20
653.72025550453077
 11
1005.0654093756235
 21
645.26302191745776
  0
LINE
  8
_0-0_計極細
  6
CONTINUOUS
 62
    2
 10
971.99080248141502
 20
633.22484949790987
 11
968.91262119148394
 21
641.68208308498311
  0
CIRCLE
  8
_0-0_計極細
  6
CONTINUOUS
 62
    2
 10
1183.9349870917945
 20
611.70713430966339
 40
1.0953188836088352
  0
CIRCLE
  8
_0-0_計極細
  6
CONTINUOUS
 62
    2
 10
1182.1660982029057
 20
655.280467642997
 40
1.0953188836088352
  0
CIRCLE
  8
_0-0_計極細
  6
CONTINUOUS
 62
    2
 10
1182.5494315362394
 20
615.70843060596007
 40
0.3318518518518431
  0
CIRCLE
  8
_0-0_計極細
  6
CONTINUOUS
 62
    2
 10
1181.7654809189555
 20
639.26176393929302
 40
0.3318518518518431
  0
LINE
  8
_0-0_計極細
  6
CONTINUOUS
 62
    2
 10
1178.1748434137055
 20
663.29582880040778
 11
1178.1748434137055
 21
602.5508686235404
  0
LINE
  8
_0-0_計極細
  6
CONTINUOUS
 62
    2
 10
1178.6748434137053
 20
663.29582880040778
 11
1178.1748434137055
 21
663.29582880040778
  0
CIRCLE
  8
_0-0_計極細
  6
CONTINUOUS
 62
    2
 10
1220.1716537584616
 20
678.01509727262601
 40
0.3318518518518431
  0
CIRCLE
  8
_0-0_計極細
  6
CONTINUOUS
 62
    2
 10
1232.9716537584613
 20
670.62380097632979
 40
1.0953188836088352
  0
CIRCLE
  8
_0-0_計極細
  6
CONTINUOUS
 62
    2
 10
1232.8916537584614
 20
674.41509727262633
 40
0.3318518518518431
  0
CIRCLE
  8
_0-0_計極細
  6
CONTINUOUS
 62
    2
 10
1242.0916537584612
 20
677.98380097632958
 40
1.0953188836088352
  0
CIRCLE
  8
_0-0_計極細
  6
CONTINUOUS
 62
    2
 10
1235.2916537584615
 20
679.13509727262613
 40
0.3318518518518431
  0
CIRCLE
  8
_0-0_計極細
  6
CONTINUOUS
 62
    2
 10
1251.371653758461
 20
677.45509727262584
 40
0.3318518518518431
  0
CIRCLE
  8
_0-0_計極細
  6
CONTINUOUS
 62
    2
 10
1261.4516537584611
 20
677.45509727262584
 40
0.3318518518518431
  0
LINE
  8
_0-0_計極細
  6
CONTINUOUS
 62
    2
 10
1254.2483266538875
 20
684.29582880040789
 11
1261.2483262778142
 21
691.29582842433456
  0
LINE
  8
_0-0_計極細
  6
CONTINUOUS
 62
    2
 10
1241.5204045925298
 20
684.295828800408
 11
1248.5204043160259
 21
691.29582852390377
  0
LINE
  8
_0-0_計極細
  6
CONTINUOUS
 62
    2
 10
1228.792482531172
 20
684.29582880040789
 11
1235.7924823542371
 21
691.29582862347263
  0
LINE
  8
_0-0_計極細
  6
CONTINUOUS
 62
    2
 10
1216.0645604698141
 20
684.29582880040789
 11
1223.0645603924481
 21
691.29582872304184
  0
LINE
  8
_0-0_計極細
  6
DASHED2
 62
    2
 10
1260.612287684567
 20
684.295828800408
 11
1266.681491700775
 21
690.36503281661612
  0
LINE
  8
_0-0_計極細
  6
DASHED2
 62
    2
 10
1247.8843656232086
 20
684.29582880040789
 11
1254.8843652969199
 21
691.29582847411893
  0
LINE
  8
_0-0_計極細
  6
DASHED2
 62
    2
 10
1235.1564435618509
 20
684.29582880040789
 11
1242.1564433351314
 21
691.29582857368814
  0
LINE
  8
_0-0_計極細
  6
DASHED2
 62
    2
 10
1222.4285215004929
 20
684.29582880040789
 11
1229.4285213733426
 21
691.29582867325735
  0
LINE
  8
_0-0_計極細
  6
DASHED2
 62
    2
 10
1213.174843413706
 20
687.77007277497864
 11
1216.7005994115536
 21
691.29582877282633
  0
LINE
  8
_0-0_計極細
  6
CONTINUOUS
 62
    2
 10
1213.174843413706
 20
686.49728056884271
 11
1210.9733916452712
 21
684.29582880040789
  0
LINE
  8
_0-0_計極細
  6
CONTINUOUS
 62
    2
 10
1213.174843413706
 20
689.04286498111435
 11
1208.4278072329998
 21
684.29582880040789
  0
LINE
  8
_0-0_計極細
  6
CONTINUOUS
 62
    2
 10
1208.1748434137062
 20
686.58844939338587
 11
1212.8822228207282
 21
691.295828800408
  0
LINE
  8
_0-0_計極細
  6
CONTINUOUS
 62
    2
 10
1208.1748434137062
 20
689.13403380565774
 11
1210.3366384084566
 21
691.295828800408
  0
LINE
  8
_0-0_計極細
  6
CONTINUOUS
 62
    2
 10
1213.174843413706
 20
690.3902354747047
 11
1212.2692500880025
 21
691.295828800408
  0
LINE
  8
_0-0_計極細
  6
CONTINUOUS
 62
    2
 10
1213.174843413706
 20
687.84465106243317
 11
1209.7236656757311
 21
691.295828800408
  0
LINE
  8
_0-0_計極細
  6
CONTINUOUS
 62
    2
 10
1213.174843413706
 20
685.29906665016142
 11
1208.1748434137062
 21
690.29906665016154
  0
LINE
  8
_0-0_計極細
  6
CONTINUOUS
 62
    2
 10
1211.6324968511879
 20
684.29582880040789
 11
1208.1748434137062
 21
687.75348223789013
  0
LINE
  8
_0-0_計極細
  6
CONTINUOUS
 62
    2
 10
1209.0869124389164
 20
684.29582880040789
 11
1208.1748434137062
 21
685.20789782561837
  0
LINE
  8
_0-0_計極細
  6
CONTINUOUS
 62
    2
 10
1208.1748434137062
 20
690.79582880040789
 11
1208.1748434137062
 21
691.295828800408
  0
LINE
  8
_0-0_計極細
  6
CONTINUOUS
 62
    2
 10
1208.1748434137062
 20
691.295828800408
 11
1213.174843413706
 21
691.295828800408
  0
LINE
  8
_0-0_計極細
  6
CONTINUOUS
 62
    2
 10
1208.1748434137062
 20
684.29582880040789
 11
1266.681491700775
 21
684.29582880040789
  0
LINE
  8
_0-0_計極細
  6
CONTINUOUS
 62
    2
 10
1213.174843413706
 20
691.295828800408
 11
1266.681491700775
 21
691.295828800408
  0
LINE
  8
_0-0_計極細
  6
CONTINUOUS
 62
    2
 10
1213.174843413706
 20
691.295828800408
 11
1213.174843413706
 21
684.29582880040789
  0
CIRCLE
  8
_0-0_計極細
  6
CONTINUOUS
 62
    2
 10
1186.748690795499
 20
634.18654439877491
 40
0.3318518518518431
  0
CIRCLE
  8
_0-0_計極細
  6
CONTINUOUS
 62
    2
 10
1186.6286907954986
 20
648.55987773210836
 40
0.3318518518518431
  0
CIRCLE
  8
_0-0_計極細
  6
CONTINUOUS
 62
    2
 10
1215.1083204251281
 20
651.81380097633007
 40
1.0953188836088352
  0
CIRCLE
  8
_0-0_計極細
  6
CONTINUOUS
 62
    2
 10
1245.5074360062981
 20
619.78156954114866
 40
1.0953188836088352
  0
CIRCLE
  8
_0-0_計極細
  6
CONTINUOUS
 62
    2
 10
1217.748320425128
 20
625.89380097633045
 40
1.0953188836088352
  0
CIRCLE
  8
_0-0_計極細
  6
CONTINUOUS
 62
    2
 10
1196.6283204251281
 20
639.33380097633039
 40
1.0953188836088352
  0
CIRCLE
  8
_0-0_計極細
  6
CONTINUOUS
 62
    2
 10
1190.4949870917951
 20
621.41380097633044
 40
1.0953188836088352
  0
CIRCLE
  8
_0-0_計極細
  6
CONTINUOUS
 62
    2
 10
1232.7316537584611
 20
648.14380097633011
 40
1.0953188836088352
  0
CIRCLE
  8
_0-0_計極細
  6
CONTINUOUS
 62
    2
 10
1213.5316537584615
 20
667.34380097632982
 40
1.0953188836088352
  0
CIRCLE
  8
_0-0_計極細
  6
CONTINUOUS
 62
    2
 10
1246.7849870917944
 20
663.39713430966322
 40
1.0953188836088352
  0
CIRCLE
  8
_0-0_計極細
  6
CONTINUOUS
 62
    2
 10
1256.1716537584609
 20
672.67713430966319
 40
1.0953188836088352
  0
CIRCLE
  8
_0-0_計極細
  6
CONTINUOUS
 62
    2
 10
1259.051653758461
 20
664.41509727262599
 40
0.3318518518518431
  0
CIRCLE
  8
_0-0_計極細
  6
CONTINUOUS
 62
    2
 10
1241.2916537584608
 20
651.69509727262653
 40
0.3318518518518431
  0
CIRCLE
  8
_0-0_計極細
  6
CONTINUOUS
 62
    2
 10
1242.9716537584609
 20
667.775097272626
 40
0.3318518518518431
  0
CIRCLE
  8
_0-0_計極細
  6
CONTINUOUS
 62
    2
 10
1232.8916537584614
 20
656.01509727262624
 40
0.3318518518518431
  0
CIRCLE
  8
_0-0_計極細
  6
CONTINUOUS
 62
    2
 10
1243.6916537584609
 20
643.29509727262632
 40
0.3318518518518431
  0
CIRCLE
  8
_0-0_計極細
  6
CONTINUOUS
 62
    2
 10
1244.6516537584612
 20
630.81509727262653
 40
0.3318518518518431
  0
CIRCLE
  8
_0-0_計極細
  6
CONTINUOUS
 62
    2
 10
1240.3316537584612
 20
622.41509727262655
 40
0.3318518518518431
  0
CIRCLE
  8
_0-0_計極細
  6
CONTINUOUS
 62
    2
 10
1216.8116537584613
 20
654.33509727262617
 40
0.3318518518518431
  0
CIRCLE
  8
_0-0_計極細
  6
CONTINUOUS
 62
    2
 10
1223.7716537584615
 20
662.73509727262626
 40
0.3318518518518431
  0
CIRCLE
  8
_0-0_計極細
  6
CONTINUOUS
 62
    2
 10
1211.4516537584614
 20
663.161763939293
 40
0.3318518518518431
  0
CIRCLE
  8
_0-0_計極細
  6
CONTINUOUS
 62
    2
 10
1212.9449870917947
 20
675.0017639392928
 40
0.3318518518518431
  0
CIRCLE
  8
_0-0_計極細
  6
CONTINUOUS
 62
    2
 10
1218.6383204251281
 20
630.58843060595996
 40
0.3318518518518431
  0
CIRCLE
  8
_0-0_計極細
  6
CONTINUOUS
 62
    2
 10
1211.9183204251283
 20
627.22843060595994
 40
0.3318518518518431
  0
CIRCLE
  8
_0-0_計極細
  6
CONTINUOUS
 62
    2
 10
1219.1183204251283
 20
621.78843060596
 40
0.3318518518518431
  0
CIRCLE
  8
_0-0_計極細
  6
CONTINUOUS
 62
    2
 10
1202.9583204251282
 20
621.62843060595981
 40
0.3318518518518431
  0
CIRCLE
  8
_0-0_計極細
  6
CONTINUOUS
 62
    2
 10
1194.6383204251283
 20
624.50843060595992
 40
0.3318518518518431
  0
CIRCLE
  8
_0-0_計極細
  6
CONTINUOUS
 62
    2
 10
1187.7583204251284
 20
606.58843060596018
 40
0.3318518518518431
  0
CIRCLE
  8
_0-0_計極細
  6
CONTINUOUS
 62
    2
 10
1193.3583204251281
 20
617.30843060595998
 40
0.3318518518518431
  0
CIRCLE
  8
_0-0_計極細
  6
CONTINUOUS
 62
    2
 10
1204.0583204251286
 20
631.28843060595977
 40
0.3318518518518431
  0
CIRCLE
  8
_0-0_計極細
  6
CONTINUOUS
 62
    2
 10
1193.5383204251284
 20
641.50176393929303
 40
0.3318518518518431
  0
CIRCLE
  8
_0-0_計極細
  6
CONTINUOUS
 62
    2
 10
1195.9916537584613
 20
656.48843060595948
 40
0.3318518518518431
  0
CIRCLE
  8
_0-0_計極細
  6
CONTINUOUS
 62
    2
 10
1190.0183204251284
 20
653.60843060595971
 40
0.3318518518518431
  0
LINE
  8
_0-0_計極細
  6
CONTINUOUS
 62
    2
 10
1253.1488448624621
 20
602.5508686235404
 11
1266.6814917256991
 21
616.08351548677786
  0
LINE
  8
_0-0_計極細
  6
CONTINUOUS
 62
    2
 10
1210.7224379912691
 20
602.5508686235404
 11
1226.4673981681362
 21
618.29582880040778
  0
LINE
  8
_0-0_計極細
  6
CONTINUOUS
 62
    2
 10
1248.1748434137057
 20
640.00327404597772
 11
1266.681491701228
 21
658.50992233349962
  0
LINE
  8
_0-0_計極細
  6
CONTINUOUS
 62
    2
 10
1248.9062041753425
 20
602.5508686235404
 11
1266.6814917232523
 21
620.32615617145007
  0
LINE
  8
_0-0_計極細
  6
CONTINUOUS
 62
    2
 10
1206.4797973041495
 20
602.5508686235404
 11
1222.2247574810171
 21
618.29582880040778
  0
LINE
  8
_0-0_計極細
  6
CONTINUOUS
 62
    2
 10
1248.1748434137057
 20
644.24591473309692
 11
1263.2247573732866
 21
659.29582869267779
  0
LINE
  8
_0-0_計極細
  6
CONTINUOUS
 62
    2
 10
1244.6635634882232
 20
602.5508686235404
 11
1266.6814917208048
 21
624.56879685612205
  0
LINE
  8
_0-0_計極細
  6
CONTINUOUS
 62
    2
 10
1202.2371566170302
 20
602.5508686235404
 11
1217.9821167938981
 21
618.29582880040778
  0
LINE
  8
_0-0_計極細
  6
CONTINUOUS
 62
    2
 10
1248.1748434137057
 20
648.48855542021613
 11
1258.9821167165373
 21
659.29582872304752
  0
LINE
  8
_0-0_計極細
  6
CONTINUOUS
 62
    2
 10
1198.174843413706
 20
618.29582880040778
 11
1198.174843413706
 21
602.5508686235404
  0
LINE
  8
_0-0_計極細
  6
CONTINUOUS
 62
    2
 10
1248.1748434137057
 20
659.295828800408
 11
1266.681491700775
 21
659.295828800408
  0
LINE
  8
_0-0_計極細
  6
CONTINUOUS
 62
    2
 10
1198.174843413706
 20
618.29582880040778
 11
1248.1748434137057
 21
618.29582880040778
  0
LINE
  8
_0-0_計極細
  6
CONTINUOUS
 62
    2
 10
1248.1748434137057
 20
659.295828800408
 11
1248.1748434137057
 21
618.29582880040778
  0
CIRCLE
  8
_0-0_計極細
  6
CONTINUOUS
 62
    2
 10
1016.824987091794
 20
642.23713430966359
 40
1.0953188836088352
  0
CIRCLE
  8
_0-0_計極細
  6
CONTINUOUS
 62
    2
 10
1024.2472093140188
 20
607.28423243050224
 40
0.3318518518518431
  0
CIRCLE
  8
_0-0_計極細
  6
CONTINUOUS
 62
    2
 10
1023.4472093140186
 20
620.87787505040433
 40
0.3318518518518431
  0
CIRCLE
  8
_0-0_計極細
  6
CONTINUOUS
 62
    2
 10
1024.0423829251288
 20
653.70380097633017
 40
1.0953188836088352
  0
LINE
  8
_0-0_計極細
  6
CONTINUOUS
 62
    2
 10
1028.1748434137057
 20
663.29582880040778
 11
1028.1748434137057
 21
602.5508686235404
  0
LINE
  8
_0-0_計極細
  6
CONTINUOUS
 62
    2
 10
1027.674843413706
 20
663.29582880040778
 11
1028.1748434137057
 21
663.29582880040778
  0
CIRCLE
  8
_0-0_計極細
  6
CONTINUOUS
 62
    2
 10
944.48946754628787
 20
672.3171343096634
 40
1.0953188836088352
  0
CIRCLE
  8
_0-0_計極細
  6
CONTINUOUS
 62
    2
 10
979.98498709179671
 20
678.90380097632988
 40
1.0953188836088352
  0
CIRCLE
  8
_0-0_計極細
  6
CONTINUOUS
 62
    2
 10
980.4383204251302
 20
676.31120838373727
 40
0.3318518518518431
  0
CIRCLE
  8
_0-0_計極細
  6
CONTINUOUS
 62
    2
 10
953.23832042513027
 20
679.88454171707053
 40
0.3318518518518431
  0
CIRCLE
  8
_0-0_計極細
  6
CONTINUOUS
 62
    2
 10
944.20720931401911
 20
680.2163935689224
 40
0.3318518518518431
  0
LINE
  8
_0-0_計極細
  6
CONTINUOUS
 62
    2
 10
987.87365160712761
 20
684.29582879673137
 11
993.17484341370596
 21
689.59702060330983
  0
LINE
  8
_0-0_計極細
  6
CONTINUOUS
 62
    2
 10
975.14572953694324
 20
684.29582878790472
 11
982.14572954944629
 21
691.295828800408
  0
LINE
  8
_0-0_計極細
  6
CONTINUOUS
 62
    2
 10
962.41780746675829
 20
684.29582877907797
 11
969.41780748808799
 21
691.295828800408
  0
LINE
  8
_0-0_計極細
  6
CONTINUOUS
 62
    2
 10
949.68988539657357
 20
684.29582877025132
 11
956.68988542673014
 21
691.295828800408
  0
LINE
  8
_0-0_計極細
  6
CONTINUOUS
 62
    2
 10
939.66819512663687
 20
687.00206056167235
 11
943.96196336537241
 21
691.295828800408
  0
LINE
  8
_0-0_計極細
  6
DASHED2
 62
    2
 10
981.5096905720352
 20
684.29582879231805
 11
988.50969058012527
 21
691.295828800408
  0
LINE
  8
_0-0_計極細
  6
DASHED2
 62
    2
 10
968.78176850185071
 20
684.2958287834914
 11
975.78176851876742
 21
691.295828800408
  0
LINE
  8
_0-0_計極細
  6
DASHED2
 62
    2
 10
956.05384643166633
 20
684.29582877466464
 11
963.05384645740901
 21
691.295828800408
  0
LINE
  8
_0-0_計極細
  6
DASHED2
 62
    2
 10
943.32592436148116
 20
684.295828765838
 11
950.32592439605139
 21
691.295828800408
  0
LINE
  8
_0-0_計極細
  6
CONTINUOUS
 62
    2
 10
998.05598925989045
 20
684.29582880040789
 11
998.17484341370573
 21
684.41468295422351
  0
LINE
  8
_0-0_計極細
  6
CONTINUOUS
 62
    2
 10
995.51040484761893
 20
684.29582880040789
 11
998.17484341370573
 21
686.96026736649503
  0
LINE
  8
_0-0_計極細
  6
CONTINUOUS
 62
    2
 10
993.17484341370596
 20
684.50585177876678
 11
998.17484341370573
 21
689.50585177876678
  0
LINE
  8
_0-0_計極細
  6
CONTINUOUS
 62
    2
 10
993.17484341370596
 20
687.05143619103808
 11
997.41923602307565
 21
691.295828800408
  0
LINE
  8
_0-0_計極細
  6
CONTINUOUS
 62
    2
 10
993.17484341370596
 20
689.59702060330983
 11
994.87365161080436
 21
691.295828800408
  0
LINE
  8
_0-0_計極細
  6
CONTINUOUS
 62
    2
 10
998.17484341370573
 20
689.92724867705294
 11
996.80626329035078
 21
691.295828800408
  0
LINE
  8
_0-0_計極細
  6
CONTINUOUS
 62
    2
 10
998.17484341370573
 20
687.38166426478119
 11
994.26067887807926
 21
691.295828800408
  0
LINE
  8
_0-0_計極細
  6
CONTINUOUS
 62
    2
 10
993.17484341370596
 20
689.83607985250978
 11
998.17484341370573
 21
684.83607985250967
  0
LINE
  8
_0-0_計極細
  6
CONTINUOUS
 62
    2
 10
993.17484341370596
 20
687.29049544023815
 11
996.16951005353599
 21
684.29582880040789
  0
LINE
  8
_0-0_計極細
  6
CONTINUOUS
 62
    2
 10
993.17484341370596
 20
684.74491102796662
 11
993.62392564126469
 21
684.29582880040789
  0
LINE
  8
_0-0_計極細
  6
CONTINUOUS
 62
    2
 10
998.17484341370573
 20
690.79582880040789
 11
998.17484341370573
 21
691.295828800408
  0
LINE
  8
_0-0_計極細
  6
CONTINUOUS
 62
    2
 10
998.17484341370573
 20
691.295828800408
 11
993.17484341370596
 21
691.295828800408
  0
LINE
  8
_0-0_計極細
  6
CONTINUOUS
 62
    2
 10
998.17484341370573
 20
684.29582880040789
 11
939.66819512663687
 21
684.29582880040789
  0
LINE
  8
_0-0_計極細
  6
CONTINUOUS
 62
    2
 10
993.17484341370596
 20
691.295828800408
 11
939.66819512663687
 21
691.295828800408
  0
LINE
  8
_0-0_計極細
  6
CONTINUOUS
 62
    2
 10
993.17484341370596
 20
691.295828800408
 11
993.17484341370596
 21
684.29582880040789
  0
CIRCLE
  8
_0-0_計極細
  6
CONTINUOUS
 62
    2
 10
1017.1583204251294
 20
610.10380097633049
 40
1.0953188836088352
  0
CIRCLE
  8
_0-0_計極細
  6
CONTINUOUS
 62
    2
 10
1014.2783204251293
 20
621.30380097633042
 40
1.0953188836088352
  0
CIRCLE
  8
_0-0_計極細
  6
CONTINUOUS
 62
    2
 10
992.69165375846296
 20
623.4638009763305
 40
1.0953188836088352
  0
CIRCLE
  8
_0-0_計極細
  6
CONTINUOUS
 62
    2
 10
960.77165375846323
 20
631.14380097633023
 40
1.0953188836088352
  0
CIRCLE
  8
_0-0_計極細
  6
CONTINUOUS
 62
    2
 10
972.53165375846334
 20
653.94380097633007
 40
1.0953188836088352
  0
CIRCLE
  8
_0-0_計極細
  6
CONTINUOUS
 62
    2
 10
985.97165375846316
 20
647.86380097633003
 40
1.0953188836088352
  0
CIRCLE
  8
_0-0_計極細
  6
CONTINUOUS
 62
    2
 10
956.60771527093539
 20
671.78156954114854
 40
1.0953188836088352
  0
CIRCLE
  8
_0-0_計極細
  6
CONTINUOUS
 62
    2
 10
987.66498709179643
 20
667.6238009763299
 40
1.0953188836088352
  0
CIRCLE
  8
_0-0_計極細
  6
CONTINUOUS
 62
    2
 10
999.83832042512995
 20
654.43343060595964
 40
0.3318518518518431
  0
CIRCLE
  8
_0-0_計極細
  6
CONTINUOUS
 62
    2
 10
1020.984987091796
 20
636.59343060595984
 40
0.3318518518518431
  0
CIRCLE
  8
_0-0_計極細
  6
CONTINUOUS
 62
    2
 10
1020.6649870917964
 20
647.36676393929304
 40
0.3318518518518431
  0
CIRCLE
  8
_0-0_計極細
  6
CONTINUOUS
 62
    2
 10
1011.5983204251296
 20
653.34009727262628
 40
0.3318518518518431
  0
CIRCLE
  8
_0-0_計極細
  6
CONTINUOUS
 62
    2
 10
1002.7449870917962
 20
632.86009727262649
 40
0.3318518518518431
  0
CIRCLE
  8
_0-0_計極細
  6
CONTINUOUS
 62
    2
 10
1012.7449870917965
 20
606.69120838373772
 40
0.3318518518518431
  0
CIRCLE
  8
_0-0_計極細
  6
CONTINUOUS
 62
    2
 10
1016.9049870917967
 20
615.65120838373764
 40
0.3318518518518431
  0
CIRCLE
  8
_0-0_計極細
  6
CONTINUOUS
 62
    2
 10
1008.6916537584632
 20
624.61120838373756
 40
0.3318518518518431
  0
CIRCLE
  8
_0-0_計極細
  6
CONTINUOUS
 62
    2
 10
1000.9049870917964
 20
622.69120838373772
 40
0.3318518518518431
  0
CIRCLE
  8
_0-0_計極細
  6
CONTINUOUS
 62
    2
 10
988.95832042512995
 20
622.0512083837375
 40
0.3318518518518431
  0
CIRCLE
  8
_0-0_計極細
  6
CONTINUOUS
 62
    2
 10
991.09165375846328
 20
627.59787505040424
 40
0.3318518518518431
  0
CIRCLE
  8
_0-0_計極細
  6
CONTINUOUS
 62
    2
 10
987.35832042512982
 20
629.09120838373758
 40
0.3318518518518431
  0
CIRCLE
  8
_0-0_計極細
  6
CONTINUOUS
 62
    2
 10
994.07832042512973
 20
632.39787505040431
 40
0.3318518518518431
  0
CIRCLE
  8
_0-0_計極細
  6
CONTINUOUS
 62
    2
 10
970.49832042513003
 20
621.66454171707096
 40
0.3318518518518431
  0
CIRCLE
  8
_0-0_計極細
  6
CONTINUOUS
 62
    2
 10
966.76498709179657
 20
626.78454171707108
 40
0.3318518518518431
  0
CIRCLE
  8
_0-0_計極細
  6
CONTINUOUS
 62
    2
 10
961.53832042513
 20
622.73120838373768
 40
0.3318518518518431
  0
CIRCLE
  8
_0-0_計極細
  6
CONTINUOUS
 62
    2
 10
964.95165375846341
 20
633.50454171707088
 40
0.3318518518518431
  0
CIRCLE
  8
_0-0_計極細
  6
CONTINUOUS
 62
    2
 10
989.61832042512981
 20
649.77120838373753
 40
0.3318518518518431
  0
CIRCLE
  8
_0-0_計極細
  6
CONTINUOUS
 62
    2
 10
973.19165375846353
 20
645.39787505040408
 40
0.3318518518518431
  0
CIRCLE
  8
_0-0_計極細
  6
CONTINUOUS
 62
    2
 10
982.04498709179632
 20
653.50454171707065
 40
0.3318518518518431
  0
CIRCLE
  8
_0-0_計極細
  6
CONTINUOUS
 62
    2
 10
989.61832042512981
 20
656.91787505040395
 40
0.3318518518518431
  0
CIRCLE
  8
_0-0_計極細
  6
CONTINUOUS
 62
    2
 10
974.57832042512973
 20
659.15787505040385
 40
0.3318518518518431
  0
CIRCLE
  8
_0-0_計極細
  6
CONTINUOUS
 62
    2
 10
962.31165375846354
 20
659.90454171707074
 40
0.3318518518518431
  0
CIRCLE
  8
_0-0_計極細
  6
CONTINUOUS
 62
    2
 10
971.58498709179696
 20
676.20454171707047
 40
0.3318518518518431
  0
CIRCLE
  8
_0-0_計極細
  6
CONTINUOUS
 62
    2
 10
978.62498709179647
 20
667.24454171707055
 40
0.3318518518518431
  0
CIRCLE
  8
_0-0_計極細
  6
CONTINUOUS
 62
    2
 10
993.55832042512952
 20
667.56454171707048
 40
0.3318518518518431
  0
CIRCLE
  8
_0-0_計極細
  6
CONTINUOUS
 62
    2
 10
990.14498709179634
 20
677.27120838373719
 40
0.3318518518518431
  0
CIRCLE
  8
_0-0_計極細
  6
CONTINUOUS
 62
    2
 10
975.21165375846294
 20
671.29787505040372
 40
0.3318518518518431
  0
CIRCLE
  8
_0-0_計極細
  6
CONTINUOUS
 62
    2
 10
958.14498709179702
 20
664.25787505040387
 40
0.3318518518518431
  0
CIRCLE
  8
_0-0_計極細
  6
CONTINUOUS
 62
    2
 10
950.57165375846353
 20
663.08454171707069
 40
0.3318518518518431
  0
CIRCLE
  8
_0-0_計極細
  6
CONTINUOUS
 62
    2
 10
944.20720931401911
 20
662.44454171707071
 40
0.3318518518518431
  0
CIRCLE
  8
_0-0_計極細
  6
CONTINUOUS
 62
    2
 10
950.40572783253765
 20
668.41787505040406
 40
0.3318518518518431
  0
LINE
  8
_0-0_計極細
  6
CONTINUOUS
 62
    2
 10
985.72165867471222
 20
602.55086869340244
 11
1001.4666187817176
 21
618.29582880040778
  0
LINE
  8
_0-0_計極細
  6
CONTINUOUS
 62
    2
 10
943.29525193552729
 20
602.55086882541048
 11
959.04021191052448
 21
618.29582880040778
  0
LINE
  8
_0-0_計極細
  6
CONTINUOUS
 62
    2
 10
939.66819512663687
 20
641.35021888771325
 11
957.61380503933196
 21
659.295828800408
  0
LINE
  8
_0-0_計極細
  6
CONTINUOUS
 62
    2
 10
981.47901800079353
 20
602.5508687066033
 11
997.2239780945979
 21
618.29582880040778
  0
LINE
  8
_0-0_計極細
  6
CONTINUOUS
 62
    2
 10
939.66819512663687
 20
603.16645270363983
 11
958.17484341370573
 21
621.67310099070858
  0
LINE
  8
_0-0_計極細
  6
CONTINUOUS
 62
    2
 10
939.66819512663687
 20
645.59285957483257
 11
953.37116435221242
 21
659.295828800408
  0
LINE
  8
_0-0_計極細
  6
CONTINUOUS
 62
    2
 10
977.23637732687507
 20
602.55086871980416
 11
992.98133740747915
 21
618.29582880040778
  0
LINE
  8
_0-0_計極細
  6
CONTINUOUS
 62
    2
 10
939.66819512663687
 20
607.40909339075881
 11
958.17484341370573
 21
625.91574167782778
  0
LINE
  8
_0-0_計極細
  6
CONTINUOUS
 62
    2
 10
939.66819512663687
 20
649.83550026195178
 11
949.1285236650931
 21
659.295828800408
  0
LINE
  8
_0-0_計極細
  6
CONTINUOUS
 62
    2
 10
1008.174843413706
 20
618.29582880040778
 11
1008.174843413706
 21
602.5508686235404
  0
LINE
  8
_0-0_計極細
  6
CONTINUOUS
 62
    2
 10
958.17484341370573
 20
659.295828800408
 11
939.66819512663687
 21
659.295828800408
  0
LINE
  8
_0-0_計極細
  6
CONTINUOUS
 62
    2
 10
1008.174843413706
 20
618.29582880040778
 11
958.17484341370573
 21
618.29582880040778
  0
LINE
  8
_0-0_計極細
  6
CONTINUOUS
 62
    2
 10
958.17484341370573
 20
659.295828800408
 11
958.17484341370573
 21
618.29582880040778
  0
LINE
  8
_0-0_計極細
  6
CENTER1
 62
    2
 10
1103.1748434137062
 20
656.58433110913802
 11
1103.1748434137062
 21
699.65433110914194
  0
LINE
  8
_0-1_計細線
  6
CONTINUOUS
 62
    3
 10
1105.5248434137065
 20
673.59582880040773
 11
1109.974843414258
 21
673.59582880040773
  0
LINE
  8
_0-1_計細線
  6
CONTINUOUS
 62
    3
 10
1096.3748434140959
 20
673.59582880040773
 11
1100.8248434137058
 21
673.59582880040773
  0
LINE
  8
_0-1_計細線
  6
CONTINUOUS
 62
    3
 10
1105.5248434137065
 20
691.49607006021495
 11
1105.5248434137065
 21
671.49607006021472
  0
LINE
  8
_0-1_計細線
  6
CONTINUOUS
 62
    3
 10
1100.8248434137058
 20
671.49607006021472
 11
1100.8248434137058
 21
691.49607006021495
  0
LINE
  8
_0-1_計細線
  6
CONTINUOUS
 62
    3
 10
1105.5248434137065
 20
671.49607006021472
 11
1100.8248434137058
 21
671.49607006021472
  0
LINE
  8
_0-1_計細線
  6
CONTINUOUS
 62
    3
 10
1100.8248434137058
 20
691.49607006021495
 11
1105.5248434137065
 21
691.49607006021495
  0
LINE
  8
_0-1_計細線
  6
DASHED2
 62
    3
 10
1100.8248434137058
 20
674.49607006021461
 11
1105.5248434137065
 21
674.49607006021461
  0
LINE
  8
_0-1_計細線
  6
DASHED2
 62
    3
 10
1100.8248434137058
 20
688.49607006021506
 11
1105.5248434137065
 21
688.49607006021506
  0
ARC
  8
_0-1_計細線
  6
CONTINUOUS
 62
    3
 10
1089.9748434148096
 20
689.29582880040755
 40
1
 50
89.999999999999915
 51
179.99999999999983
  0
ARC
  8
_0-1_計細線
  6
CONTINUOUS
 62
    3
 10
1090.4427926061371
 20
691.29582880040766
 40
1
 50
269.99999999999977
 51
329.9999999999967
  0
ARC
  8
_0-1_計細線
  6
CONTINUOUS
 62
    3
 10
1092.1748434137062
 20
690.29582880040778
 40
1
 50
89.999999999999915
 51
150.00000000000747
  0
LINE
  8
_0-1_計細線
  6
CONTINUOUS
 62
    3
 10
1089.9748434148096
 20
690.29582880040778
 11
1090.4427926061371
 21
690.29582880040778
  0
ARC
  8
_0-1_計細線
  6
CONTINUOUS
 62
    3
 10
1099.3748434126026
 20
689.29582880040755
 40
1
 50
0
 51
89.999999999999915
  0
ARC
  8
_0-1_計細線
  6
CONTINUOUS
 62
    3
 10
1098.906894221275
 20
691.29582880040766
 40
1
 50
210.00000000000256
 51
269.99999999999977
  0
ARC
  8
_0-1_計細線
  6
CONTINUOUS
 62
    3
 10
1097.1748434137062
 20
690.29582880040778
 40
1
 50
29.999999999992518
 51
89.999999999999901
  0
LINE
  8
_0-1_計細線
  6
CONTINUOUS
 62
    3
 10
1099.3748434126026
 20
690.29582880040778
 11
1098.906894221275
 21
690.29582880040778
  0
ARC
  8
_0-1_計細線
  6
CONTINUOUS
 62
    3
 10
1089.4748434148096
 20
687.8958288004078
 40
0.5
 50
179.99999999999983
 51
269.99999999999977
  0
LINE
  8
_0-1_計細線
  6
CONTINUOUS
 62
    3
 10
1088.9748434148096
 20
689.29582880040755
 11
1088.9748434148096
 21
687.8958288004078
  0
ARC
  8
_0-1_計細線
  6
CONTINUOUS
 62
    3
 10
1099.8748434126028
 20
687.8958288004078
 40
0.5
 50
269.99999999999977
 51
359.99999999999966
  0
LINE
  8
_0-1_計細線
  6
CONTINUOUS
 62
    3
 10
1100.3748434126028
 20
689.29582880040755
 11
1100.3748434126028
 21
687.8958288004078
  0
ARC
  8
_0-1_計細線
  6
CONTINUOUS
 62
    3
 10
1091.9748434148096
 20
686.3958288004078
 40
1
 50
0
 51
89.999999999999915
  0
LINE
  8
_0-1_計細線
  6
CONTINUOUS
 62
    3
 10
1091.9748434148096
 20
687.39582880040768
 11
1089.4748434148096
 21
687.39582880040768
  0
ARC
  8
_0-1_計細線
  6
CONTINUOUS
 62
    3
 10
1097.3748434148097
 20
686.3958288004078
 40
1
 50
89.999999999999915
 51
179.99999999999983
  0
LINE
  8
_0-1_計細線
  6
CONTINUOUS
 62
    3
 10
1097.3748434126023
 20
687.39582880040768
 11
1099.8748434126028
 21
687.39582880040768
  0
LINE
  8
_0-1_計細線
  6
CONTINUOUS
 62
    3
 10
1097.1748434137062
 20
691.29582880040766
 11
1092.1748434137062
 21
691.29582880040766
  0
LINE
  8
_0-1_計細線
  6
CONTINUOUS
 62
    3
 10
1092.9748434137061
 20
666.29582880040789
 11
1092.9748434148096
 21
686.3958288004078
  0
LINE
  8
_0-1_計細線
  6
CONTINUOUS
 62
    3
 10
1096.374843413706
 20
666.29582880040789
 11
1096.3748434148097
 21
686.3958288004078
  0
LINE
  8
_0-1_計細線
  6
CONTINUOUS
 62
    3
 10
1096.374843413706
 20
666.29582880040789
 11
1092.9748434137061
 21
666.29582880040789
  0
LINE
  8
_0-1_計細線
  6
CONTINUOUS
 62
    3
 10
1105.5248434137065
 20
686.59582880040773
 11
1109.974843414258
 21
686.59582880040773
  0
LINE
  8
_0-1_計細線
  6
CONTINUOUS
 62
    3
 10
1096.3748434142581
 20
686.59582880040773
 11
1100.8248434137058
 21
686.59582880040773
  0
LINE
  8
_0-1_計細線
  6
CONTINUOUS
 62
    3
 10
1181.7748434156865
 20
686.59582880040773
 11
1195.7748434156867
 21
686.59582880040773
  0
LINE
  8
_0-1_計細線
  6
CONTINUOUS
 62
    3
 10
1164.3748434155145
 20
686.59582880040773
 11
1178.374843415515
 21
686.59582880040773
  0
LINE
  8
_0-1_計細線
  6
CONTINUOUS
 62
    3
 10
1010.574843412811
 20
686.59582880040773
 11
1024.5748434131724
 21
686.59582880040773
  0
LINE
  8
_0-1_計細線
  6
CONTINUOUS
 62
    3
 10
1027.9748434131723
 20
686.59582880040773
 11
1041.9748434131727
 21
686.59582880040773
  0
LINE
  8
_0-1_計細線
  6
CONTINUOUS
 62
    3
 10
1147.374843415153
 20
686.59582880040773
 11
1160.9748434151534
 21
686.59582880040773
  0
LINE
  8
_0-1_計細線
  6
CONTINUOUS
 62
    3
 10
1045.3748434131724
 20
686.59582880040773
 11
1058.9748434131725
 21
686.59582880040773
  0
LINE
  8
_0-1_計細線
  6
CONTINUOUS
 62
    3
 10
1062.3748434135346
 20
686.59582880040773
 11
1075.9748434135345
 21
686.59582880040773
  0
LINE
  8
_0-1_計細線
  6
CONTINUOUS
 62
    3
 10
1079.3748434138961
 20
686.59582880040773
 11
1092.974843413896
 21
686.59582880040773
  0
LINE
  8
_0-1_計細線
  6
CONTINUOUS
 62
    3
 10
1113.3748434146196
 20
686.59582880040773
 11
1126.9748434146195
 21
686.59582880040773
  0
LINE
  8
_0-1_計細線
  6
CONTINUOUS
 62
    3
 10
1130.3748434149816
 20
686.59582880040773
 11
1143.9748434149817
 21
686.59582880040773
  0
LINE
  8
_0-1_計細線
  6
CONTINUOUS
 62
    3
 10
1181.7748434156865
 20
673.59582880040773
 11
1195.7748434156867
 21
673.59582880040773
  0
LINE
  8
_0-1_計細線
  6
CONTINUOUS
 62
    3
 10
1164.3748434155145
 20
673.59582880040773
 11
1178.374843415515
 21
673.59582880040773
  0
LINE
  8
_0-1_計細線
  6
CONTINUOUS
 62
    3
 10
1010.574843412811
 20
673.59582880040773
 11
1024.5748434131724
 21
673.59582880040773
  0
LINE
  8
_0-1_計細線
  6
CONTINUOUS
 62
    3
 10
1027.9748434131723
 20
673.59582880040773
 11
1041.9748434131727
 21
673.59582880040773
  0
LINE
  8
_0-1_計細線
  6
CONTINUOUS
 62
    3
 10
1147.374843415153
 20
673.59582880040773
 11
1160.9748434151534
 21
673.59582880040773
  0
LINE
  8
_0-1_計細線
  6
CONTINUOUS
 62
    3
 10
1045.3748434131724
 20
673.59582880040773
 11
1058.9748434131725
 21
673.59582880040773
  0
LINE
  8
_0-1_計細線
  6
CONTINUOUS
 62
    3
 10
1062.3748434135346
 20
673.59582880040773
 11
1075.9748434135345
 21
673.59582880040773
  0
LINE
  8
_0-1_計細線
  6
CONTINUOUS
 62
    3
 10
1079.3748434138961
 20
673.59582880040773
 11
1092.974843413896
 21
673.59582880040773
  0
LINE
  8
_0-1_計細線
  6
CONTINUOUS
 62
    3
 10
1113.3748434146196
 20
673.59582880040773
 11
1126.9748434146195
 21
673.59582880040773
  0
LINE
  8
_0-1_計細線
  6
CONTINUOUS
 62
    3
 10
1130.3748434149816
 20
673.59582880040773
 11
1143.9748434149817
 21
673.59582880040773
  0
LINE
  8
_0-1_計細線
  6
CONTINUOUS
 62
    3
 10
1200.6715914157053
 20
680.09582880040784
 11
1203.676107415705
 21
680.09582880040784
  0
LINE
  8
_0-1_計細線
  6
CONTINUOUS
 62
    3
 10
1200.6715914157053
 20
676.59582880040819
 11
1203.6761194157048
 21
676.59582880040819
  0
ARC
  8
_0-1_計細線
  6
CONTINUOUS
 62
    3
 10
1203.6761194157048
 20
676.795828800408
 40
0.2000000000000001
 50
269.99999999999977
 51
359.99999999999966
  0
ARC
  8
_0-1_計細線
  6
CONTINUOUS
 62
    3
 10
1196.1181394157052
 20
678.34568280040844
 40
7.7579560000000001
 50
346.96432999999928
 51
13.038021999994982
  0
ARC
  8
_0-1_計細線
  6
CONTINUOUS
 62
    3
 10
1203.6761194157048
 20
683.39582880040825
 40
0.2000000000000001
 50
0
 51
89.999999999999915
  0
ARC
  8
_0-1_計細線
  6
CONTINUOUS
 62
    3
 10
1196.1181394157052
 20
681.84597280040794
 40
7.7579560000000001
 50
346.96197800000022
 51
13.03566999999998
  0
LINE
  8
_0-1_計細線
  6
CONTINUOUS
 62
    3
 10
1200.6715914157053
 20
683.59582880040807
 11
1203.6761194157048
 21
683.59582880040807
  0
LINE
  8
_0-1_計細線
  6
CONTINUOUS
 62
    3
 10
1203.876119415705
 20
676.795828800408
 11
1203.876119415705
 21
683.39582880040825
  0
ARC
  8
_0-1_計細線
  6
CONTINUOUS
 62
    3
 10
1200.471591415705
 20
673.795828800408
 40
0.2000000000000001
 50
269.99999999999977
 51
359.99999999999966
  0
LINE
  8
_0-1_計細線
  6
CONTINUOUS
 62
    3
 10
1199.1748434157053
 20
673.59582880040784
 11
1200.471591415705
 21
673.59582880040784
  0
ARC
  8
_0-1_計細線
  6
CONTINUOUS
 62
    3
 10
1200.471591415705
 20
686.3958288004078
 40
0.2000000000000001
 50
0
 51
89.999999999999915
  0
LINE
  8
_0-1_計細線
  6
CONTINUOUS
 62
    3
 10
1199.1748434157053
 20
686.59582880040819
 11
1200.471591415705
 21
686.59582880040819
  0
LINE
  8
_0-1_計細線
  6
CONTINUOUS
 62
    3
 10
1200.6715914157053
 20
679.59582880040784
 11
1200.6715914157053
 21
673.795828800408
  0
LINE
  8
_0-1_計細線
  6
CONTINUOUS
 62
    3
 10
1200.6715914157053
 20
686.3958288004078
 11
1200.6715914157053
 21
679.59582880040784
  0
LINE
  8
_0-1_計細線
  6
CONTINUOUS
 62
    3
 10
1005.6780954117067
 20
680.09582880040784
 11
1002.6735794117067
 21
680.09582880040784
  0
LINE
  8
_0-1_計細線
  6
CONTINUOUS
 62
    3
 10
1005.6780954117067
 20
676.59582880040819
 11
1002.6735674117072
 21
676.59582880040819
  0
ARC
  8
_0-1_計細線
  6
CONTINUOUS
 62
    3
 10
1002.6735674117072
 20
676.795828800408
 40
0.2000000000000001
 50
179.99999999999983
 51
269.99999999999977
  0
ARC
  8
_0-1_計細線
  6
CONTINUOUS
 62
    3
 10
1010.2315474117069
 20
678.34568280040844
 40
7.7579560000000001
 50
166.96197800000505
 51
193.03566999999961
  0
ARC
  8
_0-1_計細線
  6
CONTINUOUS
 62
    3
 10
1002.6735674117072
 20
683.39582880040825
 40
0.2000000000000001
 50
89.999999999999915
 51
179.99999999999983
  0
ARC
  8
_0-1_計細線
  6
CONTINUOUS
 62
    3
 10
1010.2315474117069
 20
681.84597280040794
 40
7.7579560000000001
 50
166.96433000000002
 51
193.03802199999868
  0
LINE
  8
_0-1_計細線
  6
CONTINUOUS
 62
    3
 10
1005.6780954117067
 20
683.59582880040807
 11
1002.6735674117072
 21
683.59582880040807
  0
LINE
  8
_0-1_計細線
  6
CONTINUOUS
 62
    3
 10
1002.4735674117069
 20
676.795828800408
 11
1002.4735674117069
 21
683.39582880040825
  0
ARC
  8
_0-1_計細線
  6
CONTINUOUS
 62
    3
 10
1005.878095411707
 20
673.795828800408
 40
0.2000000000000001
 50
179.99999999999983
 51
269.99999999999977
  0
LINE
  8
_0-1_計細線
  6
CONTINUOUS
 62
    3
 10
1007.1748434117071
 20
673.59582880040784
 11
1005.878095411707
 21
673.59582880040784
  0
ARC
  8
_0-1_計細線
  6
CONTINUOUS
 62
    3
 10
1005.878095411707
 20
686.3958288004078
 40
0.2000000000000001
 50
89.999999999999915
 51
179.99999999999983
  0
LINE
  8
_0-1_計細線
  6
CONTINUOUS
 62
    3
 10
1007.1748434117071
 20
686.59582880040819
 11
1005.878095411707
 21
686.59582880040819
  0
LINE
  8
_0-1_計細線
  6
CONTINUOUS
 62
    3
 10
1005.6780954117067
 20
679.59582880040784
 11
1005.6780954117067
 21
673.795828800408
  0
LINE
  8
_0-1_計細線
  6
CONTINUOUS
 62
    3
 10
1005.6780954117067
 20
686.3958288004078
 11
1005.6780954117067
 21
679.59582880040784
  0
ARC
  8
_0-1_計細線
  6
CONTINUOUS
 62
    3
 10
1192.7748434162568
 20
689.29582880040755
 40
1
 50
89.999999999999915
 51
179.99999999999983
  0
ARC
  8
_0-1_計細線
  6
CONTINUOUS
 62
    3
 10
1193.2427926075839
 20
691.29582880040766
 40
1
 50
269.99999999999977
 51
329.9999999999967
  0
ARC
  8
_0-1_計細線
  6
CONTINUOUS
 62
    3
 10
1194.9748434151527
 20
690.29582880040778
 40
1
 50
89.999999999999915
 51
150.00000000000747
  0
LINE
  8
_0-1_計細線
  6
CONTINUOUS
 62
    3
 10
1192.7748434162568
 20
690.29582880040778
 11
1193.2427926075839
 21
690.29582880040778
  0
ARC
  8
_0-1_計細線
  6
CONTINUOUS
 62
    3
 10
1202.1748434140495
 20
689.29582880040755
 40
1
 50
0
 51
89.999999999999915
  0
ARC
  8
_0-1_計細線
  6
CONTINUOUS
 62
    3
 10
1201.706894222722
 20
691.29582880040766
 40
1
 50
209.99999999998954
 51
269.99999999999977
  0
ARC
  8
_0-1_計細線
  6
CONTINUOUS
 62
    3
 10
1199.9748434151531
 20
690.29582880040778
 40
1
 50
30.000000000005546
 51
89.999999999999901
  0
LINE
  8
_0-1_計細線
  6
CONTINUOUS
 62
    3
 10
1202.1748434140495
 20
690.29582880040778
 11
1201.706894222722
 21
690.29582880040778
  0
ARC
  8
_0-1_計細線
  6
CONTINUOUS
 62
    3
 10
1192.2748434162568
 20
687.8958288004078
 40
0.5
 50
179.99999999999983
 51
269.99999999999977
  0
LINE
  8
_0-1_計細線
  6
CONTINUOUS
 62
    3
 10
1191.7748434162563
 20
689.29582880040755
 11
1191.7748434162563
 21
687.8958288004078
  0
ARC
  8
_0-1_計細線
  6
CONTINUOUS
 62
    3
 10
1202.6748434140491
 20
687.8958288004078
 40
0.5
 50
269.99999999999977
 51
359.99999999999966
  0
LINE
  8
_0-1_計細線
  6
CONTINUOUS
 62
    3
 10
1203.1748434140495
 20
689.29582880040755
 11
1203.1748434140495
 21
687.8958288004078
  0
ARC
  8
_0-1_計細線
  6
CONTINUOUS
 62
    3
 10
1194.7748434162563
 20
686.3958288004078
 40
1
 50
0
 51
89.999999999999915
  0
LINE
  8
_0-1_計細線
  6
CONTINUOUS
 62
    3
 10
1194.7748434162563
 20
687.39582880040768
 11
1192.2748434162568
 21
687.39582880040768
  0
ARC
  8
_0-1_計細線
  6
CONTINUOUS
 62
    3
 10
1200.1748434162564
 20
686.3958288004078
 40
1
 50
89.999999999999915
 51
179.99999999999983
  0
LINE
  8
_0-1_計細線
  6
CONTINUOUS
 62
    3
 10
1200.1748434140491
 20
687.39582880040768
 11
1202.6748434140491
 21
687.39582880040768
  0
LINE
  8
_0-1_計細線
  6
CONTINUOUS
 62
    3
 10
1199.9748434151531
 20
691.29582880040766
 11
1194.9748434151527
 21
691.29582880040766
  0
LINE
  8
_0-1_計細線
  6
CONTINUOUS
 62
    3
 10
1195.7748434151531
 20
666.29582880040789
 11
1195.7748434162565
 21
686.3958288004078
  0
LINE
  8
_0-1_計細線
  6
CONTINUOUS
 62
    3
 10
1199.1748434151527
 20
666.29582880040789
 11
1199.1748434162566
 21
686.3958288004078
  0
LINE
  8
_0-1_計細線
  6
CONTINUOUS
 62
    3
 10
1199.1748434151527
 20
666.29582880040789
 11
1195.7748434151531
 21
666.29582880040789
  0
ARC
  8
_0-1_計細線
  6
CONTINUOUS
 62
    3
 10
1175.3748434164283
 20
689.29582880040755
 40
1
 50
89.999999999999915
 51
179.99999999999983
  0
ARC
  8
_0-1_計細線
  6
CONTINUOUS
 62
    3
 10
1175.8427926077557
 20
691.29582880040766
 40
1
 50
269.99999999999977
 51
329.9999999999967
  0
ARC
  8
_0-1_計細線
  6
CONTINUOUS
 62
    3
 10
1177.5748434153247
 20
690.29582880040778
 40
1
 50
89.999999999999915
 51
150.00000000001401
  0
LINE
  8
_0-1_計細線
  6
CONTINUOUS
 62
    3
 10
1175.3748434164283
 20
690.29582880040778
 11
1175.8427926077557
 21
690.29582880040778
  0
ARC
  8
_0-1_計細線
  6
CONTINUOUS
 62
    3
 10
1184.7748434142213
 20
689.29582880040755
 40
1
 50
0
 51
89.999999999999915
  0
ARC
  8
_0-1_計細線
  6
CONTINUOUS
 62
    3
 10
1184.3068942228933
 20
691.29582880040766
 40
1
 50
210.00000000000256
 51
269.99999999999977
  0
ARC
  8
_0-1_計細線
  6
CONTINUOUS
 62
    3
 10
1182.5748434153247
 20
690.29582880040778
 40
1
 50
29.999999999992518
 51
89.999999999973952
  0
LINE
  8
_0-1_計細線
  6
CONTINUOUS
 62
    3
 10
1184.7748434142213
 20
690.29582880040778
 11
1184.3068942228933
 21
690.29582880040778
  0
ARC
  8
_0-1_計細線
  6
CONTINUOUS
 62
    3
 10
1174.8748434164281
 20
687.8958288004078
 40
0.5
 50
179.99999999999983
 51
269.99999999999977
  0
LINE
  8
_0-1_計細線
  6
CONTINUOUS
 62
    3
 10
1174.3748434164281
 20
689.29582880040755
 11
1174.3748434164281
 21
687.8958288004078
  0
ARC
  8
_0-1_計細線
  6
CONTINUOUS
 62
    3
 10
1185.2748434142211
 20
687.8958288004078
 40
0.5
 50
269.99999999999977
 51
359.99999999999966
  0
LINE
  8
_0-1_計細線
  6
CONTINUOUS
 62
    3
 10
1185.7748434142209
 20
689.29582880040755
 11
1185.7748434142209
 21
687.8958288004078
  0
ARC
  8
_0-1_計細線
  6
CONTINUOUS
 62
    3
 10
1177.3748434164281
 20
686.3958288004078
 40
1
 50
0
 51
89.999999999999915
  0
LINE
  8
_0-1_計細線
  6
CONTINUOUS
 62
    3
 10
1177.3748434164281
 20
687.39582880040768
 11
1174.8748434164281
 21
687.39582880040768
  0
ARC
  8
_0-1_計細線
  6
CONTINUOUS
 62
    3
 10
1182.7748434164282
 20
686.3958288004078
 40
1
 50
89.999999999999915
 51
179.99999999999983
  0
LINE
  8
_0-1_計細線
  6
CONTINUOUS
 62
    3
 10
1182.7748434142209
 20
687.39582880040768
 11
1185.2748434142211
 21
687.39582880040768
  0
LINE
  8
_0-1_計細線
  6
CONTINUOUS
 62
    3
 10
1182.5748434153247
 20
691.29582880040766
 11
1177.5748434153247
 21
691.29582880040766
  0
LINE
  8
_0-1_計細線
  6
CONTINUOUS
 62
    3
 10
1178.3748434153244
 20
666.29582880040789
 11
1178.3748434164283
 21
686.3958288004078
  0
LINE
  8
_0-1_計細線
  6
CONTINUOUS
 62
    3
 10
1181.7748434153245
 20
666.29582880040789
 11
1181.7748434164287
 21
686.3958288004078
  0
LINE
  8
_0-1_計細線
  6
CONTINUOUS
 62
    3
 10
1181.7748434153245
 20
666.29582880040789
 11
1178.3748434153244
 21
666.29582880040789
  0
ARC
  8
_0-1_計細線
  6
CONTINUOUS
 62
    3
 10
1004.1748434133626
 20
689.29582880040755
 40
1
 50
89.999999999999915
 51
179.99999999999983
  0
ARC
  8
_0-1_計細線
  6
CONTINUOUS
 62
    3
 10
1004.6427926046899
 20
691.29582880040766
 40
1
 50
269.99999999999977
 51
329.9999999999967
  0
ARC
  8
_0-1_計細線
  6
CONTINUOUS
 62
    3
 10
1006.3748434122589
 20
690.29582880040778
 40
1
 50
89.999999999999915
 51
150.00000000000747
  0
LINE
  8
_0-1_計細線
  6
CONTINUOUS
 62
    3
 10
1004.1748434133626
 20
690.29582880040778
 11
1004.6427926046899
 21
690.29582880040778
  0
ARC
  8
_0-1_計細線
  6
CONTINUOUS
 62
    3
 10
1013.5748434111554
 20
689.29582880040755
 40
1
 50
0
 51
89.999999999999915
  0
ARC
  8
_0-1_計細線
  6
CONTINUOUS
 62
    3
 10
1013.1068942198278
 20
691.29582880040766
 40
1
 50
210.00000000000256
 51
269.99999999999977
  0
ARC
  8
_0-1_計細線
  6
CONTINUOUS
 62
    3
 10
1011.374843412259
 20
690.29582880040778
 40
1
 50
29.999999999992518
 51
89.999999999999901
  0
LINE
  8
_0-1_計細線
  6
CONTINUOUS
 62
    3
 10
1013.5748434111554
 20
690.29582880040778
 11
1013.1068942198278
 21
690.29582880040778
  0
ARC
  8
_0-1_計細線
  6
CONTINUOUS
 62
    3
 10
1003.6748434133625
 20
687.8958288004078
 40
0.5
 50
179.99999999999983
 51
269.99999999999977
  0
LINE
  8
_0-1_計細線
  6
CONTINUOUS
 62
    3
 10
1003.1748434133624
 20
689.29582880040755
 11
1003.1748434133624
 21
687.8958288004078
  0
ARC
  8
_0-1_計細線
  6
CONTINUOUS
 62
    3
 10
1014.0748434111556
 20
687.8958288004078
 40
0.5
 50
269.99999999999977
 51
359.99999999999966
  0
LINE
  8
_0-1_計細線
  6
CONTINUOUS
 62
    3
 10
1014.5748434111555
 20
689.29582880040755
 11
1014.5748434111555
 21
687.8958288004078
  0
ARC
  8
_0-1_計細線
  6
CONTINUOUS
 62
    3
 10
1006.1748434133625
 20
686.3958288004078
 40
1
 50
0
 51
89.999999999999915
  0
LINE
  8
_0-1_計細線
  6
CONTINUOUS
 62
    3
 10
1006.1748434133625
 20
687.39582880040768
 11
1003.6748434133625
 21
687.39582880040768
  0
ARC
  8
_0-1_計細線
  6
CONTINUOUS
 62
    3
 10
1011.5748434133627
 20
686.3958288004078
 40
1
 50
89.999999999999915
 51
179.99999999999983
  0
LINE
  8
_0-1_計細線
  6
CONTINUOUS
 62
    3
 10
1011.5748434111555
 20
687.39582880040768
 11
1014.0748434111556
 21
687.39582880040768
  0
LINE
  8
_0-1_計細線
  6
CONTINUOUS
 62
    3
 10
1011.374843412259
 20
691.29582880040766
 11
1006.3748434122589
 21
691.29582880040766
  0
LINE
  8
_0-1_計細線
  6
CONTINUOUS
 62
    3
 10
1007.174843412259
 20
666.29582880040789
 11
1007.1748434133627
 21
686.3958288004078
  0
LINE
  8
_0-1_計細線
  6
CONTINUOUS
 62
    3
 10
1010.5748434122588
 20
666.29582880040789
 11
1010.5748434133625
 21
686.3958288004078
  0
LINE
  8
_0-1_計細線
  6
CONTINUOUS
 62
    3
 10
1010.5748434122588
 20
666.29582880040789
 11
1007.174843412259
 21
666.29582880040789
  0
ARC
  8
_0-1_計細線
  6
CONTINUOUS
 62
    3
 10
1021.5748434137241
 20
689.29582880040755
 40
1
 50
89.999999999999915
 51
179.99999999999983
  0
ARC
  8
_0-1_計細線
  6
CONTINUOUS
 62
    3
 10
1022.0427926050519
 20
691.29582880040766
 40
1
 50
269.99999999999977
 51
329.99999999999022
  0
ARC
  8
_0-1_計細線
  6
CONTINUOUS
 62
    3
 10
1023.7748434126206
 20
690.29582880040778
 40
1
 50
89.999999999999915
 51
150.00000000001401
  0
LINE
  8
_0-1_計細線
  6
CONTINUOUS
 62
    3
 10
1021.5748434137241
 20
690.29582880040778
 11
1022.0427926050519
 21
690.29582880040778
  0
ARC
  8
_0-1_計細線
  6
CONTINUOUS
 62
    3
 10
1030.974843411517
 20
689.29582880040755
 40
1
 50
0
 51
89.999999999999915
  0
ARC
  8
_0-1_計細線
  6
CONTINUOUS
 62
    3
 10
1030.5068942201897
 20
691.29582880040766
 40
1
 50
209.99999999999605
 51
269.99999999999977
  0
ARC
  8
_0-1_計細線
  6
CONTINUOUS
 62
    3
 10
1028.7748434126204
 20
690.29582880040778
 40
1
 50
29.999999999986002
 51
89.999999999986969
  0
LINE
  8
_0-1_計細線
  6
CONTINUOUS
 62
    3
 10
1030.974843411517
 20
690.29582880040778
 11
1030.5068942201897
 21
690.29582880040778
  0
ARC
  8
_0-1_計細線
  6
CONTINUOUS
 62
    3
 10
1021.0748434137242
 20
687.8958288004078
 40
0.5
 50
179.99999999999983
 51
269.99999999999977
  0
LINE
  8
_0-1_計細線
  6
CONTINUOUS
 62
    3
 10
1020.5748434137242
 20
689.29582880040755
 11
1020.5748434137242
 21
687.8958288004078
  0
ARC
  8
_0-1_計細線
  6
CONTINUOUS
 62
    3
 10
1031.4748434115172
 20
687.8958288004078
 40
0.5
 50
269.99999999999977
 51
359.99999999999966
  0
LINE
  8
_0-1_計細線
  6
CONTINUOUS
 62
    3
 10
1031.9748434115172
 20
689.29582880040755
 11
1031.9748434115172
 21
687.8958288004078
  0
ARC
  8
_0-1_計細線
  6
CONTINUOUS
 62
    3
 10
1023.5748434137242
 20
686.3958288004078
 40
1
 50
0
 51
89.999999999999915
  0
LINE
  8
_0-1_計細線
  6
CONTINUOUS
 62
    3
 10
1023.5748434137242
 20
687.39582880040768
 11
1021.0748434137242
 21
687.39582880040768
  0
ARC
  8
_0-1_計細線
  6
CONTINUOUS
 62
    3
 10
1028.9748434137241
 20
686.3958288004078
 40
1
 50
89.999999999999915
 51
179.99999999999983
  0
LINE
  8
_0-1_計細線
  6
CONTINUOUS
 62
    3
 10
1028.9748434115168
 20
687.39582880040768
 11
1031.4748434115172
 21
687.39582880040768
  0
LINE
  8
_0-1_計細線
  6
CONTINUOUS
 62
    3
 10
1028.7748434126204
 20
691.29582880040766
 11
1023.7748434126206
 21
691.29582880040766
  0
LINE
  8
_0-1_計細線
  6
CONTINUOUS
 62
    3
 10
1024.5748434126208
 20
666.29582880040789
 11
1024.574843413724
 21
686.3958288004078
  0
LINE
  8
_0-1_計細線
  6
CONTINUOUS
 62
    3
 10
1027.9748434126209
 20
666.29582880040789
 11
1027.9748434137243
 21
686.3958288004078
  0
LINE
  8
_0-1_計細線
  6
CONTINUOUS
 62
    3
 10
1027.9748434126209
 20
666.29582880040789
 11
1024.5748434126208
 21
666.29582880040789
  0
ARC
  8
_0-1_計細線
  6
CONTINUOUS
 62
    3
 10
1157.9748434160665
 20
689.29582880040755
 40
1
 50
89.999999999999915
 51
179.99999999999983
  0
ARC
  8
_0-1_計細線
  6
CONTINUOUS
 62
    3
 10
1158.442792607394
 20
691.29582880040766
 40
1
 50
269.99999999999977
 51
329.99999999999022
  0
ARC
  8
_0-1_計細線
  6
CONTINUOUS
 62
    3
 10
1160.1748434149631
 20
690.29582880040778
 40
1
 50
89.999999999999915
 51
150.00000000001401
  0
LINE
  8
_0-1_計細線
  6
CONTINUOUS
 62
    3
 10
1157.9748434160665
 20
690.29582880040778
 11
1158.442792607394
 21
690.29582880040778
  0
ARC
  8
_0-1_計細線
  6
CONTINUOUS
 62
    3
 10
1167.3748434138595
 20
689.29582880040755
 40
1
 50
0
 51
89.999999999999915
  0
ARC
  8
_0-1_計細線
  6
CONTINUOUS
 62
    3
 10
1166.9068942225315
 20
691.29582880040766
 40
1
 50
210.00000000000907
 51
269.99999999999977
  0
ARC
  8
_0-1_計細線
  6
CONTINUOUS
 62
    3
 10
1165.1748434149627
 20
690.29582880040778
 40
1
 50
29.999999999986002
 51
89.999999999999901
  0
LINE
  8
_0-1_計細線
  6
CONTINUOUS
 62
    3
 10
1167.3748434138595
 20
690.29582880040778
 11
1166.9068942225315
 21
690.29582880040778
  0
ARC
  8
_0-1_計細線
  6
CONTINUOUS
 62
    3
 10
1157.4748434160667
 20
687.8958288004078
 40
0.5
 50
179.99999999999983
 51
269.99999999999977
  0
LINE
  8
_0-1_計細線
  6
CONTINUOUS
 62
    3
 10
1156.9748434160665
 20
689.29582880040755
 11
1156.9748434160665
 21
687.8958288004078
  0
ARC
  8
_0-1_計細線
  6
CONTINUOUS
 62
    3
 10
1167.8748434138593
 20
687.8958288004078
 40
0.5
 50
269.99999999999977
 51
359.99999999999966
  0
LINE
  8
_0-1_計細線
  6
CONTINUOUS
 62
    3
 10
1168.374843413859
 20
689.29582880040755
 11
1168.374843413859
 21
687.8958288004078
  0
ARC
  8
_0-1_計細線
  6
CONTINUOUS
 62
    3
 10
1159.9748434160665
 20
686.3958288004078
 40
1
 50
0
 51
89.999999999999915
  0
LINE
  8
_0-1_計細線
  6
CONTINUOUS
 62
    3
 10
1159.9748434160665
 20
687.39582880040768
 11
1157.4748434160667
 21
687.39582880040768
  0
ARC
  8
_0-1_計細線
  6
CONTINUOUS
 62
    3
 10
1165.3748434160664
 20
686.3958288004078
 40
1
 50
89.999999999999915
 51
179.99999999999983
  0
LINE
  8
_0-1_計細線
  6
CONTINUOUS
 62
    3
 10
1165.374843413859
 20
687.39582880040768
 11
1167.8748434138593
 21
687.39582880040768
  0
LINE
  8
_0-1_計細線
  6
CONTINUOUS
 62
    3
 10
1165.1748434149627
 20
691.29582880040766
 11
1160.1748434149631
 21
691.29582880040766
  0
LINE
  8
_0-1_計細線
  6
CONTINUOUS
 62
    3
 10
1160.9748434149633
 20
666.29582880040789
 11
1160.9748434160665
 21
686.3958288004078
  0
LINE
  8
_0-1_計細線
  6
CONTINUOUS
 62
    3
 10
1164.3748434149629
 20
666.29582880040789
 11
1164.3748434160668
 21
686.3958288004078
  0
LINE
  8
_0-1_計細線
  6
CONTINUOUS
 62
    3
 10
1164.3748434149629
 20
666.29582880040789
 11
1160.9748434149633
 21
666.29582880040789
  0
ARC
  8
_0-1_計細線
  6
CONTINUOUS
 62
    3
 10
1038.9748434137241
 20
689.29582880040755
 40
1
 50
89.999999999999915
 51
179.99999999999983
  0
ARC
  8
_0-1_計細線
  6
CONTINUOUS
 62
    3
 10
1039.4427926050516
 20
691.29582880040766
 40
1
 50
269.99999999999977
 51
329.9999999999967
  0
ARC
  8
_0-1_計細線
  6
CONTINUOUS
 62
    3
 10
1041.1748434126207
 20
690.29582880040778
 40
1
 50
89.999999999999915
 51
150.00000000001401
  0
LINE
  8
_0-1_計細線
  6
CONTINUOUS
 62
    3
 10
1038.9748434137241
 20
690.29582880040778
 11
1039.4427926050516
 21
690.29582880040778
  0
ARC
  8
_0-1_計細線
  6
CONTINUOUS
 62
    3
 10
1048.3748434115168
 20
689.29582880040755
 40
1
 50
0
 51
89.999999999999915
  0
ARC
  8
_0-1_計細線
  6
CONTINUOUS
 62
    3
 10
1047.9068942201895
 20
691.29582880040766
 40
1
 50
209.99999999999605
 51
269.99999999999977
  0
ARC
  8
_0-1_計細線
  6
CONTINUOUS
 62
    3
 10
1046.1748434126205
 20
690.29582880040778
 40
1
 50
29.999999999992518
 51
89.999999999986969
  0
LINE
  8
_0-1_計細線
  6
CONTINUOUS
 62
    3
 10
1048.3748434115168
 20
690.29582880040778
 11
1047.9068942201895
 21
690.29582880040778
  0
ARC
  8
_0-1_計細線
  6
CONTINUOUS
 62
    3
 10
1038.4748434137243
 20
687.8958288004078
 40
0.5
 50
179.99999999999983
 51
269.99999999999977
  0
LINE
  8
_0-1_計細線
  6
CONTINUOUS
 62
    3
 10
1037.9748434137241
 20
689.29582880040755
 11
1037.9748434137241
 21
687.8958288004078
  0
ARC
  8
_0-1_計細線
  6
CONTINUOUS
 62
    3
 10
1048.8748434115173
 20
687.8958288004078
 40
0.5
 50
269.99999999999977
 51
359.99999999999966
  0
LINE
  8
_0-1_計細線
  6
CONTINUOUS
 62
    3
 10
1049.3748434115171
 20
689.29582880040755
 11
1049.3748434115171
 21
687.8958288004078
  0
ARC
  8
_0-1_計細線
  6
CONTINUOUS
 62
    3
 10
1040.9748434137241
 20
686.3958288004078
 40
1
 50
0
 51
89.999999999999915
  0
LINE
  8
_0-1_計細線
  6
CONTINUOUS
 62
    3
 10
1040.9748434137241
 20
687.39582880040768
 11
1038.4748434137243
 21
687.39582880040768
  0
ARC
  8
_0-1_計細線
  6
CONTINUOUS
 62
    3
 10
1046.3748434137242
 20
686.3958288004078
 40
1
 50
89.999999999999915
 51
179.99999999999983
  0
LINE
  8
_0-1_計細線
  6
CONTINUOUS
 62
    3
 10
1046.3748434115168
 20
687.39582880040768
 11
1048.8748434115173
 21
687.39582880040768
  0
LINE
  8
_0-1_計細線
  6
CONTINUOUS
 62
    3
 10
1046.1748434126205
 20
691.29582880040766
 11
1041.1748434126207
 21
691.29582880040766
  0
LINE
  8
_0-1_計細線
  6
CONTINUOUS
 62
    3
 10
1041.9748434126207
 20
666.29582880040789
 11
1041.9748434137241
 21
686.3958288004078
  0
LINE
  8
_0-1_計細線
  6
CONTINUOUS
 62
    3
 10
1045.3748434126205
 20
666.29582880040789
 11
1045.3748434137242
 21
686.3958288004078
  0
LINE
  8
_0-1_計細線
  6
CONTINUOUS
 62
    3
 10
1045.3748434126205
 20
666.29582880040789
 11
1041.9748434126207
 21
666.29582880040789
  0
ARC
  8
_0-1_計細線
  6
CONTINUOUS
 62
    3
 10
1055.9748434140861
 20
689.29582880040755
 40
1
 50
89.999999999999915
 51
179.99999999999983
  0
ARC
  8
_0-1_計細線
  6
CONTINUOUS
 62
    3
 10
1056.4427926054136
 20
691.29582880040766
 40
1
 50
269.99999999999977
 51
329.9999999999967
  0
ARC
  8
_0-1_計細線
  6
CONTINUOUS
 62
    3
 10
1058.1748434129825
 20
690.29582880040778
 40
1
 50
89.999999999999915
 51
150.00000000000747
  0
LINE
  8
_0-1_計細線
  6
CONTINUOUS
 62
    3
 10
1055.9748434140861
 20
690.29582880040778
 11
1056.4427926054136
 21
690.29582880040778
  0
ARC
  8
_0-1_計細線
  6
CONTINUOUS
 62
    3
 10
1065.3748434118788
 20
689.29582880040755
 40
1
 50
0
 51
89.999999999999915
  0
ARC
  8
_0-1_計細線
  6
CONTINUOUS
 62
    3
 10
1064.9068942205513
 20
691.29582880040766
 40
1
 50
210.00000000000256
 51
269.99999999999977
  0
ARC
  8
_0-1_計細線
  6
CONTINUOUS
 62
    3
 10
1063.1748434129827
 20
690.29582880040778
 40
1
 50
29.99999999999903
 51
89.999999999999901
  0
LINE
  8
_0-1_計細線
  6
CONTINUOUS
 62
    3
 10
1065.3748434118788
 20
690.29582880040778
 11
1064.9068942205513
 21
690.29582880040778
  0
ARC
  8
_0-1_計細線
  6
CONTINUOUS
 62
    3
 10
1055.4748434140861
 20
687.8958288004078
 40
0.5
 50
179.99999999999983
 51
269.99999999999977
  0
LINE
  8
_0-1_計細線
  6
CONTINUOUS
 62
    3
 10
1054.9748434140861
 20
689.29582880040755
 11
1054.9748434140861
 21
687.8958288004078
  0
ARC
  8
_0-1_計細線
  6
CONTINUOUS
 62
    3
 10
1065.8748434118788
 20
687.8958288004078
 40
0.5
 50
269.99999999999977
 51
359.99999999999966
  0
LINE
  8
_0-1_計細線
  6
CONTINUOUS
 62
    3
 10
1066.3748434118788
 20
689.29582880040755
 11
1066.3748434118788
 21
687.8958288004078
  0
ARC
  8
_0-1_計細線
  6
CONTINUOUS
 62
    3
 10
1057.9748434140861
 20
686.3958288004078
 40
1
 50
0
 51
89.999999999999915
  0
LINE
  8
_0-1_計細線
  6
CONTINUOUS
 62
    3
 10
1057.9748434140861
 20
687.39582880040768
 11
1055.4748434140861
 21
687.39582880040768
  0
ARC
  8
_0-1_計細線
  6
CONTINUOUS
 62
    3
 10
1063.3748434140862
 20
686.3958288004078
 40
1
 50
89.999999999999915
 51
179.99999999999983
  0
LINE
  8
_0-1_計細線
  6
CONTINUOUS
 62
    3
 10
1063.3748434118788
 20
687.39582880040768
 11
1065.8748434118788
 21
687.39582880040768
  0
LINE
  8
_0-1_計細線
  6
CONTINUOUS
 62
    3
 10
1063.1748434129827
 20
691.29582880040766
 11
1058.1748434129825
 21
691.29582880040766
  0
LINE
  8
_0-1_計細線
  6
CONTINUOUS
 62
    3
 10
1058.9748434129824
 20
666.29582880040789
 11
1058.9748434140861
 21
686.3958288004078
  0
LINE
  8
_0-1_計細線
  6
CONTINUOUS
 62
    3
 10
1062.3748434129825
 20
666.29582880040789
 11
1062.3748434140862
 21
686.3958288004078
  0
LINE
  8
_0-1_計細線
  6
CONTINUOUS
 62
    3
 10
1062.3748434129825
 20
666.29582880040789
 11
1058.9748434129824
 21
666.29582880040789
  0
ARC
  8
_0-1_計細線
  6
CONTINUOUS
 62
    3
 10
1072.9748434144478
 20
689.29582880040755
 40
1
 50
89.999999999999915
 51
179.99999999999983
  0
ARC
  8
_0-1_計細線
  6
CONTINUOUS
 62
    3
 10
1073.4427926057756
 20
691.29582880040766
 40
1
 50
269.99999999999977
 51
329.99999999999022
  0
ARC
  8
_0-1_計細線
  6
CONTINUOUS
 62
    3
 10
1075.1748434133444
 20
690.29582880040778
 40
1
 50
89.999999999999915
 51
150.00000000001401
  0
LINE
  8
_0-1_計細線
  6
CONTINUOUS
 62
    3
 10
1072.9748434144478
 20
690.29582880040778
 11
1073.4427926057756
 21
690.29582880040778
  0
ARC
  8
_0-1_計細線
  6
CONTINUOUS
 62
    3
 10
1082.3748434122408
 20
689.29582880040755
 40
1
 50
0
 51
89.999999999999915
  0
ARC
  8
_0-1_計細線
  6
CONTINUOUS
 62
    3
 10
1081.9068942209133
 20
691.29582880040766
 40
1
 50
210.00000000000256
 51
269.99999999999977
  0
ARC
  8
_0-1_計細線
  6
CONTINUOUS
 62
    3
 10
1080.1748434133442
 20
690.29582880040778
 40
1
 50
29.999999999986002
 51
89.999999999986969
  0
LINE
  8
_0-1_計細線
  6
CONTINUOUS
 62
    3
 10
1082.3748434122408
 20
690.29582880040778
 11
1081.9068942209133
 21
690.29582880040778
  0
ARC
  8
_0-1_計細線
  6
CONTINUOUS
 62
    3
 10
1072.4748434144478
 20
687.8958288004078
 40
0.5
 50
179.99999999999983
 51
269.99999999999977
  0
LINE
  8
_0-1_計細線
  6
CONTINUOUS
 62
    3
 10
1071.9748434144481
 20
689.29582880040755
 11
1071.9748434144481
 21
687.8958288004078
  0
ARC
  8
_0-1_計細線
  6
CONTINUOUS
 62
    3
 10
1082.8748434122408
 20
687.8958288004078
 40
0.5
 50
269.99999999999977
 51
359.99999999999966
  0
LINE
  8
_0-1_計細線
  6
CONTINUOUS
 62
    3
 10
1083.3748434122408
 20
689.29582880040755
 11
1083.3748434122408
 21
687.8958288004078
  0
ARC
  8
_0-1_計細線
  6
CONTINUOUS
 62
    3
 10
1074.9748434144481
 20
686.3958288004078
 40
1
 50
0
 51
89.999999999999915
  0
LINE
  8
_0-1_計細線
  6
CONTINUOUS
 62
    3
 10
1074.9748434144481
 20
687.39582880040768
 11
1072.4748434144478
 21
687.39582880040768
  0
ARC
  8
_0-1_計細線
  6
CONTINUOUS
 62
    3
 10
1080.3748434144479
 20
686.3958288004078
 40
1
 50
89.999999999999915
 51
179.99999999999983
  0
LINE
  8
_0-1_計細線
  6
CONTINUOUS
 62
    3
 10
1080.3748434122406
 20
687.39582880040768
 11
1082.8748434122408
 21
687.39582880040768
  0
LINE
  8
_0-1_計細線
  6
CONTINUOUS
 62
    3
 10
1080.1748434133442
 20
691.29582880040766
 11
1075.1748434133444
 21
691.29582880040766
  0
LINE
  8
_0-1_計細線
  6
CONTINUOUS
 62
    3
 10
1075.9748434133444
 20
666.29582880040789
 11
1075.9748434144478
 21
686.3958288004078
  0
LINE
  8
_0-1_計細線
  6
CONTINUOUS
 62
    3
 10
1079.3748434133445
 20
666.29582880040789
 11
1079.3748434144482
 21
686.3958288004078
  0
LINE
  8
_0-1_計細線
  6
CONTINUOUS
 62
    3
 10
1079.3748434133445
 20
666.29582880040789
 11
1075.9748434133444
 21
666.29582880040789
  0
ARC
  8
_0-1_計細線
  6
CONTINUOUS
 62
    3
 10
1106.9748434151713
 20
689.29582880040755
 40
1
 50
89.999999999999915
 51
179.99999999999983
  0
ARC
  8
_0-1_計細線
  6
CONTINUOUS
 62
    3
 10
1107.4427926064991
 20
691.29582880040766
 40
1
 50
269.99999999999977
 51
329.99999999999022
  0
ARC
  8
_0-1_計細線
  6
CONTINUOUS
 62
    3
 10
1109.1748434140682
 20
690.29582880040778
 40
1
 50
89.999999999999915
 51
150.00000000001401
  0
LINE
  8
_0-1_計細線
  6
CONTINUOUS
 62
    3
 10
1106.9748434151713
 20
690.29582880040778
 11
1107.4427926064991
 21
690.29582880040778
  0
ARC
  8
_0-1_計細線
  6
CONTINUOUS
 62
    3
 10
1116.3748434129643
 20
689.29582880040755
 40
1
 50
0
 51
89.999999999999915
  0
ARC
  8
_0-1_計細線
  6
CONTINUOUS
 62
    3
 10
1115.9068942216365
 20
691.29582880040766
 40
1
 50
210.00000000000907
 51
269.99999999999977
  0
ARC
  8
_0-1_計細線
  6
CONTINUOUS
 62
    3
 10
1114.1748434140677
 20
690.29582880040778
 40
1
 50
29.999999999986002
 51
89.999999999986969
  0
LINE
  8
_0-1_計細線
  6
CONTINUOUS
 62
    3
 10
1116.3748434129643
 20
690.29582880040778
 11
1115.9068942216365
 21
690.29582880040778
  0
ARC
  8
_0-1_計細線
  6
CONTINUOUS
 62
    3
 10
1106.4748434151713
 20
687.8958288004078
 40
0.5
 50
179.99999999999983
 51
269.99999999999977
  0
LINE
  8
_0-1_計細線
  6
CONTINUOUS
 62
    3
 10
1105.9748434151716
 20
689.29582880040755
 11
1105.9748434151716
 21
687.8958288004078
  0
ARC
  8
_0-1_計細線
  6
CONTINUOUS
 62
    3
 10
1116.8748434129643
 20
687.8958288004078
 40
0.5
 50
269.99999999999977
 51
359.99999999999966
  0
LINE
  8
_0-1_計細線
  6
CONTINUOUS
 62
    3
 10
1117.3748434129641
 20
689.29582880040755
 11
1117.3748434129641
 21
687.8958288004078
  0
ARC
  8
_0-1_計細線
  6
CONTINUOUS
 62
    3
 10
1108.9748434151716
 20
686.3958288004078
 40
1
 50
0
 51
89.999999999999915
  0
LINE
  8
_0-1_計細線
  6
CONTINUOUS
 62
    3
 10
1108.9748434151716
 20
687.39582880040768
 11
1106.4748434151713
 21
687.39582880040768
  0
ARC
  8
_0-1_計細線
  6
CONTINUOUS
 62
    3
 10
1114.3748434151714
 20
686.3958288004078
 40
1
 50
89.999999999999915
 51
179.99999999999983
  0
LINE
  8
_0-1_計細線
  6
CONTINUOUS
 62
    3
 10
1114.3748434129641
 20
687.39582880040768
 11
1116.8748434129643
 21
687.39582880040768
  0
LINE
  8
_0-1_計細線
  6
CONTINUOUS
 62
    3
 10
1114.1748434140677
 20
691.29582880040766
 11
1109.1748434140682
 21
691.29582880040766
  0
LINE
  8
_0-1_計細線
  6
CONTINUOUS
 62
    3
 10
1109.9748434140677
 20
666.29582880040789
 11
1109.9748434151713
 21
686.3958288004078
  0
LINE
  8
_0-1_計細線
  6
CONTINUOUS
 62
    3
 10
1113.374843414068
 20
666.29582880040789
 11
1113.3748434151717
 21
686.3958288004078
  0
LINE
  8
_0-1_計細線
  6
CONTINUOUS
 62
    3
 10
1113.374843414068
 20
666.29582880040789
 11
1109.9748434140677
 21
666.29582880040789
  0
ARC
  8
_0-1_計細線
  6
CONTINUOUS
 62
    3
 10
1123.9748434155333
 20
689.29582880040755
 40
1
 50
89.999999999999915
 51
179.99999999999983
  0
ARC
  8
_0-1_計細線
  6
CONTINUOUS
 62
    3
 10
1124.4427926068606
 20
691.29582880040766
 40
1
 50
269.99999999999977
 51
329.9999999999967
  0
ARC
  8
_0-1_計細線
  6
CONTINUOUS
 62
    3
 10
1126.1748434144295
 20
690.29582880040778
 40
1
 50
89.999999999999915
 51
150.00000000000747
  0
LINE
  8
_0-1_計細線
  6
CONTINUOUS
 62
    3
 10
1123.9748434155333
 20
690.29582880040778
 11
1124.4427926068606
 21
690.29582880040778
  0
ARC
  8
_0-1_計細線
  6
CONTINUOUS
 62
    3
 10
1133.3748434133258
 20
689.29582880040755
 40
1
 50
0
 51
89.999999999999915
  0
ARC
  8
_0-1_計細線
  6
CONTINUOUS
 62
    3
 10
1132.9068942219985
 20
691.29582880040766
 40
1
 50
209.99999999999605
 51
269.99999999999977
  0
ARC
  8
_0-1_計細線
  6
CONTINUOUS
 62
    3
 10
1131.1748434144297
 20
690.29582880040778
 40
1
 50
29.99999999999903
 51
89.999999999999901
  0
LINE
  8
_0-1_計細線
  6
CONTINUOUS
 62
    3
 10
1133.3748434133258
 20
690.29582880040778
 11
1132.9068942219985
 21
690.29582880040778
  0
ARC
  8
_0-1_計細線
  6
CONTINUOUS
 62
    3
 10
1123.4748434155331
 20
687.8958288004078
 40
0.5
 50
179.99999999999983
 51
269.99999999999977
  0
LINE
  8
_0-1_計細線
  6
CONTINUOUS
 62
    3
 10
1122.9748434155331
 20
689.29582880040755
 11
1122.9748434155331
 21
687.8958288004078
  0
ARC
  8
_0-1_計細線
  6
CONTINUOUS
 62
    3
 10
1133.8748434133258
 20
687.8958288004078
 40
0.5
 50
269.99999999999977
 51
359.99999999999966
  0
LINE
  8
_0-1_計細線
  6
CONTINUOUS
 62
    3
 10
1134.3748434133261
 20
689.29582880040755
 11
1134.3748434133261
 21
687.8958288004078
  0
ARC
  8
_0-1_計細線
  6
CONTINUOUS
 62
    3
 10
1125.9748434155331
 20
686.3958288004078
 40
1
 50
0
 51
89.999999999999915
  0
LINE
  8
_0-1_計細線
  6
CONTINUOUS
 62
    3
 10
1125.9748434155331
 20
687.39582880040768
 11
1123.4748434155331
 21
687.39582880040768
  0
ARC
  8
_0-1_計細線
  6
CONTINUOUS
 62
    3
 10
1131.3748434155334
 20
686.3958288004078
 40
1
 50
89.999999999999915
 51
179.99999999999983
  0
LINE
  8
_0-1_計細線
  6
CONTINUOUS
 62
    3
 10
1131.3748434133261
 20
687.39582880040768
 11
1133.8748434133258
 21
687.39582880040768
  0
LINE
  8
_0-1_計細線
  6
CONTINUOUS
 62
    3
 10
1131.1748434144297
 20
691.29582880040766
 11
1126.1748434144295
 21
691.29582880040766
  0
LINE
  8
_0-1_計細線
  6
CONTINUOUS
 62
    3
 10
1126.9748434144296
 20
666.29582880040789
 11
1126.9748434155333
 21
686.3958288004078
  0
LINE
  8
_0-1_計細線
  6
CONTINUOUS
 62
    3
 10
1130.3748434144295
 20
666.29582880040789
 11
1130.3748434155332
 21
686.3958288004078
  0
LINE
  8
_0-1_計細線
  6
CONTINUOUS
 62
    3
 10
1130.3748434144295
 20
666.29582880040789
 11
1126.9748434144296
 21
666.29582880040789
  0
ARC
  8
_0-1_計細線
  6
CONTINUOUS
 62
    3
 10
1140.9748434158948
 20
689.29582880040755
 40
1
 50
89.999999999999915
 51
179.99999999999983
  0
ARC
  8
_0-1_計細線
  6
CONTINUOUS
 62
    3
 10
1141.4427926072226
 20
691.29582880040766
 40
1
 50
269.99999999999977
 51
329.99999999999022
  0
ARC
  8
_0-1_計細線
  6
CONTINUOUS
 62
    3
 10
1143.1748434147914
 20
690.29582880040778
 40
1
 50
89.999999999999915
 51
150.00000000001401
  0
LINE
  8
_0-1_計細線
  6
CONTINUOUS
 62
    3
 10
1140.9748434158948
 20
690.29582880040778
 11
1141.4427926072226
 21
690.29582880040778
  0
ARC
  8
_0-1_計細線
  6
CONTINUOUS
 62
    3
 10
1150.3748434136878
 20
689.29582880040755
 40
1
 50
0
 51
89.999999999999915
  0
ARC
  8
_0-1_計細線
  6
CONTINUOUS
 62
    3
 10
1149.9068942223603
 20
691.29582880040766
 40
1
 50
210.00000000000907
 51
269.99999999999977
  0
ARC
  8
_0-1_計細線
  6
CONTINUOUS
 62
    3
 10
1148.1748434147914
 20
690.29582880040778
 40
1
 50
29.999999999986002
 51
89.999999999999901
  0
LINE
  8
_0-1_計細線
  6
CONTINUOUS
 62
    3
 10
1150.3748434136878
 20
690.29582880040778
 11
1149.9068942223603
 21
690.29582880040778
  0
ARC
  8
_0-1_計細線
  6
CONTINUOUS
 62
    3
 10
1140.4748434158951
 20
687.8958288004078
 40
0.5
 50
179.99999999999983
 51
269.99999999999977
  0
LINE
  8
_0-1_計細線
  6
CONTINUOUS
 62
    3
 10
1139.9748434158951
 20
689.29582880040755
 11
1139.9748434158951
 21
687.8958288004078
  0
ARC
  8
_0-1_計細線
  6
CONTINUOUS
 62
    3
 10
1150.8748434136876
 20
687.8958288004078
 40
0.5
 50
269.99999999999977
 51
359.99999999999966
  0
LINE
  8
_0-1_計細線
  6
CONTINUOUS
 62
    3
 10
1151.3748434136878
 20
689.29582880040755
 11
1151.3748434136878
 21
687.8958288004078
  0
ARC
  8
_0-1_計細線
  6
CONTINUOUS
 62
    3
 10
1142.9748434158951
 20
686.3958288004078
 40
1
 50
0
 51
89.999999999999915
  0
LINE
  8
_0-1_計細線
  6
CONTINUOUS
 62
    3
 10
1142.9748434158951
 20
687.39582880040768
 11
1140.4748434158951
 21
687.39582880040768
  0
ARC
  8
_0-1_計細線
  6
CONTINUOUS
 62
    3
 10
1148.3748434158947
 20
686.3958288004078
 40
1
 50
89.999999999999915
 51
179.99999999999983
  0
LINE
  8
_0-1_計細線
  6
CONTINUOUS
 62
    3
 10
1148.3748434136874
 20
687.39582880040768
 11
1150.8748434136876
 21
687.39582880040768
  0
LINE
  8
_0-1_計細線
  6
CONTINUOUS
 62
    3
 10
1148.1748434147914
 20
691.29582880040766
 11
1143.1748434147914
 21
691.29582880040766
  0
LINE
  8
_0-1_計細線
  6
CONTINUOUS
 62
    3
 10
1143.9748434147914
 20
666.29582880040789
 11
1143.9748434158948
 21
686.3958288004078
  0
LINE
  8
_0-1_計細線
  6
CONTINUOUS
 62
    3
 10
1147.374843414791
 20
666.29582880040789
 11
1147.3748434158952
 21
686.3958288004078
  0
LINE
  8
_0-1_計細線
  6
CONTINUOUS
 62
    3
 10
1147.374843414791
 20
666.29582880040789
 11
1143.9748434147914
 21
666.29582880040789
  0
ARC
  8
_0-1_計細線
  6
CONTINUOUS
 62
    3
 10
1205.1748434137062
 20
666.29582880040789
 40
3.0000000000000004
 50
269.99999999999977
 51
359.99999999999966
  0
LINE
  8
_0-1_計細線
  6
CONTINUOUS
 62
    3
 10
1208.1748434137062
 20
666.29582880040789
 11
1208.1748434137062
 21
690.79582880040789
  0
LINE
  8
_0-1_計細線
  6
CONTINUOUS
 62
    3
 10
1205.1748434137062
 20
663.29582880040778
 11
1178.6748434137053
 21
663.29582880040778
  0
LINE
  8
_0-1_計細線
  6
CONTINUOUS
 62
    3
 10
1178.1748434137055
 20
663.79582880040789
 11
1178.6748434137053
 21
663.29582880040778
  0
LINE
  8
_0-1_計細線
  6
CONTINUOUS
 62
    3
 10
1178.1748434137055
 20
665.795828800408
 11
1178.1748434137055
 21
663.79582880040789
  0
LINE
  8
_0-1_計細線
  6
CONTINUOUS
 62
    3
 10
1178.6748434137053
 20
666.29582880040789
 11
1178.1748434137055
 21
665.795828800408
  0
LINE
  8
_0-1_計細線
  6
CONTINUOUS
 62
    3
 10
1205.1748434137062
 20
666.29582880040789
 11
1178.6748434137053
 21
666.29582880040789
  0
LINE
  8
_0-1_計細線
  6
CONTINUOUS
 62
    3
 10
1207.6748434137062
 20
691.295828800408
 11
1208.1748434137062
 21
690.79582880040789
  0
LINE
  8
_0-1_計細線
  6
CONTINUOUS
 62
    3
 10
1205.674843413706
 20
691.295828800408
 11
1207.6748434137062
 21
691.295828800408
  0
LINE
  8
_0-1_計細線
  6
CONTINUOUS
 62
    3
 10
1205.1748434137062
 20
690.79582880040789
 11
1205.674843413706
 21
691.295828800408
  0
LINE
  8
_0-1_計細線
  6
CONTINUOUS
 62
    3
 10
1205.1748434137062
 20
666.29582880040789
 11
1205.1748434137062
 21
690.79582880040789
  0
ARC
  8
_0-1_計細線
  6
CONTINUOUS
 62
    3
 10
1001.1748434137058
 20
666.29582880040789
 40
3.0000000000000004
 50
179.99999999999983
 51
269.99999999999977
  0
LINE
  8
_0-1_計細線
  6
CONTINUOUS
 62
    3
 10
998.17484341370573
 20
666.29582880040789
 11
998.17484341370573
 21
690.79582880040789
  0
LINE
  8
_0-1_計細線
  6
CONTINUOUS
 62
    3
 10
1001.1748434137058
 20
663.29582880040778
 11
1027.674843413706
 21
663.29582880040778
  0
LINE
  8
_0-1_計細線
  6
CONTINUOUS
 62
    3
 10
1028.1748434137057
 20
663.79582880040789
 11
1027.674843413706
 21
663.29582880040778
  0
LINE
  8
_0-1_計細線
  6
CONTINUOUS
 62
    3
 10
1028.1748434137057
 20
665.795828800408
 11
1028.1748434137057
 21
663.79582880040789
  0
LINE
  8
_0-1_計細線
  6
CONTINUOUS
 62
    3
 10
1027.674843413706
 20
666.29582880040789
 11
1028.1748434137057
 21
665.795828800408
  0
LINE
  8
_0-1_計細線
  6
CONTINUOUS
 62
    3
 10
1001.1748434137058
 20
666.29582880040789
 11
1027.674843413706
 21
666.29582880040789
  0
LINE
  8
_0-1_計細線
  6
CONTINUOUS
 62
    3
 10
998.67484341370584
 20
691.295828800408
 11
998.17484341370573
 21
690.79582880040789
  0
LINE
  8
_0-1_計細線
  6
CONTINUOUS
 62
    3
 10
1000.674843413706
 20
691.295828800408
 11
998.67484341370584
 21
691.295828800408
  0
LINE
  8
_0-1_計細線
  6
CONTINUOUS
 62
    3
 10
1001.1748434137058
 20
690.79582880040789
 11
1000.674843413706
 21
691.295828800408
  0
LINE
  8
_0-1_計細線
  6
CONTINUOUS
 62
    3
 10
1001.1748434137058
 20
666.29582880040789
 11
1001.1748434137058
 21
690.79582880040789
  0
LINE
  8
_0-5_寸法線
  6
CONTINUOUS
 62
    7
 10
929.66819512663687
 20
691.295828800408
 11
908.94154958851232
 21
691.295828800408
  0
LINE
  8
_0-5_寸法線
  6
CONTINUOUS
 62
    7
 10
913.94154958851232
 20
691.295828800408
 11
916.52974003953761
 21
681.6365705375174
  0
LINE
  8
_0-5_寸法線
  6
CONTINUOUS
 62
    7
 10
913.94154958851232
 20
691.295828800408
 11
911.35335913748713
 21
681.6365705375174
  0
LINE
  8
_0-5_寸法線
  6
CONTINUOUS
 62
    7
 10
986.97484341370568
 20
663.29582880040812
 11
908.94154958851232
 21
663.29582880040834
  0
LINE
  8
_0-5_寸法線
  6
CONTINUOUS
 62
    7
 10
913.94154958851232
 20
663.29582880040834
 11
911.35335913748713
 21
672.95508706329895
  0
LINE
  8
_0-5_寸法線
  6
CONTINUOUS
 62
    7
 10
913.94154958851232
 20
663.29582880040834
 11
916.52974003953761
 21
672.95508706329895
  0
LINE
  8
_0-5_寸法線
  6
CONTINUOUS
 62
    7
 10
913.94154958851232
 20
691.295828800408
 11
913.94154958851232
 21
663.29582880040834
  0
TEXT
  8
_0-5_寸法線
 62
    7
 10
913.94154958851232
 20
669.79582880040823
 40
15
 41
1
 50
90
  1
28
  0
LINE
  8
_0-5_寸法線
  6
CONTINUOUS
 62
    7
 10
986.97484341370568
 20
663.29582880040812
 11
908.94154958851232
 21
663.29582880040834
  0
LINE
  8
_0-5_寸法線
  6
CONTINUOUS
 62
    7
 10
913.94154958851232
 20
663.29582880040834
 11
916.52974003953761
 21
653.63657053751763
  0
LINE
  8
_0-5_寸法線
  6
CONTINUOUS
 62
    7
 10
913.94154958851232
 20
663.29582880040834
 11
911.35335913748713
 21
653.63657053751763
  0
LINE
  8
_0-5_寸法線
  6
CONTINUOUS
 62
    7
 10
986.97484341370568
 20
640.29582880040823
 11
908.94154958851232
 21
640.29582880040846
  0
LINE
  8
_0-5_寸法線
  6
CONTINUOUS
 62
    7
 10
913.94154958851232
 20
640.29582880040846
 11
911.35335913748713
 21
649.95508706329917
  0
LINE
  8
_0-5_寸法線
  6
CONTINUOUS
 62
    7
 10
913.94154958851232
 20
640.29582880040846
 11
916.52974003953761
 21
649.95508706329917
  0
LINE
  8
_0-5_寸法線
  6
CONTINUOUS
 62
    7
 10
913.94154958851232
 20
663.29582880040834
 11
913.94154958851232
 21
640.29582880040846
  0
TEXT
  8
_0-5_寸法線
 62
    7
 10
913.94154958851232
 20
644.29582880040857
 40
15
 41
1
 50
90
  1
23
  0
LINE
  8
_0-5_寸法線
  6
CONTINUOUS
 62
    7
 10
1028.1748434137057
 20
658.29582880040778
 11
1028.1748434137057
 21
565.97332884829734
  0
LINE
  8
_0-5_寸法線
  6
CONTINUOUS
 62
    7
 10
1028.1748434137057
 20
570.97332884829734
 11
1037.8341016765964
 21
573.56151929932253
  0
LINE
  8
_0-5_寸法線
  6
CONTINUOUS
 62
    7
 10
1028.1748434137057
 20
570.97332884829734
 11
1037.8341016765964
 21
568.38513839727216
  0
LINE
  8
_0-5_寸法線
  6
CONTINUOUS
 62
    7
 10
1178.1748434137055
 20
658.29582880040778
 11
1178.1748434137055
 21
565.97332884829734
  0
LINE
  8
_0-5_寸法線
  6
CONTINUOUS
 62
    7
 10
1178.1748434137055
 20
570.97332884829734
 11
1168.5155851508148
 21
568.38513839727216
  0
LINE
  8
_0-5_寸法線
  6
CONTINUOUS
 62
    7
 10
1178.1748434137055
 20
570.97332884829734
 11
1168.5155851508148
 21
573.56151929932253
  0
LINE
  8
_0-5_寸法線
  6
CONTINUOUS
 62
    7
 10
1028.1748434137057
 20
570.97332884829734
 11
1178.1748434137055
 21
570.97332884829734
  0
TEXT
  8
_0-5_寸法線
 62
    7
 10
1091.9248434137055
 20
570.97332884829711
 40
15
 41
1
 50
0
  1
150
  0
LINE
  8
_0-5_寸法線
  6
CONTINUOUS
 62
    7
 10
998.17484341370573
 20
630.29582880040778
 11
998.17484341370459
 21
565.97332884829734
  0
LINE
  8
_0-5_寸法線
  6
CONTINUOUS
 62
    7
 10
998.17484341370459
 20
570.97332884829734
 11
1007.8341016765954
 21
573.56151929932253
  0
LINE
  8
_0-5_寸法線
  6
CONTINUOUS
 62
    7
 10
998.17484341370459
 20
570.97332884829734
 11
1007.8341016765954
 21
568.38513839727216
  0
LINE
  8
_0-5_寸法線
  6
CONTINUOUS
 62
    7
 10
1028.1748434137055
 20
653.29582880040778
 11
1028.1748434137046
 21
565.97332884829734
  0
LINE
  8
_0-5_寸法線
  6
CONTINUOUS
 62
    7
 10
1028.1748434137046
 20
570.97332884829734
 11
1018.5155851508139
 21
568.38513839727216
  0
LINE
  8
_0-5_寸法線
  6
CONTINUOUS
 62
    7
 10
1028.1748434137046
 20
570.97332884829734
 11
1018.5155851508139
 21
573.56151929932253
  0
LINE
  8
_0-5_寸法線
  6
CONTINUOUS
 62
    7
 10
998.17484341370459
 20
570.97332884829734
 11
1028.1748434137046
 21
570.97332884829734
  0
TEXT
  8
_0-5_寸法線
 62
    7
 10
1005.6748434137046
 20
570.97332884829734
 40
15
 41
1
 50
0
  1
30
  0
LINE
  8
_0-5_寸法線
  6
CONTINUOUS
 62
    7
 10
1208.1748434137062
 20
630.29582880040778
 11
1208.1748434137062
 21
565.97332884829734
  0
LINE
  8
_0-5_寸法線
  6
CONTINUOUS
 62
    7
 10
1208.1748434137062
 20
570.97332884829734
 11
1198.5155851508155
 21
568.38513839727216
  0
LINE
  8
_0-5_寸法線
  6
CONTINUOUS
 62
    7
 10
1208.1748434137062
 20
570.97332884829734
 11
1198.5155851508155
 21
573.56151929932253
  0
LINE
  8
_0-5_寸法線
  6
CONTINUOUS
 62
    7
 10
1178.1748434137062
 20
653.29582880040778
 11
1178.1748434137055
 21
565.97332884829734
  0
LINE
  8
_0-5_寸法線
  6
CONTINUOUS
 62
    7
 10
1178.1748434137055
 20
570.97332884829734
 11
1187.8341016765962
 21
573.56151929932253
  0
LINE
  8
_0-5_寸法線
  6
CONTINUOUS
 62
    7
 10
1178.1748434137055
 20
570.97332884829734
 11
1187.8341016765962
 21
568.38513839727216
  0
LINE
  8
_0-5_寸法線
  6
CONTINUOUS
 62
    7
 10
1208.1748434137062
 20
570.97332884829734
 11
1178.1748434137055
 21
570.97332884829734
  0
TEXT
  8
_0-5_寸法線
 62
    7
 10
1185.674843413706
 20
570.97332884829734
 40
15
 41
1
 50
0
  1
30
  0
TEXT
  8
_0-7_枠細線
 62
    5
 10
960.5
 20
109.99999999999993
 40
20.000000000000007
 41
0.5999999999999998
 50
0
  1
ＧＲＳＫ－２５Ｋ２００
  0
LINE
  8
_0-7_枠細線
  6
CONTINUOUS
 62
    5
 10
1425
 20
942.5
 11
890
 21
942.5
  0
TEXT
  8
_0-7_枠細線
 62
    5
 10
895
 20
945
 40
12.5
 41
1
 50
0
  1
記号
  0
TEXT
  8
_0-7_枠細線
 62
    5
 10
996.875
 20
945
 40
12.5
 41
1
 50
0
  1
訂　 正　 記　 事
  0
TEXT
  8
_0-7_枠細線
 62
    5
 10
1181.25
 20
945
 40
12.5
 41
1
 50
0
  1
訂 正 年 月 日
  0
TEXT
  8
_0-7_枠細線
 62
    5
 10
1306.25
 20
945
 40
12.5
 41
1
 50
0
  1
備　　　　　考
  0
LINE
  8
_0-7_枠細線
  6
CONTINUOUS
 62
    5
 10
1425
 20
925
 11
890
 21
925
  0
TEXT
  8
_0-7_枠細線
 62
    5
 10
961.00000000000023
 20
453.73352999148574
 40
15
 41
0.8000000000000001
 50
0
  1
品　　番
  0
LINE
  8
_0-7_枠細線
  6
CONTINUOUS
 62
    5
 10
925
 20
398.73352999148574
 11
1245.0000000000002
 21
398.73352999148574
  0
LINE
  8
_0-7_枠細線
  6
CONTINUOUS
 62
    5
 10
925
 20
423.73352999148574
 11
1245.0000000000002
 21
423.73352999148574
  0
LINE
  8
_0-7_枠細線
  6
CONTINUOUS
 62
    5
 10
925
 20
448.73352999148574
 11
1245.0000000000002
 21
448.73352999148574
  0
TEXT
  8
_0-7_枠細線
 62
    5
 10
1089.0000000000005
 20
453.73352999148574
 40
15
 41
0.8000000000000001
 50
0
  1
色
  0
TEXT
  8
_0-7_枠細線
 62
    5
 10
1171.0000000000005
 20
453.73352999148574
 40
15
 41
0.8000000000000001
 50
0
  1
備　　考
  0
LINE
  8
_0-7_枠細線
  6
CONTINUOUS
 62
    5
 10
925
 20
473.73352999148574
 11
1245.0000000000002
 21
473.73352999148574
  0
LINE
  8
_0-7_枠細線
  6
CONTINUOUS
 62
    5
 10
925
 20
248.73352999148568
 11
1245.0000000000002
 21
248.73352999148568
  0
LINE
  8
_0-7_枠細線
  6
CONTINUOUS
 62
    5
 10
925
 20
373.73352999148574
 11
1245.0000000000002
 21
373.73352999148574
  0
LINE
  8
_0-7_枠細線
  6
CONTINUOUS
 62
    5
 10
925
 20
348.73352999148574
 11
1245.0000000000002
 21
348.73352999148574
  0
LINE
  8
_0-7_枠細線
  6
CONTINUOUS
 62
    5
 10
925
 20
323.73352999148574
 11
1245.0000000000002
 21
323.73352999148574
  0
LINE
  8
_0-7_枠細線
  6
CONTINUOUS
 62
    5
 10
925
 20
298.73352999148568
 11
1245.0000000000002
 21
298.73352999148568
  0
LINE
  8
_0-7_枠細線
  6
CONTINUOUS
 62
    5
 10
925
 20
273.73352999148568
 11
1245.0000000000002
 21
273.73352999148568
  0
TEXT
  8
_0-7_枠細線
 62
    5
 10
1023.75
 20
478.73352999148574
 40
17.5
 41
1
 50
0
  1
品番表
  0
LINE
  8
_0-7_枠細線
  6
CONTINUOUS
 62
    5
 10
925
 20
223.73352999148568
 11
1245.0000000000002
 21
223.73352999148568
  0
LINE
  8
_0-7_枠細線
  6
CONTINUOUS
 62
    5
 10
1245.0000000000002
 20
473.73352999148574
 11
1245.0000000000002
 21
223.73352999148568
  0
LINE
  8
_0-7_枠細線
  6
CONTINUOUS
 62
    5
 10
1145
 20
473.73352999148574
 11
1145
 21
223.73352999148568
  0
LINE
  8
_0-7_枠細線
  6
CONTINUOUS
 62
    5
 10
1045.0000000000005
 20
473.73352999148574
 11
1045.0000000000005
 21
223.73352999148568
  0
LINE
  8
_0-7_枠細線
  6
CONTINUOUS
 62
    5
 10
925
 20
473.73352999148574
 11
925
 21
223.73352999148568
  0
LINE
  8
_0-7_枠細線
  6
CONTINUOUS
 62
    5
 10
1290.7925839968264
 20
393.73352999148574
 11
1290.7925839968264
 21
473.73352999148574
  0
TEXT
  8
_0-7_枠細線
 62
    5
 10
1313.2925839968264
 20
451.23352999148574
 40
15.000000000000004
 41
1
 50
0
  1
耐荷重
  0
TEXT
  8
_0-7_枠細線
 62
    5
 10
1298.2925839968264
 20
401.23352999148574
 40
15.000000000000004
 41
1
 50
0
  1
（歩道用）
  0
LINE
  8
_0-7_枠細線
  6
CONTINUOUS
 62
    5
 10
1380.7925839968264
 20
393.73352999148574
 11
1380.7925839968264
 21
473.73352999148574
  0
LINE
  8
_0-7_枠細線
  6
CONTINUOUS
 62
    5
 10
1290.7925839968264
 20
473.73352999148574
 11
1380.7925839968264
 21
473.73352999148574
  0
LINE
  8
_0-7_枠細線
  6
CONTINUOUS
 62
    5
 10
1290.7925839968264
 20
443.73352999148574
 11
1380.7925839968264
 21
443.73352999148574
  0
LINE
  8
_0-7_枠細線
  6
CONTINUOUS
 62
    5
 10
1290.7925839968264
 20
393.73352999148574
 11
1380.7925839968264
 21
393.73352999148574
  0
TEXT
  8
_0-7_枠細線
 62
    5
 10
1305.7925839968264
 20
421.23352999148574
 40
15.000000000000004
 41
1
 50
0
  1
5.0kN/㎡
  0
TEXT
  8
_0-7_枠細線
 62
    5
 10
1255
 20
95
 40
20
 41
1
 50
0
  1
大野
  0
TEXT
  8
_0-7_枠細線
 62
    5
 10
1315
 20
95
 40
20
 41
1
 50
0
  1
深川
  0
TEXT
  8
_0-7_枠細線
 62
    5
 10
1309.9999999999998
 20
67.499999999999929
 40
15.000000000000009
 41
0.6666666666666665
 50
0
  1
２０１７年０４月０１日
  0
TEXT
  8
_0-7_枠細線
 62
    5
 10
929.75000000000045
 20
428.73352999148574
 40
15
 41
0.5666666666666667
 50
0
  1
ＧＲＳＫ－２５Ｋ２００－Ｂ
  0
TEXT
  8
_0-7_枠細線
 62
    5
 10
929.75000000000045
 20
403.73352999148574
 40
15
 41
0.5666666666666667
 50
0
  1
ＧＲＳＫ－２５Ｋ２００－Ｇ
  0
TEXT
  8
_0-7_枠細線
 62
    5
 10
929.75000000000045
 20
378.73352999148574
 40
15
 41
0.5666666666666667
 50
0
  1
ＧＲＳＫ－２５Ｋ２００－Ｓ
  0
TEXT
  8
_0-7_枠細線
 62
    5
 10
929.75000000000045
 20
353.73352999148574
 40
15
 41
0.5666666666666667
 50
0
  1
ＧＲＳＫ－２５Ｋ２００－Ｐ
  0
TEXT
  8
_0-7_枠細線
 62
    5
 10
929.75000000000045
 20
328.73352999148574
 40
15
 41
0.5666666666666667
 50
0
  1
ＧＲＳＫ－２５Ｋ２００－Ａ
  0
TEXT
  8
_0-7_枠細線
 62
    5
 10
929.75000000000045
 20
303.73352999148568
 40
15
 41
0.5666666666666667
 50
0
  1
ＧＲＳＫ－２５Ｋ２００－Ｄ
  0
TEXT
  8
_0-7_枠細線
 62
    5
 10
929.75000000000045
 20
278.73352999148568
 40
15
 41
0.5666666666666667
 50
0
  1
ＧＲＳＫ－２５Ｋ２００－Ｍ
  0
TEXT
  8
_0-7_枠細線
 62
    5
 10
929.75000000000045
 20
253.73352999148568
 40
15
 41
0.5666666666666667
 50
0
  1
ＧＲＳＫ－２５Ｋ２００－Ｃ
  0
TEXT
  8
_0-7_枠細線
 62
    5
 10
929.75000000000045
 20
228.73352999148568
 40
15
 41
0.5666666666666667
 50
0
  1
ＧＲＳＫ－２５Ｋ２００－Ｋ
  0
LINE
  8
_0-9_枠極太
  6
CONTINUOUS
 62
    5
 10
60
 20
60
 11
60
 21
960
  0
LINE
  8
_0-9_枠極太
  6
CONTINUOUS
 62
    5
 10
60
 20
960
 11
1425
 21
960
  0
LINE
  8
_0-9_枠極太
  6
CONTINUOUS
 62
    5
 10
1425
 20
960
 11
1425
 21
60
  0
LINE
  8
_0-9_枠極太
  6
CONTINUOUS
 62
    5
 10
1425
 20
60
 11
60
 21
60
  0
LINE
  8
_0-7_枠細線
  6
CONTINUOUS
 62
    5
 10
915
 20
926.44233397174685
 11
907.5
 21
941.44233397174685
  0
LINE
  8
_0-7_枠細線
  6
CONTINUOUS
 62
    5
 10
900
 20
926.44233397174685
 11
915
 21
926.44233397174685
  0
LINE
  8
_0-7_枠細線
  6
CONTINUOUS
 62
    5
 10
907.5
 20
941.44233397174685
 11
900
 21
926.44233397174685
  0
TEXT
  8
_0-7_枠細線
 62
    5
 10
1180
 20
927.5
 40
12.5
 41
0.7199999999999999
 50
0
  1
２０１９．０９．０１
  0
TEXT
  8
_0-7_枠細線
 62
    5
 10
938.85037037037023
 20
927.5
 40
12.5
 41
1
 50
0
  1
アンカー材質･厚み変更
  0
TEXT
  8
_0-7_枠細線
 62
    5
 10
902.36515126814822
 20
925.49351400689704
 40
12.5
 41
0.8
 50
0
  1
１
  0
LINE
  8
_0-0_計極細
  6
CONTINUOUS
 62
    2
 10
998.17484341370573
 20
675.29582880040778
 11
998.17484341370573
 21
640.29582880040789
  0
LINE
  8
_0-0_計極細
  6
CONTINUOUS
 62
    2
 10
998.17484341370573
 20
640.29582880040789
 11
995.87484341370578
 21
640.29582880040789
  0
LINE
  8
_0-0_計極細
  6
CONTINUOUS
 62
    2
 10
995.87484341370578
 20
640.29582880040789
 11
995.87484341370578
 21
675.29582880040778
  0
LINE
  8
_0-0_計極細
  6
CONTINUOUS
 62
    2
 10
995.87484341370578
 20
675.29582880040778
 11
998.17484341370573
 21
675.29582880040778
  0
LINE
  8
_0-0_計極細
  6
CONTINUOUS
 62
    2
 10
995.87484341370578
 20
659.295828800408
 11
998.17484341370573
 21
659.295828800408
  0
LINE
  8
_0-0_計極細
  6
CONTINUOUS
 62
    2
 10
995.87484341370578
 20
661.29582880040789
 11
998.17484341370573
 21
661.29582880040789
  0
LINE
  8
_0-0_計極細
  6
CONTINUOUS
 62
    2
 10
995.87484341370578
 20
657.29582880040778
 11
998.17484341370573
 21
657.29582880040778
  0
LINE
  8
_0-0_計極細
  6
CONTINUOUS
 62
    2
 10
995.87484341370578
 20
663.29582880040778
 11
998.17484341370573
 21
663.29582880040778
  0
LINE
  8
_0-0_計極細
  6
CONTINUOUS
 62
    2
 10
998.17484341370573
 20
643.29582880040789
 11
995.87484341370578
 21
643.29582880040789
  0
LINE
  8
_0-0_計極細
  6
CONTINUOUS
 62
    2
 10
995.87484341370578
 20
673.29582880040789
 11
998.17484341370573
 21
673.29582880040789
  0
LINE
  8
_0-0_計極細
  6
CONTINUOUS
 62
    2
 10
1208.1748434137062
 20
675.29582880040778
 11
1208.1748434137062
 21
640.29582880040789
  0
LINE
  8
_0-0_計極細
  6
CONTINUOUS
 62
    2
 10
1208.1748434137062
 20
640.29582880040789
 11
1210.4748434137064
 21
640.29582880040789
  0
LINE
  8
_0-0_計極細
  6
CONTINUOUS
 62
    2
 10
1210.4748434137064
 20
640.29582880040789
 11
1210.4748434137064
 21
675.29582880040778
  0
LINE
  8
_0-0_計極細
  6
CONTINUOUS
 62
    2
 10
1210.4748434137064
 20
675.29582880040778
 11
1208.1748434137062
 21
675.29582880040778
  0
LINE
  8
_0-0_計極細
  6
CONTINUOUS
 62
    2
 10
1210.4748434137064
 20
659.295828800408
 11
1208.1748434137062
 21
659.295828800408
  0
LINE
  8
_0-0_計極細
  6
CONTINUOUS
 62
    2
 10
1210.4748434137064
 20
661.29582880040789
 11
1208.1748434137062
 21
661.29582880040789
  0
LINE
  8
_0-0_計極細
  6
CONTINUOUS
 62
    2
 10
1210.4748434137064
 20
657.29582880040778
 11
1208.1748434137062
 21
657.29582880040778
  0
LINE
  8
_0-0_計極細
  6
CONTINUOUS
 62
    2
 10
1210.4748434137064
 20
663.29582880040778
 11
1208.1748434137062
 21
663.29582880040778
  0
LINE
  8
_0-0_計極細
  6
CONTINUOUS
 62
    2
 10
1208.1748434137062
 20
643.29582880040789
 11
1210.4748434137064
 21
643.29582880040789
  0
LINE
  8
_0-0_計極細
  6
CONTINUOUS
 62
    2
 10
1210.4748434137064
 20
673.29582880040789
 11
1208.1748434137062
 21
673.29582880040789
  0
LINE
  8
_0-7_枠細線
  6
CONTINUOUS
 62
    5
 10
1230.4426933326745
 20
663.01509727262578
 11
1222.9426933326745
 21
678.01509727262578
  0
LINE
  8
_0-7_枠細線
  6
CONTINUOUS
 62
    5
 10
1215.4426933326745
 20
663.01509727262578
 11
1230.4426933326745
 21
663.01509727262578
  0
LINE
  8
_0-7_枠細線
  6
CONTINUOUS
 62
    5
 10
1222.9426933326745
 20
678.01509727262578
 11
1215.4426933326745
 21
663.01509727262578
  0
TEXT
  8
_0-7_枠細線
 62
    5
 10
1217.8078446008226
 20
662.06627730777586
 40
12.5
 41
0.8
 50
0
  1
１
  0
LINE
  8
_0-7_枠細線
  6
CONTINUOUS
 62
    5
 10
1425
 20
907.5
 11
890
 21
907.5
  0
LINE
  8
_0-7_枠細線
  6
CONTINUOUS
 62
    5
 10
1425
 20
890
 11
890
 21
890
  0
TEXT
  8
_0-7_枠細線
 62
    5
 10
902.36515126814822
 20
908.63533172636664
 40
12.5
 41
0.8
 50
0
  1
２
  0
LINE
  8
_0-7_枠細線
  6
CONTINUOUS
 62
    5
 10
907.5
 20
923.94233397174685
 11
900
 21
908.94233397174685
  0
LINE
  8
_0-7_枠細線
  6
CONTINUOUS
 62
    5
 10
900
 20
908.94233397174685
 11
915
 21
908.94233397174685
  0
LINE
  8
_0-7_枠細線
  6
CONTINUOUS
 62
    5
 10
915
 20
908.94233397174685
 11
907.5
 21
923.94233397174685
  0
TEXT
  8
_0-7_枠細線
 62
    5
 10
902.36515126814822
 20
890.89465008156549
 40
12.5
 41
0.8
 50
0
  1
３
  0
LINE
  8
_0-7_枠細線
  6
CONTINUOUS
 62
    5
 10
907.5
 20
906.44233397174685
 11
900
 21
891.44233397174685
  0
LINE
  8
_0-7_枠細線
  6
CONTINUOUS
 62
    5
 10
900
 20
891.44233397174685
 11
915
 21
891.44233397174685
  0
LINE
  8
_0-7_枠細線
  6
CONTINUOUS
 62
    5
 10
915
 20
891.44233397174685
 11
907.5
 21
906.44233397174685
  0
LINE
  8
_0-7_枠細線
  6
CONTINUOUS
 62
    5
 10
1275
 20
890
 11
1275
 21
959.99999999999909
  0
LINE
  8
_0-7_枠細線
  6
CONTINUOUS
 62
    5
 10
1175
 20
890
 11
1175
 21
959.99999999999909
  0
LINE
  8
_0-7_枠細線
  6
CONTINUOUS
 62
    5
 10
925
 20
890
 11
925
 21
959.99999999999909
  0
LINE
  8
_0-7_枠細線
  6
CONTINUOUS
 62
    5
 10
890
 20
890
 11
890
 21
959.99999999999909
  0
TEXT
  8
_0-7_枠細線
 62
    5
 10
1059.0000000000005
 20
403.73352999148574
 40
15
 41
0.8000000000000001
 50
0
  1
ライトグレー
  0
TEXT
  8
_0-7_枠細線
 62
    5
 10
1071.0000000000005
 20
428.73352999148574
 40
15
 41
0.8000000000000001
 50
0
  1
ベージュ
  0
TEXT
  8
_0-7_枠細線
 62
    5
 10
1071.0000000000005
 20
378.73352999148574
 40
15
 41
0.8000000000000001
 50
0
  1
ホワイト
  0
TEXT
  8
_0-7_枠細線
 62
    5
 10
1077.0000000000005
 20
353.73352999148574
 40
15
 41
0.8000000000000001
 50
0
  1
ピンク
  0
TEXT
  8
_0-7_枠細線
 62
    5
 10
1077.0000000000005
 20
328.73352999148574
 40
15
 41
0.8000000000000001
 50
0
  1
ブルー
  0
TEXT
  8
_0-7_枠細線
 62
    5
 10
1059.0000000000005
 20
303.73352999148568
 40
15
 41
0.8000000000000001
 50
0
  1
ダークグレー
  0
TEXT
  8
_0-7_枠細線
 62
    5
 10
1077.0000000000005
 20
278.73352999148568
 40
15
 41
0.8000000000000001
 50
0
  1
ウッド
  0
TEXT
  8
_0-7_枠細線
 62
    5
 10
1071.0000000000005
 20
228.73352999148568
 40
15
 41
0.8000000000000001
 50
0
  1
ブラック
  0
TEXT
  8
_0-7_枠細線
 62
    5
 10
1071.0000000000005
 20
253.73352999148568
 40
15
 41
0.8000000000000001
 50
0
  1
ブラウン
  0
TEXT
  8
_0-7_枠細線
 62
    5
 10
1053.4666016528704
 20
534.31384995605504
 40
25
 41
0.8
 50
0
  1
断面詳細図
  0
TEXT
  8
_0-7_枠細線
 62
    5
 10
1168.4155714020383
 20
536.80961204331902
 40
20
 41
0.6
 50
0
  1
Ｓ＝１：５
  0
TEXT
  8
_0-7_枠細線
 62
    5
 10
1180
 20
910
 40
12.5
 41
0.7199999999999999
 50
0
  1
２０２０．０９．０１
  0
LINE
  8
_0-5_寸法線
  6
CONTINUOUS
 62
    7
 10
998.17484341370573
 20
696.29580625262349
 11
998.17484341370573
 21
816.295828800408
  0
LINE
  8
_0-5_寸法線
  6
CONTINUOUS
 62
    7
 10
998.17484341370573
 20
811.295828800408
 11
1007.8341016765966
 21
813.8840192514333
  0
LINE
  8
_0-5_寸法線
  6
CONTINUOUS
 62
    7
 10
998.17484341370573
 20
811.295828800408
 11
1007.8341016765966
 21
808.70763834938293
  0
LINE
  8
_0-5_寸法線
  6
CONTINUOUS
 62
    7
 10
1208.174843413706
 20
696.29580625262349
 11
1208.174843413706
 21
816.295828800408
  0
LINE
  8
_0-5_寸法線
  6
CONTINUOUS
 62
    7
 10
1208.174843413706
 20
811.295828800408
 11
1198.5155851508152
 21
808.70763834938293
  0
LINE
  8
_0-5_寸法線
  6
CONTINUOUS
 62
    7
 10
1208.174843413706
 20
811.295828800408
 11
1198.5155851508152
 21
813.8840192514333
  0
LINE
  8
_0-5_寸法線
  6
CONTINUOUS
 62
    7
 10
998.17484341370573
 20
811.295828800408
 11
1208.174843413706
 21
811.295828800408
  0
TEXT
  8
_0-5_寸法線
 62
    7
 10
1091.924843413706
 20
811.295828800408
 40
15
 41
1
 50
0
  1
210
  0
LINE
  8
_0-5_寸法線
  6
CONTINUOUS
 62
    7
 10
998.17484341370573
 20
776.295828800408
 11
988.51558515081501
 21
773.70763834938293
  0
LINE
  8
_0-5_寸法線
  6
CONTINUOUS
 62
    7
 10
998.17484341370573
 20
776.295828800408
 11
988.51558515081501
 21
778.8840192514333
  0
LINE
  8
_0-5_寸法線
  6
CONTINUOUS
 62
    7
 10
1001.1748434137058
 20
695.79580625262361
 11
1001.1748434137058
 21
781.295828800408
  0
CIRCLE
  8
_0-5_寸法線
  6
CONTINUOUS
 62
    1
 10
1001.1748434137058
 20
776.295828800408
 40
1.5000000000000002
  0
LINE
  8
_0-5_寸法線
  6
CONTINUOUS
 62
    7
 10
973.17484341370573
 20
776.295828800408
 11
1001.1748434137058
 21
776.295828800408
  0
TEXT
  8
_0-5_寸法線
 62
    7
 10
975.93793241333344
 20
776.295828800408
 40
15
 41
1
 50
0
  1
3
  0
LINE
  8
_0-5_寸法線
  6
CONTINUOUS
 62
    7
 10
1003.1748434137056
 20
694.2958052516168
 11
1003.174843413706
 21
781.295828800408
  0
LINE
  8
_0-5_寸法線
  6
CONTINUOUS
 62
    7
 10
1001.1748434137058
 20
776.295828800408
 11
1003.174843413706
 21
776.295828800408
  0
TEXT
  8
_0-5_寸法線
 62
    7
 10
1003.2908462435273
 20
776.295828800408
 40
15
 41
1
 50
0
  1
2
  0
LINE
  8
_0-5_寸法線
  6
CONTINUOUS
 62
    7
 10
1003.174843413706
 20
776.295828800408
 11
1012.8341016765967
 21
778.8840192514333
  0
LINE
  8
_0-5_寸法線
  6
CONTINUOUS
 62
    7
 10
1003.174843413706
 20
776.295828800408
 11
1012.8341016765967
 21
773.70763834938293
  0
LINE
  8
_0-5_寸法線
  6
CONTINUOUS
 62
    7
 10
1203.1748434137062
 20
694.2958052516168
 11
1203.1748434137062
 21
781.295828800408
  0
LINE
  8
_0-5_寸法線
  6
CONTINUOUS
 62
    7
 10
1203.1748434137062
 20
776.295828800408
 11
1193.5155851508155
 21
773.70763834938293
  0
LINE
  8
_0-5_寸法線
  6
CONTINUOUS
 62
    7
 10
1203.1748434137062
 20
776.295828800408
 11
1193.5155851508155
 21
778.8840192514333
  0
LINE
  8
_0-5_寸法線
  6
CONTINUOUS
 62
    7
 10
1003.174843413706
 20
776.295828800408
 11
1203.1748434137062
 21
776.295828800408
  0
TEXT
  8
_0-5_寸法線
 62
    7
 10
1091.9248434137062
 20
776.295828800408
 40
15
 41
1
 50
0
  1
200
  0
LINE
  8
_0-5_寸法線
  6
CONTINUOUS
 62
    7
 10
1205.174843413706
 20
695.79580625262361
 11
1205.174843413706
 21
781.295828800408
  0
CIRCLE
  8
_0-5_寸法線
  6
CONTINUOUS
 62
    1
 10
1205.174843413706
 20
776.295828800408
 40
1.5000000000000002
  0
LINE
  8
_0-5_寸法線
  6
CONTINUOUS
 62
    7
 10
1203.1748434137062
 20
776.295828800408
 11
1205.174843413706
 21
776.295828800408
  0
TEXT
  8
_0-5_寸法線
 62
    7
 10
1195.9675487789079
 20
776.295828800408
 40
15
 41
1
 50
0
  1
2
  0
LINE
  8
_0-5_寸法線
  6
CONTINUOUS
 62
    7
 10
1208.174843413706
 20
776.295828800408
 11
1217.8341016765967
 21
778.8840192514333
  0
LINE
  8
_0-5_寸法線
  6
CONTINUOUS
 62
    7
 10
1208.174843413706
 20
776.295828800408
 11
1217.8341016765967
 21
773.70763834938271
  0
LINE
  8
_0-5_寸法線
  6
CONTINUOUS
 62
    7
 10
1205.174843413706
 20
776.295828800408
 11
1233.174843413706
 21
776.295828800408
  0
TEXT
  8
_0-5_寸法線
 62
    7
 10
1222.3213408581109
 20
776.295828800408
 40
15
 41
1
 50
0
  1
3
  0
LINE
  8
_0-0_計極細
  6
CONTINUOUS
 62
    2
 10
372.18632075471794
 20
388.81981132075487
 11
372.18632075471794
 21
394.41981132075523
  0
LINE
  8
_0-0_計極細
  6
CONTINUOUS
 62
    2
 10
385.186320754718
 20
388.81981132075487
 11
385.186320754718
 21
394.41981132075523
  0
LINE
  8
_0-0_計極細
  6
CONTINUOUS
 62
    2
 10
372.18632075471794
 20
405.81981132075583
 11
372.18632075471794
 21
411.41981132075614
  0
LINE
  8
_0-0_計極細
  6
CONTINUOUS
 62
    2
 10
385.186320754718
 20
405.81981132075583
 11
385.186320754718
 21
411.41981132075614
  0
LINE
  8
_0-0_計極細
  6
CONTINUOUS
 62
    2
 10
372.18632075471794
 20
428.41981132075159
 11
372.18632075471794
 21
422.81981132075214
  0
LINE
  8
_0-0_計極細
  6
CONTINUOUS
 62
    2
 10
385.186320754718
 20
428.41981132075159
 11
385.186320754718
 21
422.81981132075214
  0
LINE
  8
_0-0_計極細
  6
CONTINUOUS
 62
    2
 10
372.18632075471794
 20
445.4198113207525
 11
372.18632075471794
 21
439.81981132075219
  0
LINE
  8
_0-0_計極細
  6
CONTINUOUS
 62
    2
 10
385.186320754718
 20
445.4198113207525
 11
385.186320754718
 21
439.81981132075219
  0
LINE
  8
_0-0_計極細
  6
CONTINUOUS
 62
    2
 10
372.18632075471794
 20
513.81981132075396
 11
372.18632075471794
 21
507.81981132075401
  0
LINE
  8
_0-0_計極細
  6
CONTINUOUS
 62
    2
 10
385.186320754718
 20
513.81981132075396
 11
385.186320754718
 21
507.81981132075401
  0
LINE
  8
_0-0_計極細
  6
CONTINUOUS
 62
    2
 10
372.18632075471794
 20
531.21981132075359
 11
372.18632075471794
 21
525.21981132075359
  0
LINE
  8
_0-0_計極細
  6
CONTINUOUS
 62
    2
 10
385.186320754718
 20
531.21981132075359
 11
385.186320754718
 21
525.21981132075359
  0
LINE
  8
_0-0_計極細
  6
CONTINUOUS
 62
    2
 10
372.18632075471794
 20
462.41981132075347
 11
372.18632075471794
 21
456.81981132075305
  0
LINE
  8
_0-0_計極細
  6
CONTINUOUS
 62
    2
 10
385.186320754718
 20
462.41981132075347
 11
385.186320754718
 21
456.81981132075305
  0
LINE
  8
_0-0_計極細
  6
CONTINUOUS
 62
    2
 10
372.18632075471794
 20
479.41981132075432
 11
372.18632075471794
 21
473.81981132075396
  0
LINE
  8
_0-0_計極細
  6
CONTINUOUS
 62
    2
 10
385.186320754718
 20
479.41981132075432
 11
385.186320754718
 21
473.81981132075396
  0
LINE
  8
_0-0_計極細
  6
CONTINUOUS
 62
    2
 10
372.18632075471794
 20
496.41981132075438
 11
372.18632075471794
 21
490.81981132075492
  0
LINE
  8
_0-0_計極細
  6
CONTINUOUS
 62
    2
 10
385.186320754718
 20
496.41981132075438
 11
385.186320754718
 21
490.81981132075492
  0
LINE
  8
_0-0_計極細
  6
CONTINUOUS
 62
    2
 10
372.18632075471794
 20
371.41981132075438
 11
372.18632075471794
 21
377.41981132075432
  0
LINE
  8
_0-0_計極細
  6
CONTINUOUS
 62
    2
 10
385.186320754718
 20
371.41981132075438
 11
385.186320754718
 21
377.41981132075432
  0
LINE
  8
_0-0_計極細
  6
CENTER1
 62
    2
 10
378.68632075471794
 20
551.3705307452168
 11
378.68632075471794
 21
334.8619875797425
  0
LINE
  8
_0-0_計極細
  6
CONTINUOUS
 62
    2
 10
372.18632075471794
 20
354.01981132075377
 11
372.18632075471794
 21
360.01981132075377
  0
LINE
  8
_0-0_計極細
  6
CONTINUOUS
 62
    2
 10
385.186320754718
 20
354.01981132075377
 11
385.186320754718
 21
360.01981132075377
  0
LINE
  8
_0-1_計細線
  6
CONTINUOUS
 62
    3
 10
371.686320754718
 20
377.41981132075432
 11
571.68632075471794
 21
377.41981132075432
  0
LINE
  8
_0-1_計細線
  6
CONTINUOUS
 62
    3
 10
371.686320754718
 20
388.81981132075487
 11
571.68632075471794
 21
388.81981132075487
  0
LINE
  8
_0-1_計細線
  6
CONTINUOUS
 62
    3
 10
371.686320754718
 20
377.41981132075432
 11
371.686320754718
 21
388.81981132075487
  0
LINE
  8
_0-1_計細線
  6
CONTINUOUS
 62
    3
 10
571.68632075471794
 20
377.41981132075432
 11
571.68632075471794
 21
388.81981132075487
  0
LINE
  8
_0-0_計極細
  6
CONTINUOUS
 62
    2
 10
371.686320754718
 20
385.6198113207551
 11
571.68632075471794
 21
385.6198113207551
  0
LINE
  8
_0-0_計極細
  6
CONTINUOUS
 62
    2
 10
371.686320754718
 20
380.6198113207551
 11
571.68632075471794
 21
380.6198113207551
  0
LINE
  8
_0-1_計細線
  6
CONTINUOUS
 62
    3
 10
371.686320754718
 20
394.41981132075523
 11
571.68632075471794
 21
394.41981132075523
  0
LINE
  8
_0-1_計細線
  6
CONTINUOUS
 62
    3
 10
371.686320754718
 20
405.81981132075583
 11
571.68632075471794
 21
405.81981132075583
  0
LINE
  8
_0-1_計細線
  6
CONTINUOUS
 62
    3
 10
371.686320754718
 20
394.41981132075523
 11
371.686320754718
 21
405.81981132075583
  0
LINE
  8
_0-1_計細線
  6
CONTINUOUS
 62
    3
 10
571.68632075471794
 20
394.41981132075523
 11
571.68632075471794
 21
405.81981132075583
  0
LINE
  8
_0-0_計極細
  6
CONTINUOUS
 62
    2
 10
371.686320754718
 20
402.61981132075505
 11
571.68632075471794
 21
402.61981132075505
  0
LINE
  8
_0-0_計極細
  6
CONTINUOUS
 62
    2
 10
371.686320754718
 20
397.61981132075505
 11
571.68632075471794
 21
397.61981132075505
  0
LINE
  8
_0-1_計細線
  6
CONTINUOUS
 62
    3
 10
371.686320754718
 20
411.41981132075614
 11
571.68632075471794
 21
411.41981132075614
  0
LINE
  8
_0-1_計細線
  6
CONTINUOUS
 62
    3
 10
371.686320754718
 20
422.81981132075668
 11
571.68632075471794
 21
422.81981132075668
  0
LINE
  8
_0-1_計細線
  6
CONTINUOUS
 62
    3
 10
371.686320754718
 20
411.41981132075614
 11
371.686320754718
 21
422.81981132075668
  0
LINE
  8
_0-1_計細線
  6
CONTINUOUS
 62
    3
 10
571.68632075471794
 20
411.41981132075614
 11
571.68632075471794
 21
422.81981132075668
  0
LINE
  8
_0-0_計極細
  6
CONTINUOUS
 62
    2
 10
371.686320754718
 20
419.61981132075601
 11
571.68632075471794
 21
419.61981132075601
  0
LINE
  8
_0-0_計極細
  6
CONTINUOUS
 62
    2
 10
371.686320754718
 20
414.61981132075601
 11
571.68632075471794
 21
414.61981132075601
  0
LINE
  8
_0-0_計極細
  6
CENTER2
 62
    2
 10
355.79772121769872
 20
442.6198113207542
 11
587.73105455107589
 21
442.6198113207542
  0
LINE
  8
_0-1_計細線
  6
CONTINUOUS
 62
    3
 10
371.686320754718
 20
507.81981132075401
 11
571.68632075471794
 21
507.81981132075401
  0
LINE
  8
_0-1_計細線
  6
CONTINUOUS
 62
    3
 10
371.686320754718
 20
496.41981132075341
 11
571.68632075471794
 21
496.41981132075341
  0
LINE
  8
_0-1_計細線
  6
CONTINUOUS
 62
    3
 10
371.686320754718
 20
507.81981132075401
 11
371.686320754718
 21
496.41981132075341
  0
LINE
  8
_0-1_計細線
  6
CONTINUOUS
 62
    3
 10
571.68632075471794
 20
507.81981132075401
 11
571.68632075471794
 21
496.41981132075341
  0
LINE
  8
_0-0_計極細
  6
CONTINUOUS
 62
    2
 10
371.686320754718
 20
499.61981132075323
 11
571.68632075471794
 21
499.61981132075323
  0
LINE
  8
_0-0_計極細
  6
CONTINUOUS
 62
    2
 10
371.686320754718
 20
504.61981132075323
 11
571.68632075471794
 21
504.61981132075323
  0
LINE
  8
_0-1_計細線
  6
CONTINUOUS
 62
    3
 10
371.686320754718
 20
525.2198113207545
 11
571.68632075471794
 21
525.2198113207545
  0
LINE
  8
_0-1_計細線
  6
CONTINUOUS
 62
    3
 10
371.686320754718
 20
513.81981132075396
 11
571.68632075471794
 21
513.81981132075396
  0
LINE
  8
_0-1_計細線
  6
CONTINUOUS
 62
    3
 10
371.686320754718
 20
525.2198113207545
 11
371.686320754718
 21
513.81981132075396
  0
LINE
  8
_0-1_計細線
  6
CONTINUOUS
 62
    3
 10
571.68632075471794
 20
525.2198113207545
 11
571.68632075471794
 21
513.81981132075396
  0
LINE
  8
_0-0_計極細
  6
CONTINUOUS
 62
    2
 10
371.686320754718
 20
517.01981132075377
 11
571.68632075471794
 21
517.01981132075377
  0
LINE
  8
_0-0_計極細
  6
CONTINUOUS
 62
    2
 10
371.686320754718
 20
522.01981132075377
 11
571.68632075471794
 21
522.01981132075377
  0
LINE
  8
_0-1_計細線
  6
CONTINUOUS
 62
    3
 10
371.686320754718
 20
542.61981132075425
 11
571.68632075471794
 21
542.61981132075425
  0
LINE
  8
_0-1_計細線
  6
CONTINUOUS
 62
    3
 10
371.686320754718
 20
531.21981132075359
 11
571.68632075471794
 21
531.21981132075359
  0
LINE
  8
_0-1_計細線
  6
CONTINUOUS
 62
    3
 10
371.686320754718
 20
542.61981132075425
 11
371.686320754718
 21
531.21981132075359
  0
LINE
  8
_0-1_計細線
  6
CONTINUOUS
 62
    3
 10
571.68632075471794
 20
542.61981132075425
 11
571.68632075471794
 21
531.21981132075359
  0
LINE
  8
_0-0_計極細
  6
CONTINUOUS
 62
    2
 10
371.686320754718
 20
534.41981132075432
 11
571.68632075471794
 21
534.41981132075432
  0
LINE
  8
_0-0_計極細
  6
CONTINUOUS
 62
    2
 10
371.686320754718
 20
539.41981132075432
 11
571.68632075471794
 21
539.41981132075432
  0
LINE
  8
_0-1_計細線
  6
CONTINUOUS
 62
    3
 10
371.686320754718
 20
473.81981132075396
 11
571.68632075471794
 21
473.81981132075396
  0
LINE
  8
_0-1_計細線
  6
CONTINUOUS
 62
    3
 10
371.686320754718
 20
462.41981132075347
 11
571.68632075471794
 21
462.41981132075347
  0
LINE
  8
_0-1_計細線
  6
CONTINUOUS
 62
    3
 10
371.686320754718
 20
473.81981132075396
 11
371.686320754718
 21
462.41981132075347
  0
LINE
  8
_0-1_計細線
  6
CONTINUOUS
 62
    3
 10
571.68632075471794
 20
473.81981132075396
 11
571.68632075471794
 21
462.41981132075347
  0
LINE
  8
_0-0_計極細
  6
CONTINUOUS
 62
    2
 10
371.686320754718
 20
465.61981132075323
 11
571.68632075471794
 21
465.61981132075323
  0
LINE
  8
_0-0_計極細
  6
CONTINUOUS
 62
    2
 10
371.686320754718
 20
470.61981132075323
 11
571.68632075471794
 21
470.61981132075323
  0
LINE
  8
_0-1_計細線
  6
CONTINUOUS
 62
    3
 10
371.686320754718
 20
490.81981132075492
 11
571.68632075471794
 21
490.81981132075492
  0
LINE
  8
_0-1_計細線
  6
CONTINUOUS
 62
    3
 10
371.686320754718
 20
479.41981132075432
 11
571.68632075471794
 21
479.41981132075432
  0
LINE
  8
_0-1_計細線
  6
CONTINUOUS
 62
    3
 10
371.686320754718
 20
490.81981132075492
 11
371.686320754718
 21
479.41981132075432
  0
LINE
  8
_0-1_計細線
  6
CONTINUOUS
 62
    3
 10
571.68632075471794
 20
490.81981132075492
 11
571.68632075471794
 21
479.41981132075432
  0
LINE
  8
_0-0_計極細
  6
CONTINUOUS
 62
    2
 10
371.686320754718
 20
482.6198113207542
 11
571.68632075471794
 21
482.6198113207542
  0
LINE
  8
_0-0_計極細
  6
CONTINUOUS
 62
    2
 10
371.686320754718
 20
487.6198113207542
 11
571.68632075471794
 21
487.6198113207542
  0
LINE
  8
_0-1_計細線
  6
CONTINUOUS
 62
    3
 10
371.686320754718
 20
360.01981132075377
 11
571.68632075471794
 21
360.01981132075377
  0
LINE
  8
_0-1_計細線
  6
CONTINUOUS
 62
    3
 10
371.686320754718
 20
371.41981132075438
 11
571.68632075471794
 21
371.41981132075438
  0
LINE
  8
_0-1_計細線
  6
CONTINUOUS
 62
    3
 10
371.686320754718
 20
360.01981132075377
 11
371.686320754718
 21
371.41981132075438
  0
LINE
  8
_0-1_計細線
  6
CONTINUOUS
 62
    3
 10
571.68632075471794
 20
360.01981132075377
 11
571.68632075471794
 21
371.41981132075438
  0
LINE
  8
_0-0_計極細
  6
CONTINUOUS
 62
    2
 10
371.686320754718
 20
368.2198113207545
 11
571.68632075471794
 21
368.2198113207545
  0
LINE
  8
_0-0_計極細
  6
CONTINUOUS
 62
    2
 10
371.686320754718
 20
363.2198113207545
 11
571.68632075471794
 21
363.2198113207545
  0
LINE
  8
_0-1_計細線
  6
CONTINUOUS
 62
    3
 10
371.686320754718
 20
342.61981132075414
 11
571.68632075471794
 21
342.61981132075414
  0
LINE
  8
_0-1_計細線
  6
CONTINUOUS
 62
    3
 10
371.686320754718
 20
354.01981132075468
 11
571.68632075471794
 21
354.01981132075468
  0
LINE
  8
_0-1_計細線
  6
CONTINUOUS
 62
    3
 10
371.686320754718
 20
342.61981132075414
 11
371.686320754718
 21
354.01981132075468
  0
LINE
  8
_0-1_計細線
  6
CONTINUOUS
 62
    3
 10
571.68632075471794
 20
342.61981132075414
 11
571.68632075471794
 21
354.01981132075468
  0
LINE
  8
_0-0_計極細
  6
CONTINUOUS
 62
    2
 10
371.686320754718
 20
350.81981132075492
 11
571.68632075471794
 21
350.81981132075492
  0
LINE
  8
_0-0_計極細
  6
CONTINUOUS
 62
    2
 10
371.686320754718
 20
345.81981132075492
 11
571.68632075471794
 21
345.81981132075492
  0
LINE
  8
_0-1_計細線
  6
CONTINUOUS
 62
    3
 10
371.686320754718
 20
456.81981132075305
 11
571.68632075471794
 21
456.81981132075305
  0
LINE
  8
_0-1_計細線
  6
CONTINUOUS
 62
    3
 10
571.68632075471794
 20
456.81981132075305
 11
571.68632075471794
 21
445.4198113207525
  0
LINE
  8
_0-0_計極細
  6
CONTINUOUS
 62
    2
 10
371.686320754718
 20
448.61981132075329
 11
571.68632075471794
 21
448.61981132075329
  0
LINE
  8
_0-0_計極細
  6
CONTINUOUS
 62
    2
 10
371.686320754718
 20
453.61981132075329
 11
571.68632075471794
 21
453.61981132075329
  0
LINE
  8
_0-1_計細線
  6
CONTINUOUS
 62
    3
 10
371.686320754718
 20
445.4198113207525
 11
571.68632075471794
 21
445.4198113207525
  0
LINE
  8
_0-1_計細線
  6
CONTINUOUS
 62
    3
 10
371.686320754718
 20
456.81981132075305
 11
371.686320754718
 21
445.4198113207525
  0
LINE
  8
_0-1_計細線
  6
CONTINUOUS
 62
    3
 10
371.686320754718
 20
428.41981132075159
 11
571.68632075471794
 21
428.41981132075159
  0
LINE
  8
_0-1_計細線
  6
CONTINUOUS
 62
    3
 10
571.68632075471794
 20
439.81981132075219
 11
571.68632075471794
 21
428.41981132075159
  0
LINE
  8
_0-0_計極細
  6
CONTINUOUS
 62
    2
 10
371.686320754718
 20
431.61981132075232
 11
571.68632075471794
 21
431.61981132075232
  0
LINE
  8
_0-0_計極細
  6
CONTINUOUS
 62
    2
 10
371.686320754718
 20
436.61981132075232
 11
571.68632075471794
 21
436.61981132075232
  0
LINE
  8
_0-1_計細線
  6
CONTINUOUS
 62
    3
 10
371.686320754718
 20
439.81981132075219
 11
371.686320754718
 21
428.41981132075159
  0
LINE
  8
_0-1_計細線
  6
CONTINUOUS
 62
    3
 10
371.686320754718
 20
439.81981132075219
 11
571.68632075471794
 21
439.81981132075219
  0
LINE
  8
_0-0_計極細
  6
CONTINUOUS
 62
    2
 10
558.18632075471794
 20
388.81981132075487
 11
558.18632075471794
 21
394.41981132075523
  0
LINE
  8
_0-0_計極細
  6
CONTINUOUS
 62
    2
 10
571.18632075471794
 20
388.81981132075487
 11
571.18632075471794
 21
394.41981132075523
  0
LINE
  8
_0-0_計極細
  6
CONTINUOUS
 62
    2
 10
558.18632075471794
 20
405.81981132075583
 11
558.18632075471794
 21
411.41981132075614
  0
LINE
  8
_0-0_計極細
  6
CONTINUOUS
 62
    2
 10
571.18632075471794
 20
405.81981132075583
 11
571.18632075471794
 21
411.41981132075614
  0
LINE
  8
_0-0_計極細
  6
CONTINUOUS
 62
    2
 10
558.18632075471794
 20
428.41981132075159
 11
558.18632075471794
 21
422.81981132075214
  0
LINE
  8
_0-0_計極細
  6
CONTINUOUS
 62
    2
 10
571.18632075471794
 20
428.41981132075159
 11
571.18632075471794
 21
422.81981132075214
  0
LINE
  8
_0-0_計極細
  6
CONTINUOUS
 62
    2
 10
558.18632075471794
 20
445.4198113207525
 11
558.18632075471794
 21
439.81981132075219
  0
LINE
  8
_0-0_計極細
  6
CONTINUOUS
 62
    2
 10
571.18632075471794
 20
445.4198113207525
 11
571.18632075471794
 21
439.81981132075219
  0
LINE
  8
_0-0_計極細
  6
CONTINUOUS
 62
    2
 10
558.18632075471794
 20
513.81981132075396
 11
558.18632075471794
 21
507.81981132075401
  0
LINE
  8
_0-0_計極細
  6
CONTINUOUS
 62
    2
 10
571.18632075471794
 20
513.81981132075396
 11
571.18632075471794
 21
507.81981132075401
  0
LINE
  8
_0-0_計極細
  6
CONTINUOUS
 62
    2
 10
558.18632075471794
 20
531.21981132075359
 11
558.18632075471794
 21
525.21981132075359
  0
LINE
  8
_0-0_計極細
  6
CONTINUOUS
 62
    2
 10
571.18632075471794
 20
531.21981132075359
 11
571.18632075471794
 21
525.21981132075359
  0
LINE
  8
_0-0_計極細
  6
CONTINUOUS
 62
    2
 10
558.18632075471794
 20
462.41981132075347
 11
558.18632075471794
 21
456.81981132075305
  0
LINE
  8
_0-0_計極細
  6
CONTINUOUS
 62
    2
 10
571.18632075471794
 20
462.41981132075347
 11
571.18632075471794
 21
456.81981132075305
  0
LINE
  8
_0-0_計極細
  6
CONTINUOUS
 62
    2
 10
558.18632075471794
 20
479.41981132075432
 11
558.18632075471794
 21
473.81981132075396
  0
LINE
  8
_0-0_計極細
  6
CONTINUOUS
 62
    2
 10
571.18632075471794
 20
479.41981132075432
 11
571.18632075471794
 21
473.81981132075396
  0
LINE
  8
_0-0_計極細
  6
CONTINUOUS
 62
    2
 10
558.18632075471794
 20
496.41981132075438
 11
558.18632075471794
 21
490.81981132075492
  0
LINE
  8
_0-0_計極細
  6
CONTINUOUS
 62
    2
 10
571.18632075471794
 20
496.41981132075438
 11
571.18632075471794
 21
490.81981132075492
  0
LINE
  8
_0-0_計極細
  6
CONTINUOUS
 62
    2
 10
558.18632075471794
 20
371.41981132075438
 11
558.18632075471794
 21
377.41981132075432
  0
LINE
  8
_0-0_計極細
  6
CONTINUOUS
 62
    2
 10
571.18632075471794
 20
371.41981132075438
 11
571.18632075471794
 21
377.41981132075432
  0
LINE
  8
_0-0_計極細
  6
CENTER1
 62
    2
 10
564.68632075471794
 20
551.3705307452168
 11
564.68632075471794
 21
334.8619875797425
  0
LINE
  8
_0-0_計極細
  6
CONTINUOUS
 62
    2
 10
558.18632075471794
 20
354.01981132075377
 11
558.18632075471794
 21
360.01981132075377
  0
LINE
  8
_0-0_計極細
  6
CONTINUOUS
 62
    2
 10
571.18632075471794
 20
354.01981132075377
 11
571.18632075471794
 21
360.01981132075377
  0
LINE
  8
_0-1_計細線
  6
CONTINUOUS
 62
    3
 10
366.686320754718
 20
547.61981132075323
 11
366.686320754718
 21
337.61981132075505
  0
LINE
  8
_0-1_計細線
  6
CONTINUOUS
 62
    3
 10
366.686320754718
 20
337.61981132075505
 11
576.68632075471794
 21
337.61981132075505
  0
LINE
  8
_0-1_計細線
  6
CONTINUOUS
 62
    3
 10
576.68632075471794
 20
337.61981132075505
 11
576.68632075471794
 21
547.61981132075323
  0
LINE
  8
_0-1_計細線
  6
CONTINUOUS
 62
    3
 10
576.68632075471794
 20
547.61981132075323
 11
366.686320754718
 21
547.61981132075323
  0
LINE
  8
_0-1_計細線
  6
CONTINUOUS
 62
    3
 10
573.68632075471794
 20
340.6198113207551
 11
573.68632075471794
 21
544.61981132075323
  0
LINE
  8
_0-1_計細線
  6
CONTINUOUS
 62
    3
 10
573.68632075471794
 20
544.61981132075323
 11
369.68632075471794
 21
544.61981132075323
  0
LINE
  8
_0-1_計細線
  6
CONTINUOUS
 62
    3
 10
369.68632075471794
 20
544.61981132075323
 11
369.68632075471794
 21
340.6198113207551
  0
LINE
  8
_0-1_計細線
  6
CONTINUOUS
 62
    3
 10
369.68632075471794
 20
340.6198113207551
 11
573.68632075471794
 21
340.6198113207551
  0
LINE
  8
_0-0_計極細
  6
CONTINUOUS
 62
    2
 10
469.186320754718
 20
388.81981132075487
 11
469.186320754718
 21
394.41981132075523
  0
LINE
  8
_0-0_計極細
  6
CONTINUOUS
 62
    2
 10
482.18632075471794
 20
388.81981132075487
 11
482.18632075471794
 21
394.41981132075523
  0
LINE
  8
_0-0_計極細
  6
CONTINUOUS
 62
    2
 10
469.186320754718
 20
405.81981132075583
 11
469.186320754718
 21
411.41981132075614
  0
LINE
  8
_0-0_計極細
  6
CONTINUOUS
 62
    2
 10
482.18632075471794
 20
405.81981132075583
 11
482.18632075471794
 21
411.41981132075614
  0
LINE
  8
_0-0_計極細
  6
CONTINUOUS
 62
    2
 10
469.186320754718
 20
428.41981132075159
 11
469.186320754718
 21
422.81981132075214
  0
LINE
  8
_0-0_計極細
  6
CONTINUOUS
 62
    2
 10
482.18632075471794
 20
428.41981132075159
 11
482.18632075471794
 21
422.81981132075214
  0
LINE
  8
_0-0_計極細
  6
CONTINUOUS
 62
    2
 10
469.186320754718
 20
513.81981132075396
 11
469.186320754718
 21
507.81981132075401
  0
LINE
  8
_0-0_計極細
  6
CONTINUOUS
 62
    2
 10
482.18632075471794
 20
513.81981132075396
 11
482.18632075471794
 21
507.81981132075401
  0
LINE
  8
_0-0_計極細
  6
CONTINUOUS
 62
    2
 10
469.186320754718
 20
531.21981132075359
 11
469.186320754718
 21
525.21981132075359
  0
LINE
  8
_0-0_計極細
  6
CONTINUOUS
 62
    2
 10
482.18632075471794
 20
531.21981132075359
 11
482.18632075471794
 21
525.21981132075359
  0
LINE
  8
_0-0_計極細
  6
CONTINUOUS
 62
    2
 10
469.186320754718
 20
462.41981132075347
 11
469.186320754718
 21
456.81981132075305
  0
LINE
  8
_0-0_計極細
  6
CONTINUOUS
 62
    2
 10
482.18632075471794
 20
462.41981132075347
 11
482.18632075471794
 21
456.81981132075305
  0
LINE
  8
_0-0_計極細
  6
CONTINUOUS
 62
    2
 10
469.186320754718
 20
479.41981132075432
 11
469.186320754718
 21
473.81981132075396
  0
LINE
  8
_0-0_計極細
  6
CONTINUOUS
 62
    2
 10
482.18632075471794
 20
479.41981132075432
 11
482.18632075471794
 21
473.81981132075396
  0
LINE
  8
_0-0_計極細
  6
CONTINUOUS
 62
    2
 10
469.186320754718
 20
496.41981132075438
 11
469.186320754718
 21
490.81981132075492
  0
LINE
  8
_0-0_計極細
  6
CONTINUOUS
 62
    2
 10
482.18632075471794
 20
496.41981132075438
 11
482.18632075471794
 21
490.81981132075492
  0
LINE
  8
_0-0_計極細
  6
CONTINUOUS
 62
    2
 10
469.186320754718
 20
371.41981132075438
 11
469.186320754718
 21
377.41981132075432
  0
LINE
  8
_0-0_計極細
  6
CONTINUOUS
 62
    2
 10
482.18632075471794
 20
371.41981132075438
 11
482.18632075471794
 21
377.41981132075432
  0
LINE
  8
_0-0_計極細
  6
CENTER1
 62
    2
 10
475.68632075471794
 20
551.3705307452168
 11
475.68632075471794
 21
334.8619875797425
  0
LINE
  8
_0-0_計極細
  6
CONTINUOUS
 62
    2
 10
469.186320754718
 20
354.01981132075377
 11
469.186320754718
 21
360.01981132075377
  0
LINE
  8
_0-0_計極細
  6
CONTINUOUS
 62
    2
 10
482.18632075471794
 20
354.01981132075377
 11
482.18632075471794
 21
360.01981132075377
  0
LINE
  8
_0-0_計極細
  6
CONTINUOUS
 62
    2
 10
469.186320754718
 20
445.4198113207525
 11
469.186320754718
 21
444.96981132075456
  0
LINE
  8
_0-0_計極細
  6
CONTINUOUS
 62
    2
 10
469.186320754718
 20
440.26981132075468
 11
469.186320754718
 21
439.81981132075219
  0
LINE
  8
_0-0_計極細
  6
CONTINUOUS
 62
    2
 10
482.18632075471794
 20
445.4198113207525
 11
482.18632075471794
 21
444.96981132075456
  0
LINE
  8
_0-0_計極細
  6
CONTINUOUS
 62
    2
 10
482.18632075471794
 20
440.26981132075468
 11
482.18632075471794
 21
439.81981132075219
  0
LINE
  8
_0-0_計極細
  6
CONTINUOUS
 62
    2
 10
420.68632075471794
 20
388.81981132075487
 11
420.68632075471794
 21
394.41981132075523
  0
LINE
  8
_0-0_計極細
  6
CONTINUOUS
 62
    2
 10
433.68632075471794
 20
388.81981132075487
 11
433.68632075471794
 21
394.41981132075523
  0
LINE
  8
_0-0_計極細
  6
CONTINUOUS
 62
    2
 10
420.68632075471794
 20
405.81981132075583
 11
420.68632075471794
 21
411.41981132075614
  0
LINE
  8
_0-0_計極細
  6
CONTINUOUS
 62
    2
 10
433.68632075471794
 20
405.81981132075583
 11
433.68632075471794
 21
411.41981132075614
  0
LINE
  8
_0-0_計極細
  6
CONTINUOUS
 62
    2
 10
420.68632075471794
 20
428.41981132075159
 11
420.68632075471794
 21
422.81981132075214
  0
LINE
  8
_0-0_計極細
  6
CONTINUOUS
 62
    2
 10
433.68632075471794
 20
428.41981132075159
 11
433.68632075471794
 21
422.81981132075214
  0
LINE
  8
_0-0_計極細
  6
CONTINUOUS
 62
    2
 10
420.68632075471794
 20
445.4198113207525
 11
420.68632075471794
 21
439.81981132075219
  0
LINE
  8
_0-0_計極細
  6
CONTINUOUS
 62
    2
 10
433.68632075471794
 20
445.4198113207525
 11
433.68632075471794
 21
439.81981132075219
  0
LINE
  8
_0-0_計極細
  6
CONTINUOUS
 62
    2
 10
420.68632075471794
 20
513.81981132075396
 11
420.68632075471794
 21
507.81981132075401
  0
LINE
  8
_0-0_計極細
  6
CONTINUOUS
 62
    2
 10
433.68632075471794
 20
513.81981132075396
 11
433.68632075471794
 21
507.81981132075401
  0
LINE
  8
_0-0_計極細
  6
CONTINUOUS
 62
    2
 10
420.68632075471794
 20
531.21981132075359
 11
420.68632075471794
 21
525.21981132075359
  0
LINE
  8
_0-0_計極細
  6
CONTINUOUS
 62
    2
 10
433.68632075471794
 20
531.21981132075359
 11
433.68632075471794
 21
525.21981132075359
  0
LINE
  8
_0-0_計極細
  6
CONTINUOUS
 62
    2
 10
420.68632075471794
 20
462.41981132075347
 11
420.68632075471794
 21
456.81981132075305
  0
LINE
  8
_0-0_計極細
  6
CONTINUOUS
 62
    2
 10
433.68632075471794
 20
462.41981132075347
 11
433.68632075471794
 21
456.81981132075305
  0
LINE
  8
_0-0_計極細
  6
CONTINUOUS
 62
    2
 10
420.68632075471794
 20
479.41981132075432
 11
420.68632075471794
 21
473.81981132075396
  0
LINE
  8
_0-0_計極細
  6
CONTINUOUS
 62
    2
 10
433.68632075471794
 20
479.41981132075432
 11
433.68632075471794
 21
473.81981132075396
  0
LINE
  8
_0-0_計極細
  6
CONTINUOUS
 62
    2
 10
420.68632075471794
 20
496.41981132075438
 11
420.68632075471794
 21
490.81981132075492
  0
LINE
  8
_0-0_計極細
  6
CONTINUOUS
 62
    2
 10
433.68632075471794
 20
496.41981132075438
 11
433.68632075471794
 21
490.81981132075492
  0
LINE
  8
_0-0_計極細
  6
CONTINUOUS
 62
    2
 10
420.68632075471794
 20
371.41981132075438
 11
420.68632075471794
 21
377.41981132075432
  0
LINE
  8
_0-0_計極細
  6
CONTINUOUS
 62
    2
 10
433.68632075471794
 20
371.41981132075438
 11
433.68632075471794
 21
377.41981132075432
  0
LINE
  8
_0-0_計極細
  6
CENTER1
 62
    2
 10
427.18632075471794
 20
551.3705307452168
 11
427.18632075471794
 21
334.8619875797425
  0
LINE
  8
_0-0_計極細
  6
CONTINUOUS
 62
    2
 10
420.68632075471794
 20
354.01981132075377
 11
420.68632075471794
 21
360.01981132075377
  0
LINE
  8
_0-0_計極細
  6
CONTINUOUS
 62
    2
 10
433.68632075471794
 20
354.01981132075377
 11
433.68632075471794
 21
360.01981132075377
  0
LINE
  8
_0-0_計極細
  6
CONTINUOUS
 62
    2
 10
509.68632075471794
 20
388.81981132075487
 11
509.68632075471794
 21
394.41981132075523
  0
LINE
  8
_0-0_計極細
  6
CONTINUOUS
 62
    2
 10
522.68632075471805
 20
388.81981132075487
 11
522.68632075471805
 21
394.41981132075523
  0
LINE
  8
_0-0_計極細
  6
CONTINUOUS
 62
    2
 10
509.68632075471794
 20
405.81981132075583
 11
509.68632075471794
 21
411.41981132075614
  0
LINE
  8
_0-0_計極細
  6
CONTINUOUS
 62
    2
 10
522.68632075471805
 20
405.81981132075583
 11
522.68632075471805
 21
411.41981132075614
  0
LINE
  8
_0-0_計極細
  6
CONTINUOUS
 62
    2
 10
509.68632075471794
 20
428.41981132075159
 11
509.68632075471794
 21
422.81981132075214
  0
LINE
  8
_0-0_計極細
  6
CONTINUOUS
 62
    2
 10
522.68632075471805
 20
428.41981132075159
 11
522.68632075471805
 21
422.81981132075214
  0
LINE
  8
_0-0_計極細
  6
CONTINUOUS
 62
    2
 10
509.68632075471794
 20
445.4198113207525
 11
509.68632075471794
 21
439.81981132075219
  0
LINE
  8
_0-0_計極細
  6
CONTINUOUS
 62
    2
 10
522.68632075471805
 20
445.4198113207525
 11
522.68632075471805
 21
439.81981132075219
  0
LINE
  8
_0-0_計極細
  6
CONTINUOUS
 62
    2
 10
509.68632075471794
 20
513.81981132075396
 11
509.68632075471794
 21
507.81981132075401
  0
LINE
  8
_0-0_計極細
  6
CONTINUOUS
 62
    2
 10
522.68632075471805
 20
513.81981132075396
 11
522.68632075471805
 21
507.81981132075401
  0
LINE
  8
_0-0_計極細
  6
CONTINUOUS
 62
    2
 10
509.68632075471794
 20
531.21981132075359
 11
509.68632075471794
 21
525.21981132075359
  0
LINE
  8
_0-0_計極細
  6
CONTINUOUS
 62
    2
 10
522.68632075471805
 20
531.21981132075359
 11
522.68632075471805
 21
525.21981132075359
  0
LINE
  8
_0-0_計極細
  6
CONTINUOUS
 62
    2
 10
509.68632075471794
 20
462.41981132075347
 11
509.68632075471794
 21
456.81981132075305
  0
LINE
  8
_0-0_計極細
  6
CONTINUOUS
 62
    2
 10
522.68632075471805
 20
462.41981132075347
 11
522.68632075471805
 21
456.81981132075305
  0
LINE
  8
_0-0_計極細
  6
CONTINUOUS
 62
    2
 10
509.68632075471794
 20
479.41981132075432
 11
509.68632075471794
 21
473.81981132075396
  0
LINE
  8
_0-0_計極細
  6
CONTINUOUS
 62
    2
 10
522.68632075471805
 20
479.41981132075432
 11
522.68632075471805
 21
473.81981132075396
  0
LINE
  8
_0-0_計極細
  6
CONTINUOUS
 62
    2
 10
509.68632075471794
 20
496.41981132075438
 11
509.68632075471794
 21
490.81981132075492
  0
LINE
  8
_0-0_計極細
  6
CONTINUOUS
 62
    2
 10
522.68632075471805
 20
496.41981132075438
 11
522.68632075471805
 21
490.81981132075492
  0
LINE
  8
_0-0_計極細
  6
CONTINUOUS
 62
    2
 10
509.68632075471794
 20
371.41981132075438
 11
509.68632075471794
 21
377.41981132075432
  0
LINE
  8
_0-0_計極細
  6
CONTINUOUS
 62
    2
 10
522.68632075471805
 20
371.41981132075438
 11
522.68632075471805
 21
377.41981132075432
  0
LINE
  8
_0-0_計極細
  6
CENTER1
 62
    2
 10
516.18632075471794
 20
551.3705307452168
 11
516.18632075471794
 21
334.8619875797425
  0
LINE
  8
_0-0_計極細
  6
CONTINUOUS
 62
    2
 10
509.68632075471794
 20
354.01981132075377
 11
509.68632075471794
 21
360.01981132075377
  0
LINE
  8
_0-0_計極細
  6
CONTINUOUS
 62
    2
 10
522.68632075471805
 20
354.01981132075377
 11
522.68632075471805
 21
360.01981132075377
  0
LINE
  8
_0-5_寸法線
  6
CONTINUOUS
 62
    7
 10
366.686320754718
 20
557.61981132075323
 11
366.686320754718
 21
707.61981132075323
  0
LINE
  8
_0-5_寸法線
  6
CONTINUOUS
 62
    7
 10
366.686320754718
 20
702.61981132075323
 11
376.34557901760866
 21
705.20800177177853
  0
LINE
  8
_0-5_寸法線
  6
CONTINUOUS
 62
    7
 10
366.686320754718
 20
702.61981132075323
 11
376.34557901760866
 21
700.03162086972804
  0
LINE
  8
_0-5_寸法線
  6
CONTINUOUS
 62
    7
 10
576.68632075471805
 20
557.61981132075323
 11
576.68632075471896
 21
707.61981132075323
  0
LINE
  8
_0-5_寸法線
  6
CONTINUOUS
 62
    7
 10
576.68632075471896
 20
702.61981132075323
 11
567.02706249182813
 21
700.03162086972804
  0
LINE
  8
_0-5_寸法線
  6
CONTINUOUS
 62
    7
 10
576.68632075471896
 20
702.61981132075323
 11
567.02706249182813
 21
705.20800177177853
  0
LINE
  8
_0-5_寸法線
  6
CONTINUOUS
 62
    7
 10
366.686320754718
 20
702.61981132075323
 11
576.68632075471896
 21
702.61981132075323
  0
TEXT
  8
_0-5_寸法線
 62
    7
 10
460.436320754718
 20
702.61981132075323
 40
15
 41
1
 50
0
  1
210
  0
LINE
  8
_0-5_寸法線
  6
CONTINUOUS
 62
    7
 10
571.68632075471896
 20
557.61981132075323
 11
571.68632075471896
 21
637.61981132075323
  0
LINE
  8
_0-5_寸法線
  6
CONTINUOUS
 62
    7
 10
571.68632075471896
 20
632.61981132075323
 11
562.02706249182813
 21
630.03162086972804
  0
LINE
  8
_0-5_寸法線
  6
CONTINUOUS
 62
    7
 10
571.68632075471896
 20
632.61981132075323
 11
562.02706249182813
 21
635.20800177177853
  0
LINE
  8
_0-5_寸法線
  6
CONTINUOUS
 62
    7
 10
371.68632075471805
 20
557.61981132075323
 11
371.68632075471891
 21
637.61981132075323
  0
LINE
  8
_0-5_寸法線
  6
CONTINUOUS
 62
    7
 10
371.68632075471885
 20
632.61981132075323
 11
381.34557901760951
 21
635.20800177177853
  0
LINE
  8
_0-5_寸法線
  6
CONTINUOUS
 62
    7
 10
371.68632075471885
 20
632.61981132075323
 11
381.34557901760951
 21
630.03162086972804
  0
LINE
  8
_0-5_寸法線
  6
CONTINUOUS
 62
    7
 10
571.68632075471896
 20
632.61981132075323
 11
371.68632075471885
 21
632.61981132075323
  0
TEXT
  8
_0-5_寸法線
 62
    7
 10
460.43632075471891
 20
632.61981132075323
 40
15
 41
1
 50
0
  1
200
  0
LINE
  8
_0-5_寸法線
  6
CONTINUOUS
 62
    7
 10
366.686320754718
 20
557.61981132075323
 11
366.686320754718
 21
672.61981132075323
  0
LINE
  8
_0-5_寸法線
  6
CONTINUOUS
 62
    7
 10
366.686320754718
 20
667.61981132075323
 11
357.02706249182722
 21
665.03162086972804
  0
LINE
  8
_0-5_寸法線
  6
CONTINUOUS
 62
    7
 10
366.686320754718
 20
667.61981132075323
 11
357.02706249182734
 21
670.20800177177853
  0
LINE
  8
_0-5_寸法線
  6
CONTINUOUS
 62
    7
 10
369.68632075471794
 20
557.61981132075323
 11
369.68632075471794
 21
672.61981132075323
  0
LINE
  8
_0-5_寸法線
  6
CONTINUOUS
 62
    7
 10
341.686320754718
 20
667.61981132075323
 11
369.68632075471794
 21
667.61981132075323
  0
TEXT
  8
_0-5_寸法線
 62
    7
 10
343.49743051657094
 20
667.61981132075323
 40
15
 41
1
 50
0
  1
3
  0
LINE
  8
_0-5_寸法線
  6
CONTINUOUS
 62
    7
 10
369.68632075471794
 20
667.61981132075323
 11
379.34557901760866
 21
670.20800177177853
  0
LINE
  8
_0-5_寸法線
  6
CONTINUOUS
 62
    7
 10
369.68632075471794
 20
667.61981132075323
 11
379.3455790176086
 21
665.03162086972793
  0
LINE
  8
_0-5_寸法線
  6
CONTINUOUS
 62
    7
 10
573.68632075471805
 20
557.61981132075323
 11
573.68632075471885
 21
672.61981132075323
  0
LINE
  8
_0-5_寸法線
  6
CONTINUOUS
 62
    7
 10
573.68632075471885
 20
667.61981132075323
 11
564.02706249182813
 21
665.03162086972804
  0
LINE
  8
_0-5_寸法線
  6
CONTINUOUS
 62
    7
 10
573.68632075471885
 20
667.61981132075323
 11
564.02706249182813
 21
670.20800177177853
  0
LINE
  8
_0-5_寸法線
  6
CONTINUOUS
 62
    7
 10
369.68632075471794
 20
667.61981132075323
 11
573.68632075471885
 21
667.61981132075323
  0
TEXT
  8
_0-5_寸法線
 62
    7
 10
460.43632075471891
 20
667.61981132075323
 40
15
 41
1
 50
0
  1
204
  0
LINE
  8
_0-5_寸法線
  6
CONTINUOUS
 62
    7
 10
576.68632075471805
 20
557.61981132075323
 11
576.68632075471896
 21
672.61981132075323
  0
LINE
  8
_0-5_寸法線
  6
CONTINUOUS
 62
    7
 10
576.68632075471896
 20
667.61981132075323
 11
586.34557901760957
 21
670.20800177177853
  0
LINE
  8
_0-5_寸法線
  6
CONTINUOUS
 62
    7
 10
576.68632075471896
 20
667.61981132075323
 11
586.34557901760957
 21
665.03162086972793
  0
LINE
  8
_0-5_寸法線
  6
CONTINUOUS
 62
    7
 10
573.68632075471885
 20
667.61981132075323
 11
601.68632075471896
 21
667.61981132075323
  0
TEXT
  8
_0-5_寸法線
 62
    7
 10
592.95792579959061
 20
667.61981132075323
 40
15
 41
1
 50
0
  1
3
  0
LINE
  8
_0-5_寸法線
  6
CONTINUOUS
 62
    7
 10
356.686320754718
 20
337.61981132075471
 11
276.68632075471794
 21
337.61981132075505
  0
LINE
  8
_0-5_寸法線
  6
CONTINUOUS
 62
    7
 10
281.68632075471794
 20
337.61981132075505
 11
279.09813030369276
 21
347.27906958364571
  0
LINE
  8
_0-5_寸法線
  6
CONTINUOUS
 62
    7
 10
281.68632075471794
 20
337.61981132075505
 11
284.27451120574318
 21
347.27906958364571
  0
LINE
  8
_0-5_寸法線
  6
CONTINUOUS
 62
    7
 10
356.686320754718
 20
547.61981132075323
 11
276.68632075471794
 21
547.61981132075368
  0
LINE
  8
_0-5_寸法線
  6
CONTINUOUS
 62
    7
 10
281.68632075471794
 20
547.61981132075368
 11
284.27451120574318
 21
537.96055305786297
  0
LINE
  8
_0-5_寸法線
  6
CONTINUOUS
 62
    7
 10
281.68632075471794
 20
547.61981132075368
 11
279.09813030369276
 21
537.96055305786297
  0
LINE
  8
_0-5_寸法線
  6
CONTINUOUS
 62
    7
 10
281.68632075471794
 20
337.61981132075505
 11
281.68632075471794
 21
547.61981132075368
  0
TEXT
  8
_0-5_寸法線
 62
    7
 10
281.68632075471794
 20
431.3698113207542
 40
15
 41
1
 50
90
  1
210
  0
LINE
  8
_0-5_寸法線
  6
CONTINUOUS
 62
    7
 10
356.686320754718
 20
337.61981132075471
 11
311.68632075471794
 21
337.6198113207551
  0
LINE
  8
_0-5_寸法線
  6
CONTINUOUS
 62
    7
 10
316.68632075471794
 20
337.61981132075505
 11
319.27451120574318
 21
327.96055305786433
  0
LINE
  8
_0-5_寸法線
  6
CONTINUOUS
 62
    7
 10
316.68632075471794
 20
337.61981132075505
 11
314.0981303036927
 21
327.96055305786439
  0
LINE
  8
_0-5_寸法線
  6
CONTINUOUS
 62
    7
 10
356.686320754718
 20
340.61981132075471
 11
311.68632075471794
 21
340.6198113207551
  0
CIRCLE
  8
_0-5_寸法線
  6
CONTINUOUS
 62
    1
 10
316.68632075471794
 20
340.6198113207551
 40
1.5000000000000002
  0
LINE
  8
_0-5_寸法線
  6
CONTINUOUS
 62
    7
 10
316.68632075471794
 20
312.61981132075505
 11
316.68632075471794
 21
340.6198113207551
  0
TEXT
  8
_0-5_寸法線
 62
    7
 10
316.68632075471794
 20
315.9786921501526
 40
15
 41
1
 50
90
  1
3
  0
LINE
  8
_0-5_寸法線
  6
CONTINUOUS
 62
    7
 10
356.686320754718
 20
342.61981132075425
 11
311.68632075471794
 21
342.61981132075471
  0
LINE
  8
_0-5_寸法線
  6
CONTINUOUS
 62
    7
 10
316.68632075471794
 20
340.6198113207551
 11
316.68632075471794
 21
342.61981132075459
  0
TEXT
  8
_0-5_寸法線
 62
    7
 10
334.11358617694754
 20
345.77247163128953
 40
15
 41
1
 50
90
  1
2
  0
LINE
  8
_0-5_寸法線
  6
CONTINUOUS
 62
    7
 10
316.68632075471794
 20
342.61981132075459
 11
314.09813030369276
 21
352.27906958364531
  0
LINE
  8
_0-5_寸法線
  6
CONTINUOUS
 62
    7
 10
316.68632075471794
 20
342.61981132075459
 11
319.27451120574318
 21
352.27906958364531
  0
LINE
  8
_0-5_寸法線
  6
CONTINUOUS
 62
    7
 10
356.686320754718
 20
542.61981132075425
 11
311.68632075471794
 21
542.61981132075459
  0
LINE
  8
_0-5_寸法線
  6
CONTINUOUS
 62
    7
 10
316.68632075471794
 20
542.61981132075459
 11
319.27451120574318
 21
532.96055305786388
  0
LINE
  8
_0-5_寸法線
  6
CONTINUOUS
 62
    7
 10
316.68632075471794
 20
542.61981132075459
 11
314.0981303036927
 21
532.96055305786388
  0
LINE
  8
_0-5_寸法線
  6
CONTINUOUS
 62
    7
 10
316.68632075471794
 20
342.61981132075459
 11
316.68632075471794
 21
542.61981132075459
  0
TEXT
  8
_0-5_寸法線
 62
    7
 10
316.68632075471794
 20
431.36981132075459
 40
15
 41
1
 50
90
  1
200
  0
LINE
  8
_0-5_寸法線
  6
CONTINUOUS
 62
    7
 10
356.686320754718
 20
544.61981132075334
 11
311.68632075471794
 21
544.61981132075368
  0
CIRCLE
  8
_0-5_寸法線
  6
CONTINUOUS
 62
    1
 10
316.68632075471794
 20
544.61981132075368
 40
1.5000000000000002
  0
LINE
  8
_0-5_寸法線
  6
CONTINUOUS
 62
    7
 10
316.68632075471794
 20
542.61981132075459
 11
316.68632075471794
 21
544.61981132075368
  0
TEXT
  8
_0-5_寸法線
 62
    7
 10
333.10754254487199
 20
534.0589545322232
 40
15
 41
1
 50
90
  1
2
  0
LINE
  8
_0-5_寸法線
  6
CONTINUOUS
 62
    7
 10
356.686320754718
 20
547.61981132075334
 11
311.68632075471794
 21
547.61981132075368
  0
LINE
  8
_0-5_寸法線
  6
CONTINUOUS
 62
    7
 10
316.68632075471794
 20
547.61981132075368
 11
314.09813030369276
 21
557.2790695836444
  0
LINE
  8
_0-5_寸法線
  6
CONTINUOUS
 62
    7
 10
316.68632075471794
 20
547.61981132075368
 11
319.27451120574318
 21
557.2790695836444
  0
LINE
  8
_0-5_寸法線
  6
CONTINUOUS
 62
    7
 10
316.68632075471794
 20
544.61981132075368
 11
316.68632075471794
 21
572.61981132075368
  0
TEXT
  8
_0-5_寸法線
 62
    7
 10
316.68632075471794
 20
561.72456479166101
 40
15
 41
1
 50
90
  1
3
  0
LINE
  8
_0-5_寸法線
  6
CONTINUOUS
 62
    7
 10
371.686320754718
 20
557.61981132075323
 11
371.686320754718
 21
602.61981132075323
  0
LINE
  8
_0-5_寸法線
  6
CONTINUOUS
 62
    7
 10
371.686320754718
 20
597.61981132075323
 11
381.34557901760866
 21
600.20800177177853
  0
LINE
  8
_0-5_寸法線
  6
CONTINUOUS
 62
    7
 10
371.686320754718
 20
597.61981132075323
 11
381.34557901760866
 21
595.03162086972804
  0
LINE
  8
_0-5_寸法線
  6
CONTINUOUS
 62
    7
 10
378.68632075471794
 20
557.61981132075323
 11
378.68632075471794
 21
602.61981132075323
  0
LINE
  8
_0-5_寸法線
  6
CONTINUOUS
 62
    7
 10
378.68632075471794
 20
597.61981132075323
 11
369.02706249182722
 21
595.03162086972804
  0
LINE
  8
_0-5_寸法線
  6
CONTINUOUS
 62
    7
 10
378.68632075471794
 20
597.61981132075323
 11
369.02706249182728
 21
600.20800177177853
  0
LINE
  8
_0-5_寸法線
  6
CONTINUOUS
 62
    7
 10
371.686320754718
 20
597.61981132075323
 11
386.18632075471794
 21
597.61981132075323
  0
TEXT
  8
_0-5_寸法線
 62
    7
 10
378.68632075471794
 20
580.99051766754781
 40
15
 41
1
 50
0
  1
7
  0
LINE
  8
_0-5_寸法線
  6
CONTINUOUS
 62
    7
 10
378.68632075471794
 20
597.61981132075323
 11
388.34557901760866
 21
600.20800177177853
  0
LINE
  8
_0-5_寸法線
  6
CONTINUOUS
 62
    7
 10
378.68632075471794
 20
597.61981132075323
 11
388.3455790176086
 21
595.03162086972793
  0
LINE
  8
_0-5_寸法線
  6
CONTINUOUS
 62
    7
 10
475.68632075471794
 20
557.61981132075323
 11
475.68632075471794
 21
602.61981132075323
  0
LINE
  8
_0-5_寸法線
  6
CONTINUOUS
 62
    7
 10
475.68632075471794
 20
597.61981132075323
 11
466.02706249182722
 21
595.03162086972804
  0
LINE
  8
_0-5_寸法線
  6
CONTINUOUS
 62
    7
 10
475.68632075471794
 20
597.61981132075323
 11
466.02706249182734
 21
600.20800177177853
  0
LINE
  8
_0-5_寸法線
  6
CONTINUOUS
 62
    7
 10
378.68632075471794
 20
597.61981132075323
 11
475.68632075471794
 21
597.61981132075323
  0
TEXT
  8
_0-5_寸法線
 62
    7
 10
393.43632075471794
 20
597.61981132075323
 40
15
 41
1
 50
0
  1
2@48.5=97
  0
LINE
  8
_0-5_寸法線
  6
CONTINUOUS
 62
    7
 10
475.68632075471794
 20
597.61981132075323
 11
485.34557901760871
 21
600.20800177177853
  0
LINE
  8
_0-5_寸法線
  6
CONTINUOUS
 62
    7
 10
475.68632075471794
 20
597.61981132075323
 11
485.34557901760866
 21
595.03162086972793
  0
LINE
  8
_0-5_寸法線
  6
CONTINUOUS
 62
    7
 10
516.18632075471828
 20
557.61981132075323
 11
516.18632075471896
 21
602.61981132075323
  0
LINE
  8
_0-5_寸法線
  6
CONTINUOUS
 62
    7
 10
516.18632075471885
 20
597.61981132075323
 11
506.52706249182813
 21
595.03162086972804
  0
LINE
  8
_0-5_寸法線
  6
CONTINUOUS
 62
    7
 10
516.18632075471885
 20
597.61981132075323
 11
506.52706249182819
 21
600.20800177177853
  0
LINE
  8
_0-5_寸法線
  6
CONTINUOUS
 62
    7
 10
475.68632075471794
 20
597.61981132075323
 11
516.18632075471885
 21
597.61981132075323
  0
TEXT
  8
_0-5_寸法線
 62
    7
 10
480.93632075471885
 20
597.61981132075323
 40
15
 41
1
 50
0
  1
40.5
  0
LINE
  8
_0-5_寸法線
  6
CONTINUOUS
 62
    7
 10
516.18632075471885
 20
597.61981132075323
 11
525.84557901760957
 21
600.20800177177853
  0
LINE
  8
_0-5_寸法線
  6
CONTINUOUS
 62
    7
 10
516.18632075471885
 20
597.61981132075323
 11
525.84557901760957
 21
595.03162086972793
  0
LINE
  8
_0-5_寸法線
  6
CONTINUOUS
 62
    7
 10
564.68632075471817
 20
557.61981132075323
 11
564.68632075471896
 21
602.61981132075323
  0
LINE
  8
_0-5_寸法線
  6
CONTINUOUS
 62
    7
 10
564.68632075471885
 20
597.61981132075323
 11
555.02706249182813
 21
595.03162086972804
  0
LINE
  8
_0-5_寸法線
  6
CONTINUOUS
 62
    7
 10
564.68632075471885
 20
597.61981132075323
 11
555.02706249182813
 21
600.20800177177853
  0
LINE
  8
_0-5_寸法線
  6
CONTINUOUS
 62
    7
 10
516.18632075471885
 20
597.61981132075323
 11
564.68632075471885
 21
597.61981132075323
  0
TEXT
  8
_0-5_寸法線
 62
    7
 10
525.43632075471896
 20
597.61981132075323
 40
15
 41
1
 50
0
  1
48.5
  0
LINE
  8
_0-5_寸法線
  6
CONTINUOUS
 62
    7
 10
564.68632075471885
 20
597.61981132075323
 11
574.34557901760957
 21
600.20800177177853
  0
LINE
  8
_0-5_寸法線
  6
CONTINUOUS
 62
    7
 10
564.68632075471885
 20
597.61981132075323
 11
574.34557901760957
 21
595.03162086972793
  0
LINE
  8
_0-5_寸法線
  6
CONTINUOUS
 62
    7
 10
571.68632075471817
 20
557.61981132075323
 11
571.68632075471896
 21
602.61981132075323
  0
LINE
  8
_0-5_寸法線
  6
CONTINUOUS
 62
    7
 10
571.68632075471896
 20
597.61981132075323
 11
562.02706249182813
 21
595.03162086972804
  0
LINE
  8
_0-5_寸法線
  6
CONTINUOUS
 62
    7
 10
571.68632075471896
 20
597.61981132075323
 11
562.02706249182813
 21
600.20800177177853
  0
LINE
  8
_0-5_寸法線
  6
CONTINUOUS
 62
    7
 10
556.32221408340445
 20
597.61981132075323
 11
571.68632075471896
 21
597.61981132075323
  0
TEXT
  8
_0-5_寸法線
 62
    7
 10
556.32221408340445
 20
581.06790563924596
 40
15
 41
1
 50
0
  1
7
  0
LINE
  8
_0-7_枠細線
  6
CONTINUOUS
 62
    5
 10
280.34335540952941
 20
632.56785947116077
 11
272.84335540952941
 21
647.56785947116077
  0
LINE
  8
_0-7_枠細線
  6
CONTINUOUS
 62
    5
 10
265.34335540952941
 20
632.56785947116077
 11
280.34335540952941
 21
632.56785947116077
  0
LINE
  8
_0-7_枠細線
  6
CONTINUOUS
 62
    5
 10
272.84335540952941
 20
647.56785947116077
 11
265.34335540952941
 21
632.56785947116077
  0
LINE
  8
_0-7_枠細線
  6
CONTINUOUS
 62
    5
 10
407.58653034071028
 20
615.42252270675033
 11
400.08653034071028
 21
630.42252270675033
  0
LINE
  8
_0-7_枠細線
  6
CONTINUOUS
 62
    5
 10
392.58653034071028
 20
615.42252270675033
 11
407.58653034071028
 21
615.42252270675033
  0
LINE
  8
_0-7_枠細線
  6
CONTINUOUS
 62
    5
 10
400.08653034071028
 20
630.42252270675033
 11
392.58653034071028
 21
615.42252270675033
  0
LINE
  8
_0-5_寸法線
  6
CONTINUOUS
 62
    7
 10
469.09420015966077
 20
443.72335755780057
 11
460.91422473802885
 21
449.47557470438829
  0
LINE
  8
_0-5_寸法線
  6
CONTINUOUS
 62
    7
 10
469.09420015966077
 20
443.72335755780057
 11
464.88624221548912
 21
452.79491144564594
  0
LINE
  8
_0-5_寸法線
  6
CONTINUOUS
 62
    7
 10
469.09420015966077
 20
443.72335755780057
 11
326.33347726338468
 21
614.55510216230221
  0
LINE
  8
_0-5_寸法線
  6
CONTINUOUS
 62
    7
 10
326.33347726338468
 20
614.55510216230221
 11
266.33347726338468
 21
614.55510216230221
  0
TEXT
  8
_0-5_寸法線
 62
    7
 10
266.33347726338468
 20
614.55510216230221
 40
15
 41
0.8000000000000001
 50
0
  1
取　外　具
  0
LINE
  8
_0-1_計細線
  6
CONTINUOUS
 62
    3
 10
436.686320754718
 20
440.26981132075468
 11
489.68632075471794
 21
440.26981132075468
  0
LINE
  8
_0-1_計細線
  6
CONTINUOUS
 62
    3
 10
489.68632075471794
 20
444.96981132075456
 11
436.686320754718
 21
444.96981132075456
  0
LINE
  8
_0-1_計細線
  6
CONTINUOUS
 62
    3
 10
436.686320754718
 20
444.96981132075456
 11
436.686320754718
 21
440.26981132075468
  0
LINE
  8
_0-1_計細線
  6
CONTINUOUS
 62
    3
 10
479.68632075471794
 20
444.96981132075456
 11
479.68632075471794
 21
440.26981132075468
  0
LINE
  8
_0-1_計細線
  6
CONTINUOUS
 62
    3
 10
487.686320754718
 20
444.96981132075456
 11
487.686320754718
 21
440.26981132075468
  0
LINE
  8
_0-1_計細線
  6
CONTINUOUS
 62
    3
 10
489.68632075471794
 20
444.96981132075456
 11
489.68632075471794
 21
440.26981132075468
  0
LINE
  8
_0-1_計細線
  6
CONTINUOUS
 62
    3
 10
485.68632075471794
 20
444.96981132075456
 11
485.68632075471794
 21
440.26981132075468
  0
LINE
  8
_0-1_計細線
  6
CONTINUOUS
 62
    3
 10
483.68632075471794
 20
444.96981132075456
 11
483.68632075471794
 21
440.26981132075468
  0
LINE
  8
_0-1_計細線
  6
CONTINUOUS
 62
    3
 10
481.686320754718
 20
444.96981132075456
 11
481.686320754718
 21
440.26981132075468
  0
LINE
  8
_0-5_寸法線
  6
CONTINUOUS
 62
    7
 10
576.68632075471794
 20
395.52862359982839
 11
583.75738856658347
 21
402.59969141169393
  0
LINE
  8
_0-5_寸法線
  6
CONTINUOUS
 62
    7
 10
576.68632075471794
 20
395.52862359982839
 11
586.34557901760877
 21
398.11681405085358
  0
LINE
  8
_0-5_寸法線
  6
CONTINUOUS
 62
    7
 10
576.68632075471794
 20
395.52862359982839
 11
618.08632075471803
 21
419.43092474427897
  0
LINE
  8
_0-5_寸法線
  6
CONTINUOUS
 62
    7
 10
618.08632075471803
 20
419.43092474427897
 11
726.08632075471803
 21
419.43092474427897
  0
TEXT
  8
_0-5_寸法線
 62
    7
 10
618.08632075471803
 20
419.43092474427897
 40
15
 41
0.8000000000000001
 50
0
  1
ＳＵＳアングル受枠
  0
LINE
  8
_0-5_寸法線
  6
CONTINUOUS
 62
    7
 10
538.20586915429237
 20
468.12236655874472
 11
545.2769369661579
 21
475.19343437061025
  0
LINE
  8
_0-5_寸法線
  6
CONTINUOUS
 62
    7
 10
538.20586915429237
 20
468.12236655874472
 11
547.86512741718309
 21
470.7105570097699
  0
LINE
  8
_0-5_寸法線
  6
CONTINUOUS
 62
    7
 10
538.20586915429237
 20
468.12236655874472
 11
618.08632075471803
 21
514.24136679323942
  0
LINE
  8
_0-5_寸法線
  6
CONTINUOUS
 62
    7
 10
618.08632075471803
 20
514.24136679323942
 11
750.08632075471814
 21
514.24136679323942
  0
TEXT
  8
_0-5_寸法線
 62
    7
 10
618.08632075471803
 20
514.24136679323942
 40
15
 41
0.8000000000000001
 50
0
  1
セーフティグレーチング
  0
TEXT
  8
_0-5_寸法線
 62
    7
 10
621.60091154219833
 20
496.76230156146283
 40
15
 41
0.8000000000000001
 50
0
  1
補強仕様
  0
TEXT
  8
_0-5_寸法線
 62
    7
 10
618.08632075471803
 20
404.43092474427897
 40
15
 41
0.8000000000000001
 50
0
  1
ＧＳＬ－２５
  0
LINE
  8
_0-5_寸法線
  6
CONTINUOUS
 62
    7
 10
1128.6748434144295
 20
701.29582880040789
 11
1128.6748434144295
 21
746.29604780141494
  0
LINE
  8
_0-5_寸法線
  6
CONTINUOUS
 62
    7
 10
1128.6748434144295
 20
741.29604780141494
 11
1138.3341016773202
 21
743.88423825244001
  0
LINE
  8
_0-5_寸法線
  6
CONTINUOUS
 62
    7
 10
1128.6748434144295
 20
741.29604780141494
 11
1138.3341016773202
 21
738.70785735038965
  0
LINE
  8
_0-5_寸法線
  6
CONTINUOUS
 62
    7
 10
1145.6748434147912
 20
701.29582880040789
 11
1145.6748434147912
 21
746.29604780141494
  0
LINE
  8
_0-5_寸法線
  6
CONTINUOUS
 62
    7
 10
1145.6748434147912
 20
741.29604780141494
 11
1136.0155851519005
 21
738.70785735038965
  0
LINE
  8
_0-5_寸法線
  6
CONTINUOUS
 62
    7
 10
1145.6748434147912
 20
741.29604780141494
 11
1136.0155851519005
 21
743.88423825244001
  0
LINE
  8
_0-5_寸法線
  6
CONTINUOUS
 62
    7
 10
1128.6748434144295
 20
741.29604780141494
 11
1145.6748434147912
 21
741.29604780141494
  0
TEXT
  8
_0-5_寸法線
 62
    7
 10
1121.0188661220054
 20
726.29604780141494
 40
15
 41
1
 50
0
  1
(17)
  0
LINE
  8
_0-5_寸法線
  6
CONTINUOUS
 62
    7
 10
1145.6748434147912
 20
741.29604780141494
 11
1155.3341016776819
 21
743.88423825244001
  0
LINE
  8
_0-5_寸法線
  6
CONTINUOUS
 62
    7
 10
1145.6748434147912
 20
741.29604780141494
 11
1155.3341016776819
 21
738.70785735038953
  0
LINE
  8
_0-5_寸法線
  6
CONTINUOUS
 62
    7
 10
1162.6748434151532
 20
701.29582880040789
 11
1162.6748434151532
 21
746.29604780141494
  0
LINE
  8
_0-5_寸法線
  6
CONTINUOUS
 62
    7
 10
1162.6748434151532
 20
741.29604780141494
 11
1153.0155851522625
 21
738.70785735038965
  0
LINE
  8
_0-5_寸法線
  6
CONTINUOUS
 62
    7
 10
1162.6748434151532
 20
741.29604780141494
 11
1153.0155851522625
 21
743.88423825244001
  0
LINE
  8
_0-5_寸法線
  6
CONTINUOUS
 62
    7
 10
1145.6748434147912
 20
741.29604780141494
 11
1162.6748434151532
 21
741.29604780141494
  0
TEXT
  8
_0-5_寸法線
 62
    7
 10
1140.0855327884308
 20
741.29604780141494
 40
15
 41
1
 50
0
  1
(17)
  0
LINE
  8
_0-5_寸法線
  6
CONTINUOUS
 62
    7
 10
1049.3748434115171
 20
699.29582880040789
 11
1049.3748434115171
 21
746.29604780141494
  0
LINE
  8
_0-5_寸法線
  6
CONTINUOUS
 62
    7
 10
1049.3748434115171
 20
741.29604780141494
 11
1039.7155851486264
 21
738.70785735038965
  0
LINE
  8
_0-5_寸法線
  6
CONTINUOUS
 62
    7
 10
1049.3748434115171
 20
741.29604780141494
 11
1039.7155851486264
 21
743.88423825244001
  0
LINE
  8
_0-5_寸法線
  6
CONTINUOUS
 62
    7
 10
1054.9748434140861
 20
699.29582880040789
 11
1054.9748434140861
 21
746.29604780141494
  0
LINE
  8
_0-5_寸法線
  6
CONTINUOUS
 62
    7
 10
1010.0008877283503
 20
741.29604780141494
 11
1054.9748434140861
 21
741.29604780141494
  0
TEXT
  8
_0-5_寸法線
 62
    7
 10
1010.0008877283501
 20
726.29604780141494
 40
15
 41
1
 50
0
  1
(5.6)
  0
LINE
  8
_0-5_寸法線
  6
CONTINUOUS
 62
    7
 10
1054.9748434140861
 20
741.29604780141494
 11
1064.6341016769768
 21
743.88423825244001
  0
LINE
  8
_0-5_寸法線
  6
CONTINUOUS
 62
    7
 10
1054.9748434140861
 20
741.29604780141494
 11
1064.6341016769768
 21
738.70785735038965
  0
LINE
  8
_0-5_寸法線
  6
CONTINUOUS
 62
    7
 10
1066.3748434118788
 20
699.29582880040789
 11
1066.3748434118788
 21
746.29604780141494
  0
LINE
  8
_0-5_寸法線
  6
CONTINUOUS
 62
    7
 10
1066.3748434118788
 20
741.29604780141494
 11
1056.7155851489881
 21
738.70785735038965
  0
LINE
  8
_0-5_寸法線
  6
CONTINUOUS
 62
    7
 10
1066.3748434118788
 20
741.29604780141494
 11
1056.7155851489881
 21
743.88423825244001
  0
LINE
  8
_0-5_寸法線
  6
CONTINUOUS
 62
    7
 10
1054.9748434140861
 20
741.29604780141494
 11
1066.3748434118788
 21
741.29604780141494
  0
TEXT
  8
_0-5_寸法線
 62
    7
 10
1041.9101469866325
 20
741.29604780141494
 40
15
 41
1
 50
0
  1
11.4
  0
LINE
  8
_0-5_寸法線
  6
CONTINUOUS
 62
    7
 10
1086.483010450904
 20
672.03181216492521
 11
1067.0371317262616
 21
685.64796303503203
  0
LINE
  8
_0-5_寸法線
  6
CONTINUOUS
 62
    7
 10
1071.1328919477064
 20
682.78008085327667
 11
1068.5447014966812
 21
692.43933911616739
  0
LINE
  8
_0-5_寸法線
  6
CONTINUOUS
 62
    7
 10
1071.1328919477064
 20
682.78008085327667
 11
1073.7210823987316
 21
692.43933911616739
  0
LINE
  8
_0-5_寸法線
  6
CONTINUOUS
 62
    7
 10
1086.483010450904
 20
697.03181216492544
 11
1067.0371317262614
 21
710.64796303503181
  0
LINE
  8
_0-5_寸法線
  6
CONTINUOUS
 62
    7
 10
1071.1328919477064
 20
707.78008085327656
 11
1073.7210823987316
 21
698.12082259038584
  0
LINE
  8
_0-5_寸法線
  6
CONTINUOUS
 62
    7
 10
1071.1328919477064
 20
707.78008085327656
 11
1068.5447014966812
 21
698.12082259038584
  0
LINE
  8
_0-5_寸法線
  6
CONTINUOUS
 62
    7
 10
1071.1328919477064
 20
682.78008085327667
 11
1071.1328919477064
 21
707.78008085327656
  0
TEXT
  8
_0-5_寸法線
 62
    7
 10
1071.1328919477064
 20
687.78008085327644
 40
15
 41
1
 50
90
  1
25
  0
TEXT
  8
_0-5_寸法線
 62
    7
 10
266.6374271074514
 20
599.55510216230221
 40
15
 41
0.8000000000000001
 50
0
  1
(標準付属)
  0
TEXT
  8
_0-7_枠細線
 62
    5
 10
1180
 20
892.5
 40
12.5
 41
0.7199999999999999
 50
0
  1
２０２０．１０．０１
  0
TEXT
  8
_0-7_枠細線
 62
    5
 10
938.85037037037023
 20
910
 40
12.5
 41
1
 50
0
  1
クロスバーピッチ変更
  0
TEXT
  8
_0-7_枠細線
 62
    5
 10
938.85037037037023
 20
892.5
 40
12.5
 41
1
 50
0
  1
取外具形状変更
  0
TEXT
  8
_0-7_枠細線
 62
    5
 10
394.95168160885839
 20
615.11552046136956
 40
12.5
 41
0.8
 50
0
  1
２
  0
TEXT
  8
_0-7_枠細線
 62
    5
 10
267.70850667767752
 20
632.26085722577989
 40
12.5
 41
0.8
 50
0
  1
３
  0
ENDSEC
  0
EOF
