  0
SECTION
  2
HEADER
  9
$ACADVER
  1
AC1009
  9
$INSBASE
 10
0
 20
0
 30
0
  9
$EXTMIN
 10
0
 20
0
  9
$EXTMAX
 10
1485
 20
1050
  9
$LIMMIN
 10
0
 20
0
  9
$LIMMAX
 10
1485
 20
1050
  9
$LTSCALE
 40
5
  0
ENDSEC
  0
SECTION
  2
TABLES
  0
TABLE
  2
LTYPE
 70
     9
  0
LTYPE
  2
CONTINUOUS
 70
    64
  3
実線
 72
    65
 73
     0
 40
0.0
  0
LTYPE
  2
DASHED1
 70
    64
  3
--  --  --  --  --  --  --  --  
 72
    65
 73
     2
 40
2.5
 49
1.25
 49
-1.25
  0
LTYPE
  2
DASHED2
 70
    64
  3
----    ----    ----    ----    
 72
    65
 73
     2
 40
5.0
 49
2.5
 49
-2.5
  0
LTYPE
  2
DASHED3
 70
    64
  3
------  ------  ------  ------  
 72
    65
 73
     2
 40
5.0
 49
3.75
 49
-1.25
  0
LTYPE
  2
CENTER1
 70
    64
  3
----- - ----- - ----- - ----- - 
 72
    65
 73
     4
 40
10.0
 49
6.25
 49
-1.25
 49
1.25
 49
-1.25
  0
LTYPE
  2
CENTER2
 70
    64
  3
----------  --  ----------  --  
 72
    65
 73
     4
 40
20.0
 49
12.5
 49
-2.5
 49
2.5
 49
-2.5
  0
LTYPE
  2
PHANTOM1
 70
    64
  3
--- - - --- - - --- - - --- - - 
 72
    65
 73
     6
 40
10.0
 49
3.25
 49
-1.25
 49
1.25
 49
-1.25
 49
1.25
 49
-1.25
  0
LTYPE
  2
PHANTOM2
 70
    64
  3
--------  -  -  --------  -  -  
 72
    65
 73
     6
 40
20.0
 49
10.0
 49
-2.5
 49
1.25
 49
-2.5
 49
1.25
 49
-2.5
  0
LTYPE
  2
DOT
 70
    64
  3
-   -   -   -   -   -   -   -   
 72
    65
 73
     2
 40
2.5
 49
0.625
 49
-1.875
  0
LTYPE
  2
DUMMY
 70
    64
  3
ダミー
 72
    65
 73
     0
 40
0.0
  0
LTYPE
  2
RAND1
 70
    64
  3
ランダム線1
 72
    65
 73
     4
 40
10.0
 49
1.0
 49
-2.0
 49
3.0
 49
-4.0
  0
LTYPE
  2
RAND2
 70
    64
  3
ランダム線2
 72
    65
 73
     4
 40
14.0
 49
2.0
 49
-3.0
 49
4.0
 49
-5.0
  0
LTYPE
  2
RAND3
 70
    64
  3
ランダム線3
 72
    65
 73
     4
 40
18.0
 49
3.0
 49
-4.0
 49
5.0
 49
-6.0
  0
LTYPE
  2
RAND4
 70
    64
  3
ランダム線4
 72
    65
 73
     4
 40
22.0
 49
4.0
 49
-5.0
 49
6.0
 49
-7.0
  0
LTYPE
  2
RAND5
 70
    64
  3
ランダム線5
 72
    65
 73
     4
 40
26.0
 49
5.0
 49
-6.0
 49
7.0
 49
-8.0
  0
LTYPE
  2
LONG1
 70
    64
  3
----------  --  ----------  --  
 72
    65
 73
     4
 40
40.0
 49
32.5
 49
-2.5
 49
2.5
 49
-2.5
  0
LTYPE
  2
LONG2
 70
    64
  3
--------  -  -  --------  -  -  
 72
    65
 73
     6
 40
40.0
 49
30.0
 49
-2.5
 49
1.25
 49
-2.5
 49
1.25
 49
-2.5
  0
LTYPE
  2
LONG3
 70
    64
  3
+++++++++++++++..+++++++++++++++
 72
    65
 73
     2
 40
40.0
 49
37.5
 49
-2.5
  0
LTYPE
  2
LONG4
 70
    64
  3
+++++++++++++++..+++++++++++++++
 72
    65
 73
     2
 40
80.0
 49
75.0
 49
-5.0
  0
LTYPE
  2
LONG5
 70
    64
  3
----------  --  ----------  --  
 72
    65
 73
     4
 40
60.0
 49
37.5
 49
-7.5
 49
7.5
 49
-7.5
  0
LTYPE
  2
dashed
 70
   64
  3
-------   -------------   ------
 72
   65
 73
    2
 40
7.5
 49
6
 49
-1.5
  0
LTYPE
  2
dashed_spaced
 70
   64
  3
----        --------        ----
 72
   65
 73
    2
 40
12
 49
6
 49
-6
  0
LTYPE
  2
long_dashed_dotted
 70
   64
  3
------------- --- --------------
 72
   65
 73
    4
 40
15.25
 49
12
 49
-1.5
 49
0.25
 49
-1.5
  0
LTYPE
  2
long_dashed_double-dotted
 70
   64
  3
----------- --- --- ------------
 72
   65
 73
    6
 40
17
 49
12
 49
-1.5
 49
0.25
 49
-1.5
 49
0.25
 49
-1.5
  0
LTYPE
  2
long_dashed_triplicate-dotted
 70
   64
  3
--------- --- --- --- ----------
 72
   65
 73
    8
 40
18.75
 49
12
 49
-1.5
 49
0.25
 49
-1.5
 49
0.25
 49
-1.5
 49
0.25
 49
-1.5
  0
LTYPE
  2
dotted
 70
   64
  3
   -       -       -       -    
 72
   65
 73
    2
 40
1.75
 49
0.25
 49
-1.5
  0
LTYPE
  2
chain
 70
   64
  3
-------------- -- --------------
 72
   65
 73
    4
 40
18.5
 49
12
 49
-1.5
 49
3.5
 49
-1.5
  0
LTYPE
  2
chain_double_dash
 70
   64
  3
------------ -- -- -------------
 72
   65
 73
    6
 40
23.5
 49
12
 49
-1.5
 49
3.5
 49
-1.5
 49
3.5
 49
-1.5
  0
LTYPE
  2
dashed_dotted
 70
   64
  3
-----------     -     ----------
 72
   65
 73
    4
 40
9.25
 49
6
 49
-1.5
 49
0.25
 49
-1.5
  0
LTYPE
  2
double-dashed_dotted
 70
   64
  3
------   -----------   -   -----
 72
   65
 73
    6
 40
16.75
 49
6
 49
-1.5
 49
6
 49
-1.5
 49
0.25
 49
-1.5
  0
LTYPE
  2
dashed_double-dotted
 70
   64
  3
---------    -    -    ---------
 72
   65
 73
    6
 40
11
 49
6
 49
-1.5
 49
0.25
 49
-1.5
 49
0.25
 49
-1.5
  0
LTYPE
  2
double-dashed_double-dotted
 70
   64
  3
-----   ---------   -   -   ----
 72
   65
 73
    8
 40
18.5
 49
6
 49
-1.5
 49
6
 49
-1.5
 49
0.25
 49
-1.5
 49
0.25
 49
-1.5
  0
LTYPE
  2
dashed_triplicate-dotted
 70
   64
  3
-------    -    -    -    ------
 72
   65
 73
    8
 40
12.75
 49
6
 49
-1.5
 49
0.25
 49
-1.5
 49
0.25
 49
-1.5
 49
0.25
 49
-1.5
  0
LTYPE
  2
double-dashed_triplicate-dotted
 70
   64
  3
-----  ---------  -  -  -  -----
 72
   65
 73
   10
 40
20.25
 49
6
 49
-1.5
 49
6
 49
-1.5
 49
0.25
 49
-1.5
 49
0.25
 49
-1.5
 49
0.25
 49
-1.5
  0
LTYPE
  2
undefined
 70
   64
  3
--------------------------------
 72
   65
 73
    0
 40
0
  0
ENDTAB
  0
TABLE
  2
STYLE
  5
3
100
AcDbSymbolTable
 70
     1
  0
STYLE
  5
10
100
AcDbSymbolTableRecord
100
AcDbTextStyleTableRecord
  2
STANDARD
 70
     0
 40
0.0
 41
1.0
 50
0.0
 71
     0
 42
0.2
  3
txt
  4
bigfont.shx
  0
STYLE
  5
26
100
AcDbSymbolTableRecord
100
AcDbTextStyleTableRecord
  2
TATEGAKI
 70
    68
 40
0.0
 41
1.0
 50
0.0
 71
     0
 42
1.0
  3
txt
  4
bigfont.shx
  0
ENDTAB
  0
TABLE
  2
LAYER
 70
    7
  0
LAYER
  2
_0-0_計極細
 70
   64
 62
    7
  6
CONTINUOUS
  0
LAYER
  2
_0-1_計細線
 70
   64
 62
    7
  6
CONTINUOUS
  0
LAYER
  2
_0-5_寸法線
 70
   64
 62
    7
  6
CONTINUOUS
  0
LAYER
  2
_0-7_枠細線
 70
   64
 62
    7
  6
CONTINUOUS
  0
LAYER
  2
_0-8_枠中線
 70
   64
 62
    7
  6
CONTINUOUS
  0
LAYER
  2
_0-9_枠極太
 70
   64
 62
    7
  6
CONTINUOUS
  0
LAYER
  2
ADD_LINE
 70
   64
 62
    7
  6
CONTINUOUS
  0
ENDTAB
  0
ENDSEC
  0
SECTION
  2
BLOCKS
  0
ENDSEC
  0
SECTION
  2
ENTITIES
  0
LINE
  8
_0-7_枠細線
  6
CONTINUOUS
 62
    5
 10
1185
 20
180
 11
1185
 21
100
  0
TEXT
  8
_0-7_枠細線
 62
    5
 10
937.5
 20
97.5
 40
17.5
 41
1
 50
0
  1
備考
  7
TATEGAKI
  0
TEXT
  8
_0-7_枠細線
 62
    5
 10
937.5
 20
137.5
 40
17.5
 41
1
 50
0
  1
品番
  7
TATEGAKI
  0
TEXT
  8
_0-7_枠細線
 62
    5
 10
937.5
 20
177.5
 40
17.5
 41
1
 50
0
  1
品名
  7
TATEGAKI
  0
LINE
  8
_0-7_枠細線
  6
CONTINUOUS
 62
    5
 10
1185
 20
140
 11
925
 21
140
  0
LINE
  8
_0-7_枠細線
  6
CONTINUOUS
 62
    5
 10
950
 20
180
 11
950
 21
60
  0
LINE
  8
_0-8_枠中線
  6
CONTINUOUS
 62
    5
 10
1425
 20
180
 11
925
 21
180
  0
LINE
  8
_0-8_枠中線
  6
CONTINUOUS
 62
    5
 10
925
 20
180
 11
925
 21
60
  0
LINE
  8
_0-7_枠細線
  6
CONTINUOUS
 62
    5
 10
1245
 20
180
 11
1245
 21
60
  0
TEXT
  8
_0-7_枠細線
 62
    5
 10
1192.5
 20
160
 40
15
 41
1
 50
0
  1
縮　尺
  0
LINE
  8
_0-7_枠細線
  6
CONTINUOUS
 62
    5
 10
1185
 20
155
 11
1245
 21
155
  0
LINE
  8
_0-7_枠細線
  6
CONTINUOUS
 62
    5
 10
1245
 20
100
 11
925
 21
100
  0
LINE
  8
_0-7_枠細線
  6
CONTINUOUS
 62
    5
 10
1425
 20
90
 11
1245
 21
90
  0
LINE
  8
_0-7_枠細線
  6
CONTINUOUS
 62
    5
 10
1245
 20
120
 11
1425
 21
120
  0
LINE
  8
_0-7_枠細線
  6
CONTINUOUS
 62
    5
 10
1425
 20
140
 11
1245
 21
140
  0
TEXT
  8
_0-7_枠細線
 62
    5
 10
1255
 20
147.5
 40
25
 41
0.8
 50
0
  1
株式会社シマブン
  0
TEXT
  8
_0-7_枠細線
 62
    5
 10
1252.5
 20
60
 40
15
 41
1
 50
0
  1
年月日
  0
TEXT
  8
_0-7_枠細線
 62
    5
 10
1252.5
 20
75
 40
15
 41
1
 50
0
  1
作　成
  0
TEXT
  8
_0-7_枠細線
 62
    5
 10
1256.25
 20
122.5
 40
15
 41
1
 50
0
  1
承 認
  0
LINE
  8
_0-7_枠細線
  6
CONTINUOUS
 62
    5
 10
1305
 20
140
 11
1305
 21
60
  0
TEXT
  8
_0-7_枠細線
 62
    5
 10
1316.25
 20
122.5
 40
15
 41
1
 50
0
  1
検 図
  0
LINE
  8
_0-7_枠細線
  6
CONTINUOUS
 62
    5
 10
1365
 20
140
 11
1365
 21
90
  0
TEXT
  8
_0-7_枠細線
 62
    5
 10
1375
 20
95
 40
20
 41
1
 50
0
  1
藤戸
  0
TEXT
  8
_0-7_枠細線
 62
    5
 10
1376.25
 20
122.5
 40
15
 41
1
 50
0
  1
設 計
  0
TEXT
  8
_0-7_枠細線
 62
    5
 10
960.50000000000011
 20
158.74999999999994
 40
20.000000000000007
 41
0.5999999999999998
 50
0
  1
セーフティグレーチングＨ２５タイプ
  0
TEXT
  8
_0-7_枠細線
 62
    5
 10
1068.5
 20
141.25
 40
20.000000000000007
 41
0.5999999999999998
 50
0
  1
集水マス　補強仕様
  0
TEXT
  8
_0-7_枠細線
 62
    5
 10
960.50000000000011
 20
69.999999999999858
 40
20
 41
0.5999999999999998
 50
0
  1
色については表参照のこと
  0
TEXT
  8
_0-7_枠細線
 62
    5
 10
960.50000000000011
 20
109.99999999999993
 40
20.000000000000007
 41
0.5999999999999998
 50
0
  1
ＧＲＳＫ－２５Ｋ４５０
  0
TEXT
  8
_0-7_枠細線
 62
    5
 10
961.00000000000023
 20
453.73352999148563
 40
15.000000000000004
 41
0.8
 50
0
  1
品　　番
  0
LINE
  8
_0-7_枠細線
  6
CONTINUOUS
 62
    5
 10
925
 20
398.7335299914858
 11
1245.0000000000002
 21
398.7335299914858
  0
LINE
  8
_0-7_枠細線
  6
CONTINUOUS
 62
    5
 10
925
 20
423.7335299914858
 11
1245.0000000000002
 21
423.7335299914858
  0
LINE
  8
_0-7_枠細線
  6
CONTINUOUS
 62
    5
 10
925
 20
448.73352999148563
 11
1245.0000000000002
 21
448.73352999148563
  0
TEXT
  8
_0-7_枠細線
 62
    5
 10
1089.0000000000005
 20
453.73352999148563
 40
15.000000000000004
 41
0.8
 50
0
  1
色
  0
TEXT
  8
_0-7_枠細線
 62
    5
 10
1171.0000000000005
 20
453.73352999148563
 40
15.000000000000004
 41
0.8
 50
0
  1
備　　考
  0
LINE
  8
_0-7_枠細線
  6
CONTINUOUS
 62
    5
 10
925
 20
473.73352999148563
 11
1245.0000000000002
 21
473.73352999148563
  0
LINE
  8
_0-7_枠細線
  6
CONTINUOUS
 62
    5
 10
925
 20
248.73352999148565
 11
1245.0000000000002
 21
248.73352999148565
  0
LINE
  8
_0-7_枠細線
  6
CONTINUOUS
 62
    5
 10
925
 20
373.73352999148563
 11
1245.0000000000002
 21
373.73352999148563
  0
LINE
  8
_0-7_枠細線
  6
CONTINUOUS
 62
    5
 10
925
 20
348.73352999148563
 11
1245.0000000000002
 21
348.73352999148563
  0
LINE
  8
_0-7_枠細線
  6
CONTINUOUS
 62
    5
 10
925
 20
323.73352999148563
 11
1245.0000000000002
 21
323.73352999148563
  0
LINE
  8
_0-7_枠細線
  6
CONTINUOUS
 62
    5
 10
925
 20
298.73352999148563
 11
1245.0000000000002
 21
298.73352999148563
  0
LINE
  8
_0-7_枠細線
  6
CONTINUOUS
 62
    5
 10
925
 20
273.73352999148563
 11
1245.0000000000002
 21
273.73352999148563
  0
TEXT
  8
_0-7_枠細線
 62
    5
 10
1023.75
 20
478.73352999148563
 40
17.500000000000004
 41
1
 50
0
  1
品番表
  0
LINE
  8
_0-7_枠細線
  6
CONTINUOUS
 62
    5
 10
925
 20
223.73352999148565
 11
1245.0000000000002
 21
223.73352999148565
  0
LINE
  8
_0-7_枠細線
  6
CONTINUOUS
 62
    5
 10
1245.0000000000002
 20
473.73352999148563
 11
1245.0000000000002
 21
223.73352999148565
  0
LINE
  8
_0-7_枠細線
  6
CONTINUOUS
 62
    5
 10
1145
 20
473.73352999148563
 11
1145
 21
223.73352999148565
  0
LINE
  8
_0-7_枠細線
  6
CONTINUOUS
 62
    5
 10
1045.0000000000005
 20
473.73352999148563
 11
1045.0000000000005
 21
223.73352999148565
  0
LINE
  8
_0-7_枠細線
  6
CONTINUOUS
 62
    5
 10
925
 20
473.73352999148563
 11
925
 21
223.73352999148565
  0
LINE
  8
_0-7_枠細線
  6
CONTINUOUS
 62
    5
 10
1290.7925839968264
 20
393.7335299914858
 11
1290.7925839968264
 21
473.73352999148563
  0
TEXT
  8
_0-7_枠細線
 62
    5
 10
1313.2925839968264
 20
451.23352999148563
 40
15.000000000000009
 41
1
 50
0
  1
耐荷重
  0
TEXT
  8
_0-7_枠細線
 62
    5
 10
1298.2925839968264
 20
401.2335299914858
 40
15.000000000000009
 41
1
 50
0
  1
（歩道用）
  0
LINE
  8
_0-7_枠細線
  6
CONTINUOUS
 62
    5
 10
1380.7925839968264
 20
393.7335299914858
 11
1380.7925839968264
 21
473.73352999148563
  0
LINE
  8
_0-7_枠細線
  6
CONTINUOUS
 62
    5
 10
1290.7925839968264
 20
473.73352999148563
 11
1380.7925839968264
 21
473.73352999148563
  0
LINE
  8
_0-7_枠細線
  6
CONTINUOUS
 62
    5
 10
1290.7925839968264
 20
443.7335299914858
 11
1380.7925839968264
 21
443.7335299914858
  0
LINE
  8
_0-7_枠細線
  6
CONTINUOUS
 62
    5
 10
1290.7925839968264
 20
393.7335299914858
 11
1380.7925839968264
 21
393.7335299914858
  0
TEXT
  8
_0-7_枠細線
 62
    5
 10
1305.7925839968264
 20
421.2335299914858
 40
15.000000000000009
 41
1
 50
0
  1
5.0kN/㎡
  0
TEXT
  8
_0-7_枠細線
 62
    5
 10
1255
 20
94.999999999999858
 40
20.000000000000004
 41
1
 50
0
  1
大野
  0
TEXT
  8
_0-7_枠細線
 62
    5
 10
1315
 20
94.999999999999858
 40
20.000000000000004
 41
1
 50
0
  1
深川
  0
TEXT
  8
_0-7_枠細線
 62
    5
 10
1309.9999999999998
 20
67.499999999999858
 40
15.000000000000009
 41
0.6666666666666667
 50
0
  1
２０１７年０４月０１日
  0
TEXT
  8
_0-7_枠細線
 62
    5
 10
929.75000000000045
 20
428.7335299914858
 40
15.000000000000004
 41
0.5666666666666666
 50
0
  1
ＧＲＳＫ－２５Ｋ４５０－Ｂ
  0
TEXT
  8
_0-7_枠細線
 62
    5
 10
929.75000000000045
 20
403.7335299914858
 40
15.000000000000004
 41
0.5666666666666666
 50
0
  1
ＧＲＳＫ－２５Ｋ４５０－Ｇ
  0
TEXT
  8
_0-7_枠細線
 62
    5
 10
929.75000000000045
 20
378.73352999148574
 40
15.000000000000004
 41
0.5666666666666666
 50
0
  1
ＧＲＳＫ－２５Ｋ４５０－Ｓ
  0
TEXT
  8
_0-7_枠細線
 62
    5
 10
929.75000000000045
 20
353.73352999148563
 40
15.000000000000004
 41
0.5666666666666666
 50
0
  1
ＧＲＳＫ－２５Ｋ４５０－Ｐ
  0
TEXT
  8
_0-7_枠細線
 62
    5
 10
929.75000000000045
 20
328.73352999148563
 40
15.000000000000004
 41
0.5666666666666666
 50
0
  1
ＧＲＳＫ－２５Ｋ４５０－Ａ
  0
TEXT
  8
_0-7_枠細線
 62
    5
 10
929.75000000000045
 20
303.73352999148563
 40
15.000000000000004
 41
0.5666666666666666
 50
0
  1
ＧＲＳＫ－２５Ｋ４５０－Ｄ
  0
TEXT
  8
_0-7_枠細線
 62
    5
 10
929.75000000000045
 20
278.73352999148563
 40
15.000000000000004
 41
0.5666666666666666
 50
0
  1
ＧＲＳＫ－２５Ｋ４５０－Ｍ
  0
TEXT
  8
_0-7_枠細線
 62
    5
 10
929.75000000000045
 20
253.73352999148565
 40
15.000000000000004
 41
0.5666666666666666
 50
0
  1
ＧＲＳＫ－２５Ｋ４５０－Ｃ
  0
TEXT
  8
_0-7_枠細線
 62
    5
 10
929.75000000000045
 20
228.73352999148565
 40
15.000000000000004
 41
0.5666666666666666
 50
0
  1
ＧＲＳＫ－２５Ｋ４５０－Ｋ
  0
LINE
  8
_0-9_枠極太
  6
CONTINUOUS
 62
    5
 10
60
 20
60
 11
60
 21
960
  0
LINE
  8
_0-9_枠極太
  6
CONTINUOUS
 62
    5
 10
60
 20
960
 11
1425
 21
960
  0
LINE
  8
_0-9_枠極太
  6
CONTINUOUS
 62
    5
 10
1425
 20
960
 11
1425
 21
60
  0
LINE
  8
_0-9_枠極太
  6
CONTINUOUS
 62
    5
 10
1425
 20
60
 11
60
 21
60
  0
LINE
  8
_0-0_計極細
  6
CENTER1
 62
    2
 10
1089.8648721625443
 20
661.58476911115258
 11
1089.8648721625443
 21
699.65476911115627
  0
LINE
  8
_0-1_計細線
  6
CONTINUOUS
 62
    3
 10
1092.2148721630967
 20
691.49628906122291
 11
1092.2148721630967
 21
671.49628906122246
  0
LINE
  8
_0-1_計細線
  6
CONTINUOUS
 62
    3
 10
1087.5148721630962
 20
671.49628906122246
 11
1087.5148721630962
 21
691.49628906122291
  0
LINE
  8
_0-1_計細線
  6
CONTINUOUS
 62
    3
 10
1092.2148721630967
 20
671.49628906122246
 11
1087.5148721630962
 21
671.49628906122246
  0
LINE
  8
_0-1_計細線
  6
CONTINUOUS
 62
    3
 10
1087.5148721630962
 20
691.49628906122291
 11
1092.2148721630967
 21
691.49628906122291
  0
LINE
  8
_0-1_計細線
  6
DASHED2
 62
    3
 10
1087.5148721630962
 20
674.49628906122246
 11
1092.2148721630967
 21
674.49628906122246
  0
LINE
  8
_0-1_計細線
  6
DASHED2
 62
    3
 10
1087.5148721630962
 20
688.4962890612228
 11
1092.2148721630967
 21
688.4962890612228
  0
LINE
  8
_0-0_計極細
  6
CONTINUOUS
 62
    2
 10
859.86487216254432
 20
691.29626680242279
 11
801.35822387547546
 21
691.29626680242279
  0
CIRCLE
  8
_0-0_計極細
  6
CONTINUOUS
 62
    2
 10
841.97279361841299
 20
679.53090564501042
 40
1.0953188836088352
  0
LINE
  8
_0-0_計極細
  6
CONTINUOUS
 62
    2
 10
849.56368035596586
 20
684.29626679874627
 11
854.86487216254432
 21
689.59745860532462
  0
LINE
  8
_0-0_計極細
  6
CONTINUOUS
 62
    2
 10
836.83575828578137
 20
684.29626678991963
 11
843.83575829828476
 21
691.29626680242256
  0
LINE
  8
_0-0_計極細
  6
CONTINUOUS
 62
    2
 10
824.10783621559654
 20
684.29626678109275
 11
831.10783623692657
 21
691.29626680242279
  0
LINE
  8
_0-0_計極細
  6
CONTINUOUS
 62
    2
 10
811.37991414541216
 20
684.29626677226577
 11
818.37991417556873
 21
691.29626680242279
  0
LINE
  8
_0-0_計極細
  6
CONTINUOUS
 62
    2
 10
801.35822387547546
 20
687.00249856368725
 11
805.651992114211
 21
691.29626680242256
  0
LINE
  8
_0-0_計極細
  6
DASHED2
 62
    2
 10
843.19971932087378
 20
684.29626679433272
 11
850.19971932896385
 21
691.29626680242279
  0
LINE
  8
_0-0_計極細
  6
DASHED2
 62
    2
 10
830.47179725068895
 20
684.29626678550608
 11
837.47179726760567
 21
691.29626680242279
  0
LINE
  8
_0-0_計極細
  6
DASHED2
 62
    2
 10
817.74387518050457
 20
684.29626677667943
 11
824.74387520624748
 21
691.29626680242279
  0
LINE
  8
_0-0_計極細
  6
DASHED2
 62
    2
 10
805.01595311031929
 20
684.29626676785279
 11
812.01595314488964
 21
691.29626680242279
  0
LINE
  8
_0-0_計極細
  6
CONTINUOUS
 62
    2
 10
859.74601800872847
 20
684.29626680242268
 11
859.86487216254432
 21
684.41512095623818
  0
LINE
  8
_0-0_計極細
  6
CONTINUOUS
 62
    2
 10
857.20043359645729
 20
684.29626680242268
 11
859.86487216254432
 21
686.96070536850937
  0
LINE
  8
_0-0_計極細
  6
CONTINUOUS
 62
    2
 10
854.86487216254432
 20
684.50628978078112
 11
859.86487216254432
 21
689.50628978078112
  0
LINE
  8
_0-0_計極細
  6
CONTINUOUS
 62
    2
 10
854.86487216254432
 20
687.05187419305287
 11
859.10926477191413
 21
691.29626680242279
  0
LINE
  8
_0-0_計極細
  6
CONTINUOUS
 62
    2
 10
854.86487216254432
 20
689.59745860532462
 11
856.56368035964249
 21
691.29626680242279
  0
LINE
  8
_0-0_計極細
  6
CONTINUOUS
 62
    2
 10
859.86487216254432
 20
689.92768667906728
 11
858.49629203918937
 21
691.29626680242279
  0
LINE
  8
_0-0_計極細
  6
CONTINUOUS
 62
    2
 10
859.86487216254432
 20
687.38210226679587
 11
855.95070762691762
 21
691.29626680242279
  0
LINE
  8
_0-0_計極細
  6
CONTINUOUS
 62
    2
 10
854.86487216254432
 20
689.83651785452435
 11
859.86487216254432
 21
684.83651785452435
  0
LINE
  8
_0-0_計極細
  6
CONTINUOUS
 62
    2
 10
854.86487216254432
 20
687.29093344225259
 11
857.85953880237446
 21
684.29626680242268
  0
LINE
  8
_0-0_計極細
  6
CONTINUOUS
 62
    2
 10
854.86487216254432
 20
684.74534902998118
 11
855.31395439010282
 21
684.29626680242268
  0
LINE
  8
_0-0_計極細
  6
CONTINUOUS
 62
    2
 10
859.86487216254432
 20
690.79626680242245
 11
859.86487216254432
 21
691.29626680242279
  0
LINE
  8
_0-0_計極細
  6
CONTINUOUS
 62
    2
 10
859.86487216254432
 20
684.29626680242268
 11
801.35822387547546
 21
684.29626680242268
  0
LINE
  8
_0-0_計極細
  6
CONTINUOUS
 62
    2
 10
854.86487216254432
 20
691.29626680242279
 11
854.86487216254432
 21
684.29626680242268
  0
CIRCLE
  8
_0-0_計極細
  6
CONTINUOUS
 62
    2
 10
833.27501584063498
 20
681.20497971908503
 40
0.3318518518518431
  0
CIRCLE
  8
_0-0_計極細
  6
CONTINUOUS
 62
    2
 10
851.83501584063492
 20
682.27164638575186
 40
0.3318518518518431
  0
LINE
  8
_0-0_計極細
  6
CENTER1
 62
    2
 10
840.36487216254443
 20
613.33022263175064
 11
840.36487216254443
 21
647.31303571017759
  0
LINE
  8
_0-0_計極細
  6
CONTINUOUS
 62
    2
 10
835.86487216254443
 20
644.74760361141193
 11
835.86487216254443
 21
618.29626680242245
  0
LINE
  8
_0-0_計極細
  6
CONTINUOUS
 62
    2
 10
844.86487216254432
 20
644.74760361141193
 11
835.86487216254443
 21
644.74760361141193
  0
LINE
  8
_0-0_計極細
  6
CONTINUOUS
 62
    2
 10
844.86487216254432
 20
618.29626680242245
 11
844.86487216254432
 21
644.74760361141193
  0
LINE
  8
_0-0_計極細
  6
CENTER1
 62
    2
 10
829.16848055009211
 20
636.37172626944334
 11
867.58709283963185
 21
650.3549575604643
  0
LINE
  8
_0-0_計極細
  6
CONTINUOUS
 62
    2
 10
833.68083123025315
 20
633.22528749992443
 11
866.7554381244621
 21
645.26345991947221
  0
LINE
  8
_0-0_計極細
  6
CONTINUOUS
 62
    2
 10
830.60264994032218
 20
641.68252108699778
 11
863.67725683453068
 21
653.72069350654556
  0
LINE
  8
_0-0_計極細
  6
CONTINUOUS
 62
    2
 10
863.67725683453068
 20
653.72069350654556
 11
866.7554381244621
 21
645.26345991947221
  0
LINE
  8
_0-0_計極細
  6
CONTINUOUS
 62
    2
 10
833.68083123025315
 20
633.22528749992443
 11
830.60264994032218
 21
641.68252108699778
  0
CIRCLE
  8
_0-0_計極細
  6
CONTINUOUS
 62
    2
 10
878.51501584063215
 20
642.23757231167826
 40
1.0953188836088352
  0
CIRCLE
  8
_0-0_計極細
  6
CONTINUOUS
 62
    2
 10
885.9372380628572
 20
607.28467043251703
 40
0.3318518518518431
  0
CIRCLE
  8
_0-0_計極細
  6
CONTINUOUS
 62
    2
 10
885.13723806285668
 20
620.87831305241889
 40
0.3318518518518431
  0
CIRCLE
  8
_0-0_計極細
  6
CONTINUOUS
 62
    2
 10
885.73241167396714
 20
653.70423897834496
 40
1.0953188836088352
  0
LINE
  8
_0-0_計極細
  6
CONTINUOUS
 62
    2
 10
889.86487216254432
 20
663.29626680242245
 11
889.86487216254432
 21
602.55130662555541
  0
LINE
  8
_0-0_計極細
  6
CONTINUOUS
 62
    2
 10
889.36487216254432
 20
663.29626680242245
 11
889.86487216254432
 21
663.29626680242245
  0
CIRCLE
  8
_0-0_計極細
  6
CONTINUOUS
 62
    2
 10
806.17949629512646
 20
672.31757231167785
 40
1.0953188836088352
  0
CIRCLE
  8
_0-0_計極細
  6
CONTINUOUS
 62
    2
 10
878.8483491739679
 20
610.10423897834539
 40
1.0953188836088352
  0
CIRCLE
  8
_0-0_計極細
  6
CONTINUOUS
 62
    2
 10
875.96834917396814
 20
621.30423897834498
 40
1.0953188836088352
  0
CIRCLE
  8
_0-0_計極細
  6
CONTINUOUS
 62
    2
 10
854.38168250730109
 20
623.46423897834495
 40
1.0953188836088352
  0
CIRCLE
  8
_0-0_計極細
  6
CONTINUOUS
 62
    2
 10
822.46168250730193
 20
631.1442389783449
 40
1.0953188836088352
  0
CIRCLE
  8
_0-0_計極細
  6
CONTINUOUS
 62
    2
 10
834.22168250730124
 20
653.94423897834486
 40
1.0953188836088352
  0
CIRCLE
  8
_0-0_計極細
  6
CONTINUOUS
 62
    2
 10
847.66168250730175
 20
647.86423897834493
 40
1.0953188836088352
  0
CIRCLE
  8
_0-0_計極細
  6
CONTINUOUS
 62
    2
 10
818.29774401977397
 20
671.78200754316322
 40
1.0953188836088352
  0
CIRCLE
  8
_0-0_計極細
  6
CONTINUOUS
 62
    2
 10
849.35501584063547
 20
667.62423897834435
 40
1.0953188836088352
  0
CIRCLE
  8
_0-0_計極細
  6
CONTINUOUS
 62
    2
 10
861.52834917396854
 20
654.43386860797432
 40
0.3318518518518431
  0
CIRCLE
  8
_0-0_計極細
  6
CONTINUOUS
 62
    2
 10
882.67501584063461
 20
636.59386860797451
 40
0.3318518518518431
  0
CIRCLE
  8
_0-0_計極細
  6
CONTINUOUS
 62
    2
 10
882.35501584063456
 20
647.36720194130771
 40
0.3318518518518431
  0
CIRCLE
  8
_0-0_計極細
  6
CONTINUOUS
 62
    2
 10
873.28834917396784
 20
653.34053527464096
 40
0.3318518518518431
  0
CIRCLE
  8
_0-0_計極細
  6
CONTINUOUS
 62
    2
 10
864.43501584063483
 20
632.86053527464117
 40
0.3318518518518431
  0
CIRCLE
  8
_0-0_計極細
  6
CONTINUOUS
 62
    2
 10
874.43501584063483
 20
606.69164638575251
 40
0.3318518518518431
  0
CIRCLE
  8
_0-0_計極細
  6
CONTINUOUS
 62
    2
 10
878.5950158406348
 20
615.65164638575254
 40
0.3318518518518431
  0
CIRCLE
  8
_0-0_計極細
  6
CONTINUOUS
 62
    2
 10
870.38168250730109
 20
624.61164638575224
 40
0.3318518518518431
  0
CIRCLE
  8
_0-0_計極細
  6
CONTINUOUS
 62
    2
 10
862.59501584063514
 20
622.69164638575239
 40
0.3318518518518431
  0
CIRCLE
  8
_0-0_計極細
  6
CONTINUOUS
 62
    2
 10
850.64834917396854
 20
622.05164638575206
 40
0.3318518518518431
  0
CIRCLE
  8
_0-0_計極細
  6
CONTINUOUS
 62
    2
 10
852.78168250730175
 20
627.5983130524188
 40
0.3318518518518431
  0
CIRCLE
  8
_0-0_計極細
  6
CONTINUOUS
 62
    2
 10
849.04834917396806
 20
629.09164638575226
 40
0.3318518518518431
  0
CIRCLE
  8
_0-0_計極細
  6
CONTINUOUS
 62
    2
 10
855.76834917396832
 20
632.39831305241876
 40
0.3318518518518431
  0
CIRCLE
  8
_0-0_計極細
  6
CONTINUOUS
 62
    2
 10
832.1883491739685
 20
621.66497971908575
 40
0.3318518518518431
  0
CIRCLE
  8
_0-0_計極細
  6
CONTINUOUS
 62
    2
 10
828.45501584063481
 20
626.78497971908553
 40
0.3318518518518431
  0
CIRCLE
  8
_0-0_計極細
  6
CONTINUOUS
 62
    2
 10
823.22834917396847
 20
622.73164638575236
 40
0.3318518518518431
  0
CIRCLE
  8
_0-0_計極細
  6
CONTINUOUS
 62
    2
 10
826.64168250730188
 20
633.50497971908544
 40
0.3318518518518431
  0
CIRCLE
  8
_0-0_計極細
  6
CONTINUOUS
 62
    2
 10
851.3083491739684
 20
649.77164638575209
 40
0.3318518518518431
  0
CIRCLE
  8
_0-0_計極細
  6
CONTINUOUS
 62
    2
 10
834.88168250730212
 20
645.39831305241876
 40
0.3318518518518431
  0
CIRCLE
  8
_0-0_計極細
  6
CONTINUOUS
 62
    2
 10
843.73501584063456
 20
653.50497971908544
 40
0.3318518518518431
  0
CIRCLE
  8
_0-0_計極細
  6
CONTINUOUS
 62
    2
 10
851.3083491739684
 20
656.91831305241863
 40
0.3318518518518431
  0
CIRCLE
  8
_0-0_計極細
  6
CONTINUOUS
 62
    2
 10
836.26834917396832
 20
659.15831305241852
 40
0.3318518518518431
  0
CIRCLE
  8
_0-0_計極細
  6
CONTINUOUS
 62
    2
 10
824.00168250730189
 20
659.9049797190853
 40
0.3318518518518431
  0
CIRCLE
  8
_0-0_計極細
  6
CONTINUOUS
 62
    2
 10
840.31501584063551
 20
667.24497971908545
 40
0.3318518518518431
  0
CIRCLE
  8
_0-0_計極細
  6
CONTINUOUS
 62
    2
 10
855.24834917396788
 20
667.56497971908516
 40
0.3318518518518431
  0
CIRCLE
  8
_0-0_計極細
  6
CONTINUOUS
 62
    2
 10
836.90168250730153
 20
671.29831305241862
 40
0.3318518518518431
  0
CIRCLE
  8
_0-0_計極細
  6
CONTINUOUS
 62
    2
 10
819.83501584063549
 20
664.25831305241854
 40
0.3318518518518431
  0
CIRCLE
  8
_0-0_計極細
  6
CONTINUOUS
 62
    2
 10
812.26168250730211
 20
663.08497971908537
 40
0.3318518518518431
  0
CIRCLE
  8
_0-0_計極細
  6
CONTINUOUS
 62
    2
 10
805.8972380628577
 20
662.4449797190855
 40
0.3318518518518431
  0
CIRCLE
  8
_0-0_計極細
  6
CONTINUOUS
 62
    2
 10
812.09575658137624
 20
668.41831305241851
 40
0.3318518518518431
  0
LINE
  8
_0-0_計極細
  6
CONTINUOUS
 62
    2
 10
847.4116874235508
 20
602.55130669541711
 11
863.1566475305566
 21
618.29626680242245
  0
LINE
  8
_0-0_計極細
  6
CONTINUOUS
 62
    2
 10
804.98528068436588
 20
602.55130682742538
 11
820.7302406593634
 21
618.29626680242245
  0
LINE
  8
_0-0_計極細
  6
CONTINUOUS
 62
    2
 10
801.35822387547546
 20
641.3506568897277
 11
819.3038337881701
 21
659.29626680242279
  0
LINE
  8
_0-0_計極細
  6
CONTINUOUS
 62
    2
 10
843.16904674963212
 20
602.55130670861809
 11
858.91400684343648
 21
618.29626680242245
  0
LINE
  8
_0-0_計極細
  6
CONTINUOUS
 62
    2
 10
801.35822387547546
 20
603.16689070565428
 11
819.86487216254432
 21
621.67353899272325
  0
LINE
  8
_0-0_計極細
  6
CONTINUOUS
 62
    2
 10
801.35822387547546
 20
645.59329757684725
 11
815.061193101051
 21
659.29626680242279
  0
LINE
  8
_0-0_計極細
  6
CONTINUOUS
 62
    2
 10
838.92640607571354
 20
602.55130672181895
 11
854.67136615631739
 21
618.29626680242245
  0
LINE
  8
_0-0_計極細
  6
CONTINUOUS
 62
    2
 10
801.35822387547546
 20
607.40953139277372
 11
819.86487216254432
 21
625.91617967984246
  0
LINE
  8
_0-0_計極細
  6
CONTINUOUS
 62
    2
 10
801.35822387547546
 20
649.83593826396668
 11
810.81855241393157
 21
659.29626680242279
  0
LINE
  8
_0-0_計極細
  6
CONTINUOUS
 62
    2
 10
869.86487216254432
 20
618.29626680242245
 11
869.86487216254432
 21
602.55130662555541
  0
LINE
  8
_0-0_計極細
  6
CONTINUOUS
 62
    2
 10
819.86487216254432
 20
659.29626680242279
 11
801.35822387547546
 21
659.29626680242279
  0
LINE
  8
_0-0_計極細
  6
CONTINUOUS
 62
    2
 10
869.86487216254432
 20
618.29626680242245
 11
819.86487216254432
 21
618.29626680242245
  0
LINE
  8
_0-0_計極細
  6
CONTINUOUS
 62
    2
 10
819.86487216254432
 20
659.29626680242279
 11
819.86487216254432
 21
618.29626680242245
  0
ARC
  8
_0-1_計細線
  6
CONTINUOUS
 62
    3
 10
862.86487216254443
 20
666.29626680242256
 40
3.0000000000000004
 50
179.99999999999983
 51
269.99999999999977
  0
LINE
  8
_0-1_計細線
  6
CONTINUOUS
 62
    3
 10
859.86487216254432
 20
666.29626680242256
 11
859.86487216254432
 21
690.79626680242245
  0
LINE
  8
_0-1_計細線
  6
CONTINUOUS
 62
    3
 10
862.86487216254443
 20
663.29626680242245
 11
889.36487216254432
 21
663.29626680242245
  0
LINE
  8
_0-1_計細線
  6
CONTINUOUS
 62
    3
 10
889.86487216254432
 20
663.79626680242279
 11
889.36487216254432
 21
663.29626680242245
  0
LINE
  8
_0-1_計細線
  6
CONTINUOUS
 62
    3
 10
889.86487216254432
 20
665.79626680242268
 11
889.86487216254432
 21
663.79626680242279
  0
LINE
  8
_0-1_計細線
  6
CONTINUOUS
 62
    3
 10
889.36487216254432
 20
666.29626680242256
 11
889.86487216254432
 21
665.79626680242268
  0
LINE
  8
_0-1_計細線
  6
CONTINUOUS
 62
    3
 10
862.86487216254443
 20
666.29626680242256
 11
889.36487216254432
 21
666.29626680242256
  0
LINE
  8
_0-1_計細線
  6
CONTINUOUS
 62
    3
 10
860.36487216254443
 20
691.29626680242279
 11
859.86487216254432
 21
690.79626680242245
  0
LINE
  8
_0-1_計細線
  6
CONTINUOUS
 62
    3
 10
862.36487216254432
 20
691.29626680242279
 11
860.36487216254443
 21
691.29626680242279
  0
LINE
  8
_0-1_計細線
  6
CONTINUOUS
 62
    3
 10
862.86487216254443
 20
690.79626680242245
 11
862.36487216254432
 21
691.29626680242279
  0
LINE
  8
_0-1_計細線
  6
CONTINUOUS
 62
    3
 10
862.86487216254443
 20
666.29626680242256
 11
862.86487216254443
 21
690.79626680242245
  0
LINE
  8
_0-5_寸法線
  6
CONTINUOUS
 62
    7
 10
849.86487216254432
 20
691.29626680242256
 11
783.00596012550727
 21
691.29626680242256
  0
LINE
  8
_0-5_寸法線
  6
CONTINUOUS
 62
    7
 10
788.00596012550727
 20
691.29626680242256
 11
790.59415057653257
 21
681.63700853953173
  0
LINE
  8
_0-5_寸法線
  6
CONTINUOUS
 62
    7
 10
788.00596012550727
 20
691.29626680242256
 11
785.41776967448209
 21
681.63700853953173
  0
LINE
  8
_0-5_寸法線
  6
CONTINUOUS
 62
    7
 10
848.6648721625445
 20
663.29626680242245
 11
783.00596012550727
 21
663.29626680242245
  0
LINE
  8
_0-5_寸法線
  6
CONTINUOUS
 62
    7
 10
788.00596012550727
 20
663.29626680242245
 11
785.41776967448197
 21
672.95552506531317
  0
LINE
  8
_0-5_寸法線
  6
CONTINUOUS
 62
    7
 10
788.00596012550727
 20
663.29626680242245
 11
790.59415057653257
 21
672.95552506531317
  0
LINE
  8
_0-5_寸法線
  6
CONTINUOUS
 62
    7
 10
788.00596012550727
 20
691.29626680242256
 11
788.00596012550727
 21
663.29626680242245
  0
TEXT
  8
_0-5_寸法線
 62
    7
 10
788.00596012550727
 20
669.79626680242245
 40
15
 41
1
 50
90
  1
28
  0
LINE
  8
_0-5_寸法線
  6
CONTINUOUS
 62
    7
 10
849.86487216254432
 20
663.29626680242245
 11
783.00596012550727
 21
663.29626680242245
  0
LINE
  8
_0-5_寸法線
  6
CONTINUOUS
 62
    7
 10
788.00596012550727
 20
663.29626680242245
 11
790.59415057653257
 21
653.63700853953173
  0
LINE
  8
_0-5_寸法線
  6
CONTINUOUS
 62
    7
 10
788.00596012550727
 20
663.29626680242245
 11
785.41776967448209
 21
653.63700853953173
  0
LINE
  8
_0-5_寸法線
  6
CONTINUOUS
 62
    7
 10
848.6648721625445
 20
640.29626680242234
 11
783.00596012550727
 21
640.29626680242234
  0
LINE
  8
_0-5_寸法線
  6
CONTINUOUS
 62
    7
 10
788.00596012550727
 20
640.29626680242234
 11
785.41776967448197
 21
649.95552506531294
  0
LINE
  8
_0-5_寸法線
  6
CONTINUOUS
 62
    7
 10
788.00596012550727
 20
640.29626680242234
 11
790.59415057653257
 21
649.95552506531294
  0
LINE
  8
_0-5_寸法線
  6
CONTINUOUS
 62
    7
 10
788.00596012550727
 20
663.29626680242245
 11
788.00596012550727
 21
640.29626680242234
  0
TEXT
  8
_0-5_寸法線
 62
    7
 10
788.00596012550727
 20
644.29626680242234
 40
15
 41
1
 50
90
  1
23
  0
LINE
  8
_0-5_寸法線
  6
CONTINUOUS
 62
    7
 10
859.86487216254432
 20
630.29626680242256
 11
859.86487216254329
 21
565.97354784930485
  0
LINE
  8
_0-5_寸法線
  6
CONTINUOUS
 62
    7
 10
859.86487216254341
 20
570.97354784930485
 11
869.52413042543412
 21
573.56173830033003
  0
LINE
  8
_0-5_寸法線
  6
CONTINUOUS
 62
    7
 10
859.86487216254341
 20
570.97354784930485
 11
869.52413042543412
 21
568.38535739827967
  0
LINE
  8
_0-5_寸法線
  6
CONTINUOUS
 62
    7
 10
889.86487216254432
 20
653.29626680242245
 11
889.86487216254295
 21
565.97354784930485
  0
LINE
  8
_0-5_寸法線
  6
CONTINUOUS
 62
    7
 10
889.86487216254307
 20
570.97354784930485
 11
880.20561389965223
 21
568.38535739827967
  0
LINE
  8
_0-5_寸法線
  6
CONTINUOUS
 62
    7
 10
889.86487216254307
 20
570.97354784930485
 11
880.20561389965223
 21
573.56173830033003
  0
LINE
  8
_0-5_寸法線
  6
CONTINUOUS
 62
    7
 10
859.86487216254341
 20
570.97354784930485
 11
889.86487216254307
 21
570.97354784930485
  0
TEXT
  8
_0-5_寸法線
 62
    7
 10
867.36487216254341
 20
570.97354784930485
 40
15
 41
1
 50
0
  1
30
  0
LINE
  8
_0-0_計極細
  6
CONTINUOUS
 62
    2
 10
1319.8648721625445
 20
691.29626680242279
 11
1378.3715204496136
 21
691.29626680242279
  0
CIRCLE
  8
_0-0_計極細
  6
CONTINUOUS
 62
    2
 10
1324.6350158406335
 20
675.00220194130736
 40
0.3318518518518431
  0
LINE
  8
_0-0_計極細
  6
CONTINUOUS
 62
    2
 10
1365.9383554027258
 20
684.29626680242268
 11
1372.9383550266525
 21
691.29626642634935
  0
LINE
  8
_0-0_計極細
  6
CONTINUOUS
 62
    2
 10
1353.2104333413688
 20
684.29626680242268
 11
1360.210433064864
 21
691.29626652591821
  0
LINE
  8
_0-0_計極細
  6
CONTINUOUS
 62
    2
 10
1340.4825112800106
 20
684.29626680242268
 11
1347.4825111030757
 21
691.29626662548742
  0
LINE
  8
_0-0_計極細
  6
CONTINUOUS
 62
    2
 10
1327.7545892186531
 20
684.29626680242268
 11
1334.7545891412869
 21
691.29626672505663
  0
LINE
  8
_0-0_計極細
  6
DASHED2
 62
    2
 10
1372.3023164334049
 20
684.29626680242268
 11
1378.3715204496136
 21
690.36547081863046
  0
LINE
  8
_0-0_計極細
  6
DASHED2
 62
    2
 10
1359.5743943720468
 20
684.29626680242268
 11
1366.5743940457583
 21
691.29626647613361
  0
LINE
  8
_0-0_計極細
  6
DASHED2
 62
    2
 10
1346.8464723106897
 20
684.29626680242268
 11
1353.8464720839697
 21
691.29626657570282
  0
LINE
  8
_0-0_計極細
  6
DASHED2
 62
    2
 10
1334.1185502493315
 20
684.29626680242268
 11
1341.1185501221803
 21
691.29626667527202
  0
LINE
  8
_0-0_計極細
  6
DASHED2
 62
    2
 10
1324.8648721625445
 20
687.77051077699343
 11
1328.3906281603918
 21
691.29626677484123
  0
LINE
  8
_0-0_計極細
  6
CONTINUOUS
 62
    2
 10
1324.8648721625445
 20
686.49771857085727
 11
1322.6634203941089
 21
684.29626680242268
  0
LINE
  8
_0-0_計極細
  6
CONTINUOUS
 62
    2
 10
1324.8648721625445
 20
689.04330298312868
 11
1320.1178359818382
 21
684.29626680242268
  0
LINE
  8
_0-0_計極細
  6
CONTINUOUS
 62
    2
 10
1319.8648721625445
 20
686.58888739540077
 11
1324.5722515695666
 21
691.29626680242279
  0
LINE
  8
_0-0_計極細
  6
CONTINUOUS
 62
    2
 10
1319.8648721625445
 20
689.13447180767218
 11
1322.0266671572949
 21
691.29626680242256
  0
LINE
  8
_0-0_計極細
  6
CONTINUOUS
 62
    2
 10
1324.8648721625445
 20
690.39067347671948
 11
1323.9592788368416
 21
691.29626680242279
  0
LINE
  8
_0-0_計極細
  6
CONTINUOUS
 62
    2
 10
1324.8648721625445
 20
687.84508906444773
 11
1321.4136944245697
 21
691.29626680242279
  0
LINE
  8
_0-0_計極細
  6
CONTINUOUS
 62
    2
 10
1324.8648721625445
 20
685.29950465217621
 11
1319.8648721625445
 21
690.29950465217621
  0
LINE
  8
_0-0_計極細
  6
CONTINUOUS
 62
    2
 10
1323.3225256000264
 20
684.29626680242268
 11
1319.8648721625445
 21
687.75392023990446
  0
LINE
  8
_0-0_計極細
  6
CONTINUOUS
 62
    2
 10
1320.776941187755
 20
684.29626680242268
 11
1319.8648721625445
 21
685.20833582763271
  0
LINE
  8
_0-0_計極細
  6
CONTINUOUS
 62
    2
 10
1319.8648721625445
 20
690.79626680242245
 11
1319.8648721625445
 21
691.29626680242279
  0
LINE
  8
_0-0_計極細
  6
CONTINUOUS
 62
    2
 10
1319.8648721625445
 20
684.29626680242268
 11
1378.3715204496136
 21
684.29626680242268
  0
LINE
  8
_0-0_計極細
  6
CONTINUOUS
 62
    2
 10
1324.8648721625445
 20
691.29626680242279
 11
1324.8648721625445
 21
684.29626680242268
  0
CIRCLE
  8
_0-0_計極細
  6
CONTINUOUS
 62
    2
 10
1331.8616825073
 20
683.01553527464091
 40
0.3318518518518431
  0
CIRCLE
  8
_0-0_計極細
  6
CONTINUOUS
 62
    2
 10
1344.5816825072993
 20
679.41553527464077
 40
0.3318518518518431
  0
CIRCLE
  8
_0-0_計極細
  6
CONTINUOUS
 62
    2
 10
1363.0616825073
 20
682.45553527464085
 40
0.3318518518518431
  0
CIRCLE
  8
_0-0_計極細
  6
CONTINUOUS
 62
    2
 10
1336.2616825072996
 20
651.40812786723359
 40
0.3318518518518431
  0
CIRCLE
  8
_0-0_計極細
  6
CONTINUOUS
 62
    2
 10
1348.0216825072998
 20
648.04812786723335
 40
0.3318518518518431
  0
LINE
  8
_0-0_計極細
  6
CONTINUOUS
 62
    2
 10
1334.8648721625445
 20
644.74760361141193
 11
1343.8648721625445
 21
644.74760361141193
  0
LINE
  8
_0-0_計極細
  6
CENTER1
 62
    2
 10
1339.3648721625445
 20
613.33022263175064
 11
1339.3648721625445
 21
647.31303571017759
  0
LINE
  8
_0-0_計極細
  6
CONTINUOUS
 62
    2
 10
1343.8648721625445
 20
644.74760361141193
 11
1343.8648721625445
 21
618.29626680242245
  0
LINE
  8
_0-0_計極細
  6
CONTINUOUS
 62
    2
 10
1334.8648721625445
 20
618.29626680242245
 11
1334.8648721625445
 21
644.74760361141193
  0
LINE
  8
_0-0_計極細
  6
CENTER1
 62
    2
 10
1350.5612637749969
 20
636.37172626944334
 11
1312.142651485457
 21
650.3549575604643
  0
LINE
  8
_0-0_計極細
  6
CONTINUOUS
 62
    2
 10
1346.0489130948358
 20
633.22528749992443
 11
1312.9743062006269
 21
645.26345991947221
  0
LINE
  8
_0-0_計極細
  6
CONTINUOUS
 62
    2
 10
1349.1270943847671
 20
641.68252108699778
 11
1316.0524874905573
 21
653.72069350654556
  0
LINE
  8
_0-0_計極細
  6
CONTINUOUS
 62
    2
 10
1316.0524874905573
 20
653.72069350654556
 11
1312.9743062006269
 21
645.26345991947221
  0
LINE
  8
_0-0_計極細
  6
CONTINUOUS
 62
    2
 10
1346.0489130948358
 20
633.22528749992443
 11
1349.1270943847671
 21
641.68252108699778
  0
CIRCLE
  8
_0-0_計極細
  6
CONTINUOUS
 62
    2
 10
1295.6250158406333
 20
611.70757231167818
 40
1.0953188836088352
  0
CIRCLE
  8
_0-0_計極細
  6
CONTINUOUS
 62
    2
 10
1293.8561269517445
 20
655.28090564501167
 40
1.0953188836088352
  0
CIRCLE
  8
_0-0_計極細
  6
CONTINUOUS
 62
    2
 10
1294.2394602850777
 20
615.70886860797464
 40
0.3318518518518431
  0
CIRCLE
  8
_0-0_計極細
  6
CONTINUOUS
 62
    2
 10
1293.4555096677946
 20
639.26220194130769
 40
0.3318518518518431
  0
LINE
  8
_0-0_計極細
  6
CONTINUOUS
 62
    2
 10
1289.8648721625445
 20
663.29626680242245
 11
1289.8648721625445
 21
602.55130662555541
  0
LINE
  8
_0-0_計極細
  6
CONTINUOUS
 62
    2
 10
1290.3648721625436
 20
663.29626680242245
 11
1289.8648721625445
 21
663.29626680242245
  0
CIRCLE
  8
_0-0_計極細
  6
CONTINUOUS
 62
    2
 10
1344.6616825072992
 20
670.62423897834447
 40
1.0953188836088352
  0
CIRCLE
  8
_0-0_計極細
  6
CONTINUOUS
 62
    2
 10
1298.4387195443376
 20
634.18698240078982
 40
0.3318518518518431
  0
CIRCLE
  8
_0-0_計極細
  6
CONTINUOUS
 62
    2
 10
1298.3187195443375
 20
648.56031573412292
 40
0.3318518518518431
  0
CIRCLE
  8
_0-0_計極細
  6
CONTINUOUS
 62
    2
 10
1326.7983491739665
 20
651.81423897834475
 40
1.0953188836088352
  0
CIRCLE
  8
_0-0_計極細
  6
CONTINUOUS
 62
    2
 10
1357.1974647551365
 20
619.78200754316333
 40
1.0953188836088352
  0
CIRCLE
  8
_0-0_計極細
  6
CONTINUOUS
 62
    2
 10
1329.4383491739668
 20
625.89423897834513
 40
1.0953188836088352
  0
CIRCLE
  8
_0-0_計極細
  6
CONTINUOUS
 62
    2
 10
1308.3183491739669
 20
639.33423897834484
 40
1.0953188836088352
  0
CIRCLE
  8
_0-0_計極細
  6
CONTINUOUS
 62
    2
 10
1302.1850158406337
 20
621.41423897834511
 40
1.0953188836088352
  0
CIRCLE
  8
_0-0_計極細
  6
CONTINUOUS
 62
    2
 10
1344.4216825072997
 20
648.14423897834456
 40
1.0953188836088352
  0
CIRCLE
  8
_0-0_計極細
  6
CONTINUOUS
 62
    2
 10
1325.2216825072996
 20
667.34423897834472
 40
1.0953188836088352
  0
CIRCLE
  8
_0-0_計極細
  6
CONTINUOUS
 62
    2
 10
1358.4750158406328
 20
663.39757231167812
 40
1.0953188836088352
  0
CIRCLE
  8
_0-0_計極細
  6
CONTINUOUS
 62
    2
 10
1367.8616825072991
 20
672.67757231167798
 40
1.0953188836088352
  0
CIRCLE
  8
_0-0_計極細
  6
CONTINUOUS
 62
    2
 10
1370.7416825072992
 20
664.41553527464066
 40
0.3318518518518431
  0
CIRCLE
  8
_0-0_計極細
  6
CONTINUOUS
 62
    2
 10
1352.9816825072999
 20
651.69553527464109
 40
0.3318518518518431
  0
CIRCLE
  8
_0-0_計極細
  6
CONTINUOUS
 62
    2
 10
1354.6616825072992
 20
667.7755352746409
 40
0.3318518518518431
  0
CIRCLE
  8
_0-0_計極細
  6
CONTINUOUS
 62
    2
 10
1344.5816825072993
 20
656.01553527464091
 40
0.3318518518518431
  0
CIRCLE
  8
_0-0_計極細
  6
CONTINUOUS
 62
    2
 10
1355.3816825072997
 20
643.295535274641
 40
0.3318518518518431
  0
CIRCLE
  8
_0-0_計極細
  6
CONTINUOUS
 62
    2
 10
1356.3416825072998
 20
630.81553527464121
 40
0.3318518518518431
  0
CIRCLE
  8
_0-0_計極細
  6
CONTINUOUS
 62
    2
 10
1352.0216825072989
 20
622.41553527464112
 40
0.3318518518518431
  0
CIRCLE
  8
_0-0_計極細
  6
CONTINUOUS
 62
    2
 10
1328.5016825072994
 20
654.33553527464119
 40
0.3318518518518431
  0
CIRCLE
  8
_0-0_計極細
  6
CONTINUOUS
 62
    2
 10
1335.4616825073003
 20
662.73553527464071
 40
0.3318518518518431
  0
CIRCLE
  8
_0-0_計極細
  6
CONTINUOUS
 62
    2
 10
1323.1416825072997
 20
663.16220194130767
 40
0.3318518518518431
  0
CIRCLE
  8
_0-0_計極細
  6
CONTINUOUS
 62
    2
 10
1330.3283491739671
 20
630.58886860797452
 40
0.3318518518518431
  0
CIRCLE
  8
_0-0_計極細
  6
CONTINUOUS
 62
    2
 10
1323.6083491739669
 20
627.22886860797462
 40
0.3318518518518431
  0
CIRCLE
  8
_0-0_計極細
  6
CONTINUOUS
 62
    2
 10
1330.8083491739669
 20
621.78886860797456
 40
0.3318518518518431
  0
CIRCLE
  8
_0-0_計極細
  6
CONTINUOUS
 62
    2
 10
1314.6483491739671
 20
621.62886860797448
 40
0.3318518518518431
  0
CIRCLE
  8
_0-0_計極細
  6
CONTINUOUS
 62
    2
 10
1306.3283491739662
 20
624.50886860797459
 40
0.3318518518518431
  0
CIRCLE
  8
_0-0_計極細
  6
CONTINUOUS
 62
    2
 10
1299.4483491739672
 20
606.58886860797475
 40
0.3318518518518431
  0
CIRCLE
  8
_0-0_計極細
  6
CONTINUOUS
 62
    2
 10
1305.0483491739667
 20
617.30886860797466
 40
0.3318518518518431
  0
CIRCLE
  8
_0-0_計極細
  6
CONTINUOUS
 62
    2
 10
1315.7483491739663
 20
631.28886860797456
 40
0.3318518518518431
  0
CIRCLE
  8
_0-0_計極細
  6
CONTINUOUS
 62
    2
 10
1305.228349173967
 20
641.50220194130793
 40
0.3318518518518431
  0
CIRCLE
  8
_0-0_計極細
  6
CONTINUOUS
 62
    2
 10
1307.6816825072999
 20
656.48886860797415
 40
0.3318518518518431
  0
CIRCLE
  8
_0-0_計極細
  6
CONTINUOUS
 62
    2
 10
1301.7083491739663
 20
653.60886860797439
 40
0.3318518518518431
  0
LINE
  8
_0-0_計極細
  6
CONTINUOUS
 62
    2
 10
1364.8388736112997
 20
602.55130662555541
 11
1378.3715204745372
 21
616.08395348879253
  0
LINE
  8
_0-0_計極細
  6
CONTINUOUS
 62
    2
 10
1322.412466740107
 20
602.55130662555541
 11
1338.1574269169746
 21
618.29626680242245
  0
LINE
  8
_0-0_計極細
  6
CONTINUOUS
 62
    2
 10
1359.8648721625445
 20
640.00371204799239
 11
1378.3715204500663
 21
658.51036033551406
  0
LINE
  8
_0-0_計極細
  6
CONTINUOUS
 62
    2
 10
1360.5962329241809
 20
602.55130662555541
 11
1378.3715204720907
 21
620.32659417346485
  0
LINE
  8
_0-0_計極細
  6
CONTINUOUS
 62
    2
 10
1318.1698260529879
 20
602.55130662555541
 11
1333.9147862298555
 21
618.29626680242245
  0
LINE
  8
_0-0_計極細
  6
CONTINUOUS
 62
    2
 10
1359.8648721625445
 20
644.2463527351116
 11
1374.914786122125
 21
659.29626669469246
  0
LINE
  8
_0-0_計極細
  6
CONTINUOUS
 62
    2
 10
1356.3535922370615
 20
602.55130662555541
 11
1378.3715204696432
 21
624.56923485813695
  0
LINE
  8
_0-0_計極細
  6
CONTINUOUS
 62
    2
 10
1313.927185365869
 20
602.55130662555541
 11
1329.6721455427364
 21
618.29626680242245
  0
LINE
  8
_0-0_計極細
  6
CONTINUOUS
 62
    2
 10
1359.8648721625445
 20
648.48899342223092
 11
1370.6721454653757
 21
659.2962667250622
  0
LINE
  8
_0-0_計極細
  6
CONTINUOUS
 62
    2
 10
1309.8648721625445
 20
618.29626680242245
 11
1309.8648721625445
 21
602.55130662555541
  0
LINE
  8
_0-0_計極細
  6
CONTINUOUS
 62
    2
 10
1359.8648721625445
 20
659.29626680242279
 11
1378.3715204496136
 21
659.29626680242279
  0
LINE
  8
_0-0_計極細
  6
CONTINUOUS
 62
    2
 10
1309.8648721625445
 20
618.29626680242245
 11
1359.8648721625445
 21
618.29626680242245
  0
LINE
  8
_0-0_計極細
  6
CONTINUOUS
 62
    2
 10
1359.8648721625445
 20
659.29626680242279
 11
1359.8648721625445
 21
618.29626680242245
  0
ARC
  8
_0-1_計細線
  6
CONTINUOUS
 62
    3
 10
1316.8648721625445
 20
666.29626680242256
 40
3.0000000000000004
 50
269.99999999999977
 51
359.99999999999966
  0
LINE
  8
_0-1_計細線
  6
CONTINUOUS
 62
    3
 10
1319.8648721625445
 20
666.29626680242256
 11
1319.8648721625445
 21
690.79626680242245
  0
LINE
  8
_0-1_計細線
  6
CONTINUOUS
 62
    3
 10
1316.8648721625445
 20
663.29626680242245
 11
1290.3648721625436
 21
663.29626680242245
  0
LINE
  8
_0-1_計細線
  6
CONTINUOUS
 62
    3
 10
1289.8648721625445
 20
663.79626680242279
 11
1290.3648721625436
 21
663.29626680242245
  0
LINE
  8
_0-1_計細線
  6
CONTINUOUS
 62
    3
 10
1289.8648721625445
 20
665.79626680242268
 11
1289.8648721625445
 21
663.79626680242279
  0
LINE
  8
_0-1_計細線
  6
CONTINUOUS
 62
    3
 10
1290.3648721625436
 20
666.29626680242256
 11
1289.8648721625445
 21
665.79626680242268
  0
LINE
  8
_0-1_計細線
  6
CONTINUOUS
 62
    3
 10
1316.8648721625445
 20
666.29626680242256
 11
1290.3648721625436
 21
666.29626680242256
  0
LINE
  8
_0-1_計細線
  6
CONTINUOUS
 62
    3
 10
1319.3648721625445
 20
691.29626680242279
 11
1319.8648721625445
 21
690.79626680242245
  0
LINE
  8
_0-1_計細線
  6
CONTINUOUS
 62
    3
 10
1317.3648721625445
 20
691.29626680242279
 11
1319.3648721625445
 21
691.29626680242279
  0
LINE
  8
_0-1_計細線
  6
CONTINUOUS
 62
    3
 10
1316.8648721625445
 20
690.79626680242245
 11
1317.3648721625445
 21
691.29626680242279
  0
LINE
  8
_0-1_計細線
  6
CONTINUOUS
 62
    3
 10
1316.8648721625445
 20
666.29626680242256
 11
1316.8648721625445
 21
690.79626680242245
  0
LINE
  8
_0-5_寸法線
  6
CONTINUOUS
 62
    7
 10
1319.8648721625445
 20
630.29626680242256
 11
1319.8648721625445
 21
565.97354784930485
  0
LINE
  8
_0-5_寸法線
  6
CONTINUOUS
 62
    7
 10
1319.8648721625445
 20
570.97354784930485
 11
1310.2056138996541
 21
568.38535739827967
  0
LINE
  8
_0-5_寸法線
  6
CONTINUOUS
 62
    7
 10
1319.8648721625445
 20
570.97354784930485
 11
1310.2056138996541
 21
573.56173830033003
  0
LINE
  8
_0-5_寸法線
  6
CONTINUOUS
 62
    7
 10
1289.8648721625445
 20
653.29626680242245
 11
1289.8648721625445
 21
565.97354784930485
  0
LINE
  8
_0-5_寸法線
  6
CONTINUOUS
 62
    7
 10
1289.8648721625445
 20
570.97354784930485
 11
1299.5241304254353
 21
573.56173830033003
  0
LINE
  8
_0-5_寸法線
  6
CONTINUOUS
 62
    7
 10
1289.8648721625445
 20
570.97354784930485
 11
1299.5241304254353
 21
568.38535739827967
  0
LINE
  8
_0-5_寸法線
  6
CONTINUOUS
 62
    7
 10
1319.8648721625445
 20
570.97354784930485
 11
1289.8648721625445
 21
570.97354784930485
  0
TEXT
  8
_0-5_寸法線
 62
    7
 10
1297.3648721625445
 20
570.97354784930485
 40
15
 41
1
 50
0
  1
30
  0
LINE
  8
_0-0_計極細
  6
CENTER1
 62
    2
 10
1321.0648721625444
 20
680.09604780141547
 11
856.85340239802588
 21
680.09604780141547
  0
LINE
  8
_0-5_寸法線
  6
CONTINUOUS
 62
    7
 10
889.86487216254432
 20
658.29626680242245
 11
889.86487216254432
 21
565.97354784930485
  0
LINE
  8
_0-5_寸法線
  6
CONTINUOUS
 62
    7
 10
889.86487216254432
 20
570.97354784930485
 11
899.52413042543515
 21
573.56173830033003
  0
LINE
  8
_0-5_寸法線
  6
CONTINUOUS
 62
    7
 10
889.86487216254432
 20
570.97354784930485
 11
899.52413042543515
 21
568.38535739827967
  0
LINE
  8
_0-5_寸法線
  6
CONTINUOUS
 62
    7
 10
1289.8648721625445
 20
658.29626680242245
 11
1289.8648721625436
 21
565.97354784930485
  0
LINE
  8
_0-5_寸法線
  6
CONTINUOUS
 62
    7
 10
1289.8648721625436
 20
570.97354784930485
 11
1280.2056138996531
 21
568.38535739827967
  0
LINE
  8
_0-5_寸法線
  6
CONTINUOUS
 62
    7
 10
1289.8648721625436
 20
570.97354784930485
 11
1280.2056138996531
 21
573.56173830033003
  0
LINE
  8
_0-5_寸法線
  6
CONTINUOUS
 62
    7
 10
889.86487216254432
 20
570.97354784930485
 11
1289.8648721625436
 21
570.97354784930485
  0
TEXT
  8
_0-5_寸法線
 62
    7
 10
1078.6148721625439
 20
570.97354784930485
 40
15
 41
1
 50
0
  1
400
  0
ARC
  8
_0-1_計細線
  6
CONTINUOUS
 62
    3
 10
869.06487216115863
 20
673.79604780141551
 40
0.2000000000000001
 50
179.99999999999983
 51
269.99999999999977
  0
ARC
  8
_0-1_計細線
  6
CONTINUOUS
 62
    3
 10
869.06487216115863
 20
686.39604780141553
 40
0.2000000000000001
 50
89.999999999999915
 51
179.99999999999983
  0
LINE
  8
_0-1_計細線
  6
CONTINUOUS
 62
    3
 10
868.86487216115825
 20
679.59604780141547
 11
868.86487216115825
 21
673.79604780141551
  0
LINE
  8
_0-1_計細線
  6
CONTINUOUS
 62
    3
 10
868.86487216115825
 20
686.39604780141553
 11
868.86487216115825
 21
679.59604780141547
  0
LINE
  8
_0-1_計細線
  6
CONTINUOUS
 62
    3
 10
869.86487216033754
 20
686.59604780141558
 11
869.06487216115863
 21
686.59604780141558
  0
LINE
  8
_0-1_計細線
  6
CONTINUOUS
 62
    3
 10
869.86487216105149
 20
673.59604780141569
 11
869.06487216115863
 21
673.59604780141569
  0
LINE
  8
_0-1_計細線
  6
CONTINUOUS
 62
    3
 10
868.86487216115825
 20
680.09604780141547
 11
865.86035616115839
 21
680.09604780141547
  0
LINE
  8
_0-1_計細線
  6
CONTINUOUS
 62
    3
 10
868.86487216115825
 20
676.59604780141558
 11
865.86034416115876
 21
676.59604780141558
  0
ARC
  8
_0-1_計細線
  6
CONTINUOUS
 62
    3
 10
865.86034416115876
 20
676.7960478014154
 40
0.2000000000000001
 50
179.99999999999983
 51
269.99999999999977
  0
ARC
  8
_0-1_計細線
  6
CONTINUOUS
 62
    3
 10
873.41832416115835
 20
678.34590180141606
 40
7.7579560000000019
 50
166.96197800000661
 51
193.03566999999961
  0
ARC
  8
_0-1_計細線
  6
CONTINUOUS
 62
    3
 10
865.86034416115876
 20
683.39604780141599
 40
0.2000000000000001
 50
89.999999999999915
 51
179.99999999999983
  0
ARC
  8
_0-1_計細線
  6
CONTINUOUS
 62
    3
 10
873.41832416115835
 20
681.8461918014151
 40
7.7579560000000019
 50
166.96433000000002
 51
193.03802199999794
  0
LINE
  8
_0-1_計細線
  6
CONTINUOUS
 62
    3
 10
868.86487216115825
 20
683.59604780141581
 11
865.86034416115876
 21
683.59604780141581
  0
LINE
  8
_0-1_計細線
  6
CONTINUOUS
 62
    3
 10
865.66034416115895
 20
676.7960478014154
 11
865.66034416115895
 21
683.39604780141599
  0
ARC
  8
_0-1_計細線
  6
CONTINUOUS
 62
    3
 10
1310.6648721645074
 20
673.79604780141551
 40
0.2000000000000001
 50
269.99999999999977
 51
359.99999999999966
  0
ARC
  8
_0-1_計細線
  6
CONTINUOUS
 62
    3
 10
1310.6648721645074
 20
686.39604780141553
 40
0.2000000000000001
 50
0
 51
89.999999999999915
  0
LINE
  8
_0-1_計細線
  6
CONTINUOUS
 62
    3
 10
1310.8648721645072
 20
679.59604780141547
 11
1310.8648721645072
 21
673.79604780141551
  0
LINE
  8
_0-1_計細線
  6
CONTINUOUS
 62
    3
 10
1310.8648721645072
 20
686.39604780141553
 11
1310.8648721645072
 21
679.59604780141547
  0
LINE
  8
_0-1_計細線
  6
CONTINUOUS
 62
    3
 10
1309.8648721640379
 20
673.59604780141569
 11
1310.6648721645074
 21
673.59604780141569
  0
LINE
  8
_0-1_計細線
  6
CONTINUOUS
 62
    3
 10
1309.8648721647519
 20
686.59604780141558
 11
1310.6648721645074
 21
686.59604780141558
  0
LINE
  8
_0-1_計細線
  6
CONTINUOUS
 62
    3
 10
1310.8648721645072
 20
680.09604780141547
 11
1313.8693881645074
 21
680.09604780141547
  0
LINE
  8
_0-1_計細線
  6
CONTINUOUS
 62
    3
 10
1310.8648721645072
 20
676.59604780141558
 11
1313.8694001645067
 21
676.59604780141558
  0
ARC
  8
_0-1_計細線
  6
CONTINUOUS
 62
    3
 10
1313.8694001645067
 20
676.7960478014154
 40
0.2000000000000001
 50
269.99999999999977
 51
359.99999999999966
  0
ARC
  8
_0-1_計細線
  6
CONTINUOUS
 62
    3
 10
1306.3114201645071
 20
678.34590180141606
 40
7.7579560000000019
 50
346.96433000000042
 51
13.038021999993047
  0
ARC
  8
_0-1_計細線
  6
CONTINUOUS
 62
    3
 10
1313.8694001645067
 20
683.39604780141599
 40
0.2000000000000001
 50
0
 51
89.999999999999915
  0
ARC
  8
_0-1_計細線
  6
CONTINUOUS
 62
    3
 10
1306.3114201645071
 20
681.8461918014151
 40
7.7579560000000019
 50
346.96197800000135
 51
13.035669999998861
  0
LINE
  8
_0-1_計細線
  6
CONTINUOUS
 62
    3
 10
1310.8648721645072
 20
683.59604780141581
 11
1313.8694001645067
 21
683.59604780141581
  0
LINE
  8
_0-1_計細線
  6
CONTINUOUS
 62
    3
 10
1314.0694001645077
 20
676.7960478014154
 11
1314.0694001645077
 21
683.39604780141599
  0
LINE
  8
_0-1_計細線
  6
CONTINUOUS
 62
    3
 10
1082.8648721625445
 20
673.59604780141569
 11
1087.5148721630962
 21
673.59604780141569
  0
LINE
  8
_0-1_計細線
  6
CONTINUOUS
 62
    3
 10
1082.8648721625445
 20
686.59604780141535
 11
1087.5148721630965
 21
686.59604780141535
  0
LINE
  8
_0-1_計細線
  6
CONTINUOUS
 62
    3
 10
1092.2148721630967
 20
686.59604780141535
 11
1096.8648721619818
 21
686.59604780141535
  0
LINE
  8
_0-1_計細線
  6
CONTINUOUS
 62
    3
 10
1092.2148721630967
 20
673.59604780141569
 11
1096.8648721626955
 21
673.59604780141569
  0
ARC
  8
_0-1_計細線
  6
CONTINUOUS
 62
    3
 10
1103.2648721619928
 20
689.29604780141563
 40
1.0000000000000004
 50
0
 51
89.999999999999915
  0
ARC
  8
_0-1_計細線
  6
CONTINUOUS
 62
    3
 10
1102.7969229706653
 20
691.29604780141517
 40
1.0000000000000004
 50
209.99999999999866
 51
269.99999999999977
  0
ARC
  8
_0-1_計細線
  6
CONTINUOUS
 62
    3
 10
1101.0648721630964
 20
690.29604780141551
 40
1.0000000000000004
 50
29.99999999997862
 51
89.999999999999915
  0
LINE
  8
_0-1_計細線
  6
CONTINUOUS
 62
    3
 10
1103.2648721619928
 20
690.29604780141551
 11
1102.7969229706653
 21
690.29604780141551
  0
ARC
  8
_0-1_計細線
  6
CONTINUOUS
 62
    3
 10
1093.8648721642001
 20
689.29604780141563
 40
1.0000000000000004
 50
89.999999999999915
 51
179.99999999999983
  0
ARC
  8
_0-1_計細線
  6
CONTINUOUS
 62
    3
 10
1094.3328213555271
 20
691.29604780141517
 40
1.0000000000000004
 50
269.99999999999977
 51
330.00000000002666
  0
ARC
  8
_0-1_計細線
  6
CONTINUOUS
 62
    3
 10
1096.0648721630967
 20
690.29604780141551
 40
1.0000000000000004
 50
89.999999999999915
 51
150.00000000000836
  0
LINE
  8
_0-1_計細線
  6
CONTINUOUS
 62
    3
 10
1093.8648721642001
 20
690.29604780141551
 11
1094.3328213555271
 21
690.29604780141551
  0
ARC
  8
_0-1_計細線
  6
CONTINUOUS
 62
    3
 10
1103.7648721619928
 20
687.89604780141576
 40
0.5000000000000002
 50
269.99999999999977
 51
359.99999999999966
  0
LINE
  8
_0-1_計細線
  6
CONTINUOUS
 62
    3
 10
1104.264872161993
 20
689.29604780141563
 11
1104.264872161993
 21
687.89604780141576
  0
ARC
  8
_0-1_計細線
  6
CONTINUOUS
 62
    3
 10
1093.3648721642001
 20
687.89604780141576
 40
0.5000000000000002
 50
179.99999999999983
 51
269.99999999999977
  0
LINE
  8
_0-1_計細線
  6
CONTINUOUS
 62
    3
 10
1092.8648721641998
 20
689.29604780141563
 11
1092.8648721641998
 21
687.89604780141576
  0
ARC
  8
_0-1_計細線
  6
CONTINUOUS
 62
    3
 10
1101.2648721619928
 20
686.39604780141565
 40
1.0000000000000004
 50
89.999999999999915
 51
179.99999999999983
  0
LINE
  8
_0-1_計細線
  6
CONTINUOUS
 62
    3
 10
1101.2648721619928
 20
687.39604780141531
 11
1103.7648721619928
 21
687.39604780141531
  0
ARC
  8
_0-1_計細線
  6
CONTINUOUS
 62
    3
 10
1095.8648721619932
 20
686.39604780141565
 40
1.0000000000000004
 50
0
 51
89.999999999999915
  0
LINE
  8
_0-1_計細線
  6
CONTINUOUS
 62
    3
 10
1095.8648721642005
 20
687.39604780141531
 11
1093.3648721642001
 21
687.39604780141531
  0
LINE
  8
_0-1_計細線
  6
CONTINUOUS
 62
    3
 10
1096.0648721630967
 20
691.29604780141517
 11
1101.0648721630964
 21
691.29604780141517
  0
LINE
  8
_0-1_計細線
  6
CONTINUOUS
 62
    3
 10
1100.264872163096
 20
666.29604780141551
 11
1100.2648721619928
 21
686.39604780141565
  0
LINE
  8
_0-1_計細線
  6
CONTINUOUS
 62
    3
 10
1096.8648721630964
 20
666.29604780141551
 11
1096.8648721619929
 21
686.39604780141565
  0
LINE
  8
_0-1_計細線
  6
CONTINUOUS
 62
    3
 10
1096.8648721630964
 20
666.29604780141551
 11
1100.264872163096
 21
666.29604780141551
  0
ARC
  8
_0-1_計細線
  6
CONTINUOUS
 62
    3
 10
1059.0648721637122
 20
689.29604780141563
 40
1.0000000000000004
 50
89.999999999999915
 51
179.99999999999983
  0
ARC
  8
_0-1_計細線
  6
CONTINUOUS
 62
    3
 10
1059.5328213550395
 20
691.29604780141517
 40
1.0000000000000004
 50
269.99999999999977
 51
330.00000000001364
  0
ARC
  8
_0-1_計細線
  6
CONTINUOUS
 62
    3
 10
1061.2648721626085
 20
690.29604780141551
 40
1.0000000000000004
 50
89.999999999999915
 51
150.00000000000836
  0
LINE
  8
_0-1_計細線
  6
CONTINUOUS
 62
    3
 10
1059.0648721637122
 20
690.29604780141551
 11
1059.5328213550395
 21
690.29604780141551
  0
ARC
  8
_0-1_計細線
  6
CONTINUOUS
 62
    3
 10
1068.4648721615049
 20
689.29604780141563
 40
1.0000000000000004
 50
0
 51
89.999999999999915
  0
ARC
  8
_0-1_計細線
  6
CONTINUOUS
 62
    3
 10
1067.9969229701771
 20
691.29604780141517
 40
1.0000000000000004
 50
209.99999999998565
 51
269.99999999999977
  0
ARC
  8
_0-1_計細線
  6
CONTINUOUS
 62
    3
 10
1066.2648721626085
 20
690.29604780141551
 40
1.0000000000000004
 50
30.000000000004672
 51
89.999999999999915
  0
LINE
  8
_0-1_計細線
  6
CONTINUOUS
 62
    3
 10
1068.4648721615049
 20
690.29604780141551
 11
1067.9969229701771
 21
690.29604780141551
  0
ARC
  8
_0-1_計細線
  6
CONTINUOUS
 62
    3
 10
1058.5648721637119
 20
687.89604780141576
 40
0.5000000000000002
 50
179.99999999999983
 51
269.99999999999977
  0
LINE
  8
_0-1_計細線
  6
CONTINUOUS
 62
    3
 10
1058.0648721637119
 20
689.29604780141563
 11
1058.0648721637119
 21
687.89604780141576
  0
ARC
  8
_0-1_計細線
  6
CONTINUOUS
 62
    3
 10
1068.9648721615051
 20
687.89604780141576
 40
0.5000000000000002
 50
269.99999999999977
 51
359.99999999999966
  0
LINE
  8
_0-1_計細線
  6
CONTINUOUS
 62
    3
 10
1069.4648721615051
 20
689.29604780141563
 11
1069.4648721615051
 21
687.89604780141576
  0
ARC
  8
_0-1_計細線
  6
CONTINUOUS
 62
    3
 10
1061.0648721637119
 20
686.39604780141565
 40
1.0000000000000004
 50
0
 51
89.999999999999915
  0
LINE
  8
_0-1_計細線
  6
CONTINUOUS
 62
    3
 10
1061.0648721637119
 20
687.39604780141531
 11
1058.5648721637119
 21
687.39604780141531
  0
ARC
  8
_0-1_計細線
  6
CONTINUOUS
 62
    3
 10
1066.4648721637122
 20
686.39604780141565
 40
1.0000000000000004
 50
89.999999999999915
 51
179.99999999999983
  0
LINE
  8
_0-1_計細線
  6
CONTINUOUS
 62
    3
 10
1066.4648721615044
 20
687.39604780141531
 11
1068.9648721615051
 21
687.39604780141531
  0
LINE
  8
_0-1_計細線
  6
CONTINUOUS
 62
    3
 10
1066.2648721626085
 20
691.29604780141517
 11
1061.2648721626085
 21
691.29604780141517
  0
LINE
  8
_0-1_計細線
  6
CONTINUOUS
 62
    3
 10
1062.0648721626083
 20
666.29604780141551
 11
1062.0648721637119
 21
686.39604780141565
  0
LINE
  8
_0-1_計細線
  6
CONTINUOUS
 62
    3
 10
1065.4648721626083
 20
666.29604780141551
 11
1065.464872163712
 21
686.39604780141565
  0
LINE
  8
_0-1_計細線
  6
CONTINUOUS
 62
    3
 10
1065.4648721626083
 20
666.29604780141551
 11
1062.0648721626083
 21
666.29604780141551
  0
LINE
  8
_0-1_計細線
  6
CONTINUOUS
 62
    3
 10
1065.4648721631606
 20
686.59604780141535
 11
1079.4648721631077
 21
686.59604780141535
  0
ARC
  8
_0-1_計細線
  6
CONTINUOUS
 62
    3
 10
1076.4648721630961
 20
689.29604780141563
 40
1.0000000000000004
 50
89.999999999999915
 51
179.99999999999983
  0
ARC
  8
_0-1_計細線
  6
CONTINUOUS
 62
    3
 10
1076.9328213544238
 20
691.29604780141517
 40
1.0000000000000004
 50
269.99999999999977
 51
330.00000000001364
  0
ARC
  8
_0-1_計細線
  6
CONTINUOUS
 62
    3
 10
1078.6648721619924
 20
690.29604780141551
 40
1.0000000000000004
 50
89.999999999999915
 51
149.99999999999534
  0
LINE
  8
_0-1_計細線
  6
CONTINUOUS
 62
    3
 10
1076.4648721630961
 20
690.29604780141551
 11
1076.9328213544238
 21
690.29604780141551
  0
ARC
  8
_0-1_計細線
  6
CONTINUOUS
 62
    3
 10
1085.864872160889
 20
689.29604780141563
 40
1.0000000000000004
 50
0
 51
89.999999999999915
  0
ARC
  8
_0-1_計細線
  6
CONTINUOUS
 62
    3
 10
1085.396922969562
 20
691.29604780141517
 40
1.0000000000000004
 50
209.9999999999726
 51
269.99999999999977
  0
ARC
  8
_0-1_計細線
  6
CONTINUOUS
 62
    3
 10
1083.6648721619924
 20
690.29604780141551
 40
1.0000000000000004
 50
29.999999999991644
 51
89.999999999999915
  0
LINE
  8
_0-1_計細線
  6
CONTINUOUS
 62
    3
 10
1085.864872160889
 20
690.29604780141551
 11
1085.396922969562
 21
690.29604780141551
  0
ARC
  8
_0-1_計細線
  6
CONTINUOUS
 62
    3
 10
1075.9648721630965
 20
687.89604780141576
 40
0.5000000000000002
 50
179.99999999999983
 51
269.99999999999977
  0
LINE
  8
_0-1_計細線
  6
CONTINUOUS
 62
    3
 10
1075.4648721630963
 20
689.29604780141563
 11
1075.4648721630963
 21
687.89604780141576
  0
ARC
  8
_0-1_計細線
  6
CONTINUOUS
 62
    3
 10
1086.364872160889
 20
687.89604780141576
 40
0.5000000000000002
 50
269.99999999999977
 51
359.99999999999966
  0
LINE
  8
_0-1_計細線
  6
CONTINUOUS
 62
    3
 10
1086.864872160889
 20
689.29604780141563
 11
1086.864872160889
 21
687.89604780141576
  0
ARC
  8
_0-1_計細線
  6
CONTINUOUS
 62
    3
 10
1078.4648721630958
 20
686.39604780141565
 40
1.0000000000000004
 50
0
 51
89.999999999999915
  0
LINE
  8
_0-1_計細線
  6
CONTINUOUS
 62
    3
 10
1078.4648721630958
 20
687.39604780141531
 11
1075.9648721630965
 21
687.39604780141531
  0
ARC
  8
_0-1_計細線
  6
CONTINUOUS
 62
    3
 10
1083.8648721630964
 20
686.39604780141565
 40
1.0000000000000004
 50
89.999999999999915
 51
179.99999999999983
  0
LINE
  8
_0-1_計細線
  6
CONTINUOUS
 62
    3
 10
1083.864872160889
 20
687.39604780141531
 11
1086.364872160889
 21
687.39604780141531
  0
LINE
  8
_0-1_計細線
  6
CONTINUOUS
 62
    3
 10
1083.6648721619924
 20
691.29604780141517
 11
1078.6648721619924
 21
691.29604780141517
  0
LINE
  8
_0-1_計細線
  6
CONTINUOUS
 62
    3
 10
1079.4648721619931
 20
666.29604780141551
 11
1079.4648721630967
 21
686.39604780141565
  0
LINE
  8
_0-1_計細線
  6
CONTINUOUS
 62
    3
 10
1082.8648721619927
 20
666.29604780141551
 11
1082.8648721630964
 21
686.39604780141565
  0
LINE
  8
_0-1_計細線
  6
CONTINUOUS
 62
    3
 10
1082.8648721619927
 20
666.29604780141551
 11
1079.4648721619931
 21
666.29604780141551
  0
LINE
  8
_0-1_計細線
  6
CONTINUOUS
 62
    3
 10
1065.4648721631606
 20
673.59604780141569
 11
1079.4648721623937
 21
673.59604780141569
  0
ARC
  8
_0-1_計細線
  6
CONTINUOUS
 62
    3
 10
1041.6648721643271
 20
689.29604780141563
 40
1.0000000000000004
 50
89.999999999999915
 51
179.99999999999983
  0
ARC
  8
_0-1_計細線
  6
CONTINUOUS
 62
    3
 10
1042.1328213556546
 20
691.29604780141517
 40
1.0000000000000004
 50
269.99999999999977
 51
330.00000000001364
  0
ARC
  8
_0-1_計細線
  6
CONTINUOUS
 62
    3
 10
1043.8648721632237
 20
690.29604780141551
 40
1.0000000000000004
 50
89.999999999999915
 51
150.00000000000836
  0
LINE
  8
_0-1_計細線
  6
CONTINUOUS
 62
    3
 10
1041.6648721643271
 20
690.29604780141551
 11
1042.1328213556546
 21
690.29604780141551
  0
ARC
  8
_0-1_計細線
  6
CONTINUOUS
 62
    3
 10
1051.0648721621199
 20
689.29604780141563
 40
1.0000000000000004
 50
0
 51
89.999999999999915
  0
ARC
  8
_0-1_計細線
  6
CONTINUOUS
 62
    3
 10
1050.5969229707923
 20
691.29604780141517
 40
1.0000000000000004
 50
209.99999999998565
 51
269.99999999999977
  0
ARC
  8
_0-1_計細線
  6
CONTINUOUS
 62
    3
 10
1048.8648721632237
 20
690.29604780141551
 40
1.0000000000000004
 50
30.000000000004672
 51
89.999999999999915
  0
LINE
  8
_0-1_計細線
  6
CONTINUOUS
 62
    3
 10
1051.0648721621199
 20
690.29604780141551
 11
1050.5969229707923
 21
690.29604780141551
  0
ARC
  8
_0-1_計細線
  6
CONTINUOUS
 62
    3
 10
1041.1648721643271
 20
687.89604780141576
 40
0.5000000000000002
 50
179.99999999999983
 51
269.99999999999977
  0
LINE
  8
_0-1_計細線
  6
CONTINUOUS
 62
    3
 10
1040.6648721643271
 20
689.29604780141563
 11
1040.6648721643271
 21
687.89604780141576
  0
ARC
  8
_0-1_計細線
  6
CONTINUOUS
 62
    3
 10
1051.5648721621205
 20
687.89604780141576
 40
0.5000000000000002
 50
269.99999999999977
 51
359.99999999999966
  0
LINE
  8
_0-1_計細線
  6
CONTINUOUS
 62
    3
 10
1052.0648721621203
 20
689.29604780141563
 11
1052.0648721621203
 21
687.89604780141576
  0
ARC
  8
_0-1_計細線
  6
CONTINUOUS
 62
    3
 10
1043.6648721643271
 20
686.39604780141565
 40
1.0000000000000004
 50
0
 51
89.999999999999915
  0
LINE
  8
_0-1_計細線
  6
CONTINUOUS
 62
    3
 10
1043.6648721643271
 20
687.39604780141531
 11
1041.1648721643271
 21
687.39604780141531
  0
ARC
  8
_0-1_計細線
  6
CONTINUOUS
 62
    3
 10
1049.0648721643272
 20
686.39604780141565
 40
1.0000000000000004
 50
89.999999999999915
 51
179.99999999999983
  0
LINE
  8
_0-1_計細線
  6
CONTINUOUS
 62
    3
 10
1049.0648721621194
 20
687.39604780141531
 11
1051.5648721621205
 21
687.39604780141531
  0
LINE
  8
_0-1_計細線
  6
CONTINUOUS
 62
    3
 10
1048.8648721632237
 20
691.29604780141517
 11
1043.8648721632237
 21
691.29604780141517
  0
LINE
  8
_0-1_計細線
  6
CONTINUOUS
 62
    3
 10
1044.6648721632234
 20
666.29604780141551
 11
1044.6648721643271
 21
686.39604780141565
  0
LINE
  8
_0-1_計細線
  6
CONTINUOUS
 62
    3
 10
1048.0648721632235
 20
666.29604780141551
 11
1048.0648721643272
 21
686.39604780141565
  0
LINE
  8
_0-1_計細線
  6
CONTINUOUS
 62
    3
 10
1048.0648721632235
 20
666.29604780141551
 11
1044.6648721632234
 21
666.29604780141551
  0
LINE
  8
_0-1_計細線
  6
CONTINUOUS
 62
    3
 10
1048.0648721637756
 20
686.59604780141535
 11
1062.0648721637231
 21
686.59604780141535
  0
LINE
  8
_0-1_計細線
  6
CONTINUOUS
 62
    3
 10
1048.0648721637756
 20
673.59604780141569
 11
1062.0648721630091
 21
673.59604780141569
  0
ARC
  8
_0-1_計細線
  6
CONTINUOUS
 62
    3
 10
1024.2648721649423
 20
689.29604780141563
 40
1.0000000000000004
 50
89.999999999999915
 51
179.99999999999983
  0
ARC
  8
_0-1_計細線
  6
CONTINUOUS
 62
    3
 10
1024.7328213562698
 20
691.29604780141517
 40
1.0000000000000004
 50
269.99999999999977
 51
330.00000000001364
  0
ARC
  8
_0-1_計細線
  6
CONTINUOUS
 62
    3
 10
1026.4648721638389
 20
690.29604780141551
 40
1.0000000000000004
 50
89.999999999999915
 51
150.00000000000836
  0
LINE
  8
_0-1_計細線
  6
CONTINUOUS
 62
    3
 10
1024.2648721649423
 20
690.29604780141551
 11
1024.7328213562698
 21
690.29604780141551
  0
ARC
  8
_0-1_計細線
  6
CONTINUOUS
 62
    3
 10
1033.664872162735
 20
689.29604780141563
 40
1.0000000000000004
 50
0
 51
89.999999999999915
  0
ARC
  8
_0-1_計細線
  6
CONTINUOUS
 62
    3
 10
1033.1969229714077
 20
691.29604780141517
 40
1.0000000000000004
 50
209.99999999998565
 51
269.99999999999977
  0
ARC
  8
_0-1_計細線
  6
CONTINUOUS
 62
    3
 10
1031.4648721638389
 20
690.29604780141551
 40
1.0000000000000004
 50
30.000000000004672
 51
89.999999999999915
  0
LINE
  8
_0-1_計細線
  6
CONTINUOUS
 62
    3
 10
1033.664872162735
 20
690.29604780141551
 11
1033.1969229714077
 21
690.29604780141551
  0
ARC
  8
_0-1_計細線
  6
CONTINUOUS
 62
    3
 10
1023.7648721649424
 20
687.89604780141576
 40
0.5000000000000002
 50
179.99999999999983
 51
269.99999999999977
  0
LINE
  8
_0-1_計細線
  6
CONTINUOUS
 62
    3
 10
1023.2648721649423
 20
689.29604780141563
 11
1023.2648721649423
 21
687.89604780141576
  0
ARC
  8
_0-1_計細線
  6
CONTINUOUS
 62
    3
 10
1034.1648721627355
 20
687.89604780141576
 40
0.5000000000000002
 50
269.99999999999977
 51
359.99999999999966
  0
LINE
  8
_0-1_計細線
  6
CONTINUOUS
 62
    3
 10
1034.6648721627355
 20
689.29604780141563
 11
1034.6648721627355
 21
687.89604780141576
  0
ARC
  8
_0-1_計細線
  6
CONTINUOUS
 62
    3
 10
1026.2648721649425
 20
686.39604780141565
 40
1.0000000000000004
 50
0
 51
89.999999999999915
  0
LINE
  8
_0-1_計細線
  6
CONTINUOUS
 62
    3
 10
1026.2648721649425
 20
687.39604780141531
 11
1023.7648721649424
 21
687.39604780141531
  0
ARC
  8
_0-1_計細線
  6
CONTINUOUS
 62
    3
 10
1031.6648721649424
 20
686.39604780141565
 40
1.0000000000000004
 50
89.999999999999915
 51
179.99999999999983
  0
LINE
  8
_0-1_計細線
  6
CONTINUOUS
 62
    3
 10
1031.6648721627346
 20
687.39604780141531
 11
1034.1648721627355
 21
687.39604780141531
  0
LINE
  8
_0-1_計細線
  6
CONTINUOUS
 62
    3
 10
1031.4648721638389
 20
691.29604780141517
 11
1026.4648721638389
 21
691.29604780141517
  0
LINE
  8
_0-1_計細線
  6
CONTINUOUS
 62
    3
 10
1027.2648721638388
 20
666.29604780141551
 11
1027.2648721649423
 21
686.39604780141565
  0
LINE
  8
_0-1_計細線
  6
CONTINUOUS
 62
    3
 10
1030.6648721638387
 20
666.29604780141551
 11
1030.6648721649424
 21
686.39604780141565
  0
LINE
  8
_0-1_計細線
  6
CONTINUOUS
 62
    3
 10
1030.6648721638387
 20
666.29604780141551
 11
1027.2648721638388
 21
666.29604780141551
  0
LINE
  8
_0-1_計細線
  6
CONTINUOUS
 62
    3
 10
1030.6648721643908
 20
686.59604780141535
 11
1044.664872164338
 21
686.59604780141535
  0
LINE
  8
_0-1_計細線
  6
CONTINUOUS
 62
    3
 10
1030.6648721643908
 20
673.59604780141569
 11
1044.6648721636241
 21
673.59604780141569
  0
ARC
  8
_0-1_計細線
  6
CONTINUOUS
 62
    3
 10
1006.8648721655575
 20
689.29604780141563
 40
1.0000000000000004
 50
89.999999999999915
 51
179.99999999999983
  0
ARC
  8
_0-1_計細線
  6
CONTINUOUS
 62
    3
 10
1007.3328213568851
 20
691.29604780141517
 40
1.0000000000000004
 50
269.99999999999977
 51
330.00000000001364
  0
ARC
  8
_0-1_計細線
  6
CONTINUOUS
 62
    3
 10
1009.0648721644541
 20
690.29604780141551
 40
1.0000000000000004
 50
89.999999999999915
 51
150.00000000000836
  0
LINE
  8
_0-1_計細線
  6
CONTINUOUS
 62
    3
 10
1006.8648721655575
 20
690.29604780141551
 11
1007.3328213568851
 21
690.29604780141551
  0
ARC
  8
_0-1_計細線
  6
CONTINUOUS
 62
    3
 10
1016.2648721633502
 20
689.29604780141563
 40
1.0000000000000004
 50
0
 51
89.999999999999915
  0
ARC
  8
_0-1_計細線
  6
CONTINUOUS
 62
    3
 10
1015.7969229720227
 20
691.29604780141517
 40
1.0000000000000004
 50
209.99999999998565
 51
269.99999999999977
  0
ARC
  8
_0-1_計細線
  6
CONTINUOUS
 62
    3
 10
1014.0648721644541
 20
690.29604780141551
 40
1.0000000000000004
 50
30.000000000004672
 51
89.999999999999915
  0
LINE
  8
_0-1_計細線
  6
CONTINUOUS
 62
    3
 10
1016.2648721633502
 20
690.29604780141551
 11
1015.7969229720227
 21
690.29604780141551
  0
ARC
  8
_0-1_計細線
  6
CONTINUOUS
 62
    3
 10
1006.3648721655575
 20
687.89604780141576
 40
0.5000000000000002
 50
179.99999999999983
 51
269.99999999999977
  0
LINE
  8
_0-1_計細線
  6
CONTINUOUS
 62
    3
 10
1005.8648721655575
 20
689.29604780141563
 11
1005.8648721655575
 21
687.89604780141576
  0
ARC
  8
_0-1_計細線
  6
CONTINUOUS
 62
    3
 10
1016.7648721633508
 20
687.89604780141576
 40
0.5000000000000002
 50
269.99999999999977
 51
359.99999999999966
  0
LINE
  8
_0-1_計細線
  6
CONTINUOUS
 62
    3
 10
1017.2648721633507
 20
689.29604780141563
 11
1017.2648721633507
 21
687.89604780141576
  0
ARC
  8
_0-1_計細線
  6
CONTINUOUS
 62
    3
 10
1008.8648721655575
 20
686.39604780141565
 40
1.0000000000000004
 50
0
 51
89.999999999999915
  0
LINE
  8
_0-1_計細線
  6
CONTINUOUS
 62
    3
 10
1008.8648721655575
 20
687.39604780141531
 11
1006.3648721655575
 21
687.39604780141531
  0
ARC
  8
_0-1_計細線
  6
CONTINUOUS
 62
    3
 10
1014.2648721655576
 20
686.39604780141565
 40
1.0000000000000004
 50
89.999999999999915
 51
179.99999999999983
  0
LINE
  8
_0-1_計細線
  6
CONTINUOUS
 62
    3
 10
1014.2648721633498
 20
687.39604780141531
 11
1016.7648721633508
 21
687.39604780141531
  0
LINE
  8
_0-1_計細線
  6
CONTINUOUS
 62
    3
 10
1014.0648721644541
 20
691.29604780141517
 11
1009.0648721644541
 21
691.29604780141517
  0
LINE
  8
_0-1_計細線
  6
CONTINUOUS
 62
    3
 10
1009.8648721644538
 20
666.29604780141551
 11
1009.8648721655576
 21
686.39604780141565
  0
LINE
  8
_0-1_計細線
  6
CONTINUOUS
 62
    3
 10
1013.264872164454
 20
666.29604780141551
 11
1013.2648721655576
 21
686.39604780141565
  0
LINE
  8
_0-1_計細線
  6
CONTINUOUS
 62
    3
 10
1013.264872164454
 20
666.29604780141551
 11
1009.8648721644538
 21
666.29604780141551
  0
LINE
  8
_0-1_計細線
  6
CONTINUOUS
 62
    3
 10
1013.264872165006
 20
686.59604780141535
 11
1027.2648721649532
 21
686.59604780141535
  0
LINE
  8
_0-1_計細線
  6
CONTINUOUS
 62
    3
 10
1013.264872165006
 20
673.59604780141569
 11
1027.2648721642393
 21
673.59604780141569
  0
ARC
  8
_0-1_計細線
  6
CONTINUOUS
 62
    3
 10
989.46487216617265
 20
689.29604780141563
 40
1.0000000000000004
 50
89.999999999999915
 51
179.99999999999983
  0
ARC
  8
_0-1_計細線
  6
CONTINUOUS
 62
    3
 10
989.93282135750019
 20
691.29604780141517
 40
1.0000000000000004
 50
269.99999999999977
 51
330.00000000001364
  0
ARC
  8
_0-1_計細線
  6
CONTINUOUS
 62
    3
 10
991.66487216506937
 20
690.29604780141551
 40
1.0000000000000004
 50
89.999999999999915
 51
150.00000000000836
  0
LINE
  8
_0-1_計細線
  6
CONTINUOUS
 62
    3
 10
989.46487216617265
 20
690.29604780141551
 11
989.93282135750019
 21
690.29604780141551
  0
ARC
  8
_0-1_計細線
  6
CONTINUOUS
 62
    3
 10
998.8648721639654
 20
689.29604780141563
 40
1.0000000000000004
 50
0
 51
89.999999999999915
  0
ARC
  8
_0-1_計細線
  6
CONTINUOUS
 62
    3
 10
998.39692297263798
 20
691.29604780141517
 40
1.0000000000000004
 50
209.99999999998565
 51
269.99999999999977
  0
ARC
  8
_0-1_計細線
  6
CONTINUOUS
 62
    3
 10
996.66487216506937
 20
690.29604780141551
 40
1.0000000000000004
 50
30.000000000004672
 51
89.999999999999915
  0
LINE
  8
_0-1_計細線
  6
CONTINUOUS
 62
    3
 10
998.8648721639654
 20
690.29604780141551
 11
998.39692297263798
 21
690.29604780141551
  0
ARC
  8
_0-1_計細線
  6
CONTINUOUS
 62
    3
 10
988.96487216617277
 20
687.89604780141576
 40
0.5000000000000002
 50
179.99999999999983
 51
269.99999999999977
  0
LINE
  8
_0-1_計細線
  6
CONTINUOUS
 62
    3
 10
988.46487216617277
 20
689.29604780141563
 11
988.46487216617277
 21
687.89604780141576
  0
ARC
  8
_0-1_計細線
  6
CONTINUOUS
 62
    3
 10
999.36487216396586
 20
687.89604780141576
 40
0.5000000000000002
 50
269.99999999999977
 51
359.99999999999966
  0
LINE
  8
_0-1_計細線
  6
CONTINUOUS
 62
    3
 10
999.86487216396597
 20
689.29604780141563
 11
999.86487216396597
 21
687.89604780141576
  0
ARC
  8
_0-1_計細線
  6
CONTINUOUS
 62
    3
 10
991.46487216617277
 20
686.39604780141565
 40
1.0000000000000004
 50
0
 51
89.999999999999915
  0
LINE
  8
_0-1_計細線
  6
CONTINUOUS
 62
    3
 10
991.46487216617277
 20
687.39604780141531
 11
988.96487216617277
 21
687.39604780141531
  0
ARC
  8
_0-1_計細線
  6
CONTINUOUS
 62
    3
 10
996.86487216617274
 20
686.39604780141565
 40
1.0000000000000004
 50
89.999999999999915
 51
179.99999999999983
  0
LINE
  8
_0-1_計細線
  6
CONTINUOUS
 62
    3
 10
996.86487216396495
 20
687.39604780141531
 11
999.36487216396586
 21
687.39604780141531
  0
LINE
  8
_0-1_計細線
  6
CONTINUOUS
 62
    3
 10
996.66487216506937
 20
691.29604780141517
 11
991.66487216506937
 21
691.29604780141517
  0
LINE
  8
_0-1_計細線
  6
CONTINUOUS
 62
    3
 10
992.4648721650691
 20
666.29604780141551
 11
992.46487216617265
 21
686.39604780141565
  0
LINE
  8
_0-1_計細線
  6
CONTINUOUS
 62
    3
 10
995.86487216506907
 20
666.29604780141551
 11
995.86487216617286
 21
686.39604780141565
  0
LINE
  8
_0-1_計細線
  6
CONTINUOUS
 62
    3
 10
995.86487216506907
 20
666.29604780141551
 11
992.4648721650691
 21
666.29604780141551
  0
LINE
  8
_0-1_計細線
  6
CONTINUOUS
 62
    3
 10
995.86487216562114
 20
686.59604780141535
 11
1009.8648721655684
 21
686.59604780141535
  0
LINE
  8
_0-1_計細線
  6
CONTINUOUS
 62
    3
 10
995.86487216562114
 20
673.59604780141569
 11
1009.8648721648544
 21
673.59604780141569
  0
ARC
  8
_0-1_計細線
  6
CONTINUOUS
 62
    3
 10
972.06487216678795
 20
689.29604780141563
 40
1.0000000000000004
 50
89.999999999999915
 51
179.99999999999983
  0
ARC
  8
_0-1_計細線
  6
CONTINUOUS
 62
    3
 10
972.53282135811548
 20
691.29604780141517
 40
1.0000000000000004
 50
269.99999999999977
 51
330.00000000001364
  0
ARC
  8
_0-1_計細線
  6
CONTINUOUS
 62
    3
 10
974.26487216568444
 20
690.29604780141551
 40
1.0000000000000004
 50
89.999999999999915
 51
150.00000000000836
  0
LINE
  8
_0-1_計細線
  6
CONTINUOUS
 62
    3
 10
972.06487216678795
 20
690.29604780141551
 11
972.53282135811548
 21
690.29604780141551
  0
ARC
  8
_0-1_計細線
  6
CONTINUOUS
 62
    3
 10
981.4648721645807
 20
689.29604780141563
 40
1.0000000000000004
 50
0
 51
89.999999999999915
  0
ARC
  8
_0-1_計細線
  6
CONTINUOUS
 62
    3
 10
980.99692297325305
 20
691.29604780141517
 40
1.0000000000000004
 50
209.99999999998565
 51
269.99999999999977
  0
ARC
  8
_0-1_計細線
  6
CONTINUOUS
 62
    3
 10
979.26487216568444
 20
690.29604780141551
 40
1.0000000000000004
 50
30.000000000004672
 51
89.999999999999915
  0
LINE
  8
_0-1_計細線
  6
CONTINUOUS
 62
    3
 10
981.4648721645807
 20
690.29604780141551
 11
980.99692297325305
 21
690.29604780141551
  0
ARC
  8
_0-1_計細線
  6
CONTINUOUS
 62
    3
 10
971.56487216678784
 20
687.89604780141576
 40
0.5000000000000002
 50
179.99999999999983
 51
269.99999999999977
  0
LINE
  8
_0-1_計細線
  6
CONTINUOUS
 62
    3
 10
971.06487216678784
 20
689.29604780141563
 11
971.06487216678784
 21
687.89604780141576
  0
ARC
  8
_0-1_計細線
  6
CONTINUOUS
 62
    3
 10
981.96487216458104
 20
687.89604780141576
 40
0.5000000000000002
 50
269.99999999999977
 51
359.99999999999966
  0
LINE
  8
_0-1_計細線
  6
CONTINUOUS
 62
    3
 10
982.46487216458104
 20
689.29604780141563
 11
982.46487216458104
 21
687.89604780141576
  0
ARC
  8
_0-1_計細線
  6
CONTINUOUS
 62
    3
 10
974.06487216678784
 20
686.39604780141565
 40
1.0000000000000004
 50
0
 51
89.999999999999915
  0
LINE
  8
_0-1_計細線
  6
CONTINUOUS
 62
    3
 10
974.06487216678784
 20
687.39604780141531
 11
971.56487216678784
 21
687.39604780141531
  0
ARC
  8
_0-1_計細線
  6
CONTINUOUS
 62
    3
 10
979.46487216678804
 20
686.39604780141565
 40
1.0000000000000004
 50
89.999999999999915
 51
179.99999999999983
  0
LINE
  8
_0-1_計細線
  6
CONTINUOUS
 62
    3
 10
979.46487216458024
 20
687.39604780141531
 11
981.96487216458104
 21
687.39604780141531
  0
LINE
  8
_0-1_計細線
  6
CONTINUOUS
 62
    3
 10
979.26487216568444
 20
691.29604780141517
 11
974.26487216568444
 21
691.29604780141517
  0
LINE
  8
_0-1_計細線
  6
CONTINUOUS
 62
    3
 10
975.06487216568416
 20
666.29604780141551
 11
975.06487216678795
 21
686.39604780141565
  0
LINE
  8
_0-1_計細線
  6
CONTINUOUS
 62
    3
 10
978.46487216568437
 20
666.29604780141551
 11
978.46487216678793
 21
686.39604780141565
  0
LINE
  8
_0-1_計細線
  6
CONTINUOUS
 62
    3
 10
978.46487216568437
 20
666.29604780141551
 11
975.06487216568416
 21
666.29604780141551
  0
LINE
  8
_0-1_計細線
  6
CONTINUOUS
 62
    3
 10
978.46487216623643
 20
686.59604780141535
 11
992.46487216618357
 21
686.59604780141535
  0
LINE
  8
_0-1_計細線
  6
CONTINUOUS
 62
    3
 10
978.46487216623643
 20
673.59604780141569
 11
992.46487216546961
 21
673.59604780141569
  0
ARC
  8
_0-1_計細線
  6
CONTINUOUS
 62
    3
 10
954.66487216740302
 20
689.29604780141563
 40
1.0000000000000004
 50
89.999999999999915
 51
179.99999999999983
  0
ARC
  8
_0-1_計細線
  6
CONTINUOUS
 62
    3
 10
955.13282135873055
 20
691.29604780141517
 40
1.0000000000000004
 50
269.99999999999977
 51
330.00000000001364
  0
ARC
  8
_0-1_計細線
  6
CONTINUOUS
 62
    3
 10
956.86487216629973
 20
690.29604780141551
 40
1.0000000000000004
 50
89.999999999999915
 51
150.00000000000836
  0
LINE
  8
_0-1_計細線
  6
CONTINUOUS
 62
    3
 10
954.66487216740302
 20
690.29604780141551
 11
955.13282135873055
 21
690.29604780141551
  0
ARC
  8
_0-1_計細線
  6
CONTINUOUS
 62
    3
 10
964.06487216519577
 20
689.29604780141563
 40
1.0000000000000004
 50
0
 51
89.999999999999915
  0
ARC
  8
_0-1_計細線
  6
CONTINUOUS
 62
    3
 10
963.59692297386823
 20
691.29604780141517
 40
1.0000000000000004
 50
209.99999999998565
 51
269.99999999999977
  0
ARC
  8
_0-1_計細線
  6
CONTINUOUS
 62
    3
 10
961.86487216629973
 20
690.29604780141551
 40
1.0000000000000004
 50
30.000000000004672
 51
89.999999999999915
  0
LINE
  8
_0-1_計細線
  6
CONTINUOUS
 62
    3
 10
964.06487216519577
 20
690.29604780141551
 11
963.59692297386823
 21
690.29604780141551
  0
ARC
  8
_0-1_計細線
  6
CONTINUOUS
 62
    3
 10
954.16487216740302
 20
687.89604780141576
 40
0.5000000000000002
 50
179.99999999999983
 51
269.99999999999977
  0
LINE
  8
_0-1_計細線
  6
CONTINUOUS
 62
    3
 10
953.66487216740313
 20
689.29604780141563
 11
953.66487216740313
 21
687.89604780141576
  0
ARC
  8
_0-1_計細線
  6
CONTINUOUS
 62
    3
 10
964.56487216519633
 20
687.89604780141576
 40
0.5000000000000002
 50
269.99999999999977
 51
359.99999999999966
  0
LINE
  8
_0-1_計細線
  6
CONTINUOUS
 62
    3
 10
965.06487216519633
 20
689.29604780141563
 11
965.06487216519633
 21
687.89604780141576
  0
ARC
  8
_0-1_計細線
  6
CONTINUOUS
 62
    3
 10
956.66487216740302
 20
686.39604780141565
 40
1.0000000000000004
 50
0
 51
89.999999999999915
  0
LINE
  8
_0-1_計細線
  6
CONTINUOUS
 62
    3
 10
956.66487216740302
 20
687.39604780141531
 11
954.16487216740302
 21
687.39604780141531
  0
ARC
  8
_0-1_計細線
  6
CONTINUOUS
 62
    3
 10
962.06487216740311
 20
686.39604780141565
 40
1.0000000000000004
 50
89.999999999999915
 51
179.99999999999983
  0
LINE
  8
_0-1_計細線
  6
CONTINUOUS
 62
    3
 10
962.06487216519531
 20
687.39604780141531
 11
964.56487216519633
 21
687.39604780141531
  0
LINE
  8
_0-1_計細線
  6
CONTINUOUS
 62
    3
 10
961.86487216629973
 20
691.29604780141517
 11
956.86487216629973
 21
691.29604780141517
  0
LINE
  8
_0-1_計細線
  6
CONTINUOUS
 62
    3
 10
957.66487216629935
 20
666.29604780141551
 11
957.66487216740302
 21
686.39604780141565
  0
LINE
  8
_0-1_計細線
  6
CONTINUOUS
 62
    3
 10
961.06487216629944
 20
666.29604780141551
 11
961.06487216740322
 21
686.39604780141565
  0
LINE
  8
_0-1_計細線
  6
CONTINUOUS
 62
    3
 10
961.06487216629944
 20
666.29604780141551
 11
957.66487216629935
 21
666.29604780141551
  0
LINE
  8
_0-1_計細線
  6
CONTINUOUS
 62
    3
 10
961.0648721668515
 20
686.59604780141535
 11
975.06487216679886
 21
686.59604780141535
  0
LINE
  8
_0-1_計細線
  6
CONTINUOUS
 62
    3
 10
961.0648721668515
 20
673.59604780141569
 11
975.06487216608491
 21
673.59604780141569
  0
ARC
  8
_0-1_計細線
  6
CONTINUOUS
 62
    3
 10
937.26487216801831
 20
689.29604780141563
 40
1.0000000000000004
 50
89.999999999999915
 51
179.99999999999983
  0
ARC
  8
_0-1_計細線
  6
CONTINUOUS
 62
    3
 10
937.73282135934573
 20
691.29604780141517
 40
1.0000000000000004
 50
269.99999999999977
 51
330.00000000001364
  0
ARC
  8
_0-1_計細線
  6
CONTINUOUS
 62
    3
 10
939.4648721669148
 20
690.29604780141551
 40
1.0000000000000004
 50
89.999999999999915
 51
150.00000000000836
  0
LINE
  8
_0-1_計細線
  6
CONTINUOUS
 62
    3
 10
937.26487216801831
 20
690.29604780141551
 11
937.73282135934573
 21
690.29604780141551
  0
ARC
  8
_0-1_計細線
  6
CONTINUOUS
 62
    3
 10
946.66487216581106
 20
689.29604780141563
 40
1.0000000000000004
 50
0
 51
89.999999999999915
  0
ARC
  8
_0-1_計細線
  6
CONTINUOUS
 62
    3
 10
946.19692297448353
 20
691.29604780141517
 40
1.0000000000000004
 50
209.99999999998565
 51
269.99999999999977
  0
ARC
  8
_0-1_計細線
  6
CONTINUOUS
 62
    3
 10
944.4648721669148
 20
690.29604780141551
 40
1.0000000000000004
 50
30.000000000004672
 51
89.999999999999915
  0
LINE
  8
_0-1_計細線
  6
CONTINUOUS
 62
    3
 10
946.66487216581106
 20
690.29604780141551
 11
946.19692297448353
 21
690.29604780141551
  0
ARC
  8
_0-1_計細線
  6
CONTINUOUS
 62
    3
 10
936.76487216801831
 20
687.89604780141576
 40
0.5000000000000002
 50
179.99999999999983
 51
269.99999999999977
  0
LINE
  8
_0-1_計細線
  6
CONTINUOUS
 62
    3
 10
936.2648721680182
 20
689.29604780141563
 11
936.2648721680182
 21
687.89604780141576
  0
ARC
  8
_0-1_計細線
  6
CONTINUOUS
 62
    3
 10
947.1648721658114
 20
687.89604780141576
 40
0.5000000000000002
 50
269.99999999999977
 51
359.99999999999966
  0
LINE
  8
_0-1_計細線
  6
CONTINUOUS
 62
    3
 10
947.6648721658114
 20
689.29604780141563
 11
947.6648721658114
 21
687.89604780141576
  0
ARC
  8
_0-1_計細線
  6
CONTINUOUS
 62
    3
 10
939.26487216801831
 20
686.39604780141565
 40
1.0000000000000004
 50
0
 51
89.999999999999915
  0
LINE
  8
_0-1_計細線
  6
CONTINUOUS
 62
    3
 10
939.26487216801831
 20
687.39604780141531
 11
936.76487216801831
 21
687.39604780141531
  0
ARC
  8
_0-1_計細線
  6
CONTINUOUS
 62
    3
 10
944.66487216801841
 20
686.39604780141565
 40
1.0000000000000004
 50
89.999999999999915
 51
179.99999999999983
  0
LINE
  8
_0-1_計細線
  6
CONTINUOUS
 62
    3
 10
944.66487216581061
 20
687.39604780141531
 11
947.1648721658114
 21
687.39604780141531
  0
LINE
  8
_0-1_計細線
  6
CONTINUOUS
 62
    3
 10
944.4648721669148
 20
691.29604780141517
 11
939.4648721669148
 21
691.29604780141517
  0
LINE
  8
_0-1_計細線
  6
CONTINUOUS
 62
    3
 10
940.26487216691464
 20
666.29604780141551
 11
940.2648721680182
 21
686.39604780141565
  0
LINE
  8
_0-1_計細線
  6
CONTINUOUS
 62
    3
 10
943.66487216691462
 20
666.29604780141551
 11
943.66487216801829
 21
686.39604780141565
  0
LINE
  8
_0-1_計細線
  6
CONTINUOUS
 62
    3
 10
943.66487216691462
 20
666.29604780141551
 11
940.26487216691464
 21
666.29604780141551
  0
LINE
  8
_0-1_計細線
  6
CONTINUOUS
 62
    3
 10
943.6648721674668
 20
686.59604780141535
 11
957.66487216741393
 21
686.59604780141535
  0
LINE
  8
_0-1_計細線
  6
CONTINUOUS
 62
    3
 10
943.6648721674668
 20
673.59604780141569
 11
957.66487216669998
 21
673.59604780141569
  0
ARC
  8
_0-1_計細線
  6
CONTINUOUS
 62
    3
 10
919.86487216863338
 20
689.29604780141563
 40
1.0000000000000004
 50
89.999999999999915
 51
179.99999999999983
  0
ARC
  8
_0-1_計細線
  6
CONTINUOUS
 62
    3
 10
920.33282135996103
 20
691.29604780141517
 40
1.0000000000000004
 50
269.99999999999977
 51
330.00000000001364
  0
ARC
  8
_0-1_計細線
  6
CONTINUOUS
 62
    3
 10
922.06487216752998
 20
690.29604780141551
 40
1.0000000000000004
 50
89.999999999999915
 51
150.00000000000836
  0
LINE
  8
_0-1_計細線
  6
CONTINUOUS
 62
    3
 10
919.86487216863338
 20
690.29604780141551
 11
920.33282135996103
 21
690.29604780141551
  0
ARC
  8
_0-1_計細線
  6
CONTINUOUS
 62
    3
 10
929.26487216642613
 20
689.29604780141563
 40
1.0000000000000004
 50
0
 51
89.999999999999915
  0
ARC
  8
_0-1_計細線
  6
CONTINUOUS
 62
    3
 10
928.7969229750986
 20
691.29604780141517
 40
1.0000000000000004
 50
209.99999999998565
 51
269.99999999999977
  0
ARC
  8
_0-1_計細線
  6
CONTINUOUS
 62
    3
 10
927.06487216752998
 20
690.29604780141551
 40
1.0000000000000004
 50
30.000000000004672
 51
89.999999999999915
  0
LINE
  8
_0-1_計細線
  6
CONTINUOUS
 62
    3
 10
929.26487216642613
 20
690.29604780141551
 11
928.7969229750986
 21
690.29604780141551
  0
ARC
  8
_0-1_計細線
  6
CONTINUOUS
 62
    3
 10
919.36487216863338
 20
687.89604780141576
 40
0.5000000000000002
 50
179.99999999999983
 51
269.99999999999977
  0
LINE
  8
_0-1_計細線
  6
CONTINUOUS
 62
    3
 10
918.86487216863338
 20
689.29604780141563
 11
918.86487216863338
 21
687.89604780141576
  0
ARC
  8
_0-1_計細線
  6
CONTINUOUS
 62
    3
 10
929.7648721664267
 20
687.89604780141576
 40
0.5000000000000002
 50
269.99999999999977
 51
359.99999999999966
  0
LINE
  8
_0-1_計細線
  6
CONTINUOUS
 62
    3
 10
930.26487216642658
 20
689.29604780141563
 11
930.26487216642658
 21
687.89604780141576
  0
ARC
  8
_0-1_計細線
  6
CONTINUOUS
 62
    3
 10
921.86487216863338
 20
686.39604780141565
 40
1.0000000000000004
 50
0
 51
89.999999999999915
  0
LINE
  8
_0-1_計細線
  6
CONTINUOUS
 62
    3
 10
921.86487216863338
 20
687.39604780141531
 11
919.36487216863338
 21
687.39604780141531
  0
ARC
  8
_0-1_計細線
  6
CONTINUOUS
 62
    3
 10
927.26487216863347
 20
686.39604780141565
 40
1.0000000000000004
 50
89.999999999999915
 51
179.99999999999983
  0
LINE
  8
_0-1_計細線
  6
CONTINUOUS
 62
    3
 10
927.26487216642568
 20
687.39604780141531
 11
929.7648721664267
 21
687.39604780141531
  0
LINE
  8
_0-1_計細線
  6
CONTINUOUS
 62
    3
 10
927.06487216752998
 20
691.29604780141517
 11
922.06487216752998
 21
691.29604780141517
  0
LINE
  8
_0-1_計細線
  6
CONTINUOUS
 62
    3
 10
922.86487216752971
 20
666.29604780141551
 11
922.8648721686335
 21
686.39604780141565
  0
LINE
  8
_0-1_計細線
  6
CONTINUOUS
 62
    3
 10
926.26487216752992
 20
666.29604780141551
 11
926.26487216863347
 21
686.39604780141565
  0
LINE
  8
_0-1_計細線
  6
CONTINUOUS
 62
    3
 10
926.26487216752992
 20
666.29604780141551
 11
922.86487216752971
 21
666.29604780141551
  0
LINE
  8
_0-1_計細線
  6
CONTINUOUS
 62
    3
 10
926.26487216808187
 20
686.59604780141535
 11
940.26487216802923
 21
686.59604780141535
  0
LINE
  8
_0-1_計細線
  6
CONTINUOUS
 62
    3
 10
926.26487216808187
 20
673.59604780141569
 11
940.26487216731527
 21
673.59604780141569
  0
ARC
  8
_0-1_計細線
  6
CONTINUOUS
 62
    3
 10
902.46487216924857
 20
689.29604780141563
 40
1.0000000000000004
 50
89.999999999999915
 51
179.99999999999983
  0
ARC
  8
_0-1_計細線
  6
CONTINUOUS
 62
    3
 10
902.9328213605761
 20
691.29604780141517
 40
1.0000000000000004
 50
269.99999999999977
 51
330.00000000001364
  0
ARC
  8
_0-1_計細線
  6
CONTINUOUS
 62
    3
 10
904.66487216814528
 20
690.29604780141551
 40
1.0000000000000004
 50
89.999999999999915
 51
150.00000000000836
  0
LINE
  8
_0-1_計細線
  6
CONTINUOUS
 62
    3
 10
902.46487216924857
 20
690.29604780141551
 11
902.9328213605761
 21
690.29604780141551
  0
ARC
  8
_0-1_計細線
  6
CONTINUOUS
 62
    3
 10
911.86487216704131
 20
689.29604780141563
 40
1.0000000000000004
 50
0
 51
89.999999999999915
  0
ARC
  8
_0-1_計細線
  6
CONTINUOUS
 62
    3
 10
911.39692297571389
 20
691.29604780141517
 40
1.0000000000000004
 50
209.99999999998565
 51
269.99999999999977
  0
ARC
  8
_0-1_計細線
  6
CONTINUOUS
 62
    3
 10
909.66487216814528
 20
690.29604780141551
 40
1.0000000000000004
 50
30.000000000004672
 51
89.999999999999915
  0
LINE
  8
_0-1_計細線
  6
CONTINUOUS
 62
    3
 10
911.86487216704131
 20
690.29604780141551
 11
911.39692297571389
 21
690.29604780141551
  0
ARC
  8
_0-1_計細線
  6
CONTINUOUS
 62
    3
 10
901.96487216924868
 20
687.89604780141576
 40
0.5000000000000002
 50
179.99999999999983
 51
269.99999999999977
  0
LINE
  8
_0-1_計細線
  6
CONTINUOUS
 62
    3
 10
901.46487216924868
 20
689.29604780141563
 11
901.46487216924868
 21
687.89604780141576
  0
ARC
  8
_0-1_計細線
  6
CONTINUOUS
 62
    3
 10
912.36487216704177
 20
687.89604780141576
 40
0.5000000000000002
 50
269.99999999999977
 51
359.99999999999966
  0
LINE
  8
_0-1_計細線
  6
CONTINUOUS
 62
    3
 10
912.86487216704188
 20
689.29604780141563
 11
912.86487216704188
 21
687.89604780141576
  0
ARC
  8
_0-1_計細線
  6
CONTINUOUS
 62
    3
 10
904.46487216924868
 20
686.39604780141565
 40
1.0000000000000004
 50
0
 51
89.999999999999915
  0
LINE
  8
_0-1_計細線
  6
CONTINUOUS
 62
    3
 10
904.46487216924868
 20
687.39604780141531
 11
901.96487216924868
 21
687.39604780141531
  0
ARC
  8
_0-1_計細線
  6
CONTINUOUS
 62
    3
 10
909.86487216924866
 20
686.39604780141565
 40
1.0000000000000004
 50
89.999999999999915
 51
179.99999999999983
  0
LINE
  8
_0-1_計細線
  6
CONTINUOUS
 62
    3
 10
909.86487216704086
 20
687.39604780141531
 11
912.36487216704177
 21
687.39604780141531
  0
LINE
  8
_0-1_計細線
  6
CONTINUOUS
 62
    3
 10
909.66487216814528
 20
691.29604780141517
 11
904.66487216814528
 21
691.29604780141517
  0
LINE
  8
_0-1_計細線
  6
CONTINUOUS
 62
    3
 10
905.46487216814501
 20
666.29604780141551
 11
905.46487216924857
 21
686.39604780141565
  0
LINE
  8
_0-1_計細線
  6
CONTINUOUS
 62
    3
 10
908.86487216814498
 20
666.29604780141551
 11
908.86487216924877
 21
686.39604780141565
  0
LINE
  8
_0-1_計細線
  6
CONTINUOUS
 62
    3
 10
908.86487216814498
 20
666.29604780141551
 11
905.46487216814501
 21
666.29604780141551
  0
LINE
  8
_0-1_計細線
  6
CONTINUOUS
 62
    3
 10
908.86487216869705
 20
686.59604780141535
 11
922.8648721686443
 21
686.59604780141535
  0
LINE
  8
_0-1_計細線
  6
CONTINUOUS
 62
    3
 10
908.86487216869705
 20
673.59604780141569
 11
922.86487216793034
 21
673.59604780141569
  0
ARC
  8
_0-1_計細線
  6
CONTINUOUS
 62
    3
 10
885.06487216986386
 20
689.29604780141563
 40
1.0000000000000004
 50
89.999999999999915
 51
179.99999999999983
  0
ARC
  8
_0-1_計細線
  6
CONTINUOUS
 62
    3
 10
885.5328213611914
 20
691.29604780141517
 40
1.0000000000000004
 50
269.99999999999977
 51
330.00000000001364
  0
ARC
  8
_0-1_計細線
  6
CONTINUOUS
 62
    3
 10
887.26487216876035
 20
690.29604780141551
 40
1.0000000000000004
 50
89.999999999999915
 51
150.00000000000836
  0
LINE
  8
_0-1_計細線
  6
CONTINUOUS
 62
    3
 10
885.06487216986386
 20
690.29604780141551
 11
885.5328213611914
 21
690.29604780141551
  0
ARC
  8
_0-1_計細線
  6
CONTINUOUS
 62
    3
 10
894.46487216765661
 20
689.29604780141563
 40
1.0000000000000004
 50
0
 51
89.999999999999915
  0
ARC
  8
_0-1_計細線
  6
CONTINUOUS
 62
    3
 10
893.99692297632896
 20
691.29604780141517
 40
1.0000000000000004
 50
209.99999999998565
 51
269.99999999999977
  0
ARC
  8
_0-1_計細線
  6
CONTINUOUS
 62
    3
 10
892.26487216876035
 20
690.29604780141551
 40
1.0000000000000004
 50
30.000000000004672
 51
89.999999999999915
  0
LINE
  8
_0-1_計細線
  6
CONTINUOUS
 62
    3
 10
894.46487216765661
 20
690.29604780141551
 11
893.99692297632896
 21
690.29604780141551
  0
ARC
  8
_0-1_計細線
  6
CONTINUOUS
 62
    3
 10
884.56487216986375
 20
687.89604780141576
 40
0.5000000000000002
 50
179.99999999999983
 51
269.99999999999977
  0
LINE
  8
_0-1_計細線
  6
CONTINUOUS
 62
    3
 10
884.06487216986375
 20
689.29604780141563
 11
884.06487216986375
 21
687.89604780141576
  0
ARC
  8
_0-1_計細線
  6
CONTINUOUS
 62
    3
 10
894.96487216765695
 20
687.89604780141576
 40
0.5000000000000002
 50
269.99999999999977
 51
359.99999999999966
  0
LINE
  8
_0-1_計細線
  6
CONTINUOUS
 62
    3
 10
895.46487216765695
 20
689.29604780141563
 11
895.46487216765695
 21
687.89604780141576
  0
ARC
  8
_0-1_計細線
  6
CONTINUOUS
 62
    3
 10
887.06487216986375
 20
686.39604780141565
 40
1.0000000000000004
 50
0
 51
89.999999999999915
  0
LINE
  8
_0-1_計細線
  6
CONTINUOUS
 62
    3
 10
887.06487216986375
 20
687.39604780141531
 11
884.56487216986375
 21
687.39604780141531
  0
ARC
  8
_0-1_計細線
  6
CONTINUOUS
 62
    3
 10
892.46487216986395
 20
686.39604780141565
 40
1.0000000000000004
 50
89.999999999999915
 51
179.99999999999983
  0
LINE
  8
_0-1_計細線
  6
CONTINUOUS
 62
    3
 10
892.46487216765615
 20
687.39604780141531
 11
894.96487216765695
 21
687.39604780141531
  0
LINE
  8
_0-1_計細線
  6
CONTINUOUS
 62
    3
 10
892.26487216876035
 20
691.29604780141517
 11
887.26487216876035
 21
691.29604780141517
  0
LINE
  8
_0-1_計細線
  6
CONTINUOUS
 62
    3
 10
888.06487216876008
 20
666.29604780141551
 11
888.06487216986386
 21
686.39604780141565
  0
LINE
  8
_0-1_計細線
  6
CONTINUOUS
 62
    3
 10
891.46487216876028
 20
666.29604780141551
 11
891.46487216986384
 21
686.39604780141565
  0
LINE
  8
_0-1_計細線
  6
CONTINUOUS
 62
    3
 10
891.46487216876028
 20
666.29604780141551
 11
888.06487216876008
 21
666.29604780141551
  0
LINE
  8
_0-1_計細線
  6
CONTINUOUS
 62
    3
 10
891.46487216931234
 20
686.59604780141535
 11
905.46487216925948
 21
686.59604780141535
  0
LINE
  8
_0-1_計細線
  6
CONTINUOUS
 62
    3
 10
891.46487216931234
 20
673.59604780141569
 11
905.46487216854553
 21
673.59604780141569
  0
LINE
  8
_0-1_計細線
  6
CONTINUOUS
 62
    3
 10
873.26487216104056
 20
673.59604780141569
 11
888.06487216916082
 21
673.59604780141569
  0
LINE
  8
_0-1_計細線
  6
CONTINUOUS
 62
    3
 10
873.2648721603266
 20
686.59604780141535
 11
888.06487216987477
 21
686.59604780141535
  0
ARC
  8
_0-1_計細線
  6
CONTINUOUS
 62
    3
 10
876.26487216033752
 20
689.29604780141563
 40
1.0000000000000004
 50
0
 51
89.999999999999915
  0
ARC
  8
_0-1_計細線
  6
CONTINUOUS
 62
    3
 10
875.79692296900998
 20
691.29604780141517
 40
1.0000000000000004
 50
209.99999999998565
 51
269.99999999999977
  0
ARC
  8
_0-1_計細線
  6
CONTINUOUS
 62
    3
 10
874.06487216144137
 20
690.29604780141551
 40
1.0000000000000004
 50
30.000000000004672
 51
89.999999999999915
  0
LINE
  8
_0-1_計細線
  6
CONTINUOUS
 62
    3
 10
876.26487216033752
 20
690.29604780141551
 11
875.79692296900998
 21
690.29604780141551
  0
ARC
  8
_0-1_計細線
  6
CONTINUOUS
 62
    3
 10
866.86487216254432
 20
689.29604780141563
 40
1.0000000000000004
 50
89.999999999999915
 51
179.99999999999983
  0
ARC
  8
_0-1_計細線
  6
CONTINUOUS
 62
    3
 10
867.33282135387242
 20
691.29604780141517
 40
1.0000000000000004
 50
269.99999999999977
 51
330.00000000001364
  0
ARC
  8
_0-1_計細線
  6
CONTINUOUS
 62
    3
 10
869.06487216144103
 20
690.29604780141551
 40
1.0000000000000004
 50
89.999999999999915
 51
149.99999999999534
  0
LINE
  8
_0-1_計細線
  6
CONTINUOUS
 62
    3
 10
866.86487216254432
 20
690.29604780141551
 11
867.33282135387242
 21
690.29604780141551
  0
ARC
  8
_0-1_計細線
  6
CONTINUOUS
 62
    3
 10
876.76487216033763
 20
687.89604780141576
 40
0.5000000000000002
 50
269.99999999999977
 51
359.99999999999966
  0
LINE
  8
_0-1_計細線
  6
CONTINUOUS
 62
    3
 10
877.26487216033763
 20
689.29604780141563
 11
877.26487216033763
 21
687.89604780141576
  0
ARC
  8
_0-1_計細線
  6
CONTINUOUS
 62
    3
 10
866.36487216254432
 20
687.89604780141576
 40
0.5000000000000002
 50
179.99999999999983
 51
269.99999999999977
  0
LINE
  8
_0-1_計細線
  6
CONTINUOUS
 62
    3
 10
865.86487216254477
 20
689.29604780141563
 11
865.86487216254477
 21
687.89604780141576
  0
ARC
  8
_0-1_計細線
  6
CONTINUOUS
 62
    3
 10
874.26487216033763
 20
686.39604780141565
 40
1.0000000000000004
 50
89.999999999999915
 51
179.99999999999983
  0
LINE
  8
_0-1_計細線
  6
CONTINUOUS
 62
    3
 10
874.26487216033763
 20
687.39604780141531
 11
876.76487216033763
 21
687.39604780141531
  0
ARC
  8
_0-1_計細線
  6
CONTINUOUS
 62
    3
 10
868.86487216033743
 20
686.39604780141565
 40
1.0000000000000004
 50
0
 51
89.999999999999915
  0
LINE
  8
_0-1_計細線
  6
CONTINUOUS
 62
    3
 10
868.86487216254523
 20
687.39604780141531
 11
866.36487216254432
 21
687.39604780141531
  0
LINE
  8
_0-1_計細線
  6
CONTINUOUS
 62
    3
 10
869.06487216144103
 20
691.29604780141517
 11
874.06487216144137
 21
691.29604780141517
  0
LINE
  8
_0-1_計細線
  6
CONTINUOUS
 62
    3
 10
873.2648721614413
 20
666.29604780141551
 11
873.26487216033752
 21
686.39604780141565
  0
LINE
  8
_0-1_計細線
  6
CONTINUOUS
 62
    3
 10
869.8648721614411
 20
666.29604780141551
 11
869.86487216033754
 21
686.39604780141565
  0
LINE
  8
_0-1_計細線
  6
CONTINUOUS
 62
    3
 10
869.8648721614411
 20
666.29604780141551
 11
873.2648721614413
 21
666.29604780141551
  0
ARC
  8
_0-1_計細線
  6
CONTINUOUS
 62
    3
 10
1120.6648721613772
 20
689.29604780141563
 40
1.0000000000000004
 50
0
 51
89.999999999999915
  0
ARC
  8
_0-1_計細線
  6
CONTINUOUS
 62
    3
 10
1120.1969229700496
 20
691.29604780141517
 40
1.0000000000000004
 50
209.99999999998565
 51
269.99999999999977
  0
ARC
  8
_0-1_計細線
  6
CONTINUOUS
 62
    3
 10
1118.4648721624806
 20
690.29604780141551
 40
1.0000000000000004
 50
29.999999999991644
 51
89.999999999999915
  0
LINE
  8
_0-1_計細線
  6
CONTINUOUS
 62
    3
 10
1120.6648721613772
 20
690.29604780141551
 11
1120.1969229700496
 21
690.29604780141551
  0
ARC
  8
_0-1_計細線
  6
CONTINUOUS
 62
    3
 10
1111.2648721635844
 20
689.29604780141563
 40
1.0000000000000004
 50
89.999999999999915
 51
179.99999999999983
  0
ARC
  8
_0-1_計細線
  6
CONTINUOUS
 62
    3
 10
1111.7328213549122
 20
691.29604780141517
 40
1.0000000000000004
 50
269.99999999999977
 51
330.00000000001364
  0
ARC
  8
_0-1_計細線
  6
CONTINUOUS
 62
    3
 10
1113.464872162481
 20
690.29604780141551
 40
1.0000000000000004
 50
90.000000000026048
 51
150.00000000000836
  0
LINE
  8
_0-1_計細線
  6
CONTINUOUS
 62
    3
 10
1111.2648721635844
 20
690.29604780141551
 11
1111.7328213549122
 21
690.29604780141551
  0
ARC
  8
_0-1_計細線
  6
CONTINUOUS
 62
    3
 10
1121.1648721613767
 20
687.89604780141576
 40
0.5000000000000002
 50
269.99999999999977
 51
359.99999999999966
  0
LINE
  8
_0-1_計細線
  6
CONTINUOUS
 62
    3
 10
1121.6648721613772
 20
689.29604780141563
 11
1121.6648721613772
 21
687.89604780141576
  0
ARC
  8
_0-1_計細線
  6
CONTINUOUS
 62
    3
 10
1110.764872163584
 20
687.89604780141576
 40
0.5000000000000002
 50
179.99999999999983
 51
269.99999999999977
  0
LINE
  8
_0-1_計細線
  6
CONTINUOUS
 62
    3
 10
1110.264872163584
 20
689.29604780141563
 11
1110.264872163584
 21
687.89604780141576
  0
ARC
  8
_0-1_計細線
  6
CONTINUOUS
 62
    3
 10
1118.6648721613774
 20
686.39604780141565
 40
1.0000000000000004
 50
89.999999999999915
 51
179.99999999999983
  0
LINE
  8
_0-1_計細線
  6
CONTINUOUS
 62
    3
 10
1118.6648721613774
 20
687.39604780141531
 11
1121.1648721613767
 21
687.39604780141531
  0
ARC
  8
_0-1_計細線
  6
CONTINUOUS
 62
    3
 10
1113.2648721613771
 20
686.39604780141565
 40
1.0000000000000004
 50
0
 51
89.999999999999915
  0
LINE
  8
_0-1_計細線
  6
CONTINUOUS
 62
    3
 10
1113.2648721635844
 20
687.39604780141531
 11
1110.764872163584
 21
687.39604780141531
  0
LINE
  8
_0-1_計細線
  6
CONTINUOUS
 62
    3
 10
1113.464872162481
 20
691.29604780141517
 11
1118.4648721624806
 21
691.29604780141517
  0
LINE
  8
_0-1_計細線
  6
CONTINUOUS
 62
    3
 10
1117.6648721624811
 20
666.29604780141551
 11
1117.6648721613776
 21
686.39604780141565
  0
LINE
  8
_0-1_計細線
  6
CONTINUOUS
 62
    3
 10
1114.2648721624807
 20
666.29604780141551
 11
1114.2648721613771
 21
686.39604780141565
  0
LINE
  8
_0-1_計細線
  6
CONTINUOUS
 62
    3
 10
1114.2648721624807
 20
666.29604780141551
 11
1117.6648721624811
 21
666.29604780141551
  0
LINE
  8
_0-1_計細線
  6
CONTINUOUS
 62
    3
 10
1114.2648721619294
 20
686.59604780141535
 11
1100.2648721619814
 21
686.59604780141535
  0
LINE
  8
_0-1_計細線
  6
CONTINUOUS
 62
    3
 10
1114.2648721619294
 20
673.59604780141569
 11
1100.2648721626949
 21
673.59604780141569
  0
ARC
  8
_0-1_計細線
  6
CONTINUOUS
 62
    3
 10
1138.064872160762
 20
689.29604780141563
 40
1.0000000000000004
 50
0
 51
89.999999999999915
  0
ARC
  8
_0-1_計細線
  6
CONTINUOUS
 62
    3
 10
1137.5969229694347
 20
691.29604780141517
 40
1.0000000000000004
 50
209.99999999998565
 51
269.99999999999977
  0
ARC
  8
_0-1_計細線
  6
CONTINUOUS
 62
    3
 10
1135.8648721618654
 20
690.29604780141551
 40
1.0000000000000004
 50
29.999999999991644
 51
89.999999999999915
  0
LINE
  8
_0-1_計細線
  6
CONTINUOUS
 62
    3
 10
1138.064872160762
 20
690.29604780141551
 11
1137.5969229694347
 21
690.29604780141551
  0
ARC
  8
_0-1_計細線
  6
CONTINUOUS
 62
    3
 10
1128.6648721629692
 20
689.29604780141563
 40
1.0000000000000004
 50
89.999999999999915
 51
179.99999999999983
  0
ARC
  8
_0-1_計細線
  6
CONTINUOUS
 62
    3
 10
1129.1328213542968
 20
691.29604780141517
 40
1.0000000000000004
 50
269.99999999999977
 51
330.00000000001364
  0
ARC
  8
_0-1_計細線
  6
CONTINUOUS
 62
    3
 10
1130.8648721618658
 20
690.29604780141551
 40
1.0000000000000004
 50
90.000000000026048
 51
150.00000000000836
  0
LINE
  8
_0-1_計細線
  6
CONTINUOUS
 62
    3
 10
1128.6648721629692
 20
690.29604780141551
 11
1129.1328213542968
 21
690.29604780141551
  0
ARC
  8
_0-1_計細線
  6
CONTINUOUS
 62
    3
 10
1138.5648721607615
 20
687.89604780141576
 40
0.5000000000000002
 50
269.99999999999977
 51
359.99999999999966
  0
LINE
  8
_0-1_計細線
  6
CONTINUOUS
 62
    3
 10
1139.064872160762
 20
689.29604780141563
 11
1139.064872160762
 21
687.89604780141576
  0
ARC
  8
_0-1_計細線
  6
CONTINUOUS
 62
    3
 10
1128.1648721629688
 20
687.89604780141576
 40
0.5000000000000002
 50
179.99999999999983
 51
269.99999999999977
  0
LINE
  8
_0-1_計細線
  6
CONTINUOUS
 62
    3
 10
1127.6648721629688
 20
689.29604780141563
 11
1127.6648721629688
 21
687.89604780141576
  0
ARC
  8
_0-1_計細線
  6
CONTINUOUS
 62
    3
 10
1136.064872160762
 20
686.39604780141565
 40
1.0000000000000004
 50
89.999999999999915
 51
179.99999999999983
  0
LINE
  8
_0-1_計細線
  6
CONTINUOUS
 62
    3
 10
1136.064872160762
 20
687.39604780141531
 11
1138.5648721607615
 21
687.39604780141531
  0
ARC
  8
_0-1_計細線
  6
CONTINUOUS
 62
    3
 10
1130.6648721607619
 20
686.39604780141565
 40
1.0000000000000004
 50
0
 51
89.999999999999915
  0
LINE
  8
_0-1_計細線
  6
CONTINUOUS
 62
    3
 10
1130.6648721629695
 20
687.39604780141531
 11
1128.1648721629688
 21
687.39604780141531
  0
LINE
  8
_0-1_計細線
  6
CONTINUOUS
 62
    3
 10
1130.8648721618658
 20
691.29604780141517
 11
1135.8648721618654
 21
691.29604780141517
  0
LINE
  8
_0-1_計細線
  6
CONTINUOUS
 62
    3
 10
1135.0648721618657
 20
666.29604780141551
 11
1135.0648721607624
 21
686.39604780141565
  0
LINE
  8
_0-1_計細線
  6
CONTINUOUS
 62
    3
 10
1131.6648721618658
 20
666.29604780141551
 11
1131.6648721607619
 21
686.39604780141565
  0
LINE
  8
_0-1_計細線
  6
CONTINUOUS
 62
    3
 10
1131.6648721618658
 20
666.29604780141551
 11
1135.0648721618657
 21
666.29604780141551
  0
LINE
  8
_0-1_計細線
  6
CONTINUOUS
 62
    3
 10
1131.664872161314
 20
686.59604780141535
 11
1117.6648721613662
 21
686.59604780141535
  0
LINE
  8
_0-1_計細線
  6
CONTINUOUS
 62
    3
 10
1131.664872161314
 20
673.59604780141569
 11
1117.6648721620797
 21
673.59604780141569
  0
ARC
  8
_0-1_計細線
  6
CONTINUOUS
 62
    3
 10
1155.4648721601468
 20
689.29604780141563
 40
1.0000000000000004
 50
0
 51
89.999999999999915
  0
ARC
  8
_0-1_計細線
  6
CONTINUOUS
 62
    3
 10
1154.9969229688193
 20
691.29604780141517
 40
1.0000000000000004
 50
209.99999999998565
 51
269.99999999999977
  0
ARC
  8
_0-1_計細線
  6
CONTINUOUS
 62
    3
 10
1153.2648721612504
 20
690.29604780141551
 40
1.0000000000000004
 50
29.999999999991644
 51
89.999999999999915
  0
LINE
  8
_0-1_計細線
  6
CONTINUOUS
 62
    3
 10
1155.4648721601468
 20
690.29604780141551
 11
1154.9969229688193
 21
690.29604780141551
  0
ARC
  8
_0-1_計細線
  6
CONTINUOUS
 62
    3
 10
1146.064872162354
 20
689.29604780141563
 40
1.0000000000000004
 50
89.999999999999915
 51
179.99999999999983
  0
ARC
  8
_0-1_計細線
  6
CONTINUOUS
 62
    3
 10
1146.5328213536816
 20
691.29604780141517
 40
1.0000000000000004
 50
269.99999999999977
 51
330.00000000001364
  0
ARC
  8
_0-1_計細線
  6
CONTINUOUS
 62
    3
 10
1148.2648721612507
 20
690.29604780141551
 40
1.0000000000000004
 50
90.000000000026048
 51
150.00000000000836
  0
LINE
  8
_0-1_計細線
  6
CONTINUOUS
 62
    3
 10
1146.064872162354
 20
690.29604780141551
 11
1146.5328213536816
 21
690.29604780141551
  0
ARC
  8
_0-1_計細線
  6
CONTINUOUS
 62
    3
 10
1155.9648721601463
 20
687.89604780141576
 40
0.5000000000000002
 50
269.99999999999977
 51
359.99999999999966
  0
LINE
  8
_0-1_計細線
  6
CONTINUOUS
 62
    3
 10
1156.464872160147
 20
689.29604780141563
 11
1156.464872160147
 21
687.89604780141576
  0
ARC
  8
_0-1_計細線
  6
CONTINUOUS
 62
    3
 10
1145.5648721623536
 20
687.89604780141576
 40
0.5000000000000002
 50
179.99999999999983
 51
269.99999999999977
  0
LINE
  8
_0-1_計細線
  6
CONTINUOUS
 62
    3
 10
1145.0648721623538
 20
689.29604780141563
 11
1145.0648721623538
 21
687.89604780141576
  0
ARC
  8
_0-1_計細線
  6
CONTINUOUS
 62
    3
 10
1153.4648721601468
 20
686.39604780141565
 40
1.0000000000000004
 50
89.999999999999915
 51
179.99999999999983
  0
LINE
  8
_0-1_計細線
  6
CONTINUOUS
 62
    3
 10
1153.4648721601468
 20
687.39604780141531
 11
1155.9648721601463
 21
687.39604780141531
  0
ARC
  8
_0-1_計細線
  6
CONTINUOUS
 62
    3
 10
1148.0648721601467
 20
686.39604780141565
 40
1.0000000000000004
 50
0
 51
89.999999999999915
  0
LINE
  8
_0-1_計細線
  6
CONTINUOUS
 62
    3
 10
1148.064872162354
 20
687.39604780141531
 11
1145.5648721623536
 21
687.39604780141531
  0
LINE
  8
_0-1_計細線
  6
CONTINUOUS
 62
    3
 10
1148.2648721612507
 20
691.29604780141517
 11
1153.2648721612504
 21
691.29604780141517
  0
LINE
  8
_0-1_計細線
  6
CONTINUOUS
 62
    3
 10
1152.4648721612505
 20
666.29604780141551
 11
1152.4648721601473
 21
686.39604780141565
  0
LINE
  8
_0-1_計細線
  6
CONTINUOUS
 62
    3
 10
1149.0648721612504
 20
666.29604780141551
 11
1149.0648721601469
 21
686.39604780141565
  0
LINE
  8
_0-1_計細線
  6
CONTINUOUS
 62
    3
 10
1149.0648721612504
 20
666.29604780141551
 11
1152.4648721612505
 21
666.29604780141551
  0
LINE
  8
_0-1_計細線
  6
CONTINUOUS
 62
    3
 10
1149.0648721606988
 20
686.59604780141535
 11
1135.0648721607511
 21
686.59604780141535
  0
LINE
  8
_0-1_計細線
  6
CONTINUOUS
 62
    3
 10
1149.0648721606988
 20
673.59604780141569
 11
1135.0648721614648
 21
673.59604780141569
  0
ARC
  8
_0-1_計細線
  6
CONTINUOUS
 62
    3
 10
1172.8648721595318
 20
689.29604780141563
 40
1.0000000000000004
 50
0
 51
89.999999999999915
  0
ARC
  8
_0-1_計細線
  6
CONTINUOUS
 62
    3
 10
1172.3969229682041
 20
691.29604780141517
 40
1.0000000000000004
 50
209.99999999998565
 51
269.99999999999977
  0
ARC
  8
_0-1_計細線
  6
CONTINUOUS
 62
    3
 10
1170.664872160635
 20
690.29604780141551
 40
1.0000000000000004
 50
29.999999999991644
 51
89.999999999999915
  0
LINE
  8
_0-1_計細線
  6
CONTINUOUS
 62
    3
 10
1172.8648721595318
 20
690.29604780141551
 11
1172.3969229682041
 21
690.29604780141551
  0
ARC
  8
_0-1_計細線
  6
CONTINUOUS
 62
    3
 10
1163.4648721617391
 20
689.29604780141563
 40
1.0000000000000004
 50
89.999999999999915
 51
179.99999999999983
  0
ARC
  8
_0-1_計細線
  6
CONTINUOUS
 62
    3
 10
1163.9328213530664
 20
691.29604780141517
 40
1.0000000000000004
 50
269.99999999999977
 51
330.00000000001364
  0
ARC
  8
_0-1_計細線
  6
CONTINUOUS
 62
    3
 10
1165.6648721606355
 20
690.29604780141551
 40
1.0000000000000004
 50
90.000000000026048
 51
150.00000000000836
  0
LINE
  8
_0-1_計細線
  6
CONTINUOUS
 62
    3
 10
1163.4648721617391
 20
690.29604780141551
 11
1163.9328213530664
 21
690.29604780141551
  0
ARC
  8
_0-1_計細線
  6
CONTINUOUS
 62
    3
 10
1173.3648721595314
 20
687.89604780141576
 40
0.5000000000000002
 50
269.99999999999977
 51
359.99999999999966
  0
LINE
  8
_0-1_計細線
  6
CONTINUOUS
 62
    3
 10
1173.8648721595316
 20
689.29604780141563
 11
1173.8648721595316
 21
687.89604780141576
  0
ARC
  8
_0-1_計細線
  6
CONTINUOUS
 62
    3
 10
1162.9648721617384
 20
687.89604780141576
 40
0.5000000000000002
 50
179.99999999999983
 51
269.99999999999977
  0
LINE
  8
_0-1_計細線
  6
CONTINUOUS
 62
    3
 10
1162.4648721617384
 20
689.29604780141563
 11
1162.4648721617384
 21
687.89604780141576
  0
ARC
  8
_0-1_計細線
  6
CONTINUOUS
 62
    3
 10
1170.8648721595316
 20
686.39604780141565
 40
1.0000000000000004
 50
89.999999999999915
 51
179.99999999999983
  0
LINE
  8
_0-1_計細線
  6
CONTINUOUS
 62
    3
 10
1170.8648721595316
 20
687.39604780141531
 11
1173.3648721595314
 21
687.39604780141531
  0
ARC
  8
_0-1_計細線
  6
CONTINUOUS
 62
    3
 10
1165.4648721595318
 20
686.39604780141565
 40
1.0000000000000004
 50
0
 51
89.999999999999915
  0
LINE
  8
_0-1_計細線
  6
CONTINUOUS
 62
    3
 10
1165.4648721617389
 20
687.39604780141531
 11
1162.9648721617384
 21
687.39604780141531
  0
LINE
  8
_0-1_計細線
  6
CONTINUOUS
 62
    3
 10
1165.6648721606355
 20
691.29604780141517
 11
1170.664872160635
 21
691.29604780141517
  0
LINE
  8
_0-1_計細線
  6
CONTINUOUS
 62
    3
 10
1169.8648721606353
 20
666.29604780141551
 11
1169.8648721595323
 21
686.39604780141565
  0
LINE
  8
_0-1_計細線
  6
CONTINUOUS
 62
    3
 10
1166.4648721606352
 20
666.29604780141551
 11
1166.4648721595315
 21
686.39604780141565
  0
LINE
  8
_0-1_計細線
  6
CONTINUOUS
 62
    3
 10
1166.4648721606352
 20
666.29604780141551
 11
1169.8648721606353
 21
666.29604780141551
  0
LINE
  8
_0-1_計細線
  6
CONTINUOUS
 62
    3
 10
1166.4648721600836
 20
686.59604780141535
 11
1152.4648721601359
 21
686.59604780141535
  0
LINE
  8
_0-1_計細線
  6
CONTINUOUS
 62
    3
 10
1166.4648721600836
 20
673.59604780141569
 11
1152.4648721608494
 21
673.59604780141569
  0
ARC
  8
_0-1_計細線
  6
CONTINUOUS
 62
    3
 10
1190.2648721589164
 20
689.29604780141563
 40
1.0000000000000004
 50
0
 51
89.999999999999915
  0
ARC
  8
_0-1_計細線
  6
CONTINUOUS
 62
    3
 10
1189.7969229675889
 20
691.29604780141517
 40
1.0000000000000004
 50
209.99999999998565
 51
269.99999999999977
  0
ARC
  8
_0-1_計細線
  6
CONTINUOUS
 62
    3
 10
1188.0648721600198
 20
690.29604780141551
 40
1.0000000000000004
 50
29.999999999991644
 51
89.999999999999915
  0
LINE
  8
_0-1_計細線
  6
CONTINUOUS
 62
    3
 10
1190.2648721589164
 20
690.29604780141551
 11
1189.7969229675889
 21
690.29604780141551
  0
ARC
  8
_0-1_計細線
  6
CONTINUOUS
 62
    3
 10
1180.8648721611237
 20
689.29604780141563
 40
1.0000000000000004
 50
89.999999999999915
 51
179.99999999999983
  0
ARC
  8
_0-1_計細線
  6
CONTINUOUS
 62
    3
 10
1181.3328213524512
 20
691.29604780141517
 40
1.0000000000000004
 50
269.99999999999977
 51
330.00000000001364
  0
ARC
  8
_0-1_計細線
  6
CONTINUOUS
 62
    3
 10
1183.0648721600205
 20
690.29604780141551
 40
1.0000000000000004
 50
90.000000000026048
 51
150.00000000000836
  0
LINE
  8
_0-1_計細線
  6
CONTINUOUS
 62
    3
 10
1180.8648721611237
 20
690.29604780141551
 11
1181.3328213524512
 21
690.29604780141551
  0
ARC
  8
_0-1_計細線
  6
CONTINUOUS
 62
    3
 10
1190.764872158916
 20
687.89604780141576
 40
0.5000000000000002
 50
269.99999999999977
 51
359.99999999999966
  0
LINE
  8
_0-1_計細線
  6
CONTINUOUS
 62
    3
 10
1191.2648721589164
 20
689.29604780141563
 11
1191.2648721589164
 21
687.89604780141576
  0
ARC
  8
_0-1_計細線
  6
CONTINUOUS
 62
    3
 10
1180.3648721611235
 20
687.89604780141576
 40
0.5000000000000002
 50
179.99999999999983
 51
269.99999999999977
  0
LINE
  8
_0-1_計細線
  6
CONTINUOUS
 62
    3
 10
1179.8648721611232
 20
689.29604780141563
 11
1179.8648721611232
 21
687.89604780141576
  0
ARC
  8
_0-1_計細線
  6
CONTINUOUS
 62
    3
 10
1188.2648721589164
 20
686.39604780141565
 40
1.0000000000000004
 50
89.999999999999915
 51
179.99999999999983
  0
LINE
  8
_0-1_計細線
  6
CONTINUOUS
 62
    3
 10
1188.2648721589164
 20
687.39604780141531
 11
1190.764872158916
 21
687.39604780141531
  0
ARC
  8
_0-1_計細線
  6
CONTINUOUS
 62
    3
 10
1182.8648721589163
 20
686.39604780141565
 40
1.0000000000000004
 50
0
 51
89.999999999999915
  0
LINE
  8
_0-1_計細線
  6
CONTINUOUS
 62
    3
 10
1182.8648721611237
 20
687.39604780141531
 11
1180.3648721611235
 21
687.39604780141531
  0
LINE
  8
_0-1_計細線
  6
CONTINUOUS
 62
    3
 10
1183.0648721600205
 20
691.29604780141517
 11
1188.0648721600198
 21
691.29604780141517
  0
LINE
  8
_0-1_計細線
  6
CONTINUOUS
 62
    3
 10
1187.2648721600201
 20
666.29604780141551
 11
1187.2648721589169
 21
686.39604780141565
  0
LINE
  8
_0-1_計細線
  6
CONTINUOUS
 62
    3
 10
1183.86487216002
 20
666.29604780141551
 11
1183.8648721589163
 21
686.39604780141565
  0
LINE
  8
_0-1_計細線
  6
CONTINUOUS
 62
    3
 10
1183.86487216002
 20
666.29604780141551
 11
1187.2648721600201
 21
666.29604780141551
  0
LINE
  8
_0-1_計細線
  6
CONTINUOUS
 62
    3
 10
1183.8648721594684
 20
686.59604780141535
 11
1169.8648721595209
 21
686.59604780141535
  0
LINE
  8
_0-1_計細線
  6
CONTINUOUS
 62
    3
 10
1183.8648721594684
 20
673.59604780141569
 11
1169.8648721602342
 21
673.59604780141569
  0
ARC
  8
_0-1_計細線
  6
CONTINUOUS
 62
    3
 10
1207.6648721583015
 20
689.29604780141563
 40
1.0000000000000004
 50
0
 51
89.999999999999915
  0
ARC
  8
_0-1_計細線
  6
CONTINUOUS
 62
    3
 10
1207.1969229669739
 20
691.29604780141517
 40
1.0000000000000004
 50
209.9999999999726
 51
269.99999999999977
  0
ARC
  8
_0-1_計細線
  6
CONTINUOUS
 62
    3
 10
1205.4648721594049
 20
690.29604780141551
 40
1.0000000000000004
 50
30.000000000004672
 51
89.999999999999915
  0
LINE
  8
_0-1_計細線
  6
CONTINUOUS
 62
    3
 10
1207.6648721583015
 20
690.29604780141551
 11
1207.1969229669739
 21
690.29604780141551
  0
ARC
  8
_0-1_計細線
  6
CONTINUOUS
 62
    3
 10
1198.2648721605085
 20
689.29604780141563
 40
1.0000000000000004
 50
89.999999999999915
 51
179.99999999999983
  0
ARC
  8
_0-1_計細線
  6
CONTINUOUS
 62
    3
 10
1198.7328213518363
 20
691.29604780141517
 40
1.0000000000000004
 50
269.99999999999977
 51
330.00000000001364
  0
ARC
  8
_0-1_計細線
  6
CONTINUOUS
 62
    3
 10
1200.4648721594051
 20
690.29604780141551
 40
1.0000000000000004
 50
90.000000000026048
 51
150.00000000000836
  0
LINE
  8
_0-1_計細線
  6
CONTINUOUS
 62
    3
 10
1198.2648721605085
 20
690.29604780141551
 11
1198.7328213518363
 21
690.29604780141551
  0
ARC
  8
_0-1_計細線
  6
CONTINUOUS
 62
    3
 10
1208.1648721583006
 20
687.89604780141576
 40
0.5000000000000002
 50
269.99999999999977
 51
359.99999999999966
  0
LINE
  8
_0-1_計細線
  6
CONTINUOUS
 62
    3
 10
1208.6648721583015
 20
689.29604780141563
 11
1208.6648721583015
 21
687.89604780141576
  0
ARC
  8
_0-1_計細線
  6
CONTINUOUS
 62
    3
 10
1197.764872160508
 20
687.89604780141576
 40
0.5000000000000002
 50
179.99999999999983
 51
269.99999999999977
  0
LINE
  8
_0-1_計細線
  6
CONTINUOUS
 62
    3
 10
1197.264872160508
 20
689.29604780141563
 11
1197.264872160508
 21
687.89604780141576
  0
ARC
  8
_0-1_計細線
  6
CONTINUOUS
 62
    3
 10
1205.6648721583015
 20
686.39604780141565
 40
1.0000000000000004
 50
89.999999999999915
 51
179.99999999999983
  0
LINE
  8
_0-1_計細線
  6
CONTINUOUS
 62
    3
 10
1205.6648721583015
 20
687.39604780141531
 11
1208.1648721583006
 21
687.39604780141531
  0
ARC
  8
_0-1_計細線
  6
CONTINUOUS
 62
    3
 10
1200.2648721583012
 20
686.39604780141565
 40
1.0000000000000004
 50
0
 51
89.999999999999915
  0
LINE
  8
_0-1_計細線
  6
CONTINUOUS
 62
    3
 10
1200.2648721605085
 20
687.39604780141531
 11
1197.764872160508
 21
687.39604780141531
  0
LINE
  8
_0-1_計細線
  6
CONTINUOUS
 62
    3
 10
1200.4648721594051
 20
691.29604780141517
 11
1205.4648721594049
 21
691.29604780141517
  0
LINE
  8
_0-1_計細線
  6
CONTINUOUS
 62
    3
 10
1204.6648721594047
 20
666.29604780141551
 11
1204.6648721583015
 21
686.39604780141565
  0
LINE
  8
_0-1_計細線
  6
CONTINUOUS
 62
    3
 10
1201.2648721594048
 20
666.29604780141551
 11
1201.2648721583012
 21
686.39604780141565
  0
LINE
  8
_0-1_計細線
  6
CONTINUOUS
 62
    3
 10
1201.2648721594048
 20
666.29604780141551
 11
1204.6648721594047
 21
666.29604780141551
  0
LINE
  8
_0-1_計細線
  6
CONTINUOUS
 62
    3
 10
1201.2648721588534
 20
686.59604780141535
 11
1187.2648721589055
 21
686.59604780141535
  0
LINE
  8
_0-1_計細線
  6
CONTINUOUS
 62
    3
 10
1201.2648721588534
 20
673.59604780141569
 11
1187.264872159619
 21
673.59604780141569
  0
ARC
  8
_0-1_計細線
  6
CONTINUOUS
 62
    3
 10
1225.0648721576863
 20
689.29604780141563
 40
1.0000000000000004
 50
0
 51
89.999999999999915
  0
ARC
  8
_0-1_計細線
  6
CONTINUOUS
 62
    3
 10
1224.5969229663588
 20
691.29604780141517
 40
1.0000000000000004
 50
209.9999999999726
 51
269.99999999999977
  0
ARC
  8
_0-1_計細線
  6
CONTINUOUS
 62
    3
 10
1222.8648721587897
 20
690.29604780141551
 40
1.0000000000000004
 50
30.000000000004672
 51
89.999999999999915
  0
LINE
  8
_0-1_計細線
  6
CONTINUOUS
 62
    3
 10
1225.0648721576863
 20
690.29604780141551
 11
1224.5969229663588
 21
690.29604780141551
  0
ARC
  8
_0-1_計細線
  6
CONTINUOUS
 62
    3
 10
1215.6648721598931
 20
689.29604780141563
 40
1.0000000000000004
 50
89.999999999999915
 51
179.99999999999983
  0
ARC
  8
_0-1_計細線
  6
CONTINUOUS
 62
    3
 10
1216.1328213512206
 20
691.29604780141517
 40
1.0000000000000004
 50
269.99999999999977
 51
330.00000000002666
  0
ARC
  8
_0-1_計細線
  6
CONTINUOUS
 62
    3
 10
1217.8648721587897
 20
690.29604780141551
 40
1.0000000000000004
 50
89.999999999999915
 51
149.99999999999534
  0
LINE
  8
_0-1_計細線
  6
CONTINUOUS
 62
    3
 10
1215.6648721598931
 20
690.29604780141551
 11
1216.1328213512206
 21
690.29604780141551
  0
ARC
  8
_0-1_計細線
  6
CONTINUOUS
 62
    3
 10
1225.5648721576854
 20
687.89604780141576
 40
0.5000000000000002
 50
269.99999999999977
 51
359.99999999999966
  0
LINE
  8
_0-1_計細線
  6
CONTINUOUS
 62
    3
 10
1226.0648721576863
 20
689.29604780141563
 11
1226.0648721576863
 21
687.89604780141576
  0
ARC
  8
_0-1_計細線
  6
CONTINUOUS
 62
    3
 10
1215.1648721598931
 20
687.89604780141576
 40
0.5000000000000002
 50
179.99999999999983
 51
269.99999999999977
  0
LINE
  8
_0-1_計細線
  6
CONTINUOUS
 62
    3
 10
1214.6648721598931
 20
689.29604780141563
 11
1214.6648721598931
 21
687.89604780141576
  0
ARC
  8
_0-1_計細線
  6
CONTINUOUS
 62
    3
 10
1223.0648721576863
 20
686.39604780141565
 40
1.0000000000000004
 50
89.999999999999915
 51
179.99999999999983
  0
LINE
  8
_0-1_計細線
  6
CONTINUOUS
 62
    3
 10
1223.0648721576863
 20
687.39604780141531
 11
1225.5648721576854
 21
687.39604780141531
  0
ARC
  8
_0-1_計細線
  6
CONTINUOUS
 62
    3
 10
1217.6648721576857
 20
686.39604780141565
 40
1.0000000000000004
 50
0
 51
89.999999999999915
  0
LINE
  8
_0-1_計細線
  6
CONTINUOUS
 62
    3
 10
1217.6648721598931
 20
687.39604780141531
 11
1215.1648721598931
 21
687.39604780141531
  0
LINE
  8
_0-1_計細線
  6
CONTINUOUS
 62
    3
 10
1217.8648721587897
 20
691.29604780141517
 11
1222.8648721587897
 21
691.29604780141517
  0
LINE
  8
_0-1_計細線
  6
CONTINUOUS
 62
    3
 10
1222.0648721587895
 20
666.29604780141551
 11
1222.0648721576863
 21
686.39604780141565
  0
LINE
  8
_0-1_計細線
  6
CONTINUOUS
 62
    3
 10
1218.6648721587899
 20
666.29604780141551
 11
1218.6648721576857
 21
686.39604780141565
  0
LINE
  8
_0-1_計細線
  6
CONTINUOUS
 62
    3
 10
1218.6648721587899
 20
666.29604780141551
 11
1222.0648721587895
 21
666.29604780141551
  0
LINE
  8
_0-1_計細線
  6
CONTINUOUS
 62
    3
 10
1218.6648721582378
 20
686.59604780141535
 11
1204.6648721582906
 21
686.59604780141535
  0
LINE
  8
_0-1_計細線
  6
CONTINUOUS
 62
    3
 10
1218.6648721582378
 20
673.59604780141569
 11
1204.6648721590036
 21
673.59604780141569
  0
ARC
  8
_0-1_計細線
  6
CONTINUOUS
 62
    3
 10
1242.4648721570711
 20
689.29604780141563
 40
1.0000000000000004
 50
0
 51
89.999999999999915
  0
ARC
  8
_0-1_計細線
  6
CONTINUOUS
 62
    3
 10
1241.9969229657436
 20
691.29604780141517
 40
1.0000000000000004
 50
209.9999999999726
 51
269.99999999999977
  0
ARC
  8
_0-1_計細線
  6
CONTINUOUS
 62
    3
 10
1240.2648721581745
 20
690.29604780141551
 40
1.0000000000000004
 50
30.000000000004672
 51
89.999999999999915
  0
LINE
  8
_0-1_計細線
  6
CONTINUOUS
 62
    3
 10
1242.4648721570711
 20
690.29604780141551
 11
1241.9969229657436
 21
690.29604780141551
  0
ARC
  8
_0-1_計細線
  6
CONTINUOUS
 62
    3
 10
1233.0648721592779
 20
689.29604780141563
 40
1.0000000000000004
 50
89.999999999999915
 51
179.99999999999983
  0
ARC
  8
_0-1_計細線
  6
CONTINUOUS
 62
    3
 10
1233.5328213506054
 20
691.29604780141517
 40
1.0000000000000004
 50
269.99999999999977
 51
330.00000000002666
  0
ARC
  8
_0-1_計細線
  6
CONTINUOUS
 62
    3
 10
1235.2648721581745
 20
690.29604780141551
 40
1.0000000000000004
 50
89.999999999999915
 51
149.99999999999534
  0
LINE
  8
_0-1_計細線
  6
CONTINUOUS
 62
    3
 10
1233.0648721592779
 20
690.29604780141551
 11
1233.5328213506054
 21
690.29604780141551
  0
ARC
  8
_0-1_計細線
  6
CONTINUOUS
 62
    3
 10
1242.9648721570702
 20
687.89604780141576
 40
0.5000000000000002
 50
269.99999999999977
 51
359.99999999999966
  0
LINE
  8
_0-1_計細線
  6
CONTINUOUS
 62
    3
 10
1243.4648721570711
 20
689.29604780141563
 11
1243.4648721570711
 21
687.89604780141576
  0
ARC
  8
_0-1_計細線
  6
CONTINUOUS
 62
    3
 10
1232.5648721592779
 20
687.89604780141576
 40
0.5000000000000002
 50
179.99999999999983
 51
269.99999999999977
  0
LINE
  8
_0-1_計細線
  6
CONTINUOUS
 62
    3
 10
1232.0648721592779
 20
689.29604780141563
 11
1232.0648721592779
 21
687.89604780141576
  0
ARC
  8
_0-1_計細線
  6
CONTINUOUS
 62
    3
 10
1240.4648721570711
 20
686.39604780141565
 40
1.0000000000000004
 50
89.999999999999915
 51
179.99999999999983
  0
LINE
  8
_0-1_計細線
  6
CONTINUOUS
 62
    3
 10
1240.4648721570711
 20
687.39604780141531
 11
1242.9648721570702
 21
687.39604780141531
  0
ARC
  8
_0-1_計細線
  6
CONTINUOUS
 62
    3
 10
1235.0648721570706
 20
686.39604780141565
 40
1.0000000000000004
 50
0
 51
89.999999999999915
  0
LINE
  8
_0-1_計細線
  6
CONTINUOUS
 62
    3
 10
1235.0648721592779
 20
687.39604780141531
 11
1232.5648721592779
 21
687.39604780141531
  0
LINE
  8
_0-1_計細線
  6
CONTINUOUS
 62
    3
 10
1235.2648721581745
 20
691.29604780141517
 11
1240.2648721581745
 21
691.29604780141517
  0
LINE
  8
_0-1_計細線
  6
CONTINUOUS
 62
    3
 10
1239.4648721581743
 20
666.29604780141551
 11
1239.4648721570711
 21
686.39604780141565
  0
LINE
  8
_0-1_計細線
  6
CONTINUOUS
 62
    3
 10
1236.0648721581747
 20
666.29604780141551
 11
1236.0648721570706
 21
686.39604780141565
  0
LINE
  8
_0-1_計細線
  6
CONTINUOUS
 62
    3
 10
1236.0648721581747
 20
666.29604780141551
 11
1239.4648721581743
 21
666.29604780141551
  0
LINE
  8
_0-1_計細線
  6
CONTINUOUS
 62
    3
 10
1236.0648721576226
 20
686.59604780141535
 11
1222.0648721576754
 21
686.59604780141535
  0
LINE
  8
_0-1_計細線
  6
CONTINUOUS
 62
    3
 10
1236.0648721576226
 20
673.59604780141569
 11
1222.0648721583884
 21
673.59604780141569
  0
ARC
  8
_0-1_計細線
  6
CONTINUOUS
 62
    3
 10
1259.8648721564555
 20
689.29604780141563
 40
1.0000000000000004
 50
0
 51
89.999999999999915
  0
ARC
  8
_0-1_計細線
  6
CONTINUOUS
 62
    3
 10
1259.3969229651279
 20
691.29604780141517
 40
1.0000000000000004
 50
209.99999999999866
 51
269.99999999999977
  0
ARC
  8
_0-1_計細線
  6
CONTINUOUS
 62
    3
 10
1257.6648721575589
 20
690.29604780141551
 40
1.0000000000000004
 50
29.99999999997862
 51
89.999999999999915
  0
LINE
  8
_0-1_計細線
  6
CONTINUOUS
 62
    3
 10
1259.8648721564555
 20
690.29604780141551
 11
1259.3969229651279
 21
690.29604780141551
  0
ARC
  8
_0-1_計細線
  6
CONTINUOUS
 62
    3
 10
1250.4648721586632
 20
689.29604780141563
 40
1.0000000000000004
 50
89.999999999999915
 51
179.99999999999983
  0
ARC
  8
_0-1_計細線
  6
CONTINUOUS
 62
    3
 10
1250.9328213499907
 20
691.29604780141517
 40
1.0000000000000004
 50
269.99999999999977
 51
330.00000000000057
  0
ARC
  8
_0-1_計細線
  6
CONTINUOUS
 62
    3
 10
1252.6648721575598
 20
690.29604780141551
 40
1.0000000000000004
 50
90.000000000052111
 51
150.00000000002137
  0
LINE
  8
_0-1_計細線
  6
CONTINUOUS
 62
    3
 10
1250.4648721586632
 20
690.29604780141551
 11
1250.9328213499907
 21
690.29604780141551
  0
ARC
  8
_0-1_計細線
  6
CONTINUOUS
 62
    3
 10
1260.3648721564555
 20
687.89604780141576
 40
0.5000000000000002
 50
269.99999999999977
 51
359.99999999999966
  0
LINE
  8
_0-1_計細線
  6
CONTINUOUS
 62
    3
 10
1260.8648721564555
 20
689.29604780141563
 11
1260.8648721564555
 21
687.89604780141576
  0
ARC
  8
_0-1_計細線
  6
CONTINUOUS
 62
    3
 10
1249.9648721586623
 20
687.89604780141576
 40
0.5000000000000002
 50
179.99999999999983
 51
269.99999999999977
  0
LINE
  8
_0-1_計細線
  6
CONTINUOUS
 62
    3
 10
1249.4648721586623
 20
689.29604780141563
 11
1249.4648721586623
 21
687.89604780141576
  0
ARC
  8
_0-1_計細線
  6
CONTINUOUS
 62
    3
 10
1257.8648721564555
 20
686.39604780141565
 40
1.0000000000000004
 50
89.999999999999915
 51
179.99999999999983
  0
LINE
  8
_0-1_計細線
  6
CONTINUOUS
 62
    3
 10
1257.8648721564555
 20
687.39604780141531
 11
1260.3648721564555
 21
687.39604780141531
  0
ARC
  8
_0-1_計細線
  6
CONTINUOUS
 62
    3
 10
1252.4648721564558
 20
686.39604780141565
 40
1.0000000000000004
 50
0
 51
89.999999999999915
  0
LINE
  8
_0-1_計細線
  6
CONTINUOUS
 62
    3
 10
1252.4648721586632
 20
687.39604780141531
 11
1249.9648721586623
 21
687.39604780141531
  0
LINE
  8
_0-1_計細線
  6
CONTINUOUS
 62
    3
 10
1252.6648721575598
 20
691.29604780141517
 11
1257.6648721575589
 21
691.29604780141517
  0
LINE
  8
_0-1_計細線
  6
CONTINUOUS
 62
    3
 10
1256.8648721575596
 20
666.29604780141551
 11
1256.8648721564564
 21
686.39604780141565
  0
LINE
  8
_0-1_計細線
  6
CONTINUOUS
 62
    3
 10
1253.4648721575591
 20
666.29604780141551
 11
1253.4648721564558
 21
686.39604780141565
  0
LINE
  8
_0-1_計細線
  6
CONTINUOUS
 62
    3
 10
1253.4648721575591
 20
666.29604780141551
 11
1256.8648721575596
 21
666.29604780141551
  0
LINE
  8
_0-1_計細線
  6
CONTINUOUS
 62
    3
 10
1253.4648721570079
 20
686.59604780141535
 11
1239.4648721570602
 21
686.59604780141535
  0
LINE
  8
_0-1_計細線
  6
CONTINUOUS
 62
    3
 10
1253.4648721570079
 20
673.59604780141569
 11
1239.4648721577732
 21
673.59604780141569
  0
ARC
  8
_0-1_計細線
  6
CONTINUOUS
 62
    3
 10
1277.2648721558403
 20
689.29604780141563
 40
1.0000000000000004
 50
0
 51
89.999999999999915
  0
ARC
  8
_0-1_計細線
  6
CONTINUOUS
 62
    3
 10
1276.7969229645128
 20
691.29604780141517
 40
1.0000000000000004
 50
209.99999999999866
 51
269.99999999999977
  0
ARC
  8
_0-1_計細線
  6
CONTINUOUS
 62
    3
 10
1275.0648721569437
 20
690.29604780141551
 40
1.0000000000000004
 50
29.99999999997862
 51
89.999999999999915
  0
LINE
  8
_0-1_計細線
  6
CONTINUOUS
 62
    3
 10
1277.2648721558403
 20
690.29604780141551
 11
1276.7969229645128
 21
690.29604780141551
  0
ARC
  8
_0-1_計細線
  6
CONTINUOUS
 62
    3
 10
1267.864872158048
 20
689.29604780141563
 40
1.0000000000000004
 50
89.999999999999915
 51
179.99999999999983
  0
ARC
  8
_0-1_計細線
  6
CONTINUOUS
 62
    3
 10
1268.3328213493755
 20
691.29604780141517
 40
1.0000000000000004
 50
269.99999999999977
 51
330.00000000000057
  0
ARC
  8
_0-1_計細線
  6
CONTINUOUS
 62
    3
 10
1270.0648721569446
 20
690.29604780141551
 40
1.0000000000000004
 50
90.000000000052111
 51
150.00000000002137
  0
LINE
  8
_0-1_計細線
  6
CONTINUOUS
 62
    3
 10
1267.864872158048
 20
690.29604780141551
 11
1268.3328213493755
 21
690.29604780141551
  0
ARC
  8
_0-1_計細線
  6
CONTINUOUS
 62
    3
 10
1277.7648721558403
 20
687.89604780141576
 40
0.5000000000000002
 50
269.99999999999977
 51
359.99999999999966
  0
LINE
  8
_0-1_計細線
  6
CONTINUOUS
 62
    3
 10
1278.2648721558403
 20
689.29604780141563
 11
1278.2648721558403
 21
687.89604780141576
  0
ARC
  8
_0-1_計細線
  6
CONTINUOUS
 62
    3
 10
1267.3648721580471
 20
687.89604780141576
 40
0.5000000000000002
 50
179.99999999999983
 51
269.99999999999977
  0
LINE
  8
_0-1_計細線
  6
CONTINUOUS
 62
    3
 10
1266.8648721580471
 20
689.29604780141563
 11
1266.8648721580471
 21
687.89604780141576
  0
ARC
  8
_0-1_計細線
  6
CONTINUOUS
 62
    3
 10
1275.2648721558403
 20
686.39604780141565
 40
1.0000000000000004
 50
89.999999999999915
 51
179.99999999999983
  0
LINE
  8
_0-1_計細線
  6
CONTINUOUS
 62
    3
 10
1275.2648721558403
 20
687.39604780141531
 11
1277.7648721558403
 21
687.39604780141531
  0
ARC
  8
_0-1_計細線
  6
CONTINUOUS
 62
    3
 10
1269.8648721558407
 20
686.39604780141565
 40
1.0000000000000004
 50
0
 51
89.999999999999915
  0
LINE
  8
_0-1_計細線
  6
CONTINUOUS
 62
    3
 10
1269.864872158048
 20
687.39604780141531
 11
1267.3648721580471
 21
687.39604780141531
  0
LINE
  8
_0-1_計細線
  6
CONTINUOUS
 62
    3
 10
1270.0648721569446
 20
691.29604780141517
 11
1275.0648721569437
 21
691.29604780141517
  0
LINE
  8
_0-1_計細線
  6
CONTINUOUS
 62
    3
 10
1274.2648721569444
 20
666.29604780141551
 11
1274.2648721558412
 21
686.39604780141565
  0
LINE
  8
_0-1_計細線
  6
CONTINUOUS
 62
    3
 10
1270.8648721569439
 20
666.29604780141551
 11
1270.8648721558407
 21
686.39604780141565
  0
LINE
  8
_0-1_計細線
  6
CONTINUOUS
 62
    3
 10
1270.8648721569439
 20
666.29604780141551
 11
1274.2648721569444
 21
666.29604780141551
  0
LINE
  8
_0-1_計細線
  6
CONTINUOUS
 62
    3
 10
1270.8648721563927
 20
686.59604780141535
 11
1256.8648721564446
 21
686.59604780141535
  0
LINE
  8
_0-1_計細線
  6
CONTINUOUS
 62
    3
 10
1270.8648721563927
 20
673.59604780141569
 11
1256.8648721571585
 21
673.59604780141569
  0
ARC
  8
_0-1_計細線
  6
CONTINUOUS
 62
    3
 10
1294.6648721552251
 20
689.29604780141563
 40
1.0000000000000004
 50
0
 51
89.999999999999915
  0
ARC
  8
_0-1_計細線
  6
CONTINUOUS
 62
    3
 10
1294.1969229638976
 20
691.29604780141517
 40
1.0000000000000004
 50
209.99999999999866
 51
269.99999999999977
  0
ARC
  8
_0-1_計細線
  6
CONTINUOUS
 62
    3
 10
1292.4648721563287
 20
690.29604780141551
 40
1.0000000000000004
 50
29.99999999997862
 51
89.999999999999915
  0
LINE
  8
_0-1_計細線
  6
CONTINUOUS
 62
    3
 10
1294.6648721552251
 20
690.29604780141551
 11
1294.1969229638976
 21
690.29604780141551
  0
ARC
  8
_0-1_計細線
  6
CONTINUOUS
 62
    3
 10
1285.2648721574328
 20
689.29604780141563
 40
1.0000000000000004
 50
89.999999999999915
 51
179.99999999999983
  0
ARC
  8
_0-1_計細線
  6
CONTINUOUS
 62
    3
 10
1285.7328213487606
 20
691.29604780141517
 40
1.0000000000000004
 50
269.99999999999977
 51
330.00000000000057
  0
ARC
  8
_0-1_計細線
  6
CONTINUOUS
 62
    3
 10
1287.4648721563294
 20
690.29604780141551
 40
1.0000000000000004
 50
90.000000000052111
 51
150.00000000002137
  0
LINE
  8
_0-1_計細線
  6
CONTINUOUS
 62
    3
 10
1285.2648721574328
 20
690.29604780141551
 11
1285.7328213487606
 21
690.29604780141551
  0
ARC
  8
_0-1_計細線
  6
CONTINUOUS
 62
    3
 10
1295.1648721552251
 20
687.89604780141576
 40
0.5000000000000002
 50
269.99999999999977
 51
359.99999999999966
  0
LINE
  8
_0-1_計細線
  6
CONTINUOUS
 62
    3
 10
1295.6648721552253
 20
689.29604780141563
 11
1295.6648721552253
 21
687.89604780141576
  0
ARC
  8
_0-1_計細線
  6
CONTINUOUS
 62
    3
 10
1284.7648721574319
 20
687.89604780141576
 40
0.5000000000000002
 50
179.99999999999983
 51
269.99999999999977
  0
LINE
  8
_0-1_計細線
  6
CONTINUOUS
 62
    3
 10
1284.2648721574321
 20
689.29604780141563
 11
1284.2648721574321
 21
687.89604780141576
  0
ARC
  8
_0-1_計細線
  6
CONTINUOUS
 62
    3
 10
1292.6648721552251
 20
686.39604780141565
 40
1.0000000000000004
 50
89.999999999999915
 51
179.99999999999983
  0
LINE
  8
_0-1_計細線
  6
CONTINUOUS
 62
    3
 10
1292.6648721552251
 20
687.39604780141531
 11
1295.1648721552251
 21
687.39604780141531
  0
ARC
  8
_0-1_計細線
  6
CONTINUOUS
 62
    3
 10
1287.2648721552255
 20
686.39604780141565
 40
1.0000000000000004
 50
0
 51
89.999999999999915
  0
LINE
  8
_0-1_計細線
  6
CONTINUOUS
 62
    3
 10
1287.2648721574328
 20
687.39604780141531
 11
1284.7648721574319
 21
687.39604780141531
  0
LINE
  8
_0-1_計細線
  6
CONTINUOUS
 62
    3
 10
1287.4648721563294
 20
691.29604780141517
 11
1292.4648721563287
 21
691.29604780141517
  0
LINE
  8
_0-1_計細線
  6
CONTINUOUS
 62
    3
 10
1291.6648721563295
 20
666.29604780141551
 11
1291.664872155226
 21
686.39604780141565
  0
LINE
  8
_0-1_計細線
  6
CONTINUOUS
 62
    3
 10
1288.2648721563287
 20
666.29604780141551
 11
1288.2648721552255
 21
686.39604780141565
  0
LINE
  8
_0-1_計細線
  6
CONTINUOUS
 62
    3
 10
1288.2648721563287
 20
666.29604780141551
 11
1291.6648721563295
 21
666.29604780141551
  0
LINE
  8
_0-1_計細線
  6
CONTINUOUS
 62
    3
 10
1288.2648721557778
 20
686.59604780141535
 11
1274.2648721558294
 21
686.59604780141535
  0
LINE
  8
_0-1_計細線
  6
CONTINUOUS
 62
    3
 10
1288.2648721557778
 20
673.59604780141569
 11
1274.2648721565433
 21
673.59604780141569
  0
LINE
  8
_0-1_計細線
  6
CONTINUOUS
 62
    3
 10
1306.4648721640492
 20
673.59604780141569
 11
1291.6648721559282
 21
673.59604780141569
  0
LINE
  8
_0-1_計細線
  6
CONTINUOUS
 62
    3
 10
1306.4648721647623
 20
686.59604780141535
 11
1291.6648721552142
 21
686.59604780141535
  0
ARC
  8
_0-1_計細線
  6
CONTINUOUS
 62
    3
 10
1303.4648721647513
 20
689.29604780141563
 40
1.0000000000000004
 50
89.999999999999915
 51
179.99999999999983
  0
ARC
  8
_0-1_計細線
  6
CONTINUOUS
 62
    3
 10
1303.9328213560798
 20
691.29604780141517
 40
1.0000000000000004
 50
269.99999999999977
 51
330.00000000000057
  0
ARC
  8
_0-1_計細線
  6
CONTINUOUS
 62
    3
 10
1305.6648721636479
 20
690.29604780141551
 40
1.0000000000000004
 50
89.999999999999915
 51
149.99999999999534
  0
LINE
  8
_0-1_計細線
  6
CONTINUOUS
 62
    3
 10
1303.4648721647513
 20
690.29604780141551
 11
1303.9328213560798
 21
690.29604780141551
  0
ARC
  8
_0-1_計細線
  6
CONTINUOUS
 62
    3
 10
1312.8648721625448
 20
689.29604780141563
 40
1.0000000000000004
 50
0
 51
89.999999999999915
  0
ARC
  8
_0-1_計細線
  6
CONTINUOUS
 62
    3
 10
1312.396922971217
 20
691.29604780141517
 40
1.0000000000000004
 50
209.99999999999866
 51
269.99999999999977
  0
ARC
  8
_0-1_計細線
  6
CONTINUOUS
 62
    3
 10
1310.6648721636479
 20
690.29604780141551
 40
1.0000000000000004
 50
29.99999999997862
 51
89.999999999947889
  0
LINE
  8
_0-1_計細線
  6
CONTINUOUS
 62
    3
 10
1312.8648721625448
 20
690.29604780141551
 11
1312.396922971217
 21
690.29604780141551
  0
ARC
  8
_0-1_計細線
  6
CONTINUOUS
 62
    3
 10
1302.9648721647513
 20
687.89604780141576
 40
0.5000000000000002
 50
179.99999999999983
 51
269.99999999999977
  0
LINE
  8
_0-1_計細線
  6
CONTINUOUS
 62
    3
 10
1302.4648721647523
 20
689.29604780141563
 11
1302.4648721647523
 21
687.89604780141576
  0
ARC
  8
_0-1_計細線
  6
CONTINUOUS
 62
    3
 10
1313.3648721625445
 20
687.89604780141576
 40
0.5000000000000002
 50
269.99999999999977
 51
359.99999999999966
  0
LINE
  8
_0-1_計細線
  6
CONTINUOUS
 62
    3
 10
1313.8648721625445
 20
689.29604780141563
 11
1313.8648721625445
 21
687.89604780141576
  0
ARC
  8
_0-1_計細線
  6
CONTINUOUS
 62
    3
 10
1305.4648721647525
 20
686.39604780141565
 40
1.0000000000000004
 50
0
 51
89.999999999999915
  0
LINE
  8
_0-1_計細線
  6
CONTINUOUS
 62
    3
 10
1305.4648721647525
 20
687.39604780141531
 11
1302.9648721647513
 21
687.39604780141531
  0
ARC
  8
_0-1_計細線
  6
CONTINUOUS
 62
    3
 10
1310.8648721647521
 20
686.39604780141565
 40
1.0000000000000004
 50
89.999999999999915
 51
179.99999999999983
  0
LINE
  8
_0-1_計細線
  6
CONTINUOUS
 62
    3
 10
1310.8648721625445
 20
687.39604780141531
 11
1313.3648721625445
 21
687.39604780141531
  0
LINE
  8
_0-1_計細線
  6
CONTINUOUS
 62
    3
 10
1310.6648721636479
 20
691.29604780141517
 11
1305.6648721636479
 21
691.29604780141517
  0
LINE
  8
_0-1_計細線
  6
CONTINUOUS
 62
    3
 10
1306.4648721636481
 20
666.29604780141551
 11
1306.4648721647516
 21
686.39604780141565
  0
LINE
  8
_0-1_計細線
  6
CONTINUOUS
 62
    3
 10
1309.8648721636487
 20
666.29604780141551
 11
1309.8648721647519
 21
686.39604780141565
  0
LINE
  8
_0-1_計細線
  6
CONTINUOUS
 62
    3
 10
1309.8648721636487
 20
666.29604780141551
 11
1306.4648721636481
 21
666.29604780141551
  0
LINE
  8
_0-0_計極細
  6
CONTINUOUS
 62
    2
 10
859.86487216254432
 20
675.29626680242245
 11
859.86487216254432
 21
640.29626680242245
  0
LINE
  8
_0-0_計極細
  6
CONTINUOUS
 62
    2
 10
859.86487216254432
 20
640.29626680242245
 11
857.56487216254436
 21
640.29626680242245
  0
LINE
  8
_0-0_計極細
  6
CONTINUOUS
 62
    2
 10
857.56487216254436
 20
640.29626680242245
 11
857.56487216254436
 21
675.29626680242245
  0
LINE
  8
_0-0_計極細
  6
CONTINUOUS
 62
    2
 10
857.56487216254436
 20
675.29626680242245
 11
859.86487216254432
 21
675.29626680242245
  0
LINE
  8
_0-0_計極細
  6
CONTINUOUS
 62
    2
 10
857.56487216254436
 20
659.29626680242245
 11
859.86487216254432
 21
659.29626680242245
  0
LINE
  8
_0-0_計極細
  6
CONTINUOUS
 62
    2
 10
857.56487216254436
 20
661.29626680242256
 11
859.86487216254432
 21
661.29626680242256
  0
LINE
  8
_0-0_計極細
  6
CONTINUOUS
 62
    2
 10
857.56487216254436
 20
657.29626680242245
 11
859.86487216254432
 21
657.29626680242245
  0
LINE
  8
_0-0_計極細
  6
CONTINUOUS
 62
    2
 10
857.56487216254436
 20
663.29626680242245
 11
859.86487216254432
 21
663.29626680242245
  0
LINE
  8
_0-0_計極細
  6
CONTINUOUS
 62
    2
 10
859.86487216254432
 20
643.29626680242245
 11
857.56487216254436
 21
643.29626680242245
  0
LINE
  8
_0-0_計極細
  6
CONTINUOUS
 62
    2
 10
857.56487216254436
 20
673.29626680242245
 11
859.86487216254432
 21
673.29626680242245
  0
LINE
  8
_0-0_計極細
  6
CONTINUOUS
 62
    2
 10
1319.8648721625445
 20
675.29626680242245
 11
1319.8648721625445
 21
640.29626680242245
  0
LINE
  8
_0-0_計極細
  6
CONTINUOUS
 62
    2
 10
1319.8648721625445
 20
640.29626680242245
 11
1322.1648721625447
 21
640.29626680242245
  0
LINE
  8
_0-0_計極細
  6
CONTINUOUS
 62
    2
 10
1322.1648721625447
 20
640.29626680242245
 11
1322.1648721625447
 21
675.29626680242245
  0
LINE
  8
_0-0_計極細
  6
CONTINUOUS
 62
    2
 10
1322.1648721625447
 20
675.29626680242245
 11
1319.8648721625445
 21
675.29626680242245
  0
LINE
  8
_0-0_計極細
  6
CONTINUOUS
 62
    2
 10
1322.1648721625447
 20
659.29626680242245
 11
1319.8648721625445
 21
659.29626680242245
  0
LINE
  8
_0-0_計極細
  6
CONTINUOUS
 62
    2
 10
1322.1648721625447
 20
661.29626680242256
 11
1319.8648721625445
 21
661.29626680242256
  0
LINE
  8
_0-0_計極細
  6
CONTINUOUS
 62
    2
 10
1322.1648721625447
 20
657.29626680242245
 11
1319.8648721625445
 21
657.29626680242245
  0
LINE
  8
_0-0_計極細
  6
CONTINUOUS
 62
    2
 10
1322.1648721625447
 20
663.29626680242245
 11
1319.8648721625445
 21
663.29626680242245
  0
LINE
  8
_0-0_計極細
  6
CONTINUOUS
 62
    2
 10
1319.8648721625445
 20
643.29626680242245
 11
1322.1648721625447
 21
643.29626680242245
  0
LINE
  8
_0-0_計極細
  6
CONTINUOUS
 62
    2
 10
1322.1648721625447
 20
673.29626680242245
 11
1319.8648721625445
 21
673.29626680242245
  0
LINE
  8
_0-7_枠細線
  6
CONTINUOUS
 62
    5
 10
1342.1327220815128
 20
663.01553527464068
 11
1334.6327220815128
 21
678.01553527464068
  0
LINE
  8
_0-7_枠細線
  6
CONTINUOUS
 62
    5
 10
1327.1327220815128
 20
663.01553527464068
 11
1342.1327220815128
 21
663.01553527464068
  0
LINE
  8
_0-7_枠細線
  6
CONTINUOUS
 62
    5
 10
1334.6327220815128
 20
678.01553527464068
 11
1327.1327220815128
 21
663.01553527464068
  0
TEXT
  8
_0-7_枠細線
 62
    5
 10
1329.4978733496609
 20
662.06671530979065
 40
12.5
 41
0.8
 50
0
  1
１
  0
TEXT
  8
_0-7_枠細線
 62
    5
 10
1194
 20
117.5
 40
20
 41
0.7000000000000001
 50
0
  1
１：５
  0
LINE
  8
_0-7_枠細線
  6
CONTINUOUS
 62
    5
 10
1425
 20
942.5
 11
890
 21
942.5
  0
TEXT
  8
_0-7_枠細線
 62
    5
 10
895
 20
945
 40
12.5
 41
1
 50
0
  1
記号
  0
TEXT
  8
_0-7_枠細線
 62
    5
 10
996.875
 20
945
 40
12.5
 41
1
 50
0
  1
訂　 正　 記　 事
  0
TEXT
  8
_0-7_枠細線
 62
    5
 10
1181.25
 20
945
 40
12.5
 41
1
 50
0
  1
訂 正 年 月 日
  0
TEXT
  8
_0-7_枠細線
 62
    5
 10
1306.25
 20
945
 40
12.5
 41
1
 50
0
  1
備　　　　　考
  0
LINE
  8
_0-7_枠細線
  6
CONTINUOUS
 62
    5
 10
1425
 20
925
 11
890
 21
925
  0
LINE
  8
_0-7_枠細線
  6
CONTINUOUS
 62
    5
 10
915
 20
926.44233397174685
 11
907.5
 21
941.44233397174685
  0
LINE
  8
_0-7_枠細線
  6
CONTINUOUS
 62
    5
 10
900
 20
926.44233397174685
 11
915
 21
926.44233397174685
  0
LINE
  8
_0-7_枠細線
  6
CONTINUOUS
 62
    5
 10
907.5
 20
941.44233397174685
 11
900
 21
926.44233397174685
  0
TEXT
  8
_0-7_枠細線
 62
    5
 10
1180
 20
927.5
 40
12.5
 41
0.7199999999999999
 50
0
  1
２０１９．０９．０１
  0
TEXT
  8
_0-7_枠細線
 62
    5
 10
938.85037037037023
 20
927.5
 40
12.5
 41
1
 50
0
  1
アンカー材質･厚み変更
  0
TEXT
  8
_0-7_枠細線
 62
    5
 10
902.36515126814822
 20
925.49351400689704
 40
12.5
 41
0.8
 50
0
  1
１
  0
LINE
  8
_0-7_枠細線
  6
CONTINUOUS
 62
    5
 10
1425
 20
907.5
 11
890
 21
907.5
  0
LINE
  8
_0-7_枠細線
  6
CONTINUOUS
 62
    5
 10
1425
 20
890
 11
890
 21
890
  0
TEXT
  8
_0-7_枠細線
 62
    5
 10
902.36515126814822
 20
908.63533172636664
 40
12.5
 41
0.8
 50
0
  1
２
  0
LINE
  8
_0-7_枠細線
  6
CONTINUOUS
 62
    5
 10
907.5
 20
923.94233397174685
 11
900
 21
908.94233397174685
  0
LINE
  8
_0-7_枠細線
  6
CONTINUOUS
 62
    5
 10
900
 20
908.94233397174685
 11
915
 21
908.94233397174685
  0
LINE
  8
_0-7_枠細線
  6
CONTINUOUS
 62
    5
 10
915
 20
908.94233397174685
 11
907.5
 21
923.94233397174685
  0
TEXT
  8
_0-7_枠細線
 62
    5
 10
902.36515126814822
 20
890.89465008156549
 40
12.5
 41
0.8
 50
0
  1
３
  0
LINE
  8
_0-7_枠細線
  6
CONTINUOUS
 62
    5
 10
907.5
 20
906.44233397174685
 11
900
 21
891.44233397174685
  0
LINE
  8
_0-7_枠細線
  6
CONTINUOUS
 62
    5
 10
900
 20
891.44233397174685
 11
915
 21
891.44233397174685
  0
LINE
  8
_0-7_枠細線
  6
CONTINUOUS
 62
    5
 10
915
 20
891.44233397174685
 11
907.5
 21
906.44233397174685
  0
LINE
  8
_0-7_枠細線
  6
CONTINUOUS
 62
    5
 10
1275
 20
890
 11
1275
 21
959.99999999999909
  0
LINE
  8
_0-7_枠細線
  6
CONTINUOUS
 62
    5
 10
1175
 20
890
 11
1175
 21
959.99999999999909
  0
LINE
  8
_0-7_枠細線
  6
CONTINUOUS
 62
    5
 10
925
 20
890
 11
925
 21
959.99999999999909
  0
LINE
  8
_0-7_枠細線
  6
CONTINUOUS
 62
    5
 10
890
 20
890
 11
890
 21
959.99999999999909
  0
TEXT
  8
_0-7_枠細線
 62
    5
 10
1180
 20
910
 40
12.5
 41
0.7199999999999999
 50
0
  1
２０２０．０９．０１
  0
TEXT
  8
_0-7_枠細線
 62
    5
 10
1059.0000000000005
 20
403.7335299914858
 40
15.000000000000004
 41
0.7999999999999999
 50
0
  1
ライトグレー
  0
TEXT
  8
_0-7_枠細線
 62
    5
 10
1071.0000000000005
 20
428.7335299914858
 40
15.000000000000004
 41
0.7999999999999999
 50
0
  1
ベージュ
  0
TEXT
  8
_0-7_枠細線
 62
    5
 10
1071.0000000000005
 20
378.73352999148574
 40
15.000000000000004
 41
0.7999999999999999
 50
0
  1
ホワイト
  0
TEXT
  8
_0-7_枠細線
 62
    5
 10
1077.0000000000005
 20
353.73352999148563
 40
15.000000000000004
 41
0.7999999999999999
 50
0
  1
ピンク
  0
TEXT
  8
_0-7_枠細線
 62
    5
 10
1077.0000000000005
 20
328.73352999148563
 40
15.000000000000004
 41
0.7999999999999999
 50
0
  1
ブルー
  0
TEXT
  8
_0-7_枠細線
 62
    5
 10
1059.0000000000005
 20
303.73352999148563
 40
15.000000000000004
 41
0.7999999999999999
 50
0
  1
ダークグレー
  0
TEXT
  8
_0-7_枠細線
 62
    5
 10
1077.0000000000005
 20
278.73352999148563
 40
15.000000000000004
 41
0.7999999999999999
 50
0
  1
ウッド
  0
TEXT
  8
_0-7_枠細線
 62
    5
 10
1071.0000000000005
 20
228.73352999148565
 40
15.000000000000004
 41
0.7999999999999999
 50
0
  1
ブラック
  0
TEXT
  8
_0-7_枠細線
 62
    5
 10
1071.0000000000005
 20
253.73352999148565
 40
15.000000000000004
 41
0.7999999999999999
 50
0
  1
ブラウン
  0
LINE
  8
_0-5_寸法線
  6
CONTINUOUS
 62
    7
 10
859.86487216254432
 20
696.29646325564568
 11
859.86487216254432
 21
816.29626680242313
  0
LINE
  8
_0-5_寸法線
  6
CONTINUOUS
 62
    7
 10
859.86487216254432
 20
811.29626680242313
 11
869.52413042543515
 21
813.8844572534482
  0
LINE
  8
_0-5_寸法線
  6
CONTINUOUS
 62
    7
 10
859.86487216254432
 20
811.29626680242313
 11
869.52413042543515
 21
808.70807635139784
  0
LINE
  8
_0-5_寸法線
  6
CONTINUOUS
 62
    7
 10
1319.8648721625445
 20
696.29646325564568
 11
1319.8648721625445
 21
816.29626680242313
  0
LINE
  8
_0-5_寸法線
  6
CONTINUOUS
 62
    7
 10
1319.8648721625445
 20
811.29626680242313
 11
1310.2056138996541
 21
808.70807635139784
  0
LINE
  8
_0-5_寸法線
  6
CONTINUOUS
 62
    7
 10
1319.8648721625445
 20
811.29626680242313
 11
1310.2056138996541
 21
813.8844572534482
  0
LINE
  8
_0-5_寸法線
  6
CONTINUOUS
 62
    7
 10
859.86487216254432
 20
811.29626680242313
 11
1319.8648721625445
 21
811.29626680242313
  0
TEXT
  8
_0-5_寸法線
 62
    7
 10
1078.614872162545
 20
811.29626680242313
 40
15
 41
1
 50
0
  1
460
  0
TEXT
  8
_0-7_枠細線
 62
    5
 10
1040.1566304017088
 20
534.31406895706255
 40
25
 41
0.8
 50
0
  1
断面詳細図
  0
TEXT
  8
_0-7_枠細線
 62
    5
 10
1155.1056001508764
 20
536.80983104432676
 40
20
 41
0.6
 50
0
  1
Ｓ＝１：５
  0
LINE
  8
_0-1_計細線
  6
CONTINUOUS
 62
    3
 10
241.68632094310382
 20
672.61981132075277
 11
241.68632094310382
 21
212.61981132075732
  0
LINE
  8
_0-1_計細線
  6
CONTINUOUS
 62
    3
 10
244.68632094310385
 20
215.61981132075732
 11
244.68632094310385
 21
669.61981132075277
  0
LINE
  8
_0-0_計極細
  6
CENTER2
 62
    2
 10
230.29772140608463
 20
442.61981132075459
 11
713.23105473946134
 21
442.61981132075459
  0
LINE
  8
_0-1_計細線
  6
CONTINUOUS
 62
    3
 10
241.68632094310382
 20
672.61981132075277
 11
701.6863209431034
 21
672.61981132075277
  0
LINE
  8
_0-1_計細線
  6
CONTINUOUS
 62
    3
 10
244.68632094310385
 20
669.61981132075277
 11
698.6863209431034
 21
669.61981132075277
  0
LINE
  8
_0-1_計細線
  6
CONTINUOUS
 62
    3
 10
698.6863209431034
 20
215.61981132075732
 11
244.68632094310385
 21
215.61981132075732
  0
LINE
  8
_0-1_計細線
  6
CONTINUOUS
 62
    3
 10
701.6863209431034
 20
212.61981132075732
 11
241.68632094310382
 21
212.61981132075732
  0
LINE
  8
_0-1_計細線
  6
CONTINUOUS
 62
    3
 10
701.6863209431034
 20
672.61981132075277
 11
701.6863209431034
 21
212.61981132075732
  0
LINE
  8
_0-1_計細線
  6
CONTINUOUS
 62
    3
 10
698.6863209431034
 20
215.61981132075732
 11
698.6863209431034
 21
669.61981132075277
  0
LINE
  8
_0-7_枠細線
  6
CONTINUOUS
 62
    5
 10
326.95642385992812
 20
740.42252270674953
 11
319.45642385992812
 21
755.42252270674953
  0
LINE
  8
_0-7_枠細線
  6
CONTINUOUS
 62
    5
 10
311.95642385992812
 20
740.42252270674953
 11
326.95642385992812
 21
740.42252270674953
  0
LINE
  8
_0-7_枠細線
  6
CONTINUOUS
 62
    5
 10
319.45642385992812
 20
755.42252270674953
 11
311.95642385992812
 21
740.42252270674953
  0
LINE
  8
_0-5_寸法線
  6
CONTINUOUS
 62
    7
 10
241.68632094310439
 20
682.61981132075277
 11
241.68632094310431
 21
832.61981132075277
  0
LINE
  8
_0-5_寸法線
  6
CONTINUOUS
 62
    7
 10
241.68632094310431
 20
827.61981132075277
 11
251.34557920599505
 21
830.20800177177807
  0
LINE
  8
_0-5_寸法線
  6
CONTINUOUS
 62
    7
 10
241.68632094310431
 20
827.61981132075277
 11
251.34557920599505
 21
825.0316208697277
  0
LINE
  8
_0-5_寸法線
  6
CONTINUOUS
 62
    7
 10
701.6863209431034
 20
682.61981132075277
 11
701.6863209431034
 21
832.61981132075277
  0
LINE
  8
_0-5_寸法線
  6
CONTINUOUS
 62
    7
 10
701.6863209431034
 20
827.61981132075277
 11
692.02706268021279
 21
825.0316208697277
  0
LINE
  8
_0-5_寸法線
  6
CONTINUOUS
 62
    7
 10
701.6863209431034
 20
827.61981132075277
 11
692.02706268021279
 21
830.20800177177807
  0
LINE
  8
_0-5_寸法線
  6
CONTINUOUS
 62
    7
 10
241.68632094310431
 20
827.61981132075277
 11
701.6863209431034
 21
827.61981132075277
  0
TEXT
  8
_0-5_寸法線
 62
    7
 10
460.43632094310408
 20
827.61981132075277
 40
15
 41
1
 50
0
  1
460
  0
LINE
  8
_0-5_寸法線
  6
CONTINUOUS
 62
    7
 10
696.68632094310351
 20
682.61981132075277
 11
696.68632094310442
 21
762.61981132075277
  0
LINE
  8
_0-5_寸法線
  6
CONTINUOUS
 62
    7
 10
696.68632094310442
 20
757.61981132075277
 11
687.02706268021359
 21
755.0316208697277
  0
LINE
  8
_0-5_寸法線
  6
CONTINUOUS
 62
    7
 10
696.68632094310442
 20
757.61981132075277
 11
687.02706268021359
 21
760.20800177177807
  0
LINE
  8
_0-5_寸法線
  6
CONTINUOUS
 62
    7
 10
246.68632094310396
 20
682.61981132075277
 11
246.68632094310482
 21
762.61981132075277
  0
LINE
  8
_0-5_寸法線
  6
CONTINUOUS
 62
    7
 10
246.68632094310482
 20
757.61981132075277
 11
256.34557920599548
 21
760.20800177177807
  0
LINE
  8
_0-5_寸法線
  6
CONTINUOUS
 62
    7
 10
246.68632094310482
 20
757.61981132075277
 11
256.34557920599548
 21
755.0316208697277
  0
LINE
  8
_0-5_寸法線
  6
CONTINUOUS
 62
    7
 10
696.68632094310442
 20
757.61981132075277
 11
246.68632094310482
 21
757.61981132075277
  0
TEXT
  8
_0-5_寸法線
 62
    7
 10
460.43632094310408
 20
757.61981132075277
 40
15
 41
1
 50
0
  1
450
  0
LINE
  8
_0-5_寸法線
  6
CONTINUOUS
 62
    7
 10
241.68632094310391
 20
682.61981132075277
 11
241.68632094310439
 21
797.61981132075277
  0
LINE
  8
_0-5_寸法線
  6
CONTINUOUS
 62
    7
 10
241.68632094310431
 20
792.61981132075277
 11
232.02706268021359
 21
790.0316208697277
  0
LINE
  8
_0-5_寸法線
  6
CONTINUOUS
 62
    7
 10
241.68632094310431
 20
792.61981132075277
 11
232.02706268021365
 21
795.20800177177807
  0
LINE
  8
_0-5_寸法線
  6
CONTINUOUS
 62
    7
 10
244.68632094310394
 20
682.61981132075277
 11
244.68632094310436
 21
797.61981132075277
  0
LINE
  8
_0-5_寸法線
  6
CONTINUOUS
 62
    7
 10
216.68632094310431
 20
792.61981132075277
 11
244.68632094310436
 21
792.61981132075277
  0
TEXT
  8
_0-5_寸法線
 62
    7
 10
218.49743070495691
 20
792.61981132075277
 40
15
 41
1
 50
0
  1
3
  0
LINE
  8
_0-5_寸法線
  6
CONTINUOUS
 62
    7
 10
244.68632094310436
 20
792.61981132075277
 11
254.34557920599502
 21
795.20800177177807
  0
LINE
  8
_0-5_寸法線
  6
CONTINUOUS
 62
    7
 10
244.68632094310436
 20
792.61981132075277
 11
254.34557920599502
 21
790.03162086972748
  0
LINE
  8
_0-5_寸法線
  6
CONTINUOUS
 62
    7
 10
698.6863209431034
 20
682.61981132075266
 11
698.6863209431034
 21
797.61981132075277
  0
LINE
  8
_0-5_寸法線
  6
CONTINUOUS
 62
    7
 10
698.6863209431034
 20
792.61981132075277
 11
689.02706268021279
 21
790.0316208697277
  0
LINE
  8
_0-5_寸法線
  6
CONTINUOUS
 62
    7
 10
698.6863209431034
 20
792.61981132075277
 11
689.02706268021279
 21
795.20800177177807
  0
LINE
  8
_0-5_寸法線
  6
CONTINUOUS
 62
    7
 10
244.68632094310436
 20
792.61981132075277
 11
698.6863209431034
 21
792.61981132075277
  0
TEXT
  8
_0-5_寸法線
 62
    7
 10
460.43632094310408
 20
792.61981132075277
 40
15
 41
1
 50
0
  1
454
  0
LINE
  8
_0-5_寸法線
  6
CONTINUOUS
 62
    7
 10
701.6863209431034
 20
682.61981132075277
 11
701.6863209431034
 21
797.61981132075277
  0
LINE
  8
_0-5_寸法線
  6
CONTINUOUS
 62
    7
 10
701.6863209431034
 20
792.61981132075277
 11
711.34557920599423
 21
795.20800177177807
  0
LINE
  8
_0-5_寸法線
  6
CONTINUOUS
 62
    7
 10
701.6863209431034
 20
792.61981132075277
 11
711.34557920599423
 21
790.03162086972748
  0
LINE
  8
_0-5_寸法線
  6
CONTINUOUS
 62
    7
 10
698.6863209431034
 20
792.61981132075277
 11
726.6863209431034
 21
792.61981132075277
  0
TEXT
  8
_0-5_寸法線
 62
    7
 10
717.95792598797607
 20
792.61981132075277
 40
15
 41
1
 50
0
  1
3
  0
LINE
  8
_0-0_計極細
  6
CENTER1
 62
    2
 10
253.68632094310442
 20
676.37053074524545
 11
253.68632094310442
 21
210.06198757977006
  0
LINE
  8
_0-0_計極細
  6
CONTINUOUS
 62
    2
 10
247.18632094310442
 20
655.21981132077417
 11
247.18632094310442
 21
648.81981132077715
  0
LINE
  8
_0-0_計極細
  6
CONTINUOUS
 62
    2
 10
260.18632094310448
 20
655.21981132077417
 11
260.18632094310448
 21
648.81981132077715
  0
LINE
  8
_0-0_計極細
  6
CONTINUOUS
 62
    2
 10
247.18632094310442
 20
637.41981132077387
 11
247.18632094310442
 21
631.01981132077697
  0
LINE
  8
_0-0_計極細
  6
CONTINUOUS
 62
    2
 10
260.18632094310448
 20
637.41981132077387
 11
260.18632094310448
 21
631.01981132077697
  0
LINE
  8
_0-0_計極細
  6
CONTINUOUS
 62
    2
 10
247.18632094310442
 20
254.21981132077318
 11
247.18632094310442
 21
247.81981132077624
  0
LINE
  8
_0-0_計極細
  6
CONTINUOUS
 62
    2
 10
260.18632094310448
 20
254.21981132077318
 11
260.18632094310448
 21
247.81981132077624
  0
LINE
  8
_0-0_計極細
  6
CONTINUOUS
 62
    2
 10
247.18632094310442
 20
236.41981132077296
 11
247.18632094310442
 21
230.01981132077606
  0
LINE
  8
_0-0_計極細
  6
CONTINUOUS
 62
    2
 10
260.18632094310448
 20
236.41981132077296
 11
260.18632094310448
 21
230.01981132077606
  0
LINE
  8
_0-0_計極細
  6
CONTINUOUS
 62
    2
 10
247.18632094310442
 20
619.61981132077369
 11
247.18632094310442
 21
613.61981132077642
  0
LINE
  8
_0-0_計極細
  6
CONTINUOUS
 62
    2
 10
260.18632094310448
 20
619.61981132077369
 11
260.18632094310448
 21
613.61981132077642
  0
LINE
  8
_0-0_計極細
  6
CONTINUOUS
 62
    2
 10
247.18632094310442
 20
602.21981132077315
 11
247.18632094310442
 21
596.21981132077599
  0
LINE
  8
_0-0_計極細
  6
CONTINUOUS
 62
    2
 10
260.18632094310448
 20
602.21981132077315
 11
260.18632094310448
 21
596.21981132077599
  0
LINE
  8
_0-0_計極細
  6
CONTINUOUS
 62
    2
 10
247.18632094310442
 20
584.81981132077351
 11
247.18632094310442
 21
578.81981132077624
  0
LINE
  8
_0-0_計極細
  6
CONTINUOUS
 62
    2
 10
260.18632094310448
 20
584.81981132077351
 11
260.18632094310448
 21
578.81981132077624
  0
LINE
  8
_0-0_計極細
  6
CONTINUOUS
 62
    2
 10
247.18632094310442
 20
567.41981132077296
 11
247.18632094310442
 21
561.41981132077581
  0
LINE
  8
_0-0_計極細
  6
CONTINUOUS
 62
    2
 10
260.18632094310448
 20
567.41981132077296
 11
260.18632094310448
 21
561.41981132077581
  0
LINE
  8
_0-0_計極細
  6
CONTINUOUS
 62
    2
 10
247.18632094310442
 20
550.01981132077333
 11
247.18632094310442
 21
544.01981132077606
  0
LINE
  8
_0-0_計極細
  6
CONTINUOUS
 62
    2
 10
260.18632094310448
 20
550.01981132077333
 11
260.18632094310448
 21
544.01981132077606
  0
LINE
  8
_0-0_計極細
  6
CONTINUOUS
 62
    2
 10
247.18632094310442
 20
532.61981132077278
 11
247.18632094310442
 21
526.61981132077563
  0
LINE
  8
_0-0_計極細
  6
CONTINUOUS
 62
    2
 10
260.18632094310448
 20
532.61981132077278
 11
260.18632094310448
 21
526.61981132077563
  0
LINE
  8
_0-0_計極細
  6
CONTINUOUS
 62
    2
 10
247.18632094310442
 20
515.21981132077315
 11
247.18632094310442
 21
509.21981132077588
  0
LINE
  8
_0-0_計極細
  6
CONTINUOUS
 62
    2
 10
260.18632094310448
 20
515.21981132077315
 11
260.18632094310448
 21
509.21981132077588
  0
LINE
  8
_0-0_計極細
  6
CONTINUOUS
 62
    2
 10
247.18632094310442
 20
497.81981132077357
 11
247.18632094310442
 21
491.81981132077624
  0
LINE
  8
_0-0_計極細
  6
CONTINUOUS
 62
    2
 10
260.18632094310448
 20
497.81981132077357
 11
260.18632094310448
 21
491.81981132077624
  0
LINE
  8
_0-0_計極細
  6
CONTINUOUS
 62
    2
 10
247.18632094310442
 20
480.41981132077296
 11
247.18632094310442
 21
474.41981132077569
  0
LINE
  8
_0-0_計極細
  6
CONTINUOUS
 62
    2
 10
260.18632094310448
 20
480.41981132077296
 11
260.18632094310448
 21
474.41981132077569
  0
LINE
  8
_0-0_計極細
  6
CONTINUOUS
 62
    2
 10
247.18632094310442
 20
463.01981132077339
 11
247.18632094310442
 21
457.01981132077606
  0
LINE
  8
_0-0_計極細
  6
CONTINUOUS
 62
    2
 10
260.18632094310448
 20
463.01981132077339
 11
260.18632094310448
 21
457.01981132077606
  0
LINE
  8
_0-0_計極細
  6
CONTINUOUS
 62
    2
 10
247.18632094310442
 20
445.61981132077278
 11
247.18632094310442
 21
439.61981132077551
  0
LINE
  8
_0-0_計極細
  6
CONTINUOUS
 62
    2
 10
260.18632094310448
 20
445.61981132077278
 11
260.18632094310448
 21
439.61981132077551
  0
LINE
  8
_0-0_計極細
  6
CONTINUOUS
 62
    2
 10
247.18632094310442
 20
428.2198113207732
 11
247.18632094310442
 21
422.21981132077588
  0
LINE
  8
_0-0_計極細
  6
CONTINUOUS
 62
    2
 10
260.18632094310448
 20
428.2198113207732
 11
260.18632094310448
 21
422.21981132077588
  0
LINE
  8
_0-0_計極細
  6
CONTINUOUS
 62
    2
 10
247.18632094310442
 20
410.81981132077351
 11
247.18632094310442
 21
404.8198113207763
  0
LINE
  8
_0-0_計極細
  6
CONTINUOUS
 62
    2
 10
260.18632094310448
 20
410.81981132077351
 11
260.18632094310448
 21
404.8198113207763
  0
LINE
  8
_0-0_計極細
  6
CONTINUOUS
 62
    2
 10
247.18632094310442
 20
393.41981132077302
 11
247.18632094310442
 21
387.41981132077569
  0
LINE
  8
_0-0_計極細
  6
CONTINUOUS
 62
    2
 10
260.18632094310448
 20
393.41981132077302
 11
260.18632094310448
 21
387.41981132077569
  0
LINE
  8
_0-0_計極細
  6
CONTINUOUS
 62
    2
 10
247.18632094310442
 20
376.01981132077333
 11
247.18632094310442
 21
370.01981132077611
  0
LINE
  8
_0-0_計極細
  6
CONTINUOUS
 62
    2
 10
260.18632094310448
 20
376.01981132077333
 11
260.18632094310448
 21
370.01981132077611
  0
LINE
  8
_0-0_計極細
  6
CONTINUOUS
 62
    2
 10
247.18632094310442
 20
358.61981132077284
 11
247.18632094310442
 21
352.61981132077551
  0
LINE
  8
_0-0_計極細
  6
CONTINUOUS
 62
    2
 10
260.18632094310448
 20
358.61981132077284
 11
260.18632094310448
 21
352.61981132077551
  0
LINE
  8
_0-0_計極細
  6
CONTINUOUS
 62
    2
 10
247.18632094310442
 20
341.21981132077315
 11
247.18632094310442
 21
335.21981132077593
  0
LINE
  8
_0-0_計極細
  6
CONTINUOUS
 62
    2
 10
260.18632094310448
 20
341.21981132077315
 11
260.18632094310448
 21
335.21981132077593
  0
LINE
  8
_0-0_計極細
  6
CONTINUOUS
 62
    2
 10
247.18632094310442
 20
323.81981132077351
 11
247.18632094310442
 21
317.81981132077624
  0
LINE
  8
_0-0_計極細
  6
CONTINUOUS
 62
    2
 10
260.18632094310448
 20
323.81981132077351
 11
260.18632094310448
 21
317.81981132077624
  0
LINE
  8
_0-0_計極細
  6
CONTINUOUS
 62
    2
 10
247.18632094310442
 20
306.41981132077296
 11
247.18632094310442
 21
300.41981132077569
  0
LINE
  8
_0-0_計極細
  6
CONTINUOUS
 62
    2
 10
260.18632094310448
 20
306.41981132077296
 11
260.18632094310448
 21
300.41981132077569
  0
LINE
  8
_0-0_計極細
  6
CONTINUOUS
 62
    2
 10
247.18632094310442
 20
289.01981132077333
 11
247.18632094310442
 21
283.01981132077606
  0
LINE
  8
_0-0_計極細
  6
CONTINUOUS
 62
    2
 10
260.18632094310448
 20
289.01981132077333
 11
260.18632094310448
 21
283.01981132077606
  0
LINE
  8
_0-0_計極細
  6
CONTINUOUS
 62
    2
 10
247.18632094310442
 20
271.61981132077369
 11
247.18632094310442
 21
265.61981132077642
  0
LINE
  8
_0-0_計極細
  6
CONTINUOUS
 62
    2
 10
260.18632094310448
 20
271.61981132077369
 11
260.18632094310448
 21
265.61981132077642
  0
LINE
  8
_0-1_計細線
  6
CONTINUOUS
 62
    3
 10
246.68632094310425
 20
666.61981132077744
 11
696.68632094310396
 21
666.61981132077744
  0
LINE
  8
_0-1_計細線
  6
CONTINUOUS
 62
    3
 10
246.68632094310425
 20
655.2198113207769
 11
696.68632094310396
 21
655.2198113207769
  0
LINE
  8
_0-1_計細線
  6
CONTINUOUS
 62
    3
 10
246.68632094310425
 20
666.61981132077744
 11
246.68632094310425
 21
655.2198113207769
  0
LINE
  8
_0-1_計細線
  6
CONTINUOUS
 62
    3
 10
696.68632094310396
 20
666.61981132077744
 11
696.68632094310396
 21
655.2198113207769
  0
LINE
  8
_0-0_計極細
  6
CONTINUOUS
 62
    2
 10
246.68632094310425
 20
658.41981132077751
 11
696.68632094310396
 21
658.41981132077751
  0
LINE
  8
_0-0_計極細
  6
CONTINUOUS
 62
    2
 10
246.68632094310425
 20
663.41981132077751
 11
696.68632094310396
 21
663.41981132077751
  0
LINE
  8
_0-1_計細線
  6
CONTINUOUS
 62
    3
 10
246.68632094310425
 20
265.61981132077642
 11
696.68632094310396
 21
265.61981132077642
  0
LINE
  8
_0-1_計細線
  6
CONTINUOUS
 62
    3
 10
246.68632094310425
 20
254.2198113207759
 11
696.68632094310396
 21
254.2198113207759
  0
LINE
  8
_0-1_計細線
  6
CONTINUOUS
 62
    3
 10
246.68632094310425
 20
265.61981132077642
 11
246.68632094310425
 21
254.2198113207759
  0
LINE
  8
_0-1_計細線
  6
CONTINUOUS
 62
    3
 10
696.68632094310396
 20
265.61981132077642
 11
696.68632094310396
 21
254.2198113207759
  0
LINE
  8
_0-0_計極細
  6
CONTINUOUS
 62
    2
 10
246.68632094310425
 20
257.4198113207766
 11
696.68632094310396
 21
257.4198113207766
  0
LINE
  8
_0-0_計極細
  6
CONTINUOUS
 62
    2
 10
246.68632094310425
 20
262.4198113207766
 11
696.68632094310396
 21
262.4198113207766
  0
LINE
  8
_0-1_計細線
  6
CONTINUOUS
 62
    3
 10
246.68632094310425
 20
596.21981132077599
 11
696.68632094310396
 21
596.21981132077599
  0
LINE
  8
_0-1_計細線
  6
CONTINUOUS
 62
    3
 10
246.68632094310425
 20
584.81981132077533
 11
696.68632094310396
 21
584.81981132077533
  0
LINE
  8
_0-1_計細線
  6
CONTINUOUS
 62
    3
 10
246.68632094310425
 20
596.21981132077599
 11
246.68632094310425
 21
584.81981132077533
  0
LINE
  8
_0-1_計細線
  6
CONTINUOUS
 62
    3
 10
696.68632094310396
 20
596.21981132077599
 11
696.68632094310396
 21
584.81981132077533
  0
LINE
  8
_0-0_計極細
  6
CONTINUOUS
 62
    2
 10
246.68632094310425
 20
588.01981132077606
 11
696.68632094310396
 21
588.01981132077606
  0
LINE
  8
_0-0_計極細
  6
CONTINUOUS
 62
    2
 10
246.68632094310425
 20
593.01981132077606
 11
696.68632094310396
 21
593.01981132077606
  0
LINE
  8
_0-1_計細線
  6
CONTINUOUS
 62
    3
 10
246.68632094310425
 20
578.81981132077624
 11
696.68632094310396
 21
578.81981132077624
  0
LINE
  8
_0-1_計細線
  6
CONTINUOUS
 62
    3
 10
246.68632094310425
 20
567.41981132077569
 11
696.68632094310396
 21
567.41981132077569
  0
LINE
  8
_0-1_計細線
  6
CONTINUOUS
 62
    3
 10
246.68632094310425
 20
578.81981132077624
 11
246.68632094310425
 21
567.41981132077569
  0
LINE
  8
_0-1_計細線
  6
CONTINUOUS
 62
    3
 10
696.68632094310396
 20
578.81981132077624
 11
696.68632094310396
 21
567.41981132077569
  0
LINE
  8
_0-0_計極細
  6
CONTINUOUS
 62
    2
 10
246.68632094310425
 20
570.61981132077653
 11
696.68632094310396
 21
570.61981132077653
  0
LINE
  8
_0-0_計極細
  6
CONTINUOUS
 62
    2
 10
246.68632094310425
 20
575.61981132077653
 11
696.68632094310396
 21
575.61981132077653
  0
LINE
  8
_0-1_計細線
  6
CONTINUOUS
 62
    3
 10
246.68632094310425
 20
561.41981132077581
 11
696.68632094310396
 21
561.41981132077581
  0
LINE
  8
_0-1_計細線
  6
CONTINUOUS
 62
    3
 10
246.68632094310425
 20
550.01981132077515
 11
696.68632094310396
 21
550.01981132077515
  0
LINE
  8
_0-1_計細線
  6
CONTINUOUS
 62
    3
 10
246.68632094310425
 20
561.41981132077581
 11
246.68632094310425
 21
550.01981132077515
  0
LINE
  8
_0-1_計細線
  6
CONTINUOUS
 62
    3
 10
696.68632094310396
 20
561.41981132077581
 11
696.68632094310396
 21
550.01981132077515
  0
LINE
  8
_0-0_計極細
  6
CONTINUOUS
 62
    2
 10
246.68632094310425
 20
553.21981132077588
 11
696.68632094310396
 21
553.21981132077588
  0
LINE
  8
_0-0_計極細
  6
CONTINUOUS
 62
    2
 10
246.68632094310425
 20
558.21981132077588
 11
696.68632094310396
 21
558.21981132077588
  0
LINE
  8
_0-1_計細線
  6
CONTINUOUS
 62
    3
 10
246.68632094310425
 20
544.01981132077606
 11
696.68632094310396
 21
544.01981132077606
  0
LINE
  8
_0-1_計細線
  6
CONTINUOUS
 62
    3
 10
246.68632094310425
 20
532.61981132077551
 11
696.68632094310396
 21
532.61981132077551
  0
LINE
  8
_0-1_計細線
  6
CONTINUOUS
 62
    3
 10
246.68632094310425
 20
544.01981132077606
 11
246.68632094310425
 21
532.61981132077551
  0
LINE
  8
_0-1_計細線
  6
CONTINUOUS
 62
    3
 10
696.68632094310396
 20
544.01981132077606
 11
696.68632094310396
 21
532.61981132077551
  0
LINE
  8
_0-0_計極細
  6
CONTINUOUS
 62
    2
 10
246.68632094310425
 20
535.81981132077635
 11
696.68632094310396
 21
535.81981132077635
  0
LINE
  8
_0-0_計極細
  6
CONTINUOUS
 62
    2
 10
246.68632094310425
 20
540.81981132077635
 11
696.68632094310396
 21
540.81981132077635
  0
LINE
  8
_0-1_計細線
  6
CONTINUOUS
 62
    3
 10
246.68632094310425
 20
526.61981132077563
 11
696.68632094310396
 21
526.61981132077563
  0
LINE
  8
_0-1_計細線
  6
CONTINUOUS
 62
    3
 10
246.68632094310425
 20
515.21981132077497
 11
696.68632094310396
 21
515.21981132077497
  0
LINE
  8
_0-1_計細線
  6
CONTINUOUS
 62
    3
 10
246.68632094310425
 20
526.61981132077563
 11
246.68632094310425
 21
515.21981132077497
  0
LINE
  8
_0-1_計細線
  6
CONTINUOUS
 62
    3
 10
696.68632094310396
 20
526.61981132077563
 11
696.68632094310396
 21
515.21981132077497
  0
LINE
  8
_0-0_計極細
  6
CONTINUOUS
 62
    2
 10
246.68632094310425
 20
518.41981132077569
 11
696.68632094310396
 21
518.41981132077569
  0
LINE
  8
_0-0_計極細
  6
CONTINUOUS
 62
    2
 10
246.68632094310425
 20
523.41981132077569
 11
696.68632094310396
 21
523.41981132077569
  0
LINE
  8
_0-1_計細線
  6
CONTINUOUS
 62
    3
 10
246.68632094310425
 20
509.21981132077588
 11
696.68632094310396
 21
509.21981132077588
  0
LINE
  8
_0-1_計細線
  6
CONTINUOUS
 62
    3
 10
246.68632094310425
 20
497.81981132077533
 11
696.68632094310396
 21
497.81981132077533
  0
LINE
  8
_0-1_計細線
  6
CONTINUOUS
 62
    3
 10
246.68632094310425
 20
509.21981132077588
 11
246.68632094310425
 21
497.81981132077533
  0
LINE
  8
_0-1_計細線
  6
CONTINUOUS
 62
    3
 10
696.68632094310396
 20
509.21981132077588
 11
696.68632094310396
 21
497.81981132077533
  0
LINE
  8
_0-0_計極細
  6
CONTINUOUS
 62
    2
 10
246.68632094310425
 20
501.01981132077611
 11
696.68632094310396
 21
501.01981132077611
  0
LINE
  8
_0-0_計極細
  6
CONTINUOUS
 62
    2
 10
246.68632094310425
 20
506.01981132077611
 11
696.68632094310396
 21
506.01981132077611
  0
LINE
  8
_0-1_計細線
  6
CONTINUOUS
 62
    3
 10
246.68632094310425
 20
491.81981132077624
 11
696.68632094310396
 21
491.81981132077624
  0
LINE
  8
_0-1_計細線
  6
CONTINUOUS
 62
    3
 10
246.68632094310425
 20
480.41981132077575
 11
696.68632094310396
 21
480.41981132077575
  0
LINE
  8
_0-1_計細線
  6
CONTINUOUS
 62
    3
 10
246.68632094310425
 20
491.81981132077624
 11
246.68632094310425
 21
480.41981132077575
  0
LINE
  8
_0-1_計細線
  6
CONTINUOUS
 62
    3
 10
696.68632094310396
 20
491.81981132077624
 11
696.68632094310396
 21
480.41981132077575
  0
LINE
  8
_0-0_計極細
  6
CONTINUOUS
 62
    2
 10
246.68632094310425
 20
483.61981132077642
 11
696.68632094310396
 21
483.61981132077642
  0
LINE
  8
_0-0_計極細
  6
CONTINUOUS
 62
    2
 10
246.68632094310425
 20
488.61981132077642
 11
696.68632094310396
 21
488.61981132077642
  0
LINE
  8
_0-1_計細線
  6
CONTINUOUS
 62
    3
 10
246.68632094310425
 20
474.41981132077569
 11
696.68632094310396
 21
474.41981132077569
  0
LINE
  8
_0-1_計細線
  6
CONTINUOUS
 62
    3
 10
246.68632094310425
 20
463.01981132077515
 11
696.68632094310396
 21
463.01981132077515
  0
LINE
  8
_0-1_計細線
  6
CONTINUOUS
 62
    3
 10
246.68632094310425
 20
474.41981132077569
 11
246.68632094310425
 21
463.01981132077515
  0
LINE
  8
_0-1_計細線
  6
CONTINUOUS
 62
    3
 10
696.68632094310396
 20
474.41981132077569
 11
696.68632094310396
 21
463.01981132077515
  0
LINE
  8
_0-0_計極細
  6
CONTINUOUS
 62
    2
 10
246.68632094310425
 20
466.21981132077593
 11
696.68632094310396
 21
466.21981132077593
  0
LINE
  8
_0-0_計極細
  6
CONTINUOUS
 62
    2
 10
246.68632094310425
 20
471.21981132077593
 11
696.68632094310396
 21
471.21981132077593
  0
LINE
  8
_0-1_計細線
  6
CONTINUOUS
 62
    3
 10
246.68632094310425
 20
457.01981132077606
 11
696.68632094310396
 21
457.01981132077606
  0
LINE
  8
_0-1_計細線
  6
CONTINUOUS
 62
    3
 10
246.68632094310425
 20
445.61981132077557
 11
696.68632094310396
 21
445.61981132077557
  0
LINE
  8
_0-1_計細線
  6
CONTINUOUS
 62
    3
 10
246.68632094310425
 20
457.01981132077606
 11
246.68632094310425
 21
445.61981132077557
  0
LINE
  8
_0-1_計細線
  6
CONTINUOUS
 62
    3
 10
696.68632094310396
 20
457.01981132077606
 11
696.68632094310396
 21
445.61981132077557
  0
LINE
  8
_0-0_計極細
  6
CONTINUOUS
 62
    2
 10
246.68632094310425
 20
448.81981132077624
 11
696.68632094310396
 21
448.81981132077624
  0
LINE
  8
_0-0_計極細
  6
CONTINUOUS
 62
    2
 10
246.68632094310425
 20
453.81981132077624
 11
696.68632094310396
 21
453.81981132077624
  0
LINE
  8
_0-1_計細線
  6
CONTINUOUS
 62
    3
 10
246.68632094310425
 20
439.61981132077551
 11
696.68632094310396
 21
439.61981132077551
  0
LINE
  8
_0-1_計細線
  6
CONTINUOUS
 62
    3
 10
246.68632094310425
 20
428.21981132077497
 11
696.68632094310396
 21
428.21981132077497
  0
LINE
  8
_0-1_計細線
  6
CONTINUOUS
 62
    3
 10
246.68632094310425
 20
439.61981132077551
 11
246.68632094310425
 21
428.21981132077497
  0
LINE
  8
_0-1_計細線
  6
CONTINUOUS
 62
    3
 10
696.68632094310396
 20
439.61981132077551
 11
696.68632094310396
 21
428.21981132077497
  0
LINE
  8
_0-0_計極細
  6
CONTINUOUS
 62
    2
 10
246.68632094310425
 20
431.41981132077575
 11
696.68632094310396
 21
431.41981132077575
  0
LINE
  8
_0-0_計極細
  6
CONTINUOUS
 62
    2
 10
246.68632094310425
 20
436.41981132077575
 11
696.68632094310396
 21
436.41981132077575
  0
LINE
  8
_0-1_計細線
  6
CONTINUOUS
 62
    3
 10
246.68632094310425
 20
422.21981132077588
 11
696.68632094310396
 21
422.21981132077588
  0
LINE
  8
_0-1_計細線
  6
CONTINUOUS
 62
    3
 10
246.68632094310425
 20
410.81981132077539
 11
696.68632094310396
 21
410.81981132077539
  0
LINE
  8
_0-1_計細線
  6
CONTINUOUS
 62
    3
 10
246.68632094310425
 20
422.21981132077588
 11
246.68632094310425
 21
410.81981132077539
  0
LINE
  8
_0-1_計細線
  6
CONTINUOUS
 62
    3
 10
696.68632094310396
 20
422.21981132077588
 11
696.68632094310396
 21
410.81981132077539
  0
LINE
  8
_0-0_計極細
  6
CONTINUOUS
 62
    2
 10
246.68632094310425
 20
414.01981132077606
 11
696.68632094310396
 21
414.01981132077606
  0
LINE
  8
_0-0_計極細
  6
CONTINUOUS
 62
    2
 10
246.68632094310425
 20
419.01981132077606
 11
696.68632094310396
 21
419.01981132077606
  0
LINE
  8
_0-1_計細線
  6
CONTINUOUS
 62
    3
 10
246.68632094310425
 20
404.8198113207763
 11
696.68632094310396
 21
404.8198113207763
  0
LINE
  8
_0-1_計細線
  6
CONTINUOUS
 62
    3
 10
246.68632094310425
 20
393.41981132077569
 11
696.68632094310396
 21
393.41981132077569
  0
LINE
  8
_0-1_計細線
  6
CONTINUOUS
 62
    3
 10
246.68632094310425
 20
404.8198113207763
 11
246.68632094310425
 21
393.41981132077569
  0
LINE
  8
_0-1_計細線
  6
CONTINUOUS
 62
    3
 10
696.68632094310396
 20
404.8198113207763
 11
696.68632094310396
 21
393.41981132077569
  0
LINE
  8
_0-0_計極細
  6
CONTINUOUS
 62
    2
 10
246.68632094310425
 20
396.61981132077642
 11
696.68632094310396
 21
396.61981132077642
  0
LINE
  8
_0-0_計極細
  6
CONTINUOUS
 62
    2
 10
246.68632094310425
 20
401.61981132077642
 11
696.68632094310396
 21
401.61981132077642
  0
LINE
  8
_0-1_計細線
  6
CONTINUOUS
 62
    3
 10
246.68632094310425
 20
387.41981132077569
 11
696.68632094310396
 21
387.41981132077569
  0
LINE
  8
_0-1_計細線
  6
CONTINUOUS
 62
    3
 10
246.68632094310425
 20
376.0198113207752
 11
696.68632094310396
 21
376.0198113207752
  0
LINE
  8
_0-1_計細線
  6
CONTINUOUS
 62
    3
 10
246.68632094310425
 20
387.41981132077569
 11
246.68632094310425
 21
376.0198113207752
  0
LINE
  8
_0-1_計細線
  6
CONTINUOUS
 62
    3
 10
696.68632094310396
 20
387.41981132077569
 11
696.68632094310396
 21
376.0198113207752
  0
LINE
  8
_0-0_計極細
  6
CONTINUOUS
 62
    2
 10
246.68632094310425
 20
379.21981132077588
 11
696.68632094310396
 21
379.21981132077588
  0
LINE
  8
_0-0_計極細
  6
CONTINUOUS
 62
    2
 10
246.68632094310425
 20
384.21981132077588
 11
696.68632094310396
 21
384.21981132077588
  0
LINE
  8
_0-1_計細線
  6
CONTINUOUS
 62
    3
 10
246.68632094310425
 20
370.01981132077611
 11
696.68632094310396
 21
370.01981132077611
  0
LINE
  8
_0-1_計細線
  6
CONTINUOUS
 62
    3
 10
246.68632094310425
 20
358.61981132077551
 11
696.68632094310396
 21
358.61981132077551
  0
LINE
  8
_0-1_計細線
  6
CONTINUOUS
 62
    3
 10
246.68632094310425
 20
370.01981132077611
 11
246.68632094310425
 21
358.61981132077551
  0
LINE
  8
_0-1_計細線
  6
CONTINUOUS
 62
    3
 10
696.68632094310396
 20
370.01981132077611
 11
696.68632094310396
 21
358.61981132077551
  0
LINE
  8
_0-0_計極細
  6
CONTINUOUS
 62
    2
 10
246.68632094310425
 20
361.81981132077624
 11
696.68632094310396
 21
361.81981132077624
  0
LINE
  8
_0-0_計極細
  6
CONTINUOUS
 62
    2
 10
246.68632094310425
 20
366.81981132077624
 11
696.68632094310396
 21
366.81981132077624
  0
LINE
  8
_0-1_計細線
  6
CONTINUOUS
 62
    3
 10
246.68632094310425
 20
352.61981132077551
 11
696.68632094310396
 21
352.61981132077551
  0
LINE
  8
_0-1_計細線
  6
CONTINUOUS
 62
    3
 10
246.68632094310425
 20
341.21981132077502
 11
696.68632094310396
 21
341.21981132077502
  0
LINE
  8
_0-1_計細線
  6
CONTINUOUS
 62
    3
 10
246.68632094310425
 20
352.61981132077551
 11
246.68632094310425
 21
341.21981132077502
  0
LINE
  8
_0-1_計細線
  6
CONTINUOUS
 62
    3
 10
696.68632094310396
 20
352.61981132077551
 11
696.68632094310396
 21
341.21981132077502
  0
LINE
  8
_0-0_計極細
  6
CONTINUOUS
 62
    2
 10
246.68632094310425
 20
344.41981132077569
 11
696.68632094310396
 21
344.41981132077569
  0
LINE
  8
_0-0_計極細
  6
CONTINUOUS
 62
    2
 10
246.68632094310425
 20
349.41981132077569
 11
696.68632094310396
 21
349.41981132077569
  0
LINE
  8
_0-1_計細線
  6
CONTINUOUS
 62
    3
 10
246.68632094310425
 20
335.21981132077593
 11
696.68632094310396
 21
335.21981132077593
  0
LINE
  8
_0-1_計細線
  6
CONTINUOUS
 62
    3
 10
246.68632094310425
 20
323.81981132077533
 11
696.68632094310396
 21
323.81981132077533
  0
LINE
  8
_0-1_計細線
  6
CONTINUOUS
 62
    3
 10
246.68632094310425
 20
335.21981132077593
 11
246.68632094310425
 21
323.81981132077533
  0
LINE
  8
_0-1_計細線
  6
CONTINUOUS
 62
    3
 10
696.68632094310396
 20
335.21981132077593
 11
696.68632094310396
 21
323.81981132077533
  0
LINE
  8
_0-0_計極細
  6
CONTINUOUS
 62
    2
 10
246.68632094310425
 20
327.01981132077606
 11
696.68632094310396
 21
327.01981132077606
  0
LINE
  8
_0-0_計極細
  6
CONTINUOUS
 62
    2
 10
246.68632094310425
 20
332.01981132077606
 11
696.68632094310396
 21
332.01981132077606
  0
LINE
  8
_0-1_計細線
  6
CONTINUOUS
 62
    3
 10
246.68632094310425
 20
317.81981132077624
 11
696.68632094310396
 21
317.81981132077624
  0
LINE
  8
_0-1_計細線
  6
CONTINUOUS
 62
    3
 10
246.68632094310425
 20
306.41981132077569
 11
696.68632094310396
 21
306.41981132077569
  0
LINE
  8
_0-1_計細線
  6
CONTINUOUS
 62
    3
 10
246.68632094310425
 20
317.81981132077624
 11
246.68632094310425
 21
306.41981132077569
  0
LINE
  8
_0-1_計細線
  6
CONTINUOUS
 62
    3
 10
696.68632094310396
 20
317.81981132077624
 11
696.68632094310396
 21
306.41981132077569
  0
LINE
  8
_0-0_計極細
  6
CONTINUOUS
 62
    2
 10
246.68632094310425
 20
309.61981132077642
 11
696.68632094310396
 21
309.61981132077642
  0
LINE
  8
_0-0_計極細
  6
CONTINUOUS
 62
    2
 10
246.68632094310425
 20
314.61981132077642
 11
696.68632094310396
 21
314.61981132077642
  0
LINE
  8
_0-1_計細線
  6
CONTINUOUS
 62
    3
 10
246.68632094310425
 20
300.41981132077569
 11
696.68632094310396
 21
300.41981132077569
  0
LINE
  8
_0-1_計細線
  6
CONTINUOUS
 62
    3
 10
246.68632094310425
 20
289.01981132077515
 11
696.68632094310396
 21
289.01981132077515
  0
LINE
  8
_0-1_計細線
  6
CONTINUOUS
 62
    3
 10
246.68632094310425
 20
300.41981132077569
 11
246.68632094310425
 21
289.01981132077515
  0
LINE
  8
_0-1_計細線
  6
CONTINUOUS
 62
    3
 10
696.68632094310396
 20
300.41981132077569
 11
696.68632094310396
 21
289.01981132077515
  0
LINE
  8
_0-0_計極細
  6
CONTINUOUS
 62
    2
 10
246.68632094310425
 20
292.21981132077588
 11
696.68632094310396
 21
292.21981132077588
  0
LINE
  8
_0-0_計極細
  6
CONTINUOUS
 62
    2
 10
246.68632094310425
 20
297.21981132077588
 11
696.68632094310396
 21
297.21981132077588
  0
LINE
  8
_0-1_計細線
  6
CONTINUOUS
 62
    3
 10
246.68632094310425
 20
283.01981132077606
 11
696.68632094310396
 21
283.01981132077606
  0
LINE
  8
_0-1_計細線
  6
CONTINUOUS
 62
    3
 10
246.68632094310425
 20
271.61981132077551
 11
696.68632094310396
 21
271.61981132077551
  0
LINE
  8
_0-1_計細線
  6
CONTINUOUS
 62
    3
 10
246.68632094310425
 20
283.01981132077606
 11
246.68632094310425
 21
271.61981132077551
  0
LINE
  8
_0-1_計細線
  6
CONTINUOUS
 62
    3
 10
696.68632094310396
 20
283.01981132077606
 11
696.68632094310396
 21
271.61981132077551
  0
LINE
  8
_0-0_計極細
  6
CONTINUOUS
 62
    2
 10
246.68632094310425
 20
274.81981132077624
 11
696.68632094310396
 21
274.81981132077624
  0
LINE
  8
_0-0_計極細
  6
CONTINUOUS
 62
    2
 10
246.68632094310425
 20
279.81981132077624
 11
696.68632094310396
 21
279.81981132077624
  0
LINE
  8
_0-0_計極細
  6
CENTER1
 62
    2
 10
689.68632094310396
 20
676.37053074524545
 11
689.68632094310396
 21
210.06198757977006
  0
LINE
  8
_0-0_計極細
  6
CONTINUOUS
 62
    2
 10
683.18632094310396
 20
655.21981132077417
 11
683.18632094310396
 21
648.81981132077715
  0
LINE
  8
_0-0_計極細
  6
CONTINUOUS
 62
    2
 10
696.18632094310396
 20
655.21981132077417
 11
696.18632094310396
 21
648.81981132077715
  0
LINE
  8
_0-0_計極細
  6
CONTINUOUS
 62
    2
 10
683.18632094310396
 20
637.41981132077387
 11
683.18632094310396
 21
631.01981132077697
  0
LINE
  8
_0-0_計極細
  6
CONTINUOUS
 62
    2
 10
696.18632094310396
 20
637.41981132077387
 11
696.18632094310396
 21
631.01981132077697
  0
LINE
  8
_0-0_計極細
  6
CONTINUOUS
 62
    2
 10
683.18632094310396
 20
254.21981132077318
 11
683.18632094310396
 21
247.81981132077624
  0
LINE
  8
_0-0_計極細
  6
CONTINUOUS
 62
    2
 10
696.18632094310396
 20
254.21981132077318
 11
696.18632094310396
 21
247.81981132077624
  0
LINE
  8
_0-0_計極細
  6
CONTINUOUS
 62
    2
 10
683.18632094310396
 20
236.41981132077296
 11
683.18632094310396
 21
230.01981132077606
  0
LINE
  8
_0-0_計極細
  6
CONTINUOUS
 62
    2
 10
696.18632094310396
 20
236.41981132077296
 11
696.18632094310396
 21
230.01981132077606
  0
LINE
  8
_0-0_計極細
  6
CONTINUOUS
 62
    2
 10
683.18632094310396
 20
619.61981132077369
 11
683.18632094310396
 21
613.61981132077642
  0
LINE
  8
_0-0_計極細
  6
CONTINUOUS
 62
    2
 10
696.18632094310396
 20
619.61981132077369
 11
696.18632094310396
 21
613.61981132077642
  0
LINE
  8
_0-0_計極細
  6
CONTINUOUS
 62
    2
 10
683.18632094310396
 20
602.21981132077315
 11
683.18632094310396
 21
596.21981132077599
  0
LINE
  8
_0-0_計極細
  6
CONTINUOUS
 62
    2
 10
696.18632094310396
 20
602.21981132077315
 11
696.18632094310396
 21
596.21981132077599
  0
LINE
  8
_0-0_計極細
  6
CONTINUOUS
 62
    2
 10
683.18632094310396
 20
584.81981132077351
 11
683.18632094310396
 21
578.81981132077624
  0
LINE
  8
_0-0_計極細
  6
CONTINUOUS
 62
    2
 10
696.18632094310396
 20
584.81981132077351
 11
696.18632094310396
 21
578.81981132077624
  0
LINE
  8
_0-0_計極細
  6
CONTINUOUS
 62
    2
 10
683.18632094310396
 20
567.41981132077296
 11
683.18632094310396
 21
561.41981132077581
  0
LINE
  8
_0-0_計極細
  6
CONTINUOUS
 62
    2
 10
696.18632094310396
 20
567.41981132077296
 11
696.18632094310396
 21
561.41981132077581
  0
LINE
  8
_0-0_計極細
  6
CONTINUOUS
 62
    2
 10
683.18632094310396
 20
550.01981132077333
 11
683.18632094310396
 21
544.01981132077606
  0
LINE
  8
_0-0_計極細
  6
CONTINUOUS
 62
    2
 10
696.18632094310396
 20
550.01981132077333
 11
696.18632094310396
 21
544.01981132077606
  0
LINE
  8
_0-0_計極細
  6
CONTINUOUS
 62
    2
 10
683.18632094310396
 20
532.61981132077278
 11
683.18632094310396
 21
526.61981132077563
  0
LINE
  8
_0-0_計極細
  6
CONTINUOUS
 62
    2
 10
696.18632094310396
 20
532.61981132077278
 11
696.18632094310396
 21
526.61981132077563
  0
LINE
  8
_0-0_計極細
  6
CONTINUOUS
 62
    2
 10
683.18632094310396
 20
515.21981132077315
 11
683.18632094310396
 21
509.21981132077588
  0
LINE
  8
_0-0_計極細
  6
CONTINUOUS
 62
    2
 10
696.18632094310396
 20
515.21981132077315
 11
696.18632094310396
 21
509.21981132077588
  0
LINE
  8
_0-0_計極細
  6
CONTINUOUS
 62
    2
 10
683.18632094310396
 20
497.81981132077357
 11
683.18632094310396
 21
491.81981132077624
  0
LINE
  8
_0-0_計極細
  6
CONTINUOUS
 62
    2
 10
696.18632094310396
 20
497.81981132077357
 11
696.18632094310396
 21
491.81981132077624
  0
LINE
  8
_0-0_計極細
  6
CONTINUOUS
 62
    2
 10
683.18632094310396
 20
480.41981132077296
 11
683.18632094310396
 21
474.41981132077569
  0
LINE
  8
_0-0_計極細
  6
CONTINUOUS
 62
    2
 10
696.18632094310396
 20
480.41981132077296
 11
696.18632094310396
 21
474.41981132077569
  0
LINE
  8
_0-0_計極細
  6
CONTINUOUS
 62
    2
 10
683.18632094310396
 20
463.01981132077339
 11
683.18632094310396
 21
457.01981132077606
  0
LINE
  8
_0-0_計極細
  6
CONTINUOUS
 62
    2
 10
696.18632094310396
 20
463.01981132077339
 11
696.18632094310396
 21
457.01981132077606
  0
LINE
  8
_0-0_計極細
  6
CONTINUOUS
 62
    2
 10
683.18632094310396
 20
445.61981132077278
 11
683.18632094310396
 21
439.61981132077551
  0
LINE
  8
_0-0_計極細
  6
CONTINUOUS
 62
    2
 10
696.18632094310396
 20
445.61981132077278
 11
696.18632094310396
 21
439.61981132077551
  0
LINE
  8
_0-0_計極細
  6
CONTINUOUS
 62
    2
 10
683.18632094310396
 20
428.2198113207732
 11
683.18632094310396
 21
422.21981132077588
  0
LINE
  8
_0-0_計極細
  6
CONTINUOUS
 62
    2
 10
696.18632094310396
 20
428.2198113207732
 11
696.18632094310396
 21
422.21981132077588
  0
LINE
  8
_0-0_計極細
  6
CONTINUOUS
 62
    2
 10
683.18632094310396
 20
410.81981132077351
 11
683.18632094310396
 21
404.8198113207763
  0
LINE
  8
_0-0_計極細
  6
CONTINUOUS
 62
    2
 10
696.18632094310396
 20
410.81981132077351
 11
696.18632094310396
 21
404.8198113207763
  0
LINE
  8
_0-0_計極細
  6
CONTINUOUS
 62
    2
 10
683.18632094310396
 20
393.41981132077302
 11
683.18632094310396
 21
387.41981132077569
  0
LINE
  8
_0-0_計極細
  6
CONTINUOUS
 62
    2
 10
696.18632094310396
 20
393.41981132077302
 11
696.18632094310396
 21
387.41981132077569
  0
LINE
  8
_0-0_計極細
  6
CONTINUOUS
 62
    2
 10
683.18632094310396
 20
376.01981132077333
 11
683.18632094310396
 21
370.01981132077611
  0
LINE
  8
_0-0_計極細
  6
CONTINUOUS
 62
    2
 10
696.18632094310396
 20
376.01981132077333
 11
696.18632094310396
 21
370.01981132077611
  0
LINE
  8
_0-0_計極細
  6
CONTINUOUS
 62
    2
 10
683.18632094310396
 20
358.61981132077284
 11
683.18632094310396
 21
352.61981132077551
  0
LINE
  8
_0-0_計極細
  6
CONTINUOUS
 62
    2
 10
696.18632094310396
 20
358.61981132077284
 11
696.18632094310396
 21
352.61981132077551
  0
LINE
  8
_0-0_計極細
  6
CONTINUOUS
 62
    2
 10
683.18632094310396
 20
341.21981132077315
 11
683.18632094310396
 21
335.21981132077593
  0
LINE
  8
_0-0_計極細
  6
CONTINUOUS
 62
    2
 10
696.18632094310396
 20
341.21981132077315
 11
696.18632094310396
 21
335.21981132077593
  0
LINE
  8
_0-0_計極細
  6
CONTINUOUS
 62
    2
 10
683.18632094310396
 20
323.81981132077351
 11
683.18632094310396
 21
317.81981132077624
  0
LINE
  8
_0-0_計極細
  6
CONTINUOUS
 62
    2
 10
696.18632094310396
 20
323.81981132077351
 11
696.18632094310396
 21
317.81981132077624
  0
LINE
  8
_0-0_計極細
  6
CONTINUOUS
 62
    2
 10
683.18632094310396
 20
306.41981132077296
 11
683.18632094310396
 21
300.41981132077569
  0
LINE
  8
_0-0_計極細
  6
CONTINUOUS
 62
    2
 10
696.18632094310396
 20
306.41981132077296
 11
696.18632094310396
 21
300.41981132077569
  0
LINE
  8
_0-0_計極細
  6
CONTINUOUS
 62
    2
 10
683.18632094310396
 20
289.01981132077333
 11
683.18632094310396
 21
283.01981132077606
  0
LINE
  8
_0-0_計極細
  6
CONTINUOUS
 62
    2
 10
696.18632094310396
 20
289.01981132077333
 11
696.18632094310396
 21
283.01981132077606
  0
LINE
  8
_0-0_計極細
  6
CONTINUOUS
 62
    2
 10
683.18632094310396
 20
271.61981132077369
 11
683.18632094310396
 21
265.61981132077642
  0
LINE
  8
_0-0_計極細
  6
CONTINUOUS
 62
    2
 10
696.18632094310396
 20
271.61981132077369
 11
696.18632094310396
 21
265.61981132077642
  0
LINE
  8
_0-0_計極細
  6
CENTER1
 62
    2
 10
350.68632094310487
 20
676.37053074524545
 11
350.68632094310487
 21
210.06198757977006
  0
LINE
  8
_0-0_計極細
  6
CONTINUOUS
 62
    2
 10
344.18632094310487
 20
655.21981132077417
 11
344.18632094310487
 21
648.81981132077715
  0
LINE
  8
_0-0_計極細
  6
CONTINUOUS
 62
    2
 10
357.18632094310487
 20
655.21981132077417
 11
357.18632094310487
 21
648.81981132077715
  0
LINE
  8
_0-0_計極細
  6
CONTINUOUS
 62
    2
 10
344.18632094310487
 20
637.41981132077387
 11
344.18632094310487
 21
631.01981132077697
  0
LINE
  8
_0-0_計極細
  6
CONTINUOUS
 62
    2
 10
357.18632094310487
 20
637.41981132077387
 11
357.18632094310487
 21
631.01981132077697
  0
LINE
  8
_0-0_計極細
  6
CONTINUOUS
 62
    2
 10
344.18632094310487
 20
254.21981132077318
 11
344.18632094310487
 21
247.81981132077624
  0
LINE
  8
_0-0_計極細
  6
CONTINUOUS
 62
    2
 10
357.18632094310487
 20
254.21981132077318
 11
357.18632094310487
 21
247.81981132077624
  0
LINE
  8
_0-0_計極細
  6
CONTINUOUS
 62
    2
 10
344.18632094310487
 20
236.41981132077296
 11
344.18632094310487
 21
230.01981132077606
  0
LINE
  8
_0-0_計極細
  6
CONTINUOUS
 62
    2
 10
357.18632094310487
 20
236.41981132077296
 11
357.18632094310487
 21
230.01981132077606
  0
LINE
  8
_0-0_計極細
  6
CONTINUOUS
 62
    2
 10
344.18632094310487
 20
619.61981132077369
 11
344.18632094310487
 21
613.61981132077642
  0
LINE
  8
_0-0_計極細
  6
CONTINUOUS
 62
    2
 10
357.18632094310487
 20
619.61981132077369
 11
357.18632094310487
 21
613.61981132077642
  0
LINE
  8
_0-0_計極細
  6
CONTINUOUS
 62
    2
 10
344.18632094310487
 20
602.21981132077315
 11
344.18632094310487
 21
596.21981132077599
  0
LINE
  8
_0-0_計極細
  6
CONTINUOUS
 62
    2
 10
357.18632094310487
 20
602.21981132077315
 11
357.18632094310487
 21
596.21981132077599
  0
LINE
  8
_0-0_計極細
  6
CONTINUOUS
 62
    2
 10
344.18632094310487
 20
584.81981132077351
 11
344.18632094310487
 21
578.81981132077624
  0
LINE
  8
_0-0_計極細
  6
CONTINUOUS
 62
    2
 10
357.18632094310487
 20
584.81981132077351
 11
357.18632094310487
 21
578.81981132077624
  0
LINE
  8
_0-0_計極細
  6
CONTINUOUS
 62
    2
 10
344.18632094310487
 20
567.41981132077296
 11
344.18632094310487
 21
561.41981132077581
  0
LINE
  8
_0-0_計極細
  6
CONTINUOUS
 62
    2
 10
357.18632094310487
 20
567.41981132077296
 11
357.18632094310487
 21
561.41981132077581
  0
LINE
  8
_0-0_計極細
  6
CONTINUOUS
 62
    2
 10
344.18632094310487
 20
550.01981132077333
 11
344.18632094310487
 21
544.01981132077606
  0
LINE
  8
_0-0_計極細
  6
CONTINUOUS
 62
    2
 10
357.18632094310487
 20
550.01981132077333
 11
357.18632094310487
 21
544.01981132077606
  0
LINE
  8
_0-0_計極細
  6
CONTINUOUS
 62
    2
 10
344.18632094310487
 20
532.61981132077278
 11
344.18632094310487
 21
526.61981132077563
  0
LINE
  8
_0-0_計極細
  6
CONTINUOUS
 62
    2
 10
357.18632094310487
 20
532.61981132077278
 11
357.18632094310487
 21
526.61981132077563
  0
LINE
  8
_0-0_計極細
  6
CONTINUOUS
 62
    2
 10
344.18632094310487
 20
515.21981132077315
 11
344.18632094310487
 21
509.21981132077588
  0
LINE
  8
_0-0_計極細
  6
CONTINUOUS
 62
    2
 10
357.18632094310487
 20
515.21981132077315
 11
357.18632094310487
 21
509.21981132077588
  0
LINE
  8
_0-0_計極細
  6
CONTINUOUS
 62
    2
 10
344.18632094310487
 20
497.81981132077357
 11
344.18632094310487
 21
491.81981132077624
  0
LINE
  8
_0-0_計極細
  6
CONTINUOUS
 62
    2
 10
357.18632094310487
 20
497.81981132077357
 11
357.18632094310487
 21
491.81981132077624
  0
LINE
  8
_0-0_計極細
  6
CONTINUOUS
 62
    2
 10
344.18632094310487
 20
480.41981132077296
 11
344.18632094310487
 21
474.41981132077569
  0
LINE
  8
_0-0_計極細
  6
CONTINUOUS
 62
    2
 10
357.18632094310487
 20
480.41981132077296
 11
357.18632094310487
 21
474.41981132077569
  0
LINE
  8
_0-0_計極細
  6
CONTINUOUS
 62
    2
 10
344.18632094310487
 20
463.01981132077339
 11
344.18632094310487
 21
457.01981132077606
  0
LINE
  8
_0-0_計極細
  6
CONTINUOUS
 62
    2
 10
357.18632094310487
 20
463.01981132077339
 11
357.18632094310487
 21
457.01981132077606
  0
LINE
  8
_0-0_計極細
  6
CONTINUOUS
 62
    2
 10
344.18632094310487
 20
428.2198113207732
 11
344.18632094310487
 21
422.21981132077588
  0
LINE
  8
_0-0_計極細
  6
CONTINUOUS
 62
    2
 10
357.18632094310487
 20
428.2198113207732
 11
357.18632094310487
 21
422.21981132077588
  0
LINE
  8
_0-0_計極細
  6
CONTINUOUS
 62
    2
 10
344.18632094310487
 20
410.81981132077351
 11
344.18632094310487
 21
404.8198113207763
  0
LINE
  8
_0-0_計極細
  6
CONTINUOUS
 62
    2
 10
357.18632094310487
 20
410.81981132077351
 11
357.18632094310487
 21
404.8198113207763
  0
LINE
  8
_0-0_計極細
  6
CONTINUOUS
 62
    2
 10
344.18632094310487
 20
393.41981132077302
 11
344.18632094310487
 21
387.41981132077569
  0
LINE
  8
_0-0_計極細
  6
CONTINUOUS
 62
    2
 10
357.18632094310487
 20
393.41981132077302
 11
357.18632094310487
 21
387.41981132077569
  0
LINE
  8
_0-0_計極細
  6
CONTINUOUS
 62
    2
 10
344.18632094310487
 20
376.01981132077333
 11
344.18632094310487
 21
370.01981132077611
  0
LINE
  8
_0-0_計極細
  6
CONTINUOUS
 62
    2
 10
357.18632094310487
 20
376.01981132077333
 11
357.18632094310487
 21
370.01981132077611
  0
LINE
  8
_0-0_計極細
  6
CONTINUOUS
 62
    2
 10
344.18632094310487
 20
358.61981132077284
 11
344.18632094310487
 21
352.61981132077551
  0
LINE
  8
_0-0_計極細
  6
CONTINUOUS
 62
    2
 10
357.18632094310487
 20
358.61981132077284
 11
357.18632094310487
 21
352.61981132077551
  0
LINE
  8
_0-0_計極細
  6
CONTINUOUS
 62
    2
 10
344.18632094310487
 20
341.21981132077315
 11
344.18632094310487
 21
335.21981132077593
  0
LINE
  8
_0-0_計極細
  6
CONTINUOUS
 62
    2
 10
357.18632094310487
 20
341.21981132077315
 11
357.18632094310487
 21
335.21981132077593
  0
LINE
  8
_0-0_計極細
  6
CONTINUOUS
 62
    2
 10
344.18632094310487
 20
323.81981132077351
 11
344.18632094310487
 21
317.81981132077624
  0
LINE
  8
_0-0_計極細
  6
CONTINUOUS
 62
    2
 10
357.18632094310487
 20
323.81981132077351
 11
357.18632094310487
 21
317.81981132077624
  0
LINE
  8
_0-0_計極細
  6
CONTINUOUS
 62
    2
 10
344.18632094310487
 20
306.41981132077296
 11
344.18632094310487
 21
300.41981132077569
  0
LINE
  8
_0-0_計極細
  6
CONTINUOUS
 62
    2
 10
357.18632094310487
 20
306.41981132077296
 11
357.18632094310487
 21
300.41981132077569
  0
LINE
  8
_0-0_計極細
  6
CONTINUOUS
 62
    2
 10
344.18632094310487
 20
289.01981132077333
 11
344.18632094310487
 21
283.01981132077606
  0
LINE
  8
_0-0_計極細
  6
CONTINUOUS
 62
    2
 10
357.18632094310487
 20
289.01981132077333
 11
357.18632094310487
 21
283.01981132077606
  0
LINE
  8
_0-0_計極細
  6
CONTINUOUS
 62
    2
 10
344.18632094310487
 20
271.61981132077369
 11
344.18632094310487
 21
265.61981132077642
  0
LINE
  8
_0-0_計極細
  6
CONTINUOUS
 62
    2
 10
357.18632094310487
 20
271.61981132077369
 11
357.18632094310487
 21
265.61981132077642
  0
LINE
  8
_0-0_計極細
  6
CENTER1
 62
    2
 10
592.68632094310442
 20
676.37053074524545
 11
592.68632094310442
 21
210.06198757977006
  0
LINE
  8
_0-0_計極細
  6
CONTINUOUS
 62
    2
 10
586.18632094310442
 20
655.21981132077417
 11
586.18632094310442
 21
648.81981132077715
  0
LINE
  8
_0-0_計極細
  6
CONTINUOUS
 62
    2
 10
599.18632094310442
 20
655.21981132077417
 11
599.18632094310442
 21
648.81981132077715
  0
LINE
  8
_0-0_計極細
  6
CONTINUOUS
 62
    2
 10
586.18632094310442
 20
637.41981132077387
 11
586.18632094310442
 21
631.01981132077697
  0
LINE
  8
_0-0_計極細
  6
CONTINUOUS
 62
    2
 10
599.18632094310442
 20
637.41981132077387
 11
599.18632094310442
 21
631.01981132077697
  0
LINE
  8
_0-0_計極細
  6
CONTINUOUS
 62
    2
 10
586.18632094310442
 20
254.21981132077318
 11
586.18632094310442
 21
247.81981132077624
  0
LINE
  8
_0-0_計極細
  6
CONTINUOUS
 62
    2
 10
599.18632094310442
 20
254.21981132077318
 11
599.18632094310442
 21
247.81981132077624
  0
LINE
  8
_0-0_計極細
  6
CONTINUOUS
 62
    2
 10
586.18632094310442
 20
236.41981132077296
 11
586.18632094310442
 21
230.01981132077606
  0
LINE
  8
_0-0_計極細
  6
CONTINUOUS
 62
    2
 10
599.18632094310442
 20
236.41981132077296
 11
599.18632094310442
 21
230.01981132077606
  0
LINE
  8
_0-0_計極細
  6
CONTINUOUS
 62
    2
 10
586.18632094310442
 20
619.61981132077369
 11
586.18632094310442
 21
613.61981132077642
  0
LINE
  8
_0-0_計極細
  6
CONTINUOUS
 62
    2
 10
599.18632094310442
 20
619.61981132077369
 11
599.18632094310442
 21
613.61981132077642
  0
LINE
  8
_0-0_計極細
  6
CONTINUOUS
 62
    2
 10
586.18632094310442
 20
602.21981132077315
 11
586.18632094310442
 21
596.21981132077599
  0
LINE
  8
_0-0_計極細
  6
CONTINUOUS
 62
    2
 10
599.18632094310442
 20
602.21981132077315
 11
599.18632094310442
 21
596.21981132077599
  0
LINE
  8
_0-0_計極細
  6
CONTINUOUS
 62
    2
 10
586.18632094310442
 20
584.81981132077351
 11
586.18632094310442
 21
578.81981132077624
  0
LINE
  8
_0-0_計極細
  6
CONTINUOUS
 62
    2
 10
599.18632094310442
 20
584.81981132077351
 11
599.18632094310442
 21
578.81981132077624
  0
LINE
  8
_0-0_計極細
  6
CONTINUOUS
 62
    2
 10
586.18632094310442
 20
567.41981132077296
 11
586.18632094310442
 21
561.41981132077581
  0
LINE
  8
_0-0_計極細
  6
CONTINUOUS
 62
    2
 10
599.18632094310442
 20
567.41981132077296
 11
599.18632094310442
 21
561.41981132077581
  0
LINE
  8
_0-0_計極細
  6
CONTINUOUS
 62
    2
 10
586.18632094310442
 20
550.01981132077333
 11
586.18632094310442
 21
544.01981132077606
  0
LINE
  8
_0-0_計極細
  6
CONTINUOUS
 62
    2
 10
599.18632094310442
 20
550.01981132077333
 11
599.18632094310442
 21
544.01981132077606
  0
LINE
  8
_0-0_計極細
  6
CONTINUOUS
 62
    2
 10
586.18632094310442
 20
532.61981132077278
 11
586.18632094310442
 21
526.61981132077563
  0
LINE
  8
_0-0_計極細
  6
CONTINUOUS
 62
    2
 10
599.18632094310442
 20
532.61981132077278
 11
599.18632094310442
 21
526.61981132077563
  0
LINE
  8
_0-0_計極細
  6
CONTINUOUS
 62
    2
 10
586.18632094310442
 20
515.21981132077315
 11
586.18632094310442
 21
509.21981132077588
  0
LINE
  8
_0-0_計極細
  6
CONTINUOUS
 62
    2
 10
599.18632094310442
 20
515.21981132077315
 11
599.18632094310442
 21
509.21981132077588
  0
LINE
  8
_0-0_計極細
  6
CONTINUOUS
 62
    2
 10
586.18632094310442
 20
497.81981132077357
 11
586.18632094310442
 21
491.81981132077624
  0
LINE
  8
_0-0_計極細
  6
CONTINUOUS
 62
    2
 10
599.18632094310442
 20
497.81981132077357
 11
599.18632094310442
 21
491.81981132077624
  0
LINE
  8
_0-0_計極細
  6
CONTINUOUS
 62
    2
 10
586.18632094310442
 20
480.41981132077296
 11
586.18632094310442
 21
474.41981132077569
  0
LINE
  8
_0-0_計極細
  6
CONTINUOUS
 62
    2
 10
599.18632094310442
 20
480.41981132077296
 11
599.18632094310442
 21
474.41981132077569
  0
LINE
  8
_0-0_計極細
  6
CONTINUOUS
 62
    2
 10
586.18632094310442
 20
463.01981132077339
 11
586.18632094310442
 21
457.01981132077606
  0
LINE
  8
_0-0_計極細
  6
CONTINUOUS
 62
    2
 10
599.18632094310442
 20
463.01981132077339
 11
599.18632094310442
 21
457.01981132077606
  0
LINE
  8
_0-0_計極細
  6
CONTINUOUS
 62
    2
 10
586.18632094310442
 20
445.61981132077278
 11
586.18632094310442
 21
439.61981132077551
  0
LINE
  8
_0-0_計極細
  6
CONTINUOUS
 62
    2
 10
599.18632094310442
 20
445.61981132077278
 11
599.18632094310442
 21
439.61981132077551
  0
LINE
  8
_0-0_計極細
  6
CONTINUOUS
 62
    2
 10
586.18632094310442
 20
428.2198113207732
 11
586.18632094310442
 21
422.21981132077588
  0
LINE
  8
_0-0_計極細
  6
CONTINUOUS
 62
    2
 10
599.18632094310442
 20
428.2198113207732
 11
599.18632094310442
 21
422.21981132077588
  0
LINE
  8
_0-0_計極細
  6
CONTINUOUS
 62
    2
 10
586.18632094310442
 20
410.81981132077351
 11
586.18632094310442
 21
404.8198113207763
  0
LINE
  8
_0-0_計極細
  6
CONTINUOUS
 62
    2
 10
599.18632094310442
 20
410.81981132077351
 11
599.18632094310442
 21
404.8198113207763
  0
LINE
  8
_0-0_計極細
  6
CONTINUOUS
 62
    2
 10
586.18632094310442
 20
393.41981132077302
 11
586.18632094310442
 21
387.41981132077569
  0
LINE
  8
_0-0_計極細
  6
CONTINUOUS
 62
    2
 10
599.18632094310442
 20
393.41981132077302
 11
599.18632094310442
 21
387.41981132077569
  0
LINE
  8
_0-0_計極細
  6
CONTINUOUS
 62
    2
 10
586.18632094310442
 20
376.01981132077333
 11
586.18632094310442
 21
370.01981132077611
  0
LINE
  8
_0-0_計極細
  6
CONTINUOUS
 62
    2
 10
599.18632094310442
 20
376.01981132077333
 11
599.18632094310442
 21
370.01981132077611
  0
LINE
  8
_0-0_計極細
  6
CONTINUOUS
 62
    2
 10
586.18632094310442
 20
358.61981132077284
 11
586.18632094310442
 21
352.61981132077551
  0
LINE
  8
_0-0_計極細
  6
CONTINUOUS
 62
    2
 10
599.18632094310442
 20
358.61981132077284
 11
599.18632094310442
 21
352.61981132077551
  0
LINE
  8
_0-0_計極細
  6
CONTINUOUS
 62
    2
 10
586.18632094310442
 20
341.21981132077315
 11
586.18632094310442
 21
335.21981132077593
  0
LINE
  8
_0-0_計極細
  6
CONTINUOUS
 62
    2
 10
599.18632094310442
 20
341.21981132077315
 11
599.18632094310442
 21
335.21981132077593
  0
LINE
  8
_0-0_計極細
  6
CONTINUOUS
 62
    2
 10
586.18632094310442
 20
323.81981132077351
 11
586.18632094310442
 21
317.81981132077624
  0
LINE
  8
_0-0_計極細
  6
CONTINUOUS
 62
    2
 10
599.18632094310442
 20
323.81981132077351
 11
599.18632094310442
 21
317.81981132077624
  0
LINE
  8
_0-0_計極細
  6
CONTINUOUS
 62
    2
 10
586.18632094310442
 20
306.41981132077296
 11
586.18632094310442
 21
300.41981132077569
  0
LINE
  8
_0-0_計極細
  6
CONTINUOUS
 62
    2
 10
599.18632094310442
 20
306.41981132077296
 11
599.18632094310442
 21
300.41981132077569
  0
LINE
  8
_0-0_計極細
  6
CONTINUOUS
 62
    2
 10
586.18632094310442
 20
289.01981132077333
 11
586.18632094310442
 21
283.01981132077606
  0
LINE
  8
_0-0_計極細
  6
CONTINUOUS
 62
    2
 10
599.18632094310442
 20
289.01981132077333
 11
599.18632094310442
 21
283.01981132077606
  0
LINE
  8
_0-0_計極細
  6
CONTINUOUS
 62
    2
 10
586.18632094310442
 20
271.61981132077369
 11
586.18632094310442
 21
265.61981132077642
  0
LINE
  8
_0-0_計極細
  6
CONTINUOUS
 62
    2
 10
599.18632094310442
 20
271.61981132077369
 11
599.18632094310442
 21
265.61981132077642
  0
LINE
  8
_0-0_計極細
  6
CENTER1
 62
    2
 10
399.18632094310487
 20
676.37053074524545
 11
399.18632094310487
 21
210.06198757977006
  0
LINE
  8
_0-0_計極細
  6
CONTINUOUS
 62
    2
 10
392.68632094310487
 20
655.21981132077417
 11
392.68632094310487
 21
648.81981132077715
  0
LINE
  8
_0-0_計極細
  6
CONTINUOUS
 62
    2
 10
405.68632094310487
 20
655.21981132077417
 11
405.68632094310487
 21
648.81981132077715
  0
LINE
  8
_0-0_計極細
  6
CONTINUOUS
 62
    2
 10
392.68632094310487
 20
637.41981132077387
 11
392.68632094310487
 21
631.01981132077697
  0
LINE
  8
_0-0_計極細
  6
CONTINUOUS
 62
    2
 10
405.68632094310487
 20
637.41981132077387
 11
405.68632094310487
 21
631.01981132077697
  0
LINE
  8
_0-0_計極細
  6
CONTINUOUS
 62
    2
 10
392.68632094310487
 20
254.21981132077318
 11
392.68632094310487
 21
247.81981132077624
  0
LINE
  8
_0-0_計極細
  6
CONTINUOUS
 62
    2
 10
405.68632094310487
 20
254.21981132077318
 11
405.68632094310487
 21
247.81981132077624
  0
LINE
  8
_0-0_計極細
  6
CONTINUOUS
 62
    2
 10
392.68632094310487
 20
236.41981132077296
 11
392.68632094310487
 21
230.01981132077606
  0
LINE
  8
_0-0_計極細
  6
CONTINUOUS
 62
    2
 10
405.68632094310487
 20
236.41981132077296
 11
405.68632094310487
 21
230.01981132077606
  0
LINE
  8
_0-0_計極細
  6
CONTINUOUS
 62
    2
 10
392.68632094310487
 20
619.61981132077369
 11
392.68632094310487
 21
613.61981132077642
  0
LINE
  8
_0-0_計極細
  6
CONTINUOUS
 62
    2
 10
405.68632094310487
 20
619.61981132077369
 11
405.68632094310487
 21
613.61981132077642
  0
LINE
  8
_0-0_計極細
  6
CONTINUOUS
 62
    2
 10
392.68632094310487
 20
602.21981132077315
 11
392.68632094310487
 21
596.21981132077599
  0
LINE
  8
_0-0_計極細
  6
CONTINUOUS
 62
    2
 10
405.68632094310487
 20
602.21981132077315
 11
405.68632094310487
 21
596.21981132077599
  0
LINE
  8
_0-0_計極細
  6
CONTINUOUS
 62
    2
 10
392.68632094310487
 20
584.81981132077351
 11
392.68632094310487
 21
578.81981132077624
  0
LINE
  8
_0-0_計極細
  6
CONTINUOUS
 62
    2
 10
405.68632094310487
 20
584.81981132077351
 11
405.68632094310487
 21
578.81981132077624
  0
LINE
  8
_0-0_計極細
  6
CONTINUOUS
 62
    2
 10
392.68632094310487
 20
567.41981132077296
 11
392.68632094310487
 21
561.41981132077581
  0
LINE
  8
_0-0_計極細
  6
CONTINUOUS
 62
    2
 10
405.68632094310487
 20
567.41981132077296
 11
405.68632094310487
 21
561.41981132077581
  0
LINE
  8
_0-0_計極細
  6
CONTINUOUS
 62
    2
 10
392.68632094310487
 20
550.01981132077333
 11
392.68632094310487
 21
544.01981132077606
  0
LINE
  8
_0-0_計極細
  6
CONTINUOUS
 62
    2
 10
405.68632094310487
 20
550.01981132077333
 11
405.68632094310487
 21
544.01981132077606
  0
LINE
  8
_0-0_計極細
  6
CONTINUOUS
 62
    2
 10
392.68632094310487
 20
532.61981132077278
 11
392.68632094310487
 21
526.61981132077563
  0
LINE
  8
_0-0_計極細
  6
CONTINUOUS
 62
    2
 10
405.68632094310487
 20
532.61981132077278
 11
405.68632094310487
 21
526.61981132077563
  0
LINE
  8
_0-0_計極細
  6
CONTINUOUS
 62
    2
 10
392.68632094310487
 20
515.21981132077315
 11
392.68632094310487
 21
509.21981132077588
  0
LINE
  8
_0-0_計極細
  6
CONTINUOUS
 62
    2
 10
405.68632094310487
 20
515.21981132077315
 11
405.68632094310487
 21
509.21981132077588
  0
LINE
  8
_0-0_計極細
  6
CONTINUOUS
 62
    2
 10
392.68632094310487
 20
497.81981132077357
 11
392.68632094310487
 21
491.81981132077624
  0
LINE
  8
_0-0_計極細
  6
CONTINUOUS
 62
    2
 10
405.68632094310487
 20
497.81981132077357
 11
405.68632094310487
 21
491.81981132077624
  0
LINE
  8
_0-0_計極細
  6
CONTINUOUS
 62
    2
 10
392.68632094310487
 20
480.41981132077296
 11
392.68632094310487
 21
474.41981132077569
  0
LINE
  8
_0-0_計極細
  6
CONTINUOUS
 62
    2
 10
405.68632094310487
 20
480.41981132077296
 11
405.68632094310487
 21
474.41981132077569
  0
LINE
  8
_0-0_計極細
  6
CONTINUOUS
 62
    2
 10
392.68632094310487
 20
463.01981132077339
 11
392.68632094310487
 21
457.01981132077606
  0
LINE
  8
_0-0_計極細
  6
CONTINUOUS
 62
    2
 10
405.68632094310487
 20
463.01981132077339
 11
405.68632094310487
 21
457.01981132077606
  0
LINE
  8
_0-0_計極細
  6
CONTINUOUS
 62
    2
 10
392.68632094310487
 20
445.61981132077278
 11
392.68632094310487
 21
439.61981132077551
  0
LINE
  8
_0-0_計極細
  6
CONTINUOUS
 62
    2
 10
405.68632094310487
 20
445.61981132077278
 11
405.68632094310487
 21
439.61981132077551
  0
LINE
  8
_0-0_計極細
  6
CONTINUOUS
 62
    2
 10
392.68632094310487
 20
428.2198113207732
 11
392.68632094310487
 21
422.21981132077588
  0
LINE
  8
_0-0_計極細
  6
CONTINUOUS
 62
    2
 10
405.68632094310487
 20
428.2198113207732
 11
405.68632094310487
 21
422.21981132077588
  0
LINE
  8
_0-0_計極細
  6
CONTINUOUS
 62
    2
 10
392.68632094310487
 20
410.81981132077351
 11
392.68632094310487
 21
404.8198113207763
  0
LINE
  8
_0-0_計極細
  6
CONTINUOUS
 62
    2
 10
405.68632094310487
 20
410.81981132077351
 11
405.68632094310487
 21
404.8198113207763
  0
LINE
  8
_0-0_計極細
  6
CONTINUOUS
 62
    2
 10
392.68632094310487
 20
393.41981132077302
 11
392.68632094310487
 21
387.41981132077569
  0
LINE
  8
_0-0_計極細
  6
CONTINUOUS
 62
    2
 10
405.68632094310487
 20
393.41981132077302
 11
405.68632094310487
 21
387.41981132077569
  0
LINE
  8
_0-0_計極細
  6
CONTINUOUS
 62
    2
 10
392.68632094310487
 20
376.01981132077333
 11
392.68632094310487
 21
370.01981132077611
  0
LINE
  8
_0-0_計極細
  6
CONTINUOUS
 62
    2
 10
405.68632094310487
 20
376.01981132077333
 11
405.68632094310487
 21
370.01981132077611
  0
LINE
  8
_0-0_計極細
  6
CONTINUOUS
 62
    2
 10
392.68632094310487
 20
358.61981132077284
 11
392.68632094310487
 21
352.61981132077551
  0
LINE
  8
_0-0_計極細
  6
CONTINUOUS
 62
    2
 10
405.68632094310487
 20
358.61981132077284
 11
405.68632094310487
 21
352.61981132077551
  0
LINE
  8
_0-0_計極細
  6
CONTINUOUS
 62
    2
 10
392.68632094310487
 20
341.21981132077315
 11
392.68632094310487
 21
335.21981132077593
  0
LINE
  8
_0-0_計極細
  6
CONTINUOUS
 62
    2
 10
405.68632094310487
 20
341.21981132077315
 11
405.68632094310487
 21
335.21981132077593
  0
LINE
  8
_0-0_計極細
  6
CONTINUOUS
 62
    2
 10
392.68632094310487
 20
323.81981132077351
 11
392.68632094310487
 21
317.81981132077624
  0
LINE
  8
_0-0_計極細
  6
CONTINUOUS
 62
    2
 10
405.68632094310487
 20
323.81981132077351
 11
405.68632094310487
 21
317.81981132077624
  0
LINE
  8
_0-0_計極細
  6
CONTINUOUS
 62
    2
 10
392.68632094310487
 20
306.41981132077296
 11
392.68632094310487
 21
300.41981132077569
  0
LINE
  8
_0-0_計極細
  6
CONTINUOUS
 62
    2
 10
405.68632094310487
 20
306.41981132077296
 11
405.68632094310487
 21
300.41981132077569
  0
LINE
  8
_0-0_計極細
  6
CONTINUOUS
 62
    2
 10
392.68632094310487
 20
289.01981132077333
 11
392.68632094310487
 21
283.01981132077606
  0
LINE
  8
_0-0_計極細
  6
CONTINUOUS
 62
    2
 10
405.68632094310487
 20
289.01981132077333
 11
405.68632094310487
 21
283.01981132077606
  0
LINE
  8
_0-0_計極細
  6
CONTINUOUS
 62
    2
 10
392.68632094310487
 20
271.61981132077369
 11
392.68632094310487
 21
265.61981132077642
  0
LINE
  8
_0-0_計極細
  6
CONTINUOUS
 62
    2
 10
405.68632094310487
 20
271.61981132077369
 11
405.68632094310487
 21
265.61981132077642
  0
LINE
  8
_0-0_計極細
  6
CENTER1
 62
    2
 10
447.68632094310487
 20
676.37053074524545
 11
447.68632094310487
 21
210.06198757977006
  0
LINE
  8
_0-0_計極細
  6
CONTINUOUS
 62
    2
 10
441.18632094310493
 20
655.21981132077417
 11
441.18632094310493
 21
648.81981132077715
  0
LINE
  8
_0-0_計極細
  6
CONTINUOUS
 62
    2
 10
454.18632094310487
 20
655.21981132077417
 11
454.18632094310487
 21
648.81981132077715
  0
LINE
  8
_0-0_計極細
  6
CONTINUOUS
 62
    2
 10
441.18632094310493
 20
637.41981132077387
 11
441.18632094310493
 21
631.01981132077697
  0
LINE
  8
_0-0_計極細
  6
CONTINUOUS
 62
    2
 10
454.18632094310487
 20
637.41981132077387
 11
454.18632094310487
 21
631.01981132077697
  0
LINE
  8
_0-0_計極細
  6
CONTINUOUS
 62
    2
 10
441.18632094310493
 20
254.21981132077318
 11
441.18632094310493
 21
247.81981132077624
  0
LINE
  8
_0-0_計極細
  6
CONTINUOUS
 62
    2
 10
454.18632094310487
 20
254.21981132077318
 11
454.18632094310487
 21
247.81981132077624
  0
LINE
  8
_0-0_計極細
  6
CONTINUOUS
 62
    2
 10
441.18632094310493
 20
236.41981132077296
 11
441.18632094310493
 21
230.01981132077606
  0
LINE
  8
_0-0_計極細
  6
CONTINUOUS
 62
    2
 10
454.18632094310487
 20
236.41981132077296
 11
454.18632094310487
 21
230.01981132077606
  0
LINE
  8
_0-0_計極細
  6
CONTINUOUS
 62
    2
 10
441.18632094310493
 20
619.61981132077369
 11
441.18632094310493
 21
613.61981132077642
  0
LINE
  8
_0-0_計極細
  6
CONTINUOUS
 62
    2
 10
454.18632094310487
 20
619.61981132077369
 11
454.18632094310487
 21
613.61981132077642
  0
LINE
  8
_0-0_計極細
  6
CONTINUOUS
 62
    2
 10
441.18632094310493
 20
602.21981132077315
 11
441.18632094310493
 21
596.21981132077599
  0
LINE
  8
_0-0_計極細
  6
CONTINUOUS
 62
    2
 10
454.18632094310487
 20
602.21981132077315
 11
454.18632094310487
 21
596.21981132077599
  0
LINE
  8
_0-0_計極細
  6
CONTINUOUS
 62
    2
 10
441.18632094310493
 20
584.81981132077351
 11
441.18632094310493
 21
578.81981132077624
  0
LINE
  8
_0-0_計極細
  6
CONTINUOUS
 62
    2
 10
454.18632094310487
 20
584.81981132077351
 11
454.18632094310487
 21
578.81981132077624
  0
LINE
  8
_0-0_計極細
  6
CONTINUOUS
 62
    2
 10
441.18632094310493
 20
567.41981132077296
 11
441.18632094310493
 21
561.41981132077581
  0
LINE
  8
_0-0_計極細
  6
CONTINUOUS
 62
    2
 10
454.18632094310487
 20
567.41981132077296
 11
454.18632094310487
 21
561.41981132077581
  0
LINE
  8
_0-0_計極細
  6
CONTINUOUS
 62
    2
 10
441.18632094310493
 20
550.01981132077333
 11
441.18632094310493
 21
544.01981132077606
  0
LINE
  8
_0-0_計極細
  6
CONTINUOUS
 62
    2
 10
454.18632094310487
 20
550.01981132077333
 11
454.18632094310487
 21
544.01981132077606
  0
LINE
  8
_0-0_計極細
  6
CONTINUOUS
 62
    2
 10
441.18632094310493
 20
532.61981132077278
 11
441.18632094310493
 21
526.61981132077563
  0
LINE
  8
_0-0_計極細
  6
CONTINUOUS
 62
    2
 10
454.18632094310487
 20
532.61981132077278
 11
454.18632094310487
 21
526.61981132077563
  0
LINE
  8
_0-0_計極細
  6
CONTINUOUS
 62
    2
 10
441.18632094310493
 20
515.21981132077315
 11
441.18632094310493
 21
509.21981132077588
  0
LINE
  8
_0-0_計極細
  6
CONTINUOUS
 62
    2
 10
454.18632094310487
 20
515.21981132077315
 11
454.18632094310487
 21
509.21981132077588
  0
LINE
  8
_0-0_計極細
  6
CONTINUOUS
 62
    2
 10
441.18632094310493
 20
497.81981132077357
 11
441.18632094310493
 21
491.81981132077624
  0
LINE
  8
_0-0_計極細
  6
CONTINUOUS
 62
    2
 10
454.18632094310487
 20
497.81981132077357
 11
454.18632094310487
 21
491.81981132077624
  0
LINE
  8
_0-0_計極細
  6
CONTINUOUS
 62
    2
 10
441.18632094310493
 20
480.41981132077296
 11
441.18632094310493
 21
474.41981132077569
  0
LINE
  8
_0-0_計極細
  6
CONTINUOUS
 62
    2
 10
454.18632094310487
 20
480.41981132077296
 11
454.18632094310487
 21
474.41981132077569
  0
LINE
  8
_0-0_計極細
  6
CONTINUOUS
 62
    2
 10
441.18632094310493
 20
463.01981132077339
 11
441.18632094310493
 21
457.01981132077606
  0
LINE
  8
_0-0_計極細
  6
CONTINUOUS
 62
    2
 10
454.18632094310487
 20
463.01981132077339
 11
454.18632094310487
 21
457.01981132077606
  0
LINE
  8
_0-0_計極細
  6
CONTINUOUS
 62
    2
 10
441.18632094310493
 20
445.61981132077278
 11
441.18632094310493
 21
439.61981132077551
  0
LINE
  8
_0-0_計極細
  6
CONTINUOUS
 62
    2
 10
454.18632094310487
 20
445.61981132077278
 11
454.18632094310487
 21
439.61981132077551
  0
LINE
  8
_0-0_計極細
  6
CONTINUOUS
 62
    2
 10
441.18632094310493
 20
428.2198113207732
 11
441.18632094310493
 21
422.21981132077588
  0
LINE
  8
_0-0_計極細
  6
CONTINUOUS
 62
    2
 10
454.18632094310487
 20
428.2198113207732
 11
454.18632094310487
 21
422.21981132077588
  0
LINE
  8
_0-0_計極細
  6
CONTINUOUS
 62
    2
 10
441.18632094310493
 20
410.81981132077351
 11
441.18632094310493
 21
404.8198113207763
  0
LINE
  8
_0-0_計極細
  6
CONTINUOUS
 62
    2
 10
454.18632094310487
 20
410.81981132077351
 11
454.18632094310487
 21
404.8198113207763
  0
LINE
  8
_0-0_計極細
  6
CONTINUOUS
 62
    2
 10
441.18632094310493
 20
393.41981132077302
 11
441.18632094310493
 21
387.41981132077569
  0
LINE
  8
_0-0_計極細
  6
CONTINUOUS
 62
    2
 10
454.18632094310487
 20
393.41981132077302
 11
454.18632094310487
 21
387.41981132077569
  0
LINE
  8
_0-0_計極細
  6
CONTINUOUS
 62
    2
 10
441.18632094310493
 20
376.01981132077333
 11
441.18632094310493
 21
370.01981132077611
  0
LINE
  8
_0-0_計極細
  6
CONTINUOUS
 62
    2
 10
454.18632094310487
 20
376.01981132077333
 11
454.18632094310487
 21
370.01981132077611
  0
LINE
  8
_0-0_計極細
  6
CONTINUOUS
 62
    2
 10
441.18632094310493
 20
358.61981132077284
 11
441.18632094310493
 21
352.61981132077551
  0
LINE
  8
_0-0_計極細
  6
CONTINUOUS
 62
    2
 10
454.18632094310487
 20
358.61981132077284
 11
454.18632094310487
 21
352.61981132077551
  0
LINE
  8
_0-0_計極細
  6
CONTINUOUS
 62
    2
 10
441.18632094310493
 20
341.21981132077315
 11
441.18632094310493
 21
335.21981132077593
  0
LINE
  8
_0-0_計極細
  6
CONTINUOUS
 62
    2
 10
454.18632094310487
 20
341.21981132077315
 11
454.18632094310487
 21
335.21981132077593
  0
LINE
  8
_0-0_計極細
  6
CONTINUOUS
 62
    2
 10
441.18632094310493
 20
323.81981132077351
 11
441.18632094310493
 21
317.81981132077624
  0
LINE
  8
_0-0_計極細
  6
CONTINUOUS
 62
    2
 10
454.18632094310487
 20
323.81981132077351
 11
454.18632094310487
 21
317.81981132077624
  0
LINE
  8
_0-0_計極細
  6
CONTINUOUS
 62
    2
 10
441.18632094310493
 20
306.41981132077296
 11
441.18632094310493
 21
300.41981132077569
  0
LINE
  8
_0-0_計極細
  6
CONTINUOUS
 62
    2
 10
454.18632094310487
 20
306.41981132077296
 11
454.18632094310487
 21
300.41981132077569
  0
LINE
  8
_0-0_計極細
  6
CONTINUOUS
 62
    2
 10
441.18632094310493
 20
289.01981132077333
 11
441.18632094310493
 21
283.01981132077606
  0
LINE
  8
_0-0_計極細
  6
CONTINUOUS
 62
    2
 10
454.18632094310487
 20
289.01981132077333
 11
454.18632094310487
 21
283.01981132077606
  0
LINE
  8
_0-0_計極細
  6
CONTINUOUS
 62
    2
 10
441.18632094310493
 20
271.61981132077369
 11
441.18632094310493
 21
265.61981132077642
  0
LINE
  8
_0-0_計極細
  6
CONTINUOUS
 62
    2
 10
454.18632094310487
 20
271.61981132077369
 11
454.18632094310487
 21
265.61981132077642
  0
LINE
  8
_0-0_計極細
  6
CENTER1
 62
    2
 10
544.18632094310442
 20
676.37053074524545
 11
544.18632094310442
 21
210.06198757977006
  0
LINE
  8
_0-0_計極細
  6
CONTINUOUS
 62
    2
 10
537.68632094310442
 20
655.21981132077417
 11
537.68632094310442
 21
648.81981132077715
  0
LINE
  8
_0-0_計極細
  6
CONTINUOUS
 62
    2
 10
550.68632094310442
 20
655.21981132077417
 11
550.68632094310442
 21
648.81981132077715
  0
LINE
  8
_0-0_計極細
  6
CONTINUOUS
 62
    2
 10
537.68632094310442
 20
637.41981132077387
 11
537.68632094310442
 21
631.01981132077697
  0
LINE
  8
_0-0_計極細
  6
CONTINUOUS
 62
    2
 10
550.68632094310442
 20
637.41981132077387
 11
550.68632094310442
 21
631.01981132077697
  0
LINE
  8
_0-0_計極細
  6
CONTINUOUS
 62
    2
 10
537.68632094310442
 20
254.21981132077318
 11
537.68632094310442
 21
247.81981132077624
  0
LINE
  8
_0-0_計極細
  6
CONTINUOUS
 62
    2
 10
550.68632094310442
 20
254.21981132077318
 11
550.68632094310442
 21
247.81981132077624
  0
LINE
  8
_0-0_計極細
  6
CONTINUOUS
 62
    2
 10
537.68632094310442
 20
236.41981132077296
 11
537.68632094310442
 21
230.01981132077606
  0
LINE
  8
_0-0_計極細
  6
CONTINUOUS
 62
    2
 10
550.68632094310442
 20
236.41981132077296
 11
550.68632094310442
 21
230.01981132077606
  0
LINE
  8
_0-0_計極細
  6
CONTINUOUS
 62
    2
 10
537.68632094310442
 20
619.61981132077369
 11
537.68632094310442
 21
613.61981132077642
  0
LINE
  8
_0-0_計極細
  6
CONTINUOUS
 62
    2
 10
550.68632094310442
 20
619.61981132077369
 11
550.68632094310442
 21
613.61981132077642
  0
LINE
  8
_0-0_計極細
  6
CONTINUOUS
 62
    2
 10
537.68632094310442
 20
602.21981132077315
 11
537.68632094310442
 21
596.21981132077599
  0
LINE
  8
_0-0_計極細
  6
CONTINUOUS
 62
    2
 10
550.68632094310442
 20
602.21981132077315
 11
550.68632094310442
 21
596.21981132077599
  0
LINE
  8
_0-0_計極細
  6
CONTINUOUS
 62
    2
 10
537.68632094310442
 20
584.81981132077351
 11
537.68632094310442
 21
578.81981132077624
  0
LINE
  8
_0-0_計極細
  6
CONTINUOUS
 62
    2
 10
550.68632094310442
 20
584.81981132077351
 11
550.68632094310442
 21
578.81981132077624
  0
LINE
  8
_0-0_計極細
  6
CONTINUOUS
 62
    2
 10
537.68632094310442
 20
567.41981132077296
 11
537.68632094310442
 21
561.41981132077581
  0
LINE
  8
_0-0_計極細
  6
CONTINUOUS
 62
    2
 10
550.68632094310442
 20
567.41981132077296
 11
550.68632094310442
 21
561.41981132077581
  0
LINE
  8
_0-0_計極細
  6
CONTINUOUS
 62
    2
 10
537.68632094310442
 20
550.01981132077333
 11
537.68632094310442
 21
544.01981132077606
  0
LINE
  8
_0-0_計極細
  6
CONTINUOUS
 62
    2
 10
550.68632094310442
 20
550.01981132077333
 11
550.68632094310442
 21
544.01981132077606
  0
LINE
  8
_0-0_計極細
  6
CONTINUOUS
 62
    2
 10
537.68632094310442
 20
532.61981132077278
 11
537.68632094310442
 21
526.61981132077563
  0
LINE
  8
_0-0_計極細
  6
CONTINUOUS
 62
    2
 10
550.68632094310442
 20
532.61981132077278
 11
550.68632094310442
 21
526.61981132077563
  0
LINE
  8
_0-0_計極細
  6
CONTINUOUS
 62
    2
 10
537.68632094310442
 20
515.21981132077315
 11
537.68632094310442
 21
509.21981132077588
  0
LINE
  8
_0-0_計極細
  6
CONTINUOUS
 62
    2
 10
550.68632094310442
 20
515.21981132077315
 11
550.68632094310442
 21
509.21981132077588
  0
LINE
  8
_0-0_計極細
  6
CONTINUOUS
 62
    2
 10
537.68632094310442
 20
497.81981132077357
 11
537.68632094310442
 21
491.81981132077624
  0
LINE
  8
_0-0_計極細
  6
CONTINUOUS
 62
    2
 10
550.68632094310442
 20
497.81981132077357
 11
550.68632094310442
 21
491.81981132077624
  0
LINE
  8
_0-0_計極細
  6
CONTINUOUS
 62
    2
 10
537.68632094310442
 20
480.41981132077296
 11
537.68632094310442
 21
474.41981132077569
  0
LINE
  8
_0-0_計極細
  6
CONTINUOUS
 62
    2
 10
550.68632094310442
 20
480.41981132077296
 11
550.68632094310442
 21
474.41981132077569
  0
LINE
  8
_0-0_計極細
  6
CONTINUOUS
 62
    2
 10
537.68632094310442
 20
463.01981132077339
 11
537.68632094310442
 21
457.01981132077606
  0
LINE
  8
_0-0_計極細
  6
CONTINUOUS
 62
    2
 10
550.68632094310442
 20
463.01981132077339
 11
550.68632094310442
 21
457.01981132077606
  0
LINE
  8
_0-0_計極細
  6
CONTINUOUS
 62
    2
 10
537.68632094310442
 20
445.61981132077278
 11
537.68632094310442
 21
439.61981132077551
  0
LINE
  8
_0-0_計極細
  6
CONTINUOUS
 62
    2
 10
550.68632094310442
 20
445.61981132077278
 11
550.68632094310442
 21
439.61981132077551
  0
LINE
  8
_0-0_計極細
  6
CONTINUOUS
 62
    2
 10
537.68632094310442
 20
428.2198113207732
 11
537.68632094310442
 21
422.21981132077588
  0
LINE
  8
_0-0_計極細
  6
CONTINUOUS
 62
    2
 10
550.68632094310442
 20
428.2198113207732
 11
550.68632094310442
 21
422.21981132077588
  0
LINE
  8
_0-0_計極細
  6
CONTINUOUS
 62
    2
 10
537.68632094310442
 20
410.81981132077351
 11
537.68632094310442
 21
404.8198113207763
  0
LINE
  8
_0-0_計極細
  6
CONTINUOUS
 62
    2
 10
550.68632094310442
 20
410.81981132077351
 11
550.68632094310442
 21
404.8198113207763
  0
LINE
  8
_0-0_計極細
  6
CONTINUOUS
 62
    2
 10
537.68632094310442
 20
393.41981132077302
 11
537.68632094310442
 21
387.41981132077569
  0
LINE
  8
_0-0_計極細
  6
CONTINUOUS
 62
    2
 10
550.68632094310442
 20
393.41981132077302
 11
550.68632094310442
 21
387.41981132077569
  0
LINE
  8
_0-0_計極細
  6
CONTINUOUS
 62
    2
 10
537.68632094310442
 20
376.01981132077333
 11
537.68632094310442
 21
370.01981132077611
  0
LINE
  8
_0-0_計極細
  6
CONTINUOUS
 62
    2
 10
550.68632094310442
 20
376.01981132077333
 11
550.68632094310442
 21
370.01981132077611
  0
LINE
  8
_0-0_計極細
  6
CONTINUOUS
 62
    2
 10
537.68632094310442
 20
358.61981132077284
 11
537.68632094310442
 21
352.61981132077551
  0
LINE
  8
_0-0_計極細
  6
CONTINUOUS
 62
    2
 10
550.68632094310442
 20
358.61981132077284
 11
550.68632094310442
 21
352.61981132077551
  0
LINE
  8
_0-0_計極細
  6
CONTINUOUS
 62
    2
 10
537.68632094310442
 20
341.21981132077315
 11
537.68632094310442
 21
335.21981132077593
  0
LINE
  8
_0-0_計極細
  6
CONTINUOUS
 62
    2
 10
550.68632094310442
 20
341.21981132077315
 11
550.68632094310442
 21
335.21981132077593
  0
LINE
  8
_0-0_計極細
  6
CONTINUOUS
 62
    2
 10
537.68632094310442
 20
323.81981132077351
 11
537.68632094310442
 21
317.81981132077624
  0
LINE
  8
_0-0_計極細
  6
CONTINUOUS
 62
    2
 10
550.68632094310442
 20
323.81981132077351
 11
550.68632094310442
 21
317.81981132077624
  0
LINE
  8
_0-0_計極細
  6
CONTINUOUS
 62
    2
 10
537.68632094310442
 20
306.41981132077296
 11
537.68632094310442
 21
300.41981132077569
  0
LINE
  8
_0-0_計極細
  6
CONTINUOUS
 62
    2
 10
550.68632094310442
 20
306.41981132077296
 11
550.68632094310442
 21
300.41981132077569
  0
LINE
  8
_0-0_計極細
  6
CONTINUOUS
 62
    2
 10
537.68632094310442
 20
289.01981132077333
 11
537.68632094310442
 21
283.01981132077606
  0
LINE
  8
_0-0_計極細
  6
CONTINUOUS
 62
    2
 10
550.68632094310442
 20
289.01981132077333
 11
550.68632094310442
 21
283.01981132077606
  0
LINE
  8
_0-0_計極細
  6
CONTINUOUS
 62
    2
 10
537.68632094310442
 20
271.61981132077369
 11
537.68632094310442
 21
265.61981132077642
  0
LINE
  8
_0-0_計極細
  6
CONTINUOUS
 62
    2
 10
550.68632094310442
 20
271.61981132077369
 11
550.68632094310442
 21
265.61981132077642
  0
LINE
  8
_0-0_計極細
  6
CENTER1
 62
    2
 10
495.68632094310442
 20
676.37053074524545
 11
495.68632094310442
 21
210.06198757977006
  0
LINE
  8
_0-0_計極細
  6
CONTINUOUS
 62
    2
 10
489.18632094310448
 20
655.21981132077417
 11
489.18632094310448
 21
648.81981132077715
  0
LINE
  8
_0-0_計極細
  6
CONTINUOUS
 62
    2
 10
502.18632094310442
 20
655.21981132077417
 11
502.18632094310442
 21
648.81981132077715
  0
LINE
  8
_0-0_計極細
  6
CONTINUOUS
 62
    2
 10
489.18632094310448
 20
637.41981132077387
 11
489.18632094310448
 21
631.01981132077697
  0
LINE
  8
_0-0_計極細
  6
CONTINUOUS
 62
    2
 10
502.18632094310442
 20
637.41981132077387
 11
502.18632094310442
 21
631.01981132077697
  0
LINE
  8
_0-0_計極細
  6
CONTINUOUS
 62
    2
 10
489.18632094310448
 20
254.21981132077318
 11
489.18632094310448
 21
247.81981132077624
  0
LINE
  8
_0-0_計極細
  6
CONTINUOUS
 62
    2
 10
502.18632094310442
 20
254.21981132077318
 11
502.18632094310442
 21
247.81981132077624
  0
LINE
  8
_0-0_計極細
  6
CONTINUOUS
 62
    2
 10
489.18632094310448
 20
236.41981132077296
 11
489.18632094310448
 21
230.01981132077606
  0
LINE
  8
_0-0_計極細
  6
CONTINUOUS
 62
    2
 10
502.18632094310442
 20
236.41981132077296
 11
502.18632094310442
 21
230.01981132077606
  0
LINE
  8
_0-0_計極細
  6
CONTINUOUS
 62
    2
 10
489.18632094310448
 20
619.61981132077369
 11
489.18632094310448
 21
613.61981132077642
  0
LINE
  8
_0-0_計極細
  6
CONTINUOUS
 62
    2
 10
502.18632094310442
 20
619.61981132077369
 11
502.18632094310442
 21
613.61981132077642
  0
LINE
  8
_0-0_計極細
  6
CONTINUOUS
 62
    2
 10
489.18632094310448
 20
602.21981132077315
 11
489.18632094310448
 21
596.21981132077599
  0
LINE
  8
_0-0_計極細
  6
CONTINUOUS
 62
    2
 10
502.18632094310442
 20
602.21981132077315
 11
502.18632094310442
 21
596.21981132077599
  0
LINE
  8
_0-0_計極細
  6
CONTINUOUS
 62
    2
 10
489.18632094310448
 20
584.81981132077351
 11
489.18632094310448
 21
578.81981132077624
  0
LINE
  8
_0-0_計極細
  6
CONTINUOUS
 62
    2
 10
502.18632094310442
 20
584.81981132077351
 11
502.18632094310442
 21
578.81981132077624
  0
LINE
  8
_0-0_計極細
  6
CONTINUOUS
 62
    2
 10
489.18632094310448
 20
567.41981132077296
 11
489.18632094310448
 21
561.41981132077581
  0
LINE
  8
_0-0_計極細
  6
CONTINUOUS
 62
    2
 10
502.18632094310442
 20
567.41981132077296
 11
502.18632094310442
 21
561.41981132077581
  0
LINE
  8
_0-0_計極細
  6
CONTINUOUS
 62
    2
 10
489.18632094310448
 20
550.01981132077333
 11
489.18632094310448
 21
544.01981132077606
  0
LINE
  8
_0-0_計極細
  6
CONTINUOUS
 62
    2
 10
502.18632094310442
 20
550.01981132077333
 11
502.18632094310442
 21
544.01981132077606
  0
LINE
  8
_0-0_計極細
  6
CONTINUOUS
 62
    2
 10
489.18632094310448
 20
532.61981132077278
 11
489.18632094310448
 21
526.61981132077563
  0
LINE
  8
_0-0_計極細
  6
CONTINUOUS
 62
    2
 10
502.18632094310442
 20
532.61981132077278
 11
502.18632094310442
 21
526.61981132077563
  0
LINE
  8
_0-0_計極細
  6
CONTINUOUS
 62
    2
 10
489.18632094310448
 20
515.21981132077315
 11
489.18632094310448
 21
509.21981132077588
  0
LINE
  8
_0-0_計極細
  6
CONTINUOUS
 62
    2
 10
502.18632094310442
 20
515.21981132077315
 11
502.18632094310442
 21
509.21981132077588
  0
LINE
  8
_0-0_計極細
  6
CONTINUOUS
 62
    2
 10
489.18632094310448
 20
497.81981132077357
 11
489.18632094310448
 21
491.81981132077624
  0
LINE
  8
_0-0_計極細
  6
CONTINUOUS
 62
    2
 10
502.18632094310442
 20
497.81981132077357
 11
502.18632094310442
 21
491.81981132077624
  0
LINE
  8
_0-0_計極細
  6
CONTINUOUS
 62
    2
 10
489.18632094310448
 20
480.41981132077296
 11
489.18632094310448
 21
474.41981132077569
  0
LINE
  8
_0-0_計極細
  6
CONTINUOUS
 62
    2
 10
502.18632094310442
 20
480.41981132077296
 11
502.18632094310442
 21
474.41981132077569
  0
LINE
  8
_0-0_計極細
  6
CONTINUOUS
 62
    2
 10
489.18632094310448
 20
463.01981132077339
 11
489.18632094310448
 21
457.01981132077606
  0
LINE
  8
_0-0_計極細
  6
CONTINUOUS
 62
    2
 10
502.18632094310442
 20
463.01981132077339
 11
502.18632094310442
 21
457.01981132077606
  0
LINE
  8
_0-0_計極細
  6
CONTINUOUS
 62
    2
 10
489.18632094310448
 20
445.61981132077278
 11
489.18632094310448
 21
439.61981132077551
  0
LINE
  8
_0-0_計極細
  6
CONTINUOUS
 62
    2
 10
502.18632094310442
 20
445.61981132077278
 11
502.18632094310442
 21
439.61981132077551
  0
LINE
  8
_0-0_計極細
  6
CONTINUOUS
 62
    2
 10
489.18632094310448
 20
428.2198113207732
 11
489.18632094310448
 21
422.21981132077588
  0
LINE
  8
_0-0_計極細
  6
CONTINUOUS
 62
    2
 10
502.18632094310442
 20
428.2198113207732
 11
502.18632094310442
 21
422.21981132077588
  0
LINE
  8
_0-0_計極細
  6
CONTINUOUS
 62
    2
 10
489.18632094310448
 20
410.81981132077351
 11
489.18632094310448
 21
404.8198113207763
  0
LINE
  8
_0-0_計極細
  6
CONTINUOUS
 62
    2
 10
502.18632094310442
 20
410.81981132077351
 11
502.18632094310442
 21
404.8198113207763
  0
LINE
  8
_0-0_計極細
  6
CONTINUOUS
 62
    2
 10
489.18632094310448
 20
393.41981132077302
 11
489.18632094310448
 21
387.41981132077569
  0
LINE
  8
_0-0_計極細
  6
CONTINUOUS
 62
    2
 10
502.18632094310442
 20
393.41981132077302
 11
502.18632094310442
 21
387.41981132077569
  0
LINE
  8
_0-0_計極細
  6
CONTINUOUS
 62
    2
 10
489.18632094310448
 20
376.01981132077333
 11
489.18632094310448
 21
370.01981132077611
  0
LINE
  8
_0-0_計極細
  6
CONTINUOUS
 62
    2
 10
502.18632094310442
 20
376.01981132077333
 11
502.18632094310442
 21
370.01981132077611
  0
LINE
  8
_0-0_計極細
  6
CONTINUOUS
 62
    2
 10
489.18632094310448
 20
358.61981132077284
 11
489.18632094310448
 21
352.61981132077551
  0
LINE
  8
_0-0_計極細
  6
CONTINUOUS
 62
    2
 10
502.18632094310442
 20
358.61981132077284
 11
502.18632094310442
 21
352.61981132077551
  0
LINE
  8
_0-0_計極細
  6
CONTINUOUS
 62
    2
 10
489.18632094310448
 20
341.21981132077315
 11
489.18632094310448
 21
335.21981132077593
  0
LINE
  8
_0-0_計極細
  6
CONTINUOUS
 62
    2
 10
502.18632094310442
 20
341.21981132077315
 11
502.18632094310442
 21
335.21981132077593
  0
LINE
  8
_0-0_計極細
  6
CONTINUOUS
 62
    2
 10
489.18632094310448
 20
323.81981132077351
 11
489.18632094310448
 21
317.81981132077624
  0
LINE
  8
_0-0_計極細
  6
CONTINUOUS
 62
    2
 10
502.18632094310442
 20
323.81981132077351
 11
502.18632094310442
 21
317.81981132077624
  0
LINE
  8
_0-0_計極細
  6
CONTINUOUS
 62
    2
 10
489.18632094310448
 20
306.41981132077296
 11
489.18632094310448
 21
300.41981132077569
  0
LINE
  8
_0-0_計極細
  6
CONTINUOUS
 62
    2
 10
502.18632094310442
 20
306.41981132077296
 11
502.18632094310442
 21
300.41981132077569
  0
LINE
  8
_0-0_計極細
  6
CONTINUOUS
 62
    2
 10
489.18632094310448
 20
289.01981132077333
 11
489.18632094310448
 21
283.01981132077606
  0
LINE
  8
_0-0_計極細
  6
CONTINUOUS
 62
    2
 10
502.18632094310442
 20
289.01981132077333
 11
502.18632094310442
 21
283.01981132077606
  0
LINE
  8
_0-0_計極細
  6
CONTINUOUS
 62
    2
 10
489.18632094310448
 20
271.61981132077369
 11
489.18632094310448
 21
265.61981132077642
  0
LINE
  8
_0-0_計極細
  6
CONTINUOUS
 62
    2
 10
502.18632094310442
 20
271.61981132077369
 11
502.18632094310442
 21
265.61981132077642
  0
LINE
  8
_0-0_計極細
  6
CONTINUOUS
 62
    2
 10
344.18632094310487
 20
445.61981132077278
 11
344.18632094310487
 21
444.96981132075456
  0
LINE
  8
_0-0_計極細
  6
CONTINUOUS
 62
    2
 10
344.18632094310487
 20
440.26981132075468
 11
344.18632094310487
 21
439.61981132077551
  0
LINE
  8
_0-0_計極細
  6
CONTINUOUS
 62
    2
 10
357.18632094310487
 20
445.61981132077278
 11
357.18632094310487
 21
444.96981132075456
  0
LINE
  8
_0-0_計極細
  6
CONTINUOUS
 62
    2
 10
357.18632094310487
 20
440.26981132075468
 11
357.18632094310487
 21
439.61981132077551
  0
LINE
  8
_0-1_計細線
  6
CONTINUOUS
 62
    3
 10
246.68632094310425
 20
648.81981132077715
 11
696.68632094310396
 21
648.81981132077715
  0
LINE
  8
_0-1_計細線
  6
CONTINUOUS
 62
    3
 10
246.68632094310425
 20
637.4198113207766
 11
696.68632094310396
 21
637.4198113207766
  0
LINE
  8
_0-1_計細線
  6
CONTINUOUS
 62
    3
 10
246.68632094310425
 20
648.81981132077715
 11
246.68632094310425
 21
637.4198113207766
  0
LINE
  8
_0-1_計細線
  6
CONTINUOUS
 62
    3
 10
696.68632094310396
 20
648.81981132077715
 11
696.68632094310396
 21
637.4198113207766
  0
LINE
  8
_0-0_計極細
  6
CONTINUOUS
 62
    2
 10
246.68632094310425
 20
640.61981132077733
 11
696.68632094310396
 21
640.61981132077733
  0
LINE
  8
_0-0_計極細
  6
CONTINUOUS
 62
    2
 10
246.68632094310425
 20
645.61981132077733
 11
696.68632094310396
 21
645.61981132077733
  0
LINE
  8
_0-1_計細線
  6
CONTINUOUS
 62
    3
 10
246.68632094310425
 20
631.01981132077697
 11
696.68632094310396
 21
631.01981132077697
  0
LINE
  8
_0-1_計細線
  6
CONTINUOUS
 62
    3
 10
246.68632094310425
 20
619.61981132077642
 11
696.68632094310396
 21
619.61981132077642
  0
LINE
  8
_0-1_計細線
  6
CONTINUOUS
 62
    3
 10
246.68632094310425
 20
631.01981132077697
 11
246.68632094310425
 21
619.61981132077642
  0
LINE
  8
_0-1_計細線
  6
CONTINUOUS
 62
    3
 10
696.68632094310396
 20
631.01981132077697
 11
696.68632094310396
 21
619.61981132077642
  0
LINE
  8
_0-0_計極細
  6
CONTINUOUS
 62
    2
 10
246.68632094310425
 20
622.81981132077715
 11
696.68632094310396
 21
622.81981132077715
  0
LINE
  8
_0-0_計極細
  6
CONTINUOUS
 62
    2
 10
246.68632094310425
 20
627.81981132077715
 11
696.68632094310396
 21
627.81981132077715
  0
LINE
  8
_0-1_計細線
  6
CONTINUOUS
 62
    3
 10
246.68632094310425
 20
613.61981132077642
 11
696.68632094310396
 21
613.61981132077642
  0
LINE
  8
_0-1_計細線
  6
CONTINUOUS
 62
    3
 10
246.68632094310425
 20
602.21981132077588
 11
696.68632094310396
 21
602.21981132077588
  0
LINE
  8
_0-1_計細線
  6
CONTINUOUS
 62
    3
 10
246.68632094310425
 20
613.61981132077642
 11
246.68632094310425
 21
602.21981132077588
  0
LINE
  8
_0-1_計細線
  6
CONTINUOUS
 62
    3
 10
696.68632094310396
 20
613.61981132077642
 11
696.68632094310396
 21
602.21981132077588
  0
LINE
  8
_0-0_計極細
  6
CONTINUOUS
 62
    2
 10
246.68632094310425
 20
605.41981132077672
 11
696.68632094310396
 21
605.41981132077672
  0
LINE
  8
_0-0_計極細
  6
CONTINUOUS
 62
    2
 10
246.68632094310425
 20
610.41981132077672
 11
696.68632094310396
 21
610.41981132077672
  0
LINE
  8
_0-1_計細線
  6
CONTINUOUS
 62
    3
 10
246.68632094310425
 20
218.61981132078188
 11
696.68632094310396
 21
218.61981132078188
  0
LINE
  8
_0-1_計細線
  6
CONTINUOUS
 62
    3
 10
246.68632094310425
 20
230.01981132078242
 11
696.68632094310396
 21
230.01981132078242
  0
LINE
  8
_0-1_計細線
  6
CONTINUOUS
 62
    3
 10
246.68632094310425
 20
218.61981132078188
 11
246.68632094310425
 21
230.01981132078242
  0
LINE
  8
_0-1_計細線
  6
CONTINUOUS
 62
    3
 10
696.68632094310396
 20
218.61981132078188
 11
696.68632094310396
 21
230.01981132078242
  0
LINE
  8
_0-0_計極細
  6
CONTINUOUS
 62
    2
 10
246.68632094310425
 20
226.8198113207817
 11
696.68632094310396
 21
226.8198113207817
  0
LINE
  8
_0-0_計極細
  6
CONTINUOUS
 62
    2
 10
246.68632094310425
 20
221.8198113207817
 11
696.68632094310396
 21
221.8198113207817
  0
LINE
  8
_0-1_計細線
  6
CONTINUOUS
 62
    3
 10
246.68632094310425
 20
247.81981132077624
 11
696.68632094310396
 21
247.81981132077624
  0
LINE
  8
_0-1_計細線
  6
CONTINUOUS
 62
    3
 10
246.68632094310425
 20
236.41981132077572
 11
696.68632094310396
 21
236.41981132077572
  0
LINE
  8
_0-1_計細線
  6
CONTINUOUS
 62
    3
 10
246.68632094310425
 20
247.81981132077624
 11
246.68632094310425
 21
236.41981132077572
  0
LINE
  8
_0-1_計細線
  6
CONTINUOUS
 62
    3
 10
696.68632094310396
 20
247.81981132077624
 11
696.68632094310396
 21
236.41981132077572
  0
LINE
  8
_0-0_計極細
  6
CONTINUOUS
 62
    2
 10
246.68632094310425
 20
239.61981132077642
 11
696.68632094310396
 21
239.61981132077642
  0
LINE
  8
_0-0_計極細
  6
CONTINUOUS
 62
    2
 10
246.68632094310425
 20
244.61981132077642
 11
696.68632094310396
 21
244.61981132077642
  0
LINE
  8
_0-0_計極細
  6
CENTER1
 62
    2
 10
302.18632094310442
 20
676.37053074524556
 11
302.18632094310442
 21
210.06198757977006
  0
LINE
  8
_0-0_計極細
  6
CONTINUOUS
 62
    2
 10
295.68632094310442
 20
655.21981132077417
 11
295.68632094310442
 21
648.81981132077726
  0
LINE
  8
_0-0_計極細
  6
CONTINUOUS
 62
    2
 10
308.68632094310442
 20
655.21981132077417
 11
308.68632094310442
 21
648.81981132077726
  0
LINE
  8
_0-0_計極細
  6
CONTINUOUS
 62
    2
 10
295.68632094310442
 20
637.41981132077387
 11
295.68632094310442
 21
631.01981132077697
  0
LINE
  8
_0-0_計極細
  6
CONTINUOUS
 62
    2
 10
308.68632094310442
 20
637.41981132077387
 11
308.68632094310442
 21
631.01981132077697
  0
LINE
  8
_0-0_計極細
  6
CONTINUOUS
 62
    2
 10
295.68632094310442
 20
254.21981132077318
 11
295.68632094310442
 21
247.81981132077624
  0
LINE
  8
_0-0_計極細
  6
CONTINUOUS
 62
    2
 10
308.68632094310442
 20
254.21981132077318
 11
308.68632094310442
 21
247.81981132077624
  0
LINE
  8
_0-0_計極細
  6
CONTINUOUS
 62
    2
 10
295.68632094310442
 20
236.41981132077296
 11
295.68632094310442
 21
230.01981132077606
  0
LINE
  8
_0-0_計極細
  6
CONTINUOUS
 62
    2
 10
308.68632094310442
 20
236.41981132077296
 11
308.68632094310442
 21
230.01981132077606
  0
LINE
  8
_0-0_計極細
  6
CONTINUOUS
 62
    2
 10
295.68632094310442
 20
619.61981132077369
 11
295.68632094310442
 21
613.61981132077642
  0
LINE
  8
_0-0_計極細
  6
CONTINUOUS
 62
    2
 10
308.68632094310442
 20
619.61981132077369
 11
308.68632094310442
 21
613.61981132077642
  0
LINE
  8
_0-0_計極細
  6
CONTINUOUS
 62
    2
 10
295.68632094310442
 20
602.21981132077315
 11
295.68632094310442
 21
596.21981132077599
  0
LINE
  8
_0-0_計極細
  6
CONTINUOUS
 62
    2
 10
308.68632094310442
 20
602.21981132077315
 11
308.68632094310442
 21
596.21981132077599
  0
LINE
  8
_0-0_計極細
  6
CONTINUOUS
 62
    2
 10
295.68632094310442
 20
584.81981132077351
 11
295.68632094310442
 21
578.81981132077624
  0
LINE
  8
_0-0_計極細
  6
CONTINUOUS
 62
    2
 10
308.68632094310442
 20
584.81981132077351
 11
308.68632094310442
 21
578.81981132077624
  0
LINE
  8
_0-0_計極細
  6
CONTINUOUS
 62
    2
 10
295.68632094310442
 20
567.41981132077296
 11
295.68632094310442
 21
561.41981132077581
  0
LINE
  8
_0-0_計極細
  6
CONTINUOUS
 62
    2
 10
308.68632094310442
 20
567.41981132077296
 11
308.68632094310442
 21
561.41981132077581
  0
LINE
  8
_0-0_計極細
  6
CONTINUOUS
 62
    2
 10
295.68632094310442
 20
550.01981132077333
 11
295.68632094310442
 21
544.01981132077606
  0
LINE
  8
_0-0_計極細
  6
CONTINUOUS
 62
    2
 10
308.68632094310442
 20
550.01981132077333
 11
308.68632094310442
 21
544.01981132077606
  0
LINE
  8
_0-0_計極細
  6
CONTINUOUS
 62
    2
 10
295.68632094310442
 20
532.61981132077278
 11
295.68632094310442
 21
526.61981132077563
  0
LINE
  8
_0-0_計極細
  6
CONTINUOUS
 62
    2
 10
308.68632094310442
 20
532.61981132077278
 11
308.68632094310442
 21
526.61981132077563
  0
LINE
  8
_0-0_計極細
  6
CONTINUOUS
 62
    2
 10
295.68632094310442
 20
515.21981132077315
 11
295.68632094310442
 21
509.21981132077588
  0
LINE
  8
_0-0_計極細
  6
CONTINUOUS
 62
    2
 10
308.68632094310442
 20
515.21981132077315
 11
308.68632094310442
 21
509.21981132077588
  0
LINE
  8
_0-0_計極細
  6
CONTINUOUS
 62
    2
 10
295.68632094310442
 20
497.81981132077357
 11
295.68632094310442
 21
491.81981132077624
  0
LINE
  8
_0-0_計極細
  6
CONTINUOUS
 62
    2
 10
308.68632094310442
 20
497.81981132077357
 11
308.68632094310442
 21
491.81981132077624
  0
LINE
  8
_0-0_計極細
  6
CONTINUOUS
 62
    2
 10
295.68632094310442
 20
480.41981132077296
 11
295.68632094310442
 21
474.41981132077569
  0
LINE
  8
_0-0_計極細
  6
CONTINUOUS
 62
    2
 10
308.68632094310442
 20
480.41981132077296
 11
308.68632094310442
 21
474.41981132077569
  0
LINE
  8
_0-0_計極細
  6
CONTINUOUS
 62
    2
 10
295.68632094310442
 20
463.01981132077339
 11
295.68632094310442
 21
457.01981132077606
  0
LINE
  8
_0-0_計極細
  6
CONTINUOUS
 62
    2
 10
308.68632094310442
 20
463.01981132077339
 11
308.68632094310442
 21
457.01981132077606
  0
LINE
  8
_0-0_計極細
  6
CONTINUOUS
 62
    2
 10
295.68632094310442
 20
445.61981132077278
 11
295.68632094310442
 21
439.61981132077551
  0
LINE
  8
_0-0_計極細
  6
CONTINUOUS
 62
    2
 10
308.68632094310442
 20
445.61981132077278
 11
308.68632094310442
 21
439.61981132077551
  0
LINE
  8
_0-0_計極細
  6
CONTINUOUS
 62
    2
 10
295.68632094310442
 20
428.2198113207732
 11
295.68632094310442
 21
422.21981132077588
  0
LINE
  8
_0-0_計極細
  6
CONTINUOUS
 62
    2
 10
308.68632094310442
 20
428.2198113207732
 11
308.68632094310442
 21
422.21981132077588
  0
LINE
  8
_0-0_計極細
  6
CONTINUOUS
 62
    2
 10
295.68632094310442
 20
410.81981132077351
 11
295.68632094310442
 21
404.8198113207763
  0
LINE
  8
_0-0_計極細
  6
CONTINUOUS
 62
    2
 10
308.68632094310442
 20
410.81981132077351
 11
308.68632094310442
 21
404.8198113207763
  0
LINE
  8
_0-0_計極細
  6
CONTINUOUS
 62
    2
 10
295.68632094310442
 20
393.41981132077302
 11
295.68632094310442
 21
387.41981132077569
  0
LINE
  8
_0-0_計極細
  6
CONTINUOUS
 62
    2
 10
308.68632094310442
 20
393.41981132077302
 11
308.68632094310442
 21
387.41981132077569
  0
LINE
  8
_0-0_計極細
  6
CONTINUOUS
 62
    2
 10
295.68632094310442
 20
376.01981132077333
 11
295.68632094310442
 21
370.01981132077611
  0
LINE
  8
_0-0_計極細
  6
CONTINUOUS
 62
    2
 10
308.68632094310442
 20
376.01981132077333
 11
308.68632094310442
 21
370.01981132077611
  0
LINE
  8
_0-0_計極細
  6
CONTINUOUS
 62
    2
 10
295.68632094310442
 20
358.61981132077284
 11
295.68632094310442
 21
352.61981132077551
  0
LINE
  8
_0-0_計極細
  6
CONTINUOUS
 62
    2
 10
308.68632094310442
 20
358.61981132077284
 11
308.68632094310442
 21
352.61981132077551
  0
LINE
  8
_0-0_計極細
  6
CONTINUOUS
 62
    2
 10
295.68632094310442
 20
341.21981132077315
 11
295.68632094310442
 21
335.21981132077593
  0
LINE
  8
_0-0_計極細
  6
CONTINUOUS
 62
    2
 10
308.68632094310442
 20
341.21981132077315
 11
308.68632094310442
 21
335.21981132077593
  0
LINE
  8
_0-0_計極細
  6
CONTINUOUS
 62
    2
 10
295.68632094310442
 20
323.81981132077351
 11
295.68632094310442
 21
317.81981132077624
  0
LINE
  8
_0-0_計極細
  6
CONTINUOUS
 62
    2
 10
308.68632094310442
 20
323.81981132077351
 11
308.68632094310442
 21
317.81981132077624
  0
LINE
  8
_0-0_計極細
  6
CONTINUOUS
 62
    2
 10
295.68632094310442
 20
306.41981132077296
 11
295.68632094310442
 21
300.41981132077569
  0
LINE
  8
_0-0_計極細
  6
CONTINUOUS
 62
    2
 10
308.68632094310442
 20
306.41981132077296
 11
308.68632094310442
 21
300.41981132077569
  0
LINE
  8
_0-0_計極細
  6
CONTINUOUS
 62
    2
 10
295.68632094310442
 20
289.01981132077333
 11
295.68632094310442
 21
283.01981132077606
  0
LINE
  8
_0-0_計極細
  6
CONTINUOUS
 62
    2
 10
308.68632094310442
 20
289.01981132077333
 11
308.68632094310442
 21
283.01981132077606
  0
LINE
  8
_0-0_計極細
  6
CONTINUOUS
 62
    2
 10
295.68632094310442
 20
271.61981132077369
 11
295.68632094310442
 21
265.61981132077642
  0
LINE
  8
_0-0_計極細
  6
CONTINUOUS
 62
    2
 10
308.68632094310442
 20
271.61981132077369
 11
308.68632094310442
 21
265.61981132077642
  0
LINE
  8
_0-0_計極細
  6
CENTER1
 62
    2
 10
641.18632094310442
 20
676.37053074524545
 11
641.18632094310442
 21
210.06198757977006
  0
LINE
  8
_0-0_計極細
  6
CONTINUOUS
 62
    2
 10
634.68632094310442
 20
655.21981132077417
 11
634.68632094310442
 21
648.81981132077715
  0
LINE
  8
_0-0_計極細
  6
CONTINUOUS
 62
    2
 10
647.68632094310442
 20
655.21981132077417
 11
647.68632094310442
 21
648.81981132077715
  0
LINE
  8
_0-0_計極細
  6
CONTINUOUS
 62
    2
 10
634.68632094310442
 20
637.41981132077387
 11
634.68632094310442
 21
631.01981132077697
  0
LINE
  8
_0-0_計極細
  6
CONTINUOUS
 62
    2
 10
647.68632094310442
 20
637.41981132077387
 11
647.68632094310442
 21
631.01981132077697
  0
LINE
  8
_0-0_計極細
  6
CONTINUOUS
 62
    2
 10
634.68632094310442
 20
254.21981132077318
 11
634.68632094310442
 21
247.81981132077624
  0
LINE
  8
_0-0_計極細
  6
CONTINUOUS
 62
    2
 10
647.68632094310442
 20
254.21981132077318
 11
647.68632094310442
 21
247.81981132077624
  0
LINE
  8
_0-0_計極細
  6
CONTINUOUS
 62
    2
 10
634.68632094310442
 20
236.41981132077296
 11
634.68632094310442
 21
230.01981132077606
  0
LINE
  8
_0-0_計極細
  6
CONTINUOUS
 62
    2
 10
647.68632094310442
 20
236.41981132077296
 11
647.68632094310442
 21
230.01981132077606
  0
LINE
  8
_0-0_計極細
  6
CONTINUOUS
 62
    2
 10
634.68632094310442
 20
619.61981132077369
 11
634.68632094310442
 21
613.61981132077642
  0
LINE
  8
_0-0_計極細
  6
CONTINUOUS
 62
    2
 10
647.68632094310442
 20
619.61981132077369
 11
647.68632094310442
 21
613.61981132077642
  0
LINE
  8
_0-0_計極細
  6
CONTINUOUS
 62
    2
 10
634.68632094310442
 20
602.21981132077315
 11
634.68632094310442
 21
596.21981132077599
  0
LINE
  8
_0-0_計極細
  6
CONTINUOUS
 62
    2
 10
647.68632094310442
 20
602.21981132077315
 11
647.68632094310442
 21
596.21981132077599
  0
LINE
  8
_0-0_計極細
  6
CONTINUOUS
 62
    2
 10
634.68632094310442
 20
584.81981132077351
 11
634.68632094310442
 21
578.81981132077624
  0
LINE
  8
_0-0_計極細
  6
CONTINUOUS
 62
    2
 10
647.68632094310442
 20
584.81981132077351
 11
647.68632094310442
 21
578.81981132077624
  0
LINE
  8
_0-0_計極細
  6
CONTINUOUS
 62
    2
 10
634.68632094310442
 20
567.41981132077296
 11
634.68632094310442
 21
561.41981132077581
  0
LINE
  8
_0-0_計極細
  6
CONTINUOUS
 62
    2
 10
647.68632094310442
 20
567.41981132077296
 11
647.68632094310442
 21
561.41981132077581
  0
LINE
  8
_0-0_計極細
  6
CONTINUOUS
 62
    2
 10
634.68632094310442
 20
550.01981132077333
 11
634.68632094310442
 21
544.01981132077606
  0
LINE
  8
_0-0_計極細
  6
CONTINUOUS
 62
    2
 10
647.68632094310442
 20
550.01981132077333
 11
647.68632094310442
 21
544.01981132077606
  0
LINE
  8
_0-0_計極細
  6
CONTINUOUS
 62
    2
 10
634.68632094310442
 20
532.61981132077278
 11
634.68632094310442
 21
526.61981132077563
  0
LINE
  8
_0-0_計極細
  6
CONTINUOUS
 62
    2
 10
647.68632094310442
 20
532.61981132077278
 11
647.68632094310442
 21
526.61981132077563
  0
LINE
  8
_0-0_計極細
  6
CONTINUOUS
 62
    2
 10
634.68632094310442
 20
515.21981132077315
 11
634.68632094310442
 21
509.21981132077588
  0
LINE
  8
_0-0_計極細
  6
CONTINUOUS
 62
    2
 10
647.68632094310442
 20
515.21981132077315
 11
647.68632094310442
 21
509.21981132077588
  0
LINE
  8
_0-0_計極細
  6
CONTINUOUS
 62
    2
 10
634.68632094310442
 20
497.81981132077357
 11
634.68632094310442
 21
491.81981132077624
  0
LINE
  8
_0-0_計極細
  6
CONTINUOUS
 62
    2
 10
647.68632094310442
 20
497.81981132077357
 11
647.68632094310442
 21
491.81981132077624
  0
LINE
  8
_0-0_計極細
  6
CONTINUOUS
 62
    2
 10
634.68632094310442
 20
480.41981132077296
 11
634.68632094310442
 21
474.41981132077569
  0
LINE
  8
_0-0_計極細
  6
CONTINUOUS
 62
    2
 10
647.68632094310442
 20
480.41981132077296
 11
647.68632094310442
 21
474.41981132077569
  0
LINE
  8
_0-0_計極細
  6
CONTINUOUS
 62
    2
 10
634.68632094310442
 20
463.01981132077339
 11
634.68632094310442
 21
457.01981132077606
  0
LINE
  8
_0-0_計極細
  6
CONTINUOUS
 62
    2
 10
647.68632094310442
 20
463.01981132077339
 11
647.68632094310442
 21
457.01981132077606
  0
LINE
  8
_0-0_計極細
  6
CONTINUOUS
 62
    2
 10
634.68632094310442
 20
445.61981132077278
 11
634.68632094310442
 21
439.61981132077551
  0
LINE
  8
_0-0_計極細
  6
CONTINUOUS
 62
    2
 10
647.68632094310442
 20
445.61981132077278
 11
647.68632094310442
 21
439.61981132077551
  0
LINE
  8
_0-0_計極細
  6
CONTINUOUS
 62
    2
 10
634.68632094310442
 20
428.2198113207732
 11
634.68632094310442
 21
422.21981132077588
  0
LINE
  8
_0-0_計極細
  6
CONTINUOUS
 62
    2
 10
647.68632094310442
 20
428.2198113207732
 11
647.68632094310442
 21
422.21981132077588
  0
LINE
  8
_0-0_計極細
  6
CONTINUOUS
 62
    2
 10
634.68632094310442
 20
410.81981132077351
 11
634.68632094310442
 21
404.8198113207763
  0
LINE
  8
_0-0_計極細
  6
CONTINUOUS
 62
    2
 10
647.68632094310442
 20
410.81981132077351
 11
647.68632094310442
 21
404.8198113207763
  0
LINE
  8
_0-0_計極細
  6
CONTINUOUS
 62
    2
 10
634.68632094310442
 20
393.41981132077302
 11
634.68632094310442
 21
387.41981132077569
  0
LINE
  8
_0-0_計極細
  6
CONTINUOUS
 62
    2
 10
647.68632094310442
 20
393.41981132077302
 11
647.68632094310442
 21
387.41981132077569
  0
LINE
  8
_0-0_計極細
  6
CONTINUOUS
 62
    2
 10
634.68632094310442
 20
376.01981132077333
 11
634.68632094310442
 21
370.01981132077611
  0
LINE
  8
_0-0_計極細
  6
CONTINUOUS
 62
    2
 10
647.68632094310442
 20
376.01981132077333
 11
647.68632094310442
 21
370.01981132077611
  0
LINE
  8
_0-0_計極細
  6
CONTINUOUS
 62
    2
 10
634.68632094310442
 20
358.61981132077284
 11
634.68632094310442
 21
352.61981132077551
  0
LINE
  8
_0-0_計極細
  6
CONTINUOUS
 62
    2
 10
647.68632094310442
 20
358.61981132077284
 11
647.68632094310442
 21
352.61981132077551
  0
LINE
  8
_0-0_計極細
  6
CONTINUOUS
 62
    2
 10
634.68632094310442
 20
341.21981132077315
 11
634.68632094310442
 21
335.21981132077593
  0
LINE
  8
_0-0_計極細
  6
CONTINUOUS
 62
    2
 10
647.68632094310442
 20
341.21981132077315
 11
647.68632094310442
 21
335.21981132077593
  0
LINE
  8
_0-0_計極細
  6
CONTINUOUS
 62
    2
 10
634.68632094310442
 20
323.81981132077351
 11
634.68632094310442
 21
317.81981132077624
  0
LINE
  8
_0-0_計極細
  6
CONTINUOUS
 62
    2
 10
647.68632094310442
 20
323.81981132077351
 11
647.68632094310442
 21
317.81981132077624
  0
LINE
  8
_0-0_計極細
  6
CONTINUOUS
 62
    2
 10
634.68632094310442
 20
306.41981132077296
 11
634.68632094310442
 21
300.41981132077569
  0
LINE
  8
_0-0_計極細
  6
CONTINUOUS
 62
    2
 10
647.68632094310442
 20
306.41981132077296
 11
647.68632094310442
 21
300.41981132077569
  0
LINE
  8
_0-0_計極細
  6
CONTINUOUS
 62
    2
 10
634.68632094310442
 20
289.01981132077333
 11
634.68632094310442
 21
283.01981132077606
  0
LINE
  8
_0-0_計極細
  6
CONTINUOUS
 62
    2
 10
647.68632094310442
 20
289.01981132077333
 11
647.68632094310442
 21
283.01981132077606
  0
LINE
  8
_0-0_計極細
  6
CONTINUOUS
 62
    2
 10
634.68632094310442
 20
271.61981132077369
 11
634.68632094310442
 21
265.61981132077642
  0
LINE
  8
_0-0_計極細
  6
CONTINUOUS
 62
    2
 10
647.68632094310442
 20
271.61981132077369
 11
647.68632094310442
 21
265.61981132077642
  0
LINE
  8
_0-5_寸法線
  6
CONTINUOUS
 62
    7
 10
246.68632094310391
 20
682.61981132075277
 11
246.68632094310382
 21
727.61981132075277
  0
LINE
  8
_0-5_寸法線
  6
CONTINUOUS
 62
    7
 10
246.68632094310382
 20
722.61981132075277
 11
256.34557920599445
 21
725.20800177177807
  0
LINE
  8
_0-5_寸法線
  6
CONTINUOUS
 62
    7
 10
246.68632094310382
 20
722.61981132075277
 11
256.34557920599445
 21
720.0316208697277
  0
LINE
  8
_0-5_寸法線
  6
CONTINUOUS
 62
    7
 10
253.68632094310385
 20
682.61981132075277
 11
253.68632094310385
 21
727.61981132075277
  0
LINE
  8
_0-5_寸法線
  6
CONTINUOUS
 62
    7
 10
253.68632094310385
 20
722.61981132075277
 11
244.02706268021319
 21
720.0316208697277
  0
LINE
  8
_0-5_寸法線
  6
CONTINUOUS
 62
    7
 10
253.68632094310385
 20
722.61981132075277
 11
244.02706268021319
 21
725.20800177177807
  0
LINE
  8
_0-5_寸法線
  6
CONTINUOUS
 62
    7
 10
246.68632094310382
 20
722.61981132075277
 11
262.56706976386522
 21
722.61981132075277
  0
TEXT
  8
_0-5_寸法線
 62
    7
 10
255.06706976386525
 20
722.61981132075277
 40
15
 41
1
 50
0
  1
7
  0
LINE
  8
_0-5_寸法線
  6
CONTINUOUS
 62
    7
 10
253.68632094310385
 20
722.61981132075277
 11
263.34557920599457
 21
725.20800177177807
  0
LINE
  8
_0-5_寸法線
  6
CONTINUOUS
 62
    7
 10
253.68632094310385
 20
722.61981132075277
 11
263.34557920599451
 21
720.03162086972748
  0
LINE
  8
_0-5_寸法線
  6
CONTINUOUS
 62
    7
 10
447.68632094310391
 20
682.61981132075277
 11
447.68632094310391
 21
727.61981132075277
  0
LINE
  8
_0-5_寸法線
  6
CONTINUOUS
 62
    7
 10
447.68632094310391
 20
722.61981132075277
 11
438.02706268021319
 21
720.0316208697277
  0
LINE
  8
_0-5_寸法線
  6
CONTINUOUS
 62
    7
 10
447.68632094310391
 20
722.61981132075277
 11
438.02706268021325
 21
725.20800177177807
  0
LINE
  8
_0-5_寸法線
  6
CONTINUOUS
 62
    7
 10
253.68632094310385
 20
722.61981132075277
 11
447.68632094310391
 21
722.61981132075277
  0
TEXT
  8
_0-5_寸法線
 62
    7
 10
313.18632094310385
 20
722.61981132075266
 40
15
 41
1
 50
0
  1
4@48.5=194
  0
LINE
  8
_0-5_寸法線
  6
CONTINUOUS
 62
    7
 10
447.68632094310391
 20
722.61981132075277
 11
457.34557920599457
 21
725.20800177177807
  0
LINE
  8
_0-5_寸法線
  6
CONTINUOUS
 62
    7
 10
447.68632094310391
 20
722.61981132075277
 11
457.34557920599457
 21
720.03162086972748
  0
LINE
  8
_0-5_寸法線
  6
CONTINUOUS
 62
    7
 10
495.68632094310385
 20
682.61981132075277
 11
495.68632094310385
 21
727.61981132075277
  0
LINE
  8
_0-5_寸法線
  6
CONTINUOUS
 62
    7
 10
495.68632094310385
 20
722.61981132075277
 11
486.02706268021313
 21
720.0316208697277
  0
LINE
  8
_0-5_寸法線
  6
CONTINUOUS
 62
    7
 10
495.68632094310385
 20
722.61981132075277
 11
486.02706268021325
 21
725.20800177177807
  0
LINE
  8
_0-5_寸法線
  6
CONTINUOUS
 62
    7
 10
447.68632094310391
 20
722.61981132075277
 11
495.68632094310385
 21
722.61981132075277
  0
TEXT
  8
_0-5_寸法線
 62
    7
 10
464.18632094310391
 20
722.61981132075266
 40
15
 41
1
 50
0
  1
48
  0
LINE
  8
_0-5_寸法線
  6
CONTINUOUS
 62
    7
 10
495.68632094310385
 20
722.61981132075277
 11
505.34557920599462
 21
725.20800177177807
  0
LINE
  8
_0-5_寸法線
  6
CONTINUOUS
 62
    7
 10
495.68632094310385
 20
722.61981132075277
 11
505.34557920599457
 21
720.03162086972748
  0
LINE
  8
_0-5_寸法線
  6
CONTINUOUS
 62
    7
 10
689.6863209431034
 20
682.61981132075277
 11
689.6863209431034
 21
727.61981132075277
  0
LINE
  8
_0-5_寸法線
  6
CONTINUOUS
 62
    7
 10
689.6863209431034
 20
722.61981132075277
 11
680.02706268021268
 21
720.0316208697277
  0
LINE
  8
_0-5_寸法線
  6
CONTINUOUS
 62
    7
 10
689.6863209431034
 20
722.61981132075277
 11
680.02706268021268
 21
725.20800177177807
  0
LINE
  8
_0-5_寸法線
  6
CONTINUOUS
 62
    7
 10
495.68632094310385
 20
722.61981132075277
 11
689.6863209431034
 21
722.61981132075277
  0
TEXT
  8
_0-5_寸法線
 62
    7
 10
555.18632094310362
 20
722.61981132075266
 40
15
 41
1
 50
0
  1
4@48.5=194
  0
LINE
  8
_0-5_寸法線
  6
CONTINUOUS
 62
    7
 10
689.6863209431034
 20
722.61981132075277
 11
699.34557920599423
 21
725.20800177177807
  0
LINE
  8
_0-5_寸法線
  6
CONTINUOUS
 62
    7
 10
689.6863209431034
 20
722.61981132075277
 11
699.34557920599423
 21
720.03162086972748
  0
LINE
  8
_0-5_寸法線
  6
CONTINUOUS
 62
    7
 10
696.6863209431034
 20
682.61981132075277
 11
696.6863209431034
 21
727.61981132075277
  0
LINE
  8
_0-5_寸法線
  6
CONTINUOUS
 62
    7
 10
696.6863209431034
 20
722.61981132075277
 11
687.02706268021279
 21
720.0316208697277
  0
LINE
  8
_0-5_寸法線
  6
CONTINUOUS
 62
    7
 10
696.6863209431034
 20
722.61981132075277
 11
687.02706268021279
 21
725.20800177177807
  0
LINE
  8
_0-5_寸法線
  6
CONTINUOUS
 62
    7
 10
681.52749134405076
 20
722.61981132075277
 11
696.6863209431034
 21
722.61981132075277
  0
TEXT
  8
_0-5_寸法線
 62
    7
 10
681.52749134405076
 20
722.61981132075277
 40
15
 41
1
 50
0
  1
7
  0
LINE
  8
_0-5_寸法線
  6
CONTINUOUS
 62
    7
 10
701.16677254352851
 20
397.05314465408958
 11
708.23784035539404
 21
404.12421246595505
  0
LINE
  8
_0-5_寸法線
  6
CONTINUOUS
 62
    7
 10
701.16677254352851
 20
397.05314465408958
 11
710.82603080641934
 21
399.64133510511482
  0
LINE
  8
_0-5_寸法線
  6
CONTINUOUS
 62
    7
 10
701.16677254352851
 20
397.05314465408958
 11
742.56677254352905
 21
420.95544579854021
  0
LINE
  8
_0-5_寸法線
  6
CONTINUOUS
 62
    7
 10
742.56677254352905
 20
420.95544579854021
 11
850.56677254352905
 21
420.95544579854021
  0
TEXT
  8
_0-5_寸法線
 62
    7
 10
742.56677254352905
 20
420.95544579854021
 40
15
 41
0.8000000000000001
 50
0
  1
ＳＵＳアングル受枠
  0
LINE
  8
_0-5_寸法線
  6
CONTINUOUS
 62
    7
 10
663.45563729715968
 20
485.3345693942947
 11
670.52670510902522
 21
492.40563720616024
  0
LINE
  8
_0-5_寸法線
  6
CONTINUOUS
 62
    7
 10
663.45563729715968
 20
485.3345693942947
 11
673.11489556005029
 21
487.92275984531989
  0
LINE
  8
_0-5_寸法線
  6
CONTINUOUS
 62
    7
 10
663.45563729715968
 20
485.3345693942947
 11
742.56677254352905
 21
531.00940462468293
  0
LINE
  8
_0-5_寸法線
  6
CONTINUOUS
 62
    7
 10
742.56677254352905
 20
531.00940462468293
 11
874.56677254352894
 21
531.00940462468293
  0
TEXT
  8
_0-5_寸法線
 62
    7
 10
742.56677254352905
 20
531.00940462468293
 40
15
 41
0.8000000000000001
 50
0
  1
セーフティグレーチング
  0
TEXT
  8
_0-5_寸法線
 62
    7
 10
742.56677254352905
 20
516.00940462468293
 40
15
 41
0.8000000000000001
 50
0
  1
補強仕様
  0
TEXT
  8
_0-5_寸法線
 62
    7
 10
742.56677254352905
 20
405.95544579854021
 40
15
 41
0.8000000000000001
 50
0
  1
ＧＳＬ－２５
  0
LINE
  8
_0-1_計細線
  6
CONTINUOUS
 62
    3
 10
311.68632094310442
 20
440.26981132075468
 11
364.68632094310442
 21
440.26981132075468
  0
LINE
  8
_0-1_計細線
  6
CONTINUOUS
 62
    3
 10
364.68632094310442
 20
444.96981132075456
 11
311.68632094310442
 21
444.96981132075456
  0
LINE
  8
_0-1_計細線
  6
CONTINUOUS
 62
    3
 10
311.68632094310442
 20
444.96981132075456
 11
311.68632094310442
 21
440.26981132075468
  0
LINE
  8
_0-1_計細線
  6
CONTINUOUS
 62
    3
 10
354.68632094310442
 20
444.96981132075456
 11
354.68632094310442
 21
440.26981132075468
  0
LINE
  8
_0-1_計細線
  6
CONTINUOUS
 62
    3
 10
362.68632094310442
 20
444.96981132075456
 11
362.68632094310442
 21
440.26981132075468
  0
LINE
  8
_0-1_計細線
  6
CONTINUOUS
 62
    3
 10
364.68632094310442
 20
444.96981132075456
 11
364.68632094310442
 21
440.26981132075468
  0
LINE
  8
_0-1_計細線
  6
CONTINUOUS
 62
    3
 10
360.68632094310442
 20
444.96981132075456
 11
360.68632094310442
 21
440.26981132075468
  0
LINE
  8
_0-1_計細線
  6
CONTINUOUS
 62
    3
 10
358.68632094310442
 20
444.96981132075456
 11
358.68632094310442
 21
440.26981132075468
  0
LINE
  8
_0-1_計細線
  6
CONTINUOUS
 62
    3
 10
356.68632094310448
 20
444.96981132075456
 11
356.68632094310448
 21
440.26981132075468
  0
LINE
  8
_0-7_枠細線
  6
CONTINUOUS
 62
    5
 10
145.62902757929791
 20
757.56785947115998
 11
138.12902757929791
 21
772.56785947115998
  0
LINE
  8
_0-7_枠細線
  6
CONTINUOUS
 62
    5
 10
130.62902757929791
 20
757.56785947115998
 11
145.62902757929791
 21
757.56785947115998
  0
LINE
  8
_0-7_枠細線
  6
CONTINUOUS
 62
    5
 10
138.12902757929791
 20
772.56785947115998
 11
130.62902757929791
 21
757.56785947115998
  0
LINE
  8
_0-5_寸法線
  6
CONTINUOUS
 62
    7
 10
348.57778831296423
 20
442.41616629375238
 11
341.77767869826448
 21
449.74818574463143
  0
LINE
  8
_0-5_寸法線
  6
CONTINUOUS
 62
    7
 10
348.57778831296423
 20
442.41616629375238
 11
346.35473036355501
 21
452.16593620660512
  0
LINE
  8
_0-5_寸法線
  6
CONTINUOUS
 62
    7
 10
348.57778831296423
 20
442.41616629375238
 11
191.61914943315367
 21
739.55510216230152
  0
LINE
  8
_0-5_寸法線
  6
CONTINUOUS
 62
    7
 10
191.61914943315367
 20
739.55510216230152
 11
131.61914943315367
 21
739.55510216230152
  0
TEXT
  8
_0-5_寸法線
 62
    7
 10
131.61914943315367
 20
739.55510216230152
 40
15
 41
0.8000000000000001
 50
0
  1
取　外　具
  0
LINE
  8
_0-5_寸法線
  6
CONTINUOUS
 62
    7
 10
231.6863209431034
 20
212.61981132075735
 11
151.6863209431034
 21
212.61981132075758
  0
LINE
  8
_0-5_寸法線
  6
CONTINUOUS
 62
    7
 10
156.6863209431034
 20
212.61981132075758
 11
154.09813049207821
 21
222.27906958364827
  0
LINE
  8
_0-5_寸法線
  6
CONTINUOUS
 62
    7
 10
156.6863209431034
 20
212.61981132075758
 11
159.27451139412858
 21
222.27906958364827
  0
LINE
  8
_0-5_寸法線
  6
CONTINUOUS
 62
    7
 10
231.6863209431034
 20
672.61981132075277
 11
151.6863209431034
 21
672.61981132075312
  0
LINE
  8
_0-5_寸法線
  6
CONTINUOUS
 62
    7
 10
156.6863209431034
 20
672.61981132075312
 11
159.27451139412858
 21
662.96055305786228
  0
LINE
  8
_0-5_寸法線
  6
CONTINUOUS
 62
    7
 10
156.6863209431034
 20
672.61981132075312
 11
154.09813049207821
 21
662.96055305786228
  0
LINE
  8
_0-5_寸法線
  6
CONTINUOUS
 62
    7
 10
156.6863209431034
 20
212.61981132075758
 11
156.6863209431034
 21
672.61981132075312
  0
TEXT
  8
_0-5_寸法線
 62
    7
 10
156.68632094310334
 20
431.36981132075539
 40
15
 41
1
 50
89.999999999999815
  1
460
  0
LINE
  8
_0-5_寸法線
  6
CONTINUOUS
 62
    7
 10
859.86487216254432
 20
776.29626680242313
 11
850.2056138996536
 21
773.70807635139784
  0
LINE
  8
_0-5_寸法線
  6
CONTINUOUS
 62
    7
 10
859.86487216254432
 20
776.29626680242313
 11
850.2056138996536
 21
778.8844572534482
  0
LINE
  8
_0-5_寸法線
  6
CONTINUOUS
 62
    7
 10
862.86487216254443
 20
695.79646325564568
 11
862.86487216254443
 21
781.29626680242313
  0
CIRCLE
  8
_0-5_寸法線
  6
CONTINUOUS
 62
    1
 10
862.86487216254443
 20
776.29626680242313
 40
1.5000000000000002
  0
LINE
  8
_0-5_寸法線
  6
CONTINUOUS
 62
    7
 10
834.86487216254432
 20
776.29626680242313
 11
862.86487216254443
 21
776.29626680242313
  0
TEXT
  8
_0-5_寸法線
 62
    7
 10
837.62796116217203
 20
776.29626680242313
 40
15
 41
1
 50
0
  1
3
  0
LINE
  8
_0-5_寸法線
  6
CONTINUOUS
 62
    7
 10
865.86487216254477
 20
694.29646225463887
 11
865.86487216254545
 21
781.29626680242313
  0
LINE
  8
_0-5_寸法線
  6
CONTINUOUS
 62
    7
 10
862.86487216254443
 20
776.29626680242313
 11
865.86487216254545
 21
776.29626680242313
  0
TEXT
  8
_0-5_寸法線
 62
    7
 10
864.39342658300484
 20
776.29626680242313
 40
15
 41
1
 50
0
  1
3
  0
LINE
  8
_0-5_寸法線
  6
CONTINUOUS
 62
    7
 10
865.86487216254545
 20
776.29626680242313
 11
875.52413042543606
 21
778.8844572534482
  0
LINE
  8
_0-5_寸法線
  6
CONTINUOUS
 62
    7
 10
865.86487216254545
 20
776.29626680242313
 11
875.52413042543606
 21
773.70807635139784
  0
LINE
  8
_0-5_寸法線
  6
CONTINUOUS
 62
    7
 10
1313.8648721625445
 20
694.29646225463887
 11
1313.8648721625445
 21
781.29626680242313
  0
LINE
  8
_0-5_寸法線
  6
CONTINUOUS
 62
    7
 10
1313.8648721625445
 20
776.29626680242313
 11
1304.2056138996541
 21
773.70807635139784
  0
LINE
  8
_0-5_寸法線
  6
CONTINUOUS
 62
    7
 10
1313.8648721625445
 20
776.29626680242313
 11
1304.2056138996541
 21
778.8844572534482
  0
LINE
  8
_0-5_寸法線
  6
CONTINUOUS
 62
    7
 10
865.86487216254545
 20
776.29626680242313
 11
1313.8648721625445
 21
776.29626680242313
  0
TEXT
  8
_0-5_寸法線
 62
    7
 10
1078.614872162545
 20
776.29626680242313
 40
15
 41
1
 50
0
  1
448
  0
LINE
  8
_0-5_寸法線
  6
CONTINUOUS
 62
    7
 10
1316.8648721625445
 20
695.79646325564568
 11
1316.8648721625445
 21
781.29626680242313
  0
CIRCLE
  8
_0-5_寸法線
  6
CONTINUOUS
 62
    1
 10
1316.8648721625445
 20
776.29626680242313
 40
1.5000000000000002
  0
LINE
  8
_0-5_寸法線
  6
CONTINUOUS
 62
    7
 10
1313.8648721625445
 20
776.29626680242313
 11
1316.8648721625445
 21
776.29626680242313
  0
TEXT
  8
_0-5_寸法線
 62
    7
 10
1305.9427337763984
 20
776.29626680242313
 40
15
 41
1
 50
0
  1
3
  0
LINE
  8
_0-5_寸法線
  6
CONTINUOUS
 62
    7
 10
1319.8648721625445
 20
776.29626680242313
 11
1329.5241304254353
 21
778.8844572534482
  0
LINE
  8
_0-5_寸法線
  6
CONTINUOUS
 62
    7
 10
1319.8648721625445
 20
776.29626680242313
 11
1329.5241304254353
 21
773.70807635139784
  0
LINE
  8
_0-5_寸法線
  6
CONTINUOUS
 62
    7
 10
1316.8648721625445
 20
776.29626680242313
 11
1344.8648721625445
 21
776.29626680242313
  0
TEXT
  8
_0-5_寸法線
 62
    7
 10
1334.0113696069498
 20
776.29626680242313
 40
15
 41
1
 50
0
  1
3
  0
TEXT
  8
_0-5_寸法線
 62
    7
 10
131.92309927722079
 20
724.55510216230152
 40
15
 41
0.8000000000000001
 50
0
  1
(標準付属)
  0
LINE
  8
_0-5_寸法線
  6
CONTINUOUS
 62
    7
 10
1168.1648721603592
 20
701.29626680242245
 11
1168.1648721603592
 21
746.29604780141563
  0
LINE
  8
_0-5_寸法線
  6
CONTINUOUS
 62
    7
 10
1168.1648721603592
 20
741.29604780141563
 11
1177.8241304232502
 21
743.88423825244092
  0
LINE
  8
_0-5_寸法線
  6
CONTINUOUS
 62
    7
 10
1168.1648721603592
 20
741.29604780141563
 11
1177.8241304232502
 21
738.70785735039044
  0
LINE
  8
_0-5_寸法線
  6
CONTINUOUS
 62
    7
 10
1185.5648721597443
 20
701.29626680242245
 11
1185.5648721597443
 21
746.29604780141563
  0
LINE
  8
_0-5_寸法線
  6
CONTINUOUS
 62
    7
 10
1185.5648721597443
 20
741.29604780141563
 11
1175.9056138968535
 21
738.70785735039044
  0
LINE
  8
_0-5_寸法線
  6
CONTINUOUS
 62
    7
 10
1185.5648721597443
 20
741.29604780141563
 11
1175.9056138968535
 21
743.88423825244092
  0
LINE
  8
_0-5_寸法線
  6
CONTINUOUS
 62
    7
 10
1143.0402417452831
 20
741.29604780141563
 11
1185.5648721597443
 21
741.29604780141563
  0
TEXT
  8
_0-5_寸法線
 62
    7
 10
1143.0402417452831
 20
726.29604780141563
 40
15
 41
1
 50
0
  1
(17.4)
  0
LINE
  8
_0-5_寸法線
  6
CONTINUOUS
 62
    7
 10
1185.5648721597443
 20
741.29604780141563
 11
1195.224130422635
 21
743.88423825244092
  0
LINE
  8
_0-5_寸法線
  6
CONTINUOUS
 62
    7
 10
1185.5648721597443
 20
741.29604780141563
 11
1195.224130422635
 21
738.70785735039033
  0
LINE
  8
_0-5_寸法線
  6
CONTINUOUS
 62
    7
 10
1202.9648721594049
 20
701.29626680242245
 11
1202.9648721594049
 21
746.29604780141563
  0
LINE
  8
_0-5_寸法線
  6
CONTINUOUS
 62
    7
 10
1202.9648721594049
 20
741.29604780141563
 11
1193.3056138965142
 21
738.70785735039044
  0
LINE
  8
_0-5_寸法線
  6
CONTINUOUS
 62
    7
 10
1202.9648721594049
 20
741.29604780141563
 11
1193.3056138965142
 21
743.88423825244092
  0
LINE
  8
_0-5_寸法線
  6
CONTINUOUS
 62
    7
 10
1185.5648721597443
 20
741.29604780141563
 11
1227.6628832547167
 21
741.29604780141563
  0
TEXT
  8
_0-5_寸法線
 62
    7
 10
1182.6628832547167
 20
741.29604780141517
 40
15
 41
1
 50
0
  1
(17.4)
  0
LINE
  8
_0-5_寸法線
  6
CONTINUOUS
 62
    7
 10
982.46487216458104
 20
699.29626680242211
 11
982.46487216458104
 21
746.29604780141563
  0
LINE
  8
_0-5_寸法線
  6
CONTINUOUS
 62
    7
 10
982.46487216458104
 20
741.29604780141563
 11
972.80561390169044
 21
738.70785735039044
  0
LINE
  8
_0-5_寸法線
  6
CONTINUOUS
 62
    7
 10
982.46487216458104
 20
741.29604780141563
 11
972.80561390169044
 21
743.88423825244092
  0
LINE
  8
_0-5_寸法線
  6
CONTINUOUS
 62
    7
 10
988.46487216617334
 20
699.29626680242211
 11
988.46487216617334
 21
746.29604780141563
  0
LINE
  8
_0-5_寸法線
  6
CONTINUOUS
 62
    7
 10
958.09091648141418
 20
741.29604780141563
 11
988.46487216617334
 21
741.29604780141563
  0
TEXT
  8
_0-5_寸法線
 62
    7
 10
958.09091648141418
 20
726.29604780141563
 40
15
 41
1
 50
0
  1
(6)
  0
LINE
  8
_0-5_寸法線
  6
CONTINUOUS
 62
    7
 10
988.46487216617334
 20
741.29604780141563
 11
998.12413042906417
 21
743.88423825244092
  0
LINE
  8
_0-5_寸法線
  6
CONTINUOUS
 62
    7
 10
988.46487216617334
 20
741.29604780141563
 11
998.12413042906417
 21
738.70785735039044
  0
LINE
  8
_0-5_寸法線
  6
CONTINUOUS
 62
    7
 10
999.86487216396597
 20
699.29626680242211
 11
999.86487216396597
 21
746.29604780141563
  0
LINE
  8
_0-5_寸法線
  6
CONTINUOUS
 62
    7
 10
999.86487216396597
 20
741.29604780141563
 11
990.20561390107514
 21
738.70785735039044
  0
LINE
  8
_0-5_寸法線
  6
CONTINUOUS
 62
    7
 10
999.86487216396597
 20
741.29604780141563
 11
990.20561390107514
 21
743.88423825244092
  0
LINE
  8
_0-5_寸法線
  6
CONTINUOUS
 62
    7
 10
988.46487216617334
 20
741.29604780141563
 11
999.86487216396597
 21
741.29604780141563
  0
TEXT
  8
_0-5_寸法線
 62
    7
 10
975.40017573871978
 20
741.29604780141563
 40
15
 41
1
 50
0
  1
11.4
  0
LINE
  8
_0-5_寸法線
  6
CONTINUOUS
 62
    7
 10
1072.9730391991905
 20
672.03203076499381
 11
1053.5271604745481
 21
685.64818163510051
  0
LINE
  8
_0-5_寸法線
  6
CONTINUOUS
 62
    7
 10
1057.6229206959929
 20
682.78029945334526
 11
1055.0347302449677
 21
692.4395577162361
  0
LINE
  8
_0-5_寸法線
  6
CONTINUOUS
 62
    7
 10
1057.6229206959929
 20
682.78029945334526
 11
1060.2111111470181
 21
692.4395577162361
  0
LINE
  8
_0-5_寸法線
  6
CONTINUOUS
 62
    7
 10
1072.9730391991905
 20
697.03203076499392
 11
1053.5271604745478
 21
710.6481816351004
  0
LINE
  8
_0-5_寸法線
  6
CONTINUOUS
 62
    7
 10
1057.6229206959929
 20
707.78029945334526
 11
1060.2111111470181
 21
698.12104119045443
  0
LINE
  8
_0-5_寸法線
  6
CONTINUOUS
 62
    7
 10
1057.6229206959929
 20
707.78029945334526
 11
1055.0347302449677
 21
698.12104119045443
  0
LINE
  8
_0-5_寸法線
  6
CONTINUOUS
 62
    7
 10
1057.6229206959929
 20
682.78029945334526
 11
1057.6229206959929
 21
707.78029945334526
  0
TEXT
  8
_0-5_寸法線
 62
    7
 10
1057.6229206959929
 20
687.78029945334492
 40
15
 41
1
 50
90
  1
25
  0
LINE
  8
_0-5_寸法線
  6
CONTINUOUS
 62
    7
 10
231.6863209431034
 20
212.61981132075738
 11
186.6863209431034
 21
212.61981132075761
  0
LINE
  8
_0-5_寸法線
  6
CONTINUOUS
 62
    7
 10
191.6863209431034
 20
212.61981132075758
 11
194.27451139412852
 21
202.96055305786689
  0
LINE
  8
_0-5_寸法線
  6
CONTINUOUS
 62
    7
 10
191.6863209431034
 20
212.61981132075758
 11
189.09813049207813
 21
202.96055305786695
  0
LINE
  8
_0-5_寸法線
  6
CONTINUOUS
 62
    7
 10
231.6863209431034
 20
215.61981132075741
 11
186.6863209431034
 21
215.61981132075758
  0
CIRCLE
  8
_0-5_寸法線
  6
CONTINUOUS
 62
    1
 10
191.6863209431034
 20
215.61981132075758
 40
1.5000000000000002
  0
LINE
  8
_0-5_寸法線
  6
CONTINUOUS
 62
    7
 10
191.6863209431034
 20
187.61981132075761
 11
191.6863209431034
 21
215.61981132075758
  0
TEXT
  8
_0-5_寸法線
 62
    7
 10
191.6863209431034
 20
190.97869215015507
 40
15
 41
1
 50
90
  1
3
  0
LINE
  8
_0-5_寸法線
  6
CONTINUOUS
 62
    7
 10
231.6863209431034
 20
218.61981132078188
 11
186.6863209431034
 21
218.61981132078211
  0
LINE
  8
_0-5_寸法線
  6
CONTINUOUS
 62
    7
 10
191.6863209431034
 20
215.61981132075758
 11
191.6863209431034
 21
218.61981132078205
  0
TEXT
  8
_0-5_寸法線
 62
    7
 10
206.86307648346954
 20
219.27947197794779
 40
15
 41
1
 50
90
  1
3
  0
LINE
  8
_0-5_寸法線
  6
CONTINUOUS
 62
    7
 10
191.6863209431034
 20
218.61981132078205
 11
189.09813049207821
 21
228.27906958367277
  0
LINE
  8
_0-5_寸法線
  6
CONTINUOUS
 62
    7
 10
191.6863209431034
 20
218.61981132078205
 11
194.27451139412858
 21
228.27906958367277
  0
LINE
  8
_0-5_寸法線
  6
CONTINUOUS
 62
    7
 10
231.6863209431034
 20
666.61981132077744
 11
186.6863209431034
 21
666.61981132077744
  0
LINE
  8
_0-5_寸法線
  6
CONTINUOUS
 62
    7
 10
191.6863209431034
 20
666.61981132077744
 11
194.27451139412852
 21
656.96055305788673
  0
LINE
  8
_0-5_寸法線
  6
CONTINUOUS
 62
    7
 10
191.6863209431034
 20
666.61981132077744
 11
189.09813049207813
 21
656.96055305788673
  0
LINE
  8
_0-5_寸法線
  6
CONTINUOUS
 62
    7
 10
191.6863209431034
 20
218.61981132078205
 11
191.6863209431034
 21
666.61981132077744
  0
TEXT
  8
_0-5_寸法線
 62
    7
 10
191.6863209431034
 20
431.36981132077972
 40
15
 41
1
 50
90
  1
448
  0
LINE
  8
_0-5_寸法線
  6
CONTINUOUS
 62
    7
 10
231.6863209431034
 20
669.61981132075277
 11
186.6863209431034
 21
669.61981132075289
  0
CIRCLE
  8
_0-5_寸法線
  6
CONTINUOUS
 62
    1
 10
191.6863209431034
 20
669.61981132075289
 40
1.5000000000000002
  0
LINE
  8
_0-5_寸法線
  6
CONTINUOUS
 62
    7
 10
191.6863209431034
 20
666.61981132077744
 11
191.6863209431034
 21
669.61981132075289
  0
TEXT
  8
_0-5_寸法線
 62
    7
 10
207.48323260613901
 20
659.11981132077744
 40
15
 41
1
 50
90
  1
3
  0
LINE
  8
_0-5_寸法線
  6
CONTINUOUS
 62
    7
 10
231.6863209431034
 20
672.61981132075277
 11
186.6863209431034
 21
672.61981132075289
  0
LINE
  8
_0-5_寸法線
  6
CONTINUOUS
 62
    7
 10
191.6863209431034
 20
672.61981132075289
 11
189.09813049207821
 21
682.2790695836436
  0
LINE
  8
_0-5_寸法線
  6
CONTINUOUS
 62
    7
 10
191.6863209431034
 20
672.61981132075289
 11
194.27451139412858
 21
682.2790695836436
  0
LINE
  8
_0-5_寸法線
  6
CONTINUOUS
 62
    7
 10
191.6863209431034
 20
669.61981132075289
 11
191.6863209431034
 21
697.61981132075289
  0
TEXT
  8
_0-5_寸法線
 62
    7
 10
191.6863209431034
 20
686.72456479166021
 40
15
 41
1
 50
90
  1
3
  0
TEXT
  8
_0-7_枠細線
 62
    5
 10
1180
 20
892.5
 40
12.5
 41
0.7199999999999999
 50
0
  1
２０２０．１０．０１
  0
TEXT
  8
_0-7_枠細線
 62
    5
 10
938.85037037037023
 20
910
 40
12.5
 41
1
 50
0
  1
クロスバーピッチ変更
  0
TEXT
  8
_0-7_枠細線
 62
    5
 10
938.85037037037023
 20
892.5
 40
12.5
 41
1
 50
0
  1
取外具形状変更
  0
TEXT
  8
_0-7_枠細線
 62
    5
 10
314.32157512807623
 20
740.11552046136899
 40
12.5
 41
0.8
 50
0
  1
２
  0
TEXT
  8
_0-7_枠細線
 62
    5
 10
132.99417884744605
 20
757.26085722577955
 40
12.5
 41
0.8
 50
0
  1
３
  0
ENDSEC
  0
EOF
