  0
SECTION
  2
HEADER
  9
$ACADVER
  1
AC1009
  9
$INSBASE
 10
0
 20
0
 30
0
  9
$EXTMIN
 10
0
 20
0
  9
$EXTMAX
 10
1485
 20
1050
  9
$LIMMIN
 10
0
 20
0
  9
$LIMMAX
 10
1485
 20
1050
  9
$LTSCALE
 40
5
  0
ENDSEC
  0
SECTION
  2
TABLES
  0
TABLE
  2
LTYPE
 70
     9
  0
LTYPE
  2
CONTINUOUS
 70
    64
  3
実線
 72
    65
 73
     0
 40
0.0
  0
LTYPE
  2
DASHED1
 70
    64
  3
--  --  --  --  --  --  --  --  
 72
    65
 73
     2
 40
2.5
 49
1.25
 49
-1.25
  0
LTYPE
  2
DASHED2
 70
    64
  3
----    ----    ----    ----    
 72
    65
 73
     2
 40
5.0
 49
2.5
 49
-2.5
  0
LTYPE
  2
DASHED3
 70
    64
  3
------  ------  ------  ------  
 72
    65
 73
     2
 40
5.0
 49
3.75
 49
-1.25
  0
LTYPE
  2
CENTER1
 70
    64
  3
----- - ----- - ----- - ----- - 
 72
    65
 73
     4
 40
10.0
 49
6.25
 49
-1.25
 49
1.25
 49
-1.25
  0
LTYPE
  2
CENTER2
 70
    64
  3
----------  --  ----------  --  
 72
    65
 73
     4
 40
20.0
 49
12.5
 49
-2.5
 49
2.5
 49
-2.5
  0
LTYPE
  2
PHANTOM1
 70
    64
  3
--- - - --- - - --- - - --- - - 
 72
    65
 73
     6
 40
10.0
 49
3.25
 49
-1.25
 49
1.25
 49
-1.25
 49
1.25
 49
-1.25
  0
LTYPE
  2
PHANTOM2
 70
    64
  3
--------  -  -  --------  -  -  
 72
    65
 73
     6
 40
20.0
 49
10.0
 49
-2.5
 49
1.25
 49
-2.5
 49
1.25
 49
-2.5
  0
LTYPE
  2
DOT
 70
    64
  3
-   -   -   -   -   -   -   -   
 72
    65
 73
     2
 40
2.5
 49
0.625
 49
-1.875
  0
LTYPE
  2
DUMMY
 70
    64
  3
ダミー
 72
    65
 73
     0
 40
0.0
  0
LTYPE
  2
RAND1
 70
    64
  3
ランダム線1
 72
    65
 73
     4
 40
10.0
 49
1.0
 49
-2.0
 49
3.0
 49
-4.0
  0
LTYPE
  2
RAND2
 70
    64
  3
ランダム線2
 72
    65
 73
     4
 40
14.0
 49
2.0
 49
-3.0
 49
4.0
 49
-5.0
  0
LTYPE
  2
RAND3
 70
    64
  3
ランダム線3
 72
    65
 73
     4
 40
18.0
 49
3.0
 49
-4.0
 49
5.0
 49
-6.0
  0
LTYPE
  2
RAND4
 70
    64
  3
ランダム線4
 72
    65
 73
     4
 40
22.0
 49
4.0
 49
-5.0
 49
6.0
 49
-7.0
  0
LTYPE
  2
RAND5
 70
    64
  3
ランダム線5
 72
    65
 73
     4
 40
26.0
 49
5.0
 49
-6.0
 49
7.0
 49
-8.0
  0
LTYPE
  2
LONG1
 70
    64
  3
----------  --  ----------  --  
 72
    65
 73
     4
 40
40.0
 49
32.5
 49
-2.5
 49
2.5
 49
-2.5
  0
LTYPE
  2
LONG2
 70
    64
  3
--------  -  -  --------  -  -  
 72
    65
 73
     6
 40
40.0
 49
30.0
 49
-2.5
 49
1.25
 49
-2.5
 49
1.25
 49
-2.5
  0
LTYPE
  2
LONG3
 70
    64
  3
+++++++++++++++..+++++++++++++++
 72
    65
 73
     2
 40
40.0
 49
37.5
 49
-2.5
  0
LTYPE
  2
LONG4
 70
    64
  3
+++++++++++++++..+++++++++++++++
 72
    65
 73
     2
 40
80.0
 49
75.0
 49
-5.0
  0
LTYPE
  2
LONG5
 70
    64
  3
----------  --  ----------  --  
 72
    65
 73
     4
 40
60.0
 49
37.5
 49
-7.5
 49
7.5
 49
-7.5
  0
LTYPE
  2
dashed
 70
   64
  3
-------   -------------   ------
 72
   65
 73
    2
 40
7.5
 49
6
 49
-1.5
  0
LTYPE
  2
dashed_spaced
 70
   64
  3
----        --------        ----
 72
   65
 73
    2
 40
12
 49
6
 49
-6
  0
LTYPE
  2
long_dashed_dotted
 70
   64
  3
------------- --- --------------
 72
   65
 73
    4
 40
15.25
 49
12
 49
-1.5
 49
0.25
 49
-1.5
  0
LTYPE
  2
long_dashed_double-dotted
 70
   64
  3
----------- --- --- ------------
 72
   65
 73
    6
 40
17
 49
12
 49
-1.5
 49
0.25
 49
-1.5
 49
0.25
 49
-1.5
  0
LTYPE
  2
long_dashed_triplicate-dotted
 70
   64
  3
--------- --- --- --- ----------
 72
   65
 73
    8
 40
18.75
 49
12
 49
-1.5
 49
0.25
 49
-1.5
 49
0.25
 49
-1.5
 49
0.25
 49
-1.5
  0
LTYPE
  2
dotted
 70
   64
  3
   -       -       -       -    
 72
   65
 73
    2
 40
1.75
 49
0.25
 49
-1.5
  0
LTYPE
  2
chain
 70
   64
  3
-------------- -- --------------
 72
   65
 73
    4
 40
18.5
 49
12
 49
-1.5
 49
3.5
 49
-1.5
  0
LTYPE
  2
chain_double_dash
 70
   64
  3
------------ -- -- -------------
 72
   65
 73
    6
 40
23.5
 49
12
 49
-1.5
 49
3.5
 49
-1.5
 49
3.5
 49
-1.5
  0
LTYPE
  2
dashed_dotted
 70
   64
  3
-----------     -     ----------
 72
   65
 73
    4
 40
9.25
 49
6
 49
-1.5
 49
0.25
 49
-1.5
  0
LTYPE
  2
double-dashed_dotted
 70
   64
  3
------   -----------   -   -----
 72
   65
 73
    6
 40
16.75
 49
6
 49
-1.5
 49
6
 49
-1.5
 49
0.25
 49
-1.5
  0
LTYPE
  2
dashed_double-dotted
 70
   64
  3
---------    -    -    ---------
 72
   65
 73
    6
 40
11
 49
6
 49
-1.5
 49
0.25
 49
-1.5
 49
0.25
 49
-1.5
  0
LTYPE
  2
double-dashed_double-dotted
 70
   64
  3
-----   ---------   -   -   ----
 72
   65
 73
    8
 40
18.5
 49
6
 49
-1.5
 49
6
 49
-1.5
 49
0.25
 49
-1.5
 49
0.25
 49
-1.5
  0
LTYPE
  2
dashed_triplicate-dotted
 70
   64
  3
-------    -    -    -    ------
 72
   65
 73
    8
 40
12.75
 49
6
 49
-1.5
 49
0.25
 49
-1.5
 49
0.25
 49
-1.5
 49
0.25
 49
-1.5
  0
LTYPE
  2
double-dashed_triplicate-dotted
 70
   64
  3
-----  ---------  -  -  -  -----
 72
   65
 73
   10
 40
20.25
 49
6
 49
-1.5
 49
6
 49
-1.5
 49
0.25
 49
-1.5
 49
0.25
 49
-1.5
 49
0.25
 49
-1.5
  0
LTYPE
  2
undefined
 70
   64
  3
--------------------------------
 72
   65
 73
    0
 40
0
  0
ENDTAB
  0
TABLE
  2
STYLE
  5
3
100
AcDbSymbolTable
 70
     1
  0
STYLE
  5
10
100
AcDbSymbolTableRecord
100
AcDbTextStyleTableRecord
  2
STANDARD
 70
     0
 40
0.0
 41
1.0
 50
0.0
 71
     0
 42
0.2
  3
txt
  4
bigfont.shx
  0
STYLE
  5
26
100
AcDbSymbolTableRecord
100
AcDbTextStyleTableRecord
  2
TATEGAKI
 70
    68
 40
0.0
 41
1.0
 50
0.0
 71
     0
 42
1.0
  3
txt
  4
bigfont.shx
  0
ENDTAB
  0
TABLE
  2
LAYER
 70
    9
  0
LAYER
  2
_0-0_計極細
 70
   64
 62
    7
  6
CONTINUOUS
  0
LAYER
  2
_0-1_計細線
 70
   64
 62
    7
  6
CONTINUOUS
  0
LAYER
  2
_0-5_寸法線
 70
   64
 62
    7
  6
CONTINUOUS
  0
LAYER
  2
_0-7_枠細線
 70
   64
 62
    7
  6
CONTINUOUS
  0
LAYER
  2
_0-8_枠中線
 70
   64
 62
    7
  6
CONTINUOUS
  0
LAYER
  2
_0-a_極細1
 70
   64
 62
    7
  6
CONTINUOUS
  0
LAYER
  2
_0-b_細線1
 70
   64
 62
    7
  6
CONTINUOUS
  0
LAYER
  2
_0-d_寸法1
 70
   64
 62
    7
  6
CONTINUOUS
  0
LAYER
  2
ADD_LINE
 70
   64
 62
    7
  6
CONTINUOUS
  0
ENDTAB
  0
ENDSEC
  0
SECTION
  2
BLOCKS
  0
ENDSEC
  0
SECTION
  2
ENTITIES
  0
LINE
  8
_0-7_枠細線
  6
CONTINUOUS
 62
    5
 10
1185.0000000000005
 20
180
 11
1185.0000000000005
 21
99.999999999999929
  0
TEXT
  8
_0-7_枠細線
 62
    5
 10
937.50000000000057
 20
97.499999999999929
 40
17.500000000000007
 41
1
 50
0
  1
備考
  7
TATEGAKI
  0
TEXT
  8
_0-7_枠細線
 62
    5
 10
937.50000000000057
 20
137.49999999999994
 40
17.500000000000007
 41
1
 50
0
  1
品番
  7
TATEGAKI
  0
TEXT
  8
_0-7_枠細線
 62
    5
 10
937.50000000000057
 20
177.5
 40
17.500000000000007
 41
1
 50
0
  1
品名
  7
TATEGAKI
  0
LINE
  8
_0-7_枠細線
  6
CONTINUOUS
 62
    5
 10
1185.0000000000005
 20
139.99999999999994
 11
925.00000000000057
 21
139.99999999999994
  0
LINE
  8
_0-7_枠細線
  6
CONTINUOUS
 62
    5
 10
950.00000000000057
 20
180
 11
950.00000000000057
 21
59.999999999999929
  0
LINE
  8
_0-8_枠中線
  6
CONTINUOUS
 62
    5
 10
1425.0000000000002
 20
180
 11
925.00000000000057
 21
180
  0
LINE
  8
_0-8_枠中線
  6
CONTINUOUS
 62
    5
 10
925.00000000000057
 20
180
 11
925.00000000000057
 21
59.999999999999929
  0
LINE
  8
_0-7_枠細線
  6
CONTINUOUS
 62
    5
 10
1245.0000000000005
 20
180
 11
1245.0000000000005
 21
59.999999999999929
  0
TEXT
  8
_0-7_枠細線
 62
    5
 10
1192.5000000000005
 20
159.99999999999994
 40
15.000000000000009
 41
1
 50
0
  1
縮　尺
  0
LINE
  8
_0-7_枠細線
  6
CONTINUOUS
 62
    5
 10
1185.0000000000005
 20
154.99999999999994
 11
1245.0000000000005
 21
154.99999999999994
  0
LINE
  8
_0-7_枠細線
  6
CONTINUOUS
 62
    5
 10
1245.0000000000005
 20
99.999999999999929
 11
925.00000000000057
 21
99.999999999999929
  0
LINE
  8
_0-7_枠細線
  6
CONTINUOUS
 62
    5
 10
1425.0000000000002
 20
89.999999999999929
 11
1245.0000000000005
 21
89.999999999999929
  0
LINE
  8
_0-7_枠細線
  6
CONTINUOUS
 62
    5
 10
1245.0000000000005
 20
119.99999999999993
 11
1425.0000000000002
 21
119.99999999999993
  0
LINE
  8
_0-7_枠細線
  6
CONTINUOUS
 62
    5
 10
1425.0000000000002
 20
139.99999999999994
 11
1245.0000000000005
 21
139.99999999999994
  0
TEXT
  8
_0-7_枠細線
 62
    5
 10
1255.0000000000005
 20
147.49999999999994
 40
25.000000000000004
 41
0.8
 50
0
  1
株式会社シマブン
  0
TEXT
  8
_0-7_枠細線
 62
    5
 10
1252.5000000000005
 20
59.999999999999929
 40
15.000000000000009
 41
1
 50
0
  1
年月日
  0
TEXT
  8
_0-7_枠細線
 62
    5
 10
1252.5000000000005
 20
74.999999999999929
 40
15.000000000000009
 41
1
 50
0
  1
作　成
  0
TEXT
  8
_0-7_枠細線
 62
    5
 10
1256.2500000000005
 20
122.49999999999993
 40
15.000000000000009
 41
1
 50
0
  1
承 認
  0
LINE
  8
_0-7_枠細線
  6
CONTINUOUS
 62
    5
 10
1305.0000000000002
 20
139.99999999999994
 11
1305.0000000000002
 21
59.999999999999929
  0
TEXT
  8
_0-7_枠細線
 62
    5
 10
1316.2500000000002
 20
122.49999999999993
 40
15.000000000000009
 41
1
 50
0
  1
検 図
  0
LINE
  8
_0-7_枠細線
  6
CONTINUOUS
 62
    5
 10
1365.0000000000002
 20
139.99999999999994
 11
1365.0000000000002
 21
89.999999999999929
  0
TEXT
  8
_0-7_枠細線
 62
    5
 10
1375.0000000000002
 20
94.999999999999929
 40
20.000000000000004
 41
1
 50
0
  1
藤戸
  0
TEXT
  8
_0-7_枠細線
 62
    5
 10
1376.2500000000002
 20
122.49999999999993
 40
15.000000000000009
 41
1
 50
0
  1
設 計
  0
LINE
  8
_0-8_枠中線
  6
CONTINUOUS
 62
    5
 10
1425.0000000000002
 20
59.999999999999929
 11
1425.0000000000009
 21
970.00000000000023
  0
LINE
  8
_0-8_枠中線
  6
CONTINUOUS
 62
    5
 10
59.999999999999858
 20
59.999999999999929
 11
60.000000000000142
 21
970.00000000000023
  0
LINE
  8
_0-8_枠中線
  6
CONTINUOUS
 62
    5
 10
59.999999999999858
 20
59.999999999999645
 11
1425.0000000000002
 21
59.999999999999929
  0
LINE
  8
_0-8_枠中線
  6
CONTINUOUS
 62
    5
 10
60.000000000000142
 20
970.00000000000023
 11
1425.0000000000009
 21
970.00000000000023
  0
TEXT
  8
_0-7_枠細線
 62
    5
 10
1194.0000000000005
 20
117.49999999999993
 40
20.000000000000007
 41
0.6999999999999998
 50
0
  1
１：５
  0
TEXT
  8
_0-7_枠細線
 62
    5
 10
960.50000000000045
 20
69.999999999999858
 40
20
 41
0.5999999999999998
 50
0
  1
品番・色については表参照のこと
  0
TEXT
  8
_0-7_枠細線
 62
    5
 10
1310.0000000000002
 20
67.499999999999929
 40
15.000000000000009
 41
0.6666666666666665
 50
0
  1
２０１０年０３月０１日
  0
TEXT
  8
_0-7_枠細線
 62
    5
 10
1315.0000000000002
 20
94.999999999999929
 40
20.000000000000004
 41
1
 50
0
  1
渋田
  0
TEXT
  8
_0-7_枠細線
 62
    5
 10
1255.0000000000002
 20
94.999999999999929
 40
20.000000000000004
 41
1
 50
0
  1
隠塚
  0
TEXT
  8
_0-7_枠細線
 62
    5
 10
960.50000000000045
 20
158.74999999999994
 40
20.000000000000007
 41
0.5999999999999998
 50
0
  1
セーフティグレーチングスリットタイプ
  0
TEXT
  8
_0-7_枠細線
 62
    5
 10
1104.5
 20
141.25
 40
20.000000000000007
 41
0.5999999999999998
 50
0
  1
通常枠ＳＥＴ
  0
TEXT
  8
_0-7_枠細線
 62
    5
 10
960.50000000000045
 20
109.99999999999993
 40
20.000000000000007
 41
0.5749999999999998
 50
0
  1
ＧＲＳＳ－２０Ｌ６００Ａ～２０００Ａ
  0
LINE
  8
_0-7_枠細線
  6
CONTINUOUS
 62
    5
 10
1425.0000000000009
 20
952.50000000000023
 11
890.00000000000068
 21
952.50000000000023
  0
TEXT
  8
_0-7_枠細線
 62
    5
 10
895.00000000000068
 20
955.00000000000023
 40
12.5
 41
1
 50
0
  1
記号
  0
TEXT
  8
_0-7_枠細線
 62
    5
 10
996.87500000000068
 20
955.00000000000023
 40
12.5
 41
1
 50
0
  1
訂　 正　 記　 事
  0
TEXT
  8
_0-7_枠細線
 62
    5
 10
1181.2500000000007
 20
955.00000000000023
 40
12.5
 41
1
 50
0
  1
訂 正 年 月 日
  0
TEXT
  8
_0-7_枠細線
 62
    5
 10
1306.2500000000009
 20
955.00000000000023
 40
12.5
 41
1
 50
0
  1
備　　　　　考
  0
LINE
  8
_0-7_枠細線
  6
CONTINUOUS
 62
    5
 10
1425.0000000000009
 20
935.00000000000023
 11
890.00000000000068
 21
935.00000000000023
  0
LINE
  8
_0-7_枠細線
  6
CONTINUOUS
 62
    5
 10
1425.0000000000009
 20
917.50000000000023
 11
890.00000000000068
 21
917.50000000000023
  0
TEXT
  8
_0-7_枠細線
 62
    5
 10
938.85037037037091
 20
937.50000000000023
 40
12.5
 41
1
 50
0
  1
クロスバーピッチ変更
  0
TEXT
  8
_0-7_枠細線
 62
    5
 10
938.85037037037091
 20
920.00000000000023
 40
12.5
 41
1
 50
0
  1
取外具形状変更
  0
TEXT
  8
_0-7_枠細線
 62
    5
 10
1180.0000000000007
 20
937.50000000000023
 40
12.5
 41
0.7199999999999999
 50
0
  1
２０１５．１１．２０
  0
TEXT
  8
_0-7_枠細線
 62
    5
 10
1180.0000000000007
 20
920.00000000000023
 40
12.5
 41
0.7199999999999999
 50
0
  1
２０１５．１１．２０
  0
LINE
  8
_0-7_枠細線
  6
CONTINUOUS
 62
    5
 10
915.00000000000068
 20
936.4423339717473
 11
907.50000000000068
 21
951.4423339717473
  0
LINE
  8
_0-7_枠細線
  6
CONTINUOUS
 62
    5
 10
900.00000000000068
 20
936.4423339717473
 11
915.00000000000068
 21
936.4423339717473
  0
LINE
  8
_0-7_枠細線
  6
CONTINUOUS
 62
    5
 10
907.50000000000068
 20
951.4423339717473
 11
900.00000000000068
 21
936.4423339717473
  0
TEXT
  8
_0-7_枠細線
 62
    5
 10
902.36515126814879
 20
936.13533172636676
 40
12.5
 41
0.8
 50
0
  1
１
  0
TEXT
  8
_0-7_枠細線
 62
    5
 10
902.36515126814879
 20
918.63533172636676
 40
12.5
 41
0.8
 50
0
  1
２
  0
LINE
  8
_0-7_枠細線
  6
CONTINUOUS
 62
    5
 10
915.00000000000068
 20
918.9423339717473
 11
907.50000000000068
 21
933.9423339717473
  0
LINE
  8
_0-7_枠細線
  6
CONTINUOUS
 62
    5
 10
900.00000000000068
 20
918.9423339717473
 11
915.00000000000068
 21
918.9423339717473
  0
LINE
  8
_0-7_枠細線
  6
CONTINUOUS
 62
    5
 10
907.50000000000068
 20
933.9423339717473
 11
900.00000000000068
 21
918.9423339717473
  0
LINE
  8
_0-7_枠細線
  6
CONTINUOUS
 62
    5
 10
1425.0000000000009
 20
900.00000000000023
 11
890.00000000000068
 21
900.00000000000023
  0
TEXT
  8
_0-7_枠細線
 62
    5
 10
902.36515126814879
 20
900.89465008156583
 40
12.5
 41
0.8
 50
0
  1
３
  0
TEXT
  8
_0-7_枠細線
 62
    5
 10
1180.0000000000007
 20
902.50000000000023
 40
12.5
 41
0.7199999999999999
 50
0
  1
２０１７．０４．０１
  0
LINE
  8
_0-7_枠細線
  6
CONTINUOUS
 62
    5
 10
915.00000000000068
 20
883.94233397174719
 11
907.50000000000068
 21
898.94233397174719
  0
LINE
  8
_0-7_枠細線
  6
CONTINUOUS
 62
    5
 10
900.00000000000068
 20
883.94233397174719
 11
915.00000000000068
 21
883.94233397174719
  0
LINE
  8
_0-7_枠細線
  6
CONTINUOUS
 62
    5
 10
907.50000000000068
 20
898.94233397174719
 11
900.00000000000068
 21
883.94233397174719
  0
TEXT
  8
_0-7_枠細線
 62
    5
 10
1180.0000000000007
 20
885.00000000000023
 40
12.5
 41
0.7199999999999999
 50
0
  1
２０１７．０４．０１
  0
TEXT
  8
_0-7_枠細線
 62
    5
 10
938.85037037037091
 20
885.00000000000023
 40
12.5
 41
1
 50
0
  1
ブラウン色（Ｃ）追加
  0
LINE
  8
_0-7_枠細線
  6
CONTINUOUS
 62
    5
 10
1425.0000000000009
 20
882.50000000000023
 11
890.00000000000068
 21
882.50000000000023
  0
LINE
  8
_0-7_枠細線
  6
CONTINUOUS
 62
    5
 10
907.50000000000068
 20
916.44233397174719
 11
900.00000000000068
 21
901.44233397174719
  0
LINE
  8
_0-7_枠細線
  6
CONTINUOUS
 62
    5
 10
900.00000000000068
 20
901.44233397174719
 11
915.00000000000068
 21
901.44233397174719
  0
LINE
  8
_0-7_枠細線
  6
CONTINUOUS
 62
    5
 10
915.00000000000068
 20
901.44233397174719
 11
907.50000000000068
 21
916.44233397174719
  0
TEXT
  8
_0-7_枠細線
 62
    5
 10
902.36515126814879
 20
882.99351400689716
 40
12.5
 41
0.8
 50
0
  1
４
  0
TEXT
  8
_0-7_枠細線
 62
    5
 10
938.85037037037091
 20
902.50000000000023
 40
12.5
 41
1
 50
0
  1
取外具形状変更
  0
LINE
  8
_0-7_枠細線
  6
CONTINUOUS
 62
    5
 10
915.00000000000068
 20
866.4423339717473
 11
907.50000000000068
 21
881.4423339717473
  0
LINE
  8
_0-7_枠細線
  6
CONTINUOUS
 62
    5
 10
900.00000000000068
 20
866.4423339717473
 11
915.00000000000068
 21
866.4423339717473
  0
LINE
  8
_0-7_枠細線
  6
CONTINUOUS
 62
    5
 10
907.50000000000068
 20
881.4423339717473
 11
900.00000000000068
 21
866.4423339717473
  0
LINE
  8
_0-7_枠細線
  6
CONTINUOUS
 62
    5
 10
1425.0000000000009
 20
865.00000000000045
 11
890.00000000000068
 21
865.00000000000045
  0
TEXT
  8
_0-7_枠細線
 62
    5
 10
1180.0000000000007
 20
867.50000000000045
 40
12.5
 41
0.7199999999999999
 50
0
  1
２０１９．０９．０１
  0
TEXT
  8
_0-7_枠細線
 62
    5
 10
938.85037037037091
 20
867.50000000000045
 40
12.5
 41
1
 50
0
  1
アンカー材質･厚み変更
  0
TEXT
  8
_0-7_枠細線
 62
    5
 10
902.36515126814879
 20
865.49351400689727
 40
12.5
 41
0.8
 50
0
  1
５
  0
LINE
  8
_0-7_枠細線
  6
CONTINUOUS
 62
    5
 10
890.00000000000068
 20
865.00000000000023
 11
890.00000000000068
 21
969.99999999999943
  0
LINE
  8
_0-7_枠細線
  6
CONTINUOUS
 62
    5
 10
925.00000000000068
 20
865.00000000000023
 11
925.00000000000068
 21
969.99999999999943
  0
LINE
  8
_0-7_枠細線
  6
CONTINUOUS
 62
    5
 10
1175.0000000000007
 20
865.00000000000023
 11
1175.0000000000007
 21
969.99999999999943
  0
LINE
  8
_0-7_枠細線
  6
CONTINUOUS
 62
    5
 10
1275.0000000000007
 20
865.00000000000023
 11
1275.0000000000007
 21
969.99999999999943
  0
CIRCLE
  8
_0-a_極細1
  6
CONTINUOUS
 62
    7
 10
242.14209264116406
 20
265.7220573983584
 40
1.6592592592592155
  0
CIRCLE
  8
_0-a_極細1
  6
CONTINUOUS
 62
    7
 10
249.60875930783033
 20
206.52205739835892
 40
1.6592592592592155
  0
CIRCLE
  8
_0-a_極細1
  6
CONTINUOUS
 62
    7
 10
188.00875930783127
 20
204.3887240650256
 40
1.6592592592592155
  0
CIRCLE
  8
_0-a_極細1
  6
CONTINUOUS
 62
    7
 10
222.80875930783097
 20
162.38872406502608
 40
1.6592592592592155
  0
CIRCLE
  8
_0-a_極細1
  6
CONTINUOUS
 62
    7
 10
239.20875930783112
 20
227.43224258354417
 40
5.4765944180441757
  0
CIRCLE
  8
_0-a_極細1
  6
CONTINUOUS
 62
    7
 10
231.32542597449785
 20
149.78224258354521
 40
5.4765944180441757
  0
CIRCLE
  8
_0-a_極細1
  6
CONTINUOUS
 62
    7
 10
186.14209264116354
 20
153.67761295391551
 40
1.6592592592592155
  0
CIRCLE
  8
_0-a_極細1
  6
CONTINUOUS
 62
    7
 10
291.14209264358533
 20
125.54294774799907
 40
1.6592592592592155
  0
CIRCLE
  8
_0-a_極細1
  6
CONTINUOUS
 62
    7
 10
168.61821545576433
 20
88.277612952407267
 40
1.6592592592592155
  0
LINE
  8
_0-d_寸法1
  6
CONTINUOUS
 62
    7
 10
255.99281103160797
 20
207.1923817039341
 11
108.14271779583962
 21
207.1923817039341
  0
LINE
  8
_0-d_寸法1
  6
CONTINUOUS
 62
    7
 10
113.14271779583962
 20
207.1923817039341
 11
115.73090824686481
 21
197.53312344104344
  0
LINE
  8
_0-d_寸法1
  6
CONTINUOUS
 62
    7
 10
113.14271779583962
 20
207.1923817039341
 11
110.55452734481442
 21
197.53312344104344
  0
LINE
  8
_0-d_寸法1
  6
CONTINUOUS
 62
    7
 10
249.99281103160797
 20
92.192381703933961
 11
108.14271779584011
 21
92.192381703933961
  0
LINE
  8
_0-d_寸法1
  6
CONTINUOUS
 62
    7
 10
113.14271779584011
 20
92.192381703933961
 11
110.55452734481484
 21
101.85163996682462
  0
LINE
  8
_0-d_寸法1
  6
CONTINUOUS
 62
    7
 10
113.14271779584011
 20
92.192381703933961
 11
115.73090824686531
 21
101.85163996682462
  0
LINE
  8
_0-d_寸法1
  6
CONTINUOUS
 62
    7
 10
113.14271779583962
 20
207.1923817039341
 11
113.14271779584011
 21
92.192381703933961
  0
TEXT
  8
_0-d_寸法1
 62
    7
 10
113.14271779584011
 20
142.19238170393419
 40
15
 41
1
 50
90
  1
23
  0
CIRCLE
  8
_0-a_極細1
  6
CONTINUOUS
 62
    7
 10
732.37686275538624
 20
206.52205739835892
 40
1.6592592592592155
  0
CIRCLE
  8
_0-a_極細1
  6
CONTINUOUS
 62
    7
 10
793.97686275538547
 20
204.3887240650256
 40
1.6592592592592155
  0
CIRCLE
  8
_0-a_極細1
  6
CONTINUOUS
 62
    7
 10
759.17686275538574
 20
162.38872406502608
 40
1.6592592592592155
  0
CIRCLE
  8
_0-a_極細1
  6
CONTINUOUS
 62
    7
 10
742.77686275538576
 20
227.43224258354417
 40
5.4765944180441757
  0
CIRCLE
  8
_0-a_極細1
  6
CONTINUOUS
 62
    7
 10
750.66019608871886
 20
149.78224258354521
 40
5.4765944180441757
  0
CIRCLE
  8
_0-a_極細1
  6
CONTINUOUS
 62
    7
 10
795.84352942205305
 20
153.67761295391551
 40
1.6592592592592155
  0
CIRCLE
  8
_0-a_極細1
  6
CONTINUOUS
 62
    7
 10
690.8435294196313
 20
125.54294774799907
 40
1.6592592592592155
  0
CIRCLE
  8
_0-a_極細1
  6
CONTINUOUS
 62
    7
 10
813.36740660745227
 20
88.277612952407267
 40
1.6592592592592155
  0
CIRCLE
  8
_0-a_極細1
  6
CONTINUOUS
 62
    7
 10
206.00875930783133
 20
280.78872406502478
 40
1.6592592592592155
  0
LINE
  8
_0-a_極細1
  6
CONTINUOUS
 62
    7
 10
240.99281103160797
 20
322.19238170393464
 11
240.99281103160797
 21
287.19238170393442
  0
LINE
  8
_0-a_極細1
  6
CONTINUOUS
 62
    7
 10
265.99281103160848
 20
322.19238170393464
 11
240.99281103160797
 21
322.19238170393464
  0
LINE
  8
_0-a_極細1
  6
CONTINUOUS
 62
    7
 10
265.99281103160848
 20
319.69238170393442
 11
265.99281103160848
 21
322.19238170393464
  0
LINE
  8
_0-a_極細1
  6
CONTINUOUS
 62
    7
 10
240.99281103160848
 20
298.19964054610864
 11
252.00006987378288
 21
287.19238170393442
  0
LINE
  8
_0-a_極細1
  6
CONTINUOUS
 62
    7
 10
240.99281103160848
 20
310.92756260746614
 11
264.72799193514021
 21
287.19238170393442
  0
LINE
  8
_0-a_極細1
  6
CONTINUOUS
 62
    7
 10
265.99281103160848
 20
298.65548466882478
 11
242.45591399649788
 21
322.19238170393464
  0
LINE
  8
_0-a_極細1
  6
CONTINUOUS
 62
    7
 10
265.99281103160848
 20
311.38340673018229
 11
255.18383605785658
 21
322.19238170393419
  0
LINE
  8
_0-a_極細1
  6
CONTINUOUS
 62
    7
 10
240.99281103160797
 20
317.66441507541799
 11
245.52077766012488
 21
322.19238170393464
  0
LINE
  8
_0-a_極細1
  6
CONTINUOUS
 62
    7
 10
240.99281103160797
 20
304.93649301406003
 11
258.24869972148213
 21
322.19238170393464
  0
LINE
  8
_0-a_極細1
  6
CONTINUOUS
 62
    7
 10
240.99281103160797
 20
292.20857095270253
 11
265.99281103160848
 21
317.2085709527023
  0
LINE
  8
_0-a_極細1
  6
CONTINUOUS
 62
    7
 10
248.7045438441985
 20
287.19238170393442
 11
265.99281103160848
 21
304.48064889134457
  0
LINE
  8
_0-a_極細1
  6
CONTINUOUS
 62
    7
 10
261.43246590555577
 20
287.19238170393442
 11
265.99281103160848
 21
291.75272682998661
  0
LINE
  8
_0-a_極細1
  6
CONTINUOUS
 62
    7
 10
240.99281103160797
 20
322.19238170393464
 11
158.14271779583942
 21
322.19238170393464
  0
LINE
  8
_0-a_極細1
  6
CONTINUOUS
 62
    7
 10
265.99281103160848
 20
287.19238170393442
 11
158.14271779583942
 21
287.19238170393442
  0
LINE
  8
_0-a_極細1
  6
CONTINUOUS
 62
    7
 10
187.77019653391767
 20
287.19238170393442
 11
222.77019564924174
 21
322.19238081925846
  0
LINE
  8
_0-a_極細1
  6
CONTINUOUS
 62
    7
 10
158.14271779583942
 20
321.20451327264504
 11
159.13058584029864
 21
322.19238131710404
  0
LINE
  8
_0-a_極細1
  6
DASHED2
 62
    7
 10
219.59000168731222
 20
287.19238170393442
 11
240.99281103160797
 21
308.59519104822994
  0
LINE
  8
_0-a_極細1
  6
DASHED2
 62
    7
 10
158.14271779583942
 20
289.38470811925083
 11
190.95039074476949
 21
322.19238106818102
  0
LINE
  8
_0-d_寸法1
  6
CONTINUOUS
 62
    7
 10
255.99281103160749
 20
322.19238170393459
 11
108.1427177958394
 21
322.19238170393453
  0
LINE
  8
_0-d_寸法1
  6
CONTINUOUS
 62
    7
 10
113.1427177958394
 20
322.19238170393453
 11
115.7309082468646
 21
312.53312344104381
  0
LINE
  8
_0-d_寸法1
  6
CONTINUOUS
 62
    7
 10
113.1427177958394
 20
322.19238170393453
 11
110.5545273448142
 21
312.53312344104387
  0
LINE
  8
_0-d_寸法1
  6
CONTINUOUS
 62
    7
 10
249.99281103160754
 20
207.19238170393436
 11
108.1427177958399
 21
207.19238170393436
  0
LINE
  8
_0-d_寸法1
  6
CONTINUOUS
 62
    7
 10
113.1427177958399
 20
207.1923817039343
 11
110.55452734481463
 21
216.85163996682502
  0
LINE
  8
_0-d_寸法1
  6
CONTINUOUS
 62
    7
 10
113.1427177958399
 20
207.1923817039343
 11
115.73090824686503
 21
216.85163996682502
  0
LINE
  8
_0-d_寸法1
  6
CONTINUOUS
 62
    7
 10
113.1427177958394
 20
322.19238170393453
 11
113.1427177958399
 21
207.1923817039343
  0
TEXT
  8
_0-d_寸法1
 62
    7
 10
113.14271779583962
 20
257.19238170393453
 40
15
 41
1
 50
90
  1
23
  0
CIRCLE
  8
_0-a_極細1
  6
CONTINUOUS
 62
    7
 10
775.97686275538547
 20
280.78872406502478
 40
1.6592592592592155
  0
LINE
  8
_0-a_極細1
  6
CONTINUOUS
 62
    7
 10
740.99281103160877
 20
322.19238170393464
 11
740.99281103160877
 21
287.19238170393442
  0
LINE
  8
_0-a_極細1
  6
CONTINUOUS
 62
    7
 10
715.99281103160831
 20
322.19238170393464
 11
740.99281103160877
 21
322.19238170393464
  0
LINE
  8
_0-a_極細1
  6
CONTINUOUS
 62
    7
 10
715.99281103160831
 20
319.69238170393442
 11
715.99281103160831
 21
322.19238170393464
  0
LINE
  8
_0-a_極細1
  6
CONTINUOUS
 62
    7
 10
740.99281103160808
 20
298.19964054610864
 11
729.98555218943397
 21
287.19238170393442
  0
LINE
  8
_0-a_極細1
  6
CONTINUOUS
 62
    7
 10
740.99281103160808
 20
310.92756260746614
 11
717.25763012807658
 21
287.19238170393442
  0
LINE
  8
_0-a_極細1
  6
CONTINUOUS
 62
    7
 10
715.99281103160831
 20
298.65548466882478
 11
739.52970806671885
 21
322.19238170393464
  0
LINE
  8
_0-a_極細1
  6
CONTINUOUS
 62
    7
 10
715.99281103160831
 20
311.38340673018229
 11
726.80178600536021
 21
322.19238170393419
  0
LINE
  8
_0-a_極細1
  6
CONTINUOUS
 62
    7
 10
740.99281103160877
 20
317.66441507541799
 11
736.464844403092
 21
322.19238170393464
  0
LINE
  8
_0-a_極細1
  6
CONTINUOUS
 62
    7
 10
740.99281103160877
 20
304.93649301406003
 11
723.73692234173461
 21
322.19238170393464
  0
LINE
  8
_0-a_極細1
  6
CONTINUOUS
 62
    7
 10
740.99281103160877
 20
292.20857095270253
 11
715.99281103160831
 21
317.2085709527023
  0
LINE
  8
_0-a_極細1
  6
CONTINUOUS
 62
    7
 10
733.28107821901824
 20
287.19238170393442
 11
715.99281103160831
 21
304.48064889134457
  0
LINE
  8
_0-a_極細1
  6
CONTINUOUS
 62
    7
 10
720.55315615766108
 20
287.19238170393442
 11
715.99281103160831
 21
291.75272682998661
  0
LINE
  8
_0-a_極細1
  6
CONTINUOUS
 62
    7
 10
740.99281103160877
 20
322.19238170393464
 11
822.3036211166293
 21
322.19238170393464
  0
LINE
  8
_0-a_極細1
  6
CONTINUOUS
 62
    7
 10
715.99281103160831
 20
287.19238170393442
 11
822.3036211166293
 21
287.19238170393442
  0
LINE
  8
_0-a_極細1
  6
CONTINUOUS
 62
    7
 10
819.081006618939
 20
287.19238170393442
 11
822.3036211166293
 21
290.41499620162472
  0
LINE
  8
_0-a_極細1
  6
CONTINUOUS
 62
    7
 10
755.44139631214978
 20
287.19238170393442
 11
790.44139592531997
 21
322.19238131710404
  0
LINE
  8
_0-a_極細1
  6
DASHED2
 62
    7
 10
787.26120146554433
 20
287.19238170393442
 11
822.26120082979082
 21
322.19238106818102
  0
LINE
  8
_0-a_極細1
  6
DASHED2
 62
    7
 10
740.99281103160808
 20
304.56360157678728
 11
758.62159102084763
 21
322.19238156602637
  0
LINE
  8
_0-d_寸法1
  6
CONTINUOUS
 62
    7
 10
265.99281103160848
 20
332.19238170393464
 11
265.99281103160848
 21
435.27764711183409
  0
LINE
  8
_0-d_寸法1
  6
CONTINUOUS
 62
    7
 10
265.99281103160848
 20
430.27764711183409
 11
275.65206929449914
 21
432.86583756285927
  0
LINE
  8
_0-d_寸法1
  6
CONTINUOUS
 62
    7
 10
265.99281103160848
 20
430.27764711183409
 11
275.65206929449914
 21
427.68945666080896
  0
LINE
  8
_0-d_寸法1
  6
CONTINUOUS
 62
    7
 10
715.99281103160831
 20
332.19238170393464
 11
715.99281103160843
 21
435.27764711183409
  0
LINE
  8
_0-d_寸法1
  6
CONTINUOUS
 62
    7
 10
715.99281103160843
 20
430.27764711183409
 11
706.33355276871771
 21
427.68945666080896
  0
LINE
  8
_0-d_寸法1
  6
CONTINUOUS
 62
    7
 10
715.99281103160843
 20
430.27764711183409
 11
706.33355276871771
 21
432.86583756285938
  0
LINE
  8
_0-d_寸法1
  6
CONTINUOUS
 62
    7
 10
265.99281103160848
 20
430.27764711183409
 11
715.99281103160843
 21
430.27764711183409
  0
TEXT
  8
_0-d_寸法1
 62
    7
 10
483.49281103160848
 20
430.27764711183409
 40
15
 41
1
 50
0
  1
90
  0
LINE
  8
_0-d_寸法1
  6
CONTINUOUS
 62
    7
 10
288.4928128685176
 20
316.19238170393396
 11
288.4928128685176
 21
400.27764711183409
  0
LINE
  8
_0-d_寸法1
  6
CONTINUOUS
 62
    7
 10
288.4928128685176
 20
395.27764711183409
 11
298.15207113140832
 21
397.86583756285921
  0
LINE
  8
_0-d_寸法1
  6
CONTINUOUS
 62
    7
 10
288.4928128685176
 20
395.27764711183409
 11
298.15207113140832
 21
392.6894566608089
  0
LINE
  8
_0-d_寸法1
  6
CONTINUOUS
 62
    7
 10
280.9928128685176
 20
329.69238170393447
 11
280.9928128685176
 21
400.27764711183409
  0
CIRCLE
  8
_0-d_寸法1
  6
CONTINUOUS
 62
    1
 10
280.9928128685176
 20
395.27764711183409
 40
1.5000000000000002
  0
LINE
  8
_0-d_寸法1
  6
CONTINUOUS
 62
    7
 10
313.4928128685176
 20
395.27764711183409
 11
280.9928128685176
 21
395.27764711183409
  0
TEXT
  8
_0-d_寸法1
 62
    7
 10
280.89999999999986
 20
395.27764711183409
 40
15
 41
1
 50
0
  1
1.5
  0
LINE
  8
_0-d_寸法1
  6
CONTINUOUS
 62
    7
 10
265.9928128685176
 20
332.19238170393464
 11
265.9928128685176
 21
400.27764711183409
  0
LINE
  8
_0-d_寸法1
  6
CONTINUOUS
 62
    7
 10
265.9928128685176
 20
395.27764711183409
 11
256.33355460562689
 21
392.68945666080896
  0
LINE
  8
_0-d_寸法1
  6
CONTINUOUS
 62
    7
 10
265.9928128685176
 20
395.27764711183409
 11
256.333554605627
 21
397.86583756285938
  0
LINE
  8
_0-d_寸法1
  6
CONTINUOUS
 62
    7
 10
280.9928128685176
 20
395.27764711183409
 11
240.99281286851763
 21
395.27764711183409
  0
TEXT
  8
_0-d_寸法1
 62
    7
 10
247.59187390012562
 20
395.27764711183409
 40
15
 41
1
 50
0
  1
3
  0
LINE
  8
_0-d_寸法1
  6
CONTINUOUS
 62
    7
 10
693.49281103160831
 20
316.19238170393396
 11
693.49281103160843
 21
400.27764711183409
  0
LINE
  8
_0-d_寸法1
  6
CONTINUOUS
 62
    7
 10
693.49281103160843
 20
395.27764711183409
 11
683.83355276871771
 21
392.68945666080896
  0
LINE
  8
_0-d_寸法1
  6
CONTINUOUS
 62
    7
 10
693.49281103160843
 20
395.27764711183409
 11
683.83355276871771
 21
397.86583756285938
  0
LINE
  8
_0-d_寸法1
  6
CONTINUOUS
 62
    7
 10
700.99281103160831
 20
329.69238170393447
 11
700.99281103160843
 21
400.27764711183409
  0
CIRCLE
  8
_0-d_寸法1
  6
CONTINUOUS
 62
    1
 10
700.99281103160843
 20
395.27764711183409
 40
1.5000000000000002
  0
LINE
  8
_0-d_寸法1
  6
CONTINUOUS
 62
    7
 10
668.49281103160843
 20
395.27764711183409
 11
700.99281103160843
 21
395.27764711183409
  0
TEXT
  8
_0-d_寸法1
 62
    7
 10
678.69999999999982
 20
395.27764711183409
 40
15
 41
1
 50
0
  1
1.5
  0
LINE
  8
_0-d_寸法1
  6
CONTINUOUS
 62
    7
 10
715.99281103160831
 20
332.19238170393464
 11
715.99281103160843
 21
400.27764711183409
  0
LINE
  8
_0-d_寸法1
  6
CONTINUOUS
 62
    7
 10
715.99281103160843
 20
395.27764711183409
 11
725.65206929449914
 21
397.86583756285921
  0
LINE
  8
_0-d_寸法1
  6
CONTINUOUS
 62
    7
 10
715.99281103160843
 20
395.27764711183409
 11
725.65206929449914
 21
392.6894566608089
  0
LINE
  8
_0-d_寸法1
  6
CONTINUOUS
 62
    7
 10
700.99281103160843
 20
395.27764711183409
 11
740.99281103160843
 21
395.27764711183409
  0
TEXT
  8
_0-d_寸法1
 62
    7
 10
726.8937500000003
 20
395.27764711183409
 40
15
 41
1
 50
0
  1
3
  0
LINE
  8
_0-d_寸法1
  6
CONTINUOUS
 62
    7
 10
288.4928110316082
 20
316.19238170393396
 11
288.49281103160848
 21
400.27764711183409
  0
LINE
  8
_0-d_寸法1
  6
CONTINUOUS
 62
    7
 10
288.49281103160848
 20
395.27764711183409
 11
298.15206929449914
 21
397.86583756285927
  0
LINE
  8
_0-d_寸法1
  6
CONTINUOUS
 62
    7
 10
288.49281103160848
 20
395.27764711183409
 11
298.15206929449914
 21
392.68945666080896
  0
LINE
  8
_0-d_寸法1
  6
CONTINUOUS
 62
    7
 10
693.49281103160831
 20
316.19238170393396
 11
693.49281103160843
 21
400.27764711183409
  0
LINE
  8
_0-d_寸法1
  6
CONTINUOUS
 62
    7
 10
693.49281103160843
 20
395.27764711183409
 11
683.83355276871771
 21
392.68945666080896
  0
LINE
  8
_0-d_寸法1
  6
CONTINUOUS
 62
    7
 10
693.49281103160843
 20
395.27764711183409
 11
683.83355276871771
 21
397.86583756285938
  0
LINE
  8
_0-d_寸法1
  6
CONTINUOUS
 62
    7
 10
288.49281103160848
 20
395.27764711183409
 11
693.49281103160843
 21
395.27764711183409
  0
TEXT
  8
_0-d_寸法1
 62
    7
 10
483.49281103160848
 20
395.27764711183409
 40
15
 41
1
 50
0
  1
81
  0
CIRCLE
  8
_0-a_極細1
  6
CONTINUOUS
 62
    7
 10
276.90875930782954
 20
173.1553907316929
 40
1.6592592592592155
  0
CIRCLE
  8
_0-a_極細1
  6
CONTINUOUS
 62
    7
 10
289.17542597449511
 20
98.222057398360221
 40
1.6592592592592155
  0
CIRCLE
  8
_0-a_極細1
  6
CONTINUOUS
 62
    7
 10
323.72357412264341
 20
133.51262636243632
 40
1.6592592592592155
  0
LINE
  8
_0-a_極細1
  6
CONTINUOUS
 62
    7
 10
338.49281103160985
 20
207.19238170393442
 11
340.99281103160888
 21
207.19238170393442
  0
CIRCLE
  8
_0-a_極細1
  6
CONTINUOUS
 62
    7
 10
321.03653708560819
 20
167.11557591688006
 40
5.4765944180441757
  0
LINE
  8
_0-a_極細1
  6
CONTINUOUS
 62
    7
 10
340.99281103160888
 20
207.19238170393442
 11
340.99281103160888
 21
89.295220334362284
  0
ARC
  8
_0-b_細線1
  6
CONTINUOUS
 62
    7
 10
280.992812562366
 20
222.19238170393442
 40
15.000000000000004
 50
179.99999999999983
 51
269.99999999999977
  0
LINE
  8
_0-b_細線1
  6
CONTINUOUS
 62
    7
 10
265.992812562366
 20
222.19238170393442
 11
265.992812562366
 21
319.69238170393442
  0
LINE
  8
_0-b_細線1
  6
CONTINUOUS
 62
    7
 10
280.992812562366
 20
207.19238170393442
 11
338.49281256236577
 21
207.19238170393442
  0
LINE
  8
_0-b_細線1
  6
CONTINUOUS
 62
    7
 10
340.992812562366
 20
209.69238170393442
 11
338.49281256236577
 21
207.19238170393442
  0
LINE
  8
_0-b_細線1
  6
CONTINUOUS
 62
    7
 10
340.992812562366
 20
219.69238170393442
 11
340.992812562366
 21
209.69238170393442
  0
LINE
  8
_0-b_細線1
  6
CONTINUOUS
 62
    7
 10
338.49281256236577
 20
222.19238170393442
 11
340.992812562366
 21
219.69238170393442
  0
LINE
  8
_0-b_細線1
  6
CONTINUOUS
 62
    7
 10
280.992812562366
 20
222.19238170393442
 11
338.49281256236577
 21
222.19238170393442
  0
LINE
  8
_0-b_細線1
  6
CONTINUOUS
 62
    7
 10
268.49281256236577
 20
322.19238170393447
 11
265.992812562366
 21
319.69238170393442
  0
LINE
  8
_0-b_細線1
  6
CONTINUOUS
 62
    7
 10
278.49281256236577
 20
322.19238170393447
 11
268.49281256236577
 21
322.19238170393447
  0
LINE
  8
_0-b_細線1
  6
CONTINUOUS
 62
    7
 10
280.992812562366
 20
319.69238170393442
 11
278.49281256236577
 21
322.19238170393447
  0
LINE
  8
_0-b_細線1
  6
CONTINUOUS
 62
    7
 10
280.992812562366
 20
222.19238170393442
 11
280.992812562366
 21
319.69238170393442
  0
CIRCLE
  8
_0-a_極細1
  6
CONTINUOUS
 62
    7
 10
705.07686275538708
 20
173.1553907316929
 40
1.6592592592592155
  0
CIRCLE
  8
_0-a_極細1
  6
CONTINUOUS
 62
    7
 10
692.81019608872145
 20
98.222057398360221
 40
1.6592592592592155
  0
CIRCLE
  8
_0-a_極細1
  6
CONTINUOUS
 62
    7
 10
658.26204794057321
 20
133.51262636243632
 40
1.6592592592592155
  0
LINE
  8
_0-a_極細1
  6
CONTINUOUS
 62
    7
 10
643.49281103160683
 20
207.19238170393442
 11
640.99281103160763
 21
207.19238170393442
  0
LINE
  8
_0-a_極細1
  6
CONTINUOUS
 62
    7
 10
640.99281103160763
 20
207.19238170393442
 11
640.99281103160763
 21
89.295220334362284
  0
CIRCLE
  8
_0-a_極細1
  6
CONTINUOUS
 62
    7
 10
660.94908497760866
 20
167.11557591688006
 40
5.4765944180441757
  0
ARC
  8
_0-b_細線1
  6
CONTINUOUS
 62
    7
 10
700.99281103160831
 20
222.19238170393442
 40
15.000000000000004
 50
269.99999999999977
 51
359.99999999999966
  0
LINE
  8
_0-b_細線1
  6
CONTINUOUS
 62
    7
 10
715.99281103160831
 20
222.19238170393442
 11
715.99281103160831
 21
319.69238170393442
  0
LINE
  8
_0-b_細線1
  6
CONTINUOUS
 62
    7
 10
700.99281103160831
 20
207.19238170393442
 11
643.49281103160843
 21
207.19238170393442
  0
LINE
  8
_0-b_細線1
  6
CONTINUOUS
 62
    7
 10
640.9928110316082
 20
209.69238170393442
 11
643.49281103160843
 21
207.19238170393442
  0
LINE
  8
_0-b_細線1
  6
CONTINUOUS
 62
    7
 10
640.9928110316082
 20
219.69238170393442
 11
640.9928110316082
 21
209.69238170393442
  0
LINE
  8
_0-b_細線1
  6
CONTINUOUS
 62
    7
 10
643.49281103160843
 20
222.19238170393442
 11
640.9928110316082
 21
219.69238170393442
  0
LINE
  8
_0-b_細線1
  6
CONTINUOUS
 62
    7
 10
700.99281103160831
 20
222.19238170393442
 11
643.49281103160843
 21
222.19238170393442
  0
LINE
  8
_0-b_細線1
  6
CONTINUOUS
 62
    7
 10
713.49281103160843
 20
322.19238170393447
 11
715.99281103160831
 21
319.69238170393442
  0
LINE
  8
_0-b_細線1
  6
CONTINUOUS
 62
    7
 10
703.49281103160843
 20
322.19238170393447
 11
713.49281103160843
 21
322.19238170393447
  0
LINE
  8
_0-b_細線1
  6
CONTINUOUS
 62
    7
 10
700.99281103160831
 20
319.69238170393442
 11
703.49281103160843
 21
322.19238170393447
  0
LINE
  8
_0-b_細線1
  6
CONTINUOUS
 62
    7
 10
700.99281103160831
 20
222.19238170393442
 11
700.99281103160831
 21
319.69238170393442
  0
LINE
  8
_0-d_寸法1
  6
CONTINUOUS
 62
    7
 10
549.49281103893441
 20
332.19238170393447
 11
549.49281103893452
 21
373.23451439578122
  0
LINE
  8
_0-d_寸法1
  6
CONTINUOUS
 62
    7
 10
549.49281103893452
 20
368.23451439578122
 11
559.15206930182524
 21
370.8227048468064
  0
LINE
  8
_0-d_寸法1
  6
CONTINUOUS
 62
    7
 10
549.49281103893452
 20
368.23451439578122
 11
559.15206930182524
 21
365.64632394475603
  0
LINE
  8
_0-d_寸法1
  6
CONTINUOUS
 62
    7
 10
606.49281102789905
 20
332.19238170393447
 11
606.49281102789917
 21
373.23451439578122
  0
LINE
  8
_0-d_寸法1
  6
CONTINUOUS
 62
    7
 10
606.49281102789917
 20
368.23451439578122
 11
596.83355276500845
 21
365.64632394475603
  0
LINE
  8
_0-d_寸法1
  6
CONTINUOUS
 62
    7
 10
606.49281102789917
 20
368.23451439578122
 11
596.83355276500845
 21
370.82270484680646
  0
LINE
  8
_0-d_寸法1
  6
CONTINUOUS
 62
    7
 10
549.49281103893452
 20
368.23451439578122
 11
606.49281102789917
 21
368.23451439578122
  0
TEXT
  8
_0-d_寸法1
 62
    7
 10
562.99281103341684
 20
368.23451439578122
 40
15
 41
1
 50
0
  1
11.4
  0
LINE
  8
_0-d_寸法1
  6
CONTINUOUS
 62
    7
 10
606.49281102789917
 20
368.23451439578122
 11
616.15206929079
 21
370.82270484680635
  0
LINE
  8
_0-d_寸法1
  6
CONTINUOUS
 62
    7
 10
606.49281102789917
 20
368.23451439578122
 11
616.15206929079
 21
365.64632394475603
  0
LINE
  8
_0-d_寸法1
  6
CONTINUOUS
 62
    7
 10
636.49281104074339
 20
332.19238170393447
 11
636.4928110407435
 21
373.23451439578122
  0
LINE
  8
_0-d_寸法1
  6
CONTINUOUS
 62
    7
 10
636.4928110407435
 20
368.23451439578122
 11
626.83355277785279
 21
365.64632394475603
  0
LINE
  8
_0-d_寸法1
  6
CONTINUOUS
 62
    7
 10
636.4928110407435
 20
368.23451439578122
 11
626.83355277785279
 21
370.82270484680646
  0
LINE
  8
_0-d_寸法1
  6
CONTINUOUS
 62
    7
 10
606.49281102789917
 20
368.23451439578122
 11
636.4928110407435
 21
368.23451439578122
  0
TEXT
  8
_0-d_寸法1
 62
    7
 10
617.54583333333278
 20
353.23451439578122
 40
15
 41
1
 50
0
  1
6
  0
ARC
  8
_0-b_細線1
  6
CONTINUOUS
 62
    7
 10
293.49281103350819
 20
312.19238170393442
 40
4.9999999999999991
 50
89.999999999999915
 51
179.99999999999983
  0
ARC
  8
_0-b_細線1
  6
CONTINUOUS
 62
    7
 10
295.83255699014626
 20
322.19238170393487
 40
4.9999999999999991
 50
269.99999999999977
 51
329.99999999998744
  0
ARC
  8
_0-b_細線1
  6
CONTINUOUS
 62
    7
 10
304.49281102798932
 20
317.19238170393533
 40
4.9999999999999991
 50
89.999999999999915
 51
150.00000000000915
  0
LINE
  8
_0-b_細線1
  6
CONTINUOUS
 62
    7
 10
293.49281103350819
 20
317.19238170393533
 11
295.83255699014626
 21
317.19238170393533
  0
ARC
  8
_0-b_細線1
  6
CONTINUOUS
 62
    7
 10
340.49281102247232
 20
312.19238170393442
 40
4.9999999999999991
 50
0
 51
89.999999999999915
  0
ARC
  8
_0-b_細線1
  6
CONTINUOUS
 62
    7
 10
338.1530650658342
 20
322.19238170393487
 40
4.9999999999999991
 50
210.00000000000404
 51
269.99999999999977
  0
ARC
  8
_0-b_細線1
  6
CONTINUOUS
 62
    7
 10
329.49281102799114
 20
317.19238170393533
 40
4.9999999999999991
 50
29.999999999998682
 51
89.999999999999915
  0
LINE
  8
_0-b_細線1
  6
CONTINUOUS
 62
    7
 10
340.49281102247232
 20
317.19238170393533
 11
338.1530650658342
 21
317.19238170393533
  0
ARC
  8
_0-b_細線1
  6
CONTINUOUS
 62
    7
 10
290.99281103350904
 20
305.19238170393533
 40
2.4999999999999996
 50
179.99999999999983
 51
269.99999999999977
  0
LINE
  8
_0-b_細線1
  6
CONTINUOUS
 62
    7
 10
288.49281103350859
 20
312.19238170393442
 11
288.49281103350859
 21
305.19238170393533
  0
ARC
  8
_0-b_細線1
  6
CONTINUOUS
 62
    7
 10
342.99281102247141
 20
305.19238170393533
 40
2.4999999999999996
 50
269.99999999999977
 51
359.99999999999966
  0
LINE
  8
_0-b_細線1
  6
CONTINUOUS
 62
    7
 10
345.49281102247187
 20
312.19238170393442
 11
345.49281102247187
 21
305.19238170393533
  0
ARC
  8
_0-b_細線1
  6
CONTINUOUS
 62
    7
 10
303.49281103350859
 20
297.69238170393533
 40
4.9999999999999991
 50
0
 51
89.999999999999915
  0
LINE
  8
_0-b_細線1
  6
CONTINUOUS
 62
    7
 10
303.49281103350859
 20
302.69238170393487
 11
290.99281103350904
 21
302.69238170393487
  0
ARC
  8
_0-b_細線1
  6
CONTINUOUS
 62
    7
 10
330.49281103350859
 20
297.69238170393533
 40
4.9999999999999991
 50
89.999999999999915
 51
179.99999999999983
  0
LINE
  8
_0-b_細線1
  6
CONTINUOUS
 62
    7
 10
330.49281102247187
 20
302.69238170393487
 11
342.99281102247141
 21
302.69238170393487
  0
LINE
  8
_0-b_細線1
  6
CONTINUOUS
 62
    7
 10
329.49281102799114
 20
322.19238170393487
 11
304.49281102798932
 21
322.19238170393487
  0
LINE
  8
_0-b_細線1
  6
CONTINUOUS
 62
    7
 10
308.49281102798983
 20
222.19238170393442
 11
308.49281103350819
 21
297.69238170393533
  0
LINE
  8
_0-b_細線1
  6
CONTINUOUS
 62
    7
 10
325.49281102799068
 20
222.19238170393442
 11
325.49281103350904
 21
297.69238170393533
  0
LINE
  8
_0-b_細線1
  6
CONTINUOUS
 62
    7
 10
325.49281102799068
 20
222.19238170393442
 11
308.49281102798983
 21
222.19238170393442
  0
ARC
  8
_0-b_細線1
  6
CONTINUOUS
 62
    7
 10
380.49281103531712
 20
312.19238170393442
 40
4.9999999999999991
 50
89.999999999999915
 51
179.99999999999983
  0
ARC
  8
_0-b_細線1
  6
CONTINUOUS
 62
    7
 10
382.83255699195388
 20
322.19238170393487
 40
4.9999999999999991
 50
269.99999999999977
 51
329.99999999999523
  0
ARC
  8
_0-b_細線1
  6
CONTINUOUS
 62
    7
 10
391.49281102979836
 20
317.19238170393533
 40
4.9999999999999991
 50
89.999999999999915
 51
150.00000000000915
  0
LINE
  8
_0-b_細線1
  6
CONTINUOUS
 62
    7
 10
380.49281103531712
 20
317.19238170393533
 11
382.83255699195388
 21
317.19238170393533
  0
ARC
  8
_0-b_細線1
  6
CONTINUOUS
 62
    7
 10
427.49281102428137
 20
312.19238170393442
 40
4.9999999999999991
 50
0
 51
89.999999999999915
  0
ARC
  8
_0-b_細線1
  6
CONTINUOUS
 62
    7
 10
425.1530650676446
 20
322.19238170393487
 40
4.9999999999999991
 50
209.99999999999622
 51
269.99999999999977
  0
ARC
  8
_0-b_細線1
  6
CONTINUOUS
 62
    7
 10
416.49281102979876
 20
317.19238170393533
 40
4.9999999999999991
 50
29.999999999990862
 51
89.999999999984354
  0
LINE
  8
_0-b_細線1
  6
CONTINUOUS
 62
    7
 10
427.49281102428137
 20
317.19238170393533
 11
425.1530650676446
 21
317.19238170393533
  0
ARC
  8
_0-b_細線1
  6
CONTINUOUS
 62
    7
 10
377.99281103531666
 20
305.19238170393533
 40
2.4999999999999996
 50
179.99999999999983
 51
269.99999999999977
  0
LINE
  8
_0-b_細線1
  6
CONTINUOUS
 62
    7
 10
375.49281103531621
 20
312.19238170393442
 11
375.49281103531621
 21
305.19238170393533
  0
ARC
  8
_0-b_細線1
  6
CONTINUOUS
 62
    7
 10
429.9928110242804
 20
305.19238170393533
 40
2.4999999999999996
 50
269.99999999999977
 51
359.99999999999966
  0
LINE
  8
_0-b_細線1
  6
CONTINUOUS
 62
    7
 10
432.49281102428228
 20
312.19238170393442
 11
432.49281102428228
 21
305.19238170393533
  0
ARC
  8
_0-b_細線1
  6
CONTINUOUS
 62
    7
 10
390.49281103531627
 20
297.69238170393533
 40
4.9999999999999991
 50
0
 51
89.999999999999915
  0
LINE
  8
_0-b_細線1
  6
CONTINUOUS
 62
    7
 10
390.49281103531627
 20
302.69238170393487
 11
377.99281103531666
 21
302.69238170393487
  0
ARC
  8
_0-b_細線1
  6
CONTINUOUS
 62
    7
 10
417.49281103531757
 20
297.69238170393533
 40
4.9999999999999991
 50
89.999999999999915
 51
179.99999999999983
  0
LINE
  8
_0-b_細線1
  6
CONTINUOUS
 62
    7
 10
417.49281102428085
 20
302.69238170393487
 11
429.9928110242804
 21
302.69238170393487
  0
LINE
  8
_0-b_細線1
  6
CONTINUOUS
 62
    7
 10
416.49281102979876
 20
322.19238170393487
 11
391.49281102979836
 21
322.19238170393487
  0
LINE
  8
_0-b_細線1
  6
CONTINUOUS
 62
    7
 10
395.49281102980018
 20
222.19238170393442
 11
395.49281103531712
 21
297.69238170393533
  0
LINE
  8
_0-b_細線1
  6
CONTINUOUS
 62
    7
 10
412.49281102979836
 20
222.19238170393442
 11
412.49281103531808
 21
297.69238170393533
  0
LINE
  8
_0-b_細線1
  6
CONTINUOUS
 62
    7
 10
412.49281102979836
 20
222.19238170393442
 11
395.49281102980018
 21
222.19238170393442
  0
ARC
  8
_0-b_細線1
  6
CONTINUOUS
 62
    7
 10
467.4928110371261
 20
312.19238170393442
 40
4.9999999999999991
 50
89.999999999999915
 51
179.99999999999983
  0
ARC
  8
_0-b_細線1
  6
CONTINUOUS
 62
    7
 10
469.83255699376286
 20
322.19238170393487
 40
4.9999999999999991
 50
269.99999999999977
 51
329.99999999999523
  0
ARC
  8
_0-b_細線1
  6
CONTINUOUS
 62
    7
 10
478.49281103160735
 20
317.19238170393533
 40
4.9999999999999991
 50
89.999999999999915
 51
150.00000000000915
  0
LINE
  8
_0-b_細線1
  6
CONTINUOUS
 62
    7
 10
467.4928110371261
 20
317.19238170393533
 11
469.83255699376286
 21
317.19238170393533
  0
ARC
  8
_0-b_細線1
  6
CONTINUOUS
 62
    7
 10
514.49281102609029
 20
312.19238170393442
 40
4.9999999999999991
 50
0
 51
89.999999999999915
  0
ARC
  8
_0-b_細線1
  6
CONTINUOUS
 62
    7
 10
512.15306506945353
 20
322.19238170393487
 40
4.9999999999999991
 50
209.99999999999622
 51
269.99999999999977
  0
ARC
  8
_0-b_細線1
  6
CONTINUOUS
 62
    7
 10
503.49281103160774
 20
317.19238170393533
 40
4.9999999999999991
 50
29.999999999990862
 51
89.999999999984354
  0
LINE
  8
_0-b_細線1
  6
CONTINUOUS
 62
    7
 10
514.49281102609029
 20
317.19238170393533
 11
512.15306506945353
 21
317.19238170393533
  0
ARC
  8
_0-b_細線1
  6
CONTINUOUS
 62
    7
 10
464.9928110371257
 20
305.19238170393533
 40
2.4999999999999996
 50
179.99999999999983
 51
269.99999999999977
  0
LINE
  8
_0-b_細線1
  6
CONTINUOUS
 62
    7
 10
462.49281103712519
 20
312.19238170393442
 11
462.49281103712519
 21
305.19238170393533
  0
ARC
  8
_0-b_細線1
  6
CONTINUOUS
 62
    7
 10
516.99281102609075
 20
305.19238170393533
 40
2.4999999999999996
 50
269.99999999999977
 51
359.99999999999966
  0
LINE
  8
_0-b_細線1
  6
CONTINUOUS
 62
    7
 10
519.4928110260912
 20
312.19238170393442
 11
519.4928110260912
 21
305.19238170393533
  0
ARC
  8
_0-b_細線1
  6
CONTINUOUS
 62
    7
 10
477.49281103712519
 20
297.69238170393533
 40
4.9999999999999991
 50
0
 51
89.999999999999915
  0
LINE
  8
_0-b_細線1
  6
CONTINUOUS
 62
    7
 10
477.49281103712519
 20
302.69238170393487
 11
464.9928110371257
 21
302.69238170393487
  0
ARC
  8
_0-b_細線1
  6
CONTINUOUS
 62
    7
 10
504.49281103712519
 20
297.69238170393533
 40
4.9999999999999991
 50
89.999999999999915
 51
179.99999999999983
  0
LINE
  8
_0-b_細線1
  6
CONTINUOUS
 62
    7
 10
504.49281102608848
 20
302.69238170393487
 11
516.99281102609075
 21
302.69238170393487
  0
LINE
  8
_0-b_細線1
  6
CONTINUOUS
 62
    7
 10
503.49281103160774
 20
322.19238170393487
 11
478.49281103160735
 21
322.19238170393487
  0
LINE
  8
_0-b_細線1
  6
CONTINUOUS
 62
    7
 10
482.49281103160911
 20
222.19238170393442
 11
482.4928110371261
 21
297.69238170393533
  0
LINE
  8
_0-b_細線1
  6
CONTINUOUS
 62
    7
 10
499.49281103160729
 20
222.19238170393442
 11
499.49281103712707
 21
297.69238170393533
  0
LINE
  8
_0-b_細線1
  6
CONTINUOUS
 62
    7
 10
499.49281103160729
 20
222.19238170393442
 11
482.49281103160911
 21
222.19238170393442
  0
ARC
  8
_0-b_細線1
  6
CONTINUOUS
 62
    7
 10
554.49281103893532
 20
312.19238170393442
 40
4.9999999999999991
 50
89.999999999999915
 51
179.99999999999983
  0
ARC
  8
_0-b_細線1
  6
CONTINUOUS
 62
    7
 10
556.83255699557208
 20
322.19238170393487
 40
4.9999999999999991
 50
269.99999999999977
 51
330.00000000000301
  0
ARC
  8
_0-b_細線1
  6
CONTINUOUS
 62
    7
 10
565.4928110334165
 20
317.19238170393533
 40
4.9999999999999991
 50
89.999999999999915
 51
150.00000000000134
  0
LINE
  8
_0-b_細線1
  6
CONTINUOUS
 62
    7
 10
554.49281103893532
 20
317.19238170393533
 11
556.83255699557208
 21
317.19238170393533
  0
ARC
  8
_0-b_細線1
  6
CONTINUOUS
 62
    7
 10
601.49281102789951
 20
312.19238170393442
 40
4.9999999999999991
 50
0
 51
89.999999999999915
  0
ARC
  8
_0-b_細線1
  6
CONTINUOUS
 62
    7
 10
599.15306507126138
 20
322.19238170393487
 40
4.9999999999999991
 50
210.00000000000404
 51
269.99999999999977
  0
ARC
  8
_0-b_細線1
  6
CONTINUOUS
 62
    7
 10
590.49281103341696
 20
317.19238170393533
 40
4.9999999999999991
 50
29.999999999990862
 51
89.999999999984354
  0
LINE
  8
_0-b_細線1
  6
CONTINUOUS
 62
    7
 10
601.49281102789951
 20
317.19238170393533
 11
599.15306507126138
 21
317.19238170393533
  0
ARC
  8
_0-b_細線1
  6
CONTINUOUS
 62
    7
 10
551.99281103893486
 20
305.19238170393533
 40
2.4999999999999996
 50
179.99999999999983
 51
269.99999999999977
  0
LINE
  8
_0-b_細線1
  6
CONTINUOUS
 62
    7
 10
549.49281103893441
 20
312.19238170393442
 11
549.49281103893441
 21
305.19238170393533
  0
ARC
  8
_0-b_細線1
  6
CONTINUOUS
 62
    7
 10
603.9928110278986
 20
305.19238170393533
 40
2.4999999999999996
 50
269.99999999999977
 51
359.99999999999966
  0
LINE
  8
_0-b_細線1
  6
CONTINUOUS
 62
    7
 10
606.49281102789905
 20
312.19238170393442
 11
606.49281102789905
 21
305.19238170393533
  0
ARC
  8
_0-b_細線1
  6
CONTINUOUS
 62
    7
 10
564.49281103893441
 20
297.69238170393533
 40
4.9999999999999991
 50
0
 51
89.999999999999915
  0
LINE
  8
_0-b_細線1
  6
CONTINUOUS
 62
    7
 10
564.49281103893441
 20
302.69238170393487
 11
551.99281103893486
 21
302.69238170393487
  0
ARC
  8
_0-b_細線1
  6
CONTINUOUS
 62
    7
 10
591.49281103893577
 20
297.69238170393533
 40
4.9999999999999991
 50
89.999999999999915
 51
179.99999999999983
  0
LINE
  8
_0-b_細線1
  6
CONTINUOUS
 62
    7
 10
591.49281102789905
 20
302.69238170393487
 11
603.9928110278986
 21
302.69238170393487
  0
LINE
  8
_0-b_細線1
  6
CONTINUOUS
 62
    7
 10
590.49281103341696
 20
322.19238170393487
 11
565.4928110334165
 21
322.19238170393487
  0
LINE
  8
_0-b_細線1
  6
CONTINUOUS
 62
    7
 10
569.49281103341696
 20
222.19238170393442
 11
569.49281103893532
 21
297.69238170393533
  0
LINE
  8
_0-b_細線1
  6
CONTINUOUS
 62
    7
 10
586.4928110334165
 20
222.19238170393442
 11
586.49281103893622
 21
297.69238170393533
  0
LINE
  8
_0-b_細線1
  6
CONTINUOUS
 62
    7
 10
586.4928110334165
 20
222.19238170393442
 11
569.49281103341696
 21
222.19238170393442
  0
ARC
  8
_0-b_細線1
  6
CONTINUOUS
 62
    7
 10
641.4928110407443
 20
312.19238170393442
 40
4.9999999999999991
 50
89.999999999999915
 51
179.99999999999983
  0
ARC
  8
_0-b_細線1
  6
CONTINUOUS
 62
    7
 10
643.83255699738118
 20
322.19238170393487
 40
4.9999999999999991
 50
269.99999999999977
 51
329.99999999999523
  0
ARC
  8
_0-b_細線1
  6
CONTINUOUS
 62
    7
 10
652.49281103522549
 20
317.19238170393533
 40
4.9999999999999991
 50
89.999999999999915
 51
150.00000000000915
  0
LINE
  8
_0-b_細線1
  6
CONTINUOUS
 62
    7
 10
641.4928110407443
 20
317.19238170393533
 11
643.83255699738118
 21
317.19238170393533
  0
ARC
  8
_0-b_細線1
  6
CONTINUOUS
 62
    7
 10
688.49281102970849
 20
312.19238170393442
 40
4.9999999999999991
 50
0
 51
89.999999999999915
  0
ARC
  8
_0-b_細線1
  6
CONTINUOUS
 62
    7
 10
686.15306507307037
 20
322.19238170393487
 40
4.9999999999999991
 50
209.99999999999622
 51
269.99999999999977
  0
ARC
  8
_0-b_細線1
  6
CONTINUOUS
 62
    7
 10
677.49281103522594
 20
317.19238170393533
 40
4.9999999999999991
 50
29.999999999998682
 51
89.999999999999915
  0
LINE
  8
_0-b_細線1
  6
CONTINUOUS
 62
    7
 10
688.49281102970849
 20
317.19238170393533
 11
686.15306507307037
 21
317.19238170393533
  0
ARC
  8
_0-b_細線1
  6
CONTINUOUS
 62
    7
 10
638.99281104074521
 20
305.19238170393533
 40
2.4999999999999996
 50
179.99999999999983
 51
269.99999999999977
  0
LINE
  8
_0-b_細線1
  6
CONTINUOUS
 62
    7
 10
636.49281104074339
 20
312.19238170393442
 11
636.49281104074339
 21
305.19238170393533
  0
ARC
  8
_0-b_細線1
  6
CONTINUOUS
 62
    7
 10
690.99281102970758
 20
305.19238170393533
 40
2.4999999999999996
 50
269.99999999999977
 51
359.99999999999966
  0
LINE
  8
_0-b_細線1
  6
CONTINUOUS
 62
    7
 10
693.49281102970804
 20
312.19238170393442
 11
693.49281102970804
 21
305.19238170393533
  0
ARC
  8
_0-b_細線1
  6
CONTINUOUS
 62
    7
 10
651.4928110407435
 20
297.69238170393533
 40
4.9999999999999991
 50
0
 51
89.999999999999915
  0
LINE
  8
_0-b_細線1
  6
CONTINUOUS
 62
    7
 10
651.4928110407435
 20
302.69238170393487
 11
638.99281104074521
 21
302.69238170393487
  0
ARC
  8
_0-b_細線1
  6
CONTINUOUS
 62
    7
 10
678.49281104074475
 20
297.69238170393533
 40
4.9999999999999991
 50
89.999999999999915
 51
179.99999999999983
  0
LINE
  8
_0-b_細線1
  6
CONTINUOUS
 62
    7
 10
678.49281102970804
 20
302.69238170393487
 11
690.99281102970758
 21
302.69238170393487
  0
LINE
  8
_0-b_細線1
  6
CONTINUOUS
 62
    7
 10
677.49281103522594
 20
322.19238170393487
 11
652.49281103522549
 21
322.19238170393487
  0
LINE
  8
_0-b_細線1
  6
CONTINUOUS
 62
    7
 10
656.49281103522594
 20
222.19238170393442
 11
656.4928110407443
 21
297.69238170393533
  0
LINE
  8
_0-b_細線1
  6
CONTINUOUS
 62
    7
 10
673.4928110352256
 20
222.19238170393442
 11
673.49281104074521
 21
297.69238170393533
  0
LINE
  8
_0-b_細線1
  6
CONTINUOUS
 62
    7
 10
673.4928110352256
 20
222.19238170393442
 11
656.49281103522594
 21
222.19238170393442
  0
LINE
  8
_0-a_極細1
  6
CENTER1
 62
    7
 10
490.9928110316082
 20
337.72116563035235
 11
490.9928110316082
 21
175.16763232273638
  0
LINE
  8
_0-d_寸法1
  6
CONTINUOUS
 62
    7
 10
482.33255699376389
 20
327.19238170393498
 11
368.24765075885017
 21
393.05933302913667
  0
LINE
  8
_0-d_寸法1
  6
CONTINUOUS
 62
    7
 10
372.57777777777233
 20
390.55933302913661
 11
375.16596822879751
 21
380.90007476624584
  0
LINE
  8
_0-d_寸法1
  6
CONTINUOUS
 62
    7
 10
372.57777777777233
 20
390.55933302913661
 11
369.98958732674708
 21
380.90007476624589
  0
LINE
  8
_0-d_寸法1
  6
CONTINUOUS
 62
    7
 10
482.33255699376389
 20
227.1923817039345
 11
368.24765075885017
 21
293.05933302913604
  0
LINE
  8
_0-d_寸法1
  6
CONTINUOUS
 62
    7
 10
372.57777777777233
 20
290.55933302913604
 11
369.98958732674708
 21
300.2185912920267
  0
LINE
  8
_0-d_寸法1
  6
CONTINUOUS
 62
    7
 10
372.57777777777233
 20
290.55933302913604
 11
375.16596822879757
 21
300.2185912920267
  0
LINE
  8
_0-d_寸法1
  6
CONTINUOUS
 62
    7
 10
372.57777777777233
 20
390.55933302913661
 11
372.57777777777233
 21
290.55933302913604
  0
TEXT
  8
_0-d_寸法1
 62
    7
 10
372.57777777777233
 20
333.05933302913638
 40
15
 41
1
 50
90
  1
20
  0
CIRCLE
  8
_0-a_極細1
  6
CONTINUOUS
 62
    7
 10
191.09764820079434
 20
102.14370556991966
 40
5.4765944180441757
  0
CIRCLE
  8
_0-a_極細1
  6
CONTINUOUS
 62
    7
 10
777.91019608464467
 20
118.54370556991967
 40
5.4765944180441757
  0
TEXT
  8
_0-7_枠細線
 62
    5
 10
375.14949547280571
 20
470.33450790353652
 40
20.000000000000004
 41
0.9599999999999997
 50
0
  1
Ａ－Ａ’断面　Ｓ＝１：１
  0
LINE
  8
_0-7_枠細線
  6
CONTINUOUS
 62
    5
 10
371.60866973470843
 20
464.80870351587185
 11
605.54949547280557
 21
464.80870351587185
  0
LINE
  8
_0-7_枠細線
  6
CONTINUOUS
 62
    5
 10
1168.9821759259212
 20
464.46948095956458
 11
1168.9821759259212
 21
314.46948095956463
  0
LINE
  8
_0-d_寸法1
  6
CONTINUOUS
 62
    7
 10
265.99281103160752
 20
154.81854217355965
 11
275.65206929449812
 21
157.40673262458486
  0
LINE
  8
_0-d_寸法1
  6
CONTINUOUS
 62
    7
 10
265.99281103160752
 20
154.81854217355965
 11
275.65206929449812
 21
152.23035172253446
  0
LINE
  8
_0-d_寸法1
  6
CONTINUOUS
 62
    7
 10
340.99281103160888
 20
148.41282443804587
 11
340.99281103160888
 21
159.81854217355965
  0
LINE
  8
_0-d_寸法1
  6
CONTINUOUS
 62
    7
 10
340.99281103160888
 20
154.81854217355965
 11
331.33355276871816
 21
152.23035172253446
  0
LINE
  8
_0-d_寸法1
  6
CONTINUOUS
 62
    7
 10
340.99281103160888
 20
154.81854217355965
 11
331.33355276871828
 21
157.40673262458486
  0
LINE
  8
_0-d_寸法1
  6
CONTINUOUS
 62
    7
 10
265.99281103160752
 20
154.81854217355965
 11
340.99281103160888
 21
154.81854217355965
  0
TEXT
  8
_0-d_寸法1
 62
    7
 10
295.99281103160848
 20
154.81854217355965
 40
15
 41
1
 50
0
  1
15
  0
LINE
  8
_0-d_寸法1
  6
CONTINUOUS
 62
    7
 10
340.99281103160888
 20
154.81854217355965
 11
350.65206929449965
 21
157.40673262458478
  0
LINE
  8
_0-d_寸法1
  6
CONTINUOUS
 62
    7
 10
340.99281103160888
 20
154.81854217355965
 11
350.6520692944996
 21
152.23035172253441
  0
LINE
  8
_0-d_寸法1
  6
CONTINUOUS
 62
    7
 10
640.99281103160763
 20
148.41282443804559
 11
640.99281103160763
 21
159.81854217355965
  0
LINE
  8
_0-d_寸法1
  6
CONTINUOUS
 62
    7
 10
640.99281103160763
 20
154.81854217355965
 11
631.33355276871703
 21
152.23035172253446
  0
LINE
  8
_0-d_寸法1
  6
CONTINUOUS
 62
    7
 10
640.99281103160763
 20
154.81854217355965
 11
631.33355276871703
 21
157.40673262458486
  0
LINE
  8
_0-d_寸法1
  6
CONTINUOUS
 62
    7
 10
340.99281103160888
 20
154.81854217355965
 11
640.99281103160763
 21
154.81854217355965
  0
TEXT
  8
_0-d_寸法1
 62
    7
 10
483.49281103160831
 20
154.81854217355965
 40
15
 41
1
 50
0
  1
60
  0
LINE
  8
_0-d_寸法1
  6
CONTINUOUS
 62
    7
 10
640.99281103160763
 20
154.81854217355965
 11
650.65206929449846
 21
157.40673262458478
  0
LINE
  8
_0-d_寸法1
  6
CONTINUOUS
 62
    7
 10
640.99281103160763
 20
154.81854217355965
 11
650.65206929449846
 21
152.23035172253441
  0
LINE
  8
_0-d_寸法1
  6
CONTINUOUS
 62
    7
 10
715.99281103160911
 20
154.81854217355965
 11
706.33355276871828
 21
152.23035172253446
  0
LINE
  8
_0-d_寸法1
  6
CONTINUOUS
 62
    7
 10
715.99281103160911
 20
154.81854217355965
 11
706.33355276871828
 21
157.40673262458486
  0
LINE
  8
_0-d_寸法1
  6
CONTINUOUS
 62
    7
 10
640.99281103160763
 20
154.81854217355965
 11
715.99281103160911
 21
154.81854217355965
  0
TEXT
  8
_0-d_寸法1
 62
    7
 10
670.99281103160831
 20
154.81854217355965
 40
15
 41
1
 50
0
  1
15
  0
LINE
  8
_0-d_寸法1
  6
CONTINUOUS
 62
    7
 10
262.86319444444416
 20
144.73104217355953
 11
272.52245270733482
 21
142.14285172253426
  0
LINE
  8
_0-d_寸法1
  6
CONTINUOUS
 62
    7
 10
262.86319444444416
 20
144.73104217355953
 11
269.93426225630958
 21
137.65997436169408
  0
LINE
  8
_0-d_寸法1
  6
CONTINUOUS
 62
    7
 10
262.86319444444416
 20
144.73104217355953
 11
360.26319444444448
 21
88.497125954489064
  0
LINE
  8
_0-d_寸法1
  6
CONTINUOUS
 62
    7
 10
360.26319444444448
 20
88.497125954489064
 11
408.26319444444448
 21
88.497125954489064
  0
TEXT
  8
_0-d_寸法1
 62
    7
 10
360.26319444444448
 20
88.497125954489064
 40
15
 41
0.8000000000000001
 50
0
  1
アンカー
  0
TEXT
  8
_0-7_枠細線
 62
    5
 10
1147.9821759259216
 20
444.46948095956458
 40
15
 41
0.8000000000000001
 50
0
  1
Ｎ
  0
TEXT
  8
_0-7_枠細線
 62
    5
 10
1150.9821759259212
 20
419.46948095956481
 40
15
 41
1
 50
0
  1
1
  0
TEXT
  8
_0-7_枠細線
 62
    5
 10
1150.9821759259212
 20
394.46948095956486
 40
15
 41
1
 50
0
  1
2
  0
TEXT
  8
_0-7_枠細線
 62
    5
 10
1150.9821759259212
 20
369.46948095956481
 40
15
 41
1
 50
0
  1
3
  0
TEXT
  8
_0-7_枠細線
 62
    5
 10
1150.9821759259212
 20
344.46948095956463
 40
15
 41
1
 50
0
  1
4
  0
TEXT
  8
_0-7_枠細線
 62
    5
 10
1150.9821759259212
 20
319.46948095956463
 40
15
 41
1
 50
0
  1
4
  0
LINE
  8
_0-7_枠細線
  6
CONTINUOUS
 62
    5
 10
1138.9821759259221
 20
464.46948095956458
 11
1138.9821759259221
 21
314.46948095956463
  0
LINE
  8
_0-7_枠細線
  6
CONTINUOUS
 62
    5
 10
1078.9821759259225
 20
464.46948095956458
 11
1078.9821759259225
 21
314.46948095956463
  0
LINE
  8
_0-7_枠細線
  6
CONTINUOUS
 62
    5
 10
1018.9821759259223
 20
464.46948095956458
 11
1018.9821759259223
 21
314.46948095956463
  0
TEXT
  8
_0-7_枠細線
 62
    5
 10
987.98217592592266
 20
444.46948095956458
 40
15
 41
0.8000000000000001
 50
0
  1
Ｌ
  0
LINE
  8
_0-7_枠細線
  6
CONTINUOUS
 62
    5
 10
968.98217592592323
 20
464.46948095956458
 11
968.98217592592323
 21
314.46948095956463
  0
TEXT
  8
_0-7_枠細線
 62
    5
 10
889.982175925923
 20
444.46948095956458
 40
15
 41
0.8000000000000001
 50
0
  1
品　　番
  0
LINE
  8
_0-7_枠細線
  6
CONTINUOUS
 62
    5
 10
858.982175925923
 20
464.46948095956458
 11
858.982175925923
 21
314.46948095956463
  0
LINE
  8
_0-7_枠細線
  6
CONTINUOUS
 62
    5
 10
858.982175925923
 20
464.46948095956458
 11
1168.9821759259212
 21
464.46948095956458
  0
LINE
  8
_0-7_枠細線
  6
CONTINUOUS
 62
    5
 10
858.982175925923
 20
439.46948095956458
 11
1168.9821759259212
 21
439.46948095956458
  0
LINE
  8
_0-7_枠細線
  6
CONTINUOUS
 62
    5
 10
858.982175925923
 20
414.46948095956463
 11
1168.9821759259212
 21
414.46948095956463
  0
LINE
  8
_0-7_枠細線
  6
CONTINUOUS
 62
    5
 10
858.982175925923
 20
389.46948095956481
 11
1168.9821759259212
 21
389.46948095956481
  0
LINE
  8
_0-7_枠細線
  6
CONTINUOUS
 62
    5
 10
858.982175925923
 20
364.46948095956463
 11
1168.9821759259212
 21
364.46948095956463
  0
LINE
  8
_0-7_枠細線
  6
CONTINUOUS
 62
    5
 10
858.982175925923
 20
339.46948095956463
 11
1168.9821759259212
 21
339.46948095956463
  0
LINE
  8
_0-7_枠細線
  6
CONTINUOUS
 62
    5
 10
858.982175925923
 20
314.46948095956463
 11
1168.9821759259212
 21
314.46948095956463
  0
TEXT
  8
_0-7_枠細線
 62
    5
 10
865.9423225308567
 20
469.46948095956458
 40
17.5
 41
1
 50
0
  1
品番寸法表
  0
TEXT
  8
_0-7_枠細線
 62
    5
 10
986.48217592592289
 20
419.46948095956481
 40
15
 41
1
 50
0
  1
594
  0
TEXT
  8
_0-7_枠細線
 62
    5
 10
986.48217592592289
 20
394.46948095956486
 40
15
 41
1
 50
0
  1
894
  0
TEXT
  8
_0-7_枠細線
 62
    5
 10
978.98217592592289
 20
369.46948095956481
 40
15
 41
1
 50
0
  1
1194
  0
TEXT
  8
_0-7_枠細線
 62
    5
 10
978.98217592592289
 20
344.46948095956463
 40
15
 41
1
 50
0
  1
1794
  0
TEXT
  8
_0-7_枠細線
 62
    5
 10
978.98217592592289
 20
319.46948095956463
 40
15
 41
1
 50
0
  1
1994
  0
TEXT
  8
_0-7_枠細線
 62
    5
 10
1102.9821759259221
 20
444.46948095956458
 40
15
 41
0.8000000000000001
 50
0
  1
＠
  0
TEXT
  8
_0-7_枠細線
 62
    5
 10
1042.9821759259239
 20
444.46948095956458
 40
15
 41
0.8000000000000001
 50
0
  1
Ａ
  0
TEXT
  8
_0-7_枠細線
 62
    5
 10
1041.4821759259225
 20
419.46948095956481
 40
15
 41
1
 50
0
  1
585
  0
TEXT
  8
_0-7_枠細線
 62
    5
 10
1041.4821759259225
 20
394.46948095956486
 40
15
 41
1
 50
0
  1
885
  0
TEXT
  8
_0-7_枠細線
 62
    5
 10
1033.9821759259225
 20
369.46948095956481
 40
15
 41
1
 50
0
  1
1185
  0
TEXT
  8
_0-7_枠細線
 62
    5
 10
1026.4821759259225
 20
344.46948095956463
 40
15
 41
1
 50
0
  1
892×2
  0
TEXT
  8
_0-7_枠細線
 62
    5
 10
1026.4821759259225
 20
319.46948095956463
 40
15
 41
1
 50
0
  1
992×2
  0
TEXT
  8
_0-7_枠細線
 62
    5
 10
1091.7321759259225
 20
419.46948095956481
 40
15
 41
1
 50
0
  1
494
  0
TEXT
  8
_0-7_枠細線
 62
    5
 10
1091.7321759259225
 20
394.46948095956486
 40
15
 41
1
 50
0
  1
397
  0
TEXT
  8
_0-7_枠細線
 62
    5
 10
1090.2321759259225
 20
369.46948095956481
 40
15
 41
1
 50
0
  1
364.7
  0
TEXT
  8
_0-7_枠細線
 62
    5
 10
1090.2321759259225
 20
344.46948095956463
 40
15
 41
1
 50
0
  1
423.5
  0
TEXT
  8
_0-7_枠細線
 62
    5
 10
1090.2321759259225
 20
319.46948095956463
 40
15
 41
1
 50
0
  1
473.5
  0
TEXT
  8
_0-7_枠細線
 62
    5
 10
864.19884259258993
 20
294.46948095956463
 40
15
 41
1
 50
0
  1
※ ○に色記号を付記
  0
TEXT
  8
_0-7_枠細線
 62
    5
 10
863.98217592592289
 20
369.46948095956452
 40
15
 41
0.8333333333333333
 50
0
  1
GRSS-20L1200A-○
  0
TEXT
  8
_0-7_枠細線
 62
    5
 10
863.98217592592289
 20
394.46948095956463
 40
15
 41
0.8333333333333333
 50
0
  1
GRSS-20L 900A-○
  0
TEXT
  8
_0-7_枠細線
 62
    5
 10
863.98217592592289
 20
419.46948095956458
 40
15
 41
0.8333333333333333
 50
0
  1
GRSS-20L 600A-○
  0
TEXT
  8
_0-7_枠細線
 62
    5
 10
863.98217592592289
 20
344.46948095956452
 40
15
 41
0.8333333333333333
 50
0
  1
GRSS-20L1800A-○
  0
TEXT
  8
_0-7_枠細線
 62
    5
 10
863.98217592592289
 20
319.46948095956452
 40
15
 41
0.8333333333333333
 50
0
  1
GRSS-20L2000A-○
  0
LINE
  8
_0-b_細線1
  6
CONTINUOUS
 62
    7
 10
325.49281103075054
 20
298.69238170393487
 11
395.49281103074969
 21
298.69238170393487
  0
LINE
  8
_0-b_細線1
  6
CONTINUOUS
 62
    7
 10
412.49281103255817
 20
298.69238170393487
 11
482.49281103255868
 21
298.69238170393487
  0
LINE
  8
_0-b_細線1
  6
CONTINUOUS
 62
    7
 10
586.49281103617636
 20
298.69238170393487
 11
656.49281103617682
 21
298.69238170393487
  0
LINE
  8
_0-a_極細1
  6
CENTER1
 62
    7
 10
710.353634911413
 20
266.19238170393487
 11
271.14779646304737
 21
266.19238170393487
  0
LINE
  8
_0-b_細線1
  6
CONTINUOUS
 62
    7
 10
325.49281103075032
 20
233.69238170393399
 11
395.49281103074918
 21
233.69238170393399
  0
LINE
  8
_0-b_細線1
  6
CONTINUOUS
 62
    7
 10
412.49281103255777
 20
233.69238170393399
 11
482.49281103255817
 21
233.69238170393399
  0
LINE
  8
_0-b_細線1
  6
CONTINUOUS
 62
    7
 10
586.49281103617705
 20
233.69238170393399
 11
656.49281103617614
 21
233.69238170393399
  0
ARC
  8
_0-b_細線1
  6
CONTINUOUS
 62
    7
 10
304.50907103074798
 20
236.12550276982574
 40
1.0000000000000004
 50
179.99999999999983
 51
269.99999999999977
  0
LINE
  8
_0-b_細線1
  6
CONTINUOUS
 62
    7
 10
308.49281103074901
 20
235.12550276982529
 11
304.50907103074798
 21
235.12550276982529
  0
ARC
  8
_0-b_細線1
  6
CONTINUOUS
 62
    7
 10
304.50907103074798
 20
299.12550276982438
 40
1.0000000000000004
 50
89.999999999999915
 51
179.99999999999983
  0
LINE
  8
_0-b_細線1
  6
CONTINUOUS
 62
    7
 10
308.49281103074901
 20
300.1255027698262
 11
304.50907103074798
 21
300.1255027698262
  0
LINE
  8
_0-b_細線1
  6
CONTINUOUS
 62
    7
 10
303.5090710307461
 20
265.12550276982529
 11
303.5090710307461
 21
236.12550276982574
  0
LINE
  8
_0-b_細線1
  6
CONTINUOUS
 62
    7
 10
303.5090710307461
 20
299.12550276982438
 11
303.5090710307461
 21
265.12550276982529
  0
LINE
  8
_0-b_細線1
  6
CONTINUOUS
 62
    7
 10
303.5090710307461
 20
267.62550276982438
 11
288.48649103074717
 21
267.62550276982438
  0
LINE
  8
_0-b_細線1
  6
CONTINUOUS
 62
    7
 10
303.5090710307461
 20
250.12550276982665
 11
288.48643103074869
 21
250.12550276982665
  0
ARC
  8
_0-b_細線1
  6
CONTINUOUS
 62
    7
 10
288.48643103074869
 20
251.12550276982574
 40
1.0000000000000004
 50
179.99999999999983
 51
269.99999999999977
  0
ARC
  8
_0-b_細線1
  6
CONTINUOUS
 62
    7
 10
326.27633103074663
 20
258.87477276982736
 40
38.789779999999993
 50
166.96197800000462
 51
193.0356700000001
  0
ARC
  8
_0-b_細線1
  6
CONTINUOUS
 62
    7
 10
288.48643103074869
 20
284.12550276982711
 40
1.0000000000000004
 50
89.999999999999915
 51
179.99999999999983
  0
ARC
  8
_0-b_細線1
  6
CONTINUOUS
 62
    7
 10
326.27633103074663
 20
276.37622276982484
 40
38.789779999999993
 50
166.96432999999956
 51
193.03802199999899
  0
LINE
  8
_0-b_細線1
  6
CONTINUOUS
 62
    7
 10
303.5090710307461
 20
285.1255027698262
 11
288.48643103074869
 21
285.1255027698262
  0
LINE
  8
_0-b_細線1
  6
CONTINUOUS
 62
    7
 10
287.48643103074687
 20
251.12550276982574
 11
287.48643103074687
 21
284.12550276982711
  0
ARC
  8
_0-b_細線1
  6
CONTINUOUS
 62
    7
 10
677.47655103246859
 20
236.12550276982574
 40
1.0000000000000004
 50
269.99999999999977
 51
359.99999999999966
  0
LINE
  8
_0-b_細線1
  6
CONTINUOUS
 62
    7
 10
673.49281103246756
 20
235.12550276982529
 11
677.47655103246859
 21
235.12550276982529
  0
ARC
  8
_0-b_細線1
  6
CONTINUOUS
 62
    7
 10
677.47655103246859
 20
299.12550276982438
 40
1.0000000000000004
 50
0
 51
89.999999999999915
  0
LINE
  8
_0-b_細線1
  6
CONTINUOUS
 62
    7
 10
673.49281103246756
 20
300.1255027698262
 11
677.47655103246859
 21
300.1255027698262
  0
LINE
  8
_0-b_細線1
  6
CONTINUOUS
 62
    7
 10
678.47655103247052
 20
265.12550276982529
 11
678.47655103247052
 21
236.12550276982574
  0
LINE
  8
_0-b_細線1
  6
CONTINUOUS
 62
    7
 10
678.47655103247052
 20
299.12550276982438
 11
678.47655103247052
 21
265.12550276982529
  0
LINE
  8
_0-b_細線1
  6
CONTINUOUS
 62
    7
 10
678.47655103247052
 20
267.62550276982438
 11
693.49913103246934
 21
267.62550276982438
  0
LINE
  8
_0-b_細線1
  6
CONTINUOUS
 62
    7
 10
678.47655103247052
 20
250.12550276982665
 11
693.49919103246793
 21
250.12550276982665
  0
ARC
  8
_0-b_細線1
  6
CONTINUOUS
 62
    7
 10
693.49919103246793
 20
251.12550276982574
 40
1.0000000000000004
 50
269.99999999999977
 51
359.99999999999966
  0
ARC
  8
_0-b_細線1
  6
CONTINUOUS
 62
    7
 10
655.70929103246999
 20
258.87477276982736
 40
38.789779999999993
 50
346.96432999999922
 51
13.038021999995031
  0
ARC
  8
_0-b_細線1
  6
CONTINUOUS
 62
    7
 10
693.49919103246793
 20
284.12550276982711
 40
1.0000000000000004
 50
0
 51
89.999999999999915
  0
ARC
  8
_0-b_細線1
  6
CONTINUOUS
 62
    7
 10
655.70929103246999
 20
276.37622276982484
 40
38.789779999999993
 50
346.96197800000027
 51
13.035670000000083
  0
LINE
  8
_0-b_細線1
  6
CONTINUOUS
 62
    7
 10
678.47655103247052
 20
285.1255027698262
 11
693.49919103246793
 21
285.1255027698262
  0
LINE
  8
_0-b_細線1
  6
CONTINUOUS
 62
    7
 10
694.49919103246975
 20
251.12550276982574
 11
694.49919103246975
 21
284.12550276982711
  0
TEXT
  8
_0-7_枠細線
 62
    5
 10
1207.0974537037007
 20
419.46948095956458
 40
15
 41
0.5999999999999999
 50
0
  1
Ｂ
  0
TEXT
  8
_0-7_枠細線
 62
    5
 10
1207.0974537037007
 20
394.46948095956481
 40
15
 41
0.5999999999999999
 50
0
  1
Ｇ
  0
TEXT
  8
_0-7_枠細線
 62
    5
 10
1199.5974537037007
 20
444.46948095956458
 40
15
 41
0.8000000000000001
 50
0
  1
記号
  0
TEXT
  8
_0-7_枠細線
 62
    5
 10
1244.5974537037014
 20
394.46948095956481
 40
15
 41
0.5999999999999999
 50
0
  1
ライトグレー
  0
TEXT
  8
_0-7_枠細線
 62
    5
 10
1253.5974537037014
 20
419.46948095956458
 40
15
 41
0.5999999999999999
 50
0
  1
ベージュ
  0
TEXT
  8
_0-7_枠細線
 62
    5
 10
1265.5974537037014
 20
444.46948095956458
 40
15
 41
0.8000000000000001
 50
0
  1
色
  0
LINE
  8
_0-7_枠細線
  6
CONTINUOUS
 62
    5
 10
1191.5974537037009
 20
289.46948095956475
 11
1381.5974537037014
 21
289.46948095956475
  0
LINE
  8
_0-7_枠細線
  6
CONTINUOUS
 62
    5
 10
1191.5974537037009
 20
314.46948095956475
 11
1381.5974537037014
 21
314.46948095956475
  0
LINE
  8
_0-7_枠細線
  6
CONTINUOUS
 62
    5
 10
1191.5974537037009
 20
339.46948095956481
 11
1381.5974537037014
 21
339.46948095956481
  0
LINE
  8
_0-7_枠細線
  6
CONTINUOUS
 62
    5
 10
1191.5974537037009
 20
364.46948095956481
 11
1381.5974537037014
 21
364.46948095956481
  0
LINE
  8
_0-7_枠細線
  6
CONTINUOUS
 62
    5
 10
1191.5974537037009
 20
389.46948095956481
 11
1381.5974537037014
 21
389.46948095956481
  0
LINE
  8
_0-7_枠細線
  6
CONTINUOUS
 62
    5
 10
1191.5974537037009
 20
414.46948095956481
 11
1381.5974537037014
 21
414.46948095956481
  0
LINE
  8
_0-7_枠細線
  6
CONTINUOUS
 62
    5
 10
1191.5974537037009
 20
439.46948095956458
 11
1381.5974537037014
 21
439.46948095956458
  0
LINE
  8
_0-7_枠細線
  6
CONTINUOUS
 62
    5
 10
1191.5974537037009
 20
464.46948095956458
 11
1381.5974537037014
 21
464.46948095956458
  0
LINE
  8
_0-7_枠細線
  6
CONTINUOUS
 62
    5
 10
1191.5974537037009
 20
264.46948095956452
 11
1381.5974537037014
 21
264.46948095956452
  0
TEXT
  8
_0-7_枠細線
 62
    5
 10
1328.5974537037018
 20
444.46948095956458
 40
15
 41
0.8000000000000001
 50
0
  1
備　考
  0
TEXT
  8
_0-7_枠細線
 62
    5
 10
1203.3076003086348
 20
469.46948095956458
 40
17.5
 41
1
 50
0
  1
色記号表
  0
LINE
  8
_0-7_枠細線
  6
CONTINUOUS
 62
    5
 10
1191.5974537037009
 20
239.46948095956429
 11
1381.5974537037014
 21
239.46948095956429
  0
TEXT
  8
_0-7_枠細線
 62
    5
 10
1207.0974537037007
 20
344.46948095956481
 40
15
 41
0.5999999999999999
 50
0
  1
Ｐ
  0
TEXT
  8
_0-7_枠細線
 62
    5
 10
1207.0974537037007
 20
319.46948095956475
 40
15
 41
0.5999999999999999
 50
0
  1
Ａ
  0
TEXT
  8
_0-7_枠細線
 62
    5
 10
1258.0974537037014
 20
319.46948095956475
 40
15
 41
0.5999999999999999
 50
0
  1
ブルー
  0
TEXT
  8
_0-7_枠細線
 62
    5
 10
1258.0974537037014
 20
344.46948095956481
 40
15
 41
0.5999999999999999
 50
0
  1
ピンク
  0
TEXT
  8
_0-7_枠細線
 62
    5
 10
1207.0974537037007
 20
369.46948095956481
 40
15
 41
0.5999999999999999
 50
0
  1
Ｓ
  0
TEXT
  8
_0-7_枠細線
 62
    5
 10
1253.5974537037014
 20
369.46948095956481
 40
15
 41
0.5999999999999999
 50
0
  1
ホワイト
  0
TEXT
  8
_0-7_枠細線
 62
    5
 10
1244.5974537037009
 20
294.46948095956475
 40
15
 41
0.5999999999999999
 50
0
  1
ダークグレー
  0
TEXT
  8
_0-7_枠細線
 62
    5
 10
1207.0974537037007
 20
269.46948095956452
 40
15
 41
0.5999999999999999
 50
0
  1
Ｍ
  0
TEXT
  8
_0-7_枠細線
 62
    5
 10
1207.0974537037007
 20
294.46948095956475
 40
15
 41
0.5999999999999999
 50
0
  1
Ｄ
  0
TEXT
  8
_0-7_枠細線
 62
    5
 10
1258.0974537037011
 20
269.46948095956452
 40
15
 41
0.5999999999999999
 50
0
  1
ウッド
  0
LINE
  8
_0-7_枠細線
  6
CONTINUOUS
 62
    5
 10
1191.5974537037009
 20
214.46948095956407
 11
1381.5974537037014
 21
214.46948095956407
  0
TEXT
  8
_0-7_枠細線
 62
    5
 10
1207.0974537037007
 20
219.46948095956429
 40
15
 41
0.5999999999999999
 50
0
  1
Ｋ
  0
TEXT
  8
_0-7_枠細線
 62
    5
 10
1253.5974537037018
 20
219.46948095956429
 40
15
 41
0.5999999999999999
 50
0
  1
ブラック
  0
LINE
  8
_0-7_枠細線
  6
CONTINUOUS
 62
    5
 10
1191.5974537037009
 20
464.46948095956458
 11
1191.5974537037009
 21
214.46948095956407
  0
LINE
  8
_0-7_枠細線
  6
CONTINUOUS
 62
    5
 10
1231.5974537037014
 20
464.46948095956458
 11
1231.5974537037014
 21
214.46948095956407
  0
LINE
  8
_0-7_枠細線
  6
CONTINUOUS
 62
    5
 10
1311.5974537037014
 20
464.46948095956458
 11
1311.5974537037014
 21
214.46948095956407
  0
LINE
  8
_0-7_枠細線
  6
CONTINUOUS
 62
    5
 10
1381.5974537037014
 20
464.46948095956458
 11
1381.5974537037014
 21
214.46948095956407
  0
TEXT
  8
_0-7_枠細線
 62
    5
 10
1207.0974537037011
 20
244.46948095956455
 40
15
 41
0.5999999999999999
 50
0
  1
Ｃ
  0
TEXT
  8
_0-7_枠細線
 62
    5
 10
1253.5974537037014
 20
244.46948095956455
 40
15
 41
0.5999999999999999
 50
0
  1
ブラウン
  0
LINE
  8
_0-7_枠細線
  6
CONTINUOUS
 62
    5
 10
1184.5096380105083
 20
244.48182236531491
 11
1177.0096380105083
 21
259.48182236531488
  0
LINE
  8
_0-7_枠細線
  6
CONTINUOUS
 62
    5
 10
1169.5096380105083
 20
244.48182236531491
 11
1184.5096380105083
 21
244.48182236531491
  0
LINE
  8
_0-7_枠細線
  6
CONTINUOUS
 62
    5
 10
1177.0096380105083
 20
259.48182236531488
 11
1169.5096380105083
 21
244.48182236531491
  0
TEXT
  8
_0-7_枠細線
 62
    5
 10
1171.8747892786564
 20
243.53300240046497
 40
12.5
 41
0.8
 50
0
  1
４
  0
LINE
  8
_0-1_計細線
  6
CONTINUOUS
 62
    3
 10
326.44201096864145
 20
572.93589043749967
 11
328.4420109686414
 21
574.93589043749967
  0
LINE
  8
_0-1_計細線
  6
CONTINUOUS
 62
    3
 10
326.44201096864145
 20
570.93589043749967
 11
328.4420109686414
 21
568.93589043749967
  0
LINE
  8
_0-1_計細線
  6
CONTINUOUS
 62
    3
 10
326.44201096864145
 20
570.93589043749967
 11
326.44201096864145
 21
572.93589043749967
  0
LINE
  8
_0-1_計細線
  6
CONTINUOUS
 62
    3
 10
314.4420109686414
 20
572.93589043749967
 11
312.44201096864145
 21
574.93589043749967
  0
LINE
  8
_0-1_計細線
  6
CONTINUOUS
 62
    3
 10
314.4420109686414
 20
570.93589043749967
 11
312.44201096864145
 21
568.93589043749967
  0
LINE
  8
_0-1_計細線
  6
CONTINUOUS
 62
    3
 10
314.4420109686414
 20
570.93589043749967
 11
314.4420109686414
 21
572.93589043749967
  0
LINE
  8
_0-0_計極細
  6
CENTER1
 62
    2
 10
320.4420109686414
 20
588.5972919526514
 11
320.4420109686414
 21
550.7792363970957
  0
LINE
  8
_0-1_計細線
  6
CONTINUOUS
 62
    3
 10
312.44201096864145
 20
574.93589043749967
 11
312.44201096864145
 21
584.93589043749967
  0
LINE
  8
_0-1_計細線
  6
CONTINUOUS
 62
    3
 10
312.44201096864145
 20
584.93589043749967
 11
314.4420109686414
 21
586.93589043749967
  0
LINE
  8
_0-1_計細線
  6
CONTINUOUS
 62
    3
 10
328.4420109686414
 20
574.93589043749967
 11
328.4420109686414
 21
584.93589043749967
  0
LINE
  8
_0-1_計細線
  6
CONTINUOUS
 62
    3
 10
314.4420109686414
 20
586.93589043749967
 11
326.44201096864145
 21
586.93589043749967
  0
LINE
  8
_0-1_計細線
  6
CONTINUOUS
 62
    3
 10
328.4420109686414
 20
584.93589043749967
 11
326.44201096864145
 21
586.93589043749967
  0
LINE
  8
_0-1_計細線
  6
CONTINUOUS
 62
    3
 10
312.44201096864145
 20
554.93589043749967
 11
312.44201096864145
 21
568.93589043749967
  0
ARC
  8
_0-1_計細線
  6
CONTINUOUS
 62
    3
 10
315.4420109686414
 20
554.93589043749967
 40
3.0000000000000004
 50
179.99999999999983
 51
269.99999999999977
  0
LINE
  8
_0-1_計細線
  6
CONTINUOUS
 62
    3
 10
325.4420109686414
 20
551.93589043749967
 11
315.4420109686414
 21
551.93589043749967
  0
LINE
  8
_0-1_計細線
  6
CONTINUOUS
 62
    3
 10
328.4420109686414
 20
568.93589043749967
 11
328.4420109686414
 21
554.93589043749967
  0
ARC
  8
_0-1_計細線
  6
CONTINUOUS
 62
    3
 10
325.4420109686414
 20
554.93589043749967
 40
3.0000000000000004
 50
269.99999999999977
 51
359.99999999999966
  0
LINE
  8
_0-1_計細線
  6
CONTINUOUS
 62
    3
 10
270.44201096864163
 20
574.93589043749967
 11
270.44201096864163
 21
597.93589043749967
  0
LINE
  8
_0-1_計細線
  6
CONTINUOUS
 62
    3
 10
312.44201096864145
 20
574.93589043749967
 11
270.44201096864163
 21
574.93589043749967
  0
LINE
  8
_0-1_計細線
  6
DASHED2
 62
    3
 10
328.4420109686414
 20
574.93589043749967
 11
312.44201096864145
 21
574.93589043749967
  0
LINE
  8
_0-5_寸法線
  6
CONTINUOUS
 62
    7
 10
324.76998236994746
 20
557.48277543979225
 11
334.42924063283812
 21
554.89458498876706
  0
LINE
  8
_0-5_寸法線
  6
CONTINUOUS
 62
    7
 10
324.76998236994746
 20
557.48277543979225
 11
331.84105018181293
 21
550.41170762792672
  0
LINE
  8
_0-5_寸法線
  6
CONTINUOUS
 62
    7
 10
324.76998236994746
 20
557.48277543979225
 11
366.769982369947
 21
533.23406413382781
  0
LINE
  8
_0-5_寸法線
  6
CONTINUOUS
 62
    7
 10
366.769982369947
 20
533.23406413382781
 11
414.769982369947
 21
533.23406413382781
  0
TEXT
  8
_0-5_寸法線
 62
    7
 10
366.769982369947
 20
533.23406413382781
 40
15
 41
0.8000000000000001
 50
0
  1
アンカー
  0
LINE
  8
_0-5_寸法線
  6
CONTINUOUS
 62
    7
 10
260.44204999073418
 20
597.93589043749967
 11
215.44204999073443
 21
597.93589043749989
  0
LINE
  8
_0-5_寸法線
  6
CONTINUOUS
 62
    7
 10
220.44204999073443
 20
597.93589043749989
 11
223.0302404417597
 21
588.27663217460918
  0
LINE
  8
_0-5_寸法線
  6
CONTINUOUS
 62
    7
 10
220.44204999073443
 20
597.93589043749989
 11
217.8538595397093
 21
588.27663217460918
  0
LINE
  8
_0-5_寸法線
  6
CONTINUOUS
 62
    7
 10
260.44204999073418
 20
574.93589043749967
 11
215.44204999073443
 21
574.93589043749989
  0
LINE
  8
_0-5_寸法線
  6
CONTINUOUS
 62
    7
 10
220.44204999073443
 20
574.93589043749989
 11
217.85385953970916
 21
584.59514870039061
  0
LINE
  8
_0-5_寸法線
  6
CONTINUOUS
 62
    7
 10
220.44204999073443
 20
574.93589043749989
 11
223.03024044175956
 21
584.59514870039061
  0
LINE
  8
_0-5_寸法線
  6
CONTINUOUS
 62
    7
 10
220.44204999073443
 20
597.93589043749989
 11
220.44204999073443
 21
574.93589043749989
  0
TEXT
  8
_0-5_寸法線
 62
    7
 10
220.44204999073443
 20
578.93589043749989
 40
15
 41
1
 50
90
  1
23
  0
LINE
  8
_0-1_計細線
  6
CONTINUOUS
 62
    3
 10
273.44201096744155
 20
753.03240035951467
 11
273.44201096744155
 21
669.03240334999214
  0
LINE
  8
_0-1_計細線
  6
CONTINUOUS
 62
    3
 10
270.44201096864163
 20
756.03240035831448
 11
270.44201096864163
 21
666.03240335119199
  0
LINE
  8
_0-5_寸法線
  6
CONTINUOUS
 62
    7
 10
260.44201096864163
 20
756.03240035831448
 11
175.44201096864143
 21
756.03240035831482
  0
LINE
  8
_0-5_寸法線
  6
CONTINUOUS
 62
    7
 10
180.44201096864143
 20
756.03240035831482
 11
183.03020141966655
 21
746.37314209542399
  0
LINE
  8
_0-5_寸法線
  6
CONTINUOUS
 62
    7
 10
180.44201096864143
 20
756.03240035831482
 11
177.85382051761616
 21
746.37314209542399
  0
LINE
  8
_0-5_寸法線
  6
CONTINUOUS
 62
    7
 10
260.44201096864163
 20
666.03240335119199
 11
175.44201096864143
 21
666.0324033511921
  0
LINE
  8
_0-5_寸法線
  6
CONTINUOUS
 62
    7
 10
180.44201096864143
 20
666.0324033511921
 11
177.85382051761616
 21
675.69166161408293
  0
LINE
  8
_0-5_寸法線
  6
CONTINUOUS
 62
    7
 10
180.44201096864143
 20
666.0324033511921
 11
183.03020141966655
 21
675.69166161408293
  0
LINE
  8
_0-5_寸法線
  6
CONTINUOUS
 62
    7
 10
180.44201096864143
 20
756.03240035831482
 11
180.44201096864143
 21
666.0324033511921
  0
TEXT
  8
_0-5_寸法線
 62
    7
 10
180.44201096864143
 20
703.5324018547534
 40
15
 41
1
 50
90
  1
90
  0
LINE
  8
_0-5_寸法線
  6
CONTINUOUS
 62
    7
 10
220.44201096864143
 20
756.03240035831448
 11
217.85382051761621
 21
765.69165862120531
  0
LINE
  8
_0-5_寸法線
  6
CONTINUOUS
 62
    7
 10
220.44201096864143
 20
756.03240035831448
 11
223.03020141966664
 21
765.69165862120531
  0
LINE
  8
_0-5_寸法線
  6
CONTINUOUS
 62
    7
 10
260.44201096864163
 20
753.03240035951467
 11
215.44201096864143
 21
753.03240035951467
  0
CIRCLE
  8
_0-5_寸法線
  6
CONTINUOUS
 62
    1
 10
220.44201096864143
 20
753.03240035951467
 40
1.5000000000000002
  0
LINE
  8
_0-5_寸法線
  6
CONTINUOUS
 62
    7
 10
220.44201096864143
 20
781.03240035831448
 11
220.44201096864143
 21
753.03240035951467
  0
TEXT
  8
_0-5_寸法線
 62
    7
 10
220.44201096864143
 20
761.77422134596725
 40
15
 41
1
 50
90
  1
3
  0
LINE
  8
_0-5_寸法線
  6
CONTINUOUS
 62
    7
 10
260.44201096864163
 20
751.53240185475215
 11
215.44201096864143
 21
751.53240185475215
  0
LINE
  8
_0-5_寸法線
  6
CONTINUOUS
 62
    7
 10
220.44201096864143
 20
753.03240035951467
 11
220.44201096864143
 21
751.53240185475215
  0
TEXT
  8
_0-5_寸法線
 62
    7
 10
235.44201096864143
 20
728.55570282744895
 40
15
 41
1
 50
90
  1
1.5
  0
LINE
  8
_0-5_寸法線
  6
CONTINUOUS
 62
    7
 10
220.44201096864143
 20
751.53240185475215
 11
223.03020141966655
 21
741.87314359186132
  0
LINE
  8
_0-5_寸法線
  6
CONTINUOUS
 62
    7
 10
220.44201096864143
 20
751.53240185475215
 11
217.85382051761616
 21
741.87314359186132
  0
LINE
  8
_0-5_寸法線
  6
CONTINUOUS
 62
    7
 10
260.44201096864163
 20
670.53240185475386
 11
215.44201096864143
 21
670.53240185475386
  0
LINE
  8
_0-5_寸法線
  6
CONTINUOUS
 62
    7
 10
220.44201096864143
 20
670.53240185475386
 11
217.85382051761616
 21
680.19166011764457
  0
LINE
  8
_0-5_寸法線
  6
CONTINUOUS
 62
    7
 10
220.44201096864143
 20
670.53240185475386
 11
223.03020141966655
 21
680.19166011764457
  0
LINE
  8
_0-5_寸法線
  6
CONTINUOUS
 62
    7
 10
220.44201096864143
 20
751.53240185475215
 11
220.44201096864143
 21
670.53240185475386
  0
TEXT
  8
_0-5_寸法線
 62
    7
 10
220.44201096864143
 20
703.53240185475306
 40
15
 41
1
 50
90
  1
81
  0
LINE
  8
_0-5_寸法線
  6
CONTINUOUS
 62
    7
 10
260.44201096864163
 20
669.03240334999214
 11
215.44201096864143
 21
669.03240334999214
  0
CIRCLE
  8
_0-5_寸法線
  6
CONTINUOUS
 62
    1
 10
220.44201096864143
 20
669.03240334999214
 40
1.5000000000000002
  0
LINE
  8
_0-5_寸法線
  6
CONTINUOUS
 62
    7
 10
220.44201096864143
 20
670.53240185475386
 11
220.44201096864143
 21
669.03240334999214
  0
TEXT
  8
_0-5_寸法線
 62
    7
 10
235.44201096864143
 20
670.229776901523
 40
15
 41
1
 50
90
  1
1.5
  0
LINE
  8
_0-5_寸法線
  6
CONTINUOUS
 62
    7
 10
220.44201096864143
 20
666.03240335119199
 11
223.03020141966655
 21
656.37314508830116
  0
LINE
  8
_0-5_寸法線
  6
CONTINUOUS
 62
    7
 10
220.44201096864143
 20
666.03240335119199
 11
217.85382051761616
 21
656.37314508830116
  0
LINE
  8
_0-5_寸法線
  6
CONTINUOUS
 62
    7
 10
220.44201096864143
 20
669.03240334999214
 11
220.44201096864143
 21
641.03240335119199
  0
TEXT
  8
_0-5_寸法線
 62
    7
 10
220.44201096864143
 20
653.31496208670831
 40
15
 41
1
 50
90
  1
3
  0
LINE
  8
_0-1_計細線
  6
CONTINUOUS
 62
    3
 10
1234.4420109686416
 20
572.93589043749967
 11
1236.4420109686416
 21
574.93589043749967
  0
LINE
  8
_0-1_計細線
  6
CONTINUOUS
 62
    3
 10
1234.4420109686416
 20
570.93589043749967
 11
1236.4420109686416
 21
568.93589043749967
  0
LINE
  8
_0-1_計細線
  6
CONTINUOUS
 62
    3
 10
1234.4420109686416
 20
570.93589043749967
 11
1234.4420109686416
 21
572.93589043749967
  0
LINE
  8
_0-1_計細線
  6
CONTINUOUS
 62
    3
 10
1222.4420109686416
 20
572.93589043749967
 11
1220.4420109686416
 21
574.93589043749967
  0
LINE
  8
_0-1_計細線
  6
CONTINUOUS
 62
    3
 10
1222.4420109686416
 20
570.93589043749967
 11
1220.4420109686416
 21
568.93589043749967
  0
LINE
  8
_0-1_計細線
  6
CONTINUOUS
 62
    3
 10
1222.4420109686416
 20
570.93589043749967
 11
1222.4420109686416
 21
572.93589043749967
  0
LINE
  8
_0-0_計極細
  6
CENTER1
 62
    2
 10
1228.4420109686416
 20
588.5972919526514
 11
1228.4420109686416
 21
550.7792363970957
  0
LINE
  8
_0-1_計細線
  6
CONTINUOUS
 62
    3
 10
1220.4420109686416
 20
574.93589043749967
 11
1220.4420109686416
 21
584.93589043749967
  0
LINE
  8
_0-1_計細線
  6
CONTINUOUS
 62
    3
 10
1220.4420109686416
 20
584.93589043749967
 11
1222.4420109686416
 21
586.93589043749967
  0
LINE
  8
_0-1_計細線
  6
CONTINUOUS
 62
    3
 10
1236.4420109686416
 20
574.93589043749967
 11
1236.4420109686416
 21
584.93589043749967
  0
LINE
  8
_0-1_計細線
  6
CONTINUOUS
 62
    3
 10
1222.4420109686416
 20
586.93589043749967
 11
1234.4420109686416
 21
586.93589043749967
  0
LINE
  8
_0-1_計細線
  6
CONTINUOUS
 62
    3
 10
1236.4420109686416
 20
584.93589043749967
 11
1234.4420109686416
 21
586.93589043749967
  0
LINE
  8
_0-1_計細線
  6
CONTINUOUS
 62
    3
 10
1220.4420109686416
 20
554.93589043749967
 11
1220.4420109686416
 21
568.93589043749967
  0
ARC
  8
_0-1_計細線
  6
CONTINUOUS
 62
    3
 10
1223.4420109686416
 20
554.93589043749967
 40
3.0000000000000004
 50
179.99999999999983
 51
269.99999999999977
  0
LINE
  8
_0-1_計細線
  6
CONTINUOUS
 62
    3
 10
1233.4420109686416
 20
551.93589043749967
 11
1223.4420109686416
 21
551.93589043749967
  0
LINE
  8
_0-1_計細線
  6
CONTINUOUS
 62
    3
 10
1236.4420109686416
 20
568.93589043749967
 11
1236.4420109686416
 21
554.93589043749967
  0
ARC
  8
_0-1_計細線
  6
CONTINUOUS
 62
    3
 10
1233.4420109686416
 20
554.93589043749967
 40
3.0000000000000004
 50
269.99999999999977
 51
359.99999999999966
  0
LINE
  8
_0-1_計細線
  6
CONTINUOUS
 62
    3
 10
270.44201096864163
 20
597.93589043749967
 11
1278.4420109686416
 21
597.93589043749967
  0
LINE
  8
_0-1_計細線
  6
CONTINUOUS
 62
    3
 10
1278.4420109686416
 20
597.93589043749967
 11
1278.4420109686416
 21
574.93589043749967
  0
LINE
  8
_0-1_計細線
  6
CONTINUOUS
 62
    3
 10
1278.4420109686416
 20
574.93589043749967
 11
1236.4420109686416
 21
574.93589043749967
  0
LINE
  8
_0-1_計細線
  6
DASHED2
 62
    3
 10
1236.4420109686416
 20
574.93589043749967
 11
1220.4420109686416
 21
574.93589043749967
  0
LINE
  8
_0-5_寸法線
  6
CONTINUOUS
 62
    7
 10
270.44201096864157
 20
564.93589043749967
 11
270.4420109686414
 21
509.93589043749972
  0
LINE
  8
_0-5_寸法線
  6
CONTINUOUS
 62
    7
 10
270.4420109686414
 20
514.93589043749967
 11
280.10126923153211
 21
517.52408088852485
  0
LINE
  8
_0-5_寸法線
  6
CONTINUOUS
 62
    7
 10
270.4420109686414
 20
514.93589043749967
 11
280.10126923153211
 21
512.34769998647448
  0
LINE
  8
_0-5_寸法線
  6
CONTINUOUS
 62
    7
 10
320.4420109686414
 20
541.93589043749967
 11
320.4420109686414
 21
509.93589043749972
  0
LINE
  8
_0-5_寸法線
  6
CONTINUOUS
 62
    7
 10
320.4420109686414
 20
514.93589043749967
 11
310.78275270575068
 21
512.34769998647448
  0
LINE
  8
_0-5_寸法線
  6
CONTINUOUS
 62
    7
 10
320.4420109686414
 20
514.93589043749967
 11
310.7827527057508
 21
517.52408088852485
  0
LINE
  8
_0-5_寸法線
  6
CONTINUOUS
 62
    7
 10
270.4420109686414
 20
514.93589043749967
 11
320.4420109686414
 21
514.93589043749967
  0
TEXT
  8
_0-5_寸法線
 62
    7
 10
287.94201096864163
 20
514.93589043749967
 40
15
 41
1
 50
0
  1
50
  0
LINE
  8
_0-5_寸法線
  6
CONTINUOUS
 62
    7
 10
320.4420109686414
 20
514.93589043749967
 11
330.10126923153217
 21
517.52408088852485
  0
LINE
  8
_0-5_寸法線
  6
CONTINUOUS
 62
    7
 10
320.4420109686414
 20
514.93589043749967
 11
330.10126923153211
 21
512.34769998647437
  0
LINE
  8
_0-5_寸法線
  6
CONTINUOUS
 62
    7
 10
1228.4420109686416
 20
541.93589043749967
 11
1228.4420109686416
 21
509.93589043749972
  0
LINE
  8
_0-5_寸法線
  6
CONTINUOUS
 62
    7
 10
1228.4420109686416
 20
514.93589043749967
 11
1218.7827527057511
 21
512.34769998647448
  0
LINE
  8
_0-5_寸法線
  6
CONTINUOUS
 62
    7
 10
1228.4420109686416
 20
514.93589043749967
 11
1218.7827527057511
 21
517.52408088852485
  0
LINE
  8
_0-5_寸法線
  6
CONTINUOUS
 62
    7
 10
320.4420109686414
 20
514.93589043749967
 11
1228.4420109686416
 21
514.93589043749967
  0
TEXT
  8
_0-5_寸法線
 62
    7
 10
751.94201096864151
 20
514.93589043749967
 40
15
 41
1
 50
0
  1
＠×Ｎ
  0
LINE
  8
_0-5_寸法線
  6
CONTINUOUS
 62
    7
 10
1228.4420109686416
 20
514.93589043749967
 11
1238.1012692315323
 21
517.52408088852485
  0
LINE
  8
_0-5_寸法線
  6
CONTINUOUS
 62
    7
 10
1228.4420109686416
 20
514.93589043749967
 11
1238.1012692315323
 21
512.34769998647437
  0
LINE
  8
_0-5_寸法線
  6
CONTINUOUS
 62
    7
 10
1278.4420109686416
 20
564.93589043749967
 11
1278.4420109686416
 21
509.93589043749972
  0
LINE
  8
_0-5_寸法線
  6
CONTINUOUS
 62
    7
 10
1278.4420109686416
 20
514.93589043749967
 11
1268.7827527057511
 21
512.34769998647448
  0
LINE
  8
_0-5_寸法線
  6
CONTINUOUS
 62
    7
 10
1278.4420109686416
 20
514.93589043749967
 11
1268.7827527057511
 21
517.52408088852485
  0
LINE
  8
_0-5_寸法線
  6
CONTINUOUS
 62
    7
 10
1228.4420109686416
 20
514.93589043749967
 11
1278.4420109686416
 21
514.93589043749967
  0
TEXT
  8
_0-5_寸法線
 62
    7
 10
1245.9420109686412
 20
514.93589043749967
 40
15
 41
1
 50
0
  1
50
  0
LINE
  8
_0-1_計細線
  6
CONTINUOUS
 62
    3
 10
1275.4419713354255
 20
724.53240147094891
 11
1275.4419713354255
 21
711.53240183455273
  0
LINE
  8
_0-1_計細線
  6
CONTINUOUS
 62
    3
 10
1275.4419713354255
 20
753.03240035951467
 11
1275.4419713354255
 21
669.03240334999214
  0
LINE
  8
_0-1_計細線
  6
CONTINUOUS
 62
    3
 10
1278.4419713342249
 20
666.03240335119199
 11
1278.4419713342249
 21
756.03240035831482
  0
LINE
  8
_0-1_計細線
  6
CONTINUOUS
 62
    3
 10
1278.4419713342249
 20
756.03240035831448
 11
270.44201096864163
 21
756.03240035831448
  0
LINE
  8
_0-1_計細線
  6
CONTINUOUS
 62
    3
 10
273.44201096744155
 20
753.03240035951467
 11
1275.4419713354255
 21
753.03240035951467
  0
LINE
  8
_0-1_計細線
  6
CONTINUOUS
 62
    3
 10
270.44201096864163
 20
666.03240335119199
 11
1278.4419713342249
 21
666.03240335119199
  0
LINE
  8
_0-1_計細線
  6
CONTINUOUS
 62
    3
 10
273.44201096744155
 20
669.03240334999214
 11
1275.4419713354255
 21
669.03240334999214
  0
LINE
  8
_0-1_計細線
  6
CONTINUOUS
 62
    3
 10
274.94201096744155
 20
751.53240185475215
 11
1273.9420109674415
 21
751.53240185475215
  0
LINE
  8
_0-1_計細線
  6
CONTINUOUS
 62
    3
 10
274.94201096744155
 20
740.13240185475161
 11
1273.9420109674415
 21
740.13240185475161
  0
LINE
  8
_0-1_計細線
  6
CONTINUOUS
 62
    3
 10
274.94201096744155
 20
751.53240185475215
 11
274.94201096744155
 21
740.13240185475161
  0
LINE
  8
_0-1_計細線
  6
CONTINUOUS
 62
    3
 10
1273.9420109674415
 20
751.53240185475215
 11
1273.9420109674415
 21
740.13240185475161
  0
LINE
  8
_0-0_計極細
  6
CONTINUOUS
 62
    2
 10
274.94201096744155
 20
743.33240185475222
 11
1273.9420109674415
 21
743.33240185475222
  0
LINE
  8
_0-0_計極細
  6
CONTINUOUS
 62
    2
 10
274.94201096744155
 20
748.33240185475222
 11
1273.9420109674415
 21
748.33240185475222
  0
LINE
  8
_0-1_計細線
  6
CONTINUOUS
 62
    3
 10
274.94201096744155
 20
670.53240185475386
 11
1273.9420109674415
 21
670.53240185475386
  0
LINE
  8
_0-1_計細線
  6
CONTINUOUS
 62
    3
 10
274.94201096744155
 20
681.93240185475452
 11
1273.9420109674415
 21
681.93240185475452
  0
LINE
  8
_0-1_計細線
  6
CONTINUOUS
 62
    3
 10
274.94201096744155
 20
670.53240185475386
 11
274.94201096744155
 21
681.93240185475452
  0
LINE
  8
_0-1_計細線
  6
CONTINUOUS
 62
    3
 10
1273.9420109674415
 20
670.53240185475386
 11
1273.9420109674415
 21
681.93240185475452
  0
LINE
  8
_0-0_計極細
  6
CONTINUOUS
 62
    2
 10
274.94201096744155
 20
678.73240185475368
 11
1273.9420109674415
 21
678.73240185475368
  0
LINE
  8
_0-0_計極細
  6
CONTINUOUS
 62
    2
 10
274.94201096744155
 20
673.73240185475368
 11
1273.9420109674415
 21
673.73240185475368
  0
LINE
  8
_0-1_計細線
  6
CONTINUOUS
 62
    3
 10
274.94201096744155
 20
687.9324018547544
 11
1273.9420109674415
 21
687.9324018547544
  0
LINE
  8
_0-1_計細線
  6
CONTINUOUS
 62
    3
 10
274.94201096744155
 20
699.33240185475495
 11
1273.9420109674415
 21
699.33240185475495
  0
LINE
  8
_0-1_計細線
  6
CONTINUOUS
 62
    3
 10
274.94201096744155
 20
687.9324018547544
 11
274.94201096744155
 21
699.33240185475495
  0
LINE
  8
_0-1_計細線
  6
CONTINUOUS
 62
    3
 10
1273.9420109674415
 20
687.9324018547544
 11
1273.9420109674415
 21
699.33240185475495
  0
LINE
  8
_0-0_計極細
  6
CONTINUOUS
 62
    2
 10
274.94201096744155
 20
696.13240185475479
 11
1273.9420109674415
 21
696.13240185475479
  0
LINE
  8
_0-0_計極細
  6
CONTINUOUS
 62
    2
 10
274.94201096744155
 20
691.13240185475479
 11
1273.9420109674415
 21
691.13240185475479
  0
LINE
  8
_0-0_計極細
  6
CENTER1
 62
    2
 10
258.23263650447234
 20
711.03240185475306
 11
1285.7104142822548
 21
711.03240185475306
  0
LINE
  8
_0-0_計極細
  6
CONTINUOUS
 62
    2
 10
282.9420109674416
 20
740.13240185475161
 11
282.9420109674416
 21
734.13240185475149
  0
LINE
  8
_0-0_計極細
  6
CONTINUOUS
 62
    2
 10
295.94201096744155
 20
740.13240185475161
 11
295.94201096744155
 21
734.13240185475149
  0
LINE
  8
_0-0_計極細
  6
CONTINUOUS
 62
    2
 10
282.9420109674416
 20
722.73240185475106
 11
282.9420109674416
 21
716.73240185475095
  0
LINE
  8
_0-0_計極細
  6
CONTINUOUS
 62
    2
 10
295.94201096744155
 20
722.73240185475106
 11
295.94201096744155
 21
716.73240185475095
  0
LINE
  8
_0-0_計極細
  6
CONTINUOUS
 62
    2
 10
282.9420109674416
 20
705.3324018547504
 11
282.9420109674416
 21
699.3324018547504
  0
LINE
  8
_0-0_計極細
  6
CONTINUOUS
 62
    2
 10
295.94201096744155
 20
705.3324018547504
 11
295.94201096744155
 21
699.3324018547504
  0
LINE
  8
_0-0_計極細
  6
CONTINUOUS
 62
    2
 10
282.9420109674416
 20
681.93240185475452
 11
282.9420109674416
 21
687.9324018547544
  0
LINE
  8
_0-0_計極細
  6
CONTINUOUS
 62
    2
 10
295.94201096744155
 20
681.93240185475452
 11
295.94201096744155
 21
687.9324018547544
  0
LINE
  8
_0-0_計極細
  6
CENTER1
 62
    2
 10
289.44201096744155
 20
757.95672187789694
 11
289.44201096744155
 21
663.9067218778963
  0
LINE
  8
_0-0_計極細
  6
CONTINUOUS
 62
    2
 10
379.94201096744155
 20
740.13240185475161
 11
379.94201096744155
 21
734.13240185475149
  0
LINE
  8
_0-0_計極細
  6
CONTINUOUS
 62
    2
 10
392.9420109674416
 20
740.13240185475161
 11
392.9420109674416
 21
734.13240185475149
  0
LINE
  8
_0-0_計極細
  6
CONTINUOUS
 62
    2
 10
379.94201096744155
 20
705.3324018547504
 11
379.94201096744155
 21
699.3324018547504
  0
LINE
  8
_0-0_計極細
  6
CONTINUOUS
 62
    2
 10
392.9420109674416
 20
705.3324018547504
 11
392.9420109674416
 21
699.3324018547504
  0
LINE
  8
_0-0_計極細
  6
CONTINUOUS
 62
    2
 10
379.94201096744155
 20
681.93240185475452
 11
379.94201096744155
 21
687.9324018547544
  0
LINE
  8
_0-0_計極細
  6
CONTINUOUS
 62
    2
 10
392.9420109674416
 20
681.93240185475452
 11
392.9420109674416
 21
687.9324018547544
  0
LINE
  8
_0-0_計極細
  6
CENTER1
 62
    2
 10
386.44201096744155
 20
757.95672187789694
 11
386.44201096744155
 21
663.9067218778963
  0
LINE
  8
_0-0_計極細
  6
CONTINUOUS
 62
    2
 10
476.9420109674416
 20
740.13240185475161
 11
476.9420109674416
 21
734.13240185475149
  0
LINE
  8
_0-0_計極細
  6
CONTINUOUS
 62
    2
 10
489.94201096744155
 20
740.13240185475161
 11
489.94201096744155
 21
734.13240185475149
  0
LINE
  8
_0-0_計極細
  6
CONTINUOUS
 62
    2
 10
476.9420109674416
 20
722.73240185475106
 11
476.9420109674416
 21
716.73240185475095
  0
LINE
  8
_0-0_計極細
  6
CONTINUOUS
 62
    2
 10
489.94201096744155
 20
722.73240185475106
 11
489.94201096744155
 21
716.73240185475095
  0
LINE
  8
_0-0_計極細
  6
CONTINUOUS
 62
    2
 10
476.9420109674416
 20
705.3324018547504
 11
476.9420109674416
 21
699.3324018547504
  0
LINE
  8
_0-0_計極細
  6
CONTINUOUS
 62
    2
 10
489.94201096744155
 20
705.3324018547504
 11
489.94201096744155
 21
699.3324018547504
  0
LINE
  8
_0-0_計極細
  6
CONTINUOUS
 62
    2
 10
476.9420109674416
 20
681.93240185475452
 11
476.9420109674416
 21
687.9324018547544
  0
LINE
  8
_0-0_計極細
  6
CONTINUOUS
 62
    2
 10
489.94201096744155
 20
681.93240185475452
 11
489.94201096744155
 21
687.9324018547544
  0
LINE
  8
_0-5_寸法線
  6
CONTINUOUS
 62
    7
 10
483.44201096744155
 20
774.00746679781355
 11
493.10125231943147
 21
776.59565025409177
  0
LINE
  8
_0-5_寸法線
  6
CONTINUOUS
 62
    7
 10
483.44201096744155
 20
774.00746679781355
 11
493.10125231943147
 21
771.4192766748755
  0
LINE
  8
_0-5_寸法線
  6
CONTINUOUS
 62
    7
 10
483.44201096744155
 20
774.00746679781355
 11
527.62372800311425
 21
774.00746679781355
  0
LINE
  8
_0-5_寸法線
  6
CONTINUOUS
 62
    7
 10
483.44201096744155
 20
627.88564653315382
 11
493.10125231943147
 21
625.29745641021634
  0
LINE
  8
_0-5_寸法線
  6
CONTINUOUS
 62
    7
 10
483.44201096744155
 20
627.88564653315382
 11
493.10125231943147
 21
630.4738299894326
  0
LINE
  8
_0-5_寸法線
  6
CONTINUOUS
 62
    7
 10
483.44201096744155
 20
627.88564653315382
 11
527.62372800311425
 21
627.88564653315382
  0
LINE
  8
_0-0_計極細
  6
CENTER1
 62
    2
 10
483.44201096744155
 20
798.2607009585422
 11
483.44201096744155
 21
620.53339272374194
  0
LINE
  8
_0-0_計極細
  6
CONTINUOUS
 62
    2
 10
573.94201096744132
 20
740.13240185475161
 11
573.94201096744132
 21
734.13240185475149
  0
LINE
  8
_0-0_計極細
  6
CONTINUOUS
 62
    2
 10
586.94201096744155
 20
740.13240185475161
 11
586.94201096744155
 21
734.13240185475149
  0
LINE
  8
_0-0_計極細
  6
CONTINUOUS
 62
    2
 10
573.94201096744132
 20
722.73240185475106
 11
573.94201096744132
 21
716.73240185475095
  0
LINE
  8
_0-0_計極細
  6
CONTINUOUS
 62
    2
 10
586.94201096744155
 20
722.73240185475106
 11
586.94201096744155
 21
716.73240185475095
  0
LINE
  8
_0-0_計極細
  6
CONTINUOUS
 62
    2
 10
573.94201096744132
 20
705.3324018547504
 11
573.94201096744132
 21
699.3324018547504
  0
LINE
  8
_0-0_計極細
  6
CONTINUOUS
 62
    2
 10
586.94201096744155
 20
705.3324018547504
 11
586.94201096744155
 21
699.3324018547504
  0
LINE
  8
_0-0_計極細
  6
CONTINUOUS
 62
    2
 10
573.94201096744132
 20
681.93240185475452
 11
573.94201096744132
 21
687.9324018547544
  0
LINE
  8
_0-0_計極細
  6
CONTINUOUS
 62
    2
 10
586.94201096744155
 20
681.93240185475452
 11
586.94201096744155
 21
687.9324018547544
  0
LINE
  8
_0-0_計極細
  6
CENTER1
 62
    2
 10
580.44201096744155
 20
757.95672187789694
 11
580.44201096744155
 21
663.9067218778963
  0
LINE
  8
_0-0_計極細
  6
CONTINUOUS
 62
    2
 10
670.94201096744155
 20
740.13240185475161
 11
670.94201096744155
 21
734.13240185475149
  0
LINE
  8
_0-0_計極細
  6
CONTINUOUS
 62
    2
 10
683.94201096744155
 20
740.13240185475161
 11
683.94201096744155
 21
734.13240185475149
  0
LINE
  8
_0-0_計極細
  6
CONTINUOUS
 62
    2
 10
670.94201096744155
 20
722.73240185475106
 11
670.94201096744155
 21
716.73240185475095
  0
LINE
  8
_0-0_計極細
  6
CONTINUOUS
 62
    2
 10
683.94201096744155
 20
722.73240185475106
 11
683.94201096744155
 21
716.73240185475095
  0
LINE
  8
_0-0_計極細
  6
CONTINUOUS
 62
    2
 10
670.94201096744155
 20
705.3324018547504
 11
670.94201096744155
 21
699.3324018547504
  0
LINE
  8
_0-0_計極細
  6
CONTINUOUS
 62
    2
 10
683.94201096744155
 20
705.3324018547504
 11
683.94201096744155
 21
699.3324018547504
  0
LINE
  8
_0-0_計極細
  6
CONTINUOUS
 62
    2
 10
670.94201096744155
 20
681.93240185475452
 11
670.94201096744155
 21
687.9324018547544
  0
LINE
  8
_0-0_計極細
  6
CONTINUOUS
 62
    2
 10
683.94201096744155
 20
681.93240185475452
 11
683.94201096744155
 21
687.9324018547544
  0
LINE
  8
_0-0_計極細
  6
CENTER1
 62
    2
 10
677.44201096744166
 20
757.95672187789694
 11
677.44201096744166
 21
663.9067218778963
  0
LINE
  8
_0-0_計極細
  6
CONTINUOUS
 62
    2
 10
1252.9420109674415
 20
740.13240185475161
 11
1252.9420109674415
 21
734.13240185475149
  0
LINE
  8
_0-0_計極細
  6
CONTINUOUS
 62
    2
 10
1265.9420109674415
 20
740.13240185475161
 11
1265.9420109674415
 21
734.13240185475149
  0
LINE
  8
_0-0_計極細
  6
CONTINUOUS
 62
    2
 10
1252.9420109674415
 20
722.73240185475106
 11
1252.9420109674415
 21
716.73240185475095
  0
LINE
  8
_0-0_計極細
  6
CONTINUOUS
 62
    2
 10
1265.9420109674415
 20
722.73240185475106
 11
1265.9420109674415
 21
716.73240185475095
  0
LINE
  8
_0-0_計極細
  6
CONTINUOUS
 62
    2
 10
1252.9420109674415
 20
705.3324018547504
 11
1252.9420109674415
 21
699.3324018547504
  0
LINE
  8
_0-0_計極細
  6
CONTINUOUS
 62
    2
 10
1265.9420109674415
 20
705.3324018547504
 11
1265.9420109674415
 21
699.3324018547504
  0
LINE
  8
_0-0_計極細
  6
CONTINUOUS
 62
    2
 10
1252.9420109674415
 20
681.93240185475452
 11
1252.9420109674415
 21
687.9324018547544
  0
LINE
  8
_0-0_計極細
  6
CONTINUOUS
 62
    2
 10
1265.9420109674415
 20
681.93240185475452
 11
1265.9420109674415
 21
687.9324018547544
  0
LINE
  8
_0-0_計極細
  6
CENTER1
 62
    2
 10
1259.4420109674415
 20
757.95672187789694
 11
1259.4420109674415
 21
663.9067218778963
  0
LINE
  8
_0-0_計極細
  6
CONTINUOUS
 62
    2
 10
767.94201096744155
 20
740.13240185475161
 11
767.94201096744155
 21
734.13240185475149
  0
LINE
  8
_0-0_計極細
  6
CONTINUOUS
 62
    2
 10
780.94201096744155
 20
740.13240185475161
 11
780.94201096744155
 21
734.13240185475149
  0
LINE
  8
_0-0_計極細
  6
CONTINUOUS
 62
    2
 10
767.94201096744155
 20
722.73240185475106
 11
767.94201096744155
 21
716.73240185475095
  0
LINE
  8
_0-0_計極細
  6
CONTINUOUS
 62
    2
 10
780.94201096744155
 20
722.73240185475106
 11
780.94201096744155
 21
716.73240185475095
  0
LINE
  8
_0-0_計極細
  6
CONTINUOUS
 62
    2
 10
767.94201096744155
 20
705.3324018547504
 11
767.94201096744155
 21
699.3324018547504
  0
LINE
  8
_0-0_計極細
  6
CONTINUOUS
 62
    2
 10
780.94201096744155
 20
705.3324018547504
 11
780.94201096744155
 21
699.3324018547504
  0
LINE
  8
_0-0_計極細
  6
CONTINUOUS
 62
    2
 10
767.94201096744155
 20
681.93240185475452
 11
767.94201096744155
 21
687.9324018547544
  0
LINE
  8
_0-0_計極細
  6
CONTINUOUS
 62
    2
 10
780.94201096744155
 20
681.93240185475452
 11
780.94201096744155
 21
687.9324018547544
  0
LINE
  8
_0-0_計極細
  6
CENTER1
 62
    2
 10
774.44201096744166
 20
757.95672187789694
 11
774.44201096744166
 21
663.9067218778963
  0
LINE
  8
_0-0_計極細
  6
CONTINUOUS
 62
    2
 10
864.94201096744166
 20
740.13240185475161
 11
864.94201096744166
 21
734.13240185475149
  0
LINE
  8
_0-0_計極細
  6
CONTINUOUS
 62
    2
 10
877.94201096744155
 20
740.13240185475161
 11
877.94201096744155
 21
734.13240185475149
  0
LINE
  8
_0-0_計極細
  6
CONTINUOUS
 62
    2
 10
864.94201096744166
 20
722.73240185475106
 11
864.94201096744166
 21
716.73240185475095
  0
LINE
  8
_0-0_計極細
  6
CONTINUOUS
 62
    2
 10
877.94201096744155
 20
722.73240185475106
 11
877.94201096744155
 21
716.73240185475095
  0
LINE
  8
_0-0_計極細
  6
CONTINUOUS
 62
    2
 10
864.94201096744166
 20
705.3324018547504
 11
864.94201096744166
 21
699.3324018547504
  0
LINE
  8
_0-0_計極細
  6
CONTINUOUS
 62
    2
 10
877.94201096744155
 20
705.3324018547504
 11
877.94201096744155
 21
699.3324018547504
  0
LINE
  8
_0-0_計極細
  6
CONTINUOUS
 62
    2
 10
864.94201096744166
 20
681.93240185475452
 11
864.94201096744166
 21
687.9324018547544
  0
LINE
  8
_0-0_計極細
  6
CONTINUOUS
 62
    2
 10
877.94201096744155
 20
681.93240185475452
 11
877.94201096744155
 21
687.9324018547544
  0
LINE
  8
_0-0_計極細
  6
CENTER1
 62
    2
 10
871.44201096744155
 20
757.95672187789694
 11
871.44201096744155
 21
663.9067218778963
  0
LINE
  8
_0-0_計極細
  6
CONTINUOUS
 62
    2
 10
961.94201096744166
 20
740.13240185475161
 11
961.94201096744166
 21
734.13240185475149
  0
LINE
  8
_0-0_計極細
  6
CONTINUOUS
 62
    2
 10
974.94201096744166
 20
740.13240185475161
 11
974.94201096744166
 21
734.13240185475149
  0
LINE
  8
_0-0_計極細
  6
CONTINUOUS
 62
    2
 10
961.94201096744166
 20
722.73240185475106
 11
961.94201096744166
 21
716.73240185475095
  0
LINE
  8
_0-0_計極細
  6
CONTINUOUS
 62
    2
 10
974.94201096744166
 20
722.73240185475106
 11
974.94201096744166
 21
716.73240185475095
  0
LINE
  8
_0-0_計極細
  6
CONTINUOUS
 62
    2
 10
961.94201096744166
 20
705.3324018547504
 11
961.94201096744166
 21
699.3324018547504
  0
LINE
  8
_0-0_計極細
  6
CONTINUOUS
 62
    2
 10
974.94201096744166
 20
705.3324018547504
 11
974.94201096744166
 21
699.3324018547504
  0
LINE
  8
_0-0_計極細
  6
CONTINUOUS
 62
    2
 10
961.94201096744166
 20
681.93240185475452
 11
961.94201096744166
 21
687.9324018547544
  0
LINE
  8
_0-0_計極細
  6
CONTINUOUS
 62
    2
 10
974.94201096744166
 20
681.93240185475452
 11
974.94201096744166
 21
687.9324018547544
  0
LINE
  8
_0-0_計極細
  6
CENTER1
 62
    2
 10
968.44201096744155
 20
757.95672187789694
 11
968.44201096744155
 21
663.9067218778963
  0
LINE
  8
_0-0_計極細
  6
CONTINUOUS
 62
    2
 10
1058.9420109674415
 20
740.13240185475161
 11
1058.9420109674415
 21
734.13240185475149
  0
LINE
  8
_0-0_計極細
  6
CONTINUOUS
 62
    2
 10
1071.9420109674415
 20
740.13240185475161
 11
1071.9420109674415
 21
734.13240185475149
  0
LINE
  8
_0-0_計極細
  6
CONTINUOUS
 62
    2
 10
1058.9420109674415
 20
722.73240185475106
 11
1058.9420109674415
 21
716.73240185475095
  0
LINE
  8
_0-0_計極細
  6
CONTINUOUS
 62
    2
 10
1071.9420109674415
 20
722.73240185475106
 11
1071.9420109674415
 21
716.73240185475095
  0
LINE
  8
_0-0_計極細
  6
CONTINUOUS
 62
    2
 10
1058.9420109674415
 20
705.3324018547504
 11
1058.9420109674415
 21
699.3324018547504
  0
LINE
  8
_0-0_計極細
  6
CONTINUOUS
 62
    2
 10
1071.9420109674415
 20
705.3324018547504
 11
1071.9420109674415
 21
699.3324018547504
  0
LINE
  8
_0-0_計極細
  6
CONTINUOUS
 62
    2
 10
1058.9420109674415
 20
681.93240185475452
 11
1058.9420109674415
 21
687.9324018547544
  0
LINE
  8
_0-0_計極細
  6
CONTINUOUS
 62
    2
 10
1071.9420109674415
 20
681.93240185475452
 11
1071.9420109674415
 21
687.9324018547544
  0
LINE
  8
_0-0_計極細
  6
CENTER1
 62
    2
 10
1065.4420109674415
 20
757.95672187789694
 11
1065.4420109674415
 21
663.9067218778963
  0
LINE
  8
_0-0_計極細
  6
CONTINUOUS
 62
    2
 10
1155.9420109674415
 20
740.13240185475161
 11
1155.9420109674415
 21
734.13240185475149
  0
LINE
  8
_0-0_計極細
  6
CONTINUOUS
 62
    2
 10
1168.9420109674415
 20
740.13240185475161
 11
1168.9420109674415
 21
734.13240185475149
  0
LINE
  8
_0-0_計極細
  6
CONTINUOUS
 62
    2
 10
1155.9420109674415
 20
722.73240185475106
 11
1155.9420109674415
 21
716.73240185475095
  0
LINE
  8
_0-0_計極細
  6
CONTINUOUS
 62
    2
 10
1168.9420109674415
 20
722.73240185475106
 11
1168.9420109674415
 21
716.73240185475095
  0
LINE
  8
_0-0_計極細
  6
CONTINUOUS
 62
    2
 10
1155.9420109674415
 20
705.3324018547504
 11
1155.9420109674415
 21
699.3324018547504
  0
LINE
  8
_0-0_計極細
  6
CONTINUOUS
 62
    2
 10
1168.9420109674415
 20
705.3324018547504
 11
1168.9420109674415
 21
699.3324018547504
  0
LINE
  8
_0-0_計極細
  6
CONTINUOUS
 62
    2
 10
1155.9420109674415
 20
681.93240185475452
 11
1155.9420109674415
 21
687.9324018547544
  0
LINE
  8
_0-0_計極細
  6
CONTINUOUS
 62
    2
 10
1168.9420109674415
 20
681.93240185475452
 11
1168.9420109674415
 21
687.9324018547544
  0
LINE
  8
_0-0_計極細
  6
CENTER1
 62
    2
 10
1162.4420109674415
 20
757.95672187789694
 11
1162.4420109674415
 21
663.9067218778963
  0
LINE
  8
_0-1_計細線
  6
CONTINUOUS
 62
    3
 10
780.44201096864174
 20
572.93589043749967
 11
782.44201096864174
 21
574.93589043749967
  0
LINE
  8
_0-1_計細線
  6
CONTINUOUS
 62
    3
 10
780.44201096864174
 20
570.93589043749967
 11
782.44201096864174
 21
568.93589043749967
  0
LINE
  8
_0-1_計細線
  6
CONTINUOUS
 62
    3
 10
780.44201096864174
 20
570.93589043749967
 11
780.44201096864174
 21
572.93589043749967
  0
LINE
  8
_0-1_計細線
  6
CONTINUOUS
 62
    3
 10
768.44201096864163
 20
572.93589043749967
 11
766.44201096864163
 21
574.93589043749967
  0
LINE
  8
_0-1_計細線
  6
CONTINUOUS
 62
    3
 10
768.44201096864163
 20
570.93589043749967
 11
766.44201096864163
 21
568.93589043749967
  0
LINE
  8
_0-1_計細線
  6
CONTINUOUS
 62
    3
 10
768.44201096864163
 20
570.93589043749967
 11
768.44201096864163
 21
572.93589043749967
  0
LINE
  8
_0-0_計極細
  6
CENTER1
 62
    2
 10
774.44201096864163
 20
588.5972919526514
 11
774.44201096864163
 21
550.7792363970957
  0
LINE
  8
_0-1_計細線
  6
CONTINUOUS
 62
    3
 10
766.44201096864163
 20
574.93589043749967
 11
766.44201096864163
 21
584.93589043749967
  0
LINE
  8
_0-1_計細線
  6
CONTINUOUS
 62
    3
 10
766.44201096864163
 20
584.93589043749967
 11
768.44201096864163
 21
586.93589043749967
  0
LINE
  8
_0-1_計細線
  6
CONTINUOUS
 62
    3
 10
782.44201096864174
 20
574.93589043749967
 11
782.44201096864174
 21
584.93589043749967
  0
LINE
  8
_0-1_計細線
  6
CONTINUOUS
 62
    3
 10
768.44201096864163
 20
586.93589043749967
 11
780.44201096864174
 21
586.93589043749967
  0
LINE
  8
_0-1_計細線
  6
CONTINUOUS
 62
    3
 10
782.44201096864174
 20
584.93589043749967
 11
780.44201096864174
 21
586.93589043749967
  0
LINE
  8
_0-1_計細線
  6
CONTINUOUS
 62
    3
 10
766.44201096864163
 20
554.93589043749967
 11
766.44201096864163
 21
568.93589043749967
  0
ARC
  8
_0-1_計細線
  6
CONTINUOUS
 62
    3
 10
769.44201096864163
 20
554.93589043749967
 40
3.0000000000000004
 50
179.99999999999983
 51
269.99999999999977
  0
LINE
  8
_0-1_計細線
  6
CONTINUOUS
 62
    3
 10
779.44201096864163
 20
551.93589043749967
 11
769.44201096864163
 21
551.93589043749967
  0
LINE
  8
_0-1_計細線
  6
CONTINUOUS
 62
    3
 10
782.44201096864174
 20
568.93589043749967
 11
782.44201096864174
 21
554.93589043749967
  0
ARC
  8
_0-1_計細線
  6
CONTINUOUS
 62
    3
 10
779.44201096864163
 20
554.93589043749967
 40
3.0000000000000004
 50
269.99999999999977
 51
359.99999999999966
  0
LINE
  8
_0-1_計細線
  6
DASHED2
 62
    3
 10
782.44201096864174
 20
574.93589043749967
 11
766.44201096864163
 21
574.93589043749967
  0
LINE
  8
_0-1_計細線
  6
CONTINUOUS
 62
    3
 10
1220.4420109686416
 20
574.93589043749967
 11
782.44201096864174
 21
574.93589043749967
  0
LINE
  8
_0-1_計細線
  6
CONTINUOUS
 62
    3
 10
766.44201096864163
 20
574.93589043749967
 11
328.4420109686414
 21
574.93589043749967
  0
LINE
  8
_0-5_寸法線
  6
CONTINUOUS
 62
    7
 10
270.44201096864163
 20
766.03240035831448
 11
270.44201096864163
 21
846.03240035831448
  0
LINE
  8
_0-5_寸法線
  6
CONTINUOUS
 62
    7
 10
270.44201096864163
 20
841.03240035831448
 11
280.10126923153229
 21
843.62059080933977
  0
LINE
  8
_0-5_寸法線
  6
CONTINUOUS
 62
    7
 10
270.44201096864163
 20
841.03240035831448
 11
280.10126923153229
 21
838.44420990728941
  0
LINE
  8
_0-5_寸法線
  6
CONTINUOUS
 62
    7
 10
1278.4419713342249
 20
766.03240035831448
 11
1278.4419713342252
 21
846.03240035831448
  0
LINE
  8
_0-5_寸法線
  6
CONTINUOUS
 62
    7
 10
1278.4419713342252
 20
841.03240035831448
 11
1268.7827130713345
 21
838.44420990728941
  0
LINE
  8
_0-5_寸法線
  6
CONTINUOUS
 62
    7
 10
1278.4419713342252
 20
841.03240035831448
 11
1268.7827130713345
 21
843.62059080933977
  0
LINE
  8
_0-5_寸法線
  6
CONTINUOUS
 62
    7
 10
270.44201096864163
 20
841.03240035831448
 11
1278.4419713342252
 21
841.03240035831448
  0
TEXT
  8
_0-5_寸法線
 62
    7
 10
766.94199115143351
 20
841.03240035831448
 40
15
 41
1
 50
0
  1
Ｌ
  0
LINE
  8
_0-5_寸法線
  6
CONTINUOUS
 62
    7
 10
270.44201096864163
 20
766.03240035831448
 11
270.44201096864163
 21
811.03240035831448
  0
LINE
  8
_0-5_寸法線
  6
CONTINUOUS
 62
    7
 10
270.44201096864163
 20
806.03240035831448
 11
260.78275270575091
 21
803.44420990728941
  0
LINE
  8
_0-5_寸法線
  6
CONTINUOUS
 62
    7
 10
270.44201096864163
 20
806.03240035831448
 11
260.78275270575097
 21
808.62059080933977
  0
LINE
  8
_0-5_寸法線
  6
CONTINUOUS
 62
    7
 10
273.44201096744155
 20
766.03240035831448
 11
273.44201096744155
 21
811.03240035831448
  0
CIRCLE
  8
_0-5_寸法線
  6
CONTINUOUS
 62
    1
 10
273.44201096744155
 20
806.03240035831448
 40
1.5000000000000002
  0
LINE
  8
_0-5_寸法線
  6
CONTINUOUS
 62
    7
 10
245.44201096864163
 20
806.03240035831448
 11
273.44201096744155
 21
806.03240035831448
  0
TEXT
  8
_0-5_寸法線
 62
    7
 10
256.81797619708254
 20
806.03240035831448
 40
15
 41
1
 50
0
  1
3
  0
LINE
  8
_0-5_寸法線
  6
CONTINUOUS
 62
    7
 10
274.94201090684055
 20
766.03240035831448
 11
274.94201090684078
 21
811.03240035831448
  0
LINE
  8
_0-5_寸法線
  6
CONTINUOUS
 62
    7
 10
273.44201096744155
 20
806.03240035831448
 11
274.94201090684078
 21
806.03240035831448
  0
TEXT
  8
_0-5_寸法線
 62
    7
 10
274.91797619708268
 20
806.03240035831448
 40
15
 41
1
 50
0
  1
1.5
  0
LINE
  8
_0-5_寸法線
  6
CONTINUOUS
 62
    7
 10
274.94201090684078
 20
806.03240035831448
 11
284.60126916973144
 21
808.62059080933977
  0
LINE
  8
_0-5_寸法線
  6
CONTINUOUS
 62
    7
 10
274.94201090684078
 20
806.03240035831448
 11
284.60126916973144
 21
803.44420990728941
  0
LINE
  8
_0-5_寸法線
  6
CONTINUOUS
 62
    7
 10
1273.9419713354255
 20
766.03240035831448
 11
1273.9419713354257
 21
811.03240035831448
  0
LINE
  8
_0-5_寸法線
  6
CONTINUOUS
 62
    7
 10
1273.9419713354257
 20
806.03240035831448
 11
1264.282713072535
 21
803.44420990728941
  0
LINE
  8
_0-5_寸法線
  6
CONTINUOUS
 62
    7
 10
1273.9419713354257
 20
806.03240035831448
 11
1264.282713072535
 21
808.62059080933977
  0
LINE
  8
_0-5_寸法線
  6
CONTINUOUS
 62
    7
 10
274.94201090684078
 20
806.03240035831448
 11
1273.9419713354257
 21
806.03240035831448
  0
TEXT
  8
_0-5_寸法線
 62
    7
 10
766.94199112113347
 20
806.03240035831436
 40
15
 41
1
 50
0
  1
Ａ
  0
LINE
  8
_0-5_寸法線
  6
CONTINUOUS
 62
    7
 10
1275.4419713354255
 20
766.03240035831448
 11
1275.4419713354259
 21
811.03240035831448
  0
CIRCLE
  8
_0-5_寸法線
  6
CONTINUOUS
 62
    1
 10
1275.4419713354259
 20
806.03240035831448
 40
1.5000000000000002
  0
LINE
  8
_0-5_寸法線
  6
CONTINUOUS
 62
    7
 10
1273.9419713354257
 20
806.03240035831448
 11
1275.4419713354259
 21
806.03240035831448
  0
TEXT
  8
_0-5_寸法線
 62
    7
 10
1253.1124206415466
 20
806.03240035831436
 40
15
 41
1
 50
0
  1
1.5
  0
LINE
  8
_0-5_寸法線
  6
CONTINUOUS
 62
    7
 10
1278.4419713342249
 20
766.03240035831448
 11
1278.4419713342252
 21
811.03240035831448
  0
LINE
  8
_0-5_寸法線
  6
CONTINUOUS
 62
    7
 10
1278.4419713342252
 20
806.03240035831448
 11
1288.1012295971161
 21
808.62059080933977
  0
LINE
  8
_0-5_寸法線
  6
CONTINUOUS
 62
    7
 10
1278.4419713342252
 20
806.03240035831448
 11
1288.1012295971161
 21
803.44420990728918
  0
LINE
  8
_0-5_寸法線
  6
CONTINUOUS
 62
    7
 10
1275.4419713354259
 20
806.03240035831448
 11
1303.4419713342252
 21
806.03240035831448
  0
TEXT
  8
_0-5_寸法線
 62
    7
 10
1285.9569679666506
 20
806.03240035831436
 40
15
 41
1
 50
0
  1
3
  0
TEXT
  8
_0-5_寸法線
 62
    7
 10
684.88135051230415
 20
607.15565891292738
 40
15
 41
0.8000000000000001
 50
0
  1
アンカー付
  0
LINE
  8
_0-5_寸法線
  6
CONTINUOUS
 62
    7
 10
670.02699939324759
 20
667.86502938000001
 11
675.02699939324759
 21
659.2047753421557
  0
LINE
  8
_0-5_寸法線
  6
CONTINUOUS
 62
    7
 10
670.02699939324759
 20
667.86502938000001
 11
670.02699939324748
 21
657.86502938000001
  0
LINE
  8
_0-5_寸法線
  6
CONTINUOUS
 62
    7
 10
670.02699939324759
 20
667.86502938000001
 11
682.04957422259508
 21
622.99616927907493
  0
LINE
  8
_0-5_寸法線
  6
CONTINUOUS
 62
    7
 10
682.04957422259508
 20
622.99616927907493
 11
790.0495742225952
 21
622.99616927907493
  0
TEXT
  8
_0-5_寸法線
 62
    7
 10
682.04957422259508
 20
623.59616927907484
 40
15
 41
0.8000000000000001
 50
0
  1
ＳＵＳアングル受枠
  0
LINE
  8
_0-5_寸法線
  6
CONTINUOUS
 62
    7
 10
890.03791145654168
 20
693.18738499211895
 11
895.03791145654168
 21
684.52713095427441
  0
LINE
  8
_0-5_寸法線
  6
CONTINUOUS
 62
    7
 10
890.03791145654168
 20
693.18738499211895
 11
890.03791145654168
 21
683.18738499211895
  0
LINE
  8
_0-5_寸法線
  6
CONTINUOUS
 62
    7
 10
890.03791145654168
 20
693.18738499211895
 11
908.84559102261005
 21
622.99616927907493
  0
LINE
  8
_0-5_寸法線
  6
CONTINUOUS
 62
    7
 10
908.84559102261005
 20
622.99616927907493
 11
1124.8455910226103
 21
622.99616927907493
  0
TEXT
  8
_0-5_寸法線
 62
    7
 10
908.84559102261005
 20
622.99616927907493
 40
15
 41
0.8000000000000001
 50
0
  1
セーフティグレーチングスリットタイプ
  0
LINE
  8
_0-1_計細線
  6
CONTINUOUS
 62
    3
 10
274.94201096744155
 20
734.13240185475149
 11
1273.9420109674415
 21
734.13240185475149
  0
LINE
  8
_0-1_計細線
  6
CONTINUOUS
 62
    3
 10
1273.9420109674415
 20
734.13240185475149
 11
1273.9420109674415
 21
722.73240185475106
  0
LINE
  8
_0-0_計極細
  6
CONTINUOUS
 62
    2
 10
274.94201096744155
 20
725.93240185475122
 11
1273.9420109674415
 21
725.93240185475122
  0
LINE
  8
_0-0_計極細
  6
CONTINUOUS
 62
    2
 10
274.94201096744155
 20
730.93240185475122
 11
1273.9420109674415
 21
730.93240185475122
  0
LINE
  8
_0-1_計細線
  6
CONTINUOUS
 62
    3
 10
274.94201096744155
 20
734.13240185475149
 11
274.94201096744155
 21
722.73240185475106
  0
LINE
  8
_0-1_計細線
  6
CONTINUOUS
 62
    3
 10
274.94201096744155
 20
722.73240185475106
 11
1273.9420109674415
 21
722.73240185475106
  0
LINE
  8
_0-1_計細線
  6
CONTINUOUS
 62
    3
 10
274.94201096744155
 20
705.3324018547504
 11
1273.9420109674415
 21
705.3324018547504
  0
LINE
  8
_0-1_計細線
  6
CONTINUOUS
 62
    3
 10
1273.9420109674415
 20
716.73240185475095
 11
1273.9420109674415
 21
705.3324018547504
  0
LINE
  8
_0-0_計極細
  6
CONTINUOUS
 62
    2
 10
274.94201096744155
 20
708.53240185475079
 11
1273.9420109674415
 21
708.53240185475079
  0
LINE
  8
_0-0_計極細
  6
CONTINUOUS
 62
    2
 10
274.94201096744155
 20
713.53240185475079
 11
1273.9420109674415
 21
713.53240185475079
  0
LINE
  8
_0-1_計細線
  6
CONTINUOUS
 62
    3
 10
274.94201096744155
 20
716.73240185475095
 11
1273.9420109674415
 21
716.73240185475095
  0
LINE
  8
_0-1_計細線
  6
CONTINUOUS
 62
    3
 10
274.94201096744155
 20
716.73240185475095
 11
274.94201096744155
 21
705.3324018547504
  0
LINE
  8
_0-1_計細線
  6
CONTINUOUS
 62
    3
 10
342.44201096744064
 20
717.38240185475183
 11
401.44201096744069
 21
717.38240185475183
  0
LINE
  8
_0-1_計細線
  6
CONTINUOUS
 62
    3
 10
401.44201096744069
 20
722.08240185475165
 11
342.44201096744064
 21
722.08240185475165
  0
LINE
  8
_0-1_計細線
  6
CONTINUOUS
 62
    3
 10
342.44201096744064
 20
722.08240185475165
 11
342.44201096744064
 21
717.38240185475183
  0
LINE
  8
_0-1_計細線
  6
CONTINUOUS
 62
    3
 10
391.44201096744069
 20
722.08240185475165
 11
391.44201096744069
 21
717.38240185475183
  0
LINE
  8
_0-1_計細線
  6
CONTINUOUS
 62
    3
 10
399.44201096744064
 20
722.08240185475165
 11
399.44201096744064
 21
717.38240185475183
  0
LINE
  8
_0-1_計細線
  6
CONTINUOUS
 62
    3
 10
401.44201096744069
 20
722.08240185475165
 11
401.44201096744069
 21
717.38240185475183
  0
LINE
  8
_0-1_計細線
  6
CONTINUOUS
 62
    3
 10
397.44201096744064
 20
722.08240185475165
 11
397.44201096744064
 21
717.38240185475183
  0
LINE
  8
_0-1_計細線
  6
CONTINUOUS
 62
    3
 10
395.44201096744069
 20
722.08240185475165
 11
395.44201096744069
 21
717.38240185475183
  0
LINE
  8
_0-1_計細線
  6
CONTINUOUS
 62
    3
 10
393.44201096744064
 20
722.08240185475165
 11
393.44201096744064
 21
717.38240185475183
  0
LINE
  8
_0-0_計極細
  6
CONTINUOUS
 62
    2
 10
379.94201096744155
 20
722.73240185475106
 11
379.94201096744155
 21
722.08240185475165
  0
LINE
  8
_0-0_計極細
  6
CONTINUOUS
 62
    2
 10
379.94201096744155
 20
717.38240185475183
 11
379.94201096744155
 21
716.73240185475095
  0
LINE
  8
_0-0_計極細
  6
CONTINUOUS
 62
    2
 10
392.9420109674416
 20
722.73240185475106
 11
392.9420109674416
 21
722.08240185475165
  0
LINE
  8
_0-0_計極細
  6
CONTINUOUS
 62
    2
 10
392.9420109674416
 20
717.38240185475183
 11
392.9420109674416
 21
716.73240185475095
  0
TEXT
  8
_0-5_寸法線
 62
    7
 10
382.86687747620681
 20
606.34518561651817
 40
15
 41
0.8000000000000001
 50
0
  1
(標準付属)
  0
LINE
  8
_0-5_寸法線
  6
CONTINUOUS
 62
    7
 10
362.49039007581905
 20
718.45114078901292
 11
367.49039007581899
 21
709.79088675116839
  0
LINE
  8
_0-5_寸法線
  6
CONTINUOUS
 62
    7
 10
362.49039007581905
 20
718.45114078901292
 11
362.49039007581899
 21
708.45114078901292
  0
LINE
  8
_0-5_寸法線
  6
CONTINUOUS
 62
    7
 10
362.49039007581905
 20
718.45114078901292
 11
388.06747260544239
 21
622.99616927907493
  0
LINE
  8
_0-5_寸法線
  6
CONTINUOUS
 62
    7
 10
388.06747260544239
 20
622.99616927907493
 11
448.06747260544256
 21
622.99616927907493
  0
TEXT
  8
_0-5_寸法線
 62
    7
 10
388.06747260544239
 20
622.99616927907493
 40
15
 41
0.8000000000000001
 50
0
  1
取　外　具
  0
TEXT
  8
_0-7_枠細線
 62
    5
 10
390.96977359392508
 20
641.11674449074485
 40
12.5
 41
0.8
 50
0
  1
２
  0
LINE
  8
_0-7_枠細線
  6
CONTINUOUS
 62
    5
 10
403.60462232577709
 20
641.42374673612539
 11
396.10462232577703
 21
656.42374673612539
  0
LINE
  8
_0-7_枠細線
  6
CONTINUOUS
 62
    5
 10
388.60462232577703
 20
641.42374673612539
 11
403.60462232577709
 21
641.42374673612539
  0
LINE
  8
_0-7_枠細線
  6
CONTINUOUS
 62
    5
 10
396.10462232577703
 20
656.42374673612539
 11
388.60462232577703
 21
641.42374673612539
  0
TEXT
  8
_0-7_枠細線
 62
    5
 10
409.7603365607788
 20
640.87530578110909
 40
12.5
 41
0.8
 50
0
  1
３
  0
LINE
  8
_0-7_枠細線
  6
CONTINUOUS
 62
    5
 10
414.89518529263074
 20
656.42298967129045
 11
407.39518529263074
 21
641.42298967129045
  0
LINE
  8
_0-7_枠細線
  6
CONTINUOUS
 62
    5
 10
407.39518529263074
 20
641.42298967129045
 11
422.39518529263074
 21
641.42298967129045
  0
LINE
  8
_0-7_枠細線
  6
CONTINUOUS
 62
    5
 10
422.39518529263074
 20
641.42298967129045
 11
414.89518529263074
 21
656.42298967129045
  0
LINE
  8
_0-b_細線1
  6
CONTINUOUS
 62
    7
 10
499.49281103436715
 20
298.69238170393487
 11
522.74281103527164
 21
298.69238170393487
  0
LINE
  8
_0-b_細線1
  6
CONTINUOUS
 62
    7
 10
522.74281103527164
 20
323.19358800297033
 11
546.24281103527164
 21
323.19358800297033
  0
LINE
  8
_0-b_細線1
  6
CONTINUOUS
 62
    7
 10
546.24281103527164
 20
223.19358800296845
 11
522.74281103527164
 21
223.19358800296845
  0
LINE
  8
_0-b_細線1
  6
CONTINUOUS
 62
    7
 10
522.74281103527164
 20
223.19358800296845
 11
522.74281103527164
 21
323.19358800297033
  0
LINE
  8
_0-b_細線1
  6
CONTINUOUS
 62
    7
 10
546.24281103527164
 20
323.19358800297033
 11
546.24281103527164
 21
223.19358800296845
  0
LINE
  8
_0-b_細線1
  6
CONTINUOUS
 62
    7
 10
522.74281103527164
 20
238.19358800296845
 11
546.24281103527164
 21
238.19358800296845
  0
LINE
  8
_0-b_細線1
  6
CONTINUOUS
 62
    7
 10
522.74281103527164
 20
308.19358800297073
 11
546.24281103527164
 21
308.19358800297073
  0
LINE
  8
_0-b_細線1
  6
CONTINUOUS
 62
    7
 10
546.24281103527164
 20
298.69238170393487
 11
569.49281103436783
 21
298.69238170393487
  0
LINE
  8
_0-b_細線1
  6
CONTINUOUS
 62
    7
 10
499.49281103237496
 20
233.69238170393399
 11
522.74281103527164
 21
233.69238170393399
  0
LINE
  8
_0-b_細線1
  6
CONTINUOUS
 62
    7
 10
546.24281103527164
 20
233.69238170393399
 11
569.49281103436715
 21
233.69238170393399
  0
TEXT
  8
_0-5_寸法線
 62
    7
 10
499.65088693619589
 20
776.10783681073713
 40
20
 41
1
 50
0
  1
Ａ’
  0
TEXT
  8
_0-5_寸法線
 62
    7
 10
499.42169581932069
 20
628.30970542378031
 40
20
 41
1
 50
0
  1
Ａ
  0
LINE
  8
_0-b_細線1
  6
CONTINUOUS
 62
    7
 10
715.99281103160911
 20
267.19238170393442
 11
715.99281103160911
 21
92.192381703934672
  0
LINE
  8
_0-b_細線1
  6
CONTINUOUS
 62
    7
 10
715.99281103160911
 20
92.192381703934672
 11
727.49281103160911
 21
92.192381703934672
  0
LINE
  8
_0-b_細線1
  6
CONTINUOUS
 62
    7
 10
727.49281103160911
 20
92.192381703934672
 11
727.49281103160911
 21
267.19238170393442
  0
LINE
  8
_0-b_細線1
  6
CONTINUOUS
 62
    7
 10
727.49281103160911
 20
267.19238170393442
 11
715.99281103160911
 21
267.19238170393442
  0
LINE
  8
_0-a_極細1
  6
CONTINUOUS
 62
    7
 10
727.49281103160911
 20
187.19238170393453
 11
715.99281103160911
 21
187.19238170393453
  0
LINE
  8
_0-a_極細1
  6
CONTINUOUS
 62
    7
 10
727.49281103160911
 20
197.19238170393467
 11
715.99281103160911
 21
197.19238170393467
  0
LINE
  8
_0-a_極細1
  6
CONTINUOUS
 62
    7
 10
727.49281103160911
 20
177.19238170393439
 11
715.99281103160911
 21
177.19238170393439
  0
LINE
  8
_0-a_極細1
  6
CONTINUOUS
 62
    7
 10
727.49281103160911
 20
207.19238170393442
 11
715.99281103160911
 21
207.19238170393442
  0
LINE
  8
_0-a_極細1
  6
CONTINUOUS
 62
    7
 10
715.99281103160911
 20
107.19238170393467
 11
727.49281103160911
 21
107.19238170393467
  0
LINE
  8
_0-a_極細1
  6
CONTINUOUS
 62
    7
 10
727.49281103160911
 20
257.19238170393464
 11
715.99281103160911
 21
257.19238170393464
  0
LINE
  8
_0-7_枠細線
  6
CONTINUOUS
 62
    5
 10
745.42352787223138
 20
256.52570350387441
 11
737.92352787223138
 21
271.52570350387441
  0
LINE
  8
_0-7_枠細線
  6
CONTINUOUS
 62
    5
 10
730.42352787223138
 20
256.52570350387441
 11
745.42352787223138
 21
256.52570350387441
  0
LINE
  8
_0-7_枠細線
  6
CONTINUOUS
 62
    5
 10
737.92352787223138
 20
271.52570350387441
 11
730.42352787223138
 21
256.52570350387441
  0
LINE
  8
_0-b_細線1
  6
CONTINUOUS
 62
    7
 10
265.992812562366
 20
267.19238170393442
 11
265.992812562366
 21
92.192381703934672
  0
LINE
  8
_0-b_細線1
  6
CONTINUOUS
 62
    7
 10
265.992812562366
 20
92.192381703934672
 11
254.49281256236603
 21
92.192381703934672
  0
LINE
  8
_0-b_細線1
  6
CONTINUOUS
 62
    7
 10
254.49281256236603
 20
92.192381703934672
 11
254.49281256236603
 21
267.19238170393442
  0
LINE
  8
_0-b_細線1
  6
CONTINUOUS
 62
    7
 10
254.49281256236603
 20
267.19238170393442
 11
265.992812562366
 21
267.19238170393442
  0
LINE
  8
_0-a_極細1
  6
CONTINUOUS
 62
    7
 10
254.49281256236603
 20
187.19238170393453
 11
265.992812562366
 21
187.19238170393453
  0
LINE
  8
_0-a_極細1
  6
CONTINUOUS
 62
    7
 10
254.49281256236603
 20
197.19238170393467
 11
265.992812562366
 21
197.19238170393467
  0
LINE
  8
_0-a_極細1
  6
CONTINUOUS
 62
    7
 10
254.49281256236603
 20
177.19238170393439
 11
265.992812562366
 21
177.19238170393439
  0
LINE
  8
_0-a_極細1
  6
CONTINUOUS
 62
    7
 10
254.49281256236603
 20
207.19238170393442
 11
265.992812562366
 21
207.19238170393442
  0
LINE
  8
_0-a_極細1
  6
CONTINUOUS
 62
    7
 10
265.992812562366
 20
107.19238170393467
 11
254.49281256236603
 21
107.19238170393467
  0
LINE
  8
_0-a_極細1
  6
CONTINUOUS
 62
    7
 10
254.49281256236603
 20
257.19238170393464
 11
265.992812562366
 21
257.19238170393464
  0
TEXT
  8
_0-7_枠細線
 62
    5
 10
732.78867914037949
 20
255.57688353902449
 40
12.5
 41
0.8
 50
0
  1
５
  0
ENDSEC
  0
EOF
