  0
SECTION
  2
HEADER
  9
$ACADVER
  1
AC1009
  9
$INSBASE
 10
0
 20
0
 30
0
  9
$EXTMIN
 10
0
 20
0
  9
$EXTMAX
 10
1485
 20
1050
  9
$LIMMIN
 10
0
 20
0
  9
$LIMMAX
 10
1485
 20
1050
  9
$LTSCALE
 40
5
  0
ENDSEC
  0
SECTION
  2
TABLES
  0
TABLE
  2
LTYPE
 70
     9
  0
LTYPE
  2
CONTINUOUS
 70
    64
  3
実線
 72
    65
 73
     0
 40
0.0
  0
LTYPE
  2
DASHED1
 70
    64
  3
--  --  --  --  --  --  --  --  
 72
    65
 73
     2
 40
2.5
 49
1.25
 49
-1.25
  0
LTYPE
  2
DASHED2
 70
    64
  3
----    ----    ----    ----    
 72
    65
 73
     2
 40
5.0
 49
2.5
 49
-2.5
  0
LTYPE
  2
DASHED3
 70
    64
  3
------  ------  ------  ------  
 72
    65
 73
     2
 40
5.0
 49
3.75
 49
-1.25
  0
LTYPE
  2
CENTER1
 70
    64
  3
----- - ----- - ----- - ----- - 
 72
    65
 73
     4
 40
10.0
 49
6.25
 49
-1.25
 49
1.25
 49
-1.25
  0
LTYPE
  2
CENTER2
 70
    64
  3
----------  --  ----------  --  
 72
    65
 73
     4
 40
20.0
 49
12.5
 49
-2.5
 49
2.5
 49
-2.5
  0
LTYPE
  2
PHANTOM1
 70
    64
  3
--- - - --- - - --- - - --- - - 
 72
    65
 73
     6
 40
10.0
 49
3.25
 49
-1.25
 49
1.25
 49
-1.25
 49
1.25
 49
-1.25
  0
LTYPE
  2
PHANTOM2
 70
    64
  3
--------  -  -  --------  -  -  
 72
    65
 73
     6
 40
20.0
 49
10.0
 49
-2.5
 49
1.25
 49
-2.5
 49
1.25
 49
-2.5
  0
LTYPE
  2
DOT
 70
    64
  3
-   -   -   -   -   -   -   -   
 72
    65
 73
     2
 40
2.5
 49
0.625
 49
-1.875
  0
LTYPE
  2
DUMMY
 70
    64
  3
ダミー
 72
    65
 73
     0
 40
0.0
  0
LTYPE
  2
RAND1
 70
    64
  3
ランダム線1
 72
    65
 73
     4
 40
10.0
 49
1.0
 49
-2.0
 49
3.0
 49
-4.0
  0
LTYPE
  2
RAND2
 70
    64
  3
ランダム線2
 72
    65
 73
     4
 40
14.0
 49
2.0
 49
-3.0
 49
4.0
 49
-5.0
  0
LTYPE
  2
RAND3
 70
    64
  3
ランダム線3
 72
    65
 73
     4
 40
18.0
 49
3.0
 49
-4.0
 49
5.0
 49
-6.0
  0
LTYPE
  2
RAND4
 70
    64
  3
ランダム線4
 72
    65
 73
     4
 40
22.0
 49
4.0
 49
-5.0
 49
6.0
 49
-7.0
  0
LTYPE
  2
RAND5
 70
    64
  3
ランダム線5
 72
    65
 73
     4
 40
26.0
 49
5.0
 49
-6.0
 49
7.0
 49
-8.0
  0
LTYPE
  2
LONG1
 70
    64
  3
----------  --  ----------  --  
 72
    65
 73
     4
 40
40.0
 49
32.5
 49
-2.5
 49
2.5
 49
-2.5
  0
LTYPE
  2
LONG2
 70
    64
  3
--------  -  -  --------  -  -  
 72
    65
 73
     6
 40
40.0
 49
30.0
 49
-2.5
 49
1.25
 49
-2.5
 49
1.25
 49
-2.5
  0
LTYPE
  2
LONG3
 70
    64
  3
+++++++++++++++..+++++++++++++++
 72
    65
 73
     2
 40
40.0
 49
37.5
 49
-2.5
  0
LTYPE
  2
LONG4
 70
    64
  3
+++++++++++++++..+++++++++++++++
 72
    65
 73
     2
 40
80.0
 49
75.0
 49
-5.0
  0
LTYPE
  2
LONG5
 70
    64
  3
----------  --  ----------  --  
 72
    65
 73
     4
 40
60.0
 49
37.5
 49
-7.5
 49
7.5
 49
-7.5
  0
LTYPE
  2
dashed
 70
   64
  3
-------   -------------   ------
 72
   65
 73
    2
 40
7.5
 49
6
 49
-1.5
  0
LTYPE
  2
dashed_spaced
 70
   64
  3
----        --------        ----
 72
   65
 73
    2
 40
12
 49
6
 49
-6
  0
LTYPE
  2
long_dashed_dotted
 70
   64
  3
------------- --- --------------
 72
   65
 73
    4
 40
15.25
 49
12
 49
-1.5
 49
0.25
 49
-1.5
  0
LTYPE
  2
long_dashed_double-dotted
 70
   64
  3
----------- --- --- ------------
 72
   65
 73
    6
 40
17
 49
12
 49
-1.5
 49
0.25
 49
-1.5
 49
0.25
 49
-1.5
  0
LTYPE
  2
long_dashed_triplicate-dotted
 70
   64
  3
--------- --- --- --- ----------
 72
   65
 73
    8
 40
18.75
 49
12
 49
-1.5
 49
0.25
 49
-1.5
 49
0.25
 49
-1.5
 49
0.25
 49
-1.5
  0
LTYPE
  2
dotted
 70
   64
  3
   -       -       -       -    
 72
   65
 73
    2
 40
1.75
 49
0.25
 49
-1.5
  0
LTYPE
  2
chain
 70
   64
  3
-------------- -- --------------
 72
   65
 73
    4
 40
18.5
 49
12
 49
-1.5
 49
3.5
 49
-1.5
  0
LTYPE
  2
chain_double_dash
 70
   64
  3
------------ -- -- -------------
 72
   65
 73
    6
 40
23.5
 49
12
 49
-1.5
 49
3.5
 49
-1.5
 49
3.5
 49
-1.5
  0
LTYPE
  2
dashed_dotted
 70
   64
  3
-----------     -     ----------
 72
   65
 73
    4
 40
9.25
 49
6
 49
-1.5
 49
0.25
 49
-1.5
  0
LTYPE
  2
double-dashed_dotted
 70
   64
  3
------   -----------   -   -----
 72
   65
 73
    6
 40
16.75
 49
6
 49
-1.5
 49
6
 49
-1.5
 49
0.25
 49
-1.5
  0
LTYPE
  2
dashed_double-dotted
 70
   64
  3
---------    -    -    ---------
 72
   65
 73
    6
 40
11
 49
6
 49
-1.5
 49
0.25
 49
-1.5
 49
0.25
 49
-1.5
  0
LTYPE
  2
double-dashed_double-dotted
 70
   64
  3
-----   ---------   -   -   ----
 72
   65
 73
    8
 40
18.5
 49
6
 49
-1.5
 49
6
 49
-1.5
 49
0.25
 49
-1.5
 49
0.25
 49
-1.5
  0
LTYPE
  2
dashed_triplicate-dotted
 70
   64
  3
-------    -    -    -    ------
 72
   65
 73
    8
 40
12.75
 49
6
 49
-1.5
 49
0.25
 49
-1.5
 49
0.25
 49
-1.5
 49
0.25
 49
-1.5
  0
LTYPE
  2
double-dashed_triplicate-dotted
 70
   64
  3
-----  ---------  -  -  -  -----
 72
   65
 73
   10
 40
20.25
 49
6
 49
-1.5
 49
6
 49
-1.5
 49
0.25
 49
-1.5
 49
0.25
 49
-1.5
 49
0.25
 49
-1.5
  0
LTYPE
  2
undefined
 70
   64
  3
--------------------------------
 72
   65
 73
    0
 40
0
  0
ENDTAB
  0
TABLE
  2
STYLE
  5
3
100
AcDbSymbolTable
 70
     1
  0
STYLE
  5
10
100
AcDbSymbolTableRecord
100
AcDbTextStyleTableRecord
  2
STANDARD
 70
     0
 40
0.0
 41
1.0
 50
0.0
 71
     0
 42
0.2
  3
txt
  4
bigfont.shx
  0
STYLE
  5
26
100
AcDbSymbolTableRecord
100
AcDbTextStyleTableRecord
  2
TATEGAKI
 70
    68
 40
0.0
 41
1.0
 50
0.0
 71
     0
 42
1.0
  3
txt
  4
bigfont.shx
  0
ENDTAB
  0
TABLE
  2
LAYER
 70
   10
  0
LAYER
  2
_0-0_計極細
 70
   64
 62
    7
  6
CONTINUOUS
  0
LAYER
  2
_0-1_計細線
 70
   64
 62
    7
  6
CONTINUOUS
  0
LAYER
  2
_0-5_寸法線
 70
   64
 62
    7
  6
CONTINUOUS
  0
LAYER
  2
_0-7_枠細線
 70
   64
 62
    7
  6
CONTINUOUS
  0
LAYER
  2
_0-8_枠中線
 70
   64
 62
    7
  6
CONTINUOUS
  0
LAYER
  2
_0-9_枠極太
 70
   64
 62
    7
  6
CONTINUOUS
  0
LAYER
  2
_0-a_極細3
 70
   64
 62
    7
  6
CONTINUOUS
  0
LAYER
  2
_0-b_細線3
 70
   64
 62
    7
  6
CONTINUOUS
  0
LAYER
  2
_0-d_寸法3
 70
   64
 62
    7
  6
CONTINUOUS
  0
LAYER
  2
ADD_LINE
 70
   64
 62
    7
  6
CONTINUOUS
  0
ENDTAB
  0
ENDSEC
  0
SECTION
  2
BLOCKS
  0
ENDSEC
  0
SECTION
  2
ENTITIES
  0
LINE
  8
_0-7_枠細線
  6
CONTINUOUS
 62
    5
 10
1425
 20
942.5
 11
890
 21
942.5
  0
TEXT
  8
_0-7_枠細線
 62
    5
 10
895
 20
945
 40
12.5
 41
1
 50
0
  1
記号
  0
TEXT
  8
_0-7_枠細線
 62
    5
 10
996.875
 20
945
 40
12.5
 41
1
 50
0
  1
訂　 正　 記　 事
  0
TEXT
  8
_0-7_枠細線
 62
    5
 10
1181.25
 20
945
 40
12.5
 41
1
 50
0
  1
訂 正 年 月 日
  0
TEXT
  8
_0-7_枠細線
 62
    5
 10
1306.25
 20
945
 40
12.5
 41
1
 50
0
  1
備　　　　　考
  0
LINE
  8
_0-7_枠細線
  6
CONTINUOUS
 62
    5
 10
1185
 20
180
 11
1185
 21
100
  0
TEXT
  8
_0-7_枠細線
 62
    5
 10
937.5
 20
97.5
 40
17.5
 41
1
 50
0
  1
備考
  7
TATEGAKI
  0
TEXT
  8
_0-7_枠細線
 62
    5
 10
937.5
 20
137.5
 40
17.5
 41
1
 50
0
  1
品番
  7
TATEGAKI
  0
TEXT
  8
_0-7_枠細線
 62
    5
 10
937.5
 20
177.5
 40
17.5
 41
1
 50
0
  1
品名
  7
TATEGAKI
  0
LINE
  8
_0-7_枠細線
  6
CONTINUOUS
 62
    5
 10
1185
 20
140
 11
925
 21
140
  0
LINE
  8
_0-7_枠細線
  6
CONTINUOUS
 62
    5
 10
950
 20
180
 11
950
 21
60
  0
LINE
  8
_0-8_枠中線
  6
CONTINUOUS
 62
    5
 10
1425
 20
180
 11
925
 21
180
  0
LINE
  8
_0-8_枠中線
  6
CONTINUOUS
 62
    5
 10
925
 20
180
 11
925
 21
60
  0
LINE
  8
_0-7_枠細線
  6
CONTINUOUS
 62
    5
 10
1245
 20
180
 11
1245
 21
60
  0
TEXT
  8
_0-7_枠細線
 62
    5
 10
1192.5
 20
160
 40
15
 41
1
 50
0
  1
縮　尺
  0
TEXT
  8
_0-7_枠細線
 62
    5
 10
1194
 20
117.5
 40
20
 41
0.7000000000000001
 50
0
  1
１：５
  0
LINE
  8
_0-7_枠細線
  6
CONTINUOUS
 62
    5
 10
1185
 20
155
 11
1245
 21
155
  0
LINE
  8
_0-7_枠細線
  6
CONTINUOUS
 62
    5
 10
1245
 20
100
 11
925
 21
100
  0
LINE
  8
_0-7_枠細線
  6
CONTINUOUS
 62
    5
 10
1425
 20
90
 11
1245
 21
90
  0
LINE
  8
_0-7_枠細線
  6
CONTINUOUS
 62
    5
 10
1245
 20
120
 11
1425
 21
120
  0
LINE
  8
_0-7_枠細線
  6
CONTINUOUS
 62
    5
 10
1425
 20
140
 11
1245
 21
140
  0
TEXT
  8
_0-7_枠細線
 62
    5
 10
1255
 20
147.5
 40
25
 41
0.8
 50
0
  1
株式会社シマブン
  0
TEXT
  8
_0-7_枠細線
 62
    5
 10
1252.5
 20
60
 40
15
 41
1
 50
0
  1
年月日
  0
TEXT
  8
_0-7_枠細線
 62
    5
 10
1252.5
 20
75
 40
15
 41
1
 50
0
  1
作　成
  0
TEXT
  8
_0-7_枠細線
 62
    5
 10
1256.25
 20
122.5
 40
15
 41
1
 50
0
  1
承 認
  0
LINE
  8
_0-7_枠細線
  6
CONTINUOUS
 62
    5
 10
1305
 20
140
 11
1305
 21
60
  0
TEXT
  8
_0-7_枠細線
 62
    5
 10
1316.25
 20
122.5
 40
15
 41
1
 50
0
  1
検 図
  0
LINE
  8
_0-7_枠細線
  6
CONTINUOUS
 62
    5
 10
1365
 20
140
 11
1365
 21
90
  0
TEXT
  8
_0-7_枠細線
 62
    5
 10
1375
 20
95
 40
20
 41
1
 50
0
  1
藤戸
  0
TEXT
  8
_0-7_枠細線
 62
    5
 10
1376.25
 20
122.5
 40
15
 41
1
 50
0
  1
設 計
  0
TEXT
  8
_0-7_枠細線
 62
    5
 10
1310
 20
67.5
 40
15
 41
0.6666666666666666
 50
0
  1
２０１１年０７月０４日
  0
TEXT
  8
_0-7_枠細線
 62
    5
 10
1255
 20
95
 40
20
 41
1
 50
0
  1
隠塚
  0
TEXT
  8
_0-7_枠細線
 62
    5
 10
1315
 20
95
 40
20
 41
1
 50
0
  1
渋田
  0
LINE
  8
_0-7_枠細線
  6
CONTINUOUS
 62
    5
 10
1425
 20
925
 11
890
 21
925
  0
TEXT
  8
_0-7_枠細線
 62
    5
 10
938.85037037037023
 20
927.5
 40
12.500000000000002
 41
1
 50
0
  1
品番変更
  0
TEXT
  8
_0-7_枠細線
 62
    5
 10
1180
 20
927.5
 40
12.5
 41
0.7199999999999999
 50
0
  1
２０１５．０４．０１
  0
ARC
  8
_0-b_細線3
  6
CONTINUOUS
 62
    7
 10
1009.0525108742037
 20
284.13755046903907
 40
14.236111111107119
 50
245.81048584600546
 51
294.1895141539955
  0
ARC
  8
_0-b_細線3
  6
CONTINUOUS
 62
    7
 10
1009.0525108742037
 20
275.66532824682463
 40
14.236111111107119
 50
65.810485846004127
 51
114.18951415399421
  0
ARC
  8
_0-b_細線3
  6
CONTINUOUS
 62
    7
 10
992.38584420753727
 20
284.13755046903907
 40
14.236111111107119
 50
245.81048584600546
 51
294.18951415399385
  0
ARC
  8
_0-b_細線3
  6
CONTINUOUS
 62
    7
 10
992.38584420753727
 20
275.66532824682463
 40
14.236111111107119
 50
65.810485846005804
 51
114.18951415399421
  0
ARC
  8
_0-b_細線3
  6
CONTINUOUS
 62
    7
 10
975.71917754087065
 20
284.13755046903907
 40
14.236111111107119
 50
245.81048584600376
 51
294.18951415399385
  0
ARC
  8
_0-b_細線3
  6
CONTINUOUS
 62
    7
 10
975.71917754087065
 20
275.66532824682463
 40
14.236111111107119
 50
65.810485846005804
 51
114.18951415399587
  0
ARC
  8
_0-b_細線3
  6
CONTINUOUS
 62
    7
 10
959.05251087420368
 20
284.13755046903907
 40
14.236111111107119
 50
245.81048584600546
 51
294.1895141539955
  0
ARC
  8
_0-b_細線3
  6
CONTINUOUS
 62
    7
 10
959.05251087420368
 20
275.66532824682463
 40
14.236111111107119
 50
65.810485846004127
 51
114.18951415399421
  0
ARC
  8
_0-b_細線3
  6
CONTINUOUS
 62
    7
 10
942.38584420753727
 20
284.13755046903907
 40
14.236111111107119
 50
245.81048584600546
 51
294.18951415399385
  0
ARC
  8
_0-b_細線3
  6
CONTINUOUS
 62
    7
 10
942.38584420753727
 20
275.66532824682463
 40
14.236111111107119
 50
65.810485846005804
 51
114.18951415399421
  0
ARC
  8
_0-b_細線3
  6
CONTINUOUS
 62
    7
 10
925.71917754087065
 20
284.13755046903907
 40
14.236111111107119
 50
245.81048584600376
 51
294.18951415399385
  0
ARC
  8
_0-b_細線3
  6
CONTINUOUS
 62
    7
 10
925.71917754087065
 20
275.66532824682463
 40
14.236111111107119
 50
65.810485846005804
 51
114.18951415399587
  0
LINE
  8
_0-d_寸法3
  6
CONTINUOUS
 62
    7
 10
967.38584420753955
 20
303.23477269126784
 11
967.38584420753955
 21
350.47204545040768
  0
LINE
  8
_0-d_寸法3
  6
CONTINUOUS
 62
    7
 10
967.38584420753955
 20
345.47204545040768
 11
977.04510247043015
 21
348.06023590143292
  0
LINE
  8
_0-d_寸法3
  6
CONTINUOUS
 62
    7
 10
967.38584420753955
 20
345.47204545040768
 11
977.04510247043015
 21
342.88385499938249
  0
LINE
  8
_0-d_寸法3
  6
CONTINUOUS
 62
    7
 10
984.05251087420595
 20
303.23477269126533
 11
984.05251087420595
 21
350.47204545040768
  0
LINE
  8
_0-d_寸法3
  6
CONTINUOUS
 62
    7
 10
984.05251087420595
 20
345.47204545040768
 11
974.39325261131535
 21
342.88385499938249
  0
LINE
  8
_0-d_寸法3
  6
CONTINUOUS
 62
    7
 10
984.05251087420595
 20
345.47204545040768
 11
974.39325261131535
 21
348.06023590143292
  0
LINE
  8
_0-d_寸法3
  6
CONTINUOUS
 62
    7
 10
967.38584420753955
 20
345.47204545040768
 11
984.05251087420595
 21
345.47204545040768
  0
TEXT
  8
_0-d_寸法3
 62
    7
 10
968.21917754087292
 20
345.47204545040768
 40
15
 41
1
 50
0
  1
10
  0
LINE
  8
_0-d_寸法3
  6
CONTINUOUS
 62
    7
 10
984.05251087420595
 20
345.47204545040768
 11
993.71176913709678
 21
348.06023590143286
  0
LINE
  8
_0-d_寸法3
  6
CONTINUOUS
 62
    7
 10
984.05251087420595
 20
345.47204545040768
 11
993.71176913709678
 21
342.88385499938244
  0
LINE
  8
_0-d_寸法3
  6
CONTINUOUS
 62
    7
 10
1000.7191775408729
 20
303.23477269126533
 11
1000.7191775408729
 21
350.47204545040768
  0
LINE
  8
_0-d_寸法3
  6
CONTINUOUS
 62
    7
 10
1000.7191775408729
 20
345.47204545040768
 11
991.05991927798232
 21
342.88385499938249
  0
LINE
  8
_0-d_寸法3
  6
CONTINUOUS
 62
    7
 10
1000.7191775408729
 20
345.47204545040768
 11
991.05991927798232
 21
348.06023590143292
  0
LINE
  8
_0-d_寸法3
  6
CONTINUOUS
 62
    7
 10
984.05251087420595
 20
345.47204545040768
 11
1000.7191775408729
 21
345.47204545040768
  0
TEXT
  8
_0-d_寸法3
 62
    7
 10
984.88584420754
 20
345.47204545040768
 40
15
 41
1
 50
0
  1
10
  0
LINE
  8
_0-d_寸法3
  6
CONTINUOUS
 62
    7
 10
919.88584420753909
 20
303.23477269126784
 11
919.88584420753909
 21
350.47204545040768
  0
LINE
  8
_0-d_寸法3
  6
CONTINUOUS
 62
    7
 10
919.88584420753909
 20
345.47204545040768
 11
910.22658594464826
 21
342.88385499938249
  0
LINE
  8
_0-d_寸法3
  6
CONTINUOUS
 62
    7
 10
919.88584420753909
 20
345.47204545040768
 11
910.22658594464826
 21
348.06023590143292
  0
LINE
  8
_0-d_寸法3
  6
CONTINUOUS
 62
    7
 10
931.55251087420595
 20
303.23477269126784
 11
931.55251087420595
 21
350.47204545040768
  0
CIRCLE
  8
_0-d_寸法3
  6
CONTINUOUS
 62
    1
 10
931.55251087420595
 20
345.47204545040768
 40
1.5000000000000002
  0
LINE
  8
_0-d_寸法3
  6
CONTINUOUS
 62
    7
 10
894.88584420753909
 20
345.47204545040768
 11
931.55251087420595
 21
345.47204545040768
  0
TEXT
  8
_0-d_寸法3
 62
    7
 10
904.7866905793536
 20
345.47204545040768
 40
15
 41
1
 50
0
  1
7
  0
LINE
  8
_0-d_寸法3
  6
CONTINUOUS
 62
    7
 10
936.55251087420595
 20
303.23477269126533
 11
936.55251087420595
 21
350.47204545040768
  0
LINE
  8
_0-d_寸法3
  6
CONTINUOUS
 62
    7
 10
936.55251087420595
 20
345.47204545040768
 11
946.21176913709678
 21
348.06023590143286
  0
LINE
  8
_0-d_寸法3
  6
CONTINUOUS
 62
    7
 10
936.55251087420595
 20
345.47204545040768
 11
946.21176913709678
 21
342.88385499938244
  0
LINE
  8
_0-d_寸法3
  6
CONTINUOUS
 62
    7
 10
931.55251087420595
 20
345.47204545040768
 11
961.55251087420595
 21
345.47204545040768
  0
TEXT
  8
_0-d_寸法3
 62
    7
 10
938.11936547647224
 20
345.47204545040768
 40
15
 41
1
 50
0
  1
3
  0
ARC
  8
_0-b_細線3
  6
CONTINUOUS
 62
    7
 10
909.05251087420424
 20
284.13755046903907
 40
14.236111111107119
 50
245.81048584600376
 51
294.18951415399385
  0
ARC
  8
_0-b_細線3
  6
CONTINUOUS
 62
    7
 10
909.05251087420424
 20
275.66532824682463
 40
14.236111111107119
 50
65.810485846005804
 51
114.18951415399587
  0
LINE
  8
_0-b_細線3
  6
CONTINUOUS
 62
    7
 10
893.05868383491827
 20
293.23477269126784
 11
1021.7886832916972
 21
293.23477269126784
  0
LINE
  8
_0-a_極細3
  6
CENTER1
 62
    7
 10
1030.1999182816112
 20
279.90143935793162
 11
885.38345737626719
 21
279.90143935793162
  0
LINE
  8
_0-b_細線3
  6
CONTINUOUS
 62
    7
 10
1019.8858442075395
 20
293.23477269126533
 11
1014.8858442075395
 21
293.23477269126533
  0
LINE
  8
_0-b_細線3
  6
CONTINUOUS
 62
    7
 10
1014.8858442075395
 20
293.23477269126533
 11
1014.8858442075395
 21
268.23477269126533
  0
LINE
  8
_0-b_細線3
  6
CONTINUOUS
 62
    7
 10
1014.8858442075395
 20
268.23477269126533
 11
1019.8858442075395
 21
268.23477269126533
  0
LINE
  8
_0-b_細線3
  6
CONTINUOUS
 62
    7
 10
1019.8858442075395
 20
268.23477269126533
 11
1019.8858442075395
 21
293.23477269126533
  0
LINE
  8
_0-b_細線3
  6
CONTINUOUS
 62
    7
 10
1003.2191775408729
 20
293.23477269126533
 11
998.21917754087292
 21
293.23477269126533
  0
LINE
  8
_0-b_細線3
  6
CONTINUOUS
 62
    7
 10
998.21917754087292
 20
293.23477269126533
 11
998.21917754087292
 21
268.23477269126533
  0
LINE
  8
_0-b_細線3
  6
CONTINUOUS
 62
    7
 10
998.21917754087292
 20
268.23477269126533
 11
1003.2191775408729
 21
268.23477269126533
  0
LINE
  8
_0-b_細線3
  6
CONTINUOUS
 62
    7
 10
1003.2191775408729
 20
268.23477269126533
 11
1003.2191775408729
 21
293.23477269126533
  0
LINE
  8
_0-b_細線3
  6
CONTINUOUS
 62
    7
 10
986.55251087420595
 20
293.23477269126533
 11
981.55251087420595
 21
293.23477269126533
  0
LINE
  8
_0-b_細線3
  6
CONTINUOUS
 62
    7
 10
981.55251087420595
 20
293.23477269126533
 11
981.55251087420595
 21
268.23477269126533
  0
LINE
  8
_0-b_細線3
  6
CONTINUOUS
 62
    7
 10
981.55251087420595
 20
268.23477269126533
 11
986.55251087420595
 21
268.23477269126533
  0
LINE
  8
_0-b_細線3
  6
CONTINUOUS
 62
    7
 10
986.55251087420595
 20
268.23477269126533
 11
986.55251087420595
 21
293.23477269126533
  0
LINE
  8
_0-b_細線3
  6
CONTINUOUS
 62
    7
 10
969.88584420753955
 20
293.23477269126533
 11
964.88584420753955
 21
293.23477269126533
  0
LINE
  8
_0-b_細線3
  6
CONTINUOUS
 62
    7
 10
964.88584420753955
 20
293.23477269126533
 11
964.88584420753955
 21
268.23477269126533
  0
LINE
  8
_0-b_細線3
  6
CONTINUOUS
 62
    7
 10
964.88584420753955
 20
268.23477269126533
 11
969.88584420753955
 21
268.23477269126533
  0
LINE
  8
_0-b_細線3
  6
CONTINUOUS
 62
    7
 10
969.88584420753955
 20
268.23477269126533
 11
969.88584420753955
 21
293.23477269126533
  0
LINE
  8
_0-b_細線3
  6
CONTINUOUS
 62
    7
 10
953.21917754087292
 20
293.23477269126533
 11
948.21917754087292
 21
293.23477269126533
  0
LINE
  8
_0-b_細線3
  6
CONTINUOUS
 62
    7
 10
948.21917754087292
 20
293.23477269126533
 11
948.21917754087292
 21
268.23477269126533
  0
LINE
  8
_0-b_細線3
  6
CONTINUOUS
 62
    7
 10
948.21917754087292
 20
268.23477269126533
 11
953.21917754087292
 21
268.23477269126533
  0
LINE
  8
_0-b_細線3
  6
CONTINUOUS
 62
    7
 10
953.21917754087292
 20
268.23477269126533
 11
953.21917754087292
 21
293.23477269126533
  0
LINE
  8
_0-b_細線3
  6
CONTINUOUS
 62
    7
 10
936.55251087420595
 20
293.23477269126533
 11
931.55251087420595
 21
293.23477269126533
  0
LINE
  8
_0-b_細線3
  6
CONTINUOUS
 62
    7
 10
931.55251087420595
 20
293.23477269126533
 11
931.55251087420595
 21
268.23477269126533
  0
LINE
  8
_0-b_細線3
  6
CONTINUOUS
 62
    7
 10
931.55251087420595
 20
268.23477269126533
 11
936.55251087420595
 21
268.23477269126533
  0
LINE
  8
_0-b_細線3
  6
CONTINUOUS
 62
    7
 10
936.55251087420595
 20
268.23477269126533
 11
936.55251087420595
 21
293.23477269126533
  0
LINE
  8
_0-b_細線3
  6
CONTINUOUS
 62
    7
 10
919.88584420753955
 20
293.23477269126533
 11
914.88584420753955
 21
293.23477269126533
  0
LINE
  8
_0-b_細線3
  6
CONTINUOUS
 62
    7
 10
914.88584420753955
 20
293.23477269126533
 11
914.88584420753955
 21
268.23477269126533
  0
LINE
  8
_0-b_細線3
  6
CONTINUOUS
 62
    7
 10
914.88584420753955
 20
268.23477269126533
 11
919.88584420753955
 21
268.23477269126533
  0
LINE
  8
_0-b_細線3
  6
CONTINUOUS
 62
    7
 10
919.88584420753955
 20
268.23477269126533
 11
919.88584420753955
 21
293.23477269126533
  0
LINE
  8
_0-b_細線3
  6
CONTINUOUS
 62
    7
 10
903.21917754087292
 20
293.23477269126533
 11
898.21917754087292
 21
293.23477269126533
  0
LINE
  8
_0-b_細線3
  6
CONTINUOUS
 62
    7
 10
898.21917754087292
 20
293.23477269126533
 11
898.21917754087292
 21
268.23477269126533
  0
LINE
  8
_0-b_細線3
  6
CONTINUOUS
 62
    7
 10
898.21917754087292
 20
268.23477269126533
 11
903.21917754087292
 21
268.23477269126533
  0
LINE
  8
_0-b_細線3
  6
CONTINUOUS
 62
    7
 10
903.21917754087292
 20
268.23477269126533
 11
903.21917754087292
 21
293.23477269126533
  0
LINE
  8
_0-b_細線3
  6
CONTINUOUS
 62
    7
 10
896.64232283795639
 20
268.23477269126533
 11
1025.372322294736
 21
268.23477269126533
  0
LINE
  8
_0-d_寸法3
  6
CONTINUOUS
 62
    7
 10
1035.3723222947356
 20
268.23477269126522
 11
1072.4585240897909
 21
268.23477269126488
  0
LINE
  8
_0-d_寸法3
  6
CONTINUOUS
 62
    7
 10
1067.4585240897909
 20
268.23477269126488
 11
1064.8703336387657
 21
277.89403095415554
  0
LINE
  8
_0-d_寸法3
  6
CONTINUOUS
 62
    7
 10
1067.4585240897909
 20
268.23477269126488
 11
1070.0467145408161
 21
277.89403095415554
  0
LINE
  8
_0-d_寸法3
  6
CONTINUOUS
 62
    7
 10
1031.7886832916975
 20
293.23477269126772
 11
1072.4585240897909
 21
293.23477269126732
  0
LINE
  8
_0-d_寸法3
  6
CONTINUOUS
 62
    7
 10
1067.4585240897909
 20
293.23477269126738
 11
1070.0467145408161
 21
283.57551442837678
  0
LINE
  8
_0-d_寸法3
  6
CONTINUOUS
 62
    7
 10
1067.4585240897909
 20
293.23477269126738
 11
1064.8703336387657
 21
283.57551442837678
  0
LINE
  8
_0-d_寸法3
  6
CONTINUOUS
 62
    7
 10
1067.4585240897909
 20
268.23477269126488
 11
1067.4585240897909
 21
293.23477269126738
  0
TEXT
  8
_0-d_寸法3
 62
    7
 10
1067.4585240897909
 20
273.23477269126624
 40
15
 41
1
 50
90
  1
15
  0
ARC
  8
_0-a_極細3
  6
CONTINUOUS
 62
    7
 10
915.67155211264264
 20
290.11918262666268
 40
22.826491478025751
 50
150.03871396148165
 51
205.23810402387943
  0
ARC
  8
_0-a_極細3
  6
CONTINUOUS
 62
    7
 10
874.37643436577503
 20
270.65362065024283
 40
22.826491478025751
 50
330.03871396148242
 51
25.238104023877408
  0
ARC
  8
_0-a_極細3
  6
CONTINUOUS
 62
    7
 10
1044.1624459785362
 20
289.24615131916562
 40
22.826491478025751
 50
150.0387139614823
 51
205.23810402387804
  0
ARC
  8
_0-a_極細3
  6
CONTINUOUS
 62
    7
 10
1002.8673282316687
 20
269.78058934274577
 40
22.826491478025751
 50
330.03871396148179
 51
25.238104023878375
  0
TEXT
  8
_0-7_枠細線
 62
    5
 10
908.61220398644207
 20
221.73388393903582
 40
25
 41
0.8
 50
0
  1
側面詳細図
  0
TEXT
  8
_0-7_枠細線
 62
    5
 10
974.01084011216926
 20
196.14641657611145
 40
20
 41
0.6
 50
0
  1
Ｓ＝１：３
  0
TEXT
  8
_0-7_枠細線
 62
    5
 10
965.50000000000011
 20
150
 40
20
 41
0.5
 50
0
  1
Ｆバー ステンレスグレーチング Ｈ１５タイプ
  0
CIRCLE
  8
_0-a_極細3
  6
CONTINUOUS
 62
    7
 10
759.09201034440366
 20
278.50022014496449
 40
0.5530864197530718
  0
CIRCLE
  8
_0-a_極細3
  6
CONTINUOUS
 62
    7
 10
707.09201034440412
 20
279.43355347829788
 40
0.5530864197530718
  0
LINE
  8
_0-a_極細3
  6
CONTINUOUS
 62
    7
 10
695.430659769812
 20
293.23477269126784
 11
695.430659769812
 21
281.56810602460087
  0
LINE
  8
_0-a_極細3
  6
CONTINUOUS
 62
    7
 10
695.430659769812
 20
293.23477269126784
 11
784.60840691492649
 21
293.23477269126784
  0
LINE
  8
_0-a_極細3
  6
CONTINUOUS
 62
    7
 10
687.0973264364784
 20
281.56810602460087
 11
784.60840691492649
 21
281.56810602460087
  0
LINE
  8
_0-a_極細3
  6
CONTINUOUS
 62
    7
 10
687.0973264364784
 20
293.23477269126784
 11
695.430659769812
 21
293.23477269126784
  0
LINE
  8
_0-a_極細3
  6
CONTINUOUS
 62
    7
 10
687.0973264364784
 20
292.40143935793435
 11
687.0973264364784
 21
293.23477269126784
  0
LINE
  8
_0-a_極細3
  6
CONTINUOUS
 62
    7
 10
695.430659769812
 20
285.23719230532583
 11
691.76157348908691
 21
281.56810602460087
  0
LINE
  8
_0-a_極細3
  6
CONTINUOUS
 62
    7
 10
695.430659769812
 20
289.47983299244493
 11
687.51893280196782
 21
281.56810602460087
  0
LINE
  8
_0-a_極細3
  6
CONTINUOUS
 62
    7
 10
687.0973264364784
 20
285.38914034623099
 11
694.94295878151536
 21
293.23477269126784
  0
LINE
  8
_0-a_極細3
  6
CONTINUOUS
 62
    7
 10
687.0973264364784
 20
289.63178103335031
 11
690.7003180943957
 21
293.23477269126761
  0
LINE
  8
_0-a_極細3
  6
CONTINUOUS
 62
    7
 10
695.430659769812
 20
291.72545048176221
 11
693.92133756030626
 21
293.23477269126784
  0
LINE
  8
_0-a_極細3
  6
CONTINUOUS
 62
    7
 10
695.430659769812
 20
287.48280979464289
 11
689.67869687318728
 21
293.23477269126784
  0
LINE
  8
_0-a_極細3
  6
CONTINUOUS
 62
    7
 10
695.430659769812
 20
283.24016910752357
 11
687.0973264364784
 21
291.57350244085706
  0
LINE
  8
_0-a_極細3
  6
CONTINUOUS
 62
    7
 10
692.86008216561515
 20
281.56810602460087
 11
687.0973264364784
 21
287.33086175373774
  0
LINE
  8
_0-a_極細3
  6
CONTINUOUS
 62
    7
 10
688.61744147849595
 20
281.56810602460087
 11
687.0973264364784
 21
283.08822106661842
  0
LINE
  8
_0-a_極細3
  6
CONTINUOUS
 62
    7
 10
763.88646517011466
 20
281.56810602460087
 11
775.55313120999244
 21
293.23477206447865
  0
LINE
  8
_0-a_極細3
  6
CONTINUOUS
 62
    7
 10
742.67326173451829
 20
281.56810602460109
 11
754.33992794034475
 21
293.23477223042732
  0
LINE
  8
_0-a_極細3
  6
CONTINUOUS
 62
    7
 10
721.46005829892192
 20
281.56810602460087
 11
733.1267246706966
 21
293.23477239637555
  0
LINE
  8
_0-a_極細3
  6
CONTINUOUS
 62
    7
 10
700.24685486332555
 20
281.56810602460087
 11
711.91352140104891
 21
293.23477256232422
  0
LINE
  8
_0-a_極細3
  6
DASHED2
 62
    7
 10
774.49306688791341
 20
281.56810602460109
 11
784.60840691492649
 21
291.68344605161451
  0
LINE
  8
_0-a_極細3
  6
DASHED2
 62
    7
 10
753.27986345231648
 20
281.56810602460087
 11
764.94652957516837
 21
293.23477214745276
  0
LINE
  8
_0-a_極細3
  6
DASHED2
 62
    7
 10
732.06666001672022
 20
281.56810602460087
 11
743.73332630552068
 21
293.23477231340144
  0
LINE
  8
_0-a_極細3
  6
DASHED2
 62
    7
 10
710.85345658112374
 20
281.56810602460087
 11
722.52012303587253
 21
293.23477247934989
  0
LINE
  8
_0-a_極細3
  6
DASHED2
 62
    7
 10
695.430659769812
 20
287.35851264888538
 11
701.30691976622484
 21
293.23477264529834
  0
CIRCLE
  8
_0-a_極細3
  6
CONTINUOUS
 62
    7
 10
240.38089923329613
 20
278.19373866348315
 40
0.5530864197530718
  0
LINE
  8
_0-a_極細3
  6
CONTINUOUS
 62
    7
 10
245.43065976981197
 20
293.23477269126784
 11
245.43065976981197
 21
281.56810602460087
  0
LINE
  8
_0-a_極細3
  6
CONTINUOUS
 62
    7
 10
245.43065976981197
 20
293.23477269126784
 11
156.2529126246973
 21
293.23477269126784
  0
LINE
  8
_0-a_極細3
  6
CONTINUOUS
 62
    7
 10
253.7639931031454
 20
281.56810602460087
 11
156.2529126246973
 21
281.56810602460087
  0
LINE
  8
_0-a_極細3
  6
CONTINUOUS
 62
    7
 10
253.7639931031454
 20
293.23477269126784
 11
245.43065976981197
 21
293.23477269126784
  0
LINE
  8
_0-a_極細3
  6
CONTINUOUS
 62
    7
 10
253.7639931031454
 20
292.40143935793435
 11
253.7639931031454
 21
293.23477269126784
  0
LINE
  8
_0-a_極細3
  6
CONTINUOUS
 62
    7
 10
253.56590284678589
 20
281.56810602460087
 11
253.76399310314497
 21
281.76619628096046
  0
LINE
  8
_0-a_極細3
  6
CONTINUOUS
 62
    7
 10
249.32326215966674
 20
281.56810602460087
 11
253.7639931031454
 21
286.00883696807955
  0
LINE
  8
_0-a_極細3
  6
CONTINUOUS
 62
    7
 10
245.43065976981197
 20
281.91814432186561
 11
253.7639931031454
 21
290.25147765519887
  0
LINE
  8
_0-a_極細3
  6
CONTINUOUS
 62
    7
 10
245.43065976981197
 20
286.1607850089847
 11
252.50464745209462
 21
293.23477269126784
  0
LINE
  8
_0-a_極細3
  6
CONTINUOUS
 62
    7
 10
245.43065976981197
 20
290.40342569610425
 11
248.2620067649755
 21
293.23477269126784
  0
LINE
  8
_0-a_極細3
  6
CONTINUOUS
 62
    7
 10
253.7639931031454
 20
290.95380581900918
 11
251.48302623088696
 21
293.23477269126784
  0
LINE
  8
_0-a_極細3
  6
CONTINUOUS
 62
    7
 10
253.7639931031454
 20
286.71116513188986
 11
247.24038554376747
 21
293.23477269126784
  0
LINE
  8
_0-a_極細3
  6
CONTINUOUS
 62
    7
 10
245.43065976981197
 20
290.80185777810402
 11
253.7639931031454
 21
282.46852444477076
  0
LINE
  8
_0-a_極細3
  6
CONTINUOUS
 62
    7
 10
245.43065976981197
 20
286.5592170909847
 11
250.42177083619535
 21
281.56810602460087
  0
LINE
  8
_0-a_極細3
  6
CONTINUOUS
 62
    7
 10
245.43065976981197
 20
282.31657640386538
 11
246.17913014907629
 21
281.56810602460087
  0
LINE
  8
_0-a_極細3
  6
CONTINUOUS
 62
    7
 10
236.59534009218135
 20
281.5681060184736
 11
245.43065976981197
 21
290.40342569610425
  0
LINE
  8
_0-a_極細3
  6
CONTINUOUS
 62
    7
 10
215.38213664187381
 20
281.56810600376252
 11
227.04880332937918
 21
293.23477269126761
  0
LINE
  8
_0-a_極細3
  6
CONTINUOUS
 62
    7
 10
194.168933191566
 20
281.56810598905099
 11
205.8355998937823
 21
293.23477269126784
  0
LINE
  8
_0-a_極細3
  6
CONTINUOUS
 62
    7
 10
172.95572974125804
 20
281.56810597433991
 11
184.62239645818599
 21
293.23477269126784
  0
LINE
  8
_0-a_極細3
  6
CONTINUOUS
 62
    7
 10
156.2529126246973
 20
286.07849229337512
 11
163.40919302258959
 21
293.23477269126761
  0
LINE
  8
_0-a_極細3
  6
DASHED2
 62
    7
 10
225.98873836702757
 20
281.56810601111806
 11
237.65540504717734
 21
293.23477269126784
  0
LINE
  8
_0-a_極細3
  6
DASHED2
 62
    7
 10
204.77553491671969
 20
281.56810599640676
 11
216.44220161158103
 21
293.23477269126784
  0
LINE
  8
_0-a_極細3
  6
DASHED2
 62
    7
 10
183.56233146641222
 20
281.56810598169545
 11
195.22899817598415
 21
293.23477269126784
  0
LINE
  8
_0-a_極細3
  6
DASHED2
 62
    7
 10
162.34912801610434
 20
281.56810596698438
 11
174.01579474038783
 21
293.23477269126784
  0
ARC
  8
_0-b_細線3
  6
CONTINUOUS
 62
    7
 10
387.09732643647845
 20
279.9014393579339
 40
8.75
 50
294.03943363457506
 51
65.960566365424228
  0
ARC
  8
_0-b_細線3
  6
CONTINUOUS
 62
    7
 10
387.09732643647845
 20
279.9014393579339
 40
8.75
 50
114.03943363457542
 51
245.96056636541877
  0
ARC
  8
_0-b_細線3
  6
CONTINUOUS
 62
    7
 10
387.09732643647123
 20
274.06810602454311
 40
2.4999999999928004
 50
179.99999999999983
 51
359.99999999999966
  0
LINE
  8
_0-b_細線3
  6
CONTINUOUS
 62
    7
 10
384.59732643647845
 20
285.73477269126738
 11
384.59732643647845
 21
274.06810602460064
  0
ARC
  8
_0-b_細線3
  6
CONTINUOUS
 62
    7
 10
387.09732643647123
 20
285.73477269133923
 40
2.5000000000072005
 50
0
 51
179.99999999999983
  0
LINE
  8
_0-b_細線3
  6
CONTINUOUS
 62
    7
 10
389.59732643647845
 20
274.06810602460064
 11
389.59732643647845
 21
285.73477269126738
  0
ARC
  8
_0-b_細線3
  6
CONTINUOUS
 62
    7
 10
387.09732643648397
 20
274.06810602458177
 40
4.1666666666723522
 50
179.99999999999983
 51
359.99999999999966
  0
LINE
  8
_0-b_細線3
  6
CONTINUOUS
 62
    7
 10
382.93065976981239
 20
285.73477269126738
 11
382.93065976981239
 21
274.06810602460064
  0
ARC
  8
_0-b_細線3
  6
CONTINUOUS
 62
    7
 10
387.09732643644571
 20
285.73477269136515
 40
4.1666666667000154
 50
0
 51
179.99999999999983
  0
LINE
  8
_0-b_細線3
  6
CONTINUOUS
 62
    7
 10
391.26399310314548
 20
274.06810602460064
 11
391.26399310314548
 21
285.73477269126738
  0
ARC
  8
_0-b_細線3
  6
CONTINUOUS
 62
    7
 10
553.76399310311172
 20
274.06810602454334
 40
4.1666666667000154
 50
179.99999999999983
 51
359.99999999999966
  0
LINE
  8
_0-b_細線3
  6
CONTINUOUS
 62
    7
 10
557.93065976981234
 20
285.73477269126761
 11
557.93065976981234
 21
274.06810602460109
  0
ARC
  8
_0-b_細線3
  6
CONTINUOUS
 62
    7
 10
553.76399310315082
 20
285.73477269132582
 40
4.1666666666723522
 50
0.0000000000031266
 51
179.99999999999983
  0
LINE
  8
_0-b_細線3
  6
CONTINUOUS
 62
    7
 10
549.5973264364784
 20
274.06810602460087
 11
549.5973264364784
 21
285.73477269126761
  0
ARC
  8
_0-b_細線3
  6
CONTINUOUS
 62
    7
 10
553.76399310313809
 20
274.06810602454334
 40
2.5000000000072005
 50
179.99999999999983
 51
359.99999999999966
  0
LINE
  8
_0-b_細線3
  6
CONTINUOUS
 62
    7
 10
556.26399310314537
 20
285.73477269126761
 11
556.26399310314537
 21
274.06810602460109
  0
ARC
  8
_0-b_細線3
  6
CONTINUOUS
 62
    7
 10
553.76399310313809
 20
285.73477269133946
 40
2.4999999999928004
 50
0.000000000005211
 51
179.99999999999983
  0
LINE
  8
_0-b_細線3
  6
CONTINUOUS
 62
    7
 10
551.26399310314537
 20
274.06810602460087
 11
551.26399310314537
 21
285.73477269126761
  0
ARC
  8
_0-b_細線3
  6
CONTINUOUS
 62
    7
 10
553.76399310314537
 20
279.90143935793412
 40
8.75
 50
294.03943363457569
 51
65.960566365424839
  0
ARC
  8
_0-b_細線3
  6
CONTINUOUS
 62
    7
 10
553.76399310314537
 20
279.90143935793412
 40
8.75
 50
114.03943363457542
 51
245.96056636541877
  0
LINE
  8
_0-b_細線3
  6
CONTINUOUS
 62
    7
 10
673.76399310314537
 20
293.23477269126784
 11
267.09732643647845
 21
293.23477269126715
  0
LINE
  8
_0-a_極細3
  6
CENTER1
 62
    7
 10
689.76408150430063
 20
279.9014393579339
 11
252.11000065860489
 21
279.9014393579339
  0
LINE
  8
_0-a_極細3
  6
CENTER1
 62
    7
 10
470.43065976981239
 20
252.04894320581801
 11
470.43065976981239
 21
307.1656098724909
  0
LINE
  8
_0-d_寸法3
  6
CONTINUOUS
 62
    7
 10
462.23913932692255
 20
273.97053705477833
 11
426.88679760123705
 21
298.72451322446909
  0
LINE
  8
_0-d_寸法3
  6
CONTINUOUS
 62
    7
 10
430.982557822682
 20
295.85663104271384
 11
428.39436737165676
 21
305.5158893056045
  0
LINE
  8
_0-d_寸法3
  6
CONTINUOUS
 62
    7
 10
430.982557822682
 20
295.85663104271384
 11
433.57074827370724
 21
305.5158893056045
  0
LINE
  8
_0-d_寸法3
  6
CONTINUOUS
 62
    7
 10
462.23913932692255
 20
298.97053705477833
 11
426.88679760123705
 21
323.72451322446915
  0
LINE
  8
_0-d_寸法3
  6
CONTINUOUS
 62
    7
 10
430.982557822682
 20
320.85663104271384
 11
433.57074827370718
 21
311.19737277982313
  0
LINE
  8
_0-d_寸法3
  6
CONTINUOUS
 62
    7
 10
430.982557822682
 20
320.85663104271384
 11
428.3943673716567
 21
311.19737277982318
  0
LINE
  8
_0-d_寸法3
  6
CONTINUOUS
 62
    7
 10
430.982557822682
 20
295.85663104271384
 11
430.982557822682
 21
320.85663104271384
  0
TEXT
  8
_0-d_寸法3
 62
    7
 10
430.982557822682
 20
300.85663104271362
 40
15
 41
1
 50
90
  1
15
  0
TEXT
  8
_0-7_枠細線
 62
    5
 10
420.50861213057857
 20
118.23440768958974
 40
25
 41
0.8
 50
0
  1
断面詳細図
  0
TEXT
  8
_0-7_枠細線
 62
    5
 10
535.45758187974616
 20
118.23440768958974
 40
20
 41
0.6
 50
0
  1
Ｓ＝１：３
  0
LINE
  8
_0-a_極細3
  6
CONTINUOUS
 62
    7
 10
753.76399310314491
 20
256.56810602460109
 11
753.76399310314491
 21
188.23477269126784
  0
LINE
  8
_0-a_極細3
  6
CONTINUOUS
 62
    7
 10
670.430659769812
 20
188.23477269126784
 11
753.76399310314491
 21
188.23477269126784
  0
LINE
  8
_0-a_極細3
  6
CONTINUOUS
 62
    7
 10
753.76399310314491
 20
256.56810602460109
 11
784.60840691492649
 21
256.56810602460109
  0
LINE
  8
_0-a_極細3
  6
CONTINUOUS
 62
    7
 10
670.430659769812
 20
188.23477269126784
 11
670.430659769812
 21
161.99317239648877
  0
LINE
  8
_0-a_極細3
  6
CONTINUOUS
 62
    7
 10
762.05399551773826
 20
161.99317239648877
 11
784.60840695646721
 21
184.54758383521764
  0
LINE
  8
_0-a_極細3
  6
CONTINUOUS
 62
    7
 10
691.3433173990835
 20
161.99317239648877
 11
717.58491769386228
 21
188.23477269126784
  0
LINE
  8
_0-a_極細3
  6
CONTINUOUS
 62
    7
 10
753.76399310314491
 20
224.41384810055047
 11
784.60840691568194
 21
255.25826191308738
  0
LINE
  8
_0-a_極細3
  6
CONTINUOUS
 62
    7
 10
754.9829277058725
 20
161.99317239648877
 11
784.60840695238858
 21
191.6186516430048
  0
LINE
  8
_0-a_極細3
  6
CONTINUOUS
 62
    7
 10
684.27224958721763
 20
161.99317239648877
 11
710.51384988199698
 21
188.23477269126784
  0
LINE
  8
_0-a_極細3
  6
CONTINUOUS
 62
    7
 10
753.76399310314491
 20
231.484915912416
 11
778.84718303577984
 21
256.5681058450507
  0
LINE
  8
_0-a_極細3
  6
CONTINUOUS
 62
    7
 10
747.91185989400719
 20
161.99317239648877
 11
784.60840694831006
 21
198.68971945079167
  0
LINE
  8
_0-a_極細3
  6
CONTINUOUS
 62
    7
 10
677.20118177535244
 20
161.99317239648877
 11
703.44278207013178
 21
188.23477269126784
  0
LINE
  8
_0-a_極細3
  6
CONTINUOUS
 62
    7
 10
753.76399310314491
 20
238.55598372428153
 11
771.77611527453064
 21
256.5681058956668
  0
CIRCLE
  8
_0-a_極細3
  6
CONTINUOUS
 62
    7
 10
656.8364547888491
 20
247.0891090338539
 40
0.5530864197530718
  0
CIRCLE
  8
_0-a_極細3
  6
CONTINUOUS
 62
    7
 10
666.79201034440439
 20
251.88910903385388
 40
0.5530864197530718
  0
CIRCLE
  8
_0-a_極細3
  6
CONTINUOUS
 62
    7
 10
662.70312145551588
 20
226.91133125607647
 40
0.5530864197530718
  0
CIRCLE
  8
_0-a_極細3
  6
CONTINUOUS
 62
    7
 10
680.23645478884919
 20
209.88910903385431
 40
0.5530864197530718
  0
CIRCLE
  8
_0-a_極細3
  6
CONTINUOUS
 62
    7
 10
662.4031214555157
 20
186.58910903385461
 40
0.5530864197530718
  0
CIRCLE
  8
_0-a_極細3
  6
CONTINUOUS
 62
    7
 10
653.06978812218279
 20
168.72244236718799
 40
0.5530864197530718
  0
CIRCLE
  8
_0-a_極細3
  6
CONTINUOUS
 62
    7
 10
664.53645478884891
 20
198.58910903385436
 40
0.5530864197530718
  0
CIRCLE
  8
_0-a_極細3
  6
CONTINUOUS
 62
    7
 10
678.40312145551582
 20
193.78910903385446
 40
0.5530864197530718
  0
CIRCLE
  8
_0-a_極細3
  6
CONTINUOUS
 62
    7
 10
705.3364547888491
 20
194.05577570052102
 40
0.5530864197530718
  0
CIRCLE
  8
_0-a_極細3
  6
CONTINUOUS
 62
    7
 10
693.33645478884921
 20
203.12244236718769
 40
0.5530864197530718
  0
CIRCLE
  8
_0-a_極細3
  6
CONTINUOUS
 62
    7
 10
704.53645478884891
 20
208.72244236718757
 40
0.5530864197530718
  0
CIRCLE
  8
_0-a_極細3
  6
CONTINUOUS
 62
    7
 10
692.55867701107081
 20
263.01133125607589
 40
0.5530864197530718
  0
CIRCLE
  8
_0-a_極細3
  6
CONTINUOUS
 62
    7
 10
713.09201034440423
 20
262.3002201449649
 40
0.5530864197530718
  0
CIRCLE
  8
_0-a_極細3
  6
CONTINUOUS
 62
    7
 10
701.49201034440421
 20
248.30022014496492
 40
0.5530864197530718
  0
CIRCLE
  8
_0-a_極細3
  6
CONTINUOUS
 62
    7
 10
740.69201034440414
 20
195.10022014496556
 40
0.5530864197530718
  0
CIRCLE
  8
_0-a_極細3
  6
CONTINUOUS
 62
    7
 10
747.89201034440384
 20
209.10022014496553
 40
0.5530864197530718
  0
CIRCLE
  8
_0-a_極細3
  6
CONTINUOUS
 62
    7
 10
746.29201034440359
 20
229.90022014496529
 40
0.5530864197530718
  0
CIRCLE
  8
_0-a_極細3
  6
CONTINUOUS
 62
    7
 10
728.29201034440405
 20
251.10022014496508
 40
0.5530864197530718
  0
CIRCLE
  8
_0-a_極細3
  6
CONTINUOUS
 62
    7
 10
745.09201034440366
 20
270.70022014496476
 40
0.5530864197530718
  0
CIRCLE
  8
_0-a_極細3
  6
CONTINUOUS
 62
    7
 10
742.29201034440348
 20
243.90022014496506
 40
0.5530864197530718
  0
CIRCLE
  8
_0-a_極細3
  6
CONTINUOUS
 62
    7
 10
771.89201034440339
 20
265.10022014496485
 40
0.5530864197530718
  0
CIRCLE
  8
_0-a_極細3
  6
CONTINUOUS
 62
    7
 10
767.09201034440321
 20
278.87028187335977
 40
1.825531472681392
  0
CIRCLE
  8
_0-a_極細3
  6
CONTINUOUS
 62
    7
 10
751.44756589995905
 20
263.4036152066933
 40
1.825531472681392
  0
CIRCLE
  8
_0-a_極細3
  6
CONTINUOUS
 62
    7
 10
696.02534367773751
 20
269.98139298447109
 40
1.825531472681392
  0
CIRCLE
  8
_0-a_極細3
  6
CONTINUOUS
 62
    7
 10
728.02534367773706
 20
237.98139298447131
 40
1.825531472681392
  0
CIRCLE
  8
_0-a_極細3
  6
CONTINUOUS
 62
    7
 10
657.63089923329392
 20
193.43139298447184
 40
1.825531472681392
  0
CIRCLE
  8
_0-a_極細3
  6
CONTINUOUS
 62
    7
 10
667.85312145551552
 20
223.29805965113837
 40
1.825531472681392
  0
CIRCLE
  8
_0-a_極細3
  6
CONTINUOUS
 62
    7
 10
703.05312145551534
 20
200.89805965113854
 40
1.825531472681392
  0
CIRCLE
  8
_0-a_極細3
  6
CONTINUOUS
 62
    7
 10
749.31831409079905
 20
190.71100725916907
 40
1.825531472681392
  0
CIRCLE
  8
_0-a_極細3
  6
CONTINUOUS
 62
    7
 10
698.65312145551525
 20
244.0980596511381
 40
1.825531472681392
  0
CIRCLE
  8
_0-a_極細3
  6
CONTINUOUS
 62
    7
 10
651.18707207279977
 20
238.67485424410165
 40
0.5530864197530718
  0
CIRCLE
  8
_0-a_極細3
  6
CONTINUOUS
 62
    7
 10
651.38707207280049
 20
214.71929868854636
 40
0.5530864197530718
  0
CIRCLE
  8
_0-a_極細3
  6
CONTINUOUS
 62
    7
 10
728.42534367773726
 20
275.44805965113778
 40
1.825531472681392
  0
LINE
  8
_0-a_極細3
  6
CONTINUOUS
 62
    7
 10
637.93065976981097
 20
263.23477269126784
 11
637.09732643647794
 21
263.23477269126784
  0
LINE
  8
_0-a_極細3
  6
CONTINUOUS
 62
    7
 10
637.09732643647794
 20
263.23477269126784
 11
637.09732643647794
 21
161.99317239648877
  0
CIRCLE
  8
_0-a_極細3
  6
CONTINUOUS
 62
    7
 10
643.0817222785613
 20
223.17799792274312
 40
0.5530864197530718
  0
CIRCLE
  8
_0-a_極細3
  6
CONTINUOUS
 62
    7
 10
644.3883066407011
 20
183.92244236718781
 40
0.5530864197530718
  0
CIRCLE
  8
_0-a_極細3
  6
CONTINUOUS
 62
    7
 10
643.74941775181151
 20
249.87583742891641
 40
1.825531472681392
  0
CIRCLE
  8
_0-a_極細3
  6
CONTINUOUS
 62
    7
 10
646.6975658999595
 20
177.25361520669395
 40
1.825531472681392
  0
LINE
  8
_0-a_極細3
  6
CONTINUOUS
 62
    7
 10
730.73739465696372
 20
213.1164738537714
 11
735.86769680684893
 21
227.21186316555986
  0
LINE
  8
_0-a_極細3
  6
CONTINUOUS
 62
    7
 10
680.74335198316749
 20
247.27548386480612
 11
675.61304983328273
 21
233.18009455301763
  0
LINE
  8
_0-a_極細3
  6
CONTINUOUS
 62
    7
 10
735.86769680684893
 20
227.21186316555986
 11
680.74335198316749
 21
247.27548386480612
  0
LINE
  8
_0-a_極細3
  6
CONTINUOUS
 62
    7
 10
730.73739465696372
 20
213.1164738537714
 11
675.61304983328273
 21
233.18009455301763
  0
LINE
  8
_0-a_極細3
  6
CENTER1
 62
    7
 10
738.25797912389919
 20
218.36053846963569
 11
674.22695864133357
 21
241.66592395467117
  0
LINE
  8
_0-a_極細3
  6
CONTINUOUS
 62
    7
 10
712.0973264364784
 20
188.23477269126784
 11
712.0973264364784
 21
232.32033403958397
  0
LINE
  8
_0-a_極細3
  6
CONTINUOUS
 62
    7
 10
712.0973264364784
 20
232.32033403958397
 11
727.0973264364784
 21
232.32033403958397
  0
LINE
  8
_0-a_極細3
  6
CONTINUOUS
 62
    7
 10
727.0973264364784
 20
232.32033403958397
 11
727.0973264364784
 21
188.23477269126784
  0
LINE
  8
_0-a_極細3
  6
CENTER1
 62
    7
 10
719.5973264364784
 20
179.95803240681497
 11
719.5973264364784
 21
236.59605420419351
  0
CIRCLE
  8
_0-a_極細3
  6
CONTINUOUS
 62
    7
 10
713.71423256662683
 20
245.39651644126138
 40
0.5530864197530718
  0
CIRCLE
  8
_0-a_極細3
  6
CONTINUOUS
 62
    7
 10
735.93041912355375
 20
232.05330656471847
 40
0.5530864197530718
  0
LINE
  8
_0-d_寸法3
  6
CONTINUOUS
 62
    7
 10
687.09732643647885
 20
214.90143935793458
 11
687.09732643647885
 21
197.75674745702915
  0
LINE
  8
_0-d_寸法3
  6
CONTINUOUS
 62
    7
 10
687.09732643647885
 20
202.75674745702915
 11
677.43806817358814
 21
200.16855700600402
  0
LINE
  8
_0-d_寸法3
  6
CONTINUOUS
 62
    7
 10
687.09732643647885
 20
202.75674745702915
 11
677.43806817358814
 21
205.34493790805442
  0
LINE
  8
_0-d_寸法3
  6
CONTINUOUS
 62
    7
 10
637.09732643647885
 20
253.23477269126784
 11
637.09732643647885
 21
197.75674745702915
  0
LINE
  8
_0-d_寸法3
  6
CONTINUOUS
 62
    7
 10
637.09732643647885
 20
202.75674745702915
 11
646.75658469936957
 21
205.34493790805442
  0
LINE
  8
_0-d_寸法3
  6
CONTINUOUS
 62
    7
 10
637.09732643647885
 20
202.75674745702915
 11
646.75658469936957
 21
200.16855700600402
  0
LINE
  8
_0-d_寸法3
  6
CONTINUOUS
 62
    7
 10
687.09732643647885
 20
202.75674745702915
 11
637.09732643647885
 21
202.75674745702915
  0
TEXT
  8
_0-d_寸法3
 62
    7
 10
654.59732643647885
 20
202.75674745702915
 40
15
 41
1
 50
0.0000000000002714
  1
30
  0
LINE
  8
_0-a_極細3
  6
CONTINUOUS
 62
    7
 10
187.09732643647845
 20
256.56810602460109
 11
187.09732643647845
 21
188.23477269126784
  0
LINE
  8
_0-a_極細3
  6
CONTINUOUS
 62
    7
 10
270.430659769812
 20
188.23477269126784
 11
187.09732643647845
 21
188.23477269126784
  0
LINE
  8
_0-a_極細3
  6
CONTINUOUS
 62
    7
 10
187.09732643647845
 20
256.56810602460109
 11
156.2529126246973
 21
256.56810602460109
  0
LINE
  8
_0-a_極細3
  6
CONTINUOUS
 62
    7
 10
270.430659769812
 20
188.23477269126784
 11
270.430659769812
 21
161.99317239648877
  0
LINE
  8
_0-a_極細3
  6
CONTINUOUS
 62
    7
 10
233.00868520482211
 20
161.9931725129257
 11
259.25028538316485
 21
188.23477269126784
  0
LINE
  8
_0-a_極細3
  6
CONTINUOUS
 62
    7
 10
162.29800730618086
 20
161.99317273293877
 11
188.53960726450993
 21
188.23477269126784
  0
LINE
  8
_0-a_極細3
  6
CONTINUOUS
 62
    7
 10
156.2529126246973
 20
226.65875617011011
 11
186.1622624791886
 21
256.56810602460109
  0
LINE
  8
_0-a_極細3
  6
CONTINUOUS
 62
    7
 10
225.93761741495797
 20
161.993172534927
 11
252.17921757129901
 21
188.23477269126784
  0
LINE
  8
_0-a_極細3
  6
CONTINUOUS
 62
    7
 10
156.2529126246973
 20
163.01914586332074
 11
187.09732643647845
 21
193.86355967510212
  0
LINE
  8
_0-a_極細3
  6
CONTINUOUS
 62
    7
 10
156.2529126246973
 20
233.72982398197564
 11
179.09119466732278
 21
256.56810602460109
  0
LINE
  8
_0-a_極細3
  6
CONTINUOUS
 62
    7
 10
218.86654962509425
 20
161.99317255692833
 11
245.10814975943376
 21
188.23477269126784
  0
LINE
  8
_0-a_極細3
  6
CONTINUOUS
 62
    7
 10
156.2529126246973
 20
170.09021367518628
 11
187.09732643647845
 21
200.93462748696766
  0
LINE
  8
_0-a_極細3
  6
CONTINUOUS
 62
    7
 10
156.2529126246973
 20
240.80089179384095
 11
172.02012685545753
 21
256.56810602460109
  0
CIRCLE
  8
_0-a_極細3
  6
CONTINUOUS
 62
    7
 10
174.1488004678645
 20
271.77151644126116
 40
0.5530864197530718
  0
CIRCLE
  8
_0-a_極細3
  6
CONTINUOUS
 62
    7
 10
163.81793627033409
 20
261.81596088570564
 40
0.5530864197530718
  0
CIRCLE
  8
_0-a_極細3
  6
CONTINUOUS
 62
    7
 10
174.4253436777413
 20
262.88262755237224
 40
0.5530864197530718
  0
CIRCLE
  8
_0-a_極細3
  6
CONTINUOUS
 62
    7
 10
187.04756589996356
 20
264.83818310792776
 40
0.5530864197530718
  0
CIRCLE
  8
_0-a_極細3
  6
CONTINUOUS
 62
    7
 10
215.49201034440742
 20
276.57151644126111
 40
0.5530864197530718
  0
CIRCLE
  8
_0-a_極細3
  6
CONTINUOUS
 62
    7
 10
246.069788122185
 20
270.34929421903894
 40
0.5530864197530718
  0
CIRCLE
  8
_0-a_極細3
  6
CONTINUOUS
 62
    7
 10
221.18089923329634
 20
269.81596088570564
 40
0.5530864197530718
  0
CIRCLE
  8
_0-a_極細3
  6
CONTINUOUS
 62
    7
 10
193.99201034440793
 20
257.58262755237229
 40
0.5530864197530718
  0
CIRCLE
  8
_0-a_極細3
  6
CONTINUOUS
 62
    7
 10
214.43645478885179
 20
256.33818310792776
 40
0.5530864197530718
  0
CIRCLE
  8
_0-a_極細3
  6
CONTINUOUS
 62
    7
 10
239.5031214555184
 20
252.60484977459467
 40
0.5530864197530718
  0
CIRCLE
  8
_0-a_極細3
  6
CONTINUOUS
 62
    7
 10
226.88089923329613
 20
246.91596088570577
 40
0.5530864197530718
  0
CIRCLE
  8
_0-a_極細3
  6
CONTINUOUS
 62
    7
 10
212.12534367774111
 20
233.4048497745946
 40
0.5530864197530718
  0
CIRCLE
  8
_0-a_極細3
  6
CONTINUOUS
 62
    7
 10
239.5031214555184
 20
240.6937386634836
 40
0.5530864197530718
  0
CIRCLE
  8
_0-a_極細3
  6
CONTINUOUS
 62
    7
 10
198.39201034440754
 20
213.58262755237277
 40
0.5530864197530718
  0
CIRCLE
  8
_0-a_極細3
  6
CONTINUOUS
 62
    7
 10
192.7031214555187
 20
195.62707199681725
 40
0.5530864197530718
  0
CIRCLE
  8
_0-a_極細3
  6
CONTINUOUS
 62
    7
 10
201.41423256662989
 20
202.38262755237272
 40
0.5530864197530718
  0
CIRCLE
  8
_0-a_極細3
  6
CONTINUOUS
 62
    7
 10
207.63645478885209
 20
193.84929421903939
 40
0.5530864197530718
  0
CIRCLE
  8
_0-a_極細3
  6
CONTINUOUS
 62
    7
 10
246.93645478885179
 20
211.73818310792831
 40
0.5530864197530718
  0
CIRCLE
  8
_0-a_極細3
  6
CONTINUOUS
 62
    7
 10
235.73645478885197
 20
206.22707199681713
 40
0.5530864197530718
  0
CIRCLE
  8
_0-a_極細3
  6
CONTINUOUS
 62
    7
 10
241.95867701107417
 20
203.73818310792828
 40
0.5530864197530718
  0
CIRCLE
  8
_0-a_極細3
  6
CONTINUOUS
 62
    7
 10
238.40312145551849
 20
194.49373866348401
 40
0.5530864197530718
  0
CIRCLE
  8
_0-a_極細3
  6
CONTINUOUS
 62
    7
 10
258.31423256662958
 20
195.56040533015064
 40
0.5530864197530718
  0
CIRCLE
  8
_0-a_極細3
  6
CONTINUOUS
 62
    7
 10
271.29201034440717
 20
198.76040533015072
 40
0.5530864197530718
  0
CIRCLE
  8
_0-a_極細3
  6
CONTINUOUS
 62
    7
 10
284.98089923329599
 20
183.82707199681747
 40
0.5530864197530718
  0
CIRCLE
  8
_0-a_極細3
  6
CONTINUOUS
 62
    7
 10
278.04756589996265
 20
168.89373866348407
 40
0.5530864197530718
  0
CIRCLE
  8
_0-a_極細3
  6
CONTINUOUS
 62
    7
 10
261.38089923329619
 20
212.50855347829861
 40
0.5530864197530718
  0
CIRCLE
  8
_0-a_極細3
  6
CONTINUOUS
 62
    7
 10
276.13645478885161
 20
246.64188681163182
 40
0.5530864197530718
  0
CIRCLE
  8
_0-a_極細3
  6
CONTINUOUS
 62
    7
 10
291.24756589996252
 20
236.6863312560763
 40
0.5530864197530718
  0
CIRCLE
  8
_0-a_極細3
  6
CONTINUOUS
 62
    7
 10
291.78089923329583
 20
218.73077570052078
 40
0.5530864197530718
  0
CIRCLE
  8
_0-a_極細3
  6
CONTINUOUS
 62
    7
 10
256.53645478885164
 20
248.4641090338539
 40
0.5530864197530718
  0
CIRCLE
  8
_0-a_極細3
  6
CONTINUOUS
 62
    7
 10
236.24756589996295
 20
270.44805965113778
 40
1.825531472681392
  0
CIRCLE
  8
_0-a_極細3
  6
CONTINUOUS
 62
    7
 10
184.48544619852788
 20
277.37767392583555
 40
1.825531472681392
  0
CIRCLE
  8
_0-a_極細3
  6
CONTINUOUS
 62
    7
 10
211.02534367774075
 20
247.64805965113783
 40
1.825531472681392
  0
CIRCLE
  8
_0-a_極細3
  6
CONTINUOUS
 62
    7
 10
191.4253436777409
 20
209.64805965113828
 40
1.825531472681392
  0
CIRCLE
  8
_0-a_極細3
  6
CONTINUOUS
 62
    7
 10
244.62534367774026
 20
196.84805965113853
 40
1.825531472681392
  0
CIRCLE
  8
_0-a_極細3
  6
CONTINUOUS
 62
    7
 10
280.60312145551791
 20
193.24805965113868
 40
1.825531472681392
  0
CIRCLE
  8
_0-a_極細3
  6
CONTINUOUS
 62
    7
 10
285.40312145551758
 20
174.58139298447213
 40
1.825531472681392
  0
CIRCLE
  8
_0-a_極細3
  6
CONTINUOUS
 62
    7
 10
164.28836665744853
 20
278.27028187335986
 40
1.825531472681392
  0
LINE
  8
_0-a_極細3
  6
CONTINUOUS
 62
    7
 10
302.930659769812
 20
263.23477269126784
 11
303.76399310314537
 21
263.23477269126784
  0
LINE
  8
_0-a_極細3
  6
CONTINUOUS
 62
    7
 10
303.76399310314537
 20
263.23477269126784
 11
303.76399310314537
 21
161.99317239648877
  0
CIRCLE
  8
_0-a_極細3
  6
CONTINUOUS
 62
    7
 10
296.87655895551649
 20
247.24805965113845
 40
1.825531472681392
  0
CIRCLE
  8
_0-a_極細3
  6
CONTINUOUS
 62
    7
 10
295.88460293699939
 20
192.53818310792852
 40
0.5530864197530718
  0
CIRCLE
  8
_0-a_極細3
  6
CONTINUOUS
 62
    7
 10
297.21793627033327
 20
169.88211207475871
 40
0.5530864197530718
  0
CIRCLE
  8
_0-a_極細3
  6
CONTINUOUS
 62
    7
 10
284.84756589995823
 20
228.13694854002759
 40
1.825531472681392
  0
LINE
  8
_0-a_極細3
  6
CONTINUOUS
 62
    7
 10
210.12392488266016
 20
213.1164738537714
 11
204.9936227327749
 21
227.21186316555986
  0
LINE
  8
_0-a_極細3
  6
CONTINUOUS
 62
    7
 10
260.11796755645662
 20
247.27548386480612
 11
265.24826970634138
 21
233.18009455301763
  0
LINE
  8
_0-a_極細3
  6
CONTINUOUS
 62
    7
 10
204.9936227327749
 20
227.21186316555986
 11
260.11796755645662
 21
247.27548386480612
  0
LINE
  8
_0-a_極細3
  6
CONTINUOUS
 62
    7
 10
210.12392488266016
 20
213.1164738537714
 11
265.24826970634138
 21
233.18009455301763
  0
LINE
  8
_0-a_極細3
  6
CENTER1
 62
    7
 10
202.60334041572477
 20
218.36053846963569
 11
266.63436089829048
 21
241.66592395467117
  0
LINE
  8
_0-a_極細3
  6
CONTINUOUS
 62
    7
 10
228.7639931031454
 20
188.23477269126784
 11
228.7639931031454
 21
232.32033403958397
  0
LINE
  8
_0-a_極細3
  6
CONTINUOUS
 62
    7
 10
228.7639931031454
 20
232.32033403958397
 11
213.7639931031454
 21
232.32033403958397
  0
LINE
  8
_0-a_極細3
  6
CONTINUOUS
 62
    7
 10
213.7639931031454
 20
232.32033403958397
 11
213.7639931031454
 21
188.23477269126784
  0
CIRCLE
  8
_0-a_極細3
  6
CONTINUOUS
 62
    7
 10
243.14386219625936
 20
218.15670162644665
 40
1.825531472681392
  0
CIRCLE
  8
_0-a_極細3
  6
CONTINUOUS
 62
    7
 10
264.85250417156806
 20
224.37892384866905
 40
1.825531472681392
  0
LINE
  8
_0-a_極細3
  6
CENTER1
 62
    7
 10
221.2639931031454
 20
179.95803240681497
 11
221.2639931031454
 21
236.59605420419351
  0
LINE
  8
_0-d_寸法3
  6
CONTINUOUS
 62
    7
 10
253.76399310314531
 20
214.90143935793458
 11
253.76399310314511
 21
197.75674745702915
  0
LINE
  8
_0-d_寸法3
  6
CONTINUOUS
 62
    7
 10
253.76399310314525
 20
202.75674745702915
 11
263.42325136603591
 21
205.34493790805442
  0
LINE
  8
_0-d_寸法3
  6
CONTINUOUS
 62
    7
 10
253.76399310314525
 20
202.75674745702915
 11
263.42325136603591
 21
200.16855700600402
  0
LINE
  8
_0-d_寸法3
  6
CONTINUOUS
 62
    7
 10
303.76399310314525
 20
253.23477269126784
 11
303.76399310314446
 21
197.75674745702915
  0
LINE
  8
_0-d_寸法3
  6
CONTINUOUS
 62
    7
 10
303.76399310314457
 20
202.75674745702915
 11
294.1047348402538
 21
200.16855700600402
  0
LINE
  8
_0-d_寸法3
  6
CONTINUOUS
 62
    7
 10
303.76399310314457
 20
202.75674745702915
 11
294.10473484025385
 21
205.34493790805442
  0
LINE
  8
_0-d_寸法3
  6
CONTINUOUS
 62
    7
 10
253.76399310314525
 20
202.75674745702915
 11
303.76399310314457
 21
202.75674745702915
  0
TEXT
  8
_0-d_寸法3
 62
    7
 10
271.26399310314497
 20
202.75674745702915
 40
15
 41
1
 50
0
  1
30
  0
LINE
  8
_0-d_寸法3
  6
CONTINUOUS
 62
    7
 10
303.76399310314537
 20
258.23477269126784
 11
303.76399310314537
 21
197.75674745702915
  0
LINE
  8
_0-d_寸法3
  6
CONTINUOUS
 62
    7
 10
303.76399310314537
 20
202.75674745702915
 11
313.42325136603608
 21
205.34493790805442
  0
LINE
  8
_0-d_寸法3
  6
CONTINUOUS
 62
    7
 10
303.76399310314537
 20
202.75674745702915
 11
313.42325136603608
 21
200.16855700600402
  0
LINE
  8
_0-d_寸法3
  6
CONTINUOUS
 62
    7
 10
637.09732643647794
 20
258.23477269126784
 11
637.09732643647794
 21
197.75674745702915
  0
LINE
  8
_0-d_寸法3
  6
CONTINUOUS
 62
    7
 10
637.09732643647794
 20
202.75674745702915
 11
627.43806817358723
 21
200.16855700600402
  0
LINE
  8
_0-d_寸法3
  6
CONTINUOUS
 62
    7
 10
637.09732643647794
 20
202.75674745702915
 11
627.43806817358723
 21
205.34493790805442
  0
LINE
  8
_0-d_寸法3
  6
CONTINUOUS
 62
    7
 10
303.76399310314537
 20
202.75674745702915
 11
637.09732643647794
 21
202.75674745702915
  0
TEXT
  8
_0-d_寸法3
 62
    7
 10
459.180659769812
 20
202.75674745702915
 40
15
 41
1
 50
0
  1
200
  0
ARC
  8
_0-b_細線3
  6
CONTINUOUS
 62
    7
 10
682.0973264364784
 20
268.23477269126784
 40
5
 50
269.99999999999977
 51
359.99999999999966
  0
LINE
  8
_0-b_細線3
  6
CONTINUOUS
 62
    7
 10
687.0973264364784
 20
268.23477269126784
 11
687.0973264364784
 21
292.40143935793435
  0
LINE
  8
_0-b_細線3
  6
CONTINUOUS
 62
    7
 10
682.0973264364784
 20
263.23477269126784
 11
637.93065976981097
 21
263.23477269126784
  0
LINE
  8
_0-b_細線3
  6
CONTINUOUS
 62
    7
 10
637.09732643647794
 20
264.06810602460109
 11
637.93065976981097
 21
263.23477269126784
  0
LINE
  8
_0-b_細線3
  6
CONTINUOUS
 62
    7
 10
637.09732643647794
 20
267.40143935793458
 11
637.09732643647794
 21
264.06810602460109
  0
LINE
  8
_0-b_細線3
  6
CONTINUOUS
 62
    7
 10
637.93065976981097
 20
268.23477269126784
 11
637.09732643647794
 21
267.40143935793458
  0
LINE
  8
_0-b_細線3
  6
CONTINUOUS
 62
    7
 10
682.0973264364784
 20
268.23477269126784
 11
637.93065976981097
 21
268.23477269126784
  0
LINE
  8
_0-b_細線3
  6
CONTINUOUS
 62
    7
 10
686.26399310314537
 20
293.23477269126784
 11
687.0973264364784
 21
292.40143935793435
  0
LINE
  8
_0-b_細線3
  6
CONTINUOUS
 62
    7
 10
682.930659769812
 20
293.23477269126784
 11
686.26399310314537
 21
293.23477269126784
  0
LINE
  8
_0-b_細線3
  6
CONTINUOUS
 62
    7
 10
682.0973264364784
 20
292.40143935793435
 11
682.930659769812
 21
293.23477269126784
  0
LINE
  8
_0-b_細線3
  6
CONTINUOUS
 62
    7
 10
682.0973264364784
 20
268.23477269126784
 11
682.0973264364784
 21
292.40143935793435
  0
ARC
  8
_0-b_細線3
  6
CONTINUOUS
 62
    7
 10
258.76399310314537
 20
268.23477269126784
 40
5
 50
179.99999999999983
 51
269.99999999999977
  0
LINE
  8
_0-b_細線3
  6
CONTINUOUS
 62
    7
 10
253.7639931031454
 20
268.23477269126784
 11
253.7639931031454
 21
292.40143935793435
  0
LINE
  8
_0-b_細線3
  6
CONTINUOUS
 62
    7
 10
258.76399310314537
 20
263.23477269126784
 11
302.930659769812
 21
263.23477269126784
  0
LINE
  8
_0-b_細線3
  6
CONTINUOUS
 62
    7
 10
303.76399310314537
 20
264.06810602460109
 11
302.930659769812
 21
263.23477269126784
  0
LINE
  8
_0-b_細線3
  6
CONTINUOUS
 62
    7
 10
303.76399310314537
 20
267.40143935793458
 11
303.76399310314537
 21
264.06810602460109
  0
LINE
  8
_0-b_細線3
  6
CONTINUOUS
 62
    7
 10
302.930659769812
 20
268.23477269126784
 11
303.76399310314537
 21
267.40143935793458
  0
LINE
  8
_0-b_細線3
  6
CONTINUOUS
 62
    7
 10
258.76399310314537
 20
268.23477269126784
 11
302.930659769812
 21
268.23477269126784
  0
LINE
  8
_0-b_細線3
  6
CONTINUOUS
 62
    7
 10
254.59732643647845
 20
293.23477269126784
 11
253.7639931031454
 21
292.40143935793435
  0
LINE
  8
_0-b_細線3
  6
CONTINUOUS
 62
    7
 10
257.930659769812
 20
293.23477269126784
 11
254.59732643647845
 21
293.23477269126784
  0
LINE
  8
_0-b_細線3
  6
CONTINUOUS
 62
    7
 10
258.76399310314537
 20
292.40143935793435
 11
257.930659769812
 21
293.23477269126784
  0
LINE
  8
_0-b_細線3
  6
CONTINUOUS
 62
    7
 10
258.76399310314537
 20
268.23477269126784
 11
258.76399310314537
 21
292.40143935793435
  0
LINE
  8
_0-b_細線3
  6
CONTINUOUS
 62
    7
 10
673.76399310314537
 20
268.23477269126806
 11
267.09732643647845
 21
268.23477269126738
  0
LINE
  8
_0-b_細線3
  6
CONTINUOUS
 62
    7
 10
673.76399310314537
 20
268.23477269126806
 11
673.76399310314537
 21
293.23477269126784
  0
LINE
  8
_0-b_細線3
  6
CONTINUOUS
 62
    7
 10
673.76399310314537
 20
293.23477269126784
 11
678.76399310314537
 21
293.23477269126784
  0
LINE
  8
_0-b_細線3
  6
CONTINUOUS
 62
    7
 10
678.76399310314537
 20
293.23477269126784
 11
678.76399310314537
 21
268.23477269126806
  0
LINE
  8
_0-b_細線3
  6
CONTINUOUS
 62
    7
 10
678.76399310314537
 20
268.23477269126806
 11
673.76399310314537
 21
268.23477269126806
  0
LINE
  8
_0-b_細線3
  6
CONTINUOUS
 62
    7
 10
267.09732643647845
 20
268.23477269126738
 11
267.09732643647845
 21
293.23477269126715
  0
LINE
  8
_0-b_細線3
  6
CONTINUOUS
 62
    7
 10
267.09732643647845
 20
293.23477269126715
 11
262.09732643647845
 21
293.23477269126715
  0
LINE
  8
_0-b_細線3
  6
CONTINUOUS
 62
    7
 10
262.09732643647845
 20
293.23477269126715
 11
262.09732643647845
 21
268.23477269126738
  0
LINE
  8
_0-b_細線3
  6
CONTINUOUS
 62
    7
 10
262.09732643647845
 20
268.23477269126738
 11
267.09732643647845
 21
268.23477269126738
  0
LINE
  8
_0-d_寸法3
  6
CONTINUOUS
 62
    7
 10
253.7639931031454
 20
298.23477269126784
 11
253.76399310314568
 21
418.23477269126784
  0
LINE
  8
_0-d_寸法3
  6
CONTINUOUS
 62
    7
 10
253.76399310314568
 20
413.23477269126784
 11
263.42325136603631
 21
415.82296314229302
  0
LINE
  8
_0-d_寸法3
  6
CONTINUOUS
 62
    7
 10
253.76399310314568
 20
413.23477269126784
 11
263.42325136603631
 21
410.64658224024271
  0
LINE
  8
_0-d_寸法3
  6
CONTINUOUS
 62
    7
 10
687.0973264364784
 20
298.23477269126784
 11
687.0973264364784
 21
418.23477269126784
  0
LINE
  8
_0-d_寸法3
  6
CONTINUOUS
 62
    7
 10
687.0973264364784
 20
413.23477269126784
 11
677.43806817358768
 21
410.64658224024271
  0
LINE
  8
_0-d_寸法3
  6
CONTINUOUS
 62
    7
 10
687.0973264364784
 20
413.23477269126784
 11
677.43806817358768
 21
415.82296314229313
  0
LINE
  8
_0-d_寸法3
  6
CONTINUOUS
 62
    7
 10
253.76399310314568
 20
413.23477269126784
 11
687.0973264364784
 21
413.23477269126784
  0
TEXT
  8
_0-d_寸法3
 62
    7
 10
459.180659769812
 20
413.23477269126784
 40
15
 41
1
 50
0
  1
260
  0
LINE
  8
_0-d_寸法3
  6
CONTINUOUS
 62
    7
 10
262.09732643647845
 20
303.23477269126715
 11
262.09732643647845
 21
348.23477269126784
  0
LINE
  8
_0-d_寸法3
  6
CONTINUOUS
 62
    7
 10
262.09732643647845
 20
343.23477269126784
 11
271.75658469936911
 21
345.82296314229302
  0
LINE
  8
_0-d_寸法3
  6
CONTINUOUS
 62
    7
 10
262.09732643647845
 20
343.23477269126784
 11
271.75658469936911
 21
340.64658224024265
  0
LINE
  8
_0-d_寸法3
  6
CONTINUOUS
 62
    7
 10
387.09732643647845
 20
303.23477269126761
 11
387.09732643647845
 21
348.23477269126784
  0
LINE
  8
_0-d_寸法3
  6
CONTINUOUS
 62
    7
 10
387.09732643647845
 20
343.23477269126784
 11
377.43806817358774
 21
340.64658224024265
  0
LINE
  8
_0-d_寸法3
  6
CONTINUOUS
 62
    7
 10
387.09732643647845
 20
343.23477269126784
 11
377.43806817358779
 21
345.82296314229313
  0
LINE
  8
_0-d_寸法3
  6
CONTINUOUS
 62
    7
 10
262.09732643647845
 20
343.23477269126784
 11
387.09732643647845
 21
343.23477269126784
  0
TEXT
  8
_0-d_寸法3
 62
    7
 10
317.09732643647845
 20
343.23477269126784
 40
15
 41
1
 50
0
  1
75
  0
LINE
  8
_0-d_寸法3
  6
CONTINUOUS
 62
    7
 10
387.09732643647845
 20
343.23477269126784
 11
396.75658469936923
 21
345.82296314229296
  0
LINE
  8
_0-d_寸法3
  6
CONTINUOUS
 62
    7
 10
387.09732643647845
 20
343.23477269126784
 11
396.75658469936911
 21
340.64658224024265
  0
LINE
  8
_0-d_寸法3
  6
CONTINUOUS
 62
    7
 10
553.76399310314537
 20
303.23477269126761
 11
553.76399310314537
 21
348.23477269126784
  0
LINE
  8
_0-d_寸法3
  6
CONTINUOUS
 62
    7
 10
553.76399310314537
 20
343.23477269126784
 11
544.10473484025465
 21
340.64658224024265
  0
LINE
  8
_0-d_寸法3
  6
CONTINUOUS
 62
    7
 10
553.76399310314537
 20
343.23477269126784
 11
544.10473484025465
 21
345.82296314229313
  0
LINE
  8
_0-d_寸法3
  6
CONTINUOUS
 62
    7
 10
387.09732643647845
 20
343.23477269126784
 11
553.76399310314537
 21
343.23477269126784
  0
TEXT
  8
_0-d_寸法3
 62
    7
 10
459.180659769812
 20
343.23477269126784
 40
15
 41
1
 50
0
  1
100
  0
LINE
  8
_0-d_寸法3
  6
CONTINUOUS
 62
    7
 10
553.76399310314537
 20
343.23477269126784
 11
563.42325136603608
 21
345.82296314229296
  0
LINE
  8
_0-d_寸法3
  6
CONTINUOUS
 62
    7
 10
553.76399310314537
 20
343.23477269126784
 11
563.42325136603608
 21
340.64658224024265
  0
LINE
  8
_0-d_寸法3
  6
CONTINUOUS
 62
    7
 10
678.76399310314537
 20
303.23477269126784
 11
678.76399310314537
 21
348.23477269126784
  0
LINE
  8
_0-d_寸法3
  6
CONTINUOUS
 62
    7
 10
678.76399310314537
 20
343.23477269126784
 11
669.10473484025476
 21
340.64658224024265
  0
LINE
  8
_0-d_寸法3
  6
CONTINUOUS
 62
    7
 10
678.76399310314537
 20
343.23477269126784
 11
669.10473484025476
 21
345.82296314229313
  0
LINE
  8
_0-d_寸法3
  6
CONTINUOUS
 62
    7
 10
553.76399310314537
 20
343.23477269126784
 11
678.76399310314537
 21
343.23477269126784
  0
TEXT
  8
_0-d_寸法3
 62
    7
 10
608.76399310314537
 20
343.23477269126784
 40
15
 41
1
 50
0
  1
75
  0
LINE
  8
_0-7_枠細線
  6
CONTINUOUS
 62
    5
 10
1139.4018171150183
 20
373.42884000293418
 11
1139.4018171150183
 21
453.42884000293418
  0
LINE
  8
_0-7_枠細線
  6
CONTINUOUS
 62
    5
 10
1229.4018171150183
 20
373.42884000293418
 11
1229.4018171150183
 21
453.42884000293418
  0
TEXT
  8
_0-7_枠細線
 62
    5
 10
1251.9018171150183
 20
430.92884000293418
 40
15
 41
1
 50
0
  1
蓋重量
  0
LINE
  8
_0-7_枠細線
  6
CONTINUOUS
 62
    5
 10
1319.4018171150183
 20
373.42884000293418
 11
1319.4018171150183
 21
453.42884000293418
  0
TEXT
  8
_0-7_枠細線
 62
    5
 10
1341.9018171150183
 20
430.92884000293418
 40
15
 41
1
 50
0
  1
枠重量
  0
LINE
  8
_0-7_枠細線
  6
CONTINUOUS
 62
    5
 10
1139.4018171150183
 20
423.42884000293418
 11
1409.4018171150183
 21
423.42884000293418
  0
LINE
  8
_0-7_枠細線
  6
CONTINUOUS
 62
    5
 10
1139.4018171150183
 20
453.42884000293418
 11
1409.4018171150183
 21
453.42884000293418
  0
LINE
  8
_0-7_枠細線
  6
CONTINUOUS
 62
    5
 10
1139.4018171150183
 20
373.42884000293418
 11
1409.4018171150183
 21
373.42884000293418
  0
LINE
  8
_0-7_枠細線
  6
CONTINUOUS
 62
    5
 10
1409.4018171150183
 20
373.42884000293418
 11
1409.4018171150183
 21
453.42884000293418
  0
TEXT
  8
_0-7_枠細線
 62
    5
 10
1334.4018171150183
 20
392.17884000293418
 40
15
 41
0.8000000000000001
 50
0
  1
2.2kg/ｍ組
  0
TEXT
  8
_0-7_枠細線
 62
    5
 10
1154.4018171150183
 20
430.92884000293418
 40
15
 41
1
 50
0
  1
適用荷重
  0
TEXT
  8
_0-7_枠細線
 62
    5
 10
1161.9018171150183
 20
400.92884000293418
 40
15
 41
1
 50
0
  1
歩道用
  0
TEXT
  8
_0-7_枠細線
 62
    5
 10
1139.4018171150183
 20
380.92884000293418
 40
15
 41
1
 50
0
  1
（5.0kN/㎡）
  0
TEXT
  8
_0-7_枠細線
 62
    5
 10
1250.4018171150183
 20
392.17884000293418
 40
15
 41
0.8000000000000001
 50
0
  1
9.8kg/枚
  0
LINE
  8
_0-1_計細線
  6
CONTINUOUS
 62
    3
 10
1221.4337498915163
 20
803.93908616188639
 11
228.43374989151627
 21
803.93908616188639
  0
LINE
  8
_0-1_計細線
  6
CONTINUOUS
 62
    3
 10
228.43374989151627
 20
803.93908616188639
 11
228.43374989151627
 21
806.93908616188651
  0
LINE
  8
_0-1_計細線
  6
CONTINUOUS
 62
    3
 10
228.43374989151627
 20
806.93908616188651
 11
1221.4337498915163
 21
806.93908616188651
  0
LINE
  8
_0-1_計細線
  6
CONTINUOUS
 62
    3
 10
1221.4337498915163
 20
806.93908616188651
 11
1221.4337498915163
 21
803.93908616188639
  0
LINE
  8
_0-1_計細線
  6
CONTINUOUS
 62
    3
 10
1221.4337498915163
 20
559.93908616188696
 11
228.43374989151627
 21
559.93908616188696
  0
LINE
  8
_0-1_計細線
  6
CONTINUOUS
 62
    3
 10
228.43374989151627
 20
559.93908616188696
 11
228.43374989151627
 21
556.93908616188685
  0
LINE
  8
_0-1_計細線
  6
CONTINUOUS
 62
    3
 10
228.43374989151627
 20
556.93908616188685
 11
1221.4337498915163
 21
556.93908616188685
  0
LINE
  8
_0-1_計細線
  6
CONTINUOUS
 62
    3
 10
1221.4337498915163
 20
556.93908616188685
 11
1221.4337498915163
 21
559.93908616188696
  0
LINE
  8
_0-1_計細線
  6
CONTINUOUS
 62
    3
 10
241.4337498915163
 20
803.93908616188639
 11
238.43374989151627
 21
803.93908616188639
  0
LINE
  8
_0-1_計細線
  6
CONTINUOUS
 62
    3
 10
238.43374989151627
 20
803.93908616188639
 11
238.43374989151627
 21
559.93908616188696
  0
LINE
  8
_0-1_計細線
  6
CONTINUOUS
 62
    3
 10
238.43374989151627
 20
559.93908616188696
 11
241.4337498915163
 21
559.93908616188696
  0
LINE
  8
_0-1_計細線
  6
CONTINUOUS
 62
    3
 10
241.4337498915163
 20
559.93908616188696
 11
241.4337498915163
 21
803.93908616188639
  0
LINE
  8
_0-1_計細線
  6
CONTINUOUS
 62
    3
 10
231.4337498915163
 20
803.93908616188639
 11
228.43374989151627
 21
803.93908616188639
  0
LINE
  8
_0-1_計細線
  6
CONTINUOUS
 62
    3
 10
228.43374989151627
 20
803.93908616188639
 11
228.43374989151627
 21
559.93908616188696
  0
LINE
  8
_0-1_計細線
  6
CONTINUOUS
 62
    3
 10
228.43374989151627
 20
559.93908616188696
 11
231.4337498915163
 21
559.93908616188696
  0
LINE
  8
_0-1_計細線
  6
CONTINUOUS
 62
    3
 10
231.4337498915163
 20
559.93908616188696
 11
231.4337498915163
 21
803.93908616188639
  0
LINE
  8
_0-1_計細線
  6
CONTINUOUS
 62
    3
 10
251.4337498915163
 20
803.93908616188639
 11
248.43374989151627
 21
803.93908616188639
  0
LINE
  8
_0-1_計細線
  6
CONTINUOUS
 62
    3
 10
248.43374989151627
 20
803.93908616188639
 11
248.43374989151627
 21
559.93908616188696
  0
LINE
  8
_0-1_計細線
  6
CONTINUOUS
 62
    3
 10
248.43374989151627
 20
559.93908616188696
 11
251.4337498915163
 21
559.93908616188696
  0
LINE
  8
_0-1_計細線
  6
CONTINUOUS
 62
    3
 10
251.4337498915163
 20
559.93908616188696
 11
251.4337498915163
 21
803.93908616188639
  0
LINE
  8
_0-1_計細線
  6
CONTINUOUS
 62
    3
 10
261.4337498915163
 20
803.93908616188639
 11
258.4337498915163
 21
803.93908616188639
  0
LINE
  8
_0-1_計細線
  6
CONTINUOUS
 62
    3
 10
258.4337498915163
 20
803.93908616188639
 11
258.4337498915163
 21
559.93908616188696
  0
LINE
  8
_0-1_計細線
  6
CONTINUOUS
 62
    3
 10
258.4337498915163
 20
559.93908616188696
 11
261.4337498915163
 21
559.93908616188696
  0
LINE
  8
_0-1_計細線
  6
CONTINUOUS
 62
    3
 10
261.4337498915163
 20
559.93908616188696
 11
261.4337498915163
 21
803.93908616188639
  0
LINE
  8
_0-1_計細線
  6
CONTINUOUS
 62
    3
 10
271.4337498915163
 20
803.93908616188639
 11
268.4337498915163
 21
803.93908616188639
  0
LINE
  8
_0-1_計細線
  6
CONTINUOUS
 62
    3
 10
268.4337498915163
 20
803.93908616188639
 11
268.4337498915163
 21
559.93908616188696
  0
LINE
  8
_0-1_計細線
  6
CONTINUOUS
 62
    3
 10
268.4337498915163
 20
559.93908616188696
 11
271.4337498915163
 21
559.93908616188696
  0
LINE
  8
_0-1_計細線
  6
CONTINUOUS
 62
    3
 10
271.4337498915163
 20
559.93908616188696
 11
271.4337498915163
 21
803.93908616188639
  0
LINE
  8
_0-1_計細線
  6
CONTINUOUS
 62
    3
 10
281.4337498915163
 20
803.93908616188639
 11
278.4337498915163
 21
803.93908616188639
  0
LINE
  8
_0-1_計細線
  6
CONTINUOUS
 62
    3
 10
278.4337498915163
 20
803.93908616188639
 11
278.4337498915163
 21
559.93908616188696
  0
LINE
  8
_0-1_計細線
  6
CONTINUOUS
 62
    3
 10
278.4337498915163
 20
559.93908616188696
 11
281.4337498915163
 21
559.93908616188696
  0
LINE
  8
_0-1_計細線
  6
CONTINUOUS
 62
    3
 10
281.4337498915163
 20
559.93908616188696
 11
281.4337498915163
 21
803.93908616188639
  0
LINE
  8
_0-1_計細線
  6
CONTINUOUS
 62
    3
 10
291.4337498915163
 20
803.93908616188639
 11
288.4337498915163
 21
803.93908616188639
  0
LINE
  8
_0-1_計細線
  6
CONTINUOUS
 62
    3
 10
288.4337498915163
 20
803.93908616188639
 11
288.4337498915163
 21
559.93908616188696
  0
LINE
  8
_0-1_計細線
  6
CONTINUOUS
 62
    3
 10
288.4337498915163
 20
559.93908616188696
 11
291.4337498915163
 21
559.93908616188696
  0
LINE
  8
_0-1_計細線
  6
CONTINUOUS
 62
    3
 10
291.4337498915163
 20
559.93908616188696
 11
291.4337498915163
 21
803.93908616188639
  0
LINE
  8
_0-1_計細線
  6
CONTINUOUS
 62
    3
 10
301.4337498915163
 20
803.93908616188639
 11
298.4337498915163
 21
803.93908616188639
  0
LINE
  8
_0-1_計細線
  6
CONTINUOUS
 62
    3
 10
298.4337498915163
 20
803.93908616188639
 11
298.4337498915163
 21
559.93908616188696
  0
LINE
  8
_0-1_計細線
  6
CONTINUOUS
 62
    3
 10
298.4337498915163
 20
559.93908616188696
 11
301.4337498915163
 21
559.93908616188696
  0
LINE
  8
_0-1_計細線
  6
CONTINUOUS
 62
    3
 10
301.4337498915163
 20
559.93908616188696
 11
301.4337498915163
 21
803.93908616188639
  0
LINE
  8
_0-1_計細線
  6
CONTINUOUS
 62
    3
 10
311.4337498915163
 20
803.93908616188639
 11
308.4337498915163
 21
803.93908616188639
  0
LINE
  8
_0-1_計細線
  6
CONTINUOUS
 62
    3
 10
308.4337498915163
 20
803.93908616188639
 11
308.4337498915163
 21
559.93908616188696
  0
LINE
  8
_0-1_計細線
  6
CONTINUOUS
 62
    3
 10
308.4337498915163
 20
559.93908616188696
 11
311.4337498915163
 21
559.93908616188696
  0
LINE
  8
_0-1_計細線
  6
CONTINUOUS
 62
    3
 10
311.4337498915163
 20
559.93908616188696
 11
311.4337498915163
 21
803.93908616188639
  0
LINE
  8
_0-1_計細線
  6
CONTINUOUS
 62
    3
 10
321.4337498915163
 20
803.93908616188639
 11
318.4337498915163
 21
803.93908616188639
  0
LINE
  8
_0-1_計細線
  6
CONTINUOUS
 62
    3
 10
318.4337498915163
 20
803.93908616188639
 11
318.4337498915163
 21
559.93908616188696
  0
LINE
  8
_0-1_計細線
  6
CONTINUOUS
 62
    3
 10
318.4337498915163
 20
559.93908616188696
 11
321.4337498915163
 21
559.93908616188696
  0
LINE
  8
_0-1_計細線
  6
CONTINUOUS
 62
    3
 10
321.4337498915163
 20
559.93908616188696
 11
321.4337498915163
 21
803.93908616188639
  0
LINE
  8
_0-1_計細線
  6
CONTINUOUS
 62
    3
 10
331.4337498915163
 20
803.93908616188639
 11
328.43374989151636
 21
803.93908616188639
  0
LINE
  8
_0-1_計細線
  6
CONTINUOUS
 62
    3
 10
328.43374989151636
 20
803.93908616188639
 11
328.43374989151636
 21
559.93908616188696
  0
LINE
  8
_0-1_計細線
  6
CONTINUOUS
 62
    3
 10
328.43374989151636
 20
559.93908616188696
 11
331.4337498915163
 21
559.93908616188696
  0
LINE
  8
_0-1_計細線
  6
CONTINUOUS
 62
    3
 10
331.4337498915163
 20
559.93908616188696
 11
331.4337498915163
 21
803.93908616188639
  0
LINE
  8
_0-1_計細線
  6
CONTINUOUS
 62
    3
 10
341.4337498915163
 20
803.93908616188639
 11
338.43374989151636
 21
803.93908616188639
  0
LINE
  8
_0-1_計細線
  6
CONTINUOUS
 62
    3
 10
338.43374989151636
 20
803.93908616188639
 11
338.43374989151636
 21
559.93908616188696
  0
LINE
  8
_0-1_計細線
  6
CONTINUOUS
 62
    3
 10
338.43374989151636
 20
559.93908616188696
 11
341.4337498915163
 21
559.93908616188696
  0
LINE
  8
_0-1_計細線
  6
CONTINUOUS
 62
    3
 10
341.4337498915163
 20
559.93908616188696
 11
341.4337498915163
 21
803.93908616188639
  0
LINE
  8
_0-1_計細線
  6
CONTINUOUS
 62
    3
 10
351.4337498915163
 20
803.93908616188639
 11
348.43374989151636
 21
803.93908616188639
  0
LINE
  8
_0-1_計細線
  6
CONTINUOUS
 62
    3
 10
348.43374989151636
 20
803.93908616188639
 11
348.43374989151636
 21
559.93908616188696
  0
LINE
  8
_0-1_計細線
  6
CONTINUOUS
 62
    3
 10
348.43374989151636
 20
559.93908616188696
 11
351.4337498915163
 21
559.93908616188696
  0
LINE
  8
_0-1_計細線
  6
CONTINUOUS
 62
    3
 10
351.4337498915163
 20
559.93908616188696
 11
351.4337498915163
 21
803.93908616188639
  0
LINE
  8
_0-1_計細線
  6
CONTINUOUS
 62
    3
 10
361.4337498915163
 20
803.93908616188639
 11
358.43374989151636
 21
803.93908616188639
  0
LINE
  8
_0-1_計細線
  6
CONTINUOUS
 62
    3
 10
358.43374989151636
 20
803.93908616188639
 11
358.43374989151636
 21
559.93908616188696
  0
LINE
  8
_0-1_計細線
  6
CONTINUOUS
 62
    3
 10
358.43374989151636
 20
559.93908616188696
 11
361.4337498915163
 21
559.93908616188696
  0
LINE
  8
_0-1_計細線
  6
CONTINUOUS
 62
    3
 10
361.4337498915163
 20
559.93908616188696
 11
361.4337498915163
 21
803.93908616188639
  0
LINE
  8
_0-1_計細線
  6
CONTINUOUS
 62
    3
 10
371.4337498915163
 20
803.93908616188639
 11
368.43374989151636
 21
803.93908616188639
  0
LINE
  8
_0-1_計細線
  6
CONTINUOUS
 62
    3
 10
368.43374989151636
 20
803.93908616188639
 11
368.43374989151636
 21
559.93908616188696
  0
LINE
  8
_0-1_計細線
  6
CONTINUOUS
 62
    3
 10
368.43374989151636
 20
559.93908616188696
 11
371.4337498915163
 21
559.93908616188696
  0
LINE
  8
_0-1_計細線
  6
CONTINUOUS
 62
    3
 10
371.4337498915163
 20
559.93908616188696
 11
371.4337498915163
 21
803.93908616188639
  0
LINE
  8
_0-1_計細線
  6
CONTINUOUS
 62
    3
 10
381.4337498915163
 20
803.93908616188639
 11
378.43374989151636
 21
803.93908616188639
  0
LINE
  8
_0-1_計細線
  6
CONTINUOUS
 62
    3
 10
378.43374989151636
 20
803.93908616188639
 11
378.43374989151636
 21
559.93908616188696
  0
LINE
  8
_0-1_計細線
  6
CONTINUOUS
 62
    3
 10
378.43374989151636
 20
559.93908616188696
 11
381.4337498915163
 21
559.93908616188696
  0
LINE
  8
_0-1_計細線
  6
CONTINUOUS
 62
    3
 10
381.4337498915163
 20
559.93908616188696
 11
381.4337498915163
 21
803.93908616188639
  0
LINE
  8
_0-1_計細線
  6
CONTINUOUS
 62
    3
 10
391.4337498915163
 20
803.93908616188639
 11
388.43374989151636
 21
803.93908616188639
  0
LINE
  8
_0-1_計細線
  6
CONTINUOUS
 62
    3
 10
388.43374989151636
 20
803.93908616188639
 11
388.43374989151636
 21
559.93908616188696
  0
LINE
  8
_0-1_計細線
  6
CONTINUOUS
 62
    3
 10
388.43374989151636
 20
559.93908616188696
 11
391.4337498915163
 21
559.93908616188696
  0
LINE
  8
_0-1_計細線
  6
CONTINUOUS
 62
    3
 10
391.4337498915163
 20
559.93908616188696
 11
391.4337498915163
 21
803.93908616188639
  0
LINE
  8
_0-1_計細線
  6
CONTINUOUS
 62
    3
 10
401.4337498915163
 20
803.93908616188639
 11
398.43374989151636
 21
803.93908616188639
  0
LINE
  8
_0-1_計細線
  6
CONTINUOUS
 62
    3
 10
398.43374989151636
 20
803.93908616188639
 11
398.43374989151636
 21
559.93908616188696
  0
LINE
  8
_0-1_計細線
  6
CONTINUOUS
 62
    3
 10
398.43374989151636
 20
559.93908616188696
 11
401.4337498915163
 21
559.93908616188696
  0
LINE
  8
_0-1_計細線
  6
CONTINUOUS
 62
    3
 10
401.4337498915163
 20
559.93908616188696
 11
401.4337498915163
 21
803.93908616188639
  0
LINE
  8
_0-1_計細線
  6
CONTINUOUS
 62
    3
 10
411.4337498915163
 20
803.93908616188639
 11
408.43374989151636
 21
803.93908616188639
  0
LINE
  8
_0-1_計細線
  6
CONTINUOUS
 62
    3
 10
408.43374989151636
 20
803.93908616188639
 11
408.43374989151636
 21
559.93908616188696
  0
LINE
  8
_0-1_計細線
  6
CONTINUOUS
 62
    3
 10
408.43374989151636
 20
559.93908616188696
 11
411.4337498915163
 21
559.93908616188696
  0
LINE
  8
_0-1_計細線
  6
CONTINUOUS
 62
    3
 10
411.4337498915163
 20
559.93908616188696
 11
411.4337498915163
 21
803.93908616188639
  0
LINE
  8
_0-1_計細線
  6
CONTINUOUS
 62
    3
 10
421.4337498915163
 20
803.93908616188639
 11
418.43374989151636
 21
803.93908616188639
  0
LINE
  8
_0-1_計細線
  6
CONTINUOUS
 62
    3
 10
418.43374989151636
 20
803.93908616188639
 11
418.43374989151636
 21
559.93908616188696
  0
LINE
  8
_0-1_計細線
  6
CONTINUOUS
 62
    3
 10
418.43374989151636
 20
559.93908616188696
 11
421.4337498915163
 21
559.93908616188696
  0
LINE
  8
_0-1_計細線
  6
CONTINUOUS
 62
    3
 10
421.4337498915163
 20
559.93908616188696
 11
421.4337498915163
 21
803.93908616188639
  0
LINE
  8
_0-1_計細線
  6
CONTINUOUS
 62
    3
 10
431.4337498915163
 20
803.93908616188639
 11
428.43374989151636
 21
803.93908616188639
  0
LINE
  8
_0-1_計細線
  6
CONTINUOUS
 62
    3
 10
428.43374989151636
 20
803.93908616188639
 11
428.43374989151636
 21
559.93908616188696
  0
LINE
  8
_0-1_計細線
  6
CONTINUOUS
 62
    3
 10
428.43374989151636
 20
559.93908616188696
 11
431.4337498915163
 21
559.93908616188696
  0
LINE
  8
_0-1_計細線
  6
CONTINUOUS
 62
    3
 10
431.4337498915163
 20
559.93908616188696
 11
431.4337498915163
 21
803.93908616188639
  0
LINE
  8
_0-1_計細線
  6
CONTINUOUS
 62
    3
 10
441.4337498915163
 20
803.93908616188639
 11
438.43374989151636
 21
803.93908616188639
  0
LINE
  8
_0-1_計細線
  6
CONTINUOUS
 62
    3
 10
438.43374989151636
 20
803.93908616188639
 11
438.43374989151636
 21
559.93908616188696
  0
LINE
  8
_0-1_計細線
  6
CONTINUOUS
 62
    3
 10
438.43374989151636
 20
559.93908616188696
 11
441.4337498915163
 21
559.93908616188696
  0
LINE
  8
_0-1_計細線
  6
CONTINUOUS
 62
    3
 10
441.4337498915163
 20
559.93908616188696
 11
441.4337498915163
 21
803.93908616188639
  0
LINE
  8
_0-1_計細線
  6
CONTINUOUS
 62
    3
 10
451.4337498915163
 20
803.93908616188639
 11
448.43374989151636
 21
803.93908616188639
  0
LINE
  8
_0-1_計細線
  6
CONTINUOUS
 62
    3
 10
448.43374989151636
 20
803.93908616188639
 11
448.43374989151636
 21
559.93908616188696
  0
LINE
  8
_0-1_計細線
  6
CONTINUOUS
 62
    3
 10
448.43374989151636
 20
559.93908616188696
 11
451.4337498915163
 21
559.93908616188696
  0
LINE
  8
_0-1_計細線
  6
CONTINUOUS
 62
    3
 10
451.4337498915163
 20
559.93908616188696
 11
451.4337498915163
 21
803.93908616188639
  0
LINE
  8
_0-1_計細線
  6
CONTINUOUS
 62
    3
 10
461.4337498915163
 20
803.93908616188639
 11
458.43374989151636
 21
803.93908616188639
  0
LINE
  8
_0-1_計細線
  6
CONTINUOUS
 62
    3
 10
458.43374989151636
 20
803.93908616188639
 11
458.43374989151636
 21
559.93908616188696
  0
LINE
  8
_0-1_計細線
  6
CONTINUOUS
 62
    3
 10
458.43374989151636
 20
559.93908616188696
 11
461.4337498915163
 21
559.93908616188696
  0
LINE
  8
_0-1_計細線
  6
CONTINUOUS
 62
    3
 10
461.4337498915163
 20
559.93908616188696
 11
461.4337498915163
 21
803.93908616188639
  0
LINE
  8
_0-1_計細線
  6
CONTINUOUS
 62
    3
 10
471.4337498915163
 20
803.93908616188639
 11
468.43374989151636
 21
803.93908616188639
  0
LINE
  8
_0-1_計細線
  6
CONTINUOUS
 62
    3
 10
468.43374989151636
 20
803.93908616188639
 11
468.43374989151636
 21
559.93908616188696
  0
LINE
  8
_0-1_計細線
  6
CONTINUOUS
 62
    3
 10
468.43374989151636
 20
559.93908616188696
 11
471.4337498915163
 21
559.93908616188696
  0
LINE
  8
_0-1_計細線
  6
CONTINUOUS
 62
    3
 10
471.4337498915163
 20
559.93908616188696
 11
471.4337498915163
 21
803.93908616188639
  0
LINE
  8
_0-1_計細線
  6
CONTINUOUS
 62
    3
 10
481.4337498915163
 20
803.93908616188639
 11
478.43374989151636
 21
803.93908616188639
  0
LINE
  8
_0-1_計細線
  6
CONTINUOUS
 62
    3
 10
478.43374989151636
 20
803.93908616188639
 11
478.43374989151636
 21
559.93908616188696
  0
LINE
  8
_0-1_計細線
  6
CONTINUOUS
 62
    3
 10
478.43374989151636
 20
559.93908616188696
 11
481.4337498915163
 21
559.93908616188696
  0
LINE
  8
_0-1_計細線
  6
CONTINUOUS
 62
    3
 10
481.4337498915163
 20
559.93908616188696
 11
481.4337498915163
 21
803.93908616188639
  0
LINE
  8
_0-1_計細線
  6
CONTINUOUS
 62
    3
 10
491.4337498915163
 20
803.93908616188639
 11
488.43374989151636
 21
803.93908616188639
  0
LINE
  8
_0-1_計細線
  6
CONTINUOUS
 62
    3
 10
488.43374989151636
 20
803.93908616188639
 11
488.43374989151636
 21
559.93908616188696
  0
LINE
  8
_0-1_計細線
  6
CONTINUOUS
 62
    3
 10
488.43374989151636
 20
559.93908616188696
 11
491.4337498915163
 21
559.93908616188696
  0
LINE
  8
_0-1_計細線
  6
CONTINUOUS
 62
    3
 10
491.4337498915163
 20
559.93908616188696
 11
491.4337498915163
 21
803.93908616188639
  0
LINE
  8
_0-1_計細線
  6
CONTINUOUS
 62
    3
 10
501.4337498915163
 20
803.93908616188639
 11
498.43374989151636
 21
803.93908616188639
  0
LINE
  8
_0-1_計細線
  6
CONTINUOUS
 62
    3
 10
498.43374989151636
 20
803.93908616188639
 11
498.43374989151636
 21
559.93908616188696
  0
LINE
  8
_0-1_計細線
  6
CONTINUOUS
 62
    3
 10
498.43374989151636
 20
559.93908616188696
 11
501.4337498915163
 21
559.93908616188696
  0
LINE
  8
_0-1_計細線
  6
CONTINUOUS
 62
    3
 10
501.4337498915163
 20
559.93908616188696
 11
501.4337498915163
 21
803.93908616188639
  0
LINE
  8
_0-1_計細線
  6
CONTINUOUS
 62
    3
 10
511.4337498915163
 20
803.93908616188639
 11
508.43374989151636
 21
803.93908616188639
  0
LINE
  8
_0-1_計細線
  6
CONTINUOUS
 62
    3
 10
508.43374989151636
 20
803.93908616188639
 11
508.43374989151636
 21
559.93908616188696
  0
LINE
  8
_0-1_計細線
  6
CONTINUOUS
 62
    3
 10
508.43374989151636
 20
559.93908616188696
 11
511.4337498915163
 21
559.93908616188696
  0
LINE
  8
_0-1_計細線
  6
CONTINUOUS
 62
    3
 10
511.4337498915163
 20
559.93908616188696
 11
511.4337498915163
 21
803.93908616188639
  0
LINE
  8
_0-1_計細線
  6
CONTINUOUS
 62
    3
 10
521.4337498915163
 20
803.93908616188639
 11
518.4337498915163
 21
803.93908616188639
  0
LINE
  8
_0-1_計細線
  6
CONTINUOUS
 62
    3
 10
518.4337498915163
 20
803.93908616188639
 11
518.4337498915163
 21
559.93908616188696
  0
LINE
  8
_0-1_計細線
  6
CONTINUOUS
 62
    3
 10
518.4337498915163
 20
559.93908616188696
 11
521.4337498915163
 21
559.93908616188696
  0
LINE
  8
_0-1_計細線
  6
CONTINUOUS
 62
    3
 10
521.4337498915163
 20
559.93908616188696
 11
521.4337498915163
 21
803.93908616188639
  0
LINE
  8
_0-1_計細線
  6
CONTINUOUS
 62
    3
 10
531.4337498915163
 20
803.93908616188639
 11
528.4337498915163
 21
803.93908616188639
  0
LINE
  8
_0-1_計細線
  6
CONTINUOUS
 62
    3
 10
528.4337498915163
 20
803.93908616188639
 11
528.4337498915163
 21
559.93908616188696
  0
LINE
  8
_0-1_計細線
  6
CONTINUOUS
 62
    3
 10
528.4337498915163
 20
559.93908616188696
 11
531.4337498915163
 21
559.93908616188696
  0
LINE
  8
_0-1_計細線
  6
CONTINUOUS
 62
    3
 10
531.4337498915163
 20
559.93908616188696
 11
531.4337498915163
 21
803.93908616188639
  0
LINE
  8
_0-1_計細線
  6
CONTINUOUS
 62
    3
 10
541.4337498915163
 20
803.93908616188639
 11
538.4337498915163
 21
803.93908616188639
  0
LINE
  8
_0-1_計細線
  6
CONTINUOUS
 62
    3
 10
538.4337498915163
 20
803.93908616188639
 11
538.4337498915163
 21
559.93908616188696
  0
LINE
  8
_0-1_計細線
  6
CONTINUOUS
 62
    3
 10
538.4337498915163
 20
559.93908616188696
 11
541.4337498915163
 21
559.93908616188696
  0
LINE
  8
_0-1_計細線
  6
CONTINUOUS
 62
    3
 10
541.4337498915163
 20
559.93908616188696
 11
541.4337498915163
 21
803.93908616188639
  0
LINE
  8
_0-1_計細線
  6
CONTINUOUS
 62
    3
 10
551.4337498915163
 20
803.93908616188639
 11
548.4337498915163
 21
803.93908616188639
  0
LINE
  8
_0-1_計細線
  6
CONTINUOUS
 62
    3
 10
548.4337498915163
 20
803.93908616188639
 11
548.4337498915163
 21
559.93908616188696
  0
LINE
  8
_0-1_計細線
  6
CONTINUOUS
 62
    3
 10
548.4337498915163
 20
559.93908616188696
 11
551.4337498915163
 21
559.93908616188696
  0
LINE
  8
_0-1_計細線
  6
CONTINUOUS
 62
    3
 10
551.4337498915163
 20
559.93908616188696
 11
551.4337498915163
 21
803.93908616188639
  0
LINE
  8
_0-1_計細線
  6
CONTINUOUS
 62
    3
 10
561.4337498915163
 20
803.93908616188639
 11
558.4337498915163
 21
803.93908616188639
  0
LINE
  8
_0-1_計細線
  6
CONTINUOUS
 62
    3
 10
558.4337498915163
 20
803.93908616188639
 11
558.4337498915163
 21
559.93908616188696
  0
LINE
  8
_0-1_計細線
  6
CONTINUOUS
 62
    3
 10
558.4337498915163
 20
559.93908616188696
 11
561.4337498915163
 21
559.93908616188696
  0
LINE
  8
_0-1_計細線
  6
CONTINUOUS
 62
    3
 10
561.4337498915163
 20
559.93908616188696
 11
561.4337498915163
 21
803.93908616188639
  0
LINE
  8
_0-1_計細線
  6
CONTINUOUS
 62
    3
 10
571.4337498915163
 20
803.93908616188639
 11
568.4337498915163
 21
803.93908616188639
  0
LINE
  8
_0-1_計細線
  6
CONTINUOUS
 62
    3
 10
568.4337498915163
 20
803.93908616188639
 11
568.4337498915163
 21
559.93908616188696
  0
LINE
  8
_0-1_計細線
  6
CONTINUOUS
 62
    3
 10
568.4337498915163
 20
559.93908616188696
 11
571.4337498915163
 21
559.93908616188696
  0
LINE
  8
_0-1_計細線
  6
CONTINUOUS
 62
    3
 10
571.4337498915163
 20
559.93908616188696
 11
571.4337498915163
 21
803.93908616188639
  0
LINE
  8
_0-1_計細線
  6
CONTINUOUS
 62
    3
 10
581.4337498915163
 20
803.93908616188639
 11
578.4337498915163
 21
803.93908616188639
  0
LINE
  8
_0-1_計細線
  6
CONTINUOUS
 62
    3
 10
578.4337498915163
 20
803.93908616188639
 11
578.4337498915163
 21
559.93908616188696
  0
LINE
  8
_0-1_計細線
  6
CONTINUOUS
 62
    3
 10
578.4337498915163
 20
559.93908616188696
 11
581.4337498915163
 21
559.93908616188696
  0
LINE
  8
_0-1_計細線
  6
CONTINUOUS
 62
    3
 10
581.4337498915163
 20
559.93908616188696
 11
581.4337498915163
 21
803.93908616188639
  0
LINE
  8
_0-1_計細線
  6
CONTINUOUS
 62
    3
 10
591.4337498915163
 20
803.93908616188639
 11
588.4337498915163
 21
803.93908616188639
  0
LINE
  8
_0-1_計細線
  6
CONTINUOUS
 62
    3
 10
588.4337498915163
 20
803.93908616188639
 11
588.4337498915163
 21
559.93908616188696
  0
LINE
  8
_0-1_計細線
  6
CONTINUOUS
 62
    3
 10
588.4337498915163
 20
559.93908616188696
 11
591.4337498915163
 21
559.93908616188696
  0
LINE
  8
_0-1_計細線
  6
CONTINUOUS
 62
    3
 10
591.4337498915163
 20
559.93908616188696
 11
591.4337498915163
 21
803.93908616188639
  0
LINE
  8
_0-1_計細線
  6
CONTINUOUS
 62
    3
 10
601.4337498915163
 20
803.93908616188639
 11
598.4337498915163
 21
803.93908616188639
  0
LINE
  8
_0-1_計細線
  6
CONTINUOUS
 62
    3
 10
598.4337498915163
 20
803.93908616188639
 11
598.4337498915163
 21
559.93908616188696
  0
LINE
  8
_0-1_計細線
  6
CONTINUOUS
 62
    3
 10
598.4337498915163
 20
559.93908616188696
 11
601.4337498915163
 21
559.93908616188696
  0
LINE
  8
_0-1_計細線
  6
CONTINUOUS
 62
    3
 10
601.4337498915163
 20
559.93908616188696
 11
601.4337498915163
 21
803.93908616188639
  0
LINE
  8
_0-1_計細線
  6
CONTINUOUS
 62
    3
 10
611.4337498915163
 20
803.93908616188639
 11
608.4337498915163
 21
803.93908616188639
  0
LINE
  8
_0-1_計細線
  6
CONTINUOUS
 62
    3
 10
608.4337498915163
 20
803.93908616188639
 11
608.4337498915163
 21
559.93908616188696
  0
LINE
  8
_0-1_計細線
  6
CONTINUOUS
 62
    3
 10
608.4337498915163
 20
559.93908616188696
 11
611.4337498915163
 21
559.93908616188696
  0
LINE
  8
_0-1_計細線
  6
CONTINUOUS
 62
    3
 10
611.4337498915163
 20
559.93908616188696
 11
611.4337498915163
 21
803.93908616188639
  0
LINE
  8
_0-1_計細線
  6
CONTINUOUS
 62
    3
 10
621.4337498915163
 20
803.93908616188639
 11
618.4337498915163
 21
803.93908616188639
  0
LINE
  8
_0-1_計細線
  6
CONTINUOUS
 62
    3
 10
618.4337498915163
 20
803.93908616188639
 11
618.4337498915163
 21
559.93908616188696
  0
LINE
  8
_0-1_計細線
  6
CONTINUOUS
 62
    3
 10
618.4337498915163
 20
559.93908616188696
 11
621.4337498915163
 21
559.93908616188696
  0
LINE
  8
_0-1_計細線
  6
CONTINUOUS
 62
    3
 10
621.4337498915163
 20
559.93908616188696
 11
621.4337498915163
 21
803.93908616188639
  0
LINE
  8
_0-1_計細線
  6
CONTINUOUS
 62
    3
 10
631.4337498915163
 20
803.93908616188639
 11
628.4337498915163
 21
803.93908616188639
  0
LINE
  8
_0-1_計細線
  6
CONTINUOUS
 62
    3
 10
628.4337498915163
 20
803.93908616188639
 11
628.4337498915163
 21
559.93908616188696
  0
LINE
  8
_0-1_計細線
  6
CONTINUOUS
 62
    3
 10
628.4337498915163
 20
559.93908616188696
 11
631.4337498915163
 21
559.93908616188696
  0
LINE
  8
_0-1_計細線
  6
CONTINUOUS
 62
    3
 10
631.4337498915163
 20
559.93908616188696
 11
631.4337498915163
 21
803.93908616188639
  0
LINE
  8
_0-1_計細線
  6
CONTINUOUS
 62
    3
 10
641.43374989151641
 20
803.93908616188639
 11
638.4337498915163
 21
803.93908616188639
  0
LINE
  8
_0-1_計細線
  6
CONTINUOUS
 62
    3
 10
638.4337498915163
 20
803.93908616188639
 11
638.4337498915163
 21
559.93908616188696
  0
LINE
  8
_0-1_計細線
  6
CONTINUOUS
 62
    3
 10
638.4337498915163
 20
559.93908616188696
 11
641.43374989151641
 21
559.93908616188696
  0
LINE
  8
_0-1_計細線
  6
CONTINUOUS
 62
    3
 10
641.43374989151641
 20
559.93908616188696
 11
641.43374989151641
 21
803.93908616188639
  0
LINE
  8
_0-1_計細線
  6
CONTINUOUS
 62
    3
 10
651.43374989151641
 20
803.93908616188639
 11
648.4337498915163
 21
803.93908616188639
  0
LINE
  8
_0-1_計細線
  6
CONTINUOUS
 62
    3
 10
648.4337498915163
 20
803.93908616188639
 11
648.4337498915163
 21
559.93908616188696
  0
LINE
  8
_0-1_計細線
  6
CONTINUOUS
 62
    3
 10
648.4337498915163
 20
559.93908616188696
 11
651.43374989151641
 21
559.93908616188696
  0
LINE
  8
_0-1_計細線
  6
CONTINUOUS
 62
    3
 10
651.43374989151641
 20
559.93908616188696
 11
651.43374989151641
 21
803.93908616188639
  0
LINE
  8
_0-1_計細線
  6
CONTINUOUS
 62
    3
 10
661.43374989151641
 20
803.93908616188639
 11
658.4337498915163
 21
803.93908616188639
  0
LINE
  8
_0-1_計細線
  6
CONTINUOUS
 62
    3
 10
658.4337498915163
 20
803.93908616188639
 11
658.4337498915163
 21
559.93908616188696
  0
LINE
  8
_0-1_計細線
  6
CONTINUOUS
 62
    3
 10
658.4337498915163
 20
559.93908616188696
 11
661.43374989151641
 21
559.93908616188696
  0
LINE
  8
_0-1_計細線
  6
CONTINUOUS
 62
    3
 10
661.43374989151641
 20
559.93908616188696
 11
661.43374989151641
 21
803.93908616188639
  0
LINE
  8
_0-1_計細線
  6
CONTINUOUS
 62
    3
 10
671.43374989151641
 20
803.93908616188639
 11
668.4337498915163
 21
803.93908616188639
  0
LINE
  8
_0-1_計細線
  6
CONTINUOUS
 62
    3
 10
668.4337498915163
 20
803.93908616188639
 11
668.4337498915163
 21
559.93908616188696
  0
LINE
  8
_0-1_計細線
  6
CONTINUOUS
 62
    3
 10
668.4337498915163
 20
559.93908616188696
 11
671.43374989151641
 21
559.93908616188696
  0
LINE
  8
_0-1_計細線
  6
CONTINUOUS
 62
    3
 10
671.43374989151641
 20
559.93908616188696
 11
671.43374989151641
 21
803.93908616188639
  0
LINE
  8
_0-1_計細線
  6
CONTINUOUS
 62
    3
 10
681.43374989151641
 20
803.93908616188639
 11
678.4337498915163
 21
803.93908616188639
  0
LINE
  8
_0-1_計細線
  6
CONTINUOUS
 62
    3
 10
678.4337498915163
 20
803.93908616188639
 11
678.4337498915163
 21
559.93908616188696
  0
LINE
  8
_0-1_計細線
  6
CONTINUOUS
 62
    3
 10
678.4337498915163
 20
559.93908616188696
 11
681.43374989151641
 21
559.93908616188696
  0
LINE
  8
_0-1_計細線
  6
CONTINUOUS
 62
    3
 10
681.43374989151641
 20
559.93908616188696
 11
681.43374989151641
 21
803.93908616188639
  0
LINE
  8
_0-1_計細線
  6
CONTINUOUS
 62
    3
 10
691.43374989151641
 20
803.93908616188639
 11
688.4337498915163
 21
803.93908616188639
  0
LINE
  8
_0-1_計細線
  6
CONTINUOUS
 62
    3
 10
688.4337498915163
 20
803.93908616188639
 11
688.4337498915163
 21
559.93908616188696
  0
LINE
  8
_0-1_計細線
  6
CONTINUOUS
 62
    3
 10
688.4337498915163
 20
559.93908616188696
 11
691.43374989151641
 21
559.93908616188696
  0
LINE
  8
_0-1_計細線
  6
CONTINUOUS
 62
    3
 10
691.43374989151641
 20
559.93908616188696
 11
691.43374989151641
 21
803.93908616188639
  0
LINE
  8
_0-1_計細線
  6
CONTINUOUS
 62
    3
 10
701.43374989151641
 20
803.93908616188639
 11
698.4337498915163
 21
803.93908616188639
  0
LINE
  8
_0-1_計細線
  6
CONTINUOUS
 62
    3
 10
698.4337498915163
 20
803.93908616188639
 11
698.4337498915163
 21
559.93908616188696
  0
LINE
  8
_0-1_計細線
  6
CONTINUOUS
 62
    3
 10
698.4337498915163
 20
559.93908616188696
 11
701.43374989151641
 21
559.93908616188696
  0
LINE
  8
_0-1_計細線
  6
CONTINUOUS
 62
    3
 10
701.43374989151641
 20
559.93908616188696
 11
701.43374989151641
 21
803.93908616188639
  0
LINE
  8
_0-1_計細線
  6
CONTINUOUS
 62
    3
 10
711.43374989151641
 20
803.93908616188639
 11
708.4337498915163
 21
803.93908616188639
  0
LINE
  8
_0-1_計細線
  6
CONTINUOUS
 62
    3
 10
708.4337498915163
 20
803.93908616188639
 11
708.4337498915163
 21
559.93908616188696
  0
LINE
  8
_0-1_計細線
  6
CONTINUOUS
 62
    3
 10
708.4337498915163
 20
559.93908616188696
 11
711.43374989151641
 21
559.93908616188696
  0
LINE
  8
_0-1_計細線
  6
CONTINUOUS
 62
    3
 10
711.43374989151641
 20
559.93908616188696
 11
711.43374989151641
 21
803.93908616188639
  0
LINE
  8
_0-1_計細線
  6
CONTINUOUS
 62
    3
 10
721.43374989151641
 20
803.93908616188639
 11
718.4337498915163
 21
803.93908616188639
  0
LINE
  8
_0-1_計細線
  6
CONTINUOUS
 62
    3
 10
718.4337498915163
 20
803.93908616188639
 11
718.4337498915163
 21
559.93908616188696
  0
LINE
  8
_0-1_計細線
  6
CONTINUOUS
 62
    3
 10
718.4337498915163
 20
559.93908616188696
 11
721.43374989151641
 21
559.93908616188696
  0
LINE
  8
_0-1_計細線
  6
CONTINUOUS
 62
    3
 10
721.43374989151641
 20
559.93908616188696
 11
721.43374989151641
 21
803.93908616188639
  0
LINE
  8
_0-1_計細線
  6
CONTINUOUS
 62
    3
 10
731.43374989151641
 20
803.93908616188639
 11
728.4337498915163
 21
803.93908616188639
  0
LINE
  8
_0-1_計細線
  6
CONTINUOUS
 62
    3
 10
728.4337498915163
 20
803.93908616188639
 11
728.4337498915163
 21
559.93908616188696
  0
LINE
  8
_0-1_計細線
  6
CONTINUOUS
 62
    3
 10
728.4337498915163
 20
559.93908616188696
 11
731.43374989151641
 21
559.93908616188696
  0
LINE
  8
_0-1_計細線
  6
CONTINUOUS
 62
    3
 10
731.43374989151641
 20
559.93908616188696
 11
731.43374989151641
 21
803.93908616188639
  0
LINE
  8
_0-1_計細線
  6
CONTINUOUS
 62
    3
 10
741.43374989151641
 20
803.93908616188639
 11
738.4337498915163
 21
803.93908616188639
  0
LINE
  8
_0-1_計細線
  6
CONTINUOUS
 62
    3
 10
738.4337498915163
 20
803.93908616188639
 11
738.4337498915163
 21
559.93908616188696
  0
LINE
  8
_0-1_計細線
  6
CONTINUOUS
 62
    3
 10
738.4337498915163
 20
559.93908616188696
 11
741.43374989151641
 21
559.93908616188696
  0
LINE
  8
_0-1_計細線
  6
CONTINUOUS
 62
    3
 10
741.43374989151641
 20
559.93908616188696
 11
741.43374989151641
 21
803.93908616188639
  0
LINE
  8
_0-1_計細線
  6
CONTINUOUS
 62
    3
 10
751.43374989151641
 20
803.93908616188639
 11
748.4337498915163
 21
803.93908616188639
  0
LINE
  8
_0-1_計細線
  6
CONTINUOUS
 62
    3
 10
748.4337498915163
 20
803.93908616188639
 11
748.4337498915163
 21
559.93908616188696
  0
LINE
  8
_0-1_計細線
  6
CONTINUOUS
 62
    3
 10
748.4337498915163
 20
559.93908616188696
 11
751.43374989151641
 21
559.93908616188696
  0
LINE
  8
_0-1_計細線
  6
CONTINUOUS
 62
    3
 10
751.43374989151641
 20
559.93908616188696
 11
751.43374989151641
 21
803.93908616188639
  0
LINE
  8
_0-1_計細線
  6
CONTINUOUS
 62
    3
 10
761.43374989151641
 20
803.93908616188639
 11
758.4337498915163
 21
803.93908616188639
  0
LINE
  8
_0-1_計細線
  6
CONTINUOUS
 62
    3
 10
758.4337498915163
 20
803.93908616188639
 11
758.4337498915163
 21
559.93908616188696
  0
LINE
  8
_0-1_計細線
  6
CONTINUOUS
 62
    3
 10
758.4337498915163
 20
559.93908616188696
 11
761.43374989151641
 21
559.93908616188696
  0
LINE
  8
_0-1_計細線
  6
CONTINUOUS
 62
    3
 10
761.43374989151641
 20
559.93908616188696
 11
761.43374989151641
 21
803.93908616188639
  0
LINE
  8
_0-1_計細線
  6
CONTINUOUS
 62
    3
 10
771.43374989151641
 20
803.93908616188639
 11
768.43374989151641
 21
803.93908616188639
  0
LINE
  8
_0-1_計細線
  6
CONTINUOUS
 62
    3
 10
768.43374989151641
 20
803.93908616188639
 11
768.43374989151641
 21
559.93908616188696
  0
LINE
  8
_0-1_計細線
  6
CONTINUOUS
 62
    3
 10
768.43374989151641
 20
559.93908616188696
 11
771.43374989151641
 21
559.93908616188696
  0
LINE
  8
_0-1_計細線
  6
CONTINUOUS
 62
    3
 10
771.43374989151641
 20
559.93908616188696
 11
771.43374989151641
 21
803.93908616188639
  0
LINE
  8
_0-1_計細線
  6
CONTINUOUS
 62
    3
 10
781.43374989151641
 20
803.93908616188639
 11
778.43374989151641
 21
803.93908616188639
  0
LINE
  8
_0-1_計細線
  6
CONTINUOUS
 62
    3
 10
778.43374989151641
 20
803.93908616188639
 11
778.43374989151641
 21
559.93908616188696
  0
LINE
  8
_0-1_計細線
  6
CONTINUOUS
 62
    3
 10
778.43374989151641
 20
559.93908616188696
 11
781.43374989151641
 21
559.93908616188696
  0
LINE
  8
_0-1_計細線
  6
CONTINUOUS
 62
    3
 10
781.43374989151641
 20
559.93908616188696
 11
781.43374989151641
 21
803.93908616188639
  0
LINE
  8
_0-1_計細線
  6
CONTINUOUS
 62
    3
 10
791.43374989151641
 20
803.93908616188639
 11
788.43374989151641
 21
803.93908616188639
  0
LINE
  8
_0-1_計細線
  6
CONTINUOUS
 62
    3
 10
788.43374989151641
 20
803.93908616188639
 11
788.43374989151641
 21
559.93908616188696
  0
LINE
  8
_0-1_計細線
  6
CONTINUOUS
 62
    3
 10
788.43374989151641
 20
559.93908616188696
 11
791.43374989151641
 21
559.93908616188696
  0
LINE
  8
_0-1_計細線
  6
CONTINUOUS
 62
    3
 10
791.43374989151641
 20
559.93908616188696
 11
791.43374989151641
 21
803.93908616188639
  0
LINE
  8
_0-1_計細線
  6
CONTINUOUS
 62
    3
 10
801.43374989151641
 20
803.93908616188639
 11
798.43374989151641
 21
803.93908616188639
  0
LINE
  8
_0-1_計細線
  6
CONTINUOUS
 62
    3
 10
798.43374989151641
 20
803.93908616188639
 11
798.43374989151641
 21
559.93908616188696
  0
LINE
  8
_0-1_計細線
  6
CONTINUOUS
 62
    3
 10
798.43374989151641
 20
559.93908616188696
 11
801.43374989151641
 21
559.93908616188696
  0
LINE
  8
_0-1_計細線
  6
CONTINUOUS
 62
    3
 10
801.43374989151641
 20
559.93908616188696
 11
801.43374989151641
 21
803.93908616188639
  0
LINE
  8
_0-1_計細線
  6
CONTINUOUS
 62
    3
 10
811.43374989151641
 20
803.93908616188639
 11
808.43374989151641
 21
803.93908616188639
  0
LINE
  8
_0-1_計細線
  6
CONTINUOUS
 62
    3
 10
808.43374989151641
 20
803.93908616188639
 11
808.43374989151641
 21
559.93908616188696
  0
LINE
  8
_0-1_計細線
  6
CONTINUOUS
 62
    3
 10
808.43374989151641
 20
559.93908616188696
 11
811.43374989151641
 21
559.93908616188696
  0
LINE
  8
_0-1_計細線
  6
CONTINUOUS
 62
    3
 10
811.43374989151641
 20
559.93908616188696
 11
811.43374989151641
 21
803.93908616188639
  0
LINE
  8
_0-1_計細線
  6
CONTINUOUS
 62
    3
 10
821.43374989151641
 20
803.93908616188639
 11
818.43374989151641
 21
803.93908616188639
  0
LINE
  8
_0-1_計細線
  6
CONTINUOUS
 62
    3
 10
818.43374989151641
 20
803.93908616188639
 11
818.43374989151641
 21
559.93908616188696
  0
LINE
  8
_0-1_計細線
  6
CONTINUOUS
 62
    3
 10
818.43374989151641
 20
559.93908616188696
 11
821.43374989151641
 21
559.93908616188696
  0
LINE
  8
_0-1_計細線
  6
CONTINUOUS
 62
    3
 10
821.43374989151641
 20
559.93908616188696
 11
821.43374989151641
 21
803.93908616188639
  0
LINE
  8
_0-1_計細線
  6
CONTINUOUS
 62
    3
 10
831.43374989151641
 20
803.93908616188639
 11
828.43374989151641
 21
803.93908616188639
  0
LINE
  8
_0-1_計細線
  6
CONTINUOUS
 62
    3
 10
828.43374989151641
 20
803.93908616188639
 11
828.43374989151641
 21
559.93908616188696
  0
LINE
  8
_0-1_計細線
  6
CONTINUOUS
 62
    3
 10
828.43374989151641
 20
559.93908616188696
 11
831.43374989151641
 21
559.93908616188696
  0
LINE
  8
_0-1_計細線
  6
CONTINUOUS
 62
    3
 10
831.43374989151641
 20
559.93908616188696
 11
831.43374989151641
 21
803.93908616188639
  0
LINE
  8
_0-1_計細線
  6
CONTINUOUS
 62
    3
 10
841.43374989151641
 20
803.93908616188639
 11
838.43374989151641
 21
803.93908616188639
  0
LINE
  8
_0-1_計細線
  6
CONTINUOUS
 62
    3
 10
838.43374989151641
 20
803.93908616188639
 11
838.43374989151641
 21
559.93908616188696
  0
LINE
  8
_0-1_計細線
  6
CONTINUOUS
 62
    3
 10
838.43374989151641
 20
559.93908616188696
 11
841.43374989151641
 21
559.93908616188696
  0
LINE
  8
_0-1_計細線
  6
CONTINUOUS
 62
    3
 10
841.43374989151641
 20
559.93908616188696
 11
841.43374989151641
 21
803.93908616188639
  0
LINE
  8
_0-1_計細線
  6
CONTINUOUS
 62
    3
 10
851.43374989151641
 20
803.93908616188639
 11
848.43374989151641
 21
803.93908616188639
  0
LINE
  8
_0-1_計細線
  6
CONTINUOUS
 62
    3
 10
848.43374989151641
 20
803.93908616188639
 11
848.43374989151641
 21
559.93908616188696
  0
LINE
  8
_0-1_計細線
  6
CONTINUOUS
 62
    3
 10
848.43374989151641
 20
559.93908616188696
 11
851.43374989151641
 21
559.93908616188696
  0
LINE
  8
_0-1_計細線
  6
CONTINUOUS
 62
    3
 10
851.43374989151641
 20
559.93908616188696
 11
851.43374989151641
 21
803.93908616188639
  0
LINE
  8
_0-1_計細線
  6
CONTINUOUS
 62
    3
 10
861.43374989151641
 20
803.93908616188639
 11
858.43374989151641
 21
803.93908616188639
  0
LINE
  8
_0-1_計細線
  6
CONTINUOUS
 62
    3
 10
858.43374989151641
 20
803.93908616188639
 11
858.43374989151641
 21
559.93908616188696
  0
LINE
  8
_0-1_計細線
  6
CONTINUOUS
 62
    3
 10
858.43374989151641
 20
559.93908616188696
 11
861.43374989151641
 21
559.93908616188696
  0
LINE
  8
_0-1_計細線
  6
CONTINUOUS
 62
    3
 10
861.43374989151641
 20
559.93908616188696
 11
861.43374989151641
 21
803.93908616188639
  0
LINE
  8
_0-1_計細線
  6
CONTINUOUS
 62
    3
 10
871.43374989151641
 20
803.93908616188639
 11
868.43374989151641
 21
803.93908616188639
  0
LINE
  8
_0-1_計細線
  6
CONTINUOUS
 62
    3
 10
868.43374989151641
 20
803.93908616188639
 11
868.43374989151641
 21
559.93908616188696
  0
LINE
  8
_0-1_計細線
  6
CONTINUOUS
 62
    3
 10
868.43374989151641
 20
559.93908616188696
 11
871.43374989151641
 21
559.93908616188696
  0
LINE
  8
_0-1_計細線
  6
CONTINUOUS
 62
    3
 10
871.43374989151641
 20
559.93908616188696
 11
871.43374989151641
 21
803.93908616188639
  0
LINE
  8
_0-1_計細線
  6
CONTINUOUS
 62
    3
 10
881.43374989151641
 20
803.93908616188639
 11
878.43374989151641
 21
803.93908616188639
  0
LINE
  8
_0-1_計細線
  6
CONTINUOUS
 62
    3
 10
878.43374989151641
 20
803.93908616188639
 11
878.43374989151641
 21
559.93908616188696
  0
LINE
  8
_0-1_計細線
  6
CONTINUOUS
 62
    3
 10
878.43374989151641
 20
559.93908616188696
 11
881.43374989151641
 21
559.93908616188696
  0
LINE
  8
_0-1_計細線
  6
CONTINUOUS
 62
    3
 10
881.43374989151641
 20
559.93908616188696
 11
881.43374989151641
 21
803.93908616188639
  0
LINE
  8
_0-1_計細線
  6
CONTINUOUS
 62
    3
 10
891.43374989151641
 20
803.93908616188639
 11
888.43374989151641
 21
803.93908616188639
  0
LINE
  8
_0-1_計細線
  6
CONTINUOUS
 62
    3
 10
888.43374989151641
 20
803.93908616188639
 11
888.43374989151641
 21
559.93908616188696
  0
LINE
  8
_0-1_計細線
  6
CONTINUOUS
 62
    3
 10
888.43374989151641
 20
559.93908616188696
 11
891.43374989151641
 21
559.93908616188696
  0
LINE
  8
_0-1_計細線
  6
CONTINUOUS
 62
    3
 10
891.43374989151641
 20
559.93908616188696
 11
891.43374989151641
 21
803.93908616188639
  0
LINE
  8
_0-1_計細線
  6
CONTINUOUS
 62
    3
 10
901.43374989151641
 20
803.93908616188639
 11
898.43374989151641
 21
803.93908616188639
  0
LINE
  8
_0-1_計細線
  6
CONTINUOUS
 62
    3
 10
898.43374989151641
 20
803.93908616188639
 11
898.43374989151641
 21
559.93908616188696
  0
LINE
  8
_0-1_計細線
  6
CONTINUOUS
 62
    3
 10
898.43374989151641
 20
559.93908616188696
 11
901.43374989151641
 21
559.93908616188696
  0
LINE
  8
_0-1_計細線
  6
CONTINUOUS
 62
    3
 10
901.43374989151641
 20
559.93908616188696
 11
901.43374989151641
 21
803.93908616188639
  0
LINE
  8
_0-1_計細線
  6
CONTINUOUS
 62
    3
 10
911.43374989151641
 20
803.93908616188639
 11
908.43374989151641
 21
803.93908616188639
  0
LINE
  8
_0-1_計細線
  6
CONTINUOUS
 62
    3
 10
908.43374989151641
 20
803.93908616188639
 11
908.43374989151641
 21
559.93908616188696
  0
LINE
  8
_0-1_計細線
  6
CONTINUOUS
 62
    3
 10
908.43374989151641
 20
559.93908616188696
 11
911.43374989151641
 21
559.93908616188696
  0
LINE
  8
_0-1_計細線
  6
CONTINUOUS
 62
    3
 10
911.43374989151641
 20
559.93908616188696
 11
911.43374989151641
 21
803.93908616188639
  0
LINE
  8
_0-1_計細線
  6
CONTINUOUS
 62
    3
 10
921.43374989151641
 20
803.93908616188639
 11
918.43374989151641
 21
803.93908616188639
  0
LINE
  8
_0-1_計細線
  6
CONTINUOUS
 62
    3
 10
918.43374989151641
 20
803.93908616188639
 11
918.43374989151641
 21
559.93908616188696
  0
LINE
  8
_0-1_計細線
  6
CONTINUOUS
 62
    3
 10
918.43374989151641
 20
559.93908616188696
 11
921.43374989151641
 21
559.93908616188696
  0
LINE
  8
_0-1_計細線
  6
CONTINUOUS
 62
    3
 10
921.43374989151641
 20
559.93908616188696
 11
921.43374989151641
 21
803.93908616188639
  0
LINE
  8
_0-1_計細線
  6
CONTINUOUS
 62
    3
 10
931.43374989151641
 20
803.93908616188639
 11
928.43374989151641
 21
803.93908616188639
  0
LINE
  8
_0-1_計細線
  6
CONTINUOUS
 62
    3
 10
928.43374989151641
 20
803.93908616188639
 11
928.43374989151641
 21
559.93908616188696
  0
LINE
  8
_0-1_計細線
  6
CONTINUOUS
 62
    3
 10
928.43374989151641
 20
559.93908616188696
 11
931.43374989151641
 21
559.93908616188696
  0
LINE
  8
_0-1_計細線
  6
CONTINUOUS
 62
    3
 10
931.43374989151641
 20
559.93908616188696
 11
931.43374989151641
 21
803.93908616188639
  0
LINE
  8
_0-1_計細線
  6
CONTINUOUS
 62
    3
 10
941.43374989151641
 20
803.93908616188639
 11
938.43374989151641
 21
803.93908616188639
  0
LINE
  8
_0-1_計細線
  6
CONTINUOUS
 62
    3
 10
938.43374989151641
 20
803.93908616188639
 11
938.43374989151641
 21
559.93908616188696
  0
LINE
  8
_0-1_計細線
  6
CONTINUOUS
 62
    3
 10
938.43374989151641
 20
559.93908616188696
 11
941.43374989151641
 21
559.93908616188696
  0
LINE
  8
_0-1_計細線
  6
CONTINUOUS
 62
    3
 10
941.43374989151641
 20
559.93908616188696
 11
941.43374989151641
 21
803.93908616188639
  0
LINE
  8
_0-1_計細線
  6
CONTINUOUS
 62
    3
 10
951.43374989151641
 20
803.93908616188639
 11
948.43374989151641
 21
803.93908616188639
  0
LINE
  8
_0-1_計細線
  6
CONTINUOUS
 62
    3
 10
948.43374989151641
 20
803.93908616188639
 11
948.43374989151641
 21
559.93908616188696
  0
LINE
  8
_0-1_計細線
  6
CONTINUOUS
 62
    3
 10
948.43374989151641
 20
559.93908616188696
 11
951.43374989151641
 21
559.93908616188696
  0
LINE
  8
_0-1_計細線
  6
CONTINUOUS
 62
    3
 10
951.43374989151641
 20
559.93908616188696
 11
951.43374989151641
 21
803.93908616188639
  0
LINE
  8
_0-1_計細線
  6
CONTINUOUS
 62
    3
 10
961.43374989151641
 20
803.93908616188639
 11
958.43374989151641
 21
803.93908616188639
  0
LINE
  8
_0-1_計細線
  6
CONTINUOUS
 62
    3
 10
958.43374989151641
 20
803.93908616188639
 11
958.43374989151641
 21
559.93908616188696
  0
LINE
  8
_0-1_計細線
  6
CONTINUOUS
 62
    3
 10
958.43374989151641
 20
559.93908616188696
 11
961.43374989151641
 21
559.93908616188696
  0
LINE
  8
_0-1_計細線
  6
CONTINUOUS
 62
    3
 10
961.43374989151641
 20
559.93908616188696
 11
961.43374989151641
 21
803.93908616188639
  0
LINE
  8
_0-1_計細線
  6
CONTINUOUS
 62
    3
 10
971.43374989151641
 20
803.93908616188639
 11
968.43374989151641
 21
803.93908616188639
  0
LINE
  8
_0-1_計細線
  6
CONTINUOUS
 62
    3
 10
968.43374989151641
 20
803.93908616188639
 11
968.43374989151641
 21
559.93908616188696
  0
LINE
  8
_0-1_計細線
  6
CONTINUOUS
 62
    3
 10
968.43374989151641
 20
559.93908616188696
 11
971.43374989151641
 21
559.93908616188696
  0
LINE
  8
_0-1_計細線
  6
CONTINUOUS
 62
    3
 10
971.43374989151641
 20
559.93908616188696
 11
971.43374989151641
 21
803.93908616188639
  0
LINE
  8
_0-1_計細線
  6
CONTINUOUS
 62
    3
 10
981.43374989151641
 20
803.93908616188639
 11
978.43374989151641
 21
803.93908616188639
  0
LINE
  8
_0-1_計細線
  6
CONTINUOUS
 62
    3
 10
978.43374989151641
 20
803.93908616188639
 11
978.43374989151641
 21
559.93908616188696
  0
LINE
  8
_0-1_計細線
  6
CONTINUOUS
 62
    3
 10
978.43374989151641
 20
559.93908616188696
 11
981.43374989151641
 21
559.93908616188696
  0
LINE
  8
_0-1_計細線
  6
CONTINUOUS
 62
    3
 10
981.43374989151641
 20
559.93908616188696
 11
981.43374989151641
 21
803.93908616188639
  0
LINE
  8
_0-1_計細線
  6
CONTINUOUS
 62
    3
 10
991.43374989151641
 20
803.93908616188639
 11
988.43374989151641
 21
803.93908616188639
  0
LINE
  8
_0-1_計細線
  6
CONTINUOUS
 62
    3
 10
988.43374989151641
 20
803.93908616188639
 11
988.43374989151641
 21
559.93908616188696
  0
LINE
  8
_0-1_計細線
  6
CONTINUOUS
 62
    3
 10
988.43374989151641
 20
559.93908616188696
 11
991.43374989151641
 21
559.93908616188696
  0
LINE
  8
_0-1_計細線
  6
CONTINUOUS
 62
    3
 10
991.43374989151641
 20
559.93908616188696
 11
991.43374989151641
 21
803.93908616188639
  0
LINE
  8
_0-1_計細線
  6
CONTINUOUS
 62
    3
 10
1001.4337498915164
 20
803.93908616188639
 11
998.43374989151641
 21
803.93908616188639
  0
LINE
  8
_0-1_計細線
  6
CONTINUOUS
 62
    3
 10
998.43374989151641
 20
803.93908616188639
 11
998.43374989151641
 21
559.93908616188696
  0
LINE
  8
_0-1_計細線
  6
CONTINUOUS
 62
    3
 10
998.43374989151641
 20
559.93908616188696
 11
1001.4337498915164
 21
559.93908616188696
  0
LINE
  8
_0-1_計細線
  6
CONTINUOUS
 62
    3
 10
1001.4337498915164
 20
559.93908616188696
 11
1001.4337498915164
 21
803.93908616188639
  0
LINE
  8
_0-1_計細線
  6
CONTINUOUS
 62
    3
 10
1011.4337498915164
 20
803.93908616188639
 11
1008.4337498915164
 21
803.93908616188639
  0
LINE
  8
_0-1_計細線
  6
CONTINUOUS
 62
    3
 10
1008.4337498915164
 20
803.93908616188639
 11
1008.4337498915164
 21
559.93908616188696
  0
LINE
  8
_0-1_計細線
  6
CONTINUOUS
 62
    3
 10
1008.4337498915164
 20
559.93908616188696
 11
1011.4337498915164
 21
559.93908616188696
  0
LINE
  8
_0-1_計細線
  6
CONTINUOUS
 62
    3
 10
1011.4337498915164
 20
559.93908616188696
 11
1011.4337498915164
 21
803.93908616188639
  0
LINE
  8
_0-1_計細線
  6
CONTINUOUS
 62
    3
 10
1021.4337498915164
 20
803.93908616188639
 11
1018.4337498915164
 21
803.93908616188639
  0
LINE
  8
_0-1_計細線
  6
CONTINUOUS
 62
    3
 10
1018.4337498915164
 20
803.93908616188639
 11
1018.4337498915164
 21
559.93908616188696
  0
LINE
  8
_0-1_計細線
  6
CONTINUOUS
 62
    3
 10
1018.4337498915164
 20
559.93908616188696
 11
1021.4337498915164
 21
559.93908616188696
  0
LINE
  8
_0-1_計細線
  6
CONTINUOUS
 62
    3
 10
1021.4337498915164
 20
559.93908616188696
 11
1021.4337498915164
 21
803.93908616188639
  0
LINE
  8
_0-1_計細線
  6
CONTINUOUS
 62
    3
 10
1031.4337498915163
 20
803.93908616188639
 11
1028.4337498915165
 21
803.93908616188639
  0
LINE
  8
_0-1_計細線
  6
CONTINUOUS
 62
    3
 10
1028.4337498915165
 20
803.93908616188639
 11
1028.4337498915165
 21
559.93908616188696
  0
LINE
  8
_0-1_計細線
  6
CONTINUOUS
 62
    3
 10
1028.4337498915165
 20
559.93908616188696
 11
1031.4337498915163
 21
559.93908616188696
  0
LINE
  8
_0-1_計細線
  6
CONTINUOUS
 62
    3
 10
1031.4337498915163
 20
559.93908616188696
 11
1031.4337498915163
 21
803.93908616188639
  0
LINE
  8
_0-1_計細線
  6
CONTINUOUS
 62
    3
 10
1041.4337498915163
 20
803.93908616188639
 11
1038.4337498915165
 21
803.93908616188639
  0
LINE
  8
_0-1_計細線
  6
CONTINUOUS
 62
    3
 10
1038.4337498915165
 20
803.93908616188639
 11
1038.4337498915165
 21
559.93908616188696
  0
LINE
  8
_0-1_計細線
  6
CONTINUOUS
 62
    3
 10
1038.4337498915165
 20
559.93908616188696
 11
1041.4337498915163
 21
559.93908616188696
  0
LINE
  8
_0-1_計細線
  6
CONTINUOUS
 62
    3
 10
1041.4337498915163
 20
559.93908616188696
 11
1041.4337498915163
 21
803.93908616188639
  0
LINE
  8
_0-1_計細線
  6
CONTINUOUS
 62
    3
 10
1051.4337498915163
 20
803.93908616188639
 11
1048.4337498915165
 21
803.93908616188639
  0
LINE
  8
_0-1_計細線
  6
CONTINUOUS
 62
    3
 10
1048.4337498915165
 20
803.93908616188639
 11
1048.4337498915165
 21
559.93908616188696
  0
LINE
  8
_0-1_計細線
  6
CONTINUOUS
 62
    3
 10
1048.4337498915165
 20
559.93908616188696
 11
1051.4337498915163
 21
559.93908616188696
  0
LINE
  8
_0-1_計細線
  6
CONTINUOUS
 62
    3
 10
1051.4337498915163
 20
559.93908616188696
 11
1051.4337498915163
 21
803.93908616188639
  0
LINE
  8
_0-1_計細線
  6
CONTINUOUS
 62
    3
 10
1061.4337498915163
 20
803.93908616188639
 11
1058.4337498915165
 21
803.93908616188639
  0
LINE
  8
_0-1_計細線
  6
CONTINUOUS
 62
    3
 10
1058.4337498915165
 20
803.93908616188639
 11
1058.4337498915165
 21
559.93908616188696
  0
LINE
  8
_0-1_計細線
  6
CONTINUOUS
 62
    3
 10
1058.4337498915165
 20
559.93908616188696
 11
1061.4337498915163
 21
559.93908616188696
  0
LINE
  8
_0-1_計細線
  6
CONTINUOUS
 62
    3
 10
1061.4337498915163
 20
559.93908616188696
 11
1061.4337498915163
 21
803.93908616188639
  0
LINE
  8
_0-1_計細線
  6
CONTINUOUS
 62
    3
 10
1071.4337498915163
 20
803.93908616188639
 11
1068.4337498915165
 21
803.93908616188639
  0
LINE
  8
_0-1_計細線
  6
CONTINUOUS
 62
    3
 10
1068.4337498915165
 20
803.93908616188639
 11
1068.4337498915165
 21
559.93908616188696
  0
LINE
  8
_0-1_計細線
  6
CONTINUOUS
 62
    3
 10
1068.4337498915165
 20
559.93908616188696
 11
1071.4337498915163
 21
559.93908616188696
  0
LINE
  8
_0-1_計細線
  6
CONTINUOUS
 62
    3
 10
1071.4337498915163
 20
559.93908616188696
 11
1071.4337498915163
 21
803.93908616188639
  0
LINE
  8
_0-1_計細線
  6
CONTINUOUS
 62
    3
 10
1081.4337498915163
 20
803.93908616188639
 11
1078.4337498915165
 21
803.93908616188639
  0
LINE
  8
_0-1_計細線
  6
CONTINUOUS
 62
    3
 10
1078.4337498915165
 20
803.93908616188639
 11
1078.4337498915165
 21
559.93908616188696
  0
LINE
  8
_0-1_計細線
  6
CONTINUOUS
 62
    3
 10
1078.4337498915165
 20
559.93908616188696
 11
1081.4337498915163
 21
559.93908616188696
  0
LINE
  8
_0-1_計細線
  6
CONTINUOUS
 62
    3
 10
1081.4337498915163
 20
559.93908616188696
 11
1081.4337498915163
 21
803.93908616188639
  0
LINE
  8
_0-1_計細線
  6
CONTINUOUS
 62
    3
 10
1091.4337498915163
 20
803.93908616188639
 11
1088.4337498915165
 21
803.93908616188639
  0
LINE
  8
_0-1_計細線
  6
CONTINUOUS
 62
    3
 10
1088.4337498915165
 20
803.93908616188639
 11
1088.4337498915165
 21
559.93908616188696
  0
LINE
  8
_0-1_計細線
  6
CONTINUOUS
 62
    3
 10
1088.4337498915165
 20
559.93908616188696
 11
1091.4337498915163
 21
559.93908616188696
  0
LINE
  8
_0-1_計細線
  6
CONTINUOUS
 62
    3
 10
1091.4337498915163
 20
559.93908616188696
 11
1091.4337498915163
 21
803.93908616188639
  0
LINE
  8
_0-1_計細線
  6
CONTINUOUS
 62
    3
 10
1101.4337498915163
 20
803.93908616188639
 11
1098.4337498915165
 21
803.93908616188639
  0
LINE
  8
_0-1_計細線
  6
CONTINUOUS
 62
    3
 10
1098.4337498915165
 20
803.93908616188639
 11
1098.4337498915165
 21
559.93908616188696
  0
LINE
  8
_0-1_計細線
  6
CONTINUOUS
 62
    3
 10
1098.4337498915165
 20
559.93908616188696
 11
1101.4337498915163
 21
559.93908616188696
  0
LINE
  8
_0-1_計細線
  6
CONTINUOUS
 62
    3
 10
1101.4337498915163
 20
559.93908616188696
 11
1101.4337498915163
 21
803.93908616188639
  0
LINE
  8
_0-1_計細線
  6
CONTINUOUS
 62
    3
 10
1111.4337498915163
 20
803.93908616188639
 11
1108.4337498915165
 21
803.93908616188639
  0
LINE
  8
_0-1_計細線
  6
CONTINUOUS
 62
    3
 10
1108.4337498915165
 20
803.93908616188639
 11
1108.4337498915165
 21
559.93908616188696
  0
LINE
  8
_0-1_計細線
  6
CONTINUOUS
 62
    3
 10
1108.4337498915165
 20
559.93908616188696
 11
1111.4337498915163
 21
559.93908616188696
  0
LINE
  8
_0-1_計細線
  6
CONTINUOUS
 62
    3
 10
1111.4337498915163
 20
559.93908616188696
 11
1111.4337498915163
 21
803.93908616188639
  0
LINE
  8
_0-1_計細線
  6
CONTINUOUS
 62
    3
 10
1121.4337498915163
 20
803.93908616188639
 11
1118.4337498915165
 21
803.93908616188639
  0
LINE
  8
_0-1_計細線
  6
CONTINUOUS
 62
    3
 10
1118.4337498915165
 20
803.93908616188639
 11
1118.4337498915165
 21
559.93908616188696
  0
LINE
  8
_0-1_計細線
  6
CONTINUOUS
 62
    3
 10
1118.4337498915165
 20
559.93908616188696
 11
1121.4337498915163
 21
559.93908616188696
  0
LINE
  8
_0-1_計細線
  6
CONTINUOUS
 62
    3
 10
1121.4337498915163
 20
559.93908616188696
 11
1121.4337498915163
 21
803.93908616188639
  0
LINE
  8
_0-1_計細線
  6
CONTINUOUS
 62
    3
 10
1131.4337498915163
 20
803.93908616188639
 11
1128.4337498915165
 21
803.93908616188639
  0
LINE
  8
_0-1_計細線
  6
CONTINUOUS
 62
    3
 10
1128.4337498915165
 20
803.93908616188639
 11
1128.4337498915165
 21
559.93908616188696
  0
LINE
  8
_0-1_計細線
  6
CONTINUOUS
 62
    3
 10
1128.4337498915165
 20
559.93908616188696
 11
1131.4337498915163
 21
559.93908616188696
  0
LINE
  8
_0-1_計細線
  6
CONTINUOUS
 62
    3
 10
1131.4337498915163
 20
559.93908616188696
 11
1131.4337498915163
 21
803.93908616188639
  0
LINE
  8
_0-1_計細線
  6
CONTINUOUS
 62
    3
 10
1141.4337498915163
 20
803.93908616188639
 11
1138.4337498915165
 21
803.93908616188639
  0
LINE
  8
_0-1_計細線
  6
CONTINUOUS
 62
    3
 10
1138.4337498915165
 20
803.93908616188639
 11
1138.4337498915165
 21
559.93908616188696
  0
LINE
  8
_0-1_計細線
  6
CONTINUOUS
 62
    3
 10
1138.4337498915165
 20
559.93908616188696
 11
1141.4337498915163
 21
559.93908616188696
  0
LINE
  8
_0-1_計細線
  6
CONTINUOUS
 62
    3
 10
1141.4337498915163
 20
559.93908616188696
 11
1141.4337498915163
 21
803.93908616188639
  0
LINE
  8
_0-1_計細線
  6
CONTINUOUS
 62
    3
 10
1151.4337498915163
 20
803.93908616188639
 11
1148.4337498915165
 21
803.93908616188639
  0
LINE
  8
_0-1_計細線
  6
CONTINUOUS
 62
    3
 10
1148.4337498915165
 20
803.93908616188639
 11
1148.4337498915165
 21
559.93908616188696
  0
LINE
  8
_0-1_計細線
  6
CONTINUOUS
 62
    3
 10
1148.4337498915165
 20
559.93908616188696
 11
1151.4337498915163
 21
559.93908616188696
  0
LINE
  8
_0-1_計細線
  6
CONTINUOUS
 62
    3
 10
1151.4337498915163
 20
559.93908616188696
 11
1151.4337498915163
 21
803.93908616188639
  0
LINE
  8
_0-1_計細線
  6
CONTINUOUS
 62
    3
 10
1161.4337498915163
 20
803.93908616188639
 11
1158.4337498915165
 21
803.93908616188639
  0
LINE
  8
_0-1_計細線
  6
CONTINUOUS
 62
    3
 10
1158.4337498915165
 20
803.93908616188639
 11
1158.4337498915165
 21
559.93908616188696
  0
LINE
  8
_0-1_計細線
  6
CONTINUOUS
 62
    3
 10
1158.4337498915165
 20
559.93908616188696
 11
1161.4337498915163
 21
559.93908616188696
  0
LINE
  8
_0-1_計細線
  6
CONTINUOUS
 62
    3
 10
1161.4337498915163
 20
559.93908616188696
 11
1161.4337498915163
 21
803.93908616188639
  0
LINE
  8
_0-1_計細線
  6
CONTINUOUS
 62
    3
 10
1171.4337498915163
 20
803.93908616188639
 11
1168.4337498915165
 21
803.93908616188639
  0
LINE
  8
_0-1_計細線
  6
CONTINUOUS
 62
    3
 10
1168.4337498915165
 20
803.93908616188639
 11
1168.4337498915165
 21
559.93908616188696
  0
LINE
  8
_0-1_計細線
  6
CONTINUOUS
 62
    3
 10
1168.4337498915165
 20
559.93908616188696
 11
1171.4337498915163
 21
559.93908616188696
  0
LINE
  8
_0-1_計細線
  6
CONTINUOUS
 62
    3
 10
1171.4337498915163
 20
559.93908616188696
 11
1171.4337498915163
 21
803.93908616188639
  0
LINE
  8
_0-1_計細線
  6
CONTINUOUS
 62
    3
 10
1181.4337498915163
 20
803.93908616188639
 11
1178.4337498915165
 21
803.93908616188639
  0
LINE
  8
_0-1_計細線
  6
CONTINUOUS
 62
    3
 10
1178.4337498915165
 20
803.93908616188639
 11
1178.4337498915165
 21
559.93908616188696
  0
LINE
  8
_0-1_計細線
  6
CONTINUOUS
 62
    3
 10
1178.4337498915165
 20
559.93908616188696
 11
1181.4337498915163
 21
559.93908616188696
  0
LINE
  8
_0-1_計細線
  6
CONTINUOUS
 62
    3
 10
1181.4337498915163
 20
559.93908616188696
 11
1181.4337498915163
 21
803.93908616188639
  0
LINE
  8
_0-1_計細線
  6
CONTINUOUS
 62
    3
 10
1191.4337498915163
 20
803.93908616188639
 11
1188.4337498915165
 21
803.93908616188639
  0
LINE
  8
_0-1_計細線
  6
CONTINUOUS
 62
    3
 10
1188.4337498915165
 20
803.93908616188639
 11
1188.4337498915165
 21
559.93908616188696
  0
LINE
  8
_0-1_計細線
  6
CONTINUOUS
 62
    3
 10
1188.4337498915165
 20
559.93908616188696
 11
1191.4337498915163
 21
559.93908616188696
  0
LINE
  8
_0-1_計細線
  6
CONTINUOUS
 62
    3
 10
1191.4337498915163
 20
559.93908616188696
 11
1191.4337498915163
 21
803.93908616188639
  0
LINE
  8
_0-1_計細線
  6
CONTINUOUS
 62
    3
 10
1201.4337498915163
 20
803.93908616188639
 11
1198.4337498915165
 21
803.93908616188639
  0
LINE
  8
_0-1_計細線
  6
CONTINUOUS
 62
    3
 10
1198.4337498915165
 20
803.93908616188639
 11
1198.4337498915165
 21
559.93908616188696
  0
LINE
  8
_0-1_計細線
  6
CONTINUOUS
 62
    3
 10
1198.4337498915165
 20
559.93908616188696
 11
1201.4337498915163
 21
559.93908616188696
  0
LINE
  8
_0-1_計細線
  6
CONTINUOUS
 62
    3
 10
1201.4337498915163
 20
559.93908616188696
 11
1201.4337498915163
 21
803.93908616188639
  0
LINE
  8
_0-1_計細線
  6
CONTINUOUS
 62
    3
 10
1211.4337498915163
 20
803.93908616188639
 11
1208.4337498915165
 21
803.93908616188639
  0
LINE
  8
_0-1_計細線
  6
CONTINUOUS
 62
    3
 10
1208.4337498915165
 20
803.93908616188639
 11
1208.4337498915165
 21
559.93908616188696
  0
LINE
  8
_0-1_計細線
  6
CONTINUOUS
 62
    3
 10
1208.4337498915165
 20
559.93908616188696
 11
1211.4337498915163
 21
559.93908616188696
  0
LINE
  8
_0-1_計細線
  6
CONTINUOUS
 62
    3
 10
1211.4337498915163
 20
559.93908616188696
 11
1211.4337498915163
 21
803.93908616188639
  0
LINE
  8
_0-1_計細線
  6
CONTINUOUS
 62
    3
 10
1221.4337498915163
 20
803.93908616188639
 11
1218.4337498915165
 21
803.93908616188639
  0
LINE
  8
_0-1_計細線
  6
CONTINUOUS
 62
    3
 10
1218.4337498915165
 20
803.93908616188639
 11
1218.4337498915165
 21
559.93908616188696
  0
LINE
  8
_0-1_計細線
  6
CONTINUOUS
 62
    3
 10
1218.4337498915165
 20
559.93908616188696
 11
1221.4337498915163
 21
559.93908616188696
  0
LINE
  8
_0-1_計細線
  6
CONTINUOUS
 62
    3
 10
1221.4337498915163
 20
559.93908616188696
 11
1221.4337498915163
 21
803.93908616188639
  0
LINE
  8
_0-1_計細線
  6
CONTINUOUS
 62
    3
 10
1218.4337498915165
 20
781.93908616188651
 11
1211.4337498915163
 21
781.93908616188651
  0
LINE
  8
_0-1_計細線
  6
CONTINUOUS
 62
    3
 10
1218.4337498915165
 20
581.93908616188639
 11
1211.4337498915163
 21
581.93908616188639
  0
LINE
  8
_0-1_計細線
  6
CONTINUOUS
 62
    3
 10
1208.4337498915165
 20
781.93908616188651
 11
1201.4337498915163
 21
781.93908616188651
  0
LINE
  8
_0-1_計細線
  6
CONTINUOUS
 62
    3
 10
1208.4337498915165
 20
581.93908616188639
 11
1201.4337498915163
 21
581.93908616188639
  0
LINE
  8
_0-1_計細線
  6
CONTINUOUS
 62
    3
 10
1198.4337498915165
 20
781.93908616188651
 11
1191.4337498915163
 21
781.93908616188651
  0
LINE
  8
_0-1_計細線
  6
CONTINUOUS
 62
    3
 10
1198.4337498915165
 20
581.93908616188639
 11
1191.4337498915163
 21
581.93908616188639
  0
LINE
  8
_0-1_計細線
  6
CONTINUOUS
 62
    3
 10
1188.4337498915165
 20
781.93908616188651
 11
1181.4337498915163
 21
781.93908616188651
  0
LINE
  8
_0-1_計細線
  6
CONTINUOUS
 62
    3
 10
1188.4337498915165
 20
581.93908616188639
 11
1181.4337498915163
 21
581.93908616188639
  0
LINE
  8
_0-1_計細線
  6
CONTINUOUS
 62
    3
 10
1178.4337498915165
 20
781.93908616188651
 11
1171.4337498915163
 21
781.93908616188651
  0
LINE
  8
_0-1_計細線
  6
CONTINUOUS
 62
    3
 10
1178.4337498915165
 20
581.93908616188639
 11
1171.4337498915163
 21
581.93908616188639
  0
LINE
  8
_0-1_計細線
  6
CONTINUOUS
 62
    3
 10
1168.4337498915165
 20
781.93908616188651
 11
1161.4337498915163
 21
781.93908616188651
  0
LINE
  8
_0-1_計細線
  6
CONTINUOUS
 62
    3
 10
1168.4337498915165
 20
581.93908616188639
 11
1161.4337498915163
 21
581.93908616188639
  0
LINE
  8
_0-1_計細線
  6
CONTINUOUS
 62
    3
 10
1158.4337498915165
 20
781.93908616188651
 11
1151.4337498915163
 21
781.93908616188651
  0
LINE
  8
_0-1_計細線
  6
CONTINUOUS
 62
    3
 10
1158.4337498915165
 20
581.93908616188639
 11
1151.4337498915163
 21
581.93908616188639
  0
LINE
  8
_0-1_計細線
  6
CONTINUOUS
 62
    3
 10
1148.4337498915165
 20
781.93908616188651
 11
1141.4337498915163
 21
781.93908616188651
  0
LINE
  8
_0-1_計細線
  6
CONTINUOUS
 62
    3
 10
1148.4337498915165
 20
581.93908616188639
 11
1141.4337498915163
 21
581.93908616188639
  0
LINE
  8
_0-1_計細線
  6
CONTINUOUS
 62
    3
 10
1138.4337498915165
 20
781.93908616188651
 11
1131.4337498915163
 21
781.93908616188651
  0
LINE
  8
_0-1_計細線
  6
CONTINUOUS
 62
    3
 10
1138.4337498915165
 20
581.93908616188639
 11
1131.4337498915163
 21
581.93908616188639
  0
LINE
  8
_0-1_計細線
  6
CONTINUOUS
 62
    3
 10
1128.4337498915165
 20
781.93908616188651
 11
1121.4337498915163
 21
781.93908616188651
  0
LINE
  8
_0-1_計細線
  6
CONTINUOUS
 62
    3
 10
1128.4337498915165
 20
581.93908616188639
 11
1121.4337498915163
 21
581.93908616188639
  0
LINE
  8
_0-1_計細線
  6
CONTINUOUS
 62
    3
 10
1118.4337498915165
 20
781.93908616188651
 11
1111.4337498915163
 21
781.93908616188651
  0
LINE
  8
_0-1_計細線
  6
CONTINUOUS
 62
    3
 10
1118.4337498915165
 20
581.93908616188639
 11
1111.4337498915163
 21
581.93908616188639
  0
LINE
  8
_0-1_計細線
  6
CONTINUOUS
 62
    3
 10
1108.4337498915165
 20
781.93908616188651
 11
1101.4337498915163
 21
781.93908616188651
  0
LINE
  8
_0-1_計細線
  6
CONTINUOUS
 62
    3
 10
1108.4337498915165
 20
581.93908616188639
 11
1101.4337498915163
 21
581.93908616188639
  0
LINE
  8
_0-1_計細線
  6
CONTINUOUS
 62
    3
 10
1098.4337498915165
 20
781.93908616188651
 11
1091.4337498915163
 21
781.93908616188651
  0
LINE
  8
_0-1_計細線
  6
CONTINUOUS
 62
    3
 10
1098.4337498915165
 20
581.93908616188639
 11
1091.4337498915163
 21
581.93908616188639
  0
LINE
  8
_0-1_計細線
  6
CONTINUOUS
 62
    3
 10
1088.4337498915165
 20
781.93908616188651
 11
1081.4337498915163
 21
781.93908616188651
  0
LINE
  8
_0-1_計細線
  6
CONTINUOUS
 62
    3
 10
1088.4337498915165
 20
581.93908616188639
 11
1081.4337498915163
 21
581.93908616188639
  0
LINE
  8
_0-1_計細線
  6
CONTINUOUS
 62
    3
 10
1078.4337498915165
 20
781.93908616188651
 11
1071.4337498915163
 21
781.93908616188651
  0
LINE
  8
_0-1_計細線
  6
CONTINUOUS
 62
    3
 10
1078.4337498915165
 20
581.93908616188639
 11
1071.4337498915163
 21
581.93908616188639
  0
LINE
  8
_0-1_計細線
  6
CONTINUOUS
 62
    3
 10
1068.4337498915165
 20
781.93908616188651
 11
1061.4337498915163
 21
781.93908616188651
  0
LINE
  8
_0-1_計細線
  6
CONTINUOUS
 62
    3
 10
1068.4337498915165
 20
581.93908616188639
 11
1061.4337498915163
 21
581.93908616188639
  0
LINE
  8
_0-1_計細線
  6
CONTINUOUS
 62
    3
 10
1058.4337498915165
 20
781.93908616188651
 11
1051.4337498915163
 21
781.93908616188651
  0
LINE
  8
_0-1_計細線
  6
CONTINUOUS
 62
    3
 10
1058.4337498915165
 20
581.93908616188639
 11
1051.4337498915163
 21
581.93908616188639
  0
LINE
  8
_0-1_計細線
  6
CONTINUOUS
 62
    3
 10
1048.4337498915165
 20
781.93908616188651
 11
1041.4337498915163
 21
781.93908616188651
  0
LINE
  8
_0-1_計細線
  6
CONTINUOUS
 62
    3
 10
1048.4337498915165
 20
581.93908616188639
 11
1041.4337498915163
 21
581.93908616188639
  0
LINE
  8
_0-1_計細線
  6
CONTINUOUS
 62
    3
 10
1038.4337498915165
 20
781.93908616188651
 11
1031.4337498915163
 21
781.93908616188651
  0
LINE
  8
_0-1_計細線
  6
CONTINUOUS
 62
    3
 10
1038.4337498915165
 20
581.93908616188639
 11
1031.4337498915163
 21
581.93908616188639
  0
LINE
  8
_0-1_計細線
  6
CONTINUOUS
 62
    3
 10
1028.4337498915165
 20
781.93908616188651
 11
1021.4337498915164
 21
781.93908616188651
  0
LINE
  8
_0-1_計細線
  6
CONTINUOUS
 62
    3
 10
1028.4337498915165
 20
581.93908616188639
 11
1021.4337498915164
 21
581.93908616188639
  0
LINE
  8
_0-1_計細線
  6
CONTINUOUS
 62
    3
 10
1018.4337498915164
 20
781.93908616188651
 11
1011.4337498915164
 21
781.93908616188651
  0
LINE
  8
_0-1_計細線
  6
CONTINUOUS
 62
    3
 10
1018.4337498915164
 20
581.93908616188639
 11
1011.4337498915164
 21
581.93908616188639
  0
LINE
  8
_0-1_計細線
  6
CONTINUOUS
 62
    3
 10
1008.4337498915164
 20
781.93908616188651
 11
1001.4337498915164
 21
781.93908616188651
  0
LINE
  8
_0-1_計細線
  6
CONTINUOUS
 62
    3
 10
1008.4337498915164
 20
581.93908616188639
 11
1001.4337498915164
 21
581.93908616188639
  0
LINE
  8
_0-1_計細線
  6
CONTINUOUS
 62
    3
 10
998.43374989151641
 20
781.93908616188651
 11
991.43374989151641
 21
781.93908616188651
  0
LINE
  8
_0-1_計細線
  6
CONTINUOUS
 62
    3
 10
998.43374989151641
 20
581.93908616188639
 11
991.43374989151641
 21
581.93908616188639
  0
LINE
  8
_0-1_計細線
  6
CONTINUOUS
 62
    3
 10
988.43374989151641
 20
781.93908616188651
 11
981.43374989151641
 21
781.93908616188651
  0
LINE
  8
_0-1_計細線
  6
CONTINUOUS
 62
    3
 10
988.43374989151641
 20
581.93908616188639
 11
981.43374989151641
 21
581.93908616188639
  0
LINE
  8
_0-1_計細線
  6
CONTINUOUS
 62
    3
 10
978.43374989151641
 20
781.93908616188651
 11
971.43374989151641
 21
781.93908616188651
  0
LINE
  8
_0-1_計細線
  6
CONTINUOUS
 62
    3
 10
978.43374989151641
 20
581.93908616188639
 11
971.43374989151641
 21
581.93908616188639
  0
LINE
  8
_0-1_計細線
  6
CONTINUOUS
 62
    3
 10
968.43374989151641
 20
781.93908616188651
 11
961.43374989151641
 21
781.93908616188651
  0
LINE
  8
_0-1_計細線
  6
CONTINUOUS
 62
    3
 10
968.43374989151641
 20
581.93908616188639
 11
961.43374989151641
 21
581.93908616188639
  0
LINE
  8
_0-1_計細線
  6
CONTINUOUS
 62
    3
 10
958.43374989151641
 20
781.93908616188651
 11
951.43374989151641
 21
781.93908616188651
  0
LINE
  8
_0-1_計細線
  6
CONTINUOUS
 62
    3
 10
958.43374989151641
 20
581.93908616188639
 11
951.43374989151641
 21
581.93908616188639
  0
LINE
  8
_0-1_計細線
  6
CONTINUOUS
 62
    3
 10
948.43374989151641
 20
781.93908616188651
 11
941.43374989151641
 21
781.93908616188651
  0
LINE
  8
_0-1_計細線
  6
CONTINUOUS
 62
    3
 10
948.43374989151641
 20
581.93908616188639
 11
941.43374989151641
 21
581.93908616188639
  0
LINE
  8
_0-1_計細線
  6
CONTINUOUS
 62
    3
 10
938.43374989151641
 20
781.93908616188651
 11
931.43374989151641
 21
781.93908616188651
  0
LINE
  8
_0-1_計細線
  6
CONTINUOUS
 62
    3
 10
938.43374989151641
 20
581.93908616188639
 11
931.43374989151641
 21
581.93908616188639
  0
LINE
  8
_0-1_計細線
  6
CONTINUOUS
 62
    3
 10
928.43374989151641
 20
781.93908616188651
 11
921.43374989151641
 21
781.93908616188651
  0
LINE
  8
_0-1_計細線
  6
CONTINUOUS
 62
    3
 10
928.43374989151641
 20
581.93908616188639
 11
921.43374989151641
 21
581.93908616188639
  0
LINE
  8
_0-1_計細線
  6
CONTINUOUS
 62
    3
 10
918.43374989151641
 20
781.93908616188651
 11
911.43374989151641
 21
781.93908616188651
  0
LINE
  8
_0-1_計細線
  6
CONTINUOUS
 62
    3
 10
918.43374989151641
 20
581.93908616188639
 11
911.43374989151641
 21
581.93908616188639
  0
LINE
  8
_0-1_計細線
  6
CONTINUOUS
 62
    3
 10
908.43374989151641
 20
781.93908616188651
 11
901.43374989151641
 21
781.93908616188651
  0
LINE
  8
_0-1_計細線
  6
CONTINUOUS
 62
    3
 10
908.43374989151641
 20
581.93908616188639
 11
901.43374989151641
 21
581.93908616188639
  0
LINE
  8
_0-1_計細線
  6
CONTINUOUS
 62
    3
 10
898.43374989151641
 20
781.93908616188651
 11
891.43374989151641
 21
781.93908616188651
  0
LINE
  8
_0-1_計細線
  6
CONTINUOUS
 62
    3
 10
898.43374989151641
 20
581.93908616188639
 11
891.43374989151641
 21
581.93908616188639
  0
LINE
  8
_0-1_計細線
  6
CONTINUOUS
 62
    3
 10
888.43374989151641
 20
781.93908616188651
 11
881.43374989151641
 21
781.93908616188651
  0
LINE
  8
_0-1_計細線
  6
CONTINUOUS
 62
    3
 10
888.43374989151641
 20
581.93908616188639
 11
881.43374989151641
 21
581.93908616188639
  0
LINE
  8
_0-1_計細線
  6
CONTINUOUS
 62
    3
 10
878.43374989151641
 20
781.93908616188651
 11
871.43374989151641
 21
781.93908616188651
  0
LINE
  8
_0-1_計細線
  6
CONTINUOUS
 62
    3
 10
878.43374989151641
 20
581.93908616188639
 11
871.43374989151641
 21
581.93908616188639
  0
LINE
  8
_0-1_計細線
  6
CONTINUOUS
 62
    3
 10
868.43374989151641
 20
781.93908616188651
 11
861.43374989151641
 21
781.93908616188651
  0
LINE
  8
_0-1_計細線
  6
CONTINUOUS
 62
    3
 10
868.43374989151641
 20
581.93908616188639
 11
861.43374989151641
 21
581.93908616188639
  0
LINE
  8
_0-1_計細線
  6
CONTINUOUS
 62
    3
 10
858.43374989151641
 20
781.93908616188651
 11
851.43374989151641
 21
781.93908616188651
  0
LINE
  8
_0-1_計細線
  6
CONTINUOUS
 62
    3
 10
858.43374989151641
 20
581.93908616188639
 11
851.43374989151641
 21
581.93908616188639
  0
LINE
  8
_0-1_計細線
  6
CONTINUOUS
 62
    3
 10
848.43374989151641
 20
781.93908616188651
 11
841.43374989151641
 21
781.93908616188651
  0
LINE
  8
_0-1_計細線
  6
CONTINUOUS
 62
    3
 10
848.43374989151641
 20
581.93908616188639
 11
841.43374989151641
 21
581.93908616188639
  0
LINE
  8
_0-1_計細線
  6
CONTINUOUS
 62
    3
 10
838.43374989151641
 20
781.93908616188651
 11
831.43374989151641
 21
781.93908616188651
  0
LINE
  8
_0-1_計細線
  6
CONTINUOUS
 62
    3
 10
838.43374989151641
 20
581.93908616188639
 11
831.43374989151641
 21
581.93908616188639
  0
LINE
  8
_0-1_計細線
  6
CONTINUOUS
 62
    3
 10
828.43374989151641
 20
781.93908616188651
 11
821.43374989151641
 21
781.93908616188651
  0
LINE
  8
_0-1_計細線
  6
CONTINUOUS
 62
    3
 10
828.43374989151641
 20
581.93908616188639
 11
821.43374989151641
 21
581.93908616188639
  0
LINE
  8
_0-1_計細線
  6
CONTINUOUS
 62
    3
 10
818.43374989151641
 20
781.93908616188651
 11
811.43374989151641
 21
781.93908616188651
  0
LINE
  8
_0-1_計細線
  6
CONTINUOUS
 62
    3
 10
818.43374989151641
 20
581.93908616188639
 11
811.43374989151641
 21
581.93908616188639
  0
LINE
  8
_0-1_計細線
  6
CONTINUOUS
 62
    3
 10
808.43374989151641
 20
781.93908616188651
 11
801.43374989151641
 21
781.93908616188651
  0
LINE
  8
_0-1_計細線
  6
CONTINUOUS
 62
    3
 10
808.43374989151641
 20
581.93908616188639
 11
801.43374989151641
 21
581.93908616188639
  0
LINE
  8
_0-1_計細線
  6
CONTINUOUS
 62
    3
 10
798.43374989151641
 20
781.93908616188651
 11
791.43374989151641
 21
781.93908616188651
  0
LINE
  8
_0-1_計細線
  6
CONTINUOUS
 62
    3
 10
798.43374989151641
 20
581.93908616188639
 11
791.43374989151641
 21
581.93908616188639
  0
LINE
  8
_0-1_計細線
  6
CONTINUOUS
 62
    3
 10
788.43374989151641
 20
781.93908616188651
 11
781.43374989151641
 21
781.93908616188651
  0
LINE
  8
_0-1_計細線
  6
CONTINUOUS
 62
    3
 10
788.43374989151641
 20
581.93908616188639
 11
781.43374989151641
 21
581.93908616188639
  0
LINE
  8
_0-1_計細線
  6
CONTINUOUS
 62
    3
 10
778.43374989151641
 20
781.93908616188651
 11
771.43374989151641
 21
781.93908616188651
  0
LINE
  8
_0-1_計細線
  6
CONTINUOUS
 62
    3
 10
778.43374989151641
 20
581.93908616188639
 11
771.43374989151641
 21
581.93908616188639
  0
LINE
  8
_0-1_計細線
  6
CONTINUOUS
 62
    3
 10
768.43374989151641
 20
781.93908616188651
 11
761.43374989151641
 21
781.93908616188651
  0
LINE
  8
_0-1_計細線
  6
CONTINUOUS
 62
    3
 10
768.43374989151641
 20
581.93908616188639
 11
761.43374989151641
 21
581.93908616188639
  0
LINE
  8
_0-1_計細線
  6
CONTINUOUS
 62
    3
 10
758.4337498915163
 20
781.93908616188651
 11
751.43374989151641
 21
781.93908616188651
  0
LINE
  8
_0-1_計細線
  6
CONTINUOUS
 62
    3
 10
758.4337498915163
 20
581.93908616188639
 11
751.43374989151641
 21
581.93908616188639
  0
LINE
  8
_0-1_計細線
  6
CONTINUOUS
 62
    3
 10
748.4337498915163
 20
781.93908616188651
 11
741.43374989151641
 21
781.93908616188651
  0
LINE
  8
_0-1_計細線
  6
CONTINUOUS
 62
    3
 10
748.4337498915163
 20
581.93908616188639
 11
741.43374989151641
 21
581.93908616188639
  0
LINE
  8
_0-1_計細線
  6
CONTINUOUS
 62
    3
 10
738.4337498915163
 20
781.93908616188651
 11
731.43374989151641
 21
781.93908616188651
  0
LINE
  8
_0-1_計細線
  6
CONTINUOUS
 62
    3
 10
738.4337498915163
 20
581.93908616188639
 11
731.43374989151641
 21
581.93908616188639
  0
LINE
  8
_0-1_計細線
  6
CONTINUOUS
 62
    3
 10
728.4337498915163
 20
781.93908616188651
 11
721.43374989151641
 21
781.93908616188651
  0
LINE
  8
_0-1_計細線
  6
CONTINUOUS
 62
    3
 10
728.4337498915163
 20
581.93908616188639
 11
721.43374989151641
 21
581.93908616188639
  0
LINE
  8
_0-1_計細線
  6
CONTINUOUS
 62
    3
 10
718.4337498915163
 20
781.93908616188651
 11
711.43374989151641
 21
781.93908616188651
  0
LINE
  8
_0-1_計細線
  6
CONTINUOUS
 62
    3
 10
718.4337498915163
 20
581.93908616188639
 11
711.43374989151641
 21
581.93908616188639
  0
LINE
  8
_0-1_計細線
  6
CONTINUOUS
 62
    3
 10
708.4337498915163
 20
781.93908616188651
 11
701.43374989151641
 21
781.93908616188651
  0
LINE
  8
_0-1_計細線
  6
CONTINUOUS
 62
    3
 10
708.4337498915163
 20
581.93908616188639
 11
701.43374989151641
 21
581.93908616188639
  0
LINE
  8
_0-1_計細線
  6
CONTINUOUS
 62
    3
 10
698.4337498915163
 20
781.93908616188651
 11
691.43374989151641
 21
781.93908616188651
  0
LINE
  8
_0-1_計細線
  6
CONTINUOUS
 62
    3
 10
698.4337498915163
 20
581.93908616188639
 11
691.43374989151641
 21
581.93908616188639
  0
LINE
  8
_0-1_計細線
  6
CONTINUOUS
 62
    3
 10
688.4337498915163
 20
781.93908616188651
 11
681.43374989151641
 21
781.93908616188651
  0
LINE
  8
_0-1_計細線
  6
CONTINUOUS
 62
    3
 10
688.4337498915163
 20
581.93908616188639
 11
681.43374989151641
 21
581.93908616188639
  0
LINE
  8
_0-1_計細線
  6
CONTINUOUS
 62
    3
 10
678.4337498915163
 20
781.93908616188651
 11
671.43374989151641
 21
781.93908616188651
  0
LINE
  8
_0-1_計細線
  6
CONTINUOUS
 62
    3
 10
678.4337498915163
 20
581.93908616188639
 11
671.43374989151641
 21
581.93908616188639
  0
LINE
  8
_0-1_計細線
  6
CONTINUOUS
 62
    3
 10
668.4337498915163
 20
781.93908616188651
 11
661.43374989151641
 21
781.93908616188651
  0
LINE
  8
_0-1_計細線
  6
CONTINUOUS
 62
    3
 10
668.4337498915163
 20
581.93908616188639
 11
661.43374989151641
 21
581.93908616188639
  0
LINE
  8
_0-1_計細線
  6
CONTINUOUS
 62
    3
 10
658.4337498915163
 20
781.93908616188651
 11
651.43374989151641
 21
781.93908616188651
  0
LINE
  8
_0-1_計細線
  6
CONTINUOUS
 62
    3
 10
658.4337498915163
 20
581.93908616188639
 11
651.43374989151641
 21
581.93908616188639
  0
LINE
  8
_0-1_計細線
  6
CONTINUOUS
 62
    3
 10
648.4337498915163
 20
781.93908616188651
 11
641.43374989151641
 21
781.93908616188651
  0
LINE
  8
_0-1_計細線
  6
CONTINUOUS
 62
    3
 10
648.4337498915163
 20
581.93908616188639
 11
641.43374989151641
 21
581.93908616188639
  0
LINE
  8
_0-1_計細線
  6
CONTINUOUS
 62
    3
 10
638.4337498915163
 20
781.93908616188651
 11
631.4337498915163
 21
781.93908616188651
  0
LINE
  8
_0-1_計細線
  6
CONTINUOUS
 62
    3
 10
638.4337498915163
 20
581.93908616188639
 11
631.4337498915163
 21
581.93908616188639
  0
LINE
  8
_0-1_計細線
  6
CONTINUOUS
 62
    3
 10
628.4337498915163
 20
781.93908616188651
 11
621.4337498915163
 21
781.93908616188651
  0
LINE
  8
_0-1_計細線
  6
CONTINUOUS
 62
    3
 10
628.4337498915163
 20
581.93908616188639
 11
621.4337498915163
 21
581.93908616188639
  0
LINE
  8
_0-1_計細線
  6
CONTINUOUS
 62
    3
 10
618.4337498915163
 20
781.93908616188651
 11
611.4337498915163
 21
781.93908616188651
  0
LINE
  8
_0-1_計細線
  6
CONTINUOUS
 62
    3
 10
618.4337498915163
 20
581.93908616188639
 11
611.4337498915163
 21
581.93908616188639
  0
LINE
  8
_0-1_計細線
  6
CONTINUOUS
 62
    3
 10
608.4337498915163
 20
781.93908616188651
 11
601.4337498915163
 21
781.93908616188651
  0
LINE
  8
_0-1_計細線
  6
CONTINUOUS
 62
    3
 10
608.4337498915163
 20
581.93908616188639
 11
601.4337498915163
 21
581.93908616188639
  0
LINE
  8
_0-1_計細線
  6
CONTINUOUS
 62
    3
 10
598.4337498915163
 20
781.93908616188651
 11
591.4337498915163
 21
781.93908616188651
  0
LINE
  8
_0-1_計細線
  6
CONTINUOUS
 62
    3
 10
598.4337498915163
 20
581.93908616188639
 11
591.4337498915163
 21
581.93908616188639
  0
LINE
  8
_0-1_計細線
  6
CONTINUOUS
 62
    3
 10
588.4337498915163
 20
781.93908616188651
 11
581.4337498915163
 21
781.93908616188651
  0
LINE
  8
_0-1_計細線
  6
CONTINUOUS
 62
    3
 10
588.4337498915163
 20
581.93908616188639
 11
581.4337498915163
 21
581.93908616188639
  0
LINE
  8
_0-1_計細線
  6
CONTINUOUS
 62
    3
 10
578.4337498915163
 20
781.93908616188651
 11
571.4337498915163
 21
781.93908616188651
  0
LINE
  8
_0-1_計細線
  6
CONTINUOUS
 62
    3
 10
578.4337498915163
 20
581.93908616188639
 11
571.4337498915163
 21
581.93908616188639
  0
LINE
  8
_0-1_計細線
  6
CONTINUOUS
 62
    3
 10
568.4337498915163
 20
781.93908616188651
 11
561.4337498915163
 21
781.93908616188651
  0
LINE
  8
_0-1_計細線
  6
CONTINUOUS
 62
    3
 10
568.4337498915163
 20
581.93908616188639
 11
561.4337498915163
 21
581.93908616188639
  0
LINE
  8
_0-1_計細線
  6
CONTINUOUS
 62
    3
 10
558.4337498915163
 20
781.93908616188651
 11
551.4337498915163
 21
781.93908616188651
  0
LINE
  8
_0-1_計細線
  6
CONTINUOUS
 62
    3
 10
558.4337498915163
 20
581.93908616188639
 11
551.4337498915163
 21
581.93908616188639
  0
LINE
  8
_0-1_計細線
  6
CONTINUOUS
 62
    3
 10
548.4337498915163
 20
781.93908616188651
 11
541.4337498915163
 21
781.93908616188651
  0
LINE
  8
_0-1_計細線
  6
CONTINUOUS
 62
    3
 10
548.4337498915163
 20
581.93908616188639
 11
541.4337498915163
 21
581.93908616188639
  0
LINE
  8
_0-1_計細線
  6
CONTINUOUS
 62
    3
 10
538.4337498915163
 20
781.93908616188651
 11
531.4337498915163
 21
781.93908616188651
  0
LINE
  8
_0-1_計細線
  6
CONTINUOUS
 62
    3
 10
538.4337498915163
 20
581.93908616188639
 11
531.4337498915163
 21
581.93908616188639
  0
LINE
  8
_0-1_計細線
  6
CONTINUOUS
 62
    3
 10
528.4337498915163
 20
781.93908616188651
 11
521.4337498915163
 21
781.93908616188651
  0
LINE
  8
_0-1_計細線
  6
CONTINUOUS
 62
    3
 10
528.4337498915163
 20
581.93908616188639
 11
521.4337498915163
 21
581.93908616188639
  0
LINE
  8
_0-1_計細線
  6
CONTINUOUS
 62
    3
 10
518.4337498915163
 20
781.93908616188651
 11
511.4337498915163
 21
781.93908616188651
  0
LINE
  8
_0-1_計細線
  6
CONTINUOUS
 62
    3
 10
518.4337498915163
 20
581.93908616188639
 11
511.4337498915163
 21
581.93908616188639
  0
LINE
  8
_0-1_計細線
  6
CONTINUOUS
 62
    3
 10
508.43374989151636
 20
781.93908616188651
 11
501.4337498915163
 21
781.93908616188651
  0
LINE
  8
_0-1_計細線
  6
CONTINUOUS
 62
    3
 10
508.43374989151636
 20
581.93908616188639
 11
501.4337498915163
 21
581.93908616188639
  0
LINE
  8
_0-1_計細線
  6
CONTINUOUS
 62
    3
 10
498.43374989151636
 20
781.93908616188651
 11
491.4337498915163
 21
781.93908616188651
  0
LINE
  8
_0-1_計細線
  6
CONTINUOUS
 62
    3
 10
498.43374989151636
 20
581.93908616188639
 11
491.4337498915163
 21
581.93908616188639
  0
LINE
  8
_0-1_計細線
  6
CONTINUOUS
 62
    3
 10
488.43374989151636
 20
781.93908616188651
 11
481.4337498915163
 21
781.93908616188651
  0
LINE
  8
_0-1_計細線
  6
CONTINUOUS
 62
    3
 10
488.43374989151636
 20
581.93908616188639
 11
481.4337498915163
 21
581.93908616188639
  0
LINE
  8
_0-1_計細線
  6
CONTINUOUS
 62
    3
 10
478.43374989151636
 20
781.93908616188651
 11
471.4337498915163
 21
781.93908616188651
  0
LINE
  8
_0-1_計細線
  6
CONTINUOUS
 62
    3
 10
478.43374989151636
 20
581.93908616188639
 11
471.4337498915163
 21
581.93908616188639
  0
LINE
  8
_0-1_計細線
  6
CONTINUOUS
 62
    3
 10
468.43374989151636
 20
781.93908616188651
 11
461.4337498915163
 21
781.93908616188651
  0
LINE
  8
_0-1_計細線
  6
CONTINUOUS
 62
    3
 10
468.43374989151636
 20
581.93908616188639
 11
461.4337498915163
 21
581.93908616188639
  0
LINE
  8
_0-1_計細線
  6
CONTINUOUS
 62
    3
 10
458.43374989151636
 20
781.93908616188651
 11
451.4337498915163
 21
781.93908616188651
  0
LINE
  8
_0-1_計細線
  6
CONTINUOUS
 62
    3
 10
458.43374989151636
 20
581.93908616188639
 11
451.4337498915163
 21
581.93908616188639
  0
LINE
  8
_0-1_計細線
  6
CONTINUOUS
 62
    3
 10
448.43374989151636
 20
781.93908616188651
 11
441.4337498915163
 21
781.93908616188651
  0
LINE
  8
_0-1_計細線
  6
CONTINUOUS
 62
    3
 10
448.43374989151636
 20
581.93908616188639
 11
441.4337498915163
 21
581.93908616188639
  0
LINE
  8
_0-1_計細線
  6
CONTINUOUS
 62
    3
 10
438.43374989151636
 20
781.93908616188651
 11
431.4337498915163
 21
781.93908616188651
  0
LINE
  8
_0-1_計細線
  6
CONTINUOUS
 62
    3
 10
438.43374989151636
 20
581.93908616188639
 11
431.4337498915163
 21
581.93908616188639
  0
LINE
  8
_0-1_計細線
  6
CONTINUOUS
 62
    3
 10
428.43374989151636
 20
781.93908616188651
 11
421.4337498915163
 21
781.93908616188651
  0
LINE
  8
_0-1_計細線
  6
CONTINUOUS
 62
    3
 10
428.43374989151636
 20
581.93908616188639
 11
421.4337498915163
 21
581.93908616188639
  0
LINE
  8
_0-1_計細線
  6
CONTINUOUS
 62
    3
 10
418.43374989151636
 20
781.93908616188651
 11
411.4337498915163
 21
781.93908616188651
  0
LINE
  8
_0-1_計細線
  6
CONTINUOUS
 62
    3
 10
418.43374989151636
 20
581.93908616188639
 11
411.4337498915163
 21
581.93908616188639
  0
LINE
  8
_0-1_計細線
  6
CONTINUOUS
 62
    3
 10
408.43374989151636
 20
781.93908616188651
 11
401.4337498915163
 21
781.93908616188651
  0
LINE
  8
_0-1_計細線
  6
CONTINUOUS
 62
    3
 10
408.43374989151636
 20
581.93908616188639
 11
401.4337498915163
 21
581.93908616188639
  0
LINE
  8
_0-1_計細線
  6
CONTINUOUS
 62
    3
 10
398.43374989151636
 20
781.93908616188651
 11
391.4337498915163
 21
781.93908616188651
  0
LINE
  8
_0-1_計細線
  6
CONTINUOUS
 62
    3
 10
398.43374989151636
 20
581.93908616188639
 11
391.4337498915163
 21
581.93908616188639
  0
LINE
  8
_0-1_計細線
  6
CONTINUOUS
 62
    3
 10
388.43374989151636
 20
781.93908616188651
 11
381.4337498915163
 21
781.93908616188651
  0
LINE
  8
_0-1_計細線
  6
CONTINUOUS
 62
    3
 10
388.43374989151636
 20
581.93908616188639
 11
381.4337498915163
 21
581.93908616188639
  0
LINE
  8
_0-1_計細線
  6
CONTINUOUS
 62
    3
 10
378.43374989151636
 20
781.93908616188651
 11
371.4337498915163
 21
781.93908616188651
  0
LINE
  8
_0-1_計細線
  6
CONTINUOUS
 62
    3
 10
378.43374989151636
 20
581.93908616188639
 11
371.4337498915163
 21
581.93908616188639
  0
LINE
  8
_0-1_計細線
  6
CONTINUOUS
 62
    3
 10
368.43374989151636
 20
781.93908616188651
 11
361.4337498915163
 21
781.93908616188651
  0
LINE
  8
_0-1_計細線
  6
CONTINUOUS
 62
    3
 10
368.43374989151636
 20
581.93908616188639
 11
361.4337498915163
 21
581.93908616188639
  0
LINE
  8
_0-1_計細線
  6
CONTINUOUS
 62
    3
 10
358.43374989151636
 20
781.93908616188651
 11
351.4337498915163
 21
781.93908616188651
  0
LINE
  8
_0-1_計細線
  6
CONTINUOUS
 62
    3
 10
358.43374989151636
 20
581.93908616188639
 11
351.4337498915163
 21
581.93908616188639
  0
LINE
  8
_0-1_計細線
  6
CONTINUOUS
 62
    3
 10
348.43374989151636
 20
781.93908616188651
 11
341.4337498915163
 21
781.93908616188651
  0
LINE
  8
_0-1_計細線
  6
CONTINUOUS
 62
    3
 10
348.43374989151636
 20
581.93908616188639
 11
341.4337498915163
 21
581.93908616188639
  0
LINE
  8
_0-1_計細線
  6
CONTINUOUS
 62
    3
 10
338.43374989151636
 20
781.93908616188651
 11
331.4337498915163
 21
781.93908616188651
  0
LINE
  8
_0-1_計細線
  6
CONTINUOUS
 62
    3
 10
338.43374989151636
 20
581.93908616188639
 11
331.4337498915163
 21
581.93908616188639
  0
LINE
  8
_0-1_計細線
  6
CONTINUOUS
 62
    3
 10
328.43374989151636
 20
781.93908616188651
 11
321.4337498915163
 21
781.93908616188651
  0
LINE
  8
_0-1_計細線
  6
CONTINUOUS
 62
    3
 10
328.43374989151636
 20
581.93908616188639
 11
321.4337498915163
 21
581.93908616188639
  0
LINE
  8
_0-1_計細線
  6
CONTINUOUS
 62
    3
 10
318.4337498915163
 20
781.93908616188651
 11
311.4337498915163
 21
781.93908616188651
  0
LINE
  8
_0-1_計細線
  6
CONTINUOUS
 62
    3
 10
318.4337498915163
 20
581.93908616188639
 11
311.4337498915163
 21
581.93908616188639
  0
LINE
  8
_0-1_計細線
  6
CONTINUOUS
 62
    3
 10
308.4337498915163
 20
781.93908616188651
 11
301.4337498915163
 21
781.93908616188651
  0
LINE
  8
_0-1_計細線
  6
CONTINUOUS
 62
    3
 10
308.4337498915163
 20
581.93908616188639
 11
301.4337498915163
 21
581.93908616188639
  0
LINE
  8
_0-1_計細線
  6
CONTINUOUS
 62
    3
 10
298.4337498915163
 20
781.93908616188651
 11
291.4337498915163
 21
781.93908616188651
  0
LINE
  8
_0-1_計細線
  6
CONTINUOUS
 62
    3
 10
298.4337498915163
 20
581.93908616188639
 11
291.4337498915163
 21
581.93908616188639
  0
LINE
  8
_0-1_計細線
  6
CONTINUOUS
 62
    3
 10
288.4337498915163
 20
781.93908616188651
 11
281.4337498915163
 21
781.93908616188651
  0
LINE
  8
_0-1_計細線
  6
CONTINUOUS
 62
    3
 10
288.4337498915163
 20
581.93908616188639
 11
281.4337498915163
 21
581.93908616188639
  0
LINE
  8
_0-1_計細線
  6
CONTINUOUS
 62
    3
 10
278.4337498915163
 20
781.93908616188651
 11
271.4337498915163
 21
781.93908616188651
  0
LINE
  8
_0-1_計細線
  6
CONTINUOUS
 62
    3
 10
278.4337498915163
 20
581.93908616188639
 11
271.4337498915163
 21
581.93908616188639
  0
LINE
  8
_0-1_計細線
  6
CONTINUOUS
 62
    3
 10
268.4337498915163
 20
781.93908616188651
 11
261.4337498915163
 21
781.93908616188651
  0
LINE
  8
_0-1_計細線
  6
CONTINUOUS
 62
    3
 10
268.4337498915163
 20
581.93908616188639
 11
261.4337498915163
 21
581.93908616188639
  0
LINE
  8
_0-1_計細線
  6
CONTINUOUS
 62
    3
 10
258.4337498915163
 20
781.93908616188651
 11
251.4337498915163
 21
781.93908616188651
  0
LINE
  8
_0-1_計細線
  6
CONTINUOUS
 62
    3
 10
258.4337498915163
 20
581.93908616188639
 11
251.4337498915163
 21
581.93908616188639
  0
LINE
  8
_0-1_計細線
  6
CONTINUOUS
 62
    3
 10
248.43374989151627
 20
781.93908616188651
 11
241.4337498915163
 21
781.93908616188651
  0
LINE
  8
_0-1_計細線
  6
CONTINUOUS
 62
    3
 10
248.43374989151627
 20
581.93908616188639
 11
241.4337498915163
 21
581.93908616188639
  0
LINE
  8
_0-1_計細線
  6
CONTINUOUS
 62
    3
 10
238.43374989151627
 20
781.93908616188651
 11
231.4337498915163
 21
781.93908616188651
  0
LINE
  8
_0-1_計細線
  6
CONTINUOUS
 62
    3
 10
238.43374989151627
 20
581.93908616188639
 11
231.4337498915163
 21
581.93908616188639
  0
LINE
  8
_0-1_計細線
  6
CONTINUOUS
 62
    3
 10
199.12165750599092
 20
554.93908616188696
 11
1248.1216575059905
 21
554.93908616188696
  0
LINE
  8
_0-1_計細線
  6
CONTINUOUS
 62
    3
 10
200.4337498915163
 20
551.93908616188685
 11
1249.4337498915163
 21
551.93908616188685
  0
LINE
  8
_0-1_計細線
  6
CONTINUOUS
 62
    3
 10
1221.4337498915163
 20
581.93908616188776
 11
1249.4337498915163
 21
581.93908616188639
  0
LINE
  8
_0-1_計細線
  6
CONTINUOUS
 62
    3
 10
228.43374989151627
 20
581.93908616188776
 11
200.4337498915163
 21
581.93908616188776
  0
LINE
  8
_0-1_計細線
  6
CONTINUOUS
 62
    3
 10
228.43374989151627
 20
781.93908616188651
 11
200.4337498915163
 21
781.93908616188651
  0
LINE
  8
_0-1_計細線
  6
CONTINUOUS
 62
    3
 10
1221.4337498915163
 20
781.93908616188651
 11
1249.4337498915163
 21
781.93908616188651
  0
LINE
  8
_0-1_計細線
  6
CONTINUOUS
 62
    3
 10
201.74584227704122
 20
808.93908616188639
 11
1250.7458422770412
 21
808.93908616188639
  0
LINE
  8
_0-1_計細線
  6
CONTINUOUS
 62
    3
 10
200.4337498915163
 20
811.93908616188651
 11
1249.4337498915163
 21
811.93908616188651
  0
LINE
  8
_0-0_計極細
  6
CONTINUOUS
 62
    2
 10
1211.4337498915163
 20
629.43908616188639
 11
1218.4337498915165
 21
629.43908616188639
  0
LINE
  8
_0-0_計極細
  6
CONTINUOUS
 62
    2
 10
1211.4337498915163
 20
634.43908616188639
 11
1218.4337498915165
 21
634.43908616188639
  0
LINE
  8
_0-0_計極細
  6
CONTINUOUS
 62
    2
 10
1211.4337498915163
 20
729.43908616188639
 11
1218.4337498915165
 21
729.43908616188639
  0
LINE
  8
_0-0_計極細
  6
CONTINUOUS
 62
    2
 10
1211.4337498915163
 20
734.43908616188639
 11
1218.4337498915165
 21
734.43908616188639
  0
LINE
  8
_0-0_計極細
  6
CONTINUOUS
 62
    2
 10
1201.4337498915163
 20
629.43908616188639
 11
1208.4337498915165
 21
629.43908616188639
  0
LINE
  8
_0-0_計極細
  6
CONTINUOUS
 62
    2
 10
1201.4337498915163
 20
634.43908616188639
 11
1208.4337498915165
 21
634.43908616188639
  0
LINE
  8
_0-0_計極細
  6
CONTINUOUS
 62
    2
 10
1201.4337498915163
 20
729.43908616188639
 11
1208.4337498915165
 21
729.43908616188639
  0
LINE
  8
_0-0_計極細
  6
CONTINUOUS
 62
    2
 10
1201.4337498915163
 20
734.43908616188639
 11
1208.4337498915165
 21
734.43908616188639
  0
LINE
  8
_0-0_計極細
  6
CONTINUOUS
 62
    2
 10
1191.4337498915163
 20
629.43908616188639
 11
1198.4337498915165
 21
629.43908616188639
  0
LINE
  8
_0-0_計極細
  6
CONTINUOUS
 62
    2
 10
1191.4337498915163
 20
634.43908616188639
 11
1198.4337498915165
 21
634.43908616188639
  0
LINE
  8
_0-0_計極細
  6
CONTINUOUS
 62
    2
 10
1191.4337498915163
 20
729.43908616188639
 11
1198.4337498915165
 21
729.43908616188639
  0
LINE
  8
_0-0_計極細
  6
CONTINUOUS
 62
    2
 10
1191.4337498915163
 20
734.43908616188639
 11
1198.4337498915165
 21
734.43908616188639
  0
LINE
  8
_0-0_計極細
  6
CONTINUOUS
 62
    2
 10
1181.4337498915163
 20
629.43908616188639
 11
1188.4337498915165
 21
629.43908616188639
  0
LINE
  8
_0-0_計極細
  6
CONTINUOUS
 62
    2
 10
1181.4337498915163
 20
634.43908616188639
 11
1188.4337498915165
 21
634.43908616188639
  0
LINE
  8
_0-0_計極細
  6
CONTINUOUS
 62
    2
 10
1181.4337498915163
 20
729.43908616188639
 11
1188.4337498915165
 21
729.43908616188639
  0
LINE
  8
_0-0_計極細
  6
CONTINUOUS
 62
    2
 10
1181.4337498915163
 20
734.43908616188639
 11
1188.4337498915165
 21
734.43908616188639
  0
LINE
  8
_0-0_計極細
  6
CONTINUOUS
 62
    2
 10
1171.4337498915163
 20
629.43908616188639
 11
1178.4337498915165
 21
629.43908616188639
  0
LINE
  8
_0-0_計極細
  6
CONTINUOUS
 62
    2
 10
1171.4337498915163
 20
634.43908616188639
 11
1178.4337498915165
 21
634.43908616188639
  0
LINE
  8
_0-0_計極細
  6
CONTINUOUS
 62
    2
 10
1171.4337498915163
 20
729.43908616188639
 11
1178.4337498915165
 21
729.43908616188639
  0
LINE
  8
_0-0_計極細
  6
CONTINUOUS
 62
    2
 10
1171.4337498915163
 20
734.43908616188639
 11
1178.4337498915165
 21
734.43908616188639
  0
LINE
  8
_0-0_計極細
  6
CONTINUOUS
 62
    2
 10
1161.4337498915163
 20
629.43908616188639
 11
1168.4337498915165
 21
629.43908616188639
  0
LINE
  8
_0-0_計極細
  6
CONTINUOUS
 62
    2
 10
1161.4337498915163
 20
634.43908616188639
 11
1168.4337498915165
 21
634.43908616188639
  0
LINE
  8
_0-0_計極細
  6
CONTINUOUS
 62
    2
 10
1161.4337498915163
 20
729.43908616188639
 11
1168.4337498915165
 21
729.43908616188639
  0
LINE
  8
_0-0_計極細
  6
CONTINUOUS
 62
    2
 10
1161.4337498915163
 20
734.43908616188639
 11
1168.4337498915165
 21
734.43908616188639
  0
LINE
  8
_0-0_計極細
  6
CONTINUOUS
 62
    2
 10
1151.4337498915163
 20
629.43908616188639
 11
1158.4337498915165
 21
629.43908616188639
  0
LINE
  8
_0-0_計極細
  6
CONTINUOUS
 62
    2
 10
1151.4337498915163
 20
634.43908616188639
 11
1158.4337498915165
 21
634.43908616188639
  0
LINE
  8
_0-0_計極細
  6
CONTINUOUS
 62
    2
 10
1151.4337498915163
 20
729.43908616188639
 11
1158.4337498915165
 21
729.43908616188639
  0
LINE
  8
_0-0_計極細
  6
CONTINUOUS
 62
    2
 10
1151.4337498915163
 20
734.43908616188639
 11
1158.4337498915165
 21
734.43908616188639
  0
LINE
  8
_0-0_計極細
  6
CONTINUOUS
 62
    2
 10
1141.4337498915163
 20
629.43908616188639
 11
1148.4337498915165
 21
629.43908616188639
  0
LINE
  8
_0-0_計極細
  6
CONTINUOUS
 62
    2
 10
1141.4337498915163
 20
634.43908616188639
 11
1148.4337498915165
 21
634.43908616188639
  0
LINE
  8
_0-0_計極細
  6
CONTINUOUS
 62
    2
 10
1141.4337498915163
 20
729.43908616188639
 11
1148.4337498915165
 21
729.43908616188639
  0
LINE
  8
_0-0_計極細
  6
CONTINUOUS
 62
    2
 10
1141.4337498915163
 20
734.43908616188639
 11
1148.4337498915165
 21
734.43908616188639
  0
LINE
  8
_0-0_計極細
  6
CONTINUOUS
 62
    2
 10
1131.4337498915163
 20
629.43908616188639
 11
1138.4337498915165
 21
629.43908616188639
  0
LINE
  8
_0-0_計極細
  6
CONTINUOUS
 62
    2
 10
1131.4337498915163
 20
634.43908616188639
 11
1138.4337498915165
 21
634.43908616188639
  0
LINE
  8
_0-0_計極細
  6
CONTINUOUS
 62
    2
 10
1131.4337498915163
 20
729.43908616188639
 11
1138.4337498915165
 21
729.43908616188639
  0
LINE
  8
_0-0_計極細
  6
CONTINUOUS
 62
    2
 10
1131.4337498915163
 20
734.43908616188639
 11
1138.4337498915165
 21
734.43908616188639
  0
LINE
  8
_0-0_計極細
  6
CONTINUOUS
 62
    2
 10
1121.4337498915163
 20
629.43908616188639
 11
1128.4337498915165
 21
629.43908616188639
  0
LINE
  8
_0-0_計極細
  6
CONTINUOUS
 62
    2
 10
1121.4337498915163
 20
634.43908616188639
 11
1128.4337498915165
 21
634.43908616188639
  0
LINE
  8
_0-0_計極細
  6
CONTINUOUS
 62
    2
 10
1121.4337498915163
 20
729.43908616188639
 11
1128.4337498915165
 21
729.43908616188639
  0
LINE
  8
_0-0_計極細
  6
CONTINUOUS
 62
    2
 10
1121.4337498915163
 20
734.43908616188639
 11
1128.4337498915165
 21
734.43908616188639
  0
LINE
  8
_0-0_計極細
  6
CONTINUOUS
 62
    2
 10
1111.4337498915163
 20
629.43908616188639
 11
1118.4337498915165
 21
629.43908616188639
  0
LINE
  8
_0-0_計極細
  6
CONTINUOUS
 62
    2
 10
1111.4337498915163
 20
634.43908616188639
 11
1118.4337498915165
 21
634.43908616188639
  0
LINE
  8
_0-0_計極細
  6
CONTINUOUS
 62
    2
 10
1111.4337498915163
 20
729.43908616188639
 11
1118.4337498915165
 21
729.43908616188639
  0
LINE
  8
_0-0_計極細
  6
CONTINUOUS
 62
    2
 10
1111.4337498915163
 20
734.43908616188639
 11
1118.4337498915165
 21
734.43908616188639
  0
LINE
  8
_0-0_計極細
  6
CONTINUOUS
 62
    2
 10
1101.4337498915163
 20
629.43908616188639
 11
1108.4337498915165
 21
629.43908616188639
  0
LINE
  8
_0-0_計極細
  6
CONTINUOUS
 62
    2
 10
1101.4337498915163
 20
634.43908616188639
 11
1108.4337498915165
 21
634.43908616188639
  0
LINE
  8
_0-0_計極細
  6
CONTINUOUS
 62
    2
 10
1101.4337498915163
 20
729.43908616188639
 11
1108.4337498915165
 21
729.43908616188639
  0
LINE
  8
_0-0_計極細
  6
CONTINUOUS
 62
    2
 10
1101.4337498915163
 20
734.43908616188639
 11
1108.4337498915165
 21
734.43908616188639
  0
LINE
  8
_0-0_計極細
  6
CONTINUOUS
 62
    2
 10
1091.4337498915163
 20
629.43908616188639
 11
1098.4337498915165
 21
629.43908616188639
  0
LINE
  8
_0-0_計極細
  6
CONTINUOUS
 62
    2
 10
1091.4337498915163
 20
634.43908616188639
 11
1098.4337498915165
 21
634.43908616188639
  0
LINE
  8
_0-0_計極細
  6
CONTINUOUS
 62
    2
 10
1091.4337498915163
 20
729.43908616188639
 11
1098.4337498915165
 21
729.43908616188639
  0
LINE
  8
_0-0_計極細
  6
CONTINUOUS
 62
    2
 10
1091.4337498915163
 20
734.43908616188639
 11
1098.4337498915165
 21
734.43908616188639
  0
LINE
  8
_0-0_計極細
  6
CONTINUOUS
 62
    2
 10
1081.4337498915163
 20
629.43908616188639
 11
1088.4337498915165
 21
629.43908616188639
  0
LINE
  8
_0-0_計極細
  6
CONTINUOUS
 62
    2
 10
1081.4337498915163
 20
634.43908616188639
 11
1088.4337498915165
 21
634.43908616188639
  0
LINE
  8
_0-0_計極細
  6
CONTINUOUS
 62
    2
 10
1081.4337498915163
 20
729.43908616188639
 11
1088.4337498915165
 21
729.43908616188639
  0
LINE
  8
_0-0_計極細
  6
CONTINUOUS
 62
    2
 10
1081.4337498915163
 20
734.43908616188639
 11
1088.4337498915165
 21
734.43908616188639
  0
LINE
  8
_0-0_計極細
  6
CONTINUOUS
 62
    2
 10
1071.4337498915163
 20
629.43908616188639
 11
1078.4337498915165
 21
629.43908616188639
  0
LINE
  8
_0-0_計極細
  6
CONTINUOUS
 62
    2
 10
1071.4337498915163
 20
634.43908616188639
 11
1078.4337498915165
 21
634.43908616188639
  0
LINE
  8
_0-0_計極細
  6
CONTINUOUS
 62
    2
 10
1071.4337498915163
 20
729.43908616188639
 11
1078.4337498915165
 21
729.43908616188639
  0
LINE
  8
_0-0_計極細
  6
CONTINUOUS
 62
    2
 10
1071.4337498915163
 20
734.43908616188639
 11
1078.4337498915165
 21
734.43908616188639
  0
LINE
  8
_0-0_計極細
  6
CONTINUOUS
 62
    2
 10
1061.4337498915163
 20
629.43908616188639
 11
1068.4337498915165
 21
629.43908616188639
  0
LINE
  8
_0-0_計極細
  6
CONTINUOUS
 62
    2
 10
1061.4337498915163
 20
634.43908616188639
 11
1068.4337498915165
 21
634.43908616188639
  0
LINE
  8
_0-0_計極細
  6
CONTINUOUS
 62
    2
 10
1061.4337498915163
 20
729.43908616188639
 11
1068.4337498915165
 21
729.43908616188639
  0
LINE
  8
_0-0_計極細
  6
CONTINUOUS
 62
    2
 10
1061.4337498915163
 20
734.43908616188639
 11
1068.4337498915165
 21
734.43908616188639
  0
LINE
  8
_0-0_計極細
  6
CONTINUOUS
 62
    2
 10
1051.4337498915163
 20
629.43908616188639
 11
1058.4337498915165
 21
629.43908616188639
  0
LINE
  8
_0-0_計極細
  6
CONTINUOUS
 62
    2
 10
1051.4337498915163
 20
634.43908616188639
 11
1058.4337498915165
 21
634.43908616188639
  0
LINE
  8
_0-0_計極細
  6
CONTINUOUS
 62
    2
 10
1051.4337498915163
 20
729.43908616188639
 11
1058.4337498915165
 21
729.43908616188639
  0
LINE
  8
_0-0_計極細
  6
CONTINUOUS
 62
    2
 10
1051.4337498915163
 20
734.43908616188639
 11
1058.4337498915165
 21
734.43908616188639
  0
LINE
  8
_0-0_計極細
  6
CONTINUOUS
 62
    2
 10
1041.4337498915163
 20
629.43908616188639
 11
1048.4337498915165
 21
629.43908616188639
  0
LINE
  8
_0-0_計極細
  6
CONTINUOUS
 62
    2
 10
1041.4337498915163
 20
634.43908616188639
 11
1048.4337498915165
 21
634.43908616188639
  0
LINE
  8
_0-0_計極細
  6
CONTINUOUS
 62
    2
 10
1041.4337498915163
 20
729.43908616188639
 11
1048.4337498915165
 21
729.43908616188639
  0
LINE
  8
_0-0_計極細
  6
CONTINUOUS
 62
    2
 10
1041.4337498915163
 20
734.43908616188639
 11
1048.4337498915165
 21
734.43908616188639
  0
LINE
  8
_0-0_計極細
  6
CONTINUOUS
 62
    2
 10
1031.4337498915163
 20
629.43908616188639
 11
1038.4337498915165
 21
629.43908616188639
  0
LINE
  8
_0-0_計極細
  6
CONTINUOUS
 62
    2
 10
1031.4337498915163
 20
634.43908616188639
 11
1038.4337498915165
 21
634.43908616188639
  0
LINE
  8
_0-0_計極細
  6
CONTINUOUS
 62
    2
 10
1031.4337498915163
 20
729.43908616188639
 11
1038.4337498915165
 21
729.43908616188639
  0
LINE
  8
_0-0_計極細
  6
CONTINUOUS
 62
    2
 10
1031.4337498915163
 20
734.43908616188639
 11
1038.4337498915165
 21
734.43908616188639
  0
LINE
  8
_0-0_計極細
  6
CONTINUOUS
 62
    2
 10
1021.4337498915164
 20
629.43908616188639
 11
1028.4337498915165
 21
629.43908616188639
  0
LINE
  8
_0-0_計極細
  6
CONTINUOUS
 62
    2
 10
1021.4337498915164
 20
634.43908616188639
 11
1028.4337498915165
 21
634.43908616188639
  0
LINE
  8
_0-0_計極細
  6
CONTINUOUS
 62
    2
 10
1021.4337498915164
 20
729.43908616188639
 11
1028.4337498915165
 21
729.43908616188639
  0
LINE
  8
_0-0_計極細
  6
CONTINUOUS
 62
    2
 10
1021.4337498915164
 20
734.43908616188639
 11
1028.4337498915165
 21
734.43908616188639
  0
LINE
  8
_0-0_計極細
  6
CONTINUOUS
 62
    2
 10
1011.4337498915164
 20
629.43908616188639
 11
1018.4337498915164
 21
629.43908616188639
  0
LINE
  8
_0-0_計極細
  6
CONTINUOUS
 62
    2
 10
1011.4337498915164
 20
634.43908616188639
 11
1018.4337498915164
 21
634.43908616188639
  0
LINE
  8
_0-0_計極細
  6
CONTINUOUS
 62
    2
 10
1011.4337498915164
 20
729.43908616188639
 11
1018.4337498915164
 21
729.43908616188639
  0
LINE
  8
_0-0_計極細
  6
CONTINUOUS
 62
    2
 10
1011.4337498915164
 20
734.43908616188639
 11
1018.4337498915164
 21
734.43908616188639
  0
LINE
  8
_0-0_計極細
  6
CONTINUOUS
 62
    2
 10
1001.4337498915164
 20
629.43908616188639
 11
1008.4337498915164
 21
629.43908616188639
  0
LINE
  8
_0-0_計極細
  6
CONTINUOUS
 62
    2
 10
1001.4337498915164
 20
634.43908616188639
 11
1008.4337498915164
 21
634.43908616188639
  0
LINE
  8
_0-0_計極細
  6
CONTINUOUS
 62
    2
 10
1001.4337498915164
 20
729.43908616188639
 11
1008.4337498915164
 21
729.43908616188639
  0
LINE
  8
_0-0_計極細
  6
CONTINUOUS
 62
    2
 10
1001.4337498915164
 20
734.43908616188639
 11
1008.4337498915164
 21
734.43908616188639
  0
LINE
  8
_0-0_計極細
  6
CONTINUOUS
 62
    2
 10
991.43374989151641
 20
629.43908616188639
 11
998.43374989151641
 21
629.43908616188639
  0
LINE
  8
_0-0_計極細
  6
CONTINUOUS
 62
    2
 10
991.43374989151641
 20
634.43908616188639
 11
998.43374989151641
 21
634.43908616188639
  0
LINE
  8
_0-0_計極細
  6
CONTINUOUS
 62
    2
 10
991.43374989151641
 20
729.43908616188639
 11
998.43374989151641
 21
729.43908616188639
  0
LINE
  8
_0-0_計極細
  6
CONTINUOUS
 62
    2
 10
991.43374989151641
 20
734.43908616188639
 11
998.43374989151641
 21
734.43908616188639
  0
LINE
  8
_0-0_計極細
  6
CONTINUOUS
 62
    2
 10
981.43374989151641
 20
629.43908616188639
 11
988.43374989151641
 21
629.43908616188639
  0
LINE
  8
_0-0_計極細
  6
CONTINUOUS
 62
    2
 10
981.43374989151641
 20
634.43908616188639
 11
988.43374989151641
 21
634.43908616188639
  0
LINE
  8
_0-0_計極細
  6
CONTINUOUS
 62
    2
 10
981.43374989151641
 20
729.43908616188639
 11
988.43374989151641
 21
729.43908616188639
  0
LINE
  8
_0-0_計極細
  6
CONTINUOUS
 62
    2
 10
981.43374989151641
 20
734.43908616188639
 11
988.43374989151641
 21
734.43908616188639
  0
LINE
  8
_0-0_計極細
  6
CONTINUOUS
 62
    2
 10
971.43374989151641
 20
629.43908616188639
 11
978.43374989151641
 21
629.43908616188639
  0
LINE
  8
_0-0_計極細
  6
CONTINUOUS
 62
    2
 10
971.43374989151641
 20
634.43908616188639
 11
978.43374989151641
 21
634.43908616188639
  0
LINE
  8
_0-0_計極細
  6
CONTINUOUS
 62
    2
 10
971.43374989151641
 20
729.43908616188639
 11
978.43374989151641
 21
729.43908616188639
  0
LINE
  8
_0-0_計極細
  6
CONTINUOUS
 62
    2
 10
971.43374989151641
 20
734.43908616188639
 11
978.43374989151641
 21
734.43908616188639
  0
LINE
  8
_0-0_計極細
  6
CONTINUOUS
 62
    2
 10
961.43374989151641
 20
629.43908616188639
 11
968.43374989151641
 21
629.43908616188639
  0
LINE
  8
_0-0_計極細
  6
CONTINUOUS
 62
    2
 10
961.43374989151641
 20
634.43908616188639
 11
968.43374989151641
 21
634.43908616188639
  0
LINE
  8
_0-0_計極細
  6
CONTINUOUS
 62
    2
 10
961.43374989151641
 20
729.43908616188639
 11
968.43374989151641
 21
729.43908616188639
  0
LINE
  8
_0-0_計極細
  6
CONTINUOUS
 62
    2
 10
961.43374989151641
 20
734.43908616188639
 11
968.43374989151641
 21
734.43908616188639
  0
LINE
  8
_0-0_計極細
  6
CONTINUOUS
 62
    2
 10
951.43374989151641
 20
629.43908616188639
 11
958.43374989151641
 21
629.43908616188639
  0
LINE
  8
_0-0_計極細
  6
CONTINUOUS
 62
    2
 10
951.43374989151641
 20
634.43908616188639
 11
958.43374989151641
 21
634.43908616188639
  0
LINE
  8
_0-0_計極細
  6
CONTINUOUS
 62
    2
 10
951.43374989151641
 20
729.43908616188639
 11
958.43374989151641
 21
729.43908616188639
  0
LINE
  8
_0-0_計極細
  6
CONTINUOUS
 62
    2
 10
951.43374989151641
 20
734.43908616188639
 11
958.43374989151641
 21
734.43908616188639
  0
LINE
  8
_0-0_計極細
  6
CONTINUOUS
 62
    2
 10
941.43374989151641
 20
629.43908616188639
 11
948.43374989151641
 21
629.43908616188639
  0
LINE
  8
_0-0_計極細
  6
CONTINUOUS
 62
    2
 10
941.43374989151641
 20
634.43908616188639
 11
948.43374989151641
 21
634.43908616188639
  0
LINE
  8
_0-0_計極細
  6
CONTINUOUS
 62
    2
 10
941.43374989151641
 20
729.43908616188639
 11
948.43374989151641
 21
729.43908616188639
  0
LINE
  8
_0-0_計極細
  6
CONTINUOUS
 62
    2
 10
941.43374989151641
 20
734.43908616188639
 11
948.43374989151641
 21
734.43908616188639
  0
LINE
  8
_0-0_計極細
  6
CONTINUOUS
 62
    2
 10
931.43374989151641
 20
629.43908616188639
 11
938.43374989151641
 21
629.43908616188639
  0
LINE
  8
_0-0_計極細
  6
CONTINUOUS
 62
    2
 10
931.43374989151641
 20
634.43908616188639
 11
938.43374989151641
 21
634.43908616188639
  0
LINE
  8
_0-0_計極細
  6
CONTINUOUS
 62
    2
 10
931.43374989151641
 20
729.43908616188639
 11
938.43374989151641
 21
729.43908616188639
  0
LINE
  8
_0-0_計極細
  6
CONTINUOUS
 62
    2
 10
931.43374989151641
 20
734.43908616188639
 11
938.43374989151641
 21
734.43908616188639
  0
LINE
  8
_0-0_計極細
  6
CONTINUOUS
 62
    2
 10
921.43374989151641
 20
629.43908616188639
 11
928.43374989151641
 21
629.43908616188639
  0
LINE
  8
_0-0_計極細
  6
CONTINUOUS
 62
    2
 10
921.43374989151641
 20
634.43908616188639
 11
928.43374989151641
 21
634.43908616188639
  0
LINE
  8
_0-0_計極細
  6
CONTINUOUS
 62
    2
 10
921.43374989151641
 20
729.43908616188639
 11
928.43374989151641
 21
729.43908616188639
  0
LINE
  8
_0-0_計極細
  6
CONTINUOUS
 62
    2
 10
921.43374989151641
 20
734.43908616188639
 11
928.43374989151641
 21
734.43908616188639
  0
LINE
  8
_0-0_計極細
  6
CONTINUOUS
 62
    2
 10
911.43374989151641
 20
629.43908616188639
 11
918.43374989151641
 21
629.43908616188639
  0
LINE
  8
_0-0_計極細
  6
CONTINUOUS
 62
    2
 10
911.43374989151641
 20
634.43908616188639
 11
918.43374989151641
 21
634.43908616188639
  0
LINE
  8
_0-0_計極細
  6
CONTINUOUS
 62
    2
 10
911.43374989151641
 20
729.43908616188639
 11
918.43374989151641
 21
729.43908616188639
  0
LINE
  8
_0-0_計極細
  6
CONTINUOUS
 62
    2
 10
911.43374989151641
 20
734.43908616188639
 11
918.43374989151641
 21
734.43908616188639
  0
LINE
  8
_0-0_計極細
  6
CONTINUOUS
 62
    2
 10
901.43374989151641
 20
629.43908616188639
 11
908.43374989151641
 21
629.43908616188639
  0
LINE
  8
_0-0_計極細
  6
CONTINUOUS
 62
    2
 10
901.43374989151641
 20
634.43908616188639
 11
908.43374989151641
 21
634.43908616188639
  0
LINE
  8
_0-0_計極細
  6
CONTINUOUS
 62
    2
 10
901.43374989151641
 20
729.43908616188639
 11
908.43374989151641
 21
729.43908616188639
  0
LINE
  8
_0-0_計極細
  6
CONTINUOUS
 62
    2
 10
901.43374989151641
 20
734.43908616188639
 11
908.43374989151641
 21
734.43908616188639
  0
LINE
  8
_0-0_計極細
  6
CONTINUOUS
 62
    2
 10
891.43374989151641
 20
629.43908616188639
 11
898.43374989151641
 21
629.43908616188639
  0
LINE
  8
_0-0_計極細
  6
CONTINUOUS
 62
    2
 10
891.43374989151641
 20
634.43908616188639
 11
898.43374989151641
 21
634.43908616188639
  0
LINE
  8
_0-0_計極細
  6
CONTINUOUS
 62
    2
 10
891.43374989151641
 20
729.43908616188639
 11
898.43374989151641
 21
729.43908616188639
  0
LINE
  8
_0-0_計極細
  6
CONTINUOUS
 62
    2
 10
891.43374989151641
 20
734.43908616188639
 11
898.43374989151641
 21
734.43908616188639
  0
LINE
  8
_0-0_計極細
  6
CONTINUOUS
 62
    2
 10
881.43374989151641
 20
629.43908616188639
 11
888.43374989151641
 21
629.43908616188639
  0
LINE
  8
_0-0_計極細
  6
CONTINUOUS
 62
    2
 10
881.43374989151641
 20
634.43908616188639
 11
888.43374989151641
 21
634.43908616188639
  0
LINE
  8
_0-0_計極細
  6
CONTINUOUS
 62
    2
 10
881.43374989151641
 20
729.43908616188639
 11
888.43374989151641
 21
729.43908616188639
  0
LINE
  8
_0-0_計極細
  6
CONTINUOUS
 62
    2
 10
881.43374989151641
 20
734.43908616188639
 11
888.43374989151641
 21
734.43908616188639
  0
LINE
  8
_0-0_計極細
  6
CONTINUOUS
 62
    2
 10
871.43374989151641
 20
629.43908616188639
 11
878.43374989151641
 21
629.43908616188639
  0
LINE
  8
_0-0_計極細
  6
CONTINUOUS
 62
    2
 10
871.43374989151641
 20
634.43908616188639
 11
878.43374989151641
 21
634.43908616188639
  0
LINE
  8
_0-0_計極細
  6
CONTINUOUS
 62
    2
 10
871.43374989151641
 20
729.43908616188639
 11
878.43374989151641
 21
729.43908616188639
  0
LINE
  8
_0-0_計極細
  6
CONTINUOUS
 62
    2
 10
871.43374989151641
 20
734.43908616188639
 11
878.43374989151641
 21
734.43908616188639
  0
LINE
  8
_0-0_計極細
  6
CONTINUOUS
 62
    2
 10
861.43374989151641
 20
629.43908616188639
 11
868.43374989151641
 21
629.43908616188639
  0
LINE
  8
_0-0_計極細
  6
CONTINUOUS
 62
    2
 10
861.43374989151641
 20
634.43908616188639
 11
868.43374989151641
 21
634.43908616188639
  0
LINE
  8
_0-0_計極細
  6
CONTINUOUS
 62
    2
 10
861.43374989151641
 20
729.43908616188639
 11
868.43374989151641
 21
729.43908616188639
  0
LINE
  8
_0-0_計極細
  6
CONTINUOUS
 62
    2
 10
861.43374989151641
 20
734.43908616188639
 11
868.43374989151641
 21
734.43908616188639
  0
LINE
  8
_0-0_計極細
  6
CONTINUOUS
 62
    2
 10
851.43374989151641
 20
629.43908616188639
 11
858.43374989151641
 21
629.43908616188639
  0
LINE
  8
_0-0_計極細
  6
CONTINUOUS
 62
    2
 10
851.43374989151641
 20
634.43908616188639
 11
858.43374989151641
 21
634.43908616188639
  0
LINE
  8
_0-0_計極細
  6
CONTINUOUS
 62
    2
 10
851.43374989151641
 20
729.43908616188639
 11
858.43374989151641
 21
729.43908616188639
  0
LINE
  8
_0-0_計極細
  6
CONTINUOUS
 62
    2
 10
851.43374989151641
 20
734.43908616188639
 11
858.43374989151641
 21
734.43908616188639
  0
LINE
  8
_0-0_計極細
  6
CONTINUOUS
 62
    2
 10
841.43374989151641
 20
629.43908616188639
 11
848.43374989151641
 21
629.43908616188639
  0
LINE
  8
_0-0_計極細
  6
CONTINUOUS
 62
    2
 10
841.43374989151641
 20
634.43908616188639
 11
848.43374989151641
 21
634.43908616188639
  0
LINE
  8
_0-0_計極細
  6
CONTINUOUS
 62
    2
 10
841.43374989151641
 20
729.43908616188639
 11
848.43374989151641
 21
729.43908616188639
  0
LINE
  8
_0-0_計極細
  6
CONTINUOUS
 62
    2
 10
841.43374989151641
 20
734.43908616188639
 11
848.43374989151641
 21
734.43908616188639
  0
LINE
  8
_0-0_計極細
  6
CONTINUOUS
 62
    2
 10
831.43374989151641
 20
629.43908616188639
 11
838.43374989151641
 21
629.43908616188639
  0
LINE
  8
_0-0_計極細
  6
CONTINUOUS
 62
    2
 10
831.43374989151641
 20
634.43908616188639
 11
838.43374989151641
 21
634.43908616188639
  0
LINE
  8
_0-0_計極細
  6
CONTINUOUS
 62
    2
 10
831.43374989151641
 20
729.43908616188639
 11
838.43374989151641
 21
729.43908616188639
  0
LINE
  8
_0-0_計極細
  6
CONTINUOUS
 62
    2
 10
831.43374989151641
 20
734.43908616188639
 11
838.43374989151641
 21
734.43908616188639
  0
LINE
  8
_0-0_計極細
  6
CONTINUOUS
 62
    2
 10
821.43374989151641
 20
629.43908616188639
 11
828.43374989151641
 21
629.43908616188639
  0
LINE
  8
_0-0_計極細
  6
CONTINUOUS
 62
    2
 10
821.43374989151641
 20
634.43908616188639
 11
828.43374989151641
 21
634.43908616188639
  0
LINE
  8
_0-0_計極細
  6
CONTINUOUS
 62
    2
 10
821.43374989151641
 20
729.43908616188639
 11
828.43374989151641
 21
729.43908616188639
  0
LINE
  8
_0-0_計極細
  6
CONTINUOUS
 62
    2
 10
821.43374989151641
 20
734.43908616188639
 11
828.43374989151641
 21
734.43908616188639
  0
LINE
  8
_0-0_計極細
  6
CONTINUOUS
 62
    2
 10
811.43374989151641
 20
629.43908616188639
 11
818.43374989151641
 21
629.43908616188639
  0
LINE
  8
_0-0_計極細
  6
CONTINUOUS
 62
    2
 10
811.43374989151641
 20
634.43908616188639
 11
818.43374989151641
 21
634.43908616188639
  0
LINE
  8
_0-0_計極細
  6
CONTINUOUS
 62
    2
 10
811.43374989151641
 20
729.43908616188639
 11
818.43374989151641
 21
729.43908616188639
  0
LINE
  8
_0-0_計極細
  6
CONTINUOUS
 62
    2
 10
811.43374989151641
 20
734.43908616188639
 11
818.43374989151641
 21
734.43908616188639
  0
LINE
  8
_0-0_計極細
  6
CONTINUOUS
 62
    2
 10
801.43374989151641
 20
629.43908616188639
 11
808.43374989151641
 21
629.43908616188639
  0
LINE
  8
_0-0_計極細
  6
CONTINUOUS
 62
    2
 10
801.43374989151641
 20
634.43908616188639
 11
808.43374989151641
 21
634.43908616188639
  0
LINE
  8
_0-0_計極細
  6
CONTINUOUS
 62
    2
 10
801.43374989151641
 20
729.43908616188639
 11
808.43374989151641
 21
729.43908616188639
  0
LINE
  8
_0-0_計極細
  6
CONTINUOUS
 62
    2
 10
801.43374989151641
 20
734.43908616188639
 11
808.43374989151641
 21
734.43908616188639
  0
LINE
  8
_0-0_計極細
  6
CONTINUOUS
 62
    2
 10
791.43374989151641
 20
629.43908616188639
 11
798.43374989151641
 21
629.43908616188639
  0
LINE
  8
_0-0_計極細
  6
CONTINUOUS
 62
    2
 10
791.43374989151641
 20
634.43908616188639
 11
798.43374989151641
 21
634.43908616188639
  0
LINE
  8
_0-0_計極細
  6
CONTINUOUS
 62
    2
 10
791.43374989151641
 20
729.43908616188639
 11
798.43374989151641
 21
729.43908616188639
  0
LINE
  8
_0-0_計極細
  6
CONTINUOUS
 62
    2
 10
791.43374989151641
 20
734.43908616188639
 11
798.43374989151641
 21
734.43908616188639
  0
LINE
  8
_0-0_計極細
  6
CONTINUOUS
 62
    2
 10
781.43374989151641
 20
629.43908616188639
 11
788.43374989151641
 21
629.43908616188639
  0
LINE
  8
_0-0_計極細
  6
CONTINUOUS
 62
    2
 10
781.43374989151641
 20
634.43908616188639
 11
788.43374989151641
 21
634.43908616188639
  0
LINE
  8
_0-0_計極細
  6
CONTINUOUS
 62
    2
 10
781.43374989151641
 20
729.43908616188639
 11
788.43374989151641
 21
729.43908616188639
  0
LINE
  8
_0-0_計極細
  6
CONTINUOUS
 62
    2
 10
781.43374989151641
 20
734.43908616188639
 11
788.43374989151641
 21
734.43908616188639
  0
LINE
  8
_0-0_計極細
  6
CONTINUOUS
 62
    2
 10
771.43374989151641
 20
629.43908616188639
 11
778.43374989151641
 21
629.43908616188639
  0
LINE
  8
_0-0_計極細
  6
CONTINUOUS
 62
    2
 10
771.43374989151641
 20
634.43908616188639
 11
778.43374989151641
 21
634.43908616188639
  0
LINE
  8
_0-0_計極細
  6
CONTINUOUS
 62
    2
 10
771.43374989151641
 20
729.43908616188639
 11
778.43374989151641
 21
729.43908616188639
  0
LINE
  8
_0-0_計極細
  6
CONTINUOUS
 62
    2
 10
771.43374989151641
 20
734.43908616188639
 11
778.43374989151641
 21
734.43908616188639
  0
LINE
  8
_0-0_計極細
  6
CONTINUOUS
 62
    2
 10
761.43374989151641
 20
629.43908616188639
 11
768.43374989151641
 21
629.43908616188639
  0
LINE
  8
_0-0_計極細
  6
CONTINUOUS
 62
    2
 10
761.43374989151641
 20
634.43908616188639
 11
768.43374989151641
 21
634.43908616188639
  0
LINE
  8
_0-0_計極細
  6
CONTINUOUS
 62
    2
 10
761.43374989151641
 20
729.43908616188639
 11
768.43374989151641
 21
729.43908616188639
  0
LINE
  8
_0-0_計極細
  6
CONTINUOUS
 62
    2
 10
761.43374989151641
 20
734.43908616188639
 11
768.43374989151641
 21
734.43908616188639
  0
LINE
  8
_0-0_計極細
  6
CONTINUOUS
 62
    2
 10
751.43374989151641
 20
629.43908616188639
 11
758.4337498915163
 21
629.43908616188639
  0
LINE
  8
_0-0_計極細
  6
CONTINUOUS
 62
    2
 10
751.43374989151641
 20
634.43908616188639
 11
758.4337498915163
 21
634.43908616188639
  0
LINE
  8
_0-0_計極細
  6
CONTINUOUS
 62
    2
 10
751.43374989151641
 20
729.43908616188639
 11
758.4337498915163
 21
729.43908616188639
  0
LINE
  8
_0-0_計極細
  6
CONTINUOUS
 62
    2
 10
751.43374989151641
 20
734.43908616188639
 11
758.4337498915163
 21
734.43908616188639
  0
LINE
  8
_0-0_計極細
  6
CONTINUOUS
 62
    2
 10
741.43374989151641
 20
629.43908616188639
 11
748.4337498915163
 21
629.43908616188639
  0
LINE
  8
_0-0_計極細
  6
CONTINUOUS
 62
    2
 10
741.43374989151641
 20
634.43908616188639
 11
748.4337498915163
 21
634.43908616188639
  0
LINE
  8
_0-0_計極細
  6
CONTINUOUS
 62
    2
 10
741.43374989151641
 20
729.43908616188639
 11
748.4337498915163
 21
729.43908616188639
  0
LINE
  8
_0-0_計極細
  6
CONTINUOUS
 62
    2
 10
741.43374989151641
 20
734.43908616188639
 11
748.4337498915163
 21
734.43908616188639
  0
LINE
  8
_0-0_計極細
  6
CONTINUOUS
 62
    2
 10
731.43374989151641
 20
629.43908616188639
 11
738.4337498915163
 21
629.43908616188639
  0
LINE
  8
_0-0_計極細
  6
CONTINUOUS
 62
    2
 10
731.43374989151641
 20
634.43908616188639
 11
738.4337498915163
 21
634.43908616188639
  0
LINE
  8
_0-0_計極細
  6
CONTINUOUS
 62
    2
 10
731.43374989151641
 20
729.43908616188639
 11
738.4337498915163
 21
729.43908616188639
  0
LINE
  8
_0-0_計極細
  6
CONTINUOUS
 62
    2
 10
731.43374989151641
 20
734.43908616188639
 11
738.4337498915163
 21
734.43908616188639
  0
LINE
  8
_0-0_計極細
  6
CONTINUOUS
 62
    2
 10
721.43374989151641
 20
629.43908616188639
 11
728.4337498915163
 21
629.43908616188639
  0
LINE
  8
_0-0_計極細
  6
CONTINUOUS
 62
    2
 10
721.43374989151641
 20
634.43908616188639
 11
728.4337498915163
 21
634.43908616188639
  0
LINE
  8
_0-0_計極細
  6
CONTINUOUS
 62
    2
 10
721.43374989151641
 20
729.43908616188639
 11
728.4337498915163
 21
729.43908616188639
  0
LINE
  8
_0-0_計極細
  6
CONTINUOUS
 62
    2
 10
721.43374989151641
 20
734.43908616188639
 11
728.4337498915163
 21
734.43908616188639
  0
LINE
  8
_0-0_計極細
  6
CONTINUOUS
 62
    2
 10
711.43374989151641
 20
629.43908616188639
 11
718.4337498915163
 21
629.43908616188639
  0
LINE
  8
_0-0_計極細
  6
CONTINUOUS
 62
    2
 10
711.43374989151641
 20
634.43908616188639
 11
718.4337498915163
 21
634.43908616188639
  0
LINE
  8
_0-0_計極細
  6
CONTINUOUS
 62
    2
 10
711.43374989151641
 20
729.43908616188639
 11
718.4337498915163
 21
729.43908616188639
  0
LINE
  8
_0-0_計極細
  6
CONTINUOUS
 62
    2
 10
711.43374989151641
 20
734.43908616188639
 11
718.4337498915163
 21
734.43908616188639
  0
LINE
  8
_0-0_計極細
  6
CONTINUOUS
 62
    2
 10
701.43374989151641
 20
629.43908616188639
 11
708.4337498915163
 21
629.43908616188639
  0
LINE
  8
_0-0_計極細
  6
CONTINUOUS
 62
    2
 10
701.43374989151641
 20
634.43908616188639
 11
708.4337498915163
 21
634.43908616188639
  0
LINE
  8
_0-0_計極細
  6
CONTINUOUS
 62
    2
 10
701.43374989151641
 20
729.43908616188639
 11
708.4337498915163
 21
729.43908616188639
  0
LINE
  8
_0-0_計極細
  6
CONTINUOUS
 62
    2
 10
701.43374989151641
 20
734.43908616188639
 11
708.4337498915163
 21
734.43908616188639
  0
LINE
  8
_0-0_計極細
  6
CONTINUOUS
 62
    2
 10
691.43374989151641
 20
629.43908616188639
 11
698.4337498915163
 21
629.43908616188639
  0
LINE
  8
_0-0_計極細
  6
CONTINUOUS
 62
    2
 10
691.43374989151641
 20
634.43908616188639
 11
698.4337498915163
 21
634.43908616188639
  0
LINE
  8
_0-0_計極細
  6
CONTINUOUS
 62
    2
 10
691.43374989151641
 20
729.43908616188639
 11
698.4337498915163
 21
729.43908616188639
  0
LINE
  8
_0-0_計極細
  6
CONTINUOUS
 62
    2
 10
691.43374989151641
 20
734.43908616188639
 11
698.4337498915163
 21
734.43908616188639
  0
LINE
  8
_0-0_計極細
  6
CONTINUOUS
 62
    2
 10
681.43374989151641
 20
629.43908616188639
 11
688.4337498915163
 21
629.43908616188639
  0
LINE
  8
_0-0_計極細
  6
CONTINUOUS
 62
    2
 10
681.43374989151641
 20
634.43908616188639
 11
688.4337498915163
 21
634.43908616188639
  0
LINE
  8
_0-0_計極細
  6
CONTINUOUS
 62
    2
 10
681.43374989151641
 20
729.43908616188639
 11
688.4337498915163
 21
729.43908616188639
  0
LINE
  8
_0-0_計極細
  6
CONTINUOUS
 62
    2
 10
681.43374989151641
 20
734.43908616188639
 11
688.4337498915163
 21
734.43908616188639
  0
LINE
  8
_0-0_計極細
  6
CONTINUOUS
 62
    2
 10
671.43374989151641
 20
629.43908616188639
 11
678.4337498915163
 21
629.43908616188639
  0
LINE
  8
_0-0_計極細
  6
CONTINUOUS
 62
    2
 10
671.43374989151641
 20
634.43908616188639
 11
678.4337498915163
 21
634.43908616188639
  0
LINE
  8
_0-0_計極細
  6
CONTINUOUS
 62
    2
 10
671.43374989151641
 20
729.43908616188639
 11
678.4337498915163
 21
729.43908616188639
  0
LINE
  8
_0-0_計極細
  6
CONTINUOUS
 62
    2
 10
671.43374989151641
 20
734.43908616188639
 11
678.4337498915163
 21
734.43908616188639
  0
LINE
  8
_0-0_計極細
  6
CONTINUOUS
 62
    2
 10
661.43374989151641
 20
629.43908616188639
 11
668.4337498915163
 21
629.43908616188639
  0
LINE
  8
_0-0_計極細
  6
CONTINUOUS
 62
    2
 10
661.43374989151641
 20
634.43908616188639
 11
668.4337498915163
 21
634.43908616188639
  0
LINE
  8
_0-0_計極細
  6
CONTINUOUS
 62
    2
 10
661.43374989151641
 20
729.43908616188639
 11
668.4337498915163
 21
729.43908616188639
  0
LINE
  8
_0-0_計極細
  6
CONTINUOUS
 62
    2
 10
661.43374989151641
 20
734.43908616188639
 11
668.4337498915163
 21
734.43908616188639
  0
LINE
  8
_0-0_計極細
  6
CONTINUOUS
 62
    2
 10
651.43374989151641
 20
629.43908616188639
 11
658.4337498915163
 21
629.43908616188639
  0
LINE
  8
_0-0_計極細
  6
CONTINUOUS
 62
    2
 10
651.43374989151641
 20
634.43908616188639
 11
658.4337498915163
 21
634.43908616188639
  0
LINE
  8
_0-0_計極細
  6
CONTINUOUS
 62
    2
 10
651.43374989151641
 20
729.43908616188639
 11
658.4337498915163
 21
729.43908616188639
  0
LINE
  8
_0-0_計極細
  6
CONTINUOUS
 62
    2
 10
651.43374989151641
 20
734.43908616188639
 11
658.4337498915163
 21
734.43908616188639
  0
LINE
  8
_0-0_計極細
  6
CONTINUOUS
 62
    2
 10
641.43374989151641
 20
629.43908616188639
 11
648.4337498915163
 21
629.43908616188639
  0
LINE
  8
_0-0_計極細
  6
CONTINUOUS
 62
    2
 10
641.43374989151641
 20
634.43908616188639
 11
648.4337498915163
 21
634.43908616188639
  0
LINE
  8
_0-0_計極細
  6
CONTINUOUS
 62
    2
 10
641.43374989151641
 20
729.43908616188639
 11
648.4337498915163
 21
729.43908616188639
  0
LINE
  8
_0-0_計極細
  6
CONTINUOUS
 62
    2
 10
641.43374989151641
 20
734.43908616188639
 11
648.4337498915163
 21
734.43908616188639
  0
LINE
  8
_0-0_計極細
  6
CONTINUOUS
 62
    2
 10
631.4337498915163
 20
629.43908616188639
 11
638.4337498915163
 21
629.43908616188639
  0
LINE
  8
_0-0_計極細
  6
CONTINUOUS
 62
    2
 10
631.4337498915163
 20
634.43908616188639
 11
638.4337498915163
 21
634.43908616188639
  0
LINE
  8
_0-0_計極細
  6
CONTINUOUS
 62
    2
 10
631.4337498915163
 20
729.43908616188639
 11
638.4337498915163
 21
729.43908616188639
  0
LINE
  8
_0-0_計極細
  6
CONTINUOUS
 62
    2
 10
631.4337498915163
 20
734.43908616188639
 11
638.4337498915163
 21
734.43908616188639
  0
LINE
  8
_0-0_計極細
  6
CONTINUOUS
 62
    2
 10
621.4337498915163
 20
629.43908616188639
 11
628.4337498915163
 21
629.43908616188639
  0
LINE
  8
_0-0_計極細
  6
CONTINUOUS
 62
    2
 10
621.4337498915163
 20
634.43908616188639
 11
628.4337498915163
 21
634.43908616188639
  0
LINE
  8
_0-0_計極細
  6
CONTINUOUS
 62
    2
 10
621.4337498915163
 20
729.43908616188639
 11
628.4337498915163
 21
729.43908616188639
  0
LINE
  8
_0-0_計極細
  6
CONTINUOUS
 62
    2
 10
621.4337498915163
 20
734.43908616188639
 11
628.4337498915163
 21
734.43908616188639
  0
LINE
  8
_0-0_計極細
  6
CONTINUOUS
 62
    2
 10
611.4337498915163
 20
629.43908616188639
 11
618.4337498915163
 21
629.43908616188639
  0
LINE
  8
_0-0_計極細
  6
CONTINUOUS
 62
    2
 10
611.4337498915163
 20
634.43908616188639
 11
618.4337498915163
 21
634.43908616188639
  0
LINE
  8
_0-0_計極細
  6
CONTINUOUS
 62
    2
 10
611.4337498915163
 20
729.43908616188639
 11
618.4337498915163
 21
729.43908616188639
  0
LINE
  8
_0-0_計極細
  6
CONTINUOUS
 62
    2
 10
611.4337498915163
 20
734.43908616188639
 11
618.4337498915163
 21
734.43908616188639
  0
LINE
  8
_0-0_計極細
  6
CONTINUOUS
 62
    2
 10
601.4337498915163
 20
629.43908616188639
 11
608.4337498915163
 21
629.43908616188639
  0
LINE
  8
_0-0_計極細
  6
CONTINUOUS
 62
    2
 10
601.4337498915163
 20
634.43908616188639
 11
608.4337498915163
 21
634.43908616188639
  0
LINE
  8
_0-0_計極細
  6
CONTINUOUS
 62
    2
 10
601.4337498915163
 20
729.43908616188639
 11
608.4337498915163
 21
729.43908616188639
  0
LINE
  8
_0-0_計極細
  6
CONTINUOUS
 62
    2
 10
601.4337498915163
 20
734.43908616188639
 11
608.4337498915163
 21
734.43908616188639
  0
LINE
  8
_0-0_計極細
  6
CONTINUOUS
 62
    2
 10
591.4337498915163
 20
629.43908616188639
 11
598.4337498915163
 21
629.43908616188639
  0
LINE
  8
_0-0_計極細
  6
CONTINUOUS
 62
    2
 10
591.4337498915163
 20
634.43908616188639
 11
598.4337498915163
 21
634.43908616188639
  0
LINE
  8
_0-0_計極細
  6
CONTINUOUS
 62
    2
 10
591.4337498915163
 20
729.43908616188639
 11
598.4337498915163
 21
729.43908616188639
  0
LINE
  8
_0-0_計極細
  6
CONTINUOUS
 62
    2
 10
591.4337498915163
 20
734.43908616188639
 11
598.4337498915163
 21
734.43908616188639
  0
LINE
  8
_0-0_計極細
  6
CONTINUOUS
 62
    2
 10
581.4337498915163
 20
629.43908616188639
 11
588.4337498915163
 21
629.43908616188639
  0
LINE
  8
_0-0_計極細
  6
CONTINUOUS
 62
    2
 10
581.4337498915163
 20
634.43908616188639
 11
588.4337498915163
 21
634.43908616188639
  0
LINE
  8
_0-0_計極細
  6
CONTINUOUS
 62
    2
 10
581.4337498915163
 20
729.43908616188639
 11
588.4337498915163
 21
729.43908616188639
  0
LINE
  8
_0-0_計極細
  6
CONTINUOUS
 62
    2
 10
581.4337498915163
 20
734.43908616188639
 11
588.4337498915163
 21
734.43908616188639
  0
LINE
  8
_0-0_計極細
  6
CONTINUOUS
 62
    2
 10
571.4337498915163
 20
629.43908616188639
 11
578.4337498915163
 21
629.43908616188639
  0
LINE
  8
_0-0_計極細
  6
CONTINUOUS
 62
    2
 10
571.4337498915163
 20
634.43908616188639
 11
578.4337498915163
 21
634.43908616188639
  0
LINE
  8
_0-0_計極細
  6
CONTINUOUS
 62
    2
 10
571.4337498915163
 20
729.43908616188639
 11
578.4337498915163
 21
729.43908616188639
  0
LINE
  8
_0-0_計極細
  6
CONTINUOUS
 62
    2
 10
571.4337498915163
 20
734.43908616188639
 11
578.4337498915163
 21
734.43908616188639
  0
LINE
  8
_0-0_計極細
  6
CONTINUOUS
 62
    2
 10
561.4337498915163
 20
629.43908616188639
 11
568.4337498915163
 21
629.43908616188639
  0
LINE
  8
_0-0_計極細
  6
CONTINUOUS
 62
    2
 10
561.4337498915163
 20
634.43908616188639
 11
568.4337498915163
 21
634.43908616188639
  0
LINE
  8
_0-0_計極細
  6
CONTINUOUS
 62
    2
 10
561.4337498915163
 20
729.43908616188639
 11
568.4337498915163
 21
729.43908616188639
  0
LINE
  8
_0-0_計極細
  6
CONTINUOUS
 62
    2
 10
561.4337498915163
 20
734.43908616188639
 11
568.4337498915163
 21
734.43908616188639
  0
LINE
  8
_0-0_計極細
  6
CONTINUOUS
 62
    2
 10
551.4337498915163
 20
629.43908616188639
 11
558.4337498915163
 21
629.43908616188639
  0
LINE
  8
_0-0_計極細
  6
CONTINUOUS
 62
    2
 10
551.4337498915163
 20
634.43908616188639
 11
558.4337498915163
 21
634.43908616188639
  0
LINE
  8
_0-0_計極細
  6
CONTINUOUS
 62
    2
 10
551.4337498915163
 20
729.43908616188639
 11
558.4337498915163
 21
729.43908616188639
  0
LINE
  8
_0-0_計極細
  6
CONTINUOUS
 62
    2
 10
551.4337498915163
 20
734.43908616188639
 11
558.4337498915163
 21
734.43908616188639
  0
LINE
  8
_0-0_計極細
  6
CONTINUOUS
 62
    2
 10
541.4337498915163
 20
629.43908616188639
 11
548.4337498915163
 21
629.43908616188639
  0
LINE
  8
_0-0_計極細
  6
CONTINUOUS
 62
    2
 10
541.4337498915163
 20
634.43908616188639
 11
548.4337498915163
 21
634.43908616188639
  0
LINE
  8
_0-0_計極細
  6
CONTINUOUS
 62
    2
 10
541.4337498915163
 20
729.43908616188639
 11
548.4337498915163
 21
729.43908616188639
  0
LINE
  8
_0-0_計極細
  6
CONTINUOUS
 62
    2
 10
541.4337498915163
 20
734.43908616188639
 11
548.4337498915163
 21
734.43908616188639
  0
LINE
  8
_0-0_計極細
  6
CONTINUOUS
 62
    2
 10
531.4337498915163
 20
629.43908616188639
 11
538.4337498915163
 21
629.43908616188639
  0
LINE
  8
_0-0_計極細
  6
CONTINUOUS
 62
    2
 10
531.4337498915163
 20
634.43908616188639
 11
538.4337498915163
 21
634.43908616188639
  0
LINE
  8
_0-0_計極細
  6
CONTINUOUS
 62
    2
 10
531.4337498915163
 20
729.43908616188639
 11
538.4337498915163
 21
729.43908616188639
  0
LINE
  8
_0-0_計極細
  6
CONTINUOUS
 62
    2
 10
531.4337498915163
 20
734.43908616188639
 11
538.4337498915163
 21
734.43908616188639
  0
LINE
  8
_0-0_計極細
  6
CONTINUOUS
 62
    2
 10
521.4337498915163
 20
629.43908616188639
 11
528.4337498915163
 21
629.43908616188639
  0
LINE
  8
_0-0_計極細
  6
CONTINUOUS
 62
    2
 10
521.4337498915163
 20
634.43908616188639
 11
528.4337498915163
 21
634.43908616188639
  0
LINE
  8
_0-0_計極細
  6
CONTINUOUS
 62
    2
 10
521.4337498915163
 20
729.43908616188639
 11
528.4337498915163
 21
729.43908616188639
  0
LINE
  8
_0-0_計極細
  6
CONTINUOUS
 62
    2
 10
521.4337498915163
 20
734.43908616188639
 11
528.4337498915163
 21
734.43908616188639
  0
LINE
  8
_0-0_計極細
  6
CONTINUOUS
 62
    2
 10
511.4337498915163
 20
629.43908616188639
 11
518.4337498915163
 21
629.43908616188639
  0
LINE
  8
_0-0_計極細
  6
CONTINUOUS
 62
    2
 10
511.4337498915163
 20
634.43908616188639
 11
518.4337498915163
 21
634.43908616188639
  0
LINE
  8
_0-0_計極細
  6
CONTINUOUS
 62
    2
 10
511.4337498915163
 20
729.43908616188639
 11
518.4337498915163
 21
729.43908616188639
  0
LINE
  8
_0-0_計極細
  6
CONTINUOUS
 62
    2
 10
511.4337498915163
 20
734.43908616188639
 11
518.4337498915163
 21
734.43908616188639
  0
LINE
  8
_0-0_計極細
  6
CONTINUOUS
 62
    2
 10
501.4337498915163
 20
629.43908616188639
 11
508.43374989151636
 21
629.43908616188639
  0
LINE
  8
_0-0_計極細
  6
CONTINUOUS
 62
    2
 10
501.4337498915163
 20
634.43908616188639
 11
508.43374989151636
 21
634.43908616188639
  0
LINE
  8
_0-0_計極細
  6
CONTINUOUS
 62
    2
 10
501.4337498915163
 20
729.43908616188639
 11
508.43374989151636
 21
729.43908616188639
  0
LINE
  8
_0-0_計極細
  6
CONTINUOUS
 62
    2
 10
501.4337498915163
 20
734.43908616188639
 11
508.43374989151636
 21
734.43908616188639
  0
LINE
  8
_0-0_計極細
  6
CONTINUOUS
 62
    2
 10
491.4337498915163
 20
629.43908616188639
 11
498.43374989151636
 21
629.43908616188639
  0
LINE
  8
_0-0_計極細
  6
CONTINUOUS
 62
    2
 10
491.4337498915163
 20
634.43908616188639
 11
498.43374989151636
 21
634.43908616188639
  0
LINE
  8
_0-0_計極細
  6
CONTINUOUS
 62
    2
 10
491.4337498915163
 20
729.43908616188639
 11
498.43374989151636
 21
729.43908616188639
  0
LINE
  8
_0-0_計極細
  6
CONTINUOUS
 62
    2
 10
491.4337498915163
 20
734.43908616188639
 11
498.43374989151636
 21
734.43908616188639
  0
LINE
  8
_0-0_計極細
  6
CONTINUOUS
 62
    2
 10
481.4337498915163
 20
629.43908616188639
 11
488.43374989151636
 21
629.43908616188639
  0
LINE
  8
_0-0_計極細
  6
CONTINUOUS
 62
    2
 10
481.4337498915163
 20
634.43908616188639
 11
488.43374989151636
 21
634.43908616188639
  0
LINE
  8
_0-0_計極細
  6
CONTINUOUS
 62
    2
 10
481.4337498915163
 20
729.43908616188639
 11
488.43374989151636
 21
729.43908616188639
  0
LINE
  8
_0-0_計極細
  6
CONTINUOUS
 62
    2
 10
481.4337498915163
 20
734.43908616188639
 11
488.43374989151636
 21
734.43908616188639
  0
LINE
  8
_0-0_計極細
  6
CONTINUOUS
 62
    2
 10
471.4337498915163
 20
629.43908616188639
 11
478.43374989151636
 21
629.43908616188639
  0
LINE
  8
_0-0_計極細
  6
CONTINUOUS
 62
    2
 10
471.4337498915163
 20
634.43908616188639
 11
478.43374989151636
 21
634.43908616188639
  0
LINE
  8
_0-0_計極細
  6
CONTINUOUS
 62
    2
 10
471.4337498915163
 20
729.43908616188639
 11
478.43374989151636
 21
729.43908616188639
  0
LINE
  8
_0-0_計極細
  6
CONTINUOUS
 62
    2
 10
471.4337498915163
 20
734.43908616188639
 11
478.43374989151636
 21
734.43908616188639
  0
LINE
  8
_0-0_計極細
  6
CONTINUOUS
 62
    2
 10
461.4337498915163
 20
629.43908616188639
 11
468.43374989151636
 21
629.43908616188639
  0
LINE
  8
_0-0_計極細
  6
CONTINUOUS
 62
    2
 10
461.4337498915163
 20
634.43908616188639
 11
468.43374989151636
 21
634.43908616188639
  0
LINE
  8
_0-0_計極細
  6
CONTINUOUS
 62
    2
 10
461.4337498915163
 20
729.43908616188639
 11
468.43374989151636
 21
729.43908616188639
  0
LINE
  8
_0-0_計極細
  6
CONTINUOUS
 62
    2
 10
461.4337498915163
 20
734.43908616188639
 11
468.43374989151636
 21
734.43908616188639
  0
LINE
  8
_0-0_計極細
  6
CONTINUOUS
 62
    2
 10
451.4337498915163
 20
629.43908616188639
 11
458.43374989151636
 21
629.43908616188639
  0
LINE
  8
_0-0_計極細
  6
CONTINUOUS
 62
    2
 10
451.4337498915163
 20
634.43908616188639
 11
458.43374989151636
 21
634.43908616188639
  0
LINE
  8
_0-0_計極細
  6
CONTINUOUS
 62
    2
 10
451.4337498915163
 20
729.43908616188639
 11
458.43374989151636
 21
729.43908616188639
  0
LINE
  8
_0-0_計極細
  6
CONTINUOUS
 62
    2
 10
451.4337498915163
 20
734.43908616188639
 11
458.43374989151636
 21
734.43908616188639
  0
LINE
  8
_0-0_計極細
  6
CONTINUOUS
 62
    2
 10
441.4337498915163
 20
629.43908616188639
 11
448.43374989151636
 21
629.43908616188639
  0
LINE
  8
_0-0_計極細
  6
CONTINUOUS
 62
    2
 10
441.4337498915163
 20
634.43908616188639
 11
448.43374989151636
 21
634.43908616188639
  0
LINE
  8
_0-0_計極細
  6
CONTINUOUS
 62
    2
 10
441.4337498915163
 20
729.43908616188639
 11
448.43374989151636
 21
729.43908616188639
  0
LINE
  8
_0-0_計極細
  6
CONTINUOUS
 62
    2
 10
441.4337498915163
 20
734.43908616188639
 11
448.43374989151636
 21
734.43908616188639
  0
LINE
  8
_0-0_計極細
  6
CONTINUOUS
 62
    2
 10
431.4337498915163
 20
629.43908616188639
 11
438.43374989151636
 21
629.43908616188639
  0
LINE
  8
_0-0_計極細
  6
CONTINUOUS
 62
    2
 10
431.4337498915163
 20
634.43908616188639
 11
438.43374989151636
 21
634.43908616188639
  0
LINE
  8
_0-0_計極細
  6
CONTINUOUS
 62
    2
 10
431.4337498915163
 20
729.43908616188639
 11
438.43374989151636
 21
729.43908616188639
  0
LINE
  8
_0-0_計極細
  6
CONTINUOUS
 62
    2
 10
431.4337498915163
 20
734.43908616188639
 11
438.43374989151636
 21
734.43908616188639
  0
LINE
  8
_0-0_計極細
  6
CONTINUOUS
 62
    2
 10
421.4337498915163
 20
629.43908616188639
 11
428.43374989151636
 21
629.43908616188639
  0
LINE
  8
_0-0_計極細
  6
CONTINUOUS
 62
    2
 10
421.4337498915163
 20
634.43908616188639
 11
428.43374989151636
 21
634.43908616188639
  0
LINE
  8
_0-0_計極細
  6
CONTINUOUS
 62
    2
 10
421.4337498915163
 20
729.43908616188639
 11
428.43374989151636
 21
729.43908616188639
  0
LINE
  8
_0-0_計極細
  6
CONTINUOUS
 62
    2
 10
421.4337498915163
 20
734.43908616188639
 11
428.43374989151636
 21
734.43908616188639
  0
LINE
  8
_0-0_計極細
  6
CONTINUOUS
 62
    2
 10
411.4337498915163
 20
629.43908616188639
 11
418.43374989151636
 21
629.43908616188639
  0
LINE
  8
_0-0_計極細
  6
CONTINUOUS
 62
    2
 10
411.4337498915163
 20
634.43908616188639
 11
418.43374989151636
 21
634.43908616188639
  0
LINE
  8
_0-0_計極細
  6
CONTINUOUS
 62
    2
 10
411.4337498915163
 20
729.43908616188639
 11
418.43374989151636
 21
729.43908616188639
  0
LINE
  8
_0-0_計極細
  6
CONTINUOUS
 62
    2
 10
411.4337498915163
 20
734.43908616188639
 11
418.43374989151636
 21
734.43908616188639
  0
LINE
  8
_0-0_計極細
  6
CONTINUOUS
 62
    2
 10
401.4337498915163
 20
629.43908616188639
 11
408.43374989151636
 21
629.43908616188639
  0
LINE
  8
_0-0_計極細
  6
CONTINUOUS
 62
    2
 10
401.4337498915163
 20
634.43908616188639
 11
408.43374989151636
 21
634.43908616188639
  0
LINE
  8
_0-0_計極細
  6
CONTINUOUS
 62
    2
 10
401.4337498915163
 20
729.43908616188639
 11
408.43374989151636
 21
729.43908616188639
  0
LINE
  8
_0-0_計極細
  6
CONTINUOUS
 62
    2
 10
401.4337498915163
 20
734.43908616188639
 11
408.43374989151636
 21
734.43908616188639
  0
LINE
  8
_0-0_計極細
  6
CONTINUOUS
 62
    2
 10
391.4337498915163
 20
629.43908616188639
 11
398.43374989151636
 21
629.43908616188639
  0
LINE
  8
_0-0_計極細
  6
CONTINUOUS
 62
    2
 10
391.4337498915163
 20
634.43908616188639
 11
398.43374989151636
 21
634.43908616188639
  0
LINE
  8
_0-0_計極細
  6
CONTINUOUS
 62
    2
 10
391.4337498915163
 20
729.43908616188639
 11
398.43374989151636
 21
729.43908616188639
  0
LINE
  8
_0-0_計極細
  6
CONTINUOUS
 62
    2
 10
391.4337498915163
 20
734.43908616188639
 11
398.43374989151636
 21
734.43908616188639
  0
LINE
  8
_0-0_計極細
  6
CONTINUOUS
 62
    2
 10
381.4337498915163
 20
629.43908616188639
 11
388.43374989151636
 21
629.43908616188639
  0
LINE
  8
_0-0_計極細
  6
CONTINUOUS
 62
    2
 10
381.4337498915163
 20
634.43908616188639
 11
388.43374989151636
 21
634.43908616188639
  0
LINE
  8
_0-0_計極細
  6
CONTINUOUS
 62
    2
 10
381.4337498915163
 20
729.43908616188639
 11
388.43374989151636
 21
729.43908616188639
  0
LINE
  8
_0-0_計極細
  6
CONTINUOUS
 62
    2
 10
381.4337498915163
 20
734.43908616188639
 11
388.43374989151636
 21
734.43908616188639
  0
LINE
  8
_0-0_計極細
  6
CONTINUOUS
 62
    2
 10
371.4337498915163
 20
629.43908616188639
 11
378.43374989151636
 21
629.43908616188639
  0
LINE
  8
_0-0_計極細
  6
CONTINUOUS
 62
    2
 10
371.4337498915163
 20
634.43908616188639
 11
378.43374989151636
 21
634.43908616188639
  0
LINE
  8
_0-0_計極細
  6
CONTINUOUS
 62
    2
 10
371.4337498915163
 20
729.43908616188639
 11
378.43374989151636
 21
729.43908616188639
  0
LINE
  8
_0-0_計極細
  6
CONTINUOUS
 62
    2
 10
371.4337498915163
 20
734.43908616188639
 11
378.43374989151636
 21
734.43908616188639
  0
LINE
  8
_0-0_計極細
  6
CONTINUOUS
 62
    2
 10
361.4337498915163
 20
629.43908616188639
 11
368.43374989151636
 21
629.43908616188639
  0
LINE
  8
_0-0_計極細
  6
CONTINUOUS
 62
    2
 10
361.4337498915163
 20
634.43908616188639
 11
368.43374989151636
 21
634.43908616188639
  0
LINE
  8
_0-0_計極細
  6
CONTINUOUS
 62
    2
 10
361.4337498915163
 20
729.43908616188639
 11
368.43374989151636
 21
729.43908616188639
  0
LINE
  8
_0-0_計極細
  6
CONTINUOUS
 62
    2
 10
361.4337498915163
 20
734.43908616188639
 11
368.43374989151636
 21
734.43908616188639
  0
LINE
  8
_0-0_計極細
  6
CONTINUOUS
 62
    2
 10
351.4337498915163
 20
629.43908616188639
 11
358.43374989151636
 21
629.43908616188639
  0
LINE
  8
_0-0_計極細
  6
CONTINUOUS
 62
    2
 10
351.4337498915163
 20
634.43908616188639
 11
358.43374989151636
 21
634.43908616188639
  0
LINE
  8
_0-0_計極細
  6
CONTINUOUS
 62
    2
 10
351.4337498915163
 20
729.43908616188639
 11
358.43374989151636
 21
729.43908616188639
  0
LINE
  8
_0-0_計極細
  6
CONTINUOUS
 62
    2
 10
351.4337498915163
 20
734.43908616188639
 11
358.43374989151636
 21
734.43908616188639
  0
LINE
  8
_0-0_計極細
  6
CONTINUOUS
 62
    2
 10
341.4337498915163
 20
629.43908616188639
 11
348.43374989151636
 21
629.43908616188639
  0
LINE
  8
_0-0_計極細
  6
CONTINUOUS
 62
    2
 10
341.4337498915163
 20
634.43908616188639
 11
348.43374989151636
 21
634.43908616188639
  0
LINE
  8
_0-0_計極細
  6
CONTINUOUS
 62
    2
 10
341.4337498915163
 20
729.43908616188639
 11
348.43374989151636
 21
729.43908616188639
  0
LINE
  8
_0-0_計極細
  6
CONTINUOUS
 62
    2
 10
341.4337498915163
 20
734.43908616188639
 11
348.43374989151636
 21
734.43908616188639
  0
LINE
  8
_0-0_計極細
  6
CONTINUOUS
 62
    2
 10
331.4337498915163
 20
629.43908616188639
 11
338.43374989151636
 21
629.43908616188639
  0
LINE
  8
_0-0_計極細
  6
CONTINUOUS
 62
    2
 10
331.4337498915163
 20
634.43908616188639
 11
338.43374989151636
 21
634.43908616188639
  0
LINE
  8
_0-0_計極細
  6
CONTINUOUS
 62
    2
 10
331.4337498915163
 20
729.43908616188639
 11
338.43374989151636
 21
729.43908616188639
  0
LINE
  8
_0-0_計極細
  6
CONTINUOUS
 62
    2
 10
331.4337498915163
 20
734.43908616188639
 11
338.43374989151636
 21
734.43908616188639
  0
LINE
  8
_0-0_計極細
  6
CONTINUOUS
 62
    2
 10
321.4337498915163
 20
629.43908616188639
 11
328.43374989151636
 21
629.43908616188639
  0
LINE
  8
_0-0_計極細
  6
CONTINUOUS
 62
    2
 10
321.4337498915163
 20
634.43908616188639
 11
328.43374989151636
 21
634.43908616188639
  0
LINE
  8
_0-0_計極細
  6
CONTINUOUS
 62
    2
 10
321.4337498915163
 20
729.43908616188639
 11
328.43374989151636
 21
729.43908616188639
  0
LINE
  8
_0-0_計極細
  6
CONTINUOUS
 62
    2
 10
321.4337498915163
 20
734.43908616188639
 11
328.43374989151636
 21
734.43908616188639
  0
LINE
  8
_0-0_計極細
  6
CONTINUOUS
 62
    2
 10
311.4337498915163
 20
629.43908616188639
 11
318.4337498915163
 21
629.43908616188639
  0
LINE
  8
_0-0_計極細
  6
CONTINUOUS
 62
    2
 10
311.4337498915163
 20
634.43908616188639
 11
318.4337498915163
 21
634.43908616188639
  0
LINE
  8
_0-0_計極細
  6
CONTINUOUS
 62
    2
 10
311.4337498915163
 20
729.43908616188639
 11
318.4337498915163
 21
729.43908616188639
  0
LINE
  8
_0-0_計極細
  6
CONTINUOUS
 62
    2
 10
311.4337498915163
 20
734.43908616188639
 11
318.4337498915163
 21
734.43908616188639
  0
LINE
  8
_0-0_計極細
  6
CONTINUOUS
 62
    2
 10
301.4337498915163
 20
629.43908616188639
 11
308.4337498915163
 21
629.43908616188639
  0
LINE
  8
_0-0_計極細
  6
CONTINUOUS
 62
    2
 10
301.4337498915163
 20
634.43908616188639
 11
308.4337498915163
 21
634.43908616188639
  0
LINE
  8
_0-0_計極細
  6
CONTINUOUS
 62
    2
 10
301.4337498915163
 20
729.43908616188639
 11
308.4337498915163
 21
729.43908616188639
  0
LINE
  8
_0-0_計極細
  6
CONTINUOUS
 62
    2
 10
301.4337498915163
 20
734.43908616188639
 11
308.4337498915163
 21
734.43908616188639
  0
LINE
  8
_0-0_計極細
  6
CONTINUOUS
 62
    2
 10
291.4337498915163
 20
629.43908616188639
 11
298.4337498915163
 21
629.43908616188639
  0
LINE
  8
_0-0_計極細
  6
CONTINUOUS
 62
    2
 10
291.4337498915163
 20
634.43908616188639
 11
298.4337498915163
 21
634.43908616188639
  0
LINE
  8
_0-0_計極細
  6
CONTINUOUS
 62
    2
 10
291.4337498915163
 20
729.43908616188639
 11
298.4337498915163
 21
729.43908616188639
  0
LINE
  8
_0-0_計極細
  6
CONTINUOUS
 62
    2
 10
291.4337498915163
 20
734.43908616188639
 11
298.4337498915163
 21
734.43908616188639
  0
LINE
  8
_0-0_計極細
  6
CONTINUOUS
 62
    2
 10
281.4337498915163
 20
629.43908616188639
 11
288.4337498915163
 21
629.43908616188639
  0
LINE
  8
_0-0_計極細
  6
CONTINUOUS
 62
    2
 10
281.4337498915163
 20
634.43908616188639
 11
288.4337498915163
 21
634.43908616188639
  0
LINE
  8
_0-0_計極細
  6
CONTINUOUS
 62
    2
 10
281.4337498915163
 20
729.43908616188639
 11
288.4337498915163
 21
729.43908616188639
  0
LINE
  8
_0-0_計極細
  6
CONTINUOUS
 62
    2
 10
281.4337498915163
 20
734.43908616188639
 11
288.4337498915163
 21
734.43908616188639
  0
LINE
  8
_0-0_計極細
  6
CONTINUOUS
 62
    2
 10
271.4337498915163
 20
629.43908616188639
 11
278.4337498915163
 21
629.43908616188639
  0
LINE
  8
_0-0_計極細
  6
CONTINUOUS
 62
    2
 10
271.4337498915163
 20
634.43908616188639
 11
278.4337498915163
 21
634.43908616188639
  0
LINE
  8
_0-0_計極細
  6
CONTINUOUS
 62
    2
 10
271.4337498915163
 20
729.43908616188639
 11
278.4337498915163
 21
729.43908616188639
  0
LINE
  8
_0-0_計極細
  6
CONTINUOUS
 62
    2
 10
271.4337498915163
 20
734.43908616188639
 11
278.4337498915163
 21
734.43908616188639
  0
LINE
  8
_0-0_計極細
  6
CONTINUOUS
 62
    2
 10
261.4337498915163
 20
629.43908616188639
 11
268.4337498915163
 21
629.43908616188639
  0
LINE
  8
_0-0_計極細
  6
CONTINUOUS
 62
    2
 10
261.4337498915163
 20
634.43908616188639
 11
268.4337498915163
 21
634.43908616188639
  0
LINE
  8
_0-0_計極細
  6
CONTINUOUS
 62
    2
 10
261.4337498915163
 20
729.43908616188639
 11
268.4337498915163
 21
729.43908616188639
  0
LINE
  8
_0-0_計極細
  6
CONTINUOUS
 62
    2
 10
261.4337498915163
 20
734.43908616188639
 11
268.4337498915163
 21
734.43908616188639
  0
LINE
  8
_0-0_計極細
  6
CONTINUOUS
 62
    2
 10
251.4337498915163
 20
629.43908616188639
 11
258.4337498915163
 21
629.43908616188639
  0
LINE
  8
_0-0_計極細
  6
CONTINUOUS
 62
    2
 10
251.4337498915163
 20
634.43908616188639
 11
258.4337498915163
 21
634.43908616188639
  0
LINE
  8
_0-0_計極細
  6
CONTINUOUS
 62
    2
 10
251.4337498915163
 20
729.43908616188639
 11
258.4337498915163
 21
729.43908616188639
  0
LINE
  8
_0-0_計極細
  6
CONTINUOUS
 62
    2
 10
251.4337498915163
 20
734.43908616188639
 11
258.4337498915163
 21
734.43908616188639
  0
ARC
  8
_0-0_計極細
  6
CONTINUOUS
 62
    2
 10
1236.4433688347051
 20
804.43908616188196
 40
15.000000000036371
 50
330.00000000009993
 51
29.999999999930402
  0
ARC
  8
_0-0_計極細
  6
CONTINUOUS
 62
    2
 10
1262.4241309482722
 20
789.43908616189788
 40
14.999999999996563
 50
150.00000000001793
 51
210.00000000005798
  0
ARC
  8
_0-0_計極細
  6
CONTINUOUS
 62
    2
 10
1236.4433688347635
 20
574.43908616188969
 40
14.999999999989658
 50
329.99999999996317
 51
30.00000000001284
  0
ARC
  8
_0-0_計極細
  6
CONTINUOUS
 62
    2
 10
1262.4241309482429
 20
559.43908616189458
 40
14.999999999969544
 50
149.99999999994964
 51
210.00000000010303
  0
ARC
  8
_0-0_計極細
  6
CONTINUOUS
 62
    2
 10
187.44336883475881
 20
804.43908616189003
 40
14.999999999993854
 50
329.99999999997038
 51
30.000000000005667
  0
ARC
  8
_0-0_計極細
  6
CONTINUOUS
 62
    2
 10
213.42413094826753
 20
789.43908616189003
 40
14.999999999988354
 50
149.99999999998181
 51
210.00000000004107
  0
ARC
  8
_0-0_計極細
  6
CONTINUOUS
 62
    2
 10
187.44336883477331
 20
574.43908616188594
 40
14.999999999979083
 50
329.99999999995606
 51
30.000000000047088
  0
LINE
  8
_0-0_計極細
  6
CONTINUOUS
 62
    2
 10
231.4337498915163
 20
629.43908616188639
 11
238.43374989151627
 21
629.43908616188639
  0
LINE
  8
_0-0_計極細
  6
CONTINUOUS
 62
    2
 10
231.4337498915163
 20
634.43908616188639
 11
238.43374989151627
 21
634.43908616188639
  0
LINE
  8
_0-0_計極細
  6
CONTINUOUS
 62
    2
 10
231.4337498915163
 20
729.43908616188639
 11
238.43374989151627
 21
729.43908616188639
  0
LINE
  8
_0-0_計極細
  6
CONTINUOUS
 62
    2
 10
231.4337498915163
 20
734.43908616188639
 11
238.43374989151627
 21
734.43908616188639
  0
LINE
  8
_0-0_計極細
  6
CONTINUOUS
 62
    2
 10
241.4337498915163
 20
629.43908616188639
 11
248.43374989151627
 21
629.43908616188639
  0
LINE
  8
_0-0_計極細
  6
CONTINUOUS
 62
    2
 10
241.4337498915163
 20
634.43908616188639
 11
248.43374989151627
 21
634.43908616188639
  0
LINE
  8
_0-0_計極細
  6
CONTINUOUS
 62
    2
 10
241.4337498915163
 20
729.43908616188639
 11
248.43374989151627
 21
729.43908616188639
  0
LINE
  8
_0-0_計極細
  6
CONTINUOUS
 62
    2
 10
241.4337498915163
 20
734.43908616188639
 11
248.43374989151627
 21
734.43908616188639
  0
LINE
  8
_0-0_計極細
  6
CENTER2
 62
    2
 10
212.54515035449757
 20
681.93908616188639
 11
1239.251338605103
 21
681.93908616188639
  0
LINE
  8
_0-5_寸法線
  6
CONTINUOUS
 62
    7
 10
621.46713656523912
 20
553.31706851132014
 11
626.4671365763636
 21
544.65681447989846
  0
LINE
  8
_0-5_寸法線
  6
CONTINUOUS
 62
    7
 10
621.46713656523912
 20
553.31706851132014
 11
621.46713657808459
 21
543.31706851132014
  0
LINE
  8
_0-5_寸法線
  6
CONTINUOUS
 62
    7
 10
621.46713656523912
 20
553.31706851132014
 11
633.30850612270456
 21
509.12447591872763
  0
LINE
  8
_0-5_寸法線
  6
CONTINUOUS
 62
    7
 10
633.30850612270456
 20
509.12447591872763
 11
741.30850612270467
 21
509.12447591872763
  0
TEXT
  8
_0-5_寸法線
 62
    7
 10
633.30850612270456
 20
509.72447591872759
 40
15
 41
0.8000000000000001
 50
0
  1
ＳＵＳアングル受枠
  0
LINE
  8
_0-5_寸法線
  6
CONTINUOUS
 62
    7
 10
829.55110933707488
 20
596.29578965970245
 11
834.55110933707488
 21
587.63553562185791
  0
LINE
  8
_0-5_寸法線
  6
CONTINUOUS
 62
    7
 10
829.55110933707488
 20
596.29578965970245
 11
829.55110933707488
 21
586.29578965970245
  0
LINE
  8
_0-5_寸法線
  6
CONTINUOUS
 62
    7
 10
829.55110933707488
 20
596.29578965970245
 11
852.90859245712898
 21
509.12447591872763
  0
LINE
  8
_0-5_寸法線
  6
CONTINUOUS
 62
    7
 10
852.90859245712898
 20
509.12447591872763
 11
987.34760467224885
 21
509.12447591872763
  0
TEXT
  8
_0-5_寸法線
 62
    7
 10
855.34760467224885
 20
509.12447591872763
 40
15
 41
0.8000000000000001
 50
0
  1
ステンレスグレーチング
  0
ARC
  8
_0-0_計極細
  6
CONTINUOUS
 62
    2
 10
213.42413094825432
 20
559.43908616188594
 40
14.999999999974561
 50
149.99999999994213
 51
210.00000000004974
  0
LINE
  8
_0-5_寸法線
  6
CONTINUOUS
 62
    7
 10
1261.4433688347415
 20
551.93908616188685
 11
1341.3456878857417
 21
551.93908616188662
  0
LINE
  8
_0-5_寸法線
  6
CONTINUOUS
 62
    7
 10
1336.3456878857417
 20
551.93908616188662
 11
1333.7574974347167
 21
561.59834442477734
  0
LINE
  8
_0-5_寸法線
  6
CONTINUOUS
 62
    7
 10
1336.3456878857417
 20
551.93908616188662
 11
1338.9338783367668
 21
561.59834442477734
  0
LINE
  8
_0-5_寸法線
  6
CONTINUOUS
 62
    7
 10
1261.4433688347415
 20
811.93908616188594
 11
1341.3456878857417
 21
811.93908616188583
  0
LINE
  8
_0-5_寸法線
  6
CONTINUOUS
 62
    7
 10
1336.3456878857417
 20
811.93908616188583
 11
1338.9338783367668
 21
802.27982789899499
  0
LINE
  8
_0-5_寸法線
  6
CONTINUOUS
 62
    7
 10
1336.3456878857417
 20
811.93908616188583
 11
1333.7574974347167
 21
802.27982789899499
  0
LINE
  8
_0-5_寸法線
  6
CONTINUOUS
 62
    7
 10
1336.3456878857417
 20
551.93908616188662
 11
1336.3456878857417
 21
811.93908616188583
  0
TEXT
  8
_0-5_寸法線
 62
    7
 10
1336.3456878857417
 20
670.68908616188628
 40
15
 41
1
 50
90
  1
260
  0
LINE
  8
_0-5_寸法線
  6
CONTINUOUS
 62
    7
 10
188.42413094827975
 20
551.93908616188685
 11
143.42413094827933
 21
551.93908616188708
  0
LINE
  8
_0-5_寸法線
  6
CONTINUOUS
 62
    7
 10
148.42413094827933
 20
551.93908616188708
 11
145.83594049725411
 21
561.59834442477779
  0
LINE
  8
_0-5_寸法線
  6
CONTINUOUS
 62
    7
 10
148.42413094827933
 20
551.93908616188708
 11
151.01232139930454
 21
561.59834442477779
  0
LINE
  8
_0-5_寸法線
  6
CONTINUOUS
 62
    7
 10
188.42413094827975
 20
581.93908616188776
 11
143.42413094827933
 21
581.93908616188799
  0
LINE
  8
_0-5_寸法線
  6
CONTINUOUS
 62
    7
 10
148.42413094827933
 20
581.93908616188799
 11
151.01232139930445
 21
572.27982789899727
  0
LINE
  8
_0-5_寸法線
  6
CONTINUOUS
 62
    7
 10
148.42413094827933
 20
581.93908616188799
 11
145.83594049725406
 21
572.27982789899727
  0
LINE
  8
_0-5_寸法線
  6
CONTINUOUS
 62
    7
 10
148.42413094827933
 20
551.93908616188708
 11
148.42413094827933
 21
581.93908616188799
  0
TEXT
  8
_0-5_寸法線
 62
    7
 10
148.42413094827933
 20
559.43908616188753
 40
15
 41
1
 50
90
  1
30
  0
LINE
  8
_0-5_寸法線
  6
CONTINUOUS
 62
    7
 10
148.42413094827933
 20
581.93908616188799
 11
145.83594049725411
 21
591.5983444247787
  0
LINE
  8
_0-5_寸法線
  6
CONTINUOUS
 62
    7
 10
148.42413094827933
 20
581.93908616188799
 11
151.01232139930454
 21
591.5983444247787
  0
LINE
  8
_0-5_寸法線
  6
CONTINUOUS
 62
    7
 10
188.42413094827975
 20
781.93908616188651
 11
143.42413094827933
 21
781.93908616188662
  0
LINE
  8
_0-5_寸法線
  6
CONTINUOUS
 62
    7
 10
148.42413094827933
 20
781.93908616188662
 11
151.01232139930445
 21
772.27982789899602
  0
LINE
  8
_0-5_寸法線
  6
CONTINUOUS
 62
    7
 10
148.42413094827933
 20
781.93908616188662
 11
145.83594049725406
 21
772.27982789899602
  0
LINE
  8
_0-5_寸法線
  6
CONTINUOUS
 62
    7
 10
148.42413094827933
 20
581.93908616188799
 11
148.42413094827933
 21
781.93908616188662
  0
TEXT
  8
_0-5_寸法線
 62
    7
 10
148.42413094827924
 20
670.68908616188742
 40
15
 41
1
 50
89.999999999999815
  1
200
  0
LINE
  8
_0-5_寸法線
  6
CONTINUOUS
 62
    7
 10
148.42413094827933
 20
781.93908616188662
 11
145.83594049725411
 21
791.59834442477745
  0
LINE
  8
_0-5_寸法線
  6
CONTINUOUS
 62
    7
 10
148.42413094827933
 20
781.93908616188662
 11
151.01232139930454
 21
791.59834442477745
  0
LINE
  8
_0-5_寸法線
  6
CONTINUOUS
 62
    7
 10
188.42413094827975
 20
811.93908616188651
 11
143.42413094827933
 21
811.93908616188662
  0
LINE
  8
_0-5_寸法線
  6
CONTINUOUS
 62
    7
 10
148.42413094827933
 20
811.93908616188662
 11
151.01232139930445
 21
802.27982789899602
  0
LINE
  8
_0-5_寸法線
  6
CONTINUOUS
 62
    7
 10
148.42413094827933
 20
811.93908616188662
 11
145.83594049725406
 21
802.27982789899602
  0
LINE
  8
_0-5_寸法線
  6
CONTINUOUS
 62
    7
 10
148.42413094827933
 20
781.93908616188662
 11
148.42413094827933
 21
811.93908616188662
  0
TEXT
  8
_0-5_寸法線
 62
    7
 10
148.42413094827933
 20
789.43908616188662
 40
15
 41
1
 50
90
  1
30
  0
LINE
  8
_0-5_寸法線
  6
CONTINUOUS
 62
    7
 10
228.43374989151636
 20
821.93908616188651
 11
228.43374989151627
 21
866.93908616188651
  0
LINE
  8
_0-5_寸法線
  6
CONTINUOUS
 62
    7
 10
228.43374989151627
 20
861.93908616188651
 11
238.09300815440702
 21
864.52727661291169
  0
LINE
  8
_0-5_寸法線
  6
CONTINUOUS
 62
    7
 10
228.43374989151627
 20
861.93908616188651
 11
238.09300815440702
 21
859.35089571086121
  0
LINE
  8
_0-5_寸法線
  6
CONTINUOUS
 62
    7
 10
1221.4337498915163
 20
821.93908616188651
 11
1221.4337498915163
 21
866.93908616188651
  0
LINE
  8
_0-5_寸法線
  6
CONTINUOUS
 62
    7
 10
1221.4337498915163
 20
861.93908616188651
 11
1211.7744916286256
 21
859.35089571086121
  0
LINE
  8
_0-5_寸法線
  6
CONTINUOUS
 62
    7
 10
1221.4337498915163
 20
861.93908616188651
 11
1211.7744916286256
 21
864.52727661291169
  0
LINE
  8
_0-5_寸法線
  6
CONTINUOUS
 62
    7
 10
228.43374989151627
 20
861.93908616188651
 11
1221.4337498915163
 21
861.93908616188651
  0
TEXT
  8
_0-5_寸法線
 62
    7
 10
713.6837498915163
 20
861.93908616188651
 40
15
 41
1
 50
0
  1
993
  0
TEXT
  8
_0-5_寸法線
 62
    7
 10
633.30850612270456
 20
494.12447591872763
 40
15
 41
0.8000000000000001
 50
0
  1
ＧＳＬ－１５
  0
TEXT
  8
_0-5_寸法線
 62
    7
 10
852.90859245712898
 20
494.12447591872763
 40
15
 41
0.8000000000000001
 50
0
  1
ＧＳＦＪ－１５Ｗ２５０
  0
TEXT
  8
_0-7_枠細線
 62
    5
 10
965.50000000000011
 20
110
 40
20
 41
0.6
 50
0
  1
ＧＳＦＪ－１５Ｗ２５０
  0
TEXT
  8
_0-7_枠細線
 62
    5
 10
965.49999999999966
 20
70
 40
20.000000000000004
 41
0.5999999999999997
 50
0
  1
表面形状については記号表参照のこと
  0
LINE
  8
_0-7_枠細線
  6
CONTINUOUS
 62
    5
 10
1409.4018171150183
 20
328.47321710336234
 11
1409.4018171150183
 21
223.47321710336274
  0
TEXT
  8
_0-7_枠細線
 62
    5
 10
1318.4018171150192
 20
308.47321710336234
 40
15.000000000000002
 41
0.8
 50
0
  1
ノンスリップ
  0
TEXT
  8
_0-7_枠細線
 62
    5
 10
1330.4018171150185
 20
283.47321710336234
 40
15.000000000000002
 41
0.8
 50
0
  1
品番－Ｄ
  0
LINE
  8
_0-7_枠細線
  6
CONTINUOUS
 62
    5
 10
1299.4018171150178
 20
328.47321710336234
 11
1299.4018171150178
 21
223.47321710336274
  0
TEXT
  8
_0-7_枠細線
 62
    5
 10
1220.4018171150178
 20
308.4732171033624
 40
15.000000000000002
 41
0.8
 50
0
  1
プレーン
  0
TEXT
  8
_0-7_枠細線
 62
    5
 10
1220.4018171150185
 20
283.47321710336234
 40
15.000000000000002
 41
0.8
 50
0
  1
品番－Ｆ
  0
TEXT
  8
_0-7_枠細線
 62
    5
 10
1140.4018171150183
 20
308.47321710336234
 40
15.000000000000002
 41
0.8
 50
0
  1
タ イ プ
  0
LINE
  8
_0-7_枠細線
  6
CONTINUOUS
 62
    5
 10
1139.4018171150174
 20
278.47321710336234
 11
1409.4018171150183
 21
278.47321710336234
  0
LINE
  8
_0-7_枠細線
  6
CONTINUOUS
 62
    5
 10
1139.4018171150174
 20
303.47321710336234
 11
1409.4018171150183
 21
303.47321710336234
  0
LINE
  8
_0-7_枠細線
  6
CONTINUOUS
 62
    5
 10
1139.4018171150174
 20
328.47321710336234
 11
1409.4018171150183
 21
328.47321710336234
  0
LINE
  8
_0-7_枠細線
  6
CONTINUOUS
 62
    5
 10
1139.4018171150174
 20
223.47321710336274
 11
1409.4018171150183
 21
223.47321710336274
  0
LINE
  8
_0-7_枠細線
  6
CONTINUOUS
 62
    5
 10
1189.4018171150183
 20
328.47321710336234
 11
1189.4018171150183
 21
223.47321710336274
  0
LINE
  8
_0-7_枠細線
  6
CONTINUOUS
 62
    5
 10
1139.4018171150174
 20
328.47321710336234
 11
1139.4018171150174
 21
223.47321710336274
  0
TEXT
  8
_0-7_枠細線
 62
    5
 10
1140.4018171150183
 20
243.47321710336257
 40
15.000000000000002
 41
0.8
 50
0
  1
表面形状
  0
TEXT
  8
_0-7_枠細線
 62
    5
 10
1147.1760284558286
 20
330.9732171033624
 40
17.500000000000004
 41
0.7999999999999996
 50
0
  1
記号表
  0
TEXT
  8
_0-7_枠細線
 62
    5
 10
1140.4018171150183
 20
283.47321710336246
 40
15.000000000000002
 41
0.8
 50
0
  1
記　　号
  0
ARC
  8
_0-7_枠細線
  6
CONTINUOUS
 62
    5
 10
1285.5023462775741
 20
245.17647202943709
 40
8.5903566658075761
 50
317.56162900000447
 51
42.438370999995371
  0
ARC
  8
_0-7_枠細線
  6
CONTINUOUS
 62
    5
 10
1190.621859620396
 20
245.17647202943709
 40
8.5903566658076702
 50
317.56162899999947
 51
42.43837100000087
  0
ARC
  8
_0-7_枠細線
  6
CONTINUOUS
 62
    5
 10
1203.3012879524622
 20
256.76996202827797
 40
8.5903566658076702
 50
137.56162899999987
 51
222.43837100000292
  0
ARC
  8
_0-7_枠細線
  6
CONTINUOUS
 62
    5
 10
1298.1817746096403
 20
256.76996202827797
 40
8.5903566658075761
 50
137.56162899999941
 51
222.4383710000034
  0
LINE
  8
_0-7_枠細線
  6
CONTINUOUS
 62
    5
 10
1194.8814809446508
 20
258.47321702885716
 11
1289.7619676018294
 21
258.47321702885716
  0
LINE
  8
_0-7_枠細線
  6
CONTINUOUS
 62
    5
 10
1293.9221532853853
 20
243.47321702885765
 11
1199.0416666282072
 21
243.47321702885765
  0
ARC
  8
_0-7_枠細線
  6
CONTINUOUS
 62
    5
 10
1301.122215453679
 20
245.17647202943706
 40
8.5903566658075761
 50
317.5616290000001
 51
42.438371000001837
  0
ARC
  8
_0-7_枠細線
  6
CONTINUOUS
 62
    5
 10
1313.8016437857441
 20
256.76996202827786
 40
8.5903566658075761
 50
137.56162900000044
 51
222.43837100000019
  0
ARC
  8
_0-7_枠細線
  6
CONTINUOUS
 62
    5
 10
1396.0027021108588
 20
245.17647202943706
 40
8.5903566658075761
 50
317.56162899999799
 51
42.438371000001837
  0
ARC
  8
_0-7_枠細線
  6
CONTINUOUS
 62
    5
 10
1408.6821304429236
 20
256.76996202827786
 40
8.5903566658075761
 50
137.56162900000146
 51
222.43837100000019
  0
LINE
  8
_0-7_枠細線
  6
CONTINUOUS
 62
    5
 10
1305.3818367779329
 20
258.47321702885711
 11
1400.2623234351113
 21
258.47321702885711
  0
LINE
  8
_0-7_枠細線
  6
CONTINUOUS
 62
    5
 10
1404.4225091186672
 20
243.47321702885762
 11
1309.5420224614893
 21
243.47321702885762
  0
LINE
  8
_0-7_枠細線
  6
CONTINUOUS
 62
    5
 10
1305.319542326198
 20
258.12944077976692
 11
1319.975766077107
 21
243.47321702885773
  0
LINE
  8
_0-7_枠細線
  6
CONTINUOUS
 62
    5
 10
1315.5823677949058
 20
258.47321702885711
 11
1330.5823677949052
 21
243.47321702885773
  0
LINE
  8
_0-7_枠細線
  6
CONTINUOUS
 62
    5
 10
1326.1889695127043
 20
258.47321702885711
 11
1341.1889695127034
 21
243.47321702885773
  0
LINE
  8
_0-7_枠細線
  6
CONTINUOUS
 62
    5
 10
1336.7955712305022
 20
258.47321702885711
 11
1351.7955712305015
 21
243.47321702885773
  0
LINE
  8
_0-7_枠細線
  6
CONTINUOUS
 62
    5
 10
1347.4021729483002
 20
258.47321702885711
 11
1362.4021729482997
 21
243.47321702885762
  0
LINE
  8
_0-7_枠細線
  6
CONTINUOUS
 62
    5
 10
1358.0087746660984
 20
258.47321702885711
 11
1373.0087746660977
 21
243.47321702885762
  0
LINE
  8
_0-7_枠細線
  6
CONTINUOUS
 62
    5
 10
1368.6153763838965
 20
258.47321702885711
 11
1383.6153763838959
 21
243.47321702885762
  0
LINE
  8
_0-7_枠細線
  6
CONTINUOUS
 62
    5
 10
1379.2219781016945
 20
258.47321702885711
 11
1394.2219781016943
 21
243.47321702885762
  0
LINE
  8
_0-7_枠細線
  6
CONTINUOUS
 62
    5
 10
1389.8285798194929
 20
258.47321702885711
 11
1404.4848035704022
 21
243.81699327794757
  0
LINE
  8
_0-7_枠細線
  6
CONTINUOUS
 62
    5
 10
1400.4351815372913
 20
243.47321702885762
 11
1404.3132122249604
 21
247.3512477165265
  0
LINE
  8
_0-7_枠細線
  6
CONTINUOUS
 62
    5
 10
1389.8285798194931
 20
243.47321702885762
 11
1400.502099021217
 21
254.14673623058133
  0
LINE
  8
_0-7_枠細線
  6
CONTINUOUS
 62
    5
 10
1379.2219781016952
 20
243.47321702885762
 11
1394.2219781016945
 21
258.47321702885711
  0
LINE
  8
_0-7_枠細線
  6
CONTINUOUS
 62
    5
 10
1368.6153763838968
 20
243.47321702885762
 11
1383.6153763838965
 21
258.47321702885711
  0
LINE
  8
_0-7_枠細線
  6
CONTINUOUS
 62
    5
 10
1358.0087746660988
 20
243.47321702885773
 11
1373.0087746660979
 21
258.47321702885711
  0
LINE
  8
_0-7_枠細線
  6
CONTINUOUS
 62
    5
 10
1347.4021729483004
 20
243.47321702885773
 11
1362.4021729482999
 21
258.47321702885711
  0
LINE
  8
_0-7_枠細線
  6
CONTINUOUS
 62
    5
 10
1336.7955712305022
 20
243.47321702885773
 11
1351.7955712305015
 21
258.47321702885711
  0
LINE
  8
_0-7_枠細線
  6
CONTINUOUS
 62
    5
 10
1326.1889695127038
 20
243.47321702885773
 11
1341.1889695127034
 21
258.47321702885711
  0
LINE
  8
_0-7_枠細線
  6
CONTINUOUS
 62
    5
 10
1315.5823677949056
 20
243.47321702885773
 11
1330.5823677949052
 21
258.47321702885711
  0
LINE
  8
_0-7_枠細線
  6
CONTINUOUS
 62
    5
 10
1309.3022468753834
 20
247.79969782713346
 11
1319.975766077107
 21
258.47321702885711
  0
LINE
  8
_0-7_枠細線
  6
CONTINUOUS
 62
    5
 10
1305.4911336716398
 20
254.59518634118811
 11
1309.369164359309
 21
258.47321702885711
  0
LINE
  8
_0-9_枠極太
  6
CONTINUOUS
 62
    5
 10
60
 20
60
 11
60
 21
960
  0
LINE
  8
_0-9_枠極太
  6
CONTINUOUS
 62
    5
 10
60
 20
960
 11
1425
 21
960
  0
LINE
  8
_0-9_枠極太
  6
CONTINUOUS
 62
    5
 10
1425
 20
960
 11
1425
 21
60
  0
LINE
  8
_0-9_枠極太
  6
CONTINUOUS
 62
    5
 10
1425
 20
60
 11
60
 21
60
  0
LINE
  8
_0-7_枠細線
  6
CONTINUOUS
 62
    5
 10
1425
 20
907.5
 11
890
 21
907.5
  0
LINE
  8
_0-7_枠細線
  6
CONTINUOUS
 62
    5
 10
915
 20
908.94233397174708
 11
907.5
 21
923.94233397174708
  0
LINE
  8
_0-7_枠細線
  6
CONTINUOUS
 62
    5
 10
900
 20
908.94233397174708
 11
915
 21
908.94233397174708
  0
LINE
  8
_0-7_枠細線
  6
CONTINUOUS
 62
    5
 10
907.5
 20
923.94233397174708
 11
900
 21
908.94233397174708
  0
TEXT
  8
_0-7_枠細線
 62
    5
 10
902.36515126814822
 20
908.63533172636653
 40
12.5
 41
0.8
 50
0
  1
１
  0
TEXT
  8
_0-7_枠細線
 62
    5
 10
1180
 20
910
 40
12.5
 41
0.7199999999999999
 50
0
  1
２０１９．０９．０１
  0
TEXT
  8
_0-7_枠細線
 62
    5
 10
938.85037037037023
 20
910
 40
12.500000000000002
 41
1
 50
0
  1
アンカー材質･厚み変更
  0
LINE
  8
_0-7_枠細線
  6
CONTINUOUS
 62
    5
 10
890
 20
907.5
 11
890
 21
959.99999999999909
  0
LINE
  8
_0-7_枠細線
  6
CONTINUOUS
 62
    5
 10
925
 20
907.5
 11
925
 21
959.99999999999943
  0
LINE
  8
_0-7_枠細線
  6
CONTINUOUS
 62
    5
 10
1175
 20
907.5
 11
1175
 21
959.99999999999943
  0
LINE
  8
_0-7_枠細線
  6
CONTINUOUS
 62
    5
 10
1275
 20
907.5
 11
1275
 21
959.99999999999943
  0
LINE
  8
_0-a_極細3
  6
CONTINUOUS
 62
    7
 10
690.93065965627363
 20
256.56810626811466
 11
687.09732632294026
 21
256.56810626811466
  0
LINE
  8
_0-a_極細3
  6
CONTINUOUS
 62
    7
 10
690.93065965627363
 20
259.90143960144815
 11
687.09732632294026
 21
259.90143960144815
  0
LINE
  8
_0-a_極細3
  6
CONTINUOUS
 62
    7
 10
690.93065965627363
 20
253.23477293478163
 11
687.09732632294026
 21
253.23477293478163
  0
LINE
  8
_0-a_極細3
  6
CONTINUOUS
 62
    7
 10
690.93065965627363
 20
263.23477293478163
 11
687.09732632294026
 21
263.23477293478163
  0
LINE
  8
_0-a_極細3
  6
CONTINUOUS
 62
    7
 10
687.09732632294026
 20
229.90143960144817
 11
690.93065965627363
 21
229.90143960144817
  0
LINE
  8
_0-a_極細3
  6
CONTINUOUS
 62
    7
 10
690.93065965627363
 20
279.90143960144815
 11
687.09732632294026
 21
279.90143960144815
  0
LINE
  8
_0-b_細線3
  6
CONTINUOUS
 62
    7
 10
687.09732632294026
 20
283.23477293478163
 11
687.09732632294026
 21
224.90143960144817
  0
LINE
  8
_0-b_細線3
  6
CONTINUOUS
 62
    7
 10
687.09732632294026
 20
224.90143960144817
 11
690.93065965627363
 21
224.90143960144817
  0
LINE
  8
_0-b_細線3
  6
CONTINUOUS
 62
    7
 10
690.93065965627363
 20
224.90143960144817
 11
690.93065965627363
 21
283.23477293478163
  0
LINE
  8
_0-b_細線3
  6
CONTINUOUS
 62
    7
 10
690.93065965627363
 20
283.23477293478163
 11
687.09732632294026
 21
283.23477293478163
  0
LINE
  8
_0-7_枠細線
  6
CONTINUOUS
 62
    5
 10
710.01652774951299
 20
260.96352293093548
 11
702.51652774951299
 21
275.96352293093548
  0
LINE
  8
_0-7_枠細線
  6
CONTINUOUS
 62
    5
 10
695.01652774951299
 20
260.96352293093548
 11
710.01652774951299
 21
260.96352293093548
  0
LINE
  8
_0-7_枠細線
  6
CONTINUOUS
 62
    5
 10
702.51652774951299
 20
275.96352293093548
 11
695.01652774951299
 21
260.96352293093548
  0
TEXT
  8
_0-7_枠細線
 62
    5
 10
697.38167901766121
 20
260.65652068555488
 40
12.5
 41
0.8
 50
0
  1
１
  0
LINE
  8
_0-a_極細3
  6
CONTINUOUS
 62
    7
 10
249.93065976981214
 20
256.56810575052759
 11
253.7639931031454
 21
256.56810575052759
  0
LINE
  8
_0-a_極細3
  6
CONTINUOUS
 62
    7
 10
249.93065976981214
 20
259.90143908386108
 11
253.7639931031454
 21
259.90143908386108
  0
LINE
  8
_0-a_極細3
  6
CONTINUOUS
 62
    7
 10
249.93065976981214
 20
253.23477241719459
 11
253.7639931031454
 21
253.23477241719459
  0
LINE
  8
_0-a_極細3
  6
CONTINUOUS
 62
    7
 10
249.93065976981214
 20
263.23477241719456
 11
253.7639931031454
 21
263.23477241719456
  0
LINE
  8
_0-a_極細3
  6
CONTINUOUS
 62
    7
 10
253.7639931031454
 20
229.90143908386108
 11
249.93065976981214
 21
229.90143908386108
  0
LINE
  8
_0-a_極細3
  6
CONTINUOUS
 62
    7
 10
249.93065976981214
 20
279.90143908386108
 11
253.7639931031454
 21
279.90143908386108
  0
LINE
  8
_0-b_細線3
  6
CONTINUOUS
 62
    7
 10
253.7639931031454
 20
283.23477241719456
 11
253.7639931031454
 21
224.90143908386108
  0
LINE
  8
_0-b_細線3
  6
CONTINUOUS
 62
    7
 10
253.7639931031454
 20
224.90143908386108
 11
249.93065976981214
 21
224.90143908386108
  0
LINE
  8
_0-b_細線3
  6
CONTINUOUS
 62
    7
 10
249.93065976981214
 20
224.90143908386108
 11
249.93065976981214
 21
283.23477241719456
  0
LINE
  8
_0-b_細線3
  6
CONTINUOUS
 62
    7
 10
249.93065976981214
 20
283.23477241719456
 11
253.7639931031454
 21
283.23477241719456
  0
LINE
  8
_0-d_寸法3
  6
CONTINUOUS
 62
    7
 10
243.7639931031454
 20
293.23477269126789
 11
197.81396202455596
 21
293.23477269126784
  0
LINE
  8
_0-d_寸法3
  6
CONTINUOUS
 62
    7
 10
202.81396202455596
 20
293.23477269126784
 11
205.40215247558109
 21
283.57551442837712
  0
LINE
  8
_0-d_寸法3
  6
CONTINUOUS
 62
    7
 10
202.81396202455596
 20
293.23477269126784
 11
200.22577157353069
 21
283.57551442837718
  0
LINE
  8
_0-d_寸法3
  6
CONTINUOUS
 62
    7
 10
239.93065976981214
 20
263.23477241719451
 11
197.8139620245561
 21
263.23477241719422
  0
LINE
  8
_0-d_寸法3
  6
CONTINUOUS
 62
    7
 10
202.8139620245561
 20
263.23477241719434
 11
200.22577157353089
 21
272.89403068008494
  0
LINE
  8
_0-d_寸法3
  6
CONTINUOUS
 62
    7
 10
202.8139620245561
 20
263.23477241719434
 11
205.40215247558137
 21
272.894030680085
  0
LINE
  8
_0-d_寸法3
  6
CONTINUOUS
 62
    7
 10
202.81396202455596
 20
293.23477269126784
 11
202.8139620245561
 21
263.23477241719434
  0
TEXT
  8
_0-d_寸法3
 62
    7
 10
202.8139620245561
 20
270.73477255423109
 40
15
 41
1
 50
90
  1
18
  0
LINE
  8
_0-d_寸法3
  6
CONTINUOUS
 62
    7
 10
239.93065976981214
 20
263.23477241719462
 11
197.8139620245561
 21
263.23477241719456
  0
LINE
  8
_0-d_寸法3
  6
CONTINUOUS
 62
    7
 10
202.8139620245561
 20
263.23477241719456
 11
205.40215247558132
 21
253.5755141543039
  0
LINE
  8
_0-d_寸法3
  6
CONTINUOUS
 62
    7
 10
202.8139620245561
 20
263.23477241719456
 11
200.22577157353089
 21
253.57551415430393
  0
LINE
  8
_0-d_寸法3
  6
CONTINUOUS
 62
    7
 10
239.93065976981214
 20
224.90143908386113
 11
197.8139620245561
 21
224.90143908386113
  0
LINE
  8
_0-d_寸法3
  6
CONTINUOUS
 62
    7
 10
202.8139620245561
 20
224.90143908386108
 11
200.22577157353089
 21
234.56069734675179
  0
LINE
  8
_0-d_寸法3
  6
CONTINUOUS
 62
    7
 10
202.8139620245561
 20
224.90143908386108
 11
205.40215247558137
 21
234.56069734675179
  0
LINE
  8
_0-d_寸法3
  6
CONTINUOUS
 62
    7
 10
202.8139620245561
 20
263.23477241719456
 11
202.8139620245561
 21
224.90143908386108
  0
TEXT
  8
_0-d_寸法3
 62
    7
 10
202.8139620245561
 20
236.56810575052793
 40
15
 41
1
 50
90
  1
23
  0
LINE
  8
_0-5_寸法線
  6
CONTINUOUS
 62
    7
 10
1261.4433688347415
 20
551.93908616188685
 11
1306.3456878857417
 21
551.93908616188662
  0
LINE
  8
_0-5_寸法線
  6
CONTINUOUS
 62
    7
 10
1301.3456878857417
 20
551.93908616188662
 11
1303.9338783367668
 21
542.2798278989959
  0
LINE
  8
_0-5_寸法線
  6
CONTINUOUS
 62
    7
 10
1301.3456878857417
 20
551.93908616188662
 11
1298.7574974347167
 21
542.2798278989959
  0
LINE
  8
_0-5_寸法線
  6
CONTINUOUS
 62
    7
 10
1261.4433688347415
 20
554.93908616188696
 11
1306.3456878857417
 21
554.93908616188662
  0
CIRCLE
  8
_0-5_寸法線
  6
CONTINUOUS
 62
    1
 10
1301.3456878857417
 20
554.93908616188662
 40
1.5000000000000002
  0
LINE
  8
_0-5_寸法線
  6
CONTINUOUS
 62
    7
 10
1301.3456878857417
 20
526.93908616188662
 11
1301.3456878857417
 21
554.93908616188662
  0
TEXT
  8
_0-5_寸法線
 62
    7
 10
1301.3456878857417
 20
529.89149752366791
 40
15
 41
1
 50
90
  1
3
  0
LINE
  8
_0-5_寸法線
  6
CONTINUOUS
 62
    7
 10
1261.4433688347415
 20
556.93908616188685
 11
1306.3456878857417
 21
556.93908616188662
  0
LINE
  8
_0-5_寸法線
  6
CONTINUOUS
 62
    7
 10
1301.3456878857417
 20
554.93908616188662
 11
1301.3456878857417
 21
556.93908616188662
  0
TEXT
  8
_0-5_寸法線
 62
    7
 10
1323.3988050674534
 20
555.91741166453835
 40
15
 41
1
 50
90
  1
2
  0
LINE
  8
_0-5_寸法線
  6
CONTINUOUS
 62
    7
 10
1301.3456878857417
 20
556.93908616188662
 11
1298.7574974347167
 21
566.59834442477734
  0
LINE
  8
_0-5_寸法線
  6
CONTINUOUS
 62
    7
 10
1301.3456878857417
 20
556.93908616188662
 11
1303.9338783367668
 21
566.59834442477734
  0
LINE
  8
_0-5_寸法線
  6
CONTINUOUS
 62
    7
 10
1261.4433688347415
 20
806.93908616188594
 11
1306.3456878857417
 21
806.93908616188583
  0
LINE
  8
_0-5_寸法線
  6
CONTINUOUS
 62
    7
 10
1301.3456878857417
 20
806.93908616188583
 11
1303.9338783367668
 21
797.27982789899499
  0
LINE
  8
_0-5_寸法線
  6
CONTINUOUS
 62
    7
 10
1301.3456878857417
 20
806.93908616188583
 11
1298.7574974347167
 21
797.27982789899499
  0
LINE
  8
_0-5_寸法線
  6
CONTINUOUS
 62
    7
 10
1301.3456878857417
 20
556.93908616188662
 11
1301.3456878857417
 21
806.93908616188583
  0
TEXT
  8
_0-5_寸法線
 62
    7
 10
1301.3456878857417
 20
670.68908616188628
 40
15
 41
1
 50
90
  1
250
  0
LINE
  8
_0-5_寸法線
  6
CONTINUOUS
 62
    7
 10
1261.4433688347415
 20
808.93908616188639
 11
1306.3456878857417
 21
808.93908616188628
  0
CIRCLE
  8
_0-5_寸法線
  6
CONTINUOUS
 62
    1
 10
1301.3456878857417
 20
808.93908616188628
 40
1.5000000000000002
  0
LINE
  8
_0-5_寸法線
  6
CONTINUOUS
 62
    7
 10
1301.3456878857417
 20
806.93908616188583
 11
1301.3456878857417
 21
808.93908616188628
  0
TEXT
  8
_0-5_寸法線
 62
    7
 10
1320.8092952246736
 20
800.75075967763257
 40
15
 41
1
 50
90
  1
2
  0
LINE
  8
_0-5_寸法線
  6
CONTINUOUS
 62
    7
 10
1261.4433688347415
 20
811.93908616188594
 11
1306.3456878857417
 21
811.93908616188583
  0
LINE
  8
_0-5_寸法線
  6
CONTINUOUS
 62
    7
 10
1301.3456878857417
 20
811.93908616188583
 11
1298.7574974347167
 21
821.59834442477643
  0
LINE
  8
_0-5_寸法線
  6
CONTINUOUS
 62
    7
 10
1301.3456878857417
 20
811.93908616188583
 11
1303.9338783367668
 21
821.59834442477643
  0
LINE
  8
_0-5_寸法線
  6
CONTINUOUS
 62
    7
 10
1301.3456878857417
 20
808.93908616188628
 11
1301.3456878857417
 21
836.93908616188583
  0
TEXT
  8
_0-5_寸法線
 62
    7
 10
1301.3456878857417
 20
824.20398995904293
 40
15
 41
1
 50
90
  1
3
  0
LINE
  8
_0-d_寸法3
  6
CONTINUOUS
 62
    7
 10
253.7639931031454
 20
378.23477269126784
 11
244.10473484025474
 21
375.64658224024265
  0
LINE
  8
_0-d_寸法3
  6
CONTINUOUS
 62
    7
 10
253.7639931031454
 20
378.23477269126784
 11
244.10473484025474
 21
380.82296314229313
  0
LINE
  8
_0-d_寸法3
  6
CONTINUOUS
 62
    7
 10
258.76399310314537
 20
297.40143935793435
 11
258.76399310314537
 21
383.23477269126784
  0
CIRCLE
  8
_0-d_寸法3
  6
CONTINUOUS
 62
    1
 10
258.76399310314537
 20
378.23477269126784
 40
1.5000000000000002
  0
LINE
  8
_0-d_寸法3
  6
CONTINUOUS
 62
    7
 10
228.7639931031454
 20
378.23477269126784
 11
258.76399310314537
 21
378.23477269126784
  0
TEXT
  8
_0-d_寸法3
 62
    7
 10
232.61932515922226
 20
378.23477269126784
 40
15
 41
1
 50
0
  1
3
  0
LINE
  8
_0-d_寸法3
  6
CONTINUOUS
 62
    7
 10
262.09732643647845
 20
294.90143768959001
 11
262.09732643647845
 21
383.23477269126784
  0
LINE
  8
_0-d_寸法3
  6
CONTINUOUS
 62
    7
 10
258.76399310314537
 20
378.23477269126784
 11
262.09732643647845
 21
378.23477269126784
  0
TEXT
  8
_0-d_寸法3
 62
    7
 10
256.680659769812
 20
378.23477269126784
 40
15
 41
1
 50
0
  1
2
  0
LINE
  8
_0-d_寸法3
  6
CONTINUOUS
 62
    7
 10
262.09732643647845
 20
378.23477269126784
 11
271.75658469936911
 21
380.82296314229302
  0
LINE
  8
_0-d_寸法3
  6
CONTINUOUS
 62
    7
 10
262.09732643647845
 20
378.23477269126784
 11
271.75658469936911
 21
375.64658224024265
  0
LINE
  8
_0-d_寸法3
  6
CONTINUOUS
 62
    7
 10
678.76399310314537
 20
294.90143768959001
 11
678.76399310314537
 21
383.23477269126784
  0
LINE
  8
_0-d_寸法3
  6
CONTINUOUS
 62
    7
 10
678.76399310314537
 20
378.23477269126784
 11
669.10473484025476
 21
375.64658224024265
  0
LINE
  8
_0-d_寸法3
  6
CONTINUOUS
 62
    7
 10
678.76399310314537
 20
378.23477269126784
 11
669.10473484025476
 21
380.82296314229313
  0
LINE
  8
_0-d_寸法3
  6
CONTINUOUS
 62
    7
 10
262.09732643647845
 20
378.23477269126784
 11
678.76399310314537
 21
378.23477269126784
  0
TEXT
  8
_0-d_寸法3
 62
    7
 10
459.180659769812
 20
378.23477269126784
 40
15
 41
1
 50
0
  1
250
  0
LINE
  8
_0-d_寸法3
  6
CONTINUOUS
 62
    7
 10
682.0973264364784
 20
297.40143935793435
 11
682.0973264364784
 21
383.23477269126784
  0
CIRCLE
  8
_0-d_寸法3
  6
CONTINUOUS
 62
    1
 10
682.0973264364784
 20
378.23477269126784
 40
1.5000000000000002
  0
LINE
  8
_0-d_寸法3
  6
CONTINUOUS
 62
    7
 10
678.76399310314537
 20
378.23477269126784
 11
682.0973264364784
 21
378.23477269126784
  0
TEXT
  8
_0-d_寸法3
 62
    7
 10
676.680659769812
 20
378.23477269126784
 40
15
 41
1
 50
0
  1
2
  0
LINE
  8
_0-d_寸法3
  6
CONTINUOUS
 62
    7
 10
687.0973264364784
 20
378.23477269126784
 11
696.75658469936923
 21
380.82296314229296
  0
LINE
  8
_0-d_寸法3
  6
CONTINUOUS
 62
    7
 10
687.0973264364784
 20
378.23477269126784
 11
696.75658469936923
 21
375.64658224024265
  0
LINE
  8
_0-d_寸法3
  6
CONTINUOUS
 62
    7
 10
682.0973264364784
 20
378.23477269126784
 11
712.0973264364784
 21
378.23477269126784
  0
TEXT
  8
_0-d_寸法3
 62
    7
 10
699.75252369558098
 20
378.23477269126784
 40
15
 41
1
 50
0
  1
3
  0
ENDSEC
  0
EOF
