  0
SECTION
  2
HEADER
  9
$ACADVER
  1
AC1009
  9
$INSBASE
 10
0
 20
0
 30
0
  9
$EXTMIN
 10
0
 20
0
  9
$EXTMAX
 10
1485
 20
1050
  9
$LIMMIN
 10
0
 20
0
  9
$LIMMAX
 10
1485
 20
1050
  9
$LTSCALE
 40
5
  0
ENDSEC
  0
SECTION
  2
TABLES
  0
TABLE
  2
LTYPE
 70
     9
  0
LTYPE
  2
CONTINUOUS
 70
    64
  3
実線
 72
    65
 73
     0
 40
0.0
  0
LTYPE
  2
DASHED1
 70
    64
  3
--  --  --  --  --  --  --  --  
 72
    65
 73
     2
 40
2.5
 49
1.25
 49
-1.25
  0
LTYPE
  2
DASHED2
 70
    64
  3
----    ----    ----    ----    
 72
    65
 73
     2
 40
5.0
 49
2.5
 49
-2.5
  0
LTYPE
  2
DASHED3
 70
    64
  3
------  ------  ------  ------  
 72
    65
 73
     2
 40
5.0
 49
3.75
 49
-1.25
  0
LTYPE
  2
CENTER1
 70
    64
  3
----- - ----- - ----- - ----- - 
 72
    65
 73
     4
 40
10.0
 49
6.25
 49
-1.25
 49
1.25
 49
-1.25
  0
LTYPE
  2
CENTER2
 70
    64
  3
----------  --  ----------  --  
 72
    65
 73
     4
 40
20.0
 49
12.5
 49
-2.5
 49
2.5
 49
-2.5
  0
LTYPE
  2
PHANTOM1
 70
    64
  3
--- - - --- - - --- - - --- - - 
 72
    65
 73
     6
 40
10.0
 49
3.25
 49
-1.25
 49
1.25
 49
-1.25
 49
1.25
 49
-1.25
  0
LTYPE
  2
PHANTOM2
 70
    64
  3
--------  -  -  --------  -  -  
 72
    65
 73
     6
 40
20.0
 49
10.0
 49
-2.5
 49
1.25
 49
-2.5
 49
1.25
 49
-2.5
  0
LTYPE
  2
DOT
 70
    64
  3
-   -   -   -   -   -   -   -   
 72
    65
 73
     2
 40
2.5
 49
0.625
 49
-1.875
  0
LTYPE
  2
DUMMY
 70
    64
  3
ダミー
 72
    65
 73
     0
 40
0.0
  0
LTYPE
  2
RAND1
 70
    64
  3
ランダム線1
 72
    65
 73
     4
 40
10.0
 49
1.0
 49
-2.0
 49
3.0
 49
-4.0
  0
LTYPE
  2
RAND2
 70
    64
  3
ランダム線2
 72
    65
 73
     4
 40
14.0
 49
2.0
 49
-3.0
 49
4.0
 49
-5.0
  0
LTYPE
  2
RAND3
 70
    64
  3
ランダム線3
 72
    65
 73
     4
 40
18.0
 49
3.0
 49
-4.0
 49
5.0
 49
-6.0
  0
LTYPE
  2
RAND4
 70
    64
  3
ランダム線4
 72
    65
 73
     4
 40
22.0
 49
4.0
 49
-5.0
 49
6.0
 49
-7.0
  0
LTYPE
  2
RAND5
 70
    64
  3
ランダム線5
 72
    65
 73
     4
 40
26.0
 49
5.0
 49
-6.0
 49
7.0
 49
-8.0
  0
LTYPE
  2
LONG1
 70
    64
  3
----------  --  ----------  --  
 72
    65
 73
     4
 40
40.0
 49
32.5
 49
-2.5
 49
2.5
 49
-2.5
  0
LTYPE
  2
LONG2
 70
    64
  3
--------  -  -  --------  -  -  
 72
    65
 73
     6
 40
40.0
 49
30.0
 49
-2.5
 49
1.25
 49
-2.5
 49
1.25
 49
-2.5
  0
LTYPE
  2
LONG3
 70
    64
  3
+++++++++++++++..+++++++++++++++
 72
    65
 73
     2
 40
40.0
 49
37.5
 49
-2.5
  0
LTYPE
  2
LONG4
 70
    64
  3
+++++++++++++++..+++++++++++++++
 72
    65
 73
     2
 40
80.0
 49
75.0
 49
-5.0
  0
LTYPE
  2
LONG5
 70
    64
  3
----------  --  ----------  --  
 72
    65
 73
     4
 40
60.0
 49
37.5
 49
-7.5
 49
7.5
 49
-7.5
  0
LTYPE
  2
dashed
 70
   64
  3
-------   -------------   ------
 72
   65
 73
    2
 40
7.5
 49
6
 49
-1.5
  0
LTYPE
  2
dashed_spaced
 70
   64
  3
----        --------        ----
 72
   65
 73
    2
 40
12
 49
6
 49
-6
  0
LTYPE
  2
long_dashed_dotted
 70
   64
  3
------------- --- --------------
 72
   65
 73
    4
 40
15.25
 49
12
 49
-1.5
 49
0.25
 49
-1.5
  0
LTYPE
  2
long_dashed_double-dotted
 70
   64
  3
----------- --- --- ------------
 72
   65
 73
    6
 40
17
 49
12
 49
-1.5
 49
0.25
 49
-1.5
 49
0.25
 49
-1.5
  0
LTYPE
  2
long_dashed_triplicate-dotted
 70
   64
  3
--------- --- --- --- ----------
 72
   65
 73
    8
 40
18.75
 49
12
 49
-1.5
 49
0.25
 49
-1.5
 49
0.25
 49
-1.5
 49
0.25
 49
-1.5
  0
LTYPE
  2
dotted
 70
   64
  3
   -       -       -       -    
 72
   65
 73
    2
 40
1.75
 49
0.25
 49
-1.5
  0
LTYPE
  2
chain
 70
   64
  3
-------------- -- --------------
 72
   65
 73
    4
 40
18.5
 49
12
 49
-1.5
 49
3.5
 49
-1.5
  0
LTYPE
  2
chain_double_dash
 70
   64
  3
------------ -- -- -------------
 72
   65
 73
    6
 40
23.5
 49
12
 49
-1.5
 49
3.5
 49
-1.5
 49
3.5
 49
-1.5
  0
LTYPE
  2
dashed_dotted
 70
   64
  3
-----------     -     ----------
 72
   65
 73
    4
 40
9.25
 49
6
 49
-1.5
 49
0.25
 49
-1.5
  0
LTYPE
  2
double-dashed_dotted
 70
   64
  3
------   -----------   -   -----
 72
   65
 73
    6
 40
16.75
 49
6
 49
-1.5
 49
6
 49
-1.5
 49
0.25
 49
-1.5
  0
LTYPE
  2
dashed_double-dotted
 70
   64
  3
---------    -    -    ---------
 72
   65
 73
    6
 40
11
 49
6
 49
-1.5
 49
0.25
 49
-1.5
 49
0.25
 49
-1.5
  0
LTYPE
  2
double-dashed_double-dotted
 70
   64
  3
-----   ---------   -   -   ----
 72
   65
 73
    8
 40
18.5
 49
6
 49
-1.5
 49
6
 49
-1.5
 49
0.25
 49
-1.5
 49
0.25
 49
-1.5
  0
LTYPE
  2
dashed_triplicate-dotted
 70
   64
  3
-------    -    -    -    ------
 72
   65
 73
    8
 40
12.75
 49
6
 49
-1.5
 49
0.25
 49
-1.5
 49
0.25
 49
-1.5
 49
0.25
 49
-1.5
  0
LTYPE
  2
double-dashed_triplicate-dotted
 70
   64
  3
-----  ---------  -  -  -  -----
 72
   65
 73
   10
 40
20.25
 49
6
 49
-1.5
 49
6
 49
-1.5
 49
0.25
 49
-1.5
 49
0.25
 49
-1.5
 49
0.25
 49
-1.5
  0
LTYPE
  2
undefined
 70
   64
  3
--------------------------------
 72
   65
 73
    0
 40
0
  0
ENDTAB
  0
TABLE
  2
STYLE
  5
3
100
AcDbSymbolTable
 70
     1
  0
STYLE
  5
10
100
AcDbSymbolTableRecord
100
AcDbTextStyleTableRecord
  2
STANDARD
 70
     0
 40
0.0
 41
1.0
 50
0.0
 71
     0
 42
0.2
  3
txt
  4
bigfont.shx
  0
STYLE
  5
26
100
AcDbSymbolTableRecord
100
AcDbTextStyleTableRecord
  2
TATEGAKI
 70
    68
 40
0.0
 41
1.0
 50
0.0
 71
     0
 42
1.0
  3
txt
  4
bigfont.shx
  0
ENDTAB
  0
TABLE
  2
LAYER
 70
   10
  0
LAYER
  2
_0-0_計極細
 70
   64
 62
    7
  6
CONTINUOUS
  0
LAYER
  2
_0-1_計細線
 70
   64
 62
    7
  6
CONTINUOUS
  0
LAYER
  2
_0-5_寸法線
 70
   64
 62
    7
  6
CONTINUOUS
  0
LAYER
  2
_0-7_枠細線
 70
   64
 62
    7
  6
CONTINUOUS
  0
LAYER
  2
_0-8_枠中線
 70
   64
 62
    7
  6
CONTINUOUS
  0
LAYER
  2
_0-9_枠極太
 70
   64
 62
    7
  6
CONTINUOUS
  0
LAYER
  2
_0-a_極細3
 70
   64
 62
    7
  6
CONTINUOUS
  0
LAYER
  2
_0-b_細線3
 70
   64
 62
    7
  6
CONTINUOUS
  0
LAYER
  2
_0-d_寸法3
 70
   64
 62
    7
  6
CONTINUOUS
  0
LAYER
  2
ADD_LINE
 70
   64
 62
    7
  6
CONTINUOUS
  0
ENDTAB
  0
ENDSEC
  0
SECTION
  2
BLOCKS
  0
ENDSEC
  0
SECTION
  2
ENTITIES
  0
LINE
  8
_0-7_枠細線
  6
CONTINUOUS
 62
    5
 10
1425
 20
942.5
 11
890
 21
942.5
  0
TEXT
  8
_0-7_枠細線
 62
    5
 10
895
 20
945
 40
12.5
 41
1
 50
0
  1
記号
  0
TEXT
  8
_0-7_枠細線
 62
    5
 10
996.875
 20
945
 40
12.5
 41
1
 50
0
  1
訂　 正　 記　 事
  0
TEXT
  8
_0-7_枠細線
 62
    5
 10
1181.25
 20
945
 40
12.5
 41
1
 50
0
  1
訂 正 年 月 日
  0
TEXT
  8
_0-7_枠細線
 62
    5
 10
1306.25
 20
945
 40
12.5
 41
1
 50
0
  1
備　　　　　考
  0
LINE
  8
_0-7_枠細線
  6
CONTINUOUS
 62
    5
 10
1185
 20
180
 11
1185
 21
100
  0
TEXT
  8
_0-7_枠細線
 62
    5
 10
937.5
 20
97.5
 40
17.5
 41
1
 50
0
  1
備考
  7
TATEGAKI
  0
TEXT
  8
_0-7_枠細線
 62
    5
 10
937.5
 20
137.5
 40
17.5
 41
1
 50
0
  1
品番
  7
TATEGAKI
  0
TEXT
  8
_0-7_枠細線
 62
    5
 10
937.5
 20
177.5
 40
17.5
 41
1
 50
0
  1
品名
  7
TATEGAKI
  0
LINE
  8
_0-7_枠細線
  6
CONTINUOUS
 62
    5
 10
1185
 20
140
 11
925
 21
140
  0
LINE
  8
_0-7_枠細線
  6
CONTINUOUS
 62
    5
 10
950
 20
180
 11
950
 21
60
  0
LINE
  8
_0-8_枠中線
  6
CONTINUOUS
 62
    5
 10
1425
 20
180
 11
925
 21
180
  0
LINE
  8
_0-8_枠中線
  6
CONTINUOUS
 62
    5
 10
925
 20
180
 11
925
 21
60
  0
LINE
  8
_0-7_枠細線
  6
CONTINUOUS
 62
    5
 10
1245
 20
180
 11
1245
 21
60
  0
TEXT
  8
_0-7_枠細線
 62
    5
 10
1192.5
 20
160
 40
15
 41
1
 50
0
  1
縮　尺
  0
TEXT
  8
_0-7_枠細線
 62
    5
 10
1194
 20
117.5
 40
20
 41
0.7000000000000001
 50
0
  1
１：５
  0
LINE
  8
_0-7_枠細線
  6
CONTINUOUS
 62
    5
 10
1185
 20
155
 11
1245
 21
155
  0
LINE
  8
_0-7_枠細線
  6
CONTINUOUS
 62
    5
 10
1245
 20
100
 11
925
 21
100
  0
LINE
  8
_0-7_枠細線
  6
CONTINUOUS
 62
    5
 10
1425
 20
90
 11
1245
 21
90
  0
LINE
  8
_0-7_枠細線
  6
CONTINUOUS
 62
    5
 10
1245
 20
120
 11
1425
 21
120
  0
LINE
  8
_0-7_枠細線
  6
CONTINUOUS
 62
    5
 10
1425
 20
140
 11
1245
 21
140
  0
TEXT
  8
_0-7_枠細線
 62
    5
 10
1255
 20
147.5
 40
25
 41
0.8
 50
0
  1
株式会社シマブン
  0
TEXT
  8
_0-7_枠細線
 62
    5
 10
1252.5
 20
60
 40
15
 41
1
 50
0
  1
年月日
  0
TEXT
  8
_0-7_枠細線
 62
    5
 10
1252.5
 20
75
 40
15
 41
1
 50
0
  1
作　成
  0
TEXT
  8
_0-7_枠細線
 62
    5
 10
1256.25
 20
122.5
 40
15
 41
1
 50
0
  1
承 認
  0
LINE
  8
_0-7_枠細線
  6
CONTINUOUS
 62
    5
 10
1305
 20
140
 11
1305
 21
60
  0
TEXT
  8
_0-7_枠細線
 62
    5
 10
1316.25
 20
122.5
 40
15
 41
1
 50
0
  1
検 図
  0
LINE
  8
_0-7_枠細線
  6
CONTINUOUS
 62
    5
 10
1365
 20
140
 11
1365
 21
90
  0
TEXT
  8
_0-7_枠細線
 62
    5
 10
1375
 20
95
 40
20
 41
1
 50
0
  1
藤戸
  0
TEXT
  8
_0-7_枠細線
 62
    5
 10
1376.25
 20
122.5
 40
15
 41
1
 50
0
  1
設 計
  0
TEXT
  8
_0-7_枠細線
 62
    5
 10
1310
 20
67.5
 40
15
 41
0.6666666666666666
 50
0
  1
２０１１年０７月０４日
  0
TEXT
  8
_0-7_枠細線
 62
    5
 10
1255
 20
95
 40
20
 41
1
 50
0
  1
隠塚
  0
TEXT
  8
_0-7_枠細線
 62
    5
 10
1315
 20
95
 40
20
 41
1
 50
0
  1
渋田
  0
LINE
  8
_0-7_枠細線
  6
CONTINUOUS
 62
    5
 10
1425
 20
925
 11
890
 21
925
  0
TEXT
  8
_0-7_枠細線
 62
    5
 10
938.85037037037023
 20
927.5
 40
12.500000000000002
 41
1
 50
0
  1
品番変更
  0
TEXT
  8
_0-7_枠細線
 62
    5
 10
1180
 20
927.5
 40
12.5
 41
0.7199999999999999
 50
0
  1
２０１５．０４．０１
  0
ARC
  8
_0-b_細線3
  6
CONTINUOUS
 62
    7
 10
1009.0525108742037
 20
284.13755046903907
 40
14.236111111107119
 50
245.81048584600546
 51
294.1895141539955
  0
ARC
  8
_0-b_細線3
  6
CONTINUOUS
 62
    7
 10
1009.0525108742037
 20
275.66532824682463
 40
14.236111111107119
 50
65.810485846004127
 51
114.18951415399421
  0
ARC
  8
_0-b_細線3
  6
CONTINUOUS
 62
    7
 10
992.38584420753727
 20
284.13755046903907
 40
14.236111111107119
 50
245.81048584600546
 51
294.18951415399385
  0
ARC
  8
_0-b_細線3
  6
CONTINUOUS
 62
    7
 10
992.38584420753727
 20
275.66532824682463
 40
14.236111111107119
 50
65.810485846005804
 51
114.18951415399421
  0
ARC
  8
_0-b_細線3
  6
CONTINUOUS
 62
    7
 10
975.71917754087065
 20
284.13755046903907
 40
14.236111111107119
 50
245.81048584600376
 51
294.18951415399385
  0
ARC
  8
_0-b_細線3
  6
CONTINUOUS
 62
    7
 10
975.71917754087065
 20
275.66532824682463
 40
14.236111111107119
 50
65.810485846005804
 51
114.18951415399587
  0
ARC
  8
_0-b_細線3
  6
CONTINUOUS
 62
    7
 10
959.05251087420368
 20
284.13755046903907
 40
14.236111111107119
 50
245.81048584600546
 51
294.1895141539955
  0
ARC
  8
_0-b_細線3
  6
CONTINUOUS
 62
    7
 10
959.05251087420368
 20
275.66532824682463
 40
14.236111111107119
 50
65.810485846004127
 51
114.18951415399421
  0
ARC
  8
_0-b_細線3
  6
CONTINUOUS
 62
    7
 10
942.38584420753727
 20
284.13755046903907
 40
14.236111111107119
 50
245.81048584600546
 51
294.18951415399385
  0
ARC
  8
_0-b_細線3
  6
CONTINUOUS
 62
    7
 10
942.38584420753727
 20
275.66532824682463
 40
14.236111111107119
 50
65.810485846005804
 51
114.18951415399421
  0
ARC
  8
_0-b_細線3
  6
CONTINUOUS
 62
    7
 10
925.71917754087065
 20
284.13755046903907
 40
14.236111111107119
 50
245.81048584600376
 51
294.18951415399385
  0
ARC
  8
_0-b_細線3
  6
CONTINUOUS
 62
    7
 10
925.71917754087065
 20
275.66532824682463
 40
14.236111111107119
 50
65.810485846005804
 51
114.18951415399587
  0
LINE
  8
_0-d_寸法3
  6
CONTINUOUS
 62
    7
 10
967.38584420753955
 20
303.23477269126784
 11
967.38584420753955
 21
350.47204545040768
  0
LINE
  8
_0-d_寸法3
  6
CONTINUOUS
 62
    7
 10
967.38584420753955
 20
345.47204545040768
 11
977.04510247043015
 21
348.06023590143292
  0
LINE
  8
_0-d_寸法3
  6
CONTINUOUS
 62
    7
 10
967.38584420753955
 20
345.47204545040768
 11
977.04510247043015
 21
342.88385499938249
  0
LINE
  8
_0-d_寸法3
  6
CONTINUOUS
 62
    7
 10
984.05251087420595
 20
303.23477269126533
 11
984.05251087420595
 21
350.47204545040768
  0
LINE
  8
_0-d_寸法3
  6
CONTINUOUS
 62
    7
 10
984.05251087420595
 20
345.47204545040768
 11
974.39325261131535
 21
342.88385499938249
  0
LINE
  8
_0-d_寸法3
  6
CONTINUOUS
 62
    7
 10
984.05251087420595
 20
345.47204545040768
 11
974.39325261131535
 21
348.06023590143292
  0
LINE
  8
_0-d_寸法3
  6
CONTINUOUS
 62
    7
 10
967.38584420753955
 20
345.47204545040768
 11
984.05251087420595
 21
345.47204545040768
  0
TEXT
  8
_0-d_寸法3
 62
    7
 10
968.21917754087292
 20
345.47204545040768
 40
15
 41
1
 50
0
  1
10
  0
LINE
  8
_0-d_寸法3
  6
CONTINUOUS
 62
    7
 10
984.05251087420595
 20
345.47204545040768
 11
993.71176913709678
 21
348.06023590143286
  0
LINE
  8
_0-d_寸法3
  6
CONTINUOUS
 62
    7
 10
984.05251087420595
 20
345.47204545040768
 11
993.71176913709678
 21
342.88385499938244
  0
LINE
  8
_0-d_寸法3
  6
CONTINUOUS
 62
    7
 10
1000.7191775408729
 20
303.23477269126533
 11
1000.7191775408729
 21
350.47204545040768
  0
LINE
  8
_0-d_寸法3
  6
CONTINUOUS
 62
    7
 10
1000.7191775408729
 20
345.47204545040768
 11
991.05991927798232
 21
342.88385499938249
  0
LINE
  8
_0-d_寸法3
  6
CONTINUOUS
 62
    7
 10
1000.7191775408729
 20
345.47204545040768
 11
991.05991927798232
 21
348.06023590143292
  0
LINE
  8
_0-d_寸法3
  6
CONTINUOUS
 62
    7
 10
984.05251087420595
 20
345.47204545040768
 11
1000.7191775408729
 21
345.47204545040768
  0
TEXT
  8
_0-d_寸法3
 62
    7
 10
984.88584420754
 20
345.47204545040768
 40
15
 41
1
 50
0
  1
10
  0
LINE
  8
_0-d_寸法3
  6
CONTINUOUS
 62
    7
 10
919.88584420753909
 20
303.23477269126784
 11
919.88584420753909
 21
350.47204545040768
  0
LINE
  8
_0-d_寸法3
  6
CONTINUOUS
 62
    7
 10
919.88584420753909
 20
345.47204545040768
 11
910.22658594464826
 21
342.88385499938249
  0
LINE
  8
_0-d_寸法3
  6
CONTINUOUS
 62
    7
 10
919.88584420753909
 20
345.47204545040768
 11
910.22658594464826
 21
348.06023590143292
  0
LINE
  8
_0-d_寸法3
  6
CONTINUOUS
 62
    7
 10
931.55251087420595
 20
303.23477269126784
 11
931.55251087420595
 21
350.47204545040768
  0
CIRCLE
  8
_0-d_寸法3
  6
CONTINUOUS
 62
    1
 10
931.55251087420595
 20
345.47204545040768
 40
1.5000000000000002
  0
LINE
  8
_0-d_寸法3
  6
CONTINUOUS
 62
    7
 10
894.88584420753909
 20
345.47204545040768
 11
931.55251087420595
 21
345.47204545040768
  0
TEXT
  8
_0-d_寸法3
 62
    7
 10
904.7866905793536
 20
345.47204545040768
 40
15
 41
1
 50
0
  1
7
  0
LINE
  8
_0-d_寸法3
  6
CONTINUOUS
 62
    7
 10
936.55251087420595
 20
303.23477269126533
 11
936.55251087420595
 21
350.47204545040768
  0
LINE
  8
_0-d_寸法3
  6
CONTINUOUS
 62
    7
 10
936.55251087420595
 20
345.47204545040768
 11
946.21176913709678
 21
348.06023590143286
  0
LINE
  8
_0-d_寸法3
  6
CONTINUOUS
 62
    7
 10
936.55251087420595
 20
345.47204545040768
 11
946.21176913709678
 21
342.88385499938244
  0
LINE
  8
_0-d_寸法3
  6
CONTINUOUS
 62
    7
 10
931.55251087420595
 20
345.47204545040768
 11
961.55251087420595
 21
345.47204545040768
  0
TEXT
  8
_0-d_寸法3
 62
    7
 10
938.11936547647224
 20
345.47204545040768
 40
15
 41
1
 50
0
  1
3
  0
ARC
  8
_0-b_細線3
  6
CONTINUOUS
 62
    7
 10
909.05251087420424
 20
284.13755046903907
 40
14.236111111107119
 50
245.81048584600376
 51
294.18951415399385
  0
ARC
  8
_0-b_細線3
  6
CONTINUOUS
 62
    7
 10
909.05251087420424
 20
275.66532824682463
 40
14.236111111107119
 50
65.810485846005804
 51
114.18951415399587
  0
LINE
  8
_0-b_細線3
  6
CONTINUOUS
 62
    7
 10
893.05868383491827
 20
293.23477269126784
 11
1021.7886832916972
 21
293.23477269126784
  0
LINE
  8
_0-a_極細3
  6
CENTER1
 62
    7
 10
1030.1999182816112
 20
279.90143935793162
 11
885.38345737626719
 21
279.90143935793162
  0
LINE
  8
_0-b_細線3
  6
CONTINUOUS
 62
    7
 10
1019.8858442075395
 20
293.23477269126533
 11
1014.8858442075395
 21
293.23477269126533
  0
LINE
  8
_0-b_細線3
  6
CONTINUOUS
 62
    7
 10
1014.8858442075395
 20
293.23477269126533
 11
1014.8858442075395
 21
268.23477269126533
  0
LINE
  8
_0-b_細線3
  6
CONTINUOUS
 62
    7
 10
1014.8858442075395
 20
268.23477269126533
 11
1019.8858442075395
 21
268.23477269126533
  0
LINE
  8
_0-b_細線3
  6
CONTINUOUS
 62
    7
 10
1019.8858442075395
 20
268.23477269126533
 11
1019.8858442075395
 21
293.23477269126533
  0
LINE
  8
_0-b_細線3
  6
CONTINUOUS
 62
    7
 10
1003.2191775408729
 20
293.23477269126533
 11
998.21917754087292
 21
293.23477269126533
  0
LINE
  8
_0-b_細線3
  6
CONTINUOUS
 62
    7
 10
998.21917754087292
 20
293.23477269126533
 11
998.21917754087292
 21
268.23477269126533
  0
LINE
  8
_0-b_細線3
  6
CONTINUOUS
 62
    7
 10
998.21917754087292
 20
268.23477269126533
 11
1003.2191775408729
 21
268.23477269126533
  0
LINE
  8
_0-b_細線3
  6
CONTINUOUS
 62
    7
 10
1003.2191775408729
 20
268.23477269126533
 11
1003.2191775408729
 21
293.23477269126533
  0
LINE
  8
_0-b_細線3
  6
CONTINUOUS
 62
    7
 10
986.55251087420595
 20
293.23477269126533
 11
981.55251087420595
 21
293.23477269126533
  0
LINE
  8
_0-b_細線3
  6
CONTINUOUS
 62
    7
 10
981.55251087420595
 20
293.23477269126533
 11
981.55251087420595
 21
268.23477269126533
  0
LINE
  8
_0-b_細線3
  6
CONTINUOUS
 62
    7
 10
981.55251087420595
 20
268.23477269126533
 11
986.55251087420595
 21
268.23477269126533
  0
LINE
  8
_0-b_細線3
  6
CONTINUOUS
 62
    7
 10
986.55251087420595
 20
268.23477269126533
 11
986.55251087420595
 21
293.23477269126533
  0
LINE
  8
_0-b_細線3
  6
CONTINUOUS
 62
    7
 10
969.88584420753955
 20
293.23477269126533
 11
964.88584420753955
 21
293.23477269126533
  0
LINE
  8
_0-b_細線3
  6
CONTINUOUS
 62
    7
 10
964.88584420753955
 20
293.23477269126533
 11
964.88584420753955
 21
268.23477269126533
  0
LINE
  8
_0-b_細線3
  6
CONTINUOUS
 62
    7
 10
964.88584420753955
 20
268.23477269126533
 11
969.88584420753955
 21
268.23477269126533
  0
LINE
  8
_0-b_細線3
  6
CONTINUOUS
 62
    7
 10
969.88584420753955
 20
268.23477269126533
 11
969.88584420753955
 21
293.23477269126533
  0
LINE
  8
_0-b_細線3
  6
CONTINUOUS
 62
    7
 10
953.21917754087292
 20
293.23477269126533
 11
948.21917754087292
 21
293.23477269126533
  0
LINE
  8
_0-b_細線3
  6
CONTINUOUS
 62
    7
 10
948.21917754087292
 20
293.23477269126533
 11
948.21917754087292
 21
268.23477269126533
  0
LINE
  8
_0-b_細線3
  6
CONTINUOUS
 62
    7
 10
948.21917754087292
 20
268.23477269126533
 11
953.21917754087292
 21
268.23477269126533
  0
LINE
  8
_0-b_細線3
  6
CONTINUOUS
 62
    7
 10
953.21917754087292
 20
268.23477269126533
 11
953.21917754087292
 21
293.23477269126533
  0
LINE
  8
_0-b_細線3
  6
CONTINUOUS
 62
    7
 10
936.55251087420595
 20
293.23477269126533
 11
931.55251087420595
 21
293.23477269126533
  0
LINE
  8
_0-b_細線3
  6
CONTINUOUS
 62
    7
 10
931.55251087420595
 20
293.23477269126533
 11
931.55251087420595
 21
268.23477269126533
  0
LINE
  8
_0-b_細線3
  6
CONTINUOUS
 62
    7
 10
931.55251087420595
 20
268.23477269126533
 11
936.55251087420595
 21
268.23477269126533
  0
LINE
  8
_0-b_細線3
  6
CONTINUOUS
 62
    7
 10
936.55251087420595
 20
268.23477269126533
 11
936.55251087420595
 21
293.23477269126533
  0
LINE
  8
_0-b_細線3
  6
CONTINUOUS
 62
    7
 10
919.88584420753955
 20
293.23477269126533
 11
914.88584420753955
 21
293.23477269126533
  0
LINE
  8
_0-b_細線3
  6
CONTINUOUS
 62
    7
 10
914.88584420753955
 20
293.23477269126533
 11
914.88584420753955
 21
268.23477269126533
  0
LINE
  8
_0-b_細線3
  6
CONTINUOUS
 62
    7
 10
914.88584420753955
 20
268.23477269126533
 11
919.88584420753955
 21
268.23477269126533
  0
LINE
  8
_0-b_細線3
  6
CONTINUOUS
 62
    7
 10
919.88584420753955
 20
268.23477269126533
 11
919.88584420753955
 21
293.23477269126533
  0
LINE
  8
_0-b_細線3
  6
CONTINUOUS
 62
    7
 10
903.21917754087292
 20
293.23477269126533
 11
898.21917754087292
 21
293.23477269126533
  0
LINE
  8
_0-b_細線3
  6
CONTINUOUS
 62
    7
 10
898.21917754087292
 20
293.23477269126533
 11
898.21917754087292
 21
268.23477269126533
  0
LINE
  8
_0-b_細線3
  6
CONTINUOUS
 62
    7
 10
898.21917754087292
 20
268.23477269126533
 11
903.21917754087292
 21
268.23477269126533
  0
LINE
  8
_0-b_細線3
  6
CONTINUOUS
 62
    7
 10
903.21917754087292
 20
268.23477269126533
 11
903.21917754087292
 21
293.23477269126533
  0
LINE
  8
_0-b_細線3
  6
CONTINUOUS
 62
    7
 10
896.64232283795639
 20
268.23477269126533
 11
1025.372322294736
 21
268.23477269126533
  0
LINE
  8
_0-d_寸法3
  6
CONTINUOUS
 62
    7
 10
1035.3723222947356
 20
268.23477269126522
 11
1072.4585240897909
 21
268.23477269126488
  0
LINE
  8
_0-d_寸法3
  6
CONTINUOUS
 62
    7
 10
1067.4585240897909
 20
268.23477269126488
 11
1064.8703336387657
 21
277.89403095415554
  0
LINE
  8
_0-d_寸法3
  6
CONTINUOUS
 62
    7
 10
1067.4585240897909
 20
268.23477269126488
 11
1070.0467145408161
 21
277.89403095415554
  0
LINE
  8
_0-d_寸法3
  6
CONTINUOUS
 62
    7
 10
1031.7886832916975
 20
293.23477269126772
 11
1072.4585240897909
 21
293.23477269126732
  0
LINE
  8
_0-d_寸法3
  6
CONTINUOUS
 62
    7
 10
1067.4585240897909
 20
293.23477269126738
 11
1070.0467145408161
 21
283.57551442837678
  0
LINE
  8
_0-d_寸法3
  6
CONTINUOUS
 62
    7
 10
1067.4585240897909
 20
293.23477269126738
 11
1064.8703336387657
 21
283.57551442837678
  0
LINE
  8
_0-d_寸法3
  6
CONTINUOUS
 62
    7
 10
1067.4585240897909
 20
268.23477269126488
 11
1067.4585240897909
 21
293.23477269126738
  0
TEXT
  8
_0-d_寸法3
 62
    7
 10
1067.4585240897909
 20
273.23477269126624
 40
15
 41
1
 50
90
  1
15
  0
ARC
  8
_0-a_極細3
  6
CONTINUOUS
 62
    7
 10
915.67155211264264
 20
290.11918262666268
 40
22.826491478025751
 50
150.03871396148165
 51
205.23810402387943
  0
ARC
  8
_0-a_極細3
  6
CONTINUOUS
 62
    7
 10
874.37643436577503
 20
270.65362065024283
 40
22.826491478025751
 50
330.03871396148242
 51
25.238104023877408
  0
ARC
  8
_0-a_極細3
  6
CONTINUOUS
 62
    7
 10
1044.1624459785362
 20
289.24615131916562
 40
22.826491478025751
 50
150.0387139614823
 51
205.23810402387804
  0
ARC
  8
_0-a_極細3
  6
CONTINUOUS
 62
    7
 10
1002.8673282316687
 20
269.78058934274577
 40
22.826491478025751
 50
330.03871396148179
 51
25.238104023878375
  0
TEXT
  8
_0-7_枠細線
 62
    5
 10
908.61220398644207
 20
221.73388393903582
 40
25
 41
0.8
 50
0
  1
側面詳細図
  0
TEXT
  8
_0-7_枠細線
 62
    5
 10
974.01084011216926
 20
196.14641657611145
 40
20
 41
0.6
 50
0
  1
Ｓ＝１：３
  0
TEXT
  8
_0-7_枠細線
 62
    5
 10
965.50000000000011
 20
150
 40
20
 41
0.5
 50
0
  1
Ｆバー ステンレスグレーチング Ｈ１５タイプ
  0
ARC
  8
_0-b_細線3
  6
CONTINUOUS
 62
    7
 10
387.09732643611903
 20
279.9014393579339
 40
8.75
 50
294.03943363457506
 51
65.960566365424228
  0
ARC
  8
_0-b_細線3
  6
CONTINUOUS
 62
    7
 10
387.09732643611903
 20
279.9014393579339
 40
8.75
 50
114.03943363457542
 51
245.96056636541877
  0
ARC
  8
_0-b_細線3
  6
CONTINUOUS
 62
    7
 10
387.09732643611176
 20
274.06810602454311
 40
2.4999999999928004
 50
179.99999999999983
 51
359.99999999999966
  0
LINE
  8
_0-b_細線3
  6
CONTINUOUS
 62
    7
 10
384.59732643611903
 20
285.73477269126738
 11
384.59732643611903
 21
274.06810602460064
  0
ARC
  8
_0-b_細線3
  6
CONTINUOUS
 62
    7
 10
387.09732643611176
 20
285.73477269133923
 40
2.5000000000072005
 50
0
 51
179.99999999999983
  0
LINE
  8
_0-b_細線3
  6
CONTINUOUS
 62
    7
 10
389.59732643611903
 20
274.06810602460064
 11
389.59732643611903
 21
285.73477269126738
  0
ARC
  8
_0-b_細線3
  6
CONTINUOUS
 62
    7
 10
387.09732643612449
 20
274.06810602458177
 40
4.1666666666723522
 50
179.99999999999983
 51
359.99999999999966
  0
LINE
  8
_0-b_細線3
  6
CONTINUOUS
 62
    7
 10
382.93065976945292
 20
285.73477269126738
 11
382.93065976945292
 21
274.06810602460064
  0
ARC
  8
_0-b_細線3
  6
CONTINUOUS
 62
    7
 10
387.09732643608623
 20
285.73477269136515
 40
4.1666666667000154
 50
0
 51
179.99999999999983
  0
LINE
  8
_0-b_細線3
  6
CONTINUOUS
 62
    7
 10
391.263993102786
 20
274.06810602460064
 11
391.263993102786
 21
285.73477269126738
  0
ARC
  8
_0-b_細線3
  6
CONTINUOUS
 62
    7
 10
553.76399310275224
 20
274.06810602454334
 40
4.1666666667000154
 50
179.99999999999983
 51
359.99999999999966
  0
LINE
  8
_0-b_細線3
  6
CONTINUOUS
 62
    7
 10
557.93065976945286
 20
285.73477269126761
 11
557.93065976945286
 21
274.06810602460109
  0
ARC
  8
_0-b_細線3
  6
CONTINUOUS
 62
    7
 10
553.76399310279135
 20
285.73477269132582
 40
4.1666666666723522
 50
0.0000000000031266
 51
179.99999999999983
  0
LINE
  8
_0-b_細線3
  6
CONTINUOUS
 62
    7
 10
549.59732643611892
 20
274.06810602460087
 11
549.59732643611892
 21
285.73477269126761
  0
ARC
  8
_0-b_細線3
  6
CONTINUOUS
 62
    7
 10
553.76399310277861
 20
274.06810602454334
 40
2.5000000000072005
 50
179.99999999999983
 51
359.99999999999966
  0
LINE
  8
_0-b_細線3
  6
CONTINUOUS
 62
    7
 10
556.26399310278589
 20
285.73477269126761
 11
556.26399310278589
 21
274.06810602460109
  0
ARC
  8
_0-b_細線3
  6
CONTINUOUS
 62
    7
 10
553.76399310277861
 20
285.73477269133946
 40
2.4999999999928004
 50
0.000000000005211
 51
179.99999999999983
  0
LINE
  8
_0-b_細線3
  6
CONTINUOUS
 62
    7
 10
551.26399310278589
 20
274.06810602460087
 11
551.26399310278589
 21
285.73477269126761
  0
ARC
  8
_0-b_細線3
  6
CONTINUOUS
 62
    7
 10
553.76399310278589
 20
279.90143935793412
 40
8.75
 50
294.03943363457569
 51
65.960566365424839
  0
ARC
  8
_0-b_細線3
  6
CONTINUOUS
 62
    7
 10
553.76399310278589
 20
279.90143935793412
 40
8.75
 50
114.03943363457542
 51
245.96056636541877
  0
CIRCLE
  8
_0-a_極細3
  6
CONTINUOUS
 62
    7
 10
198.71423256627011
 20
278.19373866348315
 40
0.5530864197530718
  0
LINE
  8
_0-a_極細3
  6
CONTINUOUS
 62
    7
 10
203.763993102786
 20
293.23477269126784
 11
203.763993102786
 21
281.56810602460087
  0
LINE
  8
_0-a_極細3
  6
CONTINUOUS
 62
    7
 10
203.763993102786
 20
293.23477269126784
 11
114.58624595767134
 21
293.23477269126784
  0
LINE
  8
_0-a_極細3
  6
CONTINUOUS
 62
    7
 10
212.09732643611943
 20
281.56810602460087
 11
114.58624595767134
 21
281.56810602460087
  0
LINE
  8
_0-a_極細3
  6
CONTINUOUS
 62
    7
 10
212.09732643611943
 20
293.23477269126784
 11
203.763993102786
 21
293.23477269126784
  0
LINE
  8
_0-a_極細3
  6
CONTINUOUS
 62
    7
 10
212.09732643611943
 20
292.40143935793435
 11
212.09732643611943
 21
293.23477269126784
  0
LINE
  8
_0-a_極細3
  6
CONTINUOUS
 62
    7
 10
211.89923617975984
 20
281.56810602460087
 11
212.097326436119
 21
281.76619628096046
  0
LINE
  8
_0-a_極細3
  6
CONTINUOUS
 62
    7
 10
207.65659549264072
 20
281.56810602460087
 11
212.09732643611943
 21
286.00883696807955
  0
LINE
  8
_0-a_極細3
  6
CONTINUOUS
 62
    7
 10
203.763993102786
 20
281.91814432186561
 11
212.09732643611943
 21
290.25147765519887
  0
LINE
  8
_0-a_極細3
  6
CONTINUOUS
 62
    7
 10
203.763993102786
 20
286.1607850089847
 11
210.83798078506859
 21
293.23477269126784
  0
LINE
  8
_0-a_極細3
  6
CONTINUOUS
 62
    7
 10
203.763993102786
 20
290.40342569610425
 11
206.59534009794953
 21
293.23477269126784
  0
LINE
  8
_0-a_極細3
  6
CONTINUOUS
 62
    7
 10
212.09732643611943
 20
290.95380581900918
 11
209.816359563861
 21
293.23477269126784
  0
LINE
  8
_0-a_極細3
  6
CONTINUOUS
 62
    7
 10
212.09732643611943
 20
286.71116513188986
 11
205.57371887674151
 21
293.23477269126784
  0
LINE
  8
_0-a_極細3
  6
CONTINUOUS
 62
    7
 10
203.763993102786
 20
290.80185777810402
 11
212.09732643611943
 21
282.46852444477076
  0
LINE
  8
_0-a_極細3
  6
CONTINUOUS
 62
    7
 10
203.763993102786
 20
286.5592170909847
 11
208.75510416916939
 21
281.56810602460087
  0
LINE
  8
_0-a_極細3
  6
CONTINUOUS
 62
    7
 10
203.763993102786
 20
282.31657640386538
 11
204.51246348205024
 21
281.56810602460087
  0
LINE
  8
_0-a_極細3
  6
CONTINUOUS
 62
    7
 10
194.9286734251553
 20
281.5681060184736
 11
203.763993102786
 21
290.40342569610425
  0
LINE
  8
_0-a_極細3
  6
CONTINUOUS
 62
    7
 10
173.71546997484785
 20
281.56810600376252
 11
185.38213666235322
 21
293.23477269126761
  0
LINE
  8
_0-a_極細3
  6
CONTINUOUS
 62
    7
 10
152.50226652453995
 20
281.56810598905099
 11
164.16893322675634
 21
293.23477269126784
  0
LINE
  8
_0-a_極細3
  6
CONTINUOUS
 62
    7
 10
131.28906307423208
 20
281.56810597433991
 11
142.95572979115997
 21
293.23477269126784
  0
LINE
  8
_0-a_極細3
  6
CONTINUOUS
 62
    7
 10
114.58624595767134
 20
286.07849229337512
 11
121.74252635556357
 21
293.23477269126761
  0
LINE
  8
_0-a_極細3
  6
DASHED2
 62
    7
 10
184.32207170000154
 20
281.56810601111806
 11
195.98873838015137
 21
293.23477269126784
  0
LINE
  8
_0-a_極細3
  6
DASHED2
 62
    7
 10
163.10886824969373
 20
281.56810599640676
 11
174.77553494455498
 21
293.23477269126784
  0
LINE
  8
_0-a_極細3
  6
DASHED2
 62
    7
 10
141.8956647993862
 20
281.56810598169545
 11
153.56233150895818
 21
293.23477269126784
  0
LINE
  8
_0-a_極細3
  6
DASHED2
 62
    7
 10
120.68246134907831
 20
281.56810596698438
 11
132.34912807336178
 21
293.23477269126784
  0
CIRCLE
  8
_0-a_極細3
  6
CONTINUOUS
 62
    7
 10
800.75867701071115
 20
278.50022014496449
 40
0.5530864197530718
  0
CIRCLE
  8
_0-a_極細3
  6
CONTINUOUS
 62
    7
 10
748.75867701071161
 20
279.43355347829788
 40
0.5530864197530718
  0
LINE
  8
_0-a_極細3
  6
CONTINUOUS
 62
    7
 10
737.09732643611937
 20
293.23477269126784
 11
737.09732643611937
 21
281.56810602460087
  0
LINE
  8
_0-a_極細3
  6
CONTINUOUS
 62
    7
 10
737.09732643611937
 20
293.23477269126784
 11
826.2750735812341
 21
293.23477269126784
  0
LINE
  8
_0-a_極細3
  6
CONTINUOUS
 62
    7
 10
728.76399310278589
 20
281.56810602460087
 11
826.2750735812341
 21
281.56810602460087
  0
LINE
  8
_0-a_極細3
  6
CONTINUOUS
 62
    7
 10
728.76399310278589
 20
293.23477269126784
 11
737.09732643611937
 21
293.23477269126784
  0
LINE
  8
_0-a_極細3
  6
CONTINUOUS
 62
    7
 10
728.76399310278589
 20
292.40143935793435
 11
728.76399310278589
 21
293.23477269126784
  0
LINE
  8
_0-a_極細3
  6
CONTINUOUS
 62
    7
 10
737.09732643611937
 20
285.23719230532583
 11
733.42824015539452
 21
281.56810602460087
  0
LINE
  8
_0-a_極細3
  6
CONTINUOUS
 62
    7
 10
737.09732643611937
 20
289.47983299244493
 11
729.18559946827531
 21
281.56810602460087
  0
LINE
  8
_0-a_極細3
  6
CONTINUOUS
 62
    7
 10
728.76399310278589
 20
285.38914034623099
 11
736.60962544782274
 21
293.23477269126784
  0
LINE
  8
_0-a_極細3
  6
CONTINUOUS
 62
    7
 10
728.76399310278589
 20
289.63178103335031
 11
732.36698476070319
 21
293.23477269126761
  0
LINE
  8
_0-a_極細3
  6
CONTINUOUS
 62
    7
 10
737.09732643611937
 20
291.72545048176221
 11
735.58800422661375
 21
293.23477269126784
  0
LINE
  8
_0-a_極細3
  6
CONTINUOUS
 62
    7
 10
737.09732643611937
 20
287.48280979464289
 11
731.34536353949466
 21
293.23477269126784
  0
LINE
  8
_0-a_極細3
  6
CONTINUOUS
 62
    7
 10
737.09732643611937
 20
283.24016910752357
 11
728.76399310278589
 21
291.57350244085706
  0
LINE
  8
_0-a_極細3
  6
CONTINUOUS
 62
    7
 10
734.52674883192253
 20
281.56810602460087
 11
728.76399310278589
 21
287.33086175373774
  0
LINE
  8
_0-a_極細3
  6
CONTINUOUS
 62
    7
 10
730.28410814480355
 20
281.56810602460087
 11
728.76399310278589
 21
283.08822106661842
  0
LINE
  8
_0-a_極細3
  6
CONTINUOUS
 62
    7
 10
805.55313183642227
 20
281.56810602460087
 11
817.21979787630005
 21
293.23477206447865
  0
LINE
  8
_0-a_極細3
  6
CONTINUOUS
 62
    7
 10
784.33992840082578
 20
281.56810602460109
 11
796.00659460665224
 21
293.23477223042732
  0
LINE
  8
_0-a_極細3
  6
CONTINUOUS
 62
    7
 10
763.12672496522953
 20
281.56810602460087
 11
774.79339133700421
 21
293.23477239637555
  0
LINE
  8
_0-a_極細3
  6
CONTINUOUS
 62
    7
 10
741.91352152963304
 20
281.56810602460087
 11
753.5801880673564
 21
293.23477256232422
  0
LINE
  8
_0-a_極細3
  6
DASHED2
 62
    7
 10
816.15973355422079
 20
281.56810602460109
 11
826.2750735812341
 21
291.68344605161451
  0
LINE
  8
_0-a_極細3
  6
DASHED2
 62
    7
 10
794.94653011862397
 20
281.56810602460087
 11
806.61319624147598
 21
293.23477214745276
  0
LINE
  8
_0-a_極細3
  6
DASHED2
 62
    7
 10
773.7333266830276
 20
281.56810602460087
 11
785.39999297182817
 21
293.23477231340144
  0
LINE
  8
_0-a_極細3
  6
DASHED2
 62
    7
 10
752.52012324743123
 20
281.56810602460087
 11
764.18678970218014
 21
293.23477247934989
  0
LINE
  8
_0-a_極細3
  6
DASHED2
 62
    7
 10
737.09732643611937
 20
287.35851264888538
 11
742.97358643253233
 21
293.23477264529834
  0
LINE
  8
_0-b_細線3
  6
CONTINUOUS
 62
    7
 10
715.43065976945286
 20
293.23477269126784
 11
225.43065976945243
 21
293.23477269126715
  0
LINE
  8
_0-a_極細3
  6
CENTER1
 62
    7
 10
731.43074817060801
 20
279.9014393579339
 11
210.44333399157892
 21
279.9014393579339
  0
LINE
  8
_0-a_極細3
  6
CENTER1
 62
    7
 10
470.43065976945292
 20
252.04894320581801
 11
470.43065976945292
 21
307.1656098724909
  0
LINE
  8
_0-d_寸法3
  6
CONTINUOUS
 62
    7
 10
462.23913932656302
 20
273.97053705477833
 11
426.88679760087751
 21
298.72451322446909
  0
LINE
  8
_0-d_寸法3
  6
CONTINUOUS
 62
    7
 10
430.98255782232252
 20
295.85663104271384
 11
428.39436737129734
 21
305.5158893056045
  0
LINE
  8
_0-d_寸法3
  6
CONTINUOUS
 62
    7
 10
430.98255782232252
 20
295.85663104271384
 11
433.5707482733477
 21
305.5158893056045
  0
LINE
  8
_0-d_寸法3
  6
CONTINUOUS
 62
    7
 10
462.23913932656302
 20
298.97053705477833
 11
426.88679760087751
 21
323.72451322446915
  0
LINE
  8
_0-d_寸法3
  6
CONTINUOUS
 62
    7
 10
430.98255782232252
 20
320.85663104271384
 11
433.5707482733477
 21
311.19737277982313
  0
LINE
  8
_0-d_寸法3
  6
CONTINUOUS
 62
    7
 10
430.98255782232252
 20
320.85663104271384
 11
428.39436737129722
 21
311.19737277982318
  0
LINE
  8
_0-d_寸法3
  6
CONTINUOUS
 62
    7
 10
430.98255782232252
 20
295.85663104271384
 11
430.98255782232252
 21
320.85663104271384
  0
TEXT
  8
_0-d_寸法3
 62
    7
 10
430.98255782232252
 20
300.85663104271362
 40
15
 41
1
 50
90
  1
15
  0
TEXT
  8
_0-7_枠細線
 62
    5
 10
420.50861213021909
 20
118.23440768958974
 40
25
 41
0.8
 50
0
  1
断面詳細図
  0
TEXT
  8
_0-7_枠細線
 62
    5
 10
535.45758187938668
 20
118.23440768958974
 40
20
 41
0.6
 50
0
  1
Ｓ＝１：３
  0
LINE
  8
_0-a_極細3
  6
CONTINUOUS
 62
    7
 10
145.43065976945243
 20
256.56810602460109
 11
145.43065976945243
 21
188.23477269126784
  0
LINE
  8
_0-a_極細3
  6
CONTINUOUS
 62
    7
 10
228.763993102786
 20
188.23477269126784
 11
145.43065976945243
 21
188.23477269126784
  0
LINE
  8
_0-a_極細3
  6
CONTINUOUS
 62
    7
 10
145.43065976945243
 20
256.56810602460109
 11
114.58624595767134
 21
256.56810602460109
  0
LINE
  8
_0-a_極細3
  6
CONTINUOUS
 62
    7
 10
228.763993102786
 20
188.23477269126784
 11
228.763993102786
 21
161.99317239648877
  0
LINE
  8
_0-a_極細3
  6
CONTINUOUS
 62
    7
 10
191.34201853779615
 20
161.9931725129257
 11
217.58361871613886
 21
188.23477269126784
  0
LINE
  8
_0-a_極細3
  6
CONTINUOUS
 62
    7
 10
120.63134063915484
 20
161.99317273293877
 11
146.87294059748396
 21
188.23477269126784
  0
LINE
  8
_0-a_極細3
  6
CONTINUOUS
 62
    7
 10
114.58624595767134
 20
226.65875617011011
 11
144.49559581216255
 21
256.56810602460109
  0
LINE
  8
_0-a_極細3
  6
CONTINUOUS
 62
    7
 10
184.27095074793201
 20
161.993172534927
 11
210.51255090427304
 21
188.23477269126784
  0
LINE
  8
_0-a_極細3
  6
CONTINUOUS
 62
    7
 10
114.58624595767134
 20
163.01914586332074
 11
145.43065976945243
 21
193.86355967510212
  0
LINE
  8
_0-a_極細3
  6
CONTINUOUS
 62
    7
 10
114.58624595767134
 20
233.72982398197564
 11
137.42452800029682
 21
256.56810602460109
  0
LINE
  8
_0-a_極細3
  6
CONTINUOUS
 62
    7
 10
177.19988295806829
 20
161.99317255692833
 11
203.44148309240779
 21
188.23477269126784
  0
LINE
  8
_0-a_極細3
  6
CONTINUOUS
 62
    7
 10
114.58624595767134
 20
170.09021367518628
 11
145.43065976945243
 21
200.93462748696766
  0
LINE
  8
_0-a_極細3
  6
CONTINUOUS
 62
    7
 10
114.58624595767134
 20
240.80089179384075
 11
130.35346018843148
 21
256.56810602460109
  0
CIRCLE
  8
_0-a_極細3
  6
CONTINUOUS
 62
    7
 10
132.48213380083854
 20
271.77151644126116
 40
0.5530864197530718
  0
CIRCLE
  8
_0-a_極細3
  6
CONTINUOUS
 62
    7
 10
122.15126960330807
 20
261.81596088570564
 40
0.5530864197530718
  0
CIRCLE
  8
_0-a_極細3
  6
CONTINUOUS
 62
    7
 10
132.75867701071533
 20
262.88262755237224
 40
0.5530864197530718
  0
CIRCLE
  8
_0-a_極細3
  6
CONTINUOUS
 62
    7
 10
145.38089923293754
 20
264.83818310792776
 40
0.5530864197530718
  0
CIRCLE
  8
_0-a_極細3
  6
CONTINUOUS
 62
    7
 10
173.82534367738145
 20
276.57151644126111
 40
0.5530864197530718
  0
CIRCLE
  8
_0-a_極細3
  6
CONTINUOUS
 62
    7
 10
204.40312145515904
 20
270.34929421903894
 40
0.5530864197530718
  0
CIRCLE
  8
_0-a_極細3
  6
CONTINUOUS
 62
    7
 10
179.51423256627038
 20
269.81596088570564
 40
0.5530864197530718
  0
CIRCLE
  8
_0-a_極細3
  6
CONTINUOUS
 62
    7
 10
152.32534367738191
 20
257.58262755237229
 40
0.5530864197530718
  0
CIRCLE
  8
_0-a_極細3
  6
CONTINUOUS
 62
    7
 10
172.76978812182577
 20
256.33818310792776
 40
0.5530864197530718
  0
CIRCLE
  8
_0-a_極細3
  6
CONTINUOUS
 62
    7
 10
197.83645478849238
 20
252.60484977459467
 40
0.5530864197530718
  0
CIRCLE
  8
_0-a_極細3
  6
CONTINUOUS
 62
    7
 10
185.21423256627017
 20
246.91596088570577
 40
0.5530864197530718
  0
CIRCLE
  8
_0-a_極細3
  6
CONTINUOUS
 62
    7
 10
170.45867701071515
 20
233.4048497745946
 40
0.5530864197530718
  0
CIRCLE
  8
_0-a_極細3
  6
CONTINUOUS
 62
    7
 10
197.83645478849238
 20
240.6937386634836
 40
0.5530864197530718
  0
CIRCLE
  8
_0-a_極細3
  6
CONTINUOUS
 62
    7
 10
156.72534367738152
 20
213.58262755237277
 40
0.5530864197530718
  0
CIRCLE
  8
_0-a_極細3
  6
CONTINUOUS
 62
    7
 10
151.03645478849268
 20
195.62707199681725
 40
0.5530864197530718
  0
CIRCLE
  8
_0-a_極細3
  6
CONTINUOUS
 62
    7
 10
159.74756589960393
 20
202.38262755237272
 40
0.5530864197530718
  0
CIRCLE
  8
_0-a_極細3
  6
CONTINUOUS
 62
    7
 10
165.96978812182613
 20
193.84929421903939
 40
0.5530864197530718
  0
CIRCLE
  8
_0-a_極細3
  6
CONTINUOUS
 62
    7
 10
205.26978812182577
 20
211.73818310792831
 40
0.5530864197530718
  0
CIRCLE
  8
_0-a_極細3
  6
CONTINUOUS
 62
    7
 10
194.06978812182601
 20
206.22707199681713
 40
0.5530864197530718
  0
CIRCLE
  8
_0-a_極細3
  6
CONTINUOUS
 62
    7
 10
200.29201034404821
 20
203.73818310792828
 40
0.5530864197530718
  0
CIRCLE
  8
_0-a_極細3
  6
CONTINUOUS
 62
    7
 10
196.73645478849252
 20
194.49373866348401
 40
0.5530864197530718
  0
CIRCLE
  8
_0-a_極細3
  6
CONTINUOUS
 62
    7
 10
216.64756589960353
 20
195.56040533015064
 40
0.5530864197530718
  0
CIRCLE
  8
_0-a_極細3
  6
CONTINUOUS
 62
    7
 10
229.62534367738115
 20
198.76040533015072
 40
0.5530864197530718
  0
CIRCLE
  8
_0-a_極細3
  6
CONTINUOUS
 62
    7
 10
243.31423256627005
 20
183.82707199681747
 40
0.5530864197530718
  0
CIRCLE
  8
_0-a_極細3
  6
CONTINUOUS
 62
    7
 10
236.38089923293663
 20
168.89373866348407
 40
0.5530864197530718
  0
CIRCLE
  8
_0-a_極細3
  6
CONTINUOUS
 62
    7
 10
219.7142325662702
 20
212.50855347829861
 40
0.5530864197530718
  0
CIRCLE
  8
_0-a_極細3
  6
CONTINUOUS
 62
    7
 10
234.46978812182564
 20
246.64188681163182
 40
0.5530864197530718
  0
CIRCLE
  8
_0-a_極細3
  6
CONTINUOUS
 62
    7
 10
249.58089923293647
 20
236.6863312560763
 40
0.5530864197530718
  0
CIRCLE
  8
_0-a_極細3
  6
CONTINUOUS
 62
    7
 10
250.11423256626983
 20
218.73077570052078
 40
0.5530864197530718
  0
CIRCLE
  8
_0-a_極細3
  6
CONTINUOUS
 62
    7
 10
214.86978812182571
 20
248.4641090338539
 40
0.5530864197530718
  0
CIRCLE
  8
_0-a_極細3
  6
CONTINUOUS
 62
    7
 10
194.58089923293699
 20
270.44805965113778
 40
1.825531472681392
  0
CIRCLE
  8
_0-a_極細3
  6
CONTINUOUS
 62
    7
 10
142.81877953150186
 20
277.37767392583555
 40
1.825531472681392
  0
CIRCLE
  8
_0-a_極細3
  6
CONTINUOUS
 62
    7
 10
169.35867701071473
 20
247.64805965113783
 40
1.825531472681392
  0
CIRCLE
  8
_0-a_極細3
  6
CONTINUOUS
 62
    7
 10
149.75867701071485
 20
209.64805965113828
 40
1.825531472681392
  0
CIRCLE
  8
_0-a_極細3
  6
CONTINUOUS
 62
    7
 10
202.95867701071421
 20
196.84805965113853
 40
1.825531472681392
  0
CIRCLE
  8
_0-a_極細3
  6
CONTINUOUS
 62
    7
 10
238.93645478849186
 20
193.24805965113868
 40
1.825531472681392
  0
CIRCLE
  8
_0-a_極細3
  6
CONTINUOUS
 62
    7
 10
243.73645478849156
 20
174.58139298447213
 40
1.825531472681392
  0
CIRCLE
  8
_0-a_極細3
  6
CONTINUOUS
 62
    7
 10
122.62169999042257
 20
278.27028187335986
 40
1.825531472681392
  0
LINE
  8
_0-a_極細3
  6
CONTINUOUS
 62
    7
 10
261.263993102786
 20
263.23477269126784
 11
262.09732643611943
 21
263.23477269126784
  0
LINE
  8
_0-a_極細3
  6
CONTINUOUS
 62
    7
 10
262.09732643611943
 20
263.23477269126784
 11
262.09732643611943
 21
161.99317239648877
  0
CIRCLE
  8
_0-a_極細3
  6
CONTINUOUS
 62
    7
 10
255.20989228849047
 20
247.24805965113845
 40
1.825531472681392
  0
CIRCLE
  8
_0-a_極細3
  6
CONTINUOUS
 62
    7
 10
254.21793626997334
 20
192.53818310792852
 40
0.5530864197530718
  0
CIRCLE
  8
_0-a_極細3
  6
CONTINUOUS
 62
    7
 10
255.55126960330725
 20
169.88211207475871
 40
0.5530864197530718
  0
CIRCLE
  8
_0-a_極細3
  6
CONTINUOUS
 62
    7
 10
243.18089923293229
 20
228.13694854002759
 40
1.825531472681392
  0
LINE
  8
_0-a_極細3
  6
CONTINUOUS
 62
    7
 10
168.45725821563411
 20
213.1164738537714
 11
163.32695606574887
 21
227.21186316555986
  0
LINE
  8
_0-a_極細3
  6
CONTINUOUS
 62
    7
 10
218.45130088943057
 20
247.27548386480592
 11
223.58160303931555
 21
233.18009455301763
  0
LINE
  8
_0-a_極細3
  6
CONTINUOUS
 62
    7
 10
163.32695606574887
 20
227.21186316555986
 11
218.45130088943057
 21
247.27548386480592
  0
LINE
  8
_0-a_極細3
  6
CONTINUOUS
 62
    7
 10
168.45725821563411
 20
213.1164738537714
 11
223.58160303931555
 21
233.18009455301763
  0
LINE
  8
_0-a_極細3
  6
CENTER1
 62
    7
 10
160.93667374869881
 20
218.36053846963569
 11
224.96769423126472
 21
241.66592395467117
  0
LINE
  8
_0-a_極細3
  6
CONTINUOUS
 62
    7
 10
187.09732643611943
 20
188.23477269126784
 11
187.09732643611943
 21
232.32033403958397
  0
LINE
  8
_0-a_極細3
  6
CONTINUOUS
 62
    7
 10
187.09732643611943
 20
232.32033403958397
 11
172.09732643611943
 21
232.32033403958397
  0
LINE
  8
_0-a_極細3
  6
CONTINUOUS
 62
    7
 10
172.09732643611943
 20
232.32033403958397
 11
172.09732643611943
 21
188.23477269126784
  0
CIRCLE
  8
_0-a_極細3
  6
CONTINUOUS
 62
    7
 10
201.47719552923334
 20
218.15670162644665
 40
1.825531472681392
  0
CIRCLE
  8
_0-a_極細3
  6
CONTINUOUS
 62
    7
 10
223.18583750454201
 20
224.37892384866905
 40
1.825531472681392
  0
LINE
  8
_0-a_極細3
  6
CENTER1
 62
    7
 10
179.59732643611943
 20
179.95803240681497
 11
179.59732643611943
 21
236.59605420419351
  0
LINE
  8
_0-d_寸法3
  6
CONTINUOUS
 62
    7
 10
212.09732643611929
 20
214.90143935793458
 11
212.09732643611915
 21
197.75674745702915
  0
LINE
  8
_0-d_寸法3
  6
CONTINUOUS
 62
    7
 10
212.0973264361192
 20
202.75674745702915
 11
221.75658469900995
 21
205.34493790805442
  0
LINE
  8
_0-d_寸法3
  6
CONTINUOUS
 62
    7
 10
212.0973264361192
 20
202.75674745702915
 11
221.75658469900995
 21
200.16855700600402
  0
LINE
  8
_0-d_寸法3
  6
CONTINUOUS
 62
    7
 10
262.09732643611926
 20
253.23477269126784
 11
262.09732643611846
 21
197.75674745702915
  0
LINE
  8
_0-d_寸法3
  6
CONTINUOUS
 62
    7
 10
262.09732643611858
 20
202.75674745702915
 11
252.43806817322786
 21
200.16855700600402
  0
LINE
  8
_0-d_寸法3
  6
CONTINUOUS
 62
    7
 10
262.09732643611858
 20
202.75674745702915
 11
252.43806817322792
 21
205.34493790805442
  0
LINE
  8
_0-d_寸法3
  6
CONTINUOUS
 62
    7
 10
212.0973264361192
 20
202.75674745702915
 11
262.09732643611858
 21
202.75674745702915
  0
TEXT
  8
_0-d_寸法3
 62
    7
 10
229.597326436119
 20
202.75674745702915
 40
15
 41
1
 50
0
  1
30
  0
ARC
  8
_0-b_細線3
  6
CONTINUOUS
 62
    7
 10
217.09732643611943
 20
268.23477269126784
 40
5
 50
179.99999999999983
 51
269.99999999999977
  0
LINE
  8
_0-b_細線3
  6
CONTINUOUS
 62
    7
 10
212.09732643611943
 20
268.23477269126784
 11
212.09732643611943
 21
292.40143935793435
  0
LINE
  8
_0-b_細線3
  6
CONTINUOUS
 62
    7
 10
217.09732643611943
 20
263.23477269126784
 11
261.263993102786
 21
263.23477269126784
  0
LINE
  8
_0-b_細線3
  6
CONTINUOUS
 62
    7
 10
262.09732643611943
 20
264.06810602460109
 11
261.263993102786
 21
263.23477269126784
  0
LINE
  8
_0-b_細線3
  6
CONTINUOUS
 62
    7
 10
262.09732643611943
 20
267.40143935793458
 11
262.09732643611943
 21
264.06810602460109
  0
LINE
  8
_0-b_細線3
  6
CONTINUOUS
 62
    7
 10
261.263993102786
 20
268.23477269126784
 11
262.09732643611943
 21
267.40143935793458
  0
LINE
  8
_0-b_細線3
  6
CONTINUOUS
 62
    7
 10
217.09732643611943
 20
268.23477269126784
 11
261.263993102786
 21
268.23477269126784
  0
LINE
  8
_0-b_細線3
  6
CONTINUOUS
 62
    7
 10
212.93065976945243
 20
293.23477269126784
 11
212.09732643611943
 21
292.40143935793435
  0
LINE
  8
_0-b_細線3
  6
CONTINUOUS
 62
    7
 10
216.263993102786
 20
293.23477269126784
 11
212.93065976945243
 21
293.23477269126784
  0
LINE
  8
_0-b_細線3
  6
CONTINUOUS
 62
    7
 10
217.09732643611943
 20
292.40143935793435
 11
216.263993102786
 21
293.23477269126784
  0
LINE
  8
_0-b_細線3
  6
CONTINUOUS
 62
    7
 10
217.09732643611943
 20
268.23477269126784
 11
217.09732643611943
 21
292.40143935793435
  0
LINE
  8
_0-b_細線3
  6
CONTINUOUS
 62
    7
 10
225.43065976945243
 20
268.23477269126738
 11
225.43065976945243
 21
293.23477269126715
  0
LINE
  8
_0-b_細線3
  6
CONTINUOUS
 62
    7
 10
225.43065976945243
 20
293.23477269126715
 11
220.43065976945243
 21
293.23477269126715
  0
LINE
  8
_0-b_細線3
  6
CONTINUOUS
 62
    7
 10
220.43065976945243
 20
293.23477269126715
 11
220.43065976945243
 21
268.23477269126738
  0
LINE
  8
_0-b_細線3
  6
CONTINUOUS
 62
    7
 10
220.43065976945243
 20
268.23477269126738
 11
225.43065976945243
 21
268.23477269126738
  0
LINE
  8
_0-a_極細3
  6
CONTINUOUS
 62
    7
 10
795.4306597694524
 20
256.56810602460109
 11
795.4306597694524
 21
188.23477269126784
  0
LINE
  8
_0-a_極細3
  6
CONTINUOUS
 62
    7
 10
712.09732643611937
 20
188.23477269126784
 11
795.4306597694524
 21
188.23477269126784
  0
LINE
  8
_0-a_極細3
  6
CONTINUOUS
 62
    7
 10
795.4306597694524
 20
256.56810602460109
 11
826.2750735812341
 21
256.56810602460109
  0
LINE
  8
_0-a_極細3
  6
CONTINUOUS
 62
    7
 10
712.09732643611937
 20
188.23477269126784
 11
712.09732643611937
 21
161.99317239648877
  0
LINE
  8
_0-a_極細3
  6
CONTINUOUS
 62
    7
 10
803.72066218404586
 20
161.99317239648877
 11
826.2750736227747
 21
184.54758383521764
  0
LINE
  8
_0-a_極細3
  6
CONTINUOUS
 62
    7
 10
733.00998406539088
 20
161.99317239648877
 11
759.25158436016989
 21
188.23477269126784
  0
LINE
  8
_0-a_極細3
  6
CONTINUOUS
 62
    7
 10
795.4306597694524
 20
224.41384810055047
 11
826.27507358198943
 21
255.25826191308738
  0
LINE
  8
_0-a_極細3
  6
CONTINUOUS
 62
    7
 10
796.64959437217999
 20
161.99317239648877
 11
826.27507361869618
 21
191.6186516430048
  0
LINE
  8
_0-a_極細3
  6
CONTINUOUS
 62
    7
 10
725.93891625352512
 20
161.99317239648877
 11
752.18051654830447
 21
188.23477269126784
  0
LINE
  8
_0-a_極細3
  6
CONTINUOUS
 62
    7
 10
795.4306597694524
 20
231.4849159124158
 11
820.51384970208744
 21
256.5681058450507
  0
LINE
  8
_0-a_極細3
  6
CONTINUOUS
 62
    7
 10
789.5785265603148
 20
161.99317239648877
 11
826.27507361461755
 21
198.68971945079167
  0
LINE
  8
_0-a_極細3
  6
CONTINUOUS
 62
    7
 10
718.86784844165982
 20
161.99317239648877
 11
745.10944873643916
 21
188.23477269126784
  0
LINE
  8
_0-a_極細3
  6
CONTINUOUS
 62
    7
 10
795.4306597694524
 20
238.55598372428153
 11
813.44278194083813
 21
256.5681058956668
  0
CIRCLE
  8
_0-a_極細3
  6
CONTINUOUS
 62
    7
 10
698.50312145515659
 20
247.0891090338539
 40
0.5530864197530718
  0
CIRCLE
  8
_0-a_極細3
  6
CONTINUOUS
 62
    7
 10
708.45867701071188
 20
251.88910903385388
 40
0.5530864197530718
  0
CIRCLE
  8
_0-a_極細3
  6
CONTINUOUS
 62
    7
 10
704.36978812182349
 20
226.91133125607647
 40
0.5530864197530718
  0
CIRCLE
  8
_0-a_極細3
  6
CONTINUOUS
 62
    7
 10
721.90312145515679
 20
209.88910903385431
 40
0.5530864197530718
  0
CIRCLE
  8
_0-a_極細3
  6
CONTINUOUS
 62
    7
 10
704.06978812182319
 20
186.58910903385461
 40
0.5530864197530718
  0
CIRCLE
  8
_0-a_極細3
  6
CONTINUOUS
 62
    7
 10
694.73645478849016
 20
168.72244236718799
 40
0.5530864197530718
  0
CIRCLE
  8
_0-a_極細3
  6
CONTINUOUS
 62
    7
 10
706.20312145515641
 20
198.58910903385436
 40
0.5530864197530718
  0
CIRCLE
  8
_0-a_極細3
  6
CONTINUOUS
 62
    7
 10
720.06978812182319
 20
193.78910903385446
 40
0.5530864197530718
  0
CIRCLE
  8
_0-a_極細3
  6
CONTINUOUS
 62
    7
 10
747.0031214551567
 20
194.05577570052102
 40
0.5530864197530718
  0
CIRCLE
  8
_0-a_極細3
  6
CONTINUOUS
 62
    7
 10
735.00312145515659
 20
203.12244236718769
 40
0.5530864197530718
  0
CIRCLE
  8
_0-a_極細3
  6
CONTINUOUS
 62
    7
 10
746.20312145515641
 20
208.72244236718757
 40
0.5530864197530718
  0
CIRCLE
  8
_0-a_極細3
  6
CONTINUOUS
 62
    7
 10
734.22534367737842
 20
263.01133125607589
 40
0.5530864197530718
  0
CIRCLE
  8
_0-a_極細3
  6
CONTINUOUS
 62
    7
 10
754.75867701071161
 20
262.3002201449649
 40
0.5530864197530718
  0
CIRCLE
  8
_0-a_極細3
  6
CONTINUOUS
 62
    7
 10
743.1586770107117
 20
248.30022014496492
 40
0.5530864197530718
  0
CIRCLE
  8
_0-a_極細3
  6
CONTINUOUS
 62
    7
 10
782.35867701071152
 20
195.10022014496556
 40
0.5530864197530718
  0
CIRCLE
  8
_0-a_極細3
  6
CONTINUOUS
 62
    7
 10
789.55867701071145
 20
209.10022014496553
 40
0.5530864197530718
  0
CIRCLE
  8
_0-a_極細3
  6
CONTINUOUS
 62
    7
 10
787.95867701071097
 20
229.90022014496529
 40
0.5530864197530718
  0
CIRCLE
  8
_0-a_極細3
  6
CONTINUOUS
 62
    7
 10
769.95867701071143
 20
251.10022014496508
 40
0.5530864197530718
  0
CIRCLE
  8
_0-a_極細3
  6
CONTINUOUS
 62
    7
 10
786.75867701071127
 20
270.70022014496476
 40
0.5530864197530718
  0
CIRCLE
  8
_0-a_極細3
  6
CONTINUOUS
 62
    7
 10
783.95867701071097
 20
243.90022014496506
 40
0.5530864197530718
  0
CIRCLE
  8
_0-a_極細3
  6
CONTINUOUS
 62
    7
 10
813.55867701071088
 20
265.10022014496485
 40
0.5530864197530718
  0
CIRCLE
  8
_0-a_極細3
  6
CONTINUOUS
 62
    7
 10
808.7586770107107
 20
278.87028187335977
 40
1.825531472681392
  0
CIRCLE
  8
_0-a_極細3
  6
CONTINUOUS
 62
    7
 10
793.11423256626654
 20
263.4036152066933
 40
1.825531472681392
  0
CIRCLE
  8
_0-a_極細3
  6
CONTINUOUS
 62
    7
 10
737.692010344045
 20
269.98139298447109
 40
1.825531472681392
  0
CIRCLE
  8
_0-a_極細3
  6
CONTINUOUS
 62
    7
 10
769.69201034404466
 20
237.98139298447111
 40
1.825531472681392
  0
CIRCLE
  8
_0-a_極細3
  6
CONTINUOUS
 62
    7
 10
699.2975658996013
 20
193.43139298447184
 40
1.825531472681392
  0
CIRCLE
  8
_0-a_極細3
  6
CONTINUOUS
 62
    7
 10
709.51978812182301
 20
223.29805965113837
 40
1.825531472681392
  0
CIRCLE
  8
_0-a_極細3
  6
CONTINUOUS
 62
    7
 10
744.71978812182283
 20
200.89805965113854
 40
1.825531472681392
  0
CIRCLE
  8
_0-a_極細3
  6
CONTINUOUS
 62
    7
 10
790.98498075710665
 20
190.71100725916907
 40
1.825531472681392
  0
CIRCLE
  8
_0-a_極細3
  6
CONTINUOUS
 62
    7
 10
740.31978812182274
 20
244.0980596511379
 40
1.825531472681392
  0
CIRCLE
  8
_0-a_極細3
  6
CONTINUOUS
 62
    7
 10
692.85373873910726
 20
238.67485424410165
 40
0.5530864197530718
  0
CIRCLE
  8
_0-a_極細3
  6
CONTINUOUS
 62
    7
 10
693.05373873910798
 20
214.71929868854636
 40
0.5530864197530718
  0
CIRCLE
  8
_0-a_極細3
  6
CONTINUOUS
 62
    7
 10
770.09201034404464
 20
275.44805965113778
 40
1.825531472681392
  0
LINE
  8
_0-a_極細3
  6
CONTINUOUS
 62
    7
 10
679.59732643611846
 20
263.23477269126784
 11
678.76399310278543
 21
263.23477269126784
  0
LINE
  8
_0-a_極細3
  6
CONTINUOUS
 62
    7
 10
678.76399310278543
 20
263.23477269126784
 11
678.76399310278543
 21
161.99317239648877
  0
CIRCLE
  8
_0-a_極細3
  6
CONTINUOUS
 62
    7
 10
684.74838894486879
 20
223.17799792274312
 40
0.5530864197530718
  0
CIRCLE
  8
_0-a_極細3
  6
CONTINUOUS
 62
    7
 10
686.05497330700859
 20
183.92244236718781
 40
0.5530864197530718
  0
CIRCLE
  8
_0-a_極細3
  6
CONTINUOUS
 62
    7
 10
685.416084418119
 20
249.87583742891641
 40
1.825531472681392
  0
CIRCLE
  8
_0-a_極細3
  6
CONTINUOUS
 62
    7
 10
688.36423256626699
 20
177.25361520669395
 40
1.825531472681392
  0
LINE
  8
_0-a_極細3
  6
CONTINUOUS
 62
    7
 10
772.40406132327121
 20
213.1164738537714
 11
777.53436347315642
 21
227.21186316555986
  0
LINE
  8
_0-a_極細3
  6
CONTINUOUS
 62
    7
 10
722.41001864947509
 20
247.27548386480592
 11
717.27971649959034
 21
233.18009455301763
  0
LINE
  8
_0-a_極細3
  6
CONTINUOUS
 62
    7
 10
777.53436347315642
 20
227.21186316555986
 11
722.41001864947509
 21
247.27548386480592
  0
LINE
  8
_0-a_極細3
  6
CONTINUOUS
 62
    7
 10
772.40406132327121
 20
213.1164738537714
 11
717.27971649959034
 21
233.18009455301763
  0
LINE
  8
_0-a_極細3
  6
CENTER1
 62
    7
 10
779.92464579020657
 20
218.36053846963569
 11
715.89362530764106
 21
241.66592395467117
  0
LINE
  8
_0-a_極細3
  6
CONTINUOUS
 62
    7
 10
753.76399310278589
 20
188.23477269126784
 11
753.76399310278589
 21
232.32033403958397
  0
LINE
  8
_0-a_極細3
  6
CONTINUOUS
 62
    7
 10
753.76399310278589
 20
232.32033403958397
 11
768.763993102786
 21
232.32033403958397
  0
LINE
  8
_0-a_極細3
  6
CONTINUOUS
 62
    7
 10
768.763993102786
 20
232.32033403958397
 11
768.763993102786
 21
188.23477269126784
  0
LINE
  8
_0-a_極細3
  6
CENTER1
 62
    7
 10
761.26399310278589
 20
179.95803240681497
 11
761.26399310278589
 21
236.59605420419351
  0
CIRCLE
  8
_0-a_極細3
  6
CONTINUOUS
 62
    7
 10
755.38089923293444
 20
245.39651644126138
 40
0.5530864197530718
  0
CIRCLE
  8
_0-a_極細3
  6
CONTINUOUS
 62
    7
 10
777.59708578986135
 20
232.05330656471847
 40
0.5530864197530718
  0
LINE
  8
_0-d_寸法3
  6
CONTINUOUS
 62
    7
 10
728.76399310278646
 20
214.90143935793458
 11
728.76399310278646
 21
197.75674745702915
  0
LINE
  8
_0-d_寸法3
  6
CONTINUOUS
 62
    7
 10
728.76399310278646
 20
202.75674745702915
 11
719.10473483989563
 21
200.16855700600402
  0
LINE
  8
_0-d_寸法3
  6
CONTINUOUS
 62
    7
 10
728.76399310278646
 20
202.75674745702915
 11
719.10473483989563
 21
205.34493790805442
  0
LINE
  8
_0-d_寸法3
  6
CONTINUOUS
 62
    7
 10
678.76399310278646
 20
253.23477269126784
 11
678.76399310278646
 21
197.75674745702915
  0
LINE
  8
_0-d_寸法3
  6
CONTINUOUS
 62
    7
 10
678.76399310278646
 20
202.75674745702915
 11
688.42325136567706
 21
205.34493790805442
  0
LINE
  8
_0-d_寸法3
  6
CONTINUOUS
 62
    7
 10
678.76399310278646
 20
202.75674745702915
 11
688.42325136567706
 21
200.16855700600402
  0
LINE
  8
_0-d_寸法3
  6
CONTINUOUS
 62
    7
 10
728.76399310278646
 20
202.75674745702915
 11
678.76399310278646
 21
202.75674745702915
  0
TEXT
  8
_0-d_寸法3
 62
    7
 10
696.26399310278646
 20
202.75674745702915
 40
15
 41
1
 50
0.0000000000002714
  1
30
  0
ARC
  8
_0-b_細線3
  6
CONTINUOUS
 62
    7
 10
723.76399310278589
 20
268.23477269126784
 40
5
 50
269.99999999999977
 51
359.99999999999966
  0
LINE
  8
_0-b_細線3
  6
CONTINUOUS
 62
    7
 10
728.76399310278589
 20
268.23477269126784
 11
728.76399310278589
 21
292.40143935793435
  0
LINE
  8
_0-b_細線3
  6
CONTINUOUS
 62
    7
 10
723.76399310278589
 20
263.23477269126784
 11
679.59732643611846
 21
263.23477269126784
  0
LINE
  8
_0-b_細線3
  6
CONTINUOUS
 62
    7
 10
678.76399310278543
 20
264.06810602460109
 11
679.59732643611846
 21
263.23477269126784
  0
LINE
  8
_0-b_細線3
  6
CONTINUOUS
 62
    7
 10
678.76399310278543
 20
267.40143935793458
 11
678.76399310278543
 21
264.06810602460109
  0
LINE
  8
_0-b_細線3
  6
CONTINUOUS
 62
    7
 10
679.59732643611846
 20
268.23477269126784
 11
678.76399310278543
 21
267.40143935793458
  0
LINE
  8
_0-b_細線3
  6
CONTINUOUS
 62
    7
 10
723.76399310278589
 20
268.23477269126784
 11
679.59732643611846
 21
268.23477269126784
  0
LINE
  8
_0-b_細線3
  6
CONTINUOUS
 62
    7
 10
727.93065976945286
 20
293.23477269126784
 11
728.76399310278589
 21
292.40143935793435
  0
LINE
  8
_0-b_細線3
  6
CONTINUOUS
 62
    7
 10
724.59732643611937
 20
293.23477269126784
 11
727.93065976945286
 21
293.23477269126784
  0
LINE
  8
_0-b_細線3
  6
CONTINUOUS
 62
    7
 10
723.76399310278589
 20
292.40143935793435
 11
724.59732643611937
 21
293.23477269126784
  0
LINE
  8
_0-b_細線3
  6
CONTINUOUS
 62
    7
 10
723.76399310278589
 20
268.23477269126784
 11
723.76399310278589
 21
292.40143935793435
  0
LINE
  8
_0-b_細線3
  6
CONTINUOUS
 62
    7
 10
715.43065976945286
 20
268.23477269126806
 11
715.43065976945286
 21
293.23477269126784
  0
LINE
  8
_0-b_細線3
  6
CONTINUOUS
 62
    7
 10
715.43065976945286
 20
293.23477269126784
 11
720.43065976945286
 21
293.23477269126784
  0
LINE
  8
_0-b_細線3
  6
CONTINUOUS
 62
    7
 10
720.43065976945286
 20
293.23477269126784
 11
720.43065976945286
 21
268.23477269126806
  0
LINE
  8
_0-b_細線3
  6
CONTINUOUS
 62
    7
 10
720.43065976945286
 20
268.23477269126806
 11
715.43065976945286
 21
268.23477269126806
  0
LINE
  8
_0-d_寸法3
  6
CONTINUOUS
 62
    7
 10
262.09732643611943
 20
258.23477269126784
 11
262.09732643611943
 21
197.75674745702915
  0
LINE
  8
_0-d_寸法3
  6
CONTINUOUS
 62
    7
 10
262.09732643611943
 20
202.75674745702915
 11
271.75658469901009
 21
205.34493790805442
  0
LINE
  8
_0-d_寸法3
  6
CONTINUOUS
 62
    7
 10
262.09732643611943
 20
202.75674745702915
 11
271.75658469901009
 21
200.16855700600402
  0
LINE
  8
_0-d_寸法3
  6
CONTINUOUS
 62
    7
 10
678.76399310278543
 20
258.23477269126784
 11
678.76399310278543
 21
197.75674745702915
  0
LINE
  8
_0-d_寸法3
  6
CONTINUOUS
 62
    7
 10
678.76399310278543
 20
202.75674745702915
 11
669.10473483989472
 21
200.16855700600402
  0
LINE
  8
_0-d_寸法3
  6
CONTINUOUS
 62
    7
 10
678.76399310278543
 20
202.75674745702915
 11
669.10473483989472
 21
205.34493790805442
  0
LINE
  8
_0-d_寸法3
  6
CONTINUOUS
 62
    7
 10
262.09732643611943
 20
202.75674745702915
 11
678.76399310278543
 21
202.75674745702915
  0
TEXT
  8
_0-d_寸法3
 62
    7
 10
459.18065976945252
 20
202.75674745702915
 40
15
 41
1
 50
0
  1
250
  0
LINE
  8
_0-b_細線3
  6
CONTINUOUS
 62
    7
 10
715.43065976945286
 20
268.23477269126806
 11
225.43065976945243
 21
268.23477269126738
  0
LINE
  8
_0-d_寸法3
  6
CONTINUOUS
 62
    7
 10
212.09732643611943
 20
298.23477269126784
 11
212.09732643611994
 21
418.23477269126784
  0
LINE
  8
_0-d_寸法3
  6
CONTINUOUS
 62
    7
 10
212.09732643611986
 20
413.23477269126784
 11
221.7565846990106
 21
415.82296314229302
  0
LINE
  8
_0-d_寸法3
  6
CONTINUOUS
 62
    7
 10
212.09732643611986
 20
413.23477269126784
 11
221.7565846990106
 21
410.64658224024271
  0
LINE
  8
_0-d_寸法3
  6
CONTINUOUS
 62
    7
 10
728.76399310278589
 20
298.23477269126784
 11
728.76399310278589
 21
418.23477269126784
  0
LINE
  8
_0-d_寸法3
  6
CONTINUOUS
 62
    7
 10
728.76399310278589
 20
413.23477269126784
 11
719.10473483989517
 21
410.64658224024271
  0
LINE
  8
_0-d_寸法3
  6
CONTINUOUS
 62
    7
 10
728.76399310278589
 20
413.23477269126784
 11
719.10473483989517
 21
415.82296314229313
  0
LINE
  8
_0-d_寸法3
  6
CONTINUOUS
 62
    7
 10
212.09732643611986
 20
413.23477269126784
 11
728.76399310278589
 21
413.23477269126784
  0
TEXT
  8
_0-d_寸法3
 62
    7
 10
459.18065976945252
 20
413.23477269126784
 40
15
 41
1
 50
0
  1
310
  0
LINE
  8
_0-d_寸法3
  6
CONTINUOUS
 62
    7
 10
220.43065976945257
 20
303.23477269126784
 11
220.43065976945272
 21
348.23477269126784
  0
LINE
  8
_0-d_寸法3
  6
CONTINUOUS
 62
    7
 10
220.43065976945272
 20
343.23477269126784
 11
230.08991803234338
 21
345.82296314229302
  0
LINE
  8
_0-d_寸法3
  6
CONTINUOUS
 62
    7
 10
220.43065976945272
 20
343.23477269126784
 11
230.08991803234338
 21
340.64658224024265
  0
LINE
  8
_0-d_寸法3
  6
CONTINUOUS
 62
    7
 10
387.09732643611915
 20
303.23477269126738
 11
387.09732643611949
 21
348.23477269126784
  0
LINE
  8
_0-d_寸法3
  6
CONTINUOUS
 62
    7
 10
387.09732643611943
 20
343.23477269126784
 11
377.43806817322871
 21
340.64658224024265
  0
LINE
  8
_0-d_寸法3
  6
CONTINUOUS
 62
    7
 10
387.09732643611943
 20
343.23477269126784
 11
377.43806817322877
 21
345.82296314229313
  0
LINE
  8
_0-d_寸法3
  6
CONTINUOUS
 62
    7
 10
220.43065976945272
 20
343.23477269126784
 11
387.09732643611943
 21
343.23477269126784
  0
TEXT
  8
_0-d_寸法3
 62
    7
 10
292.513993102786
 20
343.23477269126784
 40
15
 41
1
 50
0
  1
100
  0
LINE
  8
_0-d_寸法3
  6
CONTINUOUS
 62
    7
 10
387.09732643611943
 20
343.23477269126784
 11
396.75658469901015
 21
345.82296314229296
  0
LINE
  8
_0-d_寸法3
  6
CONTINUOUS
 62
    7
 10
387.09732643611943
 20
343.23477269126784
 11
396.75658469901009
 21
340.64658224024265
  0
LINE
  8
_0-d_寸法3
  6
CONTINUOUS
 62
    7
 10
553.763993102786
 20
303.23477269126784
 11
553.76399310278634
 21
348.23477269126784
  0
LINE
  8
_0-d_寸法3
  6
CONTINUOUS
 62
    7
 10
553.76399310278634
 20
343.23477269126784
 11
544.10473483989563
 21
340.64658224024265
  0
LINE
  8
_0-d_寸法3
  6
CONTINUOUS
 62
    7
 10
553.76399310278634
 20
343.23477269126784
 11
544.10473483989563
 21
345.82296314229313
  0
LINE
  8
_0-d_寸法3
  6
CONTINUOUS
 62
    7
 10
387.09732643611943
 20
343.23477269126784
 11
553.76399310278634
 21
343.23477269126784
  0
TEXT
  8
_0-d_寸法3
 62
    7
 10
459.18065976945252
 20
343.23477269126784
 40
15
 41
1
 50
0
  1
100
  0
LINE
  8
_0-d_寸法3
  6
CONTINUOUS
 62
    7
 10
553.76399310278634
 20
343.23477269126784
 11
563.42325136567706
 21
345.82296314229296
  0
LINE
  8
_0-d_寸法3
  6
CONTINUOUS
 62
    7
 10
553.76399310278634
 20
343.23477269126784
 11
563.42325136567706
 21
340.64658224024265
  0
LINE
  8
_0-d_寸法3
  6
CONTINUOUS
 62
    7
 10
720.43065976945286
 20
303.23477269126784
 11
720.43065976945286
 21
348.23477269126784
  0
LINE
  8
_0-d_寸法3
  6
CONTINUOUS
 62
    7
 10
720.43065976945286
 20
343.23477269126784
 11
710.77140150656214
 21
340.64658224024265
  0
LINE
  8
_0-d_寸法3
  6
CONTINUOUS
 62
    7
 10
720.43065976945286
 20
343.23477269126784
 11
710.77140150656214
 21
345.82296314229313
  0
LINE
  8
_0-d_寸法3
  6
CONTINUOUS
 62
    7
 10
553.76399310278634
 20
343.23477269126784
 11
720.43065976945286
 21
343.23477269126784
  0
TEXT
  8
_0-d_寸法3
 62
    7
 10
625.84732643611937
 20
343.23477269126784
 40
15
 41
1
 50
0
  1
100
  0
LINE
  8
_0-7_枠細線
  6
CONTINUOUS
 62
    5
 10
1139.4018171150183
 20
373.42884000293418
 11
1139.4018171150183
 21
453.42884000293418
  0
LINE
  8
_0-7_枠細線
  6
CONTINUOUS
 62
    5
 10
1229.4018171150183
 20
373.42884000293418
 11
1229.4018171150183
 21
453.42884000293418
  0
TEXT
  8
_0-7_枠細線
 62
    5
 10
1251.9018171150183
 20
430.92884000293418
 40
15
 41
1
 50
0
  1
蓋重量
  0
LINE
  8
_0-7_枠細線
  6
CONTINUOUS
 62
    5
 10
1319.4018171150183
 20
373.42884000293418
 11
1319.4018171150183
 21
453.42884000293418
  0
TEXT
  8
_0-7_枠細線
 62
    5
 10
1341.9018171150183
 20
430.92884000293418
 40
15
 41
1
 50
0
  1
枠重量
  0
LINE
  8
_0-7_枠細線
  6
CONTINUOUS
 62
    5
 10
1139.4018171150183
 20
423.42884000293418
 11
1409.4018171150183
 21
423.42884000293418
  0
LINE
  8
_0-7_枠細線
  6
CONTINUOUS
 62
    5
 10
1139.4018171150183
 20
453.42884000293418
 11
1409.4018171150183
 21
453.42884000293418
  0
LINE
  8
_0-7_枠細線
  6
CONTINUOUS
 62
    5
 10
1139.4018171150183
 20
373.42884000293418
 11
1409.4018171150183
 21
373.42884000293418
  0
LINE
  8
_0-7_枠細線
  6
CONTINUOUS
 62
    5
 10
1409.4018171150183
 20
373.42884000293418
 11
1409.4018171150183
 21
453.42884000293418
  0
TEXT
  8
_0-7_枠細線
 62
    5
 10
1247.4018171150178
 20
392.17884000293418
 40
15
 41
0.8000000000000001
 50
0
  1
11.6kg/枚
  0
TEXT
  8
_0-7_枠細線
 62
    5
 10
1334.4018171150183
 20
392.17884000293418
 40
15
 41
0.8000000000000001
 50
0
  1
2.2kg/ｍ組
  0
TEXT
  8
_0-7_枠細線
 62
    5
 10
1154.4018171150183
 20
430.92884000293418
 40
15
 41
1
 50
0
  1
適用荷重
  0
TEXT
  8
_0-7_枠細線
 62
    5
 10
1161.9018171150183
 20
400.92884000293418
 40
15
 41
1
 50
0
  1
歩道用
  0
TEXT
  8
_0-7_枠細線
 62
    5
 10
1139.4018171150183
 20
380.92884000293418
 40
15
 41
1
 50
0
  1
（5.0kN/㎡）
  0
LINE
  8
_0-0_計極細
  6
CONTINUOUS
 62
    2
 10
1211.4337501562543
 20
629.43908616188639
 11
1218.4337501562545
 21
629.43908616188639
  0
LINE
  8
_0-0_計極細
  6
CONTINUOUS
 62
    2
 10
1211.4337501562543
 20
634.43908616188639
 11
1218.4337501562545
 21
634.43908616188639
  0
LINE
  8
_0-0_計極細
  6
CONTINUOUS
 62
    2
 10
1211.4337501562543
 20
729.43908616188639
 11
1218.4337501562545
 21
729.43908616188639
  0
LINE
  8
_0-0_計極細
  6
CONTINUOUS
 62
    2
 10
1211.4337501562543
 20
734.43908616188639
 11
1218.4337501562545
 21
734.43908616188639
  0
LINE
  8
_0-0_計極細
  6
CONTINUOUS
 62
    2
 10
1201.4337501562543
 20
629.43908616188639
 11
1208.4337501562545
 21
629.43908616188639
  0
LINE
  8
_0-0_計極細
  6
CONTINUOUS
 62
    2
 10
1201.4337501562543
 20
634.43908616188639
 11
1208.4337501562545
 21
634.43908616188639
  0
LINE
  8
_0-0_計極細
  6
CONTINUOUS
 62
    2
 10
1201.4337501562543
 20
729.43908616188639
 11
1208.4337501562545
 21
729.43908616188639
  0
LINE
  8
_0-0_計極細
  6
CONTINUOUS
 62
    2
 10
1201.4337501562543
 20
734.43908616188639
 11
1208.4337501562545
 21
734.43908616188639
  0
LINE
  8
_0-0_計極細
  6
CONTINUOUS
 62
    2
 10
1191.4337501562543
 20
629.43908616188639
 11
1198.4337501562545
 21
629.43908616188639
  0
LINE
  8
_0-0_計極細
  6
CONTINUOUS
 62
    2
 10
1191.4337501562543
 20
634.43908616188639
 11
1198.4337501562545
 21
634.43908616188639
  0
LINE
  8
_0-0_計極細
  6
CONTINUOUS
 62
    2
 10
1191.4337501562543
 20
729.43908616188639
 11
1198.4337501562545
 21
729.43908616188639
  0
LINE
  8
_0-0_計極細
  6
CONTINUOUS
 62
    2
 10
1191.4337501562543
 20
734.43908616188639
 11
1198.4337501562545
 21
734.43908616188639
  0
LINE
  8
_0-0_計極細
  6
CONTINUOUS
 62
    2
 10
1181.4337501562543
 20
629.43908616188639
 11
1188.4337501562545
 21
629.43908616188639
  0
LINE
  8
_0-0_計極細
  6
CONTINUOUS
 62
    2
 10
1181.4337501562543
 20
634.43908616188639
 11
1188.4337501562545
 21
634.43908616188639
  0
LINE
  8
_0-0_計極細
  6
CONTINUOUS
 62
    2
 10
1181.4337501562543
 20
729.43908616188639
 11
1188.4337501562545
 21
729.43908616188639
  0
LINE
  8
_0-0_計極細
  6
CONTINUOUS
 62
    2
 10
1181.4337501562543
 20
734.43908616188639
 11
1188.4337501562545
 21
734.43908616188639
  0
LINE
  8
_0-0_計極細
  6
CONTINUOUS
 62
    2
 10
1171.4337501562543
 20
629.43908616188639
 11
1178.4337501562545
 21
629.43908616188639
  0
LINE
  8
_0-0_計極細
  6
CONTINUOUS
 62
    2
 10
1171.4337501562543
 20
634.43908616188639
 11
1178.4337501562545
 21
634.43908616188639
  0
LINE
  8
_0-0_計極細
  6
CONTINUOUS
 62
    2
 10
1171.4337501562543
 20
729.43908616188639
 11
1178.4337501562545
 21
729.43908616188639
  0
LINE
  8
_0-0_計極細
  6
CONTINUOUS
 62
    2
 10
1171.4337501562543
 20
734.43908616188639
 11
1178.4337501562545
 21
734.43908616188639
  0
LINE
  8
_0-0_計極細
  6
CONTINUOUS
 62
    2
 10
1161.4337501562543
 20
629.43908616188639
 11
1168.4337501562545
 21
629.43908616188639
  0
LINE
  8
_0-0_計極細
  6
CONTINUOUS
 62
    2
 10
1161.4337501562543
 20
634.43908616188639
 11
1168.4337501562545
 21
634.43908616188639
  0
LINE
  8
_0-0_計極細
  6
CONTINUOUS
 62
    2
 10
1161.4337501562543
 20
729.43908616188639
 11
1168.4337501562545
 21
729.43908616188639
  0
LINE
  8
_0-0_計極細
  6
CONTINUOUS
 62
    2
 10
1161.4337501562543
 20
734.43908616188639
 11
1168.4337501562545
 21
734.43908616188639
  0
LINE
  8
_0-0_計極細
  6
CONTINUOUS
 62
    2
 10
1151.4337501562543
 20
629.43908616188639
 11
1158.4337501562545
 21
629.43908616188639
  0
LINE
  8
_0-0_計極細
  6
CONTINUOUS
 62
    2
 10
1151.4337501562543
 20
634.43908616188639
 11
1158.4337501562545
 21
634.43908616188639
  0
LINE
  8
_0-0_計極細
  6
CONTINUOUS
 62
    2
 10
1151.4337501562543
 20
729.43908616188639
 11
1158.4337501562545
 21
729.43908616188639
  0
LINE
  8
_0-0_計極細
  6
CONTINUOUS
 62
    2
 10
1151.4337501562543
 20
734.43908616188639
 11
1158.4337501562545
 21
734.43908616188639
  0
LINE
  8
_0-0_計極細
  6
CONTINUOUS
 62
    2
 10
1141.4337501562543
 20
629.43908616188639
 11
1148.4337501562545
 21
629.43908616188639
  0
LINE
  8
_0-0_計極細
  6
CONTINUOUS
 62
    2
 10
1141.4337501562543
 20
634.43908616188639
 11
1148.4337501562545
 21
634.43908616188639
  0
LINE
  8
_0-0_計極細
  6
CONTINUOUS
 62
    2
 10
1141.4337501562543
 20
729.43908616188639
 11
1148.4337501562545
 21
729.43908616188639
  0
LINE
  8
_0-0_計極細
  6
CONTINUOUS
 62
    2
 10
1141.4337501562543
 20
734.43908616188639
 11
1148.4337501562545
 21
734.43908616188639
  0
LINE
  8
_0-0_計極細
  6
CONTINUOUS
 62
    2
 10
1131.4337501562543
 20
629.43908616188639
 11
1138.4337501562545
 21
629.43908616188639
  0
LINE
  8
_0-0_計極細
  6
CONTINUOUS
 62
    2
 10
1131.4337501562543
 20
634.43908616188639
 11
1138.4337501562545
 21
634.43908616188639
  0
LINE
  8
_0-0_計極細
  6
CONTINUOUS
 62
    2
 10
1131.4337501562543
 20
729.43908616188639
 11
1138.4337501562545
 21
729.43908616188639
  0
LINE
  8
_0-0_計極細
  6
CONTINUOUS
 62
    2
 10
1131.4337501562543
 20
734.43908616188639
 11
1138.4337501562545
 21
734.43908616188639
  0
LINE
  8
_0-0_計極細
  6
CONTINUOUS
 62
    2
 10
1121.4337501562543
 20
629.43908616188639
 11
1128.4337501562545
 21
629.43908616188639
  0
LINE
  8
_0-0_計極細
  6
CONTINUOUS
 62
    2
 10
1121.4337501562543
 20
634.43908616188639
 11
1128.4337501562545
 21
634.43908616188639
  0
LINE
  8
_0-0_計極細
  6
CONTINUOUS
 62
    2
 10
1121.4337501562543
 20
729.43908616188639
 11
1128.4337501562545
 21
729.43908616188639
  0
LINE
  8
_0-0_計極細
  6
CONTINUOUS
 62
    2
 10
1121.4337501562543
 20
734.43908616188639
 11
1128.4337501562545
 21
734.43908616188639
  0
LINE
  8
_0-0_計極細
  6
CONTINUOUS
 62
    2
 10
1111.4337501562543
 20
629.43908616188639
 11
1118.4337501562545
 21
629.43908616188639
  0
LINE
  8
_0-0_計極細
  6
CONTINUOUS
 62
    2
 10
1111.4337501562543
 20
634.43908616188639
 11
1118.4337501562545
 21
634.43908616188639
  0
LINE
  8
_0-0_計極細
  6
CONTINUOUS
 62
    2
 10
1111.4337501562543
 20
729.43908616188639
 11
1118.4337501562545
 21
729.43908616188639
  0
LINE
  8
_0-0_計極細
  6
CONTINUOUS
 62
    2
 10
1111.4337501562543
 20
734.43908616188639
 11
1118.4337501562545
 21
734.43908616188639
  0
LINE
  8
_0-0_計極細
  6
CONTINUOUS
 62
    2
 10
1101.4337501562543
 20
629.43908616188639
 11
1108.4337501562545
 21
629.43908616188639
  0
LINE
  8
_0-0_計極細
  6
CONTINUOUS
 62
    2
 10
1101.4337501562543
 20
634.43908616188639
 11
1108.4337501562545
 21
634.43908616188639
  0
LINE
  8
_0-0_計極細
  6
CONTINUOUS
 62
    2
 10
1101.4337501562543
 20
729.43908616188639
 11
1108.4337501562545
 21
729.43908616188639
  0
LINE
  8
_0-0_計極細
  6
CONTINUOUS
 62
    2
 10
1101.4337501562543
 20
734.43908616188639
 11
1108.4337501562545
 21
734.43908616188639
  0
LINE
  8
_0-0_計極細
  6
CONTINUOUS
 62
    2
 10
1091.4337501562543
 20
629.43908616188639
 11
1098.4337501562545
 21
629.43908616188639
  0
LINE
  8
_0-0_計極細
  6
CONTINUOUS
 62
    2
 10
1091.4337501562543
 20
634.43908616188639
 11
1098.4337501562545
 21
634.43908616188639
  0
LINE
  8
_0-0_計極細
  6
CONTINUOUS
 62
    2
 10
1091.4337501562543
 20
729.43908616188639
 11
1098.4337501562545
 21
729.43908616188639
  0
LINE
  8
_0-0_計極細
  6
CONTINUOUS
 62
    2
 10
1091.4337501562543
 20
734.43908616188639
 11
1098.4337501562545
 21
734.43908616188639
  0
LINE
  8
_0-0_計極細
  6
CONTINUOUS
 62
    2
 10
1081.4337501562543
 20
629.43908616188639
 11
1088.4337501562545
 21
629.43908616188639
  0
LINE
  8
_0-0_計極細
  6
CONTINUOUS
 62
    2
 10
1081.4337501562543
 20
634.43908616188639
 11
1088.4337501562545
 21
634.43908616188639
  0
LINE
  8
_0-0_計極細
  6
CONTINUOUS
 62
    2
 10
1081.4337501562543
 20
729.43908616188639
 11
1088.4337501562545
 21
729.43908616188639
  0
LINE
  8
_0-0_計極細
  6
CONTINUOUS
 62
    2
 10
1081.4337501562543
 20
734.43908616188639
 11
1088.4337501562545
 21
734.43908616188639
  0
LINE
  8
_0-0_計極細
  6
CONTINUOUS
 62
    2
 10
1071.4337501562543
 20
629.43908616188639
 11
1078.4337501562545
 21
629.43908616188639
  0
LINE
  8
_0-0_計極細
  6
CONTINUOUS
 62
    2
 10
1071.4337501562543
 20
634.43908616188639
 11
1078.4337501562545
 21
634.43908616188639
  0
LINE
  8
_0-0_計極細
  6
CONTINUOUS
 62
    2
 10
1071.4337501562543
 20
729.43908616188639
 11
1078.4337501562545
 21
729.43908616188639
  0
LINE
  8
_0-0_計極細
  6
CONTINUOUS
 62
    2
 10
1071.4337501562543
 20
734.43908616188639
 11
1078.4337501562545
 21
734.43908616188639
  0
LINE
  8
_0-0_計極細
  6
CONTINUOUS
 62
    2
 10
1061.4337501562543
 20
629.43908616188639
 11
1068.4337501562545
 21
629.43908616188639
  0
LINE
  8
_0-0_計極細
  6
CONTINUOUS
 62
    2
 10
1061.4337501562543
 20
634.43908616188639
 11
1068.4337501562545
 21
634.43908616188639
  0
LINE
  8
_0-0_計極細
  6
CONTINUOUS
 62
    2
 10
1061.4337501562543
 20
729.43908616188639
 11
1068.4337501562545
 21
729.43908616188639
  0
LINE
  8
_0-0_計極細
  6
CONTINUOUS
 62
    2
 10
1061.4337501562543
 20
734.43908616188639
 11
1068.4337501562545
 21
734.43908616188639
  0
LINE
  8
_0-0_計極細
  6
CONTINUOUS
 62
    2
 10
1051.4337501562543
 20
629.43908616188639
 11
1058.4337501562545
 21
629.43908616188639
  0
LINE
  8
_0-0_計極細
  6
CONTINUOUS
 62
    2
 10
1051.4337501562543
 20
634.43908616188639
 11
1058.4337501562545
 21
634.43908616188639
  0
LINE
  8
_0-0_計極細
  6
CONTINUOUS
 62
    2
 10
1051.4337501562543
 20
729.43908616188639
 11
1058.4337501562545
 21
729.43908616188639
  0
LINE
  8
_0-0_計極細
  6
CONTINUOUS
 62
    2
 10
1051.4337501562543
 20
734.43908616188639
 11
1058.4337501562545
 21
734.43908616188639
  0
LINE
  8
_0-0_計極細
  6
CONTINUOUS
 62
    2
 10
1041.4337501562543
 20
629.43908616188639
 11
1048.4337501562545
 21
629.43908616188639
  0
LINE
  8
_0-0_計極細
  6
CONTINUOUS
 62
    2
 10
1041.4337501562543
 20
634.43908616188639
 11
1048.4337501562545
 21
634.43908616188639
  0
LINE
  8
_0-0_計極細
  6
CONTINUOUS
 62
    2
 10
1041.4337501562543
 20
729.43908616188639
 11
1048.4337501562545
 21
729.43908616188639
  0
LINE
  8
_0-0_計極細
  6
CONTINUOUS
 62
    2
 10
1041.4337501562543
 20
734.43908616188639
 11
1048.4337501562545
 21
734.43908616188639
  0
LINE
  8
_0-0_計極細
  6
CONTINUOUS
 62
    2
 10
1031.4337501562543
 20
629.43908616188639
 11
1038.4337501562545
 21
629.43908616188639
  0
LINE
  8
_0-0_計極細
  6
CONTINUOUS
 62
    2
 10
1031.4337501562543
 20
634.43908616188639
 11
1038.4337501562545
 21
634.43908616188639
  0
LINE
  8
_0-0_計極細
  6
CONTINUOUS
 62
    2
 10
1031.4337501562543
 20
729.43908616188639
 11
1038.4337501562545
 21
729.43908616188639
  0
LINE
  8
_0-0_計極細
  6
CONTINUOUS
 62
    2
 10
1031.4337501562543
 20
734.43908616188639
 11
1038.4337501562545
 21
734.43908616188639
  0
LINE
  8
_0-0_計極細
  6
CONTINUOUS
 62
    2
 10
1021.4337501562544
 20
629.43908616188639
 11
1028.4337501562545
 21
629.43908616188639
  0
LINE
  8
_0-0_計極細
  6
CONTINUOUS
 62
    2
 10
1021.4337501562544
 20
634.43908616188639
 11
1028.4337501562545
 21
634.43908616188639
  0
LINE
  8
_0-0_計極細
  6
CONTINUOUS
 62
    2
 10
1021.4337501562544
 20
729.43908616188639
 11
1028.4337501562545
 21
729.43908616188639
  0
LINE
  8
_0-0_計極細
  6
CONTINUOUS
 62
    2
 10
1021.4337501562544
 20
734.43908616188639
 11
1028.4337501562545
 21
734.43908616188639
  0
LINE
  8
_0-0_計極細
  6
CONTINUOUS
 62
    2
 10
1011.4337501562544
 20
629.43908616188639
 11
1018.4337501562544
 21
629.43908616188639
  0
LINE
  8
_0-0_計極細
  6
CONTINUOUS
 62
    2
 10
1011.4337501562544
 20
634.43908616188639
 11
1018.4337501562544
 21
634.43908616188639
  0
LINE
  8
_0-0_計極細
  6
CONTINUOUS
 62
    2
 10
1011.4337501562544
 20
729.43908616188639
 11
1018.4337501562544
 21
729.43908616188639
  0
LINE
  8
_0-0_計極細
  6
CONTINUOUS
 62
    2
 10
1011.4337501562544
 20
734.43908616188639
 11
1018.4337501562544
 21
734.43908616188639
  0
LINE
  8
_0-0_計極細
  6
CONTINUOUS
 62
    2
 10
1001.4337501562544
 20
629.43908616188639
 11
1008.4337501562544
 21
629.43908616188639
  0
LINE
  8
_0-0_計極細
  6
CONTINUOUS
 62
    2
 10
1001.4337501562544
 20
634.43908616188639
 11
1008.4337501562544
 21
634.43908616188639
  0
LINE
  8
_0-0_計極細
  6
CONTINUOUS
 62
    2
 10
1001.4337501562544
 20
729.43908616188639
 11
1008.4337501562544
 21
729.43908616188639
  0
LINE
  8
_0-0_計極細
  6
CONTINUOUS
 62
    2
 10
1001.4337501562544
 20
734.43908616188639
 11
1008.4337501562544
 21
734.43908616188639
  0
LINE
  8
_0-0_計極細
  6
CONTINUOUS
 62
    2
 10
991.4337501562544
 20
629.43908616188639
 11
998.4337501562544
 21
629.43908616188639
  0
LINE
  8
_0-0_計極細
  6
CONTINUOUS
 62
    2
 10
991.4337501562544
 20
634.43908616188639
 11
998.4337501562544
 21
634.43908616188639
  0
LINE
  8
_0-0_計極細
  6
CONTINUOUS
 62
    2
 10
991.4337501562544
 20
729.43908616188639
 11
998.4337501562544
 21
729.43908616188639
  0
LINE
  8
_0-0_計極細
  6
CONTINUOUS
 62
    2
 10
991.4337501562544
 20
734.43908616188639
 11
998.4337501562544
 21
734.43908616188639
  0
LINE
  8
_0-0_計極細
  6
CONTINUOUS
 62
    2
 10
981.4337501562544
 20
629.43908616188639
 11
988.4337501562544
 21
629.43908616188639
  0
LINE
  8
_0-0_計極細
  6
CONTINUOUS
 62
    2
 10
981.4337501562544
 20
634.43908616188639
 11
988.4337501562544
 21
634.43908616188639
  0
LINE
  8
_0-0_計極細
  6
CONTINUOUS
 62
    2
 10
981.4337501562544
 20
729.43908616188639
 11
988.4337501562544
 21
729.43908616188639
  0
LINE
  8
_0-0_計極細
  6
CONTINUOUS
 62
    2
 10
981.4337501562544
 20
734.43908616188639
 11
988.4337501562544
 21
734.43908616188639
  0
LINE
  8
_0-0_計極細
  6
CONTINUOUS
 62
    2
 10
971.4337501562544
 20
629.43908616188639
 11
978.4337501562544
 21
629.43908616188639
  0
LINE
  8
_0-0_計極細
  6
CONTINUOUS
 62
    2
 10
971.4337501562544
 20
634.43908616188639
 11
978.4337501562544
 21
634.43908616188639
  0
LINE
  8
_0-0_計極細
  6
CONTINUOUS
 62
    2
 10
971.4337501562544
 20
729.43908616188639
 11
978.4337501562544
 21
729.43908616188639
  0
LINE
  8
_0-0_計極細
  6
CONTINUOUS
 62
    2
 10
971.4337501562544
 20
734.43908616188639
 11
978.4337501562544
 21
734.43908616188639
  0
LINE
  8
_0-0_計極細
  6
CONTINUOUS
 62
    2
 10
961.4337501562544
 20
629.43908616188639
 11
968.4337501562544
 21
629.43908616188639
  0
LINE
  8
_0-0_計極細
  6
CONTINUOUS
 62
    2
 10
961.4337501562544
 20
634.43908616188639
 11
968.4337501562544
 21
634.43908616188639
  0
LINE
  8
_0-0_計極細
  6
CONTINUOUS
 62
    2
 10
961.4337501562544
 20
729.43908616188639
 11
968.4337501562544
 21
729.43908616188639
  0
LINE
  8
_0-0_計極細
  6
CONTINUOUS
 62
    2
 10
961.4337501562544
 20
734.43908616188639
 11
968.4337501562544
 21
734.43908616188639
  0
LINE
  8
_0-0_計極細
  6
CONTINUOUS
 62
    2
 10
951.4337501562544
 20
629.43908616188639
 11
958.4337501562544
 21
629.43908616188639
  0
LINE
  8
_0-0_計極細
  6
CONTINUOUS
 62
    2
 10
951.4337501562544
 20
634.43908616188639
 11
958.4337501562544
 21
634.43908616188639
  0
LINE
  8
_0-0_計極細
  6
CONTINUOUS
 62
    2
 10
951.4337501562544
 20
729.43908616188639
 11
958.4337501562544
 21
729.43908616188639
  0
LINE
  8
_0-0_計極細
  6
CONTINUOUS
 62
    2
 10
951.4337501562544
 20
734.43908616188639
 11
958.4337501562544
 21
734.43908616188639
  0
LINE
  8
_0-0_計極細
  6
CONTINUOUS
 62
    2
 10
941.4337501562544
 20
629.43908616188639
 11
948.4337501562544
 21
629.43908616188639
  0
LINE
  8
_0-0_計極細
  6
CONTINUOUS
 62
    2
 10
941.4337501562544
 20
634.43908616188639
 11
948.4337501562544
 21
634.43908616188639
  0
LINE
  8
_0-0_計極細
  6
CONTINUOUS
 62
    2
 10
941.4337501562544
 20
729.43908616188639
 11
948.4337501562544
 21
729.43908616188639
  0
LINE
  8
_0-0_計極細
  6
CONTINUOUS
 62
    2
 10
941.4337501562544
 20
734.43908616188639
 11
948.4337501562544
 21
734.43908616188639
  0
LINE
  8
_0-0_計極細
  6
CONTINUOUS
 62
    2
 10
931.4337501562544
 20
629.43908616188639
 11
938.4337501562544
 21
629.43908616188639
  0
LINE
  8
_0-0_計極細
  6
CONTINUOUS
 62
    2
 10
931.4337501562544
 20
634.43908616188639
 11
938.4337501562544
 21
634.43908616188639
  0
LINE
  8
_0-0_計極細
  6
CONTINUOUS
 62
    2
 10
931.4337501562544
 20
729.43908616188639
 11
938.4337501562544
 21
729.43908616188639
  0
LINE
  8
_0-0_計極細
  6
CONTINUOUS
 62
    2
 10
931.4337501562544
 20
734.43908616188639
 11
938.4337501562544
 21
734.43908616188639
  0
LINE
  8
_0-0_計極細
  6
CONTINUOUS
 62
    2
 10
921.4337501562544
 20
629.43908616188639
 11
928.4337501562544
 21
629.43908616188639
  0
LINE
  8
_0-0_計極細
  6
CONTINUOUS
 62
    2
 10
921.4337501562544
 20
634.43908616188639
 11
928.4337501562544
 21
634.43908616188639
  0
LINE
  8
_0-0_計極細
  6
CONTINUOUS
 62
    2
 10
921.4337501562544
 20
729.43908616188639
 11
928.4337501562544
 21
729.43908616188639
  0
LINE
  8
_0-0_計極細
  6
CONTINUOUS
 62
    2
 10
921.4337501562544
 20
734.43908616188639
 11
928.4337501562544
 21
734.43908616188639
  0
LINE
  8
_0-0_計極細
  6
CONTINUOUS
 62
    2
 10
911.4337501562544
 20
629.43908616188639
 11
918.4337501562544
 21
629.43908616188639
  0
LINE
  8
_0-0_計極細
  6
CONTINUOUS
 62
    2
 10
911.4337501562544
 20
634.43908616188639
 11
918.4337501562544
 21
634.43908616188639
  0
LINE
  8
_0-0_計極細
  6
CONTINUOUS
 62
    2
 10
911.4337501562544
 20
729.43908616188639
 11
918.4337501562544
 21
729.43908616188639
  0
LINE
  8
_0-0_計極細
  6
CONTINUOUS
 62
    2
 10
911.4337501562544
 20
734.43908616188639
 11
918.4337501562544
 21
734.43908616188639
  0
LINE
  8
_0-0_計極細
  6
CONTINUOUS
 62
    2
 10
901.4337501562544
 20
629.43908616188639
 11
908.4337501562544
 21
629.43908616188639
  0
LINE
  8
_0-0_計極細
  6
CONTINUOUS
 62
    2
 10
901.4337501562544
 20
634.43908616188639
 11
908.4337501562544
 21
634.43908616188639
  0
LINE
  8
_0-0_計極細
  6
CONTINUOUS
 62
    2
 10
901.4337501562544
 20
729.43908616188639
 11
908.4337501562544
 21
729.43908616188639
  0
LINE
  8
_0-0_計極細
  6
CONTINUOUS
 62
    2
 10
901.4337501562544
 20
734.43908616188639
 11
908.4337501562544
 21
734.43908616188639
  0
LINE
  8
_0-0_計極細
  6
CONTINUOUS
 62
    2
 10
891.4337501562544
 20
629.43908616188639
 11
898.4337501562544
 21
629.43908616188639
  0
LINE
  8
_0-0_計極細
  6
CONTINUOUS
 62
    2
 10
891.4337501562544
 20
634.43908616188639
 11
898.4337501562544
 21
634.43908616188639
  0
LINE
  8
_0-0_計極細
  6
CONTINUOUS
 62
    2
 10
891.4337501562544
 20
729.43908616188639
 11
898.4337501562544
 21
729.43908616188639
  0
LINE
  8
_0-0_計極細
  6
CONTINUOUS
 62
    2
 10
891.4337501562544
 20
734.43908616188639
 11
898.4337501562544
 21
734.43908616188639
  0
LINE
  8
_0-0_計極細
  6
CONTINUOUS
 62
    2
 10
881.4337501562544
 20
629.43908616188639
 11
888.4337501562544
 21
629.43908616188639
  0
LINE
  8
_0-0_計極細
  6
CONTINUOUS
 62
    2
 10
881.4337501562544
 20
634.43908616188639
 11
888.4337501562544
 21
634.43908616188639
  0
LINE
  8
_0-0_計極細
  6
CONTINUOUS
 62
    2
 10
881.4337501562544
 20
729.43908616188639
 11
888.4337501562544
 21
729.43908616188639
  0
LINE
  8
_0-0_計極細
  6
CONTINUOUS
 62
    2
 10
881.4337501562544
 20
734.43908616188639
 11
888.4337501562544
 21
734.43908616188639
  0
LINE
  8
_0-0_計極細
  6
CONTINUOUS
 62
    2
 10
871.4337501562544
 20
629.43908616188639
 11
878.4337501562544
 21
629.43908616188639
  0
LINE
  8
_0-0_計極細
  6
CONTINUOUS
 62
    2
 10
871.4337501562544
 20
634.43908616188639
 11
878.4337501562544
 21
634.43908616188639
  0
LINE
  8
_0-0_計極細
  6
CONTINUOUS
 62
    2
 10
871.4337501562544
 20
729.43908616188639
 11
878.4337501562544
 21
729.43908616188639
  0
LINE
  8
_0-0_計極細
  6
CONTINUOUS
 62
    2
 10
871.4337501562544
 20
734.43908616188639
 11
878.4337501562544
 21
734.43908616188639
  0
LINE
  8
_0-0_計極細
  6
CONTINUOUS
 62
    2
 10
861.4337501562544
 20
629.43908616188639
 11
868.4337501562544
 21
629.43908616188639
  0
LINE
  8
_0-0_計極細
  6
CONTINUOUS
 62
    2
 10
861.4337501562544
 20
634.43908616188639
 11
868.4337501562544
 21
634.43908616188639
  0
LINE
  8
_0-0_計極細
  6
CONTINUOUS
 62
    2
 10
861.4337501562544
 20
729.43908616188639
 11
868.4337501562544
 21
729.43908616188639
  0
LINE
  8
_0-0_計極細
  6
CONTINUOUS
 62
    2
 10
861.4337501562544
 20
734.43908616188639
 11
868.4337501562544
 21
734.43908616188639
  0
LINE
  8
_0-0_計極細
  6
CONTINUOUS
 62
    2
 10
851.4337501562544
 20
629.43908616188639
 11
858.4337501562544
 21
629.43908616188639
  0
LINE
  8
_0-0_計極細
  6
CONTINUOUS
 62
    2
 10
851.4337501562544
 20
634.43908616188639
 11
858.4337501562544
 21
634.43908616188639
  0
LINE
  8
_0-0_計極細
  6
CONTINUOUS
 62
    2
 10
851.4337501562544
 20
729.43908616188639
 11
858.4337501562544
 21
729.43908616188639
  0
LINE
  8
_0-0_計極細
  6
CONTINUOUS
 62
    2
 10
851.4337501562544
 20
734.43908616188639
 11
858.4337501562544
 21
734.43908616188639
  0
LINE
  8
_0-0_計極細
  6
CONTINUOUS
 62
    2
 10
841.4337501562544
 20
629.43908616188639
 11
848.4337501562544
 21
629.43908616188639
  0
LINE
  8
_0-0_計極細
  6
CONTINUOUS
 62
    2
 10
841.4337501562544
 20
634.43908616188639
 11
848.4337501562544
 21
634.43908616188639
  0
LINE
  8
_0-0_計極細
  6
CONTINUOUS
 62
    2
 10
841.4337501562544
 20
729.43908616188639
 11
848.4337501562544
 21
729.43908616188639
  0
LINE
  8
_0-0_計極細
  6
CONTINUOUS
 62
    2
 10
841.4337501562544
 20
734.43908616188639
 11
848.4337501562544
 21
734.43908616188639
  0
LINE
  8
_0-0_計極細
  6
CONTINUOUS
 62
    2
 10
831.4337501562544
 20
629.43908616188639
 11
838.4337501562544
 21
629.43908616188639
  0
LINE
  8
_0-0_計極細
  6
CONTINUOUS
 62
    2
 10
831.4337501562544
 20
634.43908616188639
 11
838.4337501562544
 21
634.43908616188639
  0
LINE
  8
_0-0_計極細
  6
CONTINUOUS
 62
    2
 10
831.4337501562544
 20
729.43908616188639
 11
838.4337501562544
 21
729.43908616188639
  0
LINE
  8
_0-0_計極細
  6
CONTINUOUS
 62
    2
 10
831.4337501562544
 20
734.43908616188639
 11
838.4337501562544
 21
734.43908616188639
  0
LINE
  8
_0-0_計極細
  6
CONTINUOUS
 62
    2
 10
821.4337501562544
 20
629.43908616188639
 11
828.4337501562544
 21
629.43908616188639
  0
LINE
  8
_0-0_計極細
  6
CONTINUOUS
 62
    2
 10
821.4337501562544
 20
634.43908616188639
 11
828.4337501562544
 21
634.43908616188639
  0
LINE
  8
_0-0_計極細
  6
CONTINUOUS
 62
    2
 10
821.4337501562544
 20
729.43908616188639
 11
828.4337501562544
 21
729.43908616188639
  0
LINE
  8
_0-0_計極細
  6
CONTINUOUS
 62
    2
 10
821.4337501562544
 20
734.43908616188639
 11
828.4337501562544
 21
734.43908616188639
  0
LINE
  8
_0-0_計極細
  6
CONTINUOUS
 62
    2
 10
811.4337501562544
 20
629.43908616188639
 11
818.4337501562544
 21
629.43908616188639
  0
LINE
  8
_0-0_計極細
  6
CONTINUOUS
 62
    2
 10
811.4337501562544
 20
634.43908616188639
 11
818.4337501562544
 21
634.43908616188639
  0
LINE
  8
_0-0_計極細
  6
CONTINUOUS
 62
    2
 10
811.4337501562544
 20
729.43908616188639
 11
818.4337501562544
 21
729.43908616188639
  0
LINE
  8
_0-0_計極細
  6
CONTINUOUS
 62
    2
 10
811.4337501562544
 20
734.43908616188639
 11
818.4337501562544
 21
734.43908616188639
  0
LINE
  8
_0-0_計極細
  6
CONTINUOUS
 62
    2
 10
801.4337501562544
 20
629.43908616188639
 11
808.4337501562544
 21
629.43908616188639
  0
LINE
  8
_0-0_計極細
  6
CONTINUOUS
 62
    2
 10
801.4337501562544
 20
634.43908616188639
 11
808.4337501562544
 21
634.43908616188639
  0
LINE
  8
_0-0_計極細
  6
CONTINUOUS
 62
    2
 10
801.4337501562544
 20
729.43908616188639
 11
808.4337501562544
 21
729.43908616188639
  0
LINE
  8
_0-0_計極細
  6
CONTINUOUS
 62
    2
 10
801.4337501562544
 20
734.43908616188639
 11
808.4337501562544
 21
734.43908616188639
  0
LINE
  8
_0-0_計極細
  6
CONTINUOUS
 62
    2
 10
791.4337501562544
 20
629.43908616188639
 11
798.4337501562544
 21
629.43908616188639
  0
LINE
  8
_0-0_計極細
  6
CONTINUOUS
 62
    2
 10
791.4337501562544
 20
634.43908616188639
 11
798.4337501562544
 21
634.43908616188639
  0
LINE
  8
_0-0_計極細
  6
CONTINUOUS
 62
    2
 10
791.4337501562544
 20
729.43908616188639
 11
798.4337501562544
 21
729.43908616188639
  0
LINE
  8
_0-0_計極細
  6
CONTINUOUS
 62
    2
 10
791.4337501562544
 20
734.43908616188639
 11
798.4337501562544
 21
734.43908616188639
  0
LINE
  8
_0-0_計極細
  6
CONTINUOUS
 62
    2
 10
781.4337501562544
 20
629.43908616188639
 11
788.4337501562544
 21
629.43908616188639
  0
LINE
  8
_0-0_計極細
  6
CONTINUOUS
 62
    2
 10
781.4337501562544
 20
634.43908616188639
 11
788.4337501562544
 21
634.43908616188639
  0
LINE
  8
_0-0_計極細
  6
CONTINUOUS
 62
    2
 10
781.4337501562544
 20
729.43908616188639
 11
788.4337501562544
 21
729.43908616188639
  0
LINE
  8
_0-0_計極細
  6
CONTINUOUS
 62
    2
 10
781.4337501562544
 20
734.43908616188639
 11
788.4337501562544
 21
734.43908616188639
  0
LINE
  8
_0-0_計極細
  6
CONTINUOUS
 62
    2
 10
771.4337501562544
 20
629.43908616188639
 11
778.4337501562544
 21
629.43908616188639
  0
LINE
  8
_0-0_計極細
  6
CONTINUOUS
 62
    2
 10
771.4337501562544
 20
634.43908616188639
 11
778.4337501562544
 21
634.43908616188639
  0
LINE
  8
_0-0_計極細
  6
CONTINUOUS
 62
    2
 10
771.4337501562544
 20
729.43908616188639
 11
778.4337501562544
 21
729.43908616188639
  0
LINE
  8
_0-0_計極細
  6
CONTINUOUS
 62
    2
 10
771.4337501562544
 20
734.43908616188639
 11
778.4337501562544
 21
734.43908616188639
  0
LINE
  8
_0-0_計極細
  6
CONTINUOUS
 62
    2
 10
761.4337501562544
 20
629.43908616188639
 11
768.4337501562544
 21
629.43908616188639
  0
LINE
  8
_0-0_計極細
  6
CONTINUOUS
 62
    2
 10
761.4337501562544
 20
634.43908616188639
 11
768.4337501562544
 21
634.43908616188639
  0
LINE
  8
_0-0_計極細
  6
CONTINUOUS
 62
    2
 10
761.4337501562544
 20
729.43908616188639
 11
768.4337501562544
 21
729.43908616188639
  0
LINE
  8
_0-0_計極細
  6
CONTINUOUS
 62
    2
 10
761.4337501562544
 20
734.43908616188639
 11
768.4337501562544
 21
734.43908616188639
  0
LINE
  8
_0-0_計極細
  6
CONTINUOUS
 62
    2
 10
751.4337501562544
 20
629.43908616188639
 11
758.43375015625429
 21
629.43908616188639
  0
LINE
  8
_0-0_計極細
  6
CONTINUOUS
 62
    2
 10
751.4337501562544
 20
634.43908616188639
 11
758.43375015625429
 21
634.43908616188639
  0
LINE
  8
_0-0_計極細
  6
CONTINUOUS
 62
    2
 10
751.4337501562544
 20
729.43908616188639
 11
758.43375015625429
 21
729.43908616188639
  0
LINE
  8
_0-0_計極細
  6
CONTINUOUS
 62
    2
 10
751.4337501562544
 20
734.43908616188639
 11
758.43375015625429
 21
734.43908616188639
  0
LINE
  8
_0-0_計極細
  6
CONTINUOUS
 62
    2
 10
741.4337501562544
 20
629.43908616188639
 11
748.43375015625429
 21
629.43908616188639
  0
LINE
  8
_0-0_計極細
  6
CONTINUOUS
 62
    2
 10
741.4337501562544
 20
634.43908616188639
 11
748.43375015625429
 21
634.43908616188639
  0
LINE
  8
_0-0_計極細
  6
CONTINUOUS
 62
    2
 10
741.4337501562544
 20
729.43908616188639
 11
748.43375015625429
 21
729.43908616188639
  0
LINE
  8
_0-0_計極細
  6
CONTINUOUS
 62
    2
 10
741.4337501562544
 20
734.43908616188639
 11
748.43375015625429
 21
734.43908616188639
  0
LINE
  8
_0-0_計極細
  6
CONTINUOUS
 62
    2
 10
731.4337501562544
 20
629.43908616188639
 11
738.43375015625429
 21
629.43908616188639
  0
LINE
  8
_0-0_計極細
  6
CONTINUOUS
 62
    2
 10
731.4337501562544
 20
634.43908616188639
 11
738.43375015625429
 21
634.43908616188639
  0
LINE
  8
_0-0_計極細
  6
CONTINUOUS
 62
    2
 10
731.4337501562544
 20
729.43908616188639
 11
738.43375015625429
 21
729.43908616188639
  0
LINE
  8
_0-0_計極細
  6
CONTINUOUS
 62
    2
 10
731.4337501562544
 20
734.43908616188639
 11
738.43375015625429
 21
734.43908616188639
  0
LINE
  8
_0-0_計極細
  6
CONTINUOUS
 62
    2
 10
721.4337501562544
 20
629.43908616188639
 11
728.43375015625429
 21
629.43908616188639
  0
LINE
  8
_0-0_計極細
  6
CONTINUOUS
 62
    2
 10
721.4337501562544
 20
634.43908616188639
 11
728.43375015625429
 21
634.43908616188639
  0
LINE
  8
_0-0_計極細
  6
CONTINUOUS
 62
    2
 10
721.4337501562544
 20
729.43908616188639
 11
728.43375015625429
 21
729.43908616188639
  0
LINE
  8
_0-0_計極細
  6
CONTINUOUS
 62
    2
 10
721.4337501562544
 20
734.43908616188639
 11
728.43375015625429
 21
734.43908616188639
  0
LINE
  8
_0-0_計極細
  6
CONTINUOUS
 62
    2
 10
711.4337501562544
 20
629.43908616188639
 11
718.43375015625429
 21
629.43908616188639
  0
LINE
  8
_0-0_計極細
  6
CONTINUOUS
 62
    2
 10
711.4337501562544
 20
634.43908616188639
 11
718.43375015625429
 21
634.43908616188639
  0
LINE
  8
_0-0_計極細
  6
CONTINUOUS
 62
    2
 10
711.4337501562544
 20
729.43908616188639
 11
718.43375015625429
 21
729.43908616188639
  0
LINE
  8
_0-0_計極細
  6
CONTINUOUS
 62
    2
 10
711.4337501562544
 20
734.43908616188639
 11
718.43375015625429
 21
734.43908616188639
  0
LINE
  8
_0-0_計極細
  6
CONTINUOUS
 62
    2
 10
701.4337501562544
 20
629.43908616188639
 11
708.43375015625429
 21
629.43908616188639
  0
LINE
  8
_0-0_計極細
  6
CONTINUOUS
 62
    2
 10
701.4337501562544
 20
634.43908616188639
 11
708.43375015625429
 21
634.43908616188639
  0
LINE
  8
_0-0_計極細
  6
CONTINUOUS
 62
    2
 10
701.4337501562544
 20
729.43908616188639
 11
708.43375015625429
 21
729.43908616188639
  0
LINE
  8
_0-0_計極細
  6
CONTINUOUS
 62
    2
 10
701.4337501562544
 20
734.43908616188639
 11
708.43375015625429
 21
734.43908616188639
  0
LINE
  8
_0-0_計極細
  6
CONTINUOUS
 62
    2
 10
691.4337501562544
 20
629.43908616188639
 11
698.43375015625429
 21
629.43908616188639
  0
LINE
  8
_0-0_計極細
  6
CONTINUOUS
 62
    2
 10
691.4337501562544
 20
634.43908616188639
 11
698.43375015625429
 21
634.43908616188639
  0
LINE
  8
_0-0_計極細
  6
CONTINUOUS
 62
    2
 10
691.4337501562544
 20
729.43908616188639
 11
698.43375015625429
 21
729.43908616188639
  0
LINE
  8
_0-0_計極細
  6
CONTINUOUS
 62
    2
 10
691.4337501562544
 20
734.43908616188639
 11
698.43375015625429
 21
734.43908616188639
  0
LINE
  8
_0-0_計極細
  6
CONTINUOUS
 62
    2
 10
681.4337501562544
 20
629.43908616188639
 11
688.43375015625429
 21
629.43908616188639
  0
LINE
  8
_0-0_計極細
  6
CONTINUOUS
 62
    2
 10
681.4337501562544
 20
634.43908616188639
 11
688.43375015625429
 21
634.43908616188639
  0
LINE
  8
_0-0_計極細
  6
CONTINUOUS
 62
    2
 10
681.4337501562544
 20
729.43908616188639
 11
688.43375015625429
 21
729.43908616188639
  0
LINE
  8
_0-0_計極細
  6
CONTINUOUS
 62
    2
 10
681.4337501562544
 20
734.43908616188639
 11
688.43375015625429
 21
734.43908616188639
  0
LINE
  8
_0-0_計極細
  6
CONTINUOUS
 62
    2
 10
671.4337501562544
 20
629.43908616188639
 11
678.43375015625429
 21
629.43908616188639
  0
LINE
  8
_0-0_計極細
  6
CONTINUOUS
 62
    2
 10
671.4337501562544
 20
634.43908616188639
 11
678.43375015625429
 21
634.43908616188639
  0
LINE
  8
_0-0_計極細
  6
CONTINUOUS
 62
    2
 10
671.4337501562544
 20
729.43908616188639
 11
678.43375015625429
 21
729.43908616188639
  0
LINE
  8
_0-0_計極細
  6
CONTINUOUS
 62
    2
 10
671.4337501562544
 20
734.43908616188639
 11
678.43375015625429
 21
734.43908616188639
  0
LINE
  8
_0-0_計極細
  6
CONTINUOUS
 62
    2
 10
661.4337501562544
 20
629.43908616188639
 11
668.43375015625429
 21
629.43908616188639
  0
LINE
  8
_0-0_計極細
  6
CONTINUOUS
 62
    2
 10
661.4337501562544
 20
634.43908616188639
 11
668.43375015625429
 21
634.43908616188639
  0
LINE
  8
_0-0_計極細
  6
CONTINUOUS
 62
    2
 10
661.4337501562544
 20
729.43908616188639
 11
668.43375015625429
 21
729.43908616188639
  0
LINE
  8
_0-0_計極細
  6
CONTINUOUS
 62
    2
 10
661.4337501562544
 20
734.43908616188639
 11
668.43375015625429
 21
734.43908616188639
  0
LINE
  8
_0-0_計極細
  6
CONTINUOUS
 62
    2
 10
651.4337501562544
 20
629.43908616188639
 11
658.43375015625429
 21
629.43908616188639
  0
LINE
  8
_0-0_計極細
  6
CONTINUOUS
 62
    2
 10
651.4337501562544
 20
634.43908616188639
 11
658.43375015625429
 21
634.43908616188639
  0
LINE
  8
_0-0_計極細
  6
CONTINUOUS
 62
    2
 10
651.4337501562544
 20
729.43908616188639
 11
658.43375015625429
 21
729.43908616188639
  0
LINE
  8
_0-0_計極細
  6
CONTINUOUS
 62
    2
 10
651.4337501562544
 20
734.43908616188639
 11
658.43375015625429
 21
734.43908616188639
  0
LINE
  8
_0-0_計極細
  6
CONTINUOUS
 62
    2
 10
641.4337501562544
 20
629.43908616188639
 11
648.43375015625429
 21
629.43908616188639
  0
LINE
  8
_0-0_計極細
  6
CONTINUOUS
 62
    2
 10
641.4337501562544
 20
634.43908616188639
 11
648.43375015625429
 21
634.43908616188639
  0
LINE
  8
_0-0_計極細
  6
CONTINUOUS
 62
    2
 10
641.4337501562544
 20
729.43908616188639
 11
648.43375015625429
 21
729.43908616188639
  0
LINE
  8
_0-0_計極細
  6
CONTINUOUS
 62
    2
 10
641.4337501562544
 20
734.43908616188639
 11
648.43375015625429
 21
734.43908616188639
  0
LINE
  8
_0-0_計極細
  6
CONTINUOUS
 62
    2
 10
631.43375015625429
 20
629.43908616188639
 11
638.43375015625429
 21
629.43908616188639
  0
LINE
  8
_0-0_計極細
  6
CONTINUOUS
 62
    2
 10
631.43375015625429
 20
634.43908616188639
 11
638.43375015625429
 21
634.43908616188639
  0
LINE
  8
_0-0_計極細
  6
CONTINUOUS
 62
    2
 10
631.43375015625429
 20
729.43908616188639
 11
638.43375015625429
 21
729.43908616188639
  0
LINE
  8
_0-0_計極細
  6
CONTINUOUS
 62
    2
 10
631.43375015625429
 20
734.43908616188639
 11
638.43375015625429
 21
734.43908616188639
  0
LINE
  8
_0-0_計極細
  6
CONTINUOUS
 62
    2
 10
621.43375015625429
 20
629.43908616188639
 11
628.43375015625429
 21
629.43908616188639
  0
LINE
  8
_0-0_計極細
  6
CONTINUOUS
 62
    2
 10
621.43375015625429
 20
634.43908616188639
 11
628.43375015625429
 21
634.43908616188639
  0
LINE
  8
_0-0_計極細
  6
CONTINUOUS
 62
    2
 10
621.43375015625429
 20
729.43908616188639
 11
628.43375015625429
 21
729.43908616188639
  0
LINE
  8
_0-0_計極細
  6
CONTINUOUS
 62
    2
 10
621.43375015625429
 20
734.43908616188639
 11
628.43375015625429
 21
734.43908616188639
  0
LINE
  8
_0-0_計極細
  6
CONTINUOUS
 62
    2
 10
611.43375015625429
 20
629.43908616188639
 11
618.43375015625429
 21
629.43908616188639
  0
LINE
  8
_0-0_計極細
  6
CONTINUOUS
 62
    2
 10
611.43375015625429
 20
634.43908616188639
 11
618.43375015625429
 21
634.43908616188639
  0
LINE
  8
_0-0_計極細
  6
CONTINUOUS
 62
    2
 10
611.43375015625429
 20
729.43908616188639
 11
618.43375015625429
 21
729.43908616188639
  0
LINE
  8
_0-0_計極細
  6
CONTINUOUS
 62
    2
 10
611.43375015625429
 20
734.43908616188639
 11
618.43375015625429
 21
734.43908616188639
  0
LINE
  8
_0-0_計極細
  6
CONTINUOUS
 62
    2
 10
601.43375015625429
 20
629.43908616188639
 11
608.43375015625429
 21
629.43908616188639
  0
LINE
  8
_0-0_計極細
  6
CONTINUOUS
 62
    2
 10
601.43375015625429
 20
634.43908616188639
 11
608.43375015625429
 21
634.43908616188639
  0
LINE
  8
_0-0_計極細
  6
CONTINUOUS
 62
    2
 10
601.43375015625429
 20
729.43908616188639
 11
608.43375015625429
 21
729.43908616188639
  0
LINE
  8
_0-0_計極細
  6
CONTINUOUS
 62
    2
 10
601.43375015625429
 20
734.43908616188639
 11
608.43375015625429
 21
734.43908616188639
  0
LINE
  8
_0-0_計極細
  6
CONTINUOUS
 62
    2
 10
591.43375015625429
 20
629.43908616188639
 11
598.43375015625429
 21
629.43908616188639
  0
LINE
  8
_0-0_計極細
  6
CONTINUOUS
 62
    2
 10
591.43375015625429
 20
634.43908616188639
 11
598.43375015625429
 21
634.43908616188639
  0
LINE
  8
_0-0_計極細
  6
CONTINUOUS
 62
    2
 10
591.43375015625429
 20
729.43908616188639
 11
598.43375015625429
 21
729.43908616188639
  0
LINE
  8
_0-0_計極細
  6
CONTINUOUS
 62
    2
 10
591.43375015625429
 20
734.43908616188639
 11
598.43375015625429
 21
734.43908616188639
  0
LINE
  8
_0-0_計極細
  6
CONTINUOUS
 62
    2
 10
581.43375015625429
 20
629.43908616188639
 11
588.43375015625429
 21
629.43908616188639
  0
LINE
  8
_0-0_計極細
  6
CONTINUOUS
 62
    2
 10
581.43375015625429
 20
634.43908616188639
 11
588.43375015625429
 21
634.43908616188639
  0
LINE
  8
_0-0_計極細
  6
CONTINUOUS
 62
    2
 10
581.43375015625429
 20
729.43908616188639
 11
588.43375015625429
 21
729.43908616188639
  0
LINE
  8
_0-0_計極細
  6
CONTINUOUS
 62
    2
 10
581.43375015625429
 20
734.43908616188639
 11
588.43375015625429
 21
734.43908616188639
  0
LINE
  8
_0-0_計極細
  6
CONTINUOUS
 62
    2
 10
571.43375015625429
 20
629.43908616188639
 11
578.43375015625429
 21
629.43908616188639
  0
LINE
  8
_0-0_計極細
  6
CONTINUOUS
 62
    2
 10
571.43375015625429
 20
634.43908616188639
 11
578.43375015625429
 21
634.43908616188639
  0
LINE
  8
_0-0_計極細
  6
CONTINUOUS
 62
    2
 10
571.43375015625429
 20
729.43908616188639
 11
578.43375015625429
 21
729.43908616188639
  0
LINE
  8
_0-0_計極細
  6
CONTINUOUS
 62
    2
 10
571.43375015625429
 20
734.43908616188639
 11
578.43375015625429
 21
734.43908616188639
  0
LINE
  8
_0-0_計極細
  6
CONTINUOUS
 62
    2
 10
561.43375015625429
 20
629.43908616188639
 11
568.43375015625429
 21
629.43908616188639
  0
LINE
  8
_0-0_計極細
  6
CONTINUOUS
 62
    2
 10
561.43375015625429
 20
634.43908616188639
 11
568.43375015625429
 21
634.43908616188639
  0
LINE
  8
_0-0_計極細
  6
CONTINUOUS
 62
    2
 10
561.43375015625429
 20
729.43908616188639
 11
568.43375015625429
 21
729.43908616188639
  0
LINE
  8
_0-0_計極細
  6
CONTINUOUS
 62
    2
 10
561.43375015625429
 20
734.43908616188639
 11
568.43375015625429
 21
734.43908616188639
  0
LINE
  8
_0-0_計極細
  6
CONTINUOUS
 62
    2
 10
551.43375015625429
 20
629.43908616188639
 11
558.43375015625429
 21
629.43908616188639
  0
LINE
  8
_0-0_計極細
  6
CONTINUOUS
 62
    2
 10
551.43375015625429
 20
634.43908616188639
 11
558.43375015625429
 21
634.43908616188639
  0
LINE
  8
_0-0_計極細
  6
CONTINUOUS
 62
    2
 10
551.43375015625429
 20
729.43908616188639
 11
558.43375015625429
 21
729.43908616188639
  0
LINE
  8
_0-0_計極細
  6
CONTINUOUS
 62
    2
 10
551.43375015625429
 20
734.43908616188639
 11
558.43375015625429
 21
734.43908616188639
  0
LINE
  8
_0-0_計極細
  6
CONTINUOUS
 62
    2
 10
541.43375015625429
 20
629.43908616188639
 11
548.43375015625429
 21
629.43908616188639
  0
LINE
  8
_0-0_計極細
  6
CONTINUOUS
 62
    2
 10
541.43375015625429
 20
634.43908616188639
 11
548.43375015625429
 21
634.43908616188639
  0
LINE
  8
_0-0_計極細
  6
CONTINUOUS
 62
    2
 10
541.43375015625429
 20
729.43908616188639
 11
548.43375015625429
 21
729.43908616188639
  0
LINE
  8
_0-0_計極細
  6
CONTINUOUS
 62
    2
 10
541.43375015625429
 20
734.43908616188639
 11
548.43375015625429
 21
734.43908616188639
  0
LINE
  8
_0-0_計極細
  6
CONTINUOUS
 62
    2
 10
531.43375015625429
 20
629.43908616188639
 11
538.43375015625429
 21
629.43908616188639
  0
LINE
  8
_0-0_計極細
  6
CONTINUOUS
 62
    2
 10
531.43375015625429
 20
634.43908616188639
 11
538.43375015625429
 21
634.43908616188639
  0
LINE
  8
_0-0_計極細
  6
CONTINUOUS
 62
    2
 10
531.43375015625429
 20
729.43908616188639
 11
538.43375015625429
 21
729.43908616188639
  0
LINE
  8
_0-0_計極細
  6
CONTINUOUS
 62
    2
 10
531.43375015625429
 20
734.43908616188639
 11
538.43375015625429
 21
734.43908616188639
  0
LINE
  8
_0-0_計極細
  6
CONTINUOUS
 62
    2
 10
521.43375015625429
 20
629.43908616188639
 11
528.43375015625429
 21
629.43908616188639
  0
LINE
  8
_0-0_計極細
  6
CONTINUOUS
 62
    2
 10
521.43375015625429
 20
634.43908616188639
 11
528.43375015625429
 21
634.43908616188639
  0
LINE
  8
_0-0_計極細
  6
CONTINUOUS
 62
    2
 10
521.43375015625429
 20
729.43908616188639
 11
528.43375015625429
 21
729.43908616188639
  0
LINE
  8
_0-0_計極細
  6
CONTINUOUS
 62
    2
 10
521.43375015625429
 20
734.43908616188639
 11
528.43375015625429
 21
734.43908616188639
  0
LINE
  8
_0-0_計極細
  6
CONTINUOUS
 62
    2
 10
511.43375015625429
 20
629.43908616188639
 11
518.43375015625429
 21
629.43908616188639
  0
LINE
  8
_0-0_計極細
  6
CONTINUOUS
 62
    2
 10
511.43375015625429
 20
634.43908616188639
 11
518.43375015625429
 21
634.43908616188639
  0
LINE
  8
_0-0_計極細
  6
CONTINUOUS
 62
    2
 10
511.43375015625429
 20
729.43908616188639
 11
518.43375015625429
 21
729.43908616188639
  0
LINE
  8
_0-0_計極細
  6
CONTINUOUS
 62
    2
 10
511.43375015625429
 20
734.43908616188639
 11
518.43375015625429
 21
734.43908616188639
  0
LINE
  8
_0-0_計極細
  6
CONTINUOUS
 62
    2
 10
501.43375015625429
 20
629.43908616188639
 11
508.43375015625435
 21
629.43908616188639
  0
LINE
  8
_0-0_計極細
  6
CONTINUOUS
 62
    2
 10
501.43375015625429
 20
634.43908616188639
 11
508.43375015625435
 21
634.43908616188639
  0
LINE
  8
_0-0_計極細
  6
CONTINUOUS
 62
    2
 10
501.43375015625429
 20
729.43908616188639
 11
508.43375015625435
 21
729.43908616188639
  0
LINE
  8
_0-0_計極細
  6
CONTINUOUS
 62
    2
 10
501.43375015625429
 20
734.43908616188639
 11
508.43375015625435
 21
734.43908616188639
  0
LINE
  8
_0-0_計極細
  6
CONTINUOUS
 62
    2
 10
491.43375015625429
 20
629.43908616188639
 11
498.43375015625435
 21
629.43908616188639
  0
LINE
  8
_0-0_計極細
  6
CONTINUOUS
 62
    2
 10
491.43375015625429
 20
634.43908616188639
 11
498.43375015625435
 21
634.43908616188639
  0
LINE
  8
_0-0_計極細
  6
CONTINUOUS
 62
    2
 10
491.43375015625429
 20
729.43908616188639
 11
498.43375015625435
 21
729.43908616188639
  0
LINE
  8
_0-0_計極細
  6
CONTINUOUS
 62
    2
 10
491.43375015625429
 20
734.43908616188639
 11
498.43375015625435
 21
734.43908616188639
  0
LINE
  8
_0-0_計極細
  6
CONTINUOUS
 62
    2
 10
481.43375015625429
 20
629.43908616188639
 11
488.43375015625435
 21
629.43908616188639
  0
LINE
  8
_0-0_計極細
  6
CONTINUOUS
 62
    2
 10
481.43375015625429
 20
634.43908616188639
 11
488.43375015625435
 21
634.43908616188639
  0
LINE
  8
_0-0_計極細
  6
CONTINUOUS
 62
    2
 10
481.43375015625429
 20
729.43908616188639
 11
488.43375015625435
 21
729.43908616188639
  0
LINE
  8
_0-0_計極細
  6
CONTINUOUS
 62
    2
 10
481.43375015625429
 20
734.43908616188639
 11
488.43375015625435
 21
734.43908616188639
  0
LINE
  8
_0-0_計極細
  6
CONTINUOUS
 62
    2
 10
471.43375015625429
 20
629.43908616188639
 11
478.43375015625435
 21
629.43908616188639
  0
LINE
  8
_0-0_計極細
  6
CONTINUOUS
 62
    2
 10
471.43375015625429
 20
634.43908616188639
 11
478.43375015625435
 21
634.43908616188639
  0
LINE
  8
_0-0_計極細
  6
CONTINUOUS
 62
    2
 10
471.43375015625429
 20
729.43908616188639
 11
478.43375015625435
 21
729.43908616188639
  0
LINE
  8
_0-0_計極細
  6
CONTINUOUS
 62
    2
 10
471.43375015625429
 20
734.43908616188639
 11
478.43375015625435
 21
734.43908616188639
  0
LINE
  8
_0-0_計極細
  6
CONTINUOUS
 62
    2
 10
461.43375015625429
 20
629.43908616188639
 11
468.43375015625435
 21
629.43908616188639
  0
LINE
  8
_0-0_計極細
  6
CONTINUOUS
 62
    2
 10
461.43375015625429
 20
634.43908616188639
 11
468.43375015625435
 21
634.43908616188639
  0
LINE
  8
_0-0_計極細
  6
CONTINUOUS
 62
    2
 10
461.43375015625429
 20
729.43908616188639
 11
468.43375015625435
 21
729.43908616188639
  0
LINE
  8
_0-0_計極細
  6
CONTINUOUS
 62
    2
 10
461.43375015625429
 20
734.43908616188639
 11
468.43375015625435
 21
734.43908616188639
  0
LINE
  8
_0-0_計極細
  6
CONTINUOUS
 62
    2
 10
451.43375015625429
 20
629.43908616188639
 11
458.43375015625435
 21
629.43908616188639
  0
LINE
  8
_0-0_計極細
  6
CONTINUOUS
 62
    2
 10
451.43375015625429
 20
634.43908616188639
 11
458.43375015625435
 21
634.43908616188639
  0
LINE
  8
_0-0_計極細
  6
CONTINUOUS
 62
    2
 10
451.43375015625429
 20
729.43908616188639
 11
458.43375015625435
 21
729.43908616188639
  0
LINE
  8
_0-0_計極細
  6
CONTINUOUS
 62
    2
 10
451.43375015625429
 20
734.43908616188639
 11
458.43375015625435
 21
734.43908616188639
  0
LINE
  8
_0-0_計極細
  6
CONTINUOUS
 62
    2
 10
441.43375015625429
 20
629.43908616188639
 11
448.43375015625435
 21
629.43908616188639
  0
LINE
  8
_0-0_計極細
  6
CONTINUOUS
 62
    2
 10
441.43375015625429
 20
634.43908616188639
 11
448.43375015625435
 21
634.43908616188639
  0
LINE
  8
_0-0_計極細
  6
CONTINUOUS
 62
    2
 10
441.43375015625429
 20
729.43908616188639
 11
448.43375015625435
 21
729.43908616188639
  0
LINE
  8
_0-0_計極細
  6
CONTINUOUS
 62
    2
 10
441.43375015625429
 20
734.43908616188639
 11
448.43375015625435
 21
734.43908616188639
  0
LINE
  8
_0-0_計極細
  6
CONTINUOUS
 62
    2
 10
431.43375015625429
 20
629.43908616188639
 11
438.43375015625435
 21
629.43908616188639
  0
LINE
  8
_0-0_計極細
  6
CONTINUOUS
 62
    2
 10
431.43375015625429
 20
634.43908616188639
 11
438.43375015625435
 21
634.43908616188639
  0
LINE
  8
_0-0_計極細
  6
CONTINUOUS
 62
    2
 10
431.43375015625429
 20
729.43908616188639
 11
438.43375015625435
 21
729.43908616188639
  0
LINE
  8
_0-0_計極細
  6
CONTINUOUS
 62
    2
 10
431.43375015625429
 20
734.43908616188639
 11
438.43375015625435
 21
734.43908616188639
  0
LINE
  8
_0-0_計極細
  6
CONTINUOUS
 62
    2
 10
421.43375015625429
 20
629.43908616188639
 11
428.43375015625435
 21
629.43908616188639
  0
LINE
  8
_0-0_計極細
  6
CONTINUOUS
 62
    2
 10
421.43375015625429
 20
634.43908616188639
 11
428.43375015625435
 21
634.43908616188639
  0
LINE
  8
_0-0_計極細
  6
CONTINUOUS
 62
    2
 10
421.43375015625429
 20
729.43908616188639
 11
428.43375015625435
 21
729.43908616188639
  0
LINE
  8
_0-0_計極細
  6
CONTINUOUS
 62
    2
 10
421.43375015625429
 20
734.43908616188639
 11
428.43375015625435
 21
734.43908616188639
  0
LINE
  8
_0-0_計極細
  6
CONTINUOUS
 62
    2
 10
411.43375015625429
 20
629.43908616188639
 11
418.43375015625435
 21
629.43908616188639
  0
LINE
  8
_0-0_計極細
  6
CONTINUOUS
 62
    2
 10
411.43375015625429
 20
634.43908616188639
 11
418.43375015625435
 21
634.43908616188639
  0
LINE
  8
_0-0_計極細
  6
CONTINUOUS
 62
    2
 10
411.43375015625429
 20
729.43908616188639
 11
418.43375015625435
 21
729.43908616188639
  0
LINE
  8
_0-0_計極細
  6
CONTINUOUS
 62
    2
 10
411.43375015625429
 20
734.43908616188639
 11
418.43375015625435
 21
734.43908616188639
  0
LINE
  8
_0-0_計極細
  6
CONTINUOUS
 62
    2
 10
401.43375015625429
 20
629.43908616188639
 11
408.43375015625435
 21
629.43908616188639
  0
LINE
  8
_0-0_計極細
  6
CONTINUOUS
 62
    2
 10
401.43375015625429
 20
634.43908616188639
 11
408.43375015625435
 21
634.43908616188639
  0
LINE
  8
_0-0_計極細
  6
CONTINUOUS
 62
    2
 10
401.43375015625429
 20
729.43908616188639
 11
408.43375015625435
 21
729.43908616188639
  0
LINE
  8
_0-0_計極細
  6
CONTINUOUS
 62
    2
 10
401.43375015625429
 20
734.43908616188639
 11
408.43375015625435
 21
734.43908616188639
  0
LINE
  8
_0-0_計極細
  6
CONTINUOUS
 62
    2
 10
391.43375015625429
 20
629.43908616188639
 11
398.43375015625435
 21
629.43908616188639
  0
LINE
  8
_0-0_計極細
  6
CONTINUOUS
 62
    2
 10
391.43375015625429
 20
634.43908616188639
 11
398.43375015625435
 21
634.43908616188639
  0
LINE
  8
_0-0_計極細
  6
CONTINUOUS
 62
    2
 10
391.43375015625429
 20
729.43908616188639
 11
398.43375015625435
 21
729.43908616188639
  0
LINE
  8
_0-0_計極細
  6
CONTINUOUS
 62
    2
 10
391.43375015625429
 20
734.43908616188639
 11
398.43375015625435
 21
734.43908616188639
  0
LINE
  8
_0-0_計極細
  6
CONTINUOUS
 62
    2
 10
381.43375015625429
 20
629.43908616188639
 11
388.43375015625435
 21
629.43908616188639
  0
LINE
  8
_0-0_計極細
  6
CONTINUOUS
 62
    2
 10
381.43375015625429
 20
634.43908616188639
 11
388.43375015625435
 21
634.43908616188639
  0
LINE
  8
_0-0_計極細
  6
CONTINUOUS
 62
    2
 10
381.43375015625429
 20
729.43908616188639
 11
388.43375015625435
 21
729.43908616188639
  0
LINE
  8
_0-0_計極細
  6
CONTINUOUS
 62
    2
 10
381.43375015625429
 20
734.43908616188639
 11
388.43375015625435
 21
734.43908616188639
  0
LINE
  8
_0-0_計極細
  6
CONTINUOUS
 62
    2
 10
371.43375015625429
 20
629.43908616188639
 11
378.43375015625435
 21
629.43908616188639
  0
LINE
  8
_0-0_計極細
  6
CONTINUOUS
 62
    2
 10
371.43375015625429
 20
634.43908616188639
 11
378.43375015625435
 21
634.43908616188639
  0
LINE
  8
_0-0_計極細
  6
CONTINUOUS
 62
    2
 10
371.43375015625429
 20
729.43908616188639
 11
378.43375015625435
 21
729.43908616188639
  0
LINE
  8
_0-0_計極細
  6
CONTINUOUS
 62
    2
 10
371.43375015625429
 20
734.43908616188639
 11
378.43375015625435
 21
734.43908616188639
  0
LINE
  8
_0-0_計極細
  6
CONTINUOUS
 62
    2
 10
361.43375015625429
 20
629.43908616188639
 11
368.43375015625435
 21
629.43908616188639
  0
LINE
  8
_0-0_計極細
  6
CONTINUOUS
 62
    2
 10
361.43375015625429
 20
634.43908616188639
 11
368.43375015625435
 21
634.43908616188639
  0
LINE
  8
_0-0_計極細
  6
CONTINUOUS
 62
    2
 10
361.43375015625429
 20
729.43908616188639
 11
368.43375015625435
 21
729.43908616188639
  0
LINE
  8
_0-0_計極細
  6
CONTINUOUS
 62
    2
 10
361.43375015625429
 20
734.43908616188639
 11
368.43375015625435
 21
734.43908616188639
  0
LINE
  8
_0-0_計極細
  6
CONTINUOUS
 62
    2
 10
351.43375015625429
 20
629.43908616188639
 11
358.43375015625435
 21
629.43908616188639
  0
LINE
  8
_0-0_計極細
  6
CONTINUOUS
 62
    2
 10
351.43375015625429
 20
634.43908616188639
 11
358.43375015625435
 21
634.43908616188639
  0
LINE
  8
_0-0_計極細
  6
CONTINUOUS
 62
    2
 10
351.43375015625429
 20
729.43908616188639
 11
358.43375015625435
 21
729.43908616188639
  0
LINE
  8
_0-0_計極細
  6
CONTINUOUS
 62
    2
 10
351.43375015625429
 20
734.43908616188639
 11
358.43375015625435
 21
734.43908616188639
  0
LINE
  8
_0-0_計極細
  6
CONTINUOUS
 62
    2
 10
341.43375015625429
 20
629.43908616188639
 11
348.43375015625435
 21
629.43908616188639
  0
LINE
  8
_0-0_計極細
  6
CONTINUOUS
 62
    2
 10
341.43375015625429
 20
634.43908616188639
 11
348.43375015625435
 21
634.43908616188639
  0
LINE
  8
_0-0_計極細
  6
CONTINUOUS
 62
    2
 10
341.43375015625429
 20
729.43908616188639
 11
348.43375015625435
 21
729.43908616188639
  0
LINE
  8
_0-0_計極細
  6
CONTINUOUS
 62
    2
 10
341.43375015625429
 20
734.43908616188639
 11
348.43375015625435
 21
734.43908616188639
  0
LINE
  8
_0-0_計極細
  6
CONTINUOUS
 62
    2
 10
331.43375015625429
 20
629.43908616188639
 11
338.43375015625435
 21
629.43908616188639
  0
LINE
  8
_0-0_計極細
  6
CONTINUOUS
 62
    2
 10
331.43375015625429
 20
634.43908616188639
 11
338.43375015625435
 21
634.43908616188639
  0
LINE
  8
_0-0_計極細
  6
CONTINUOUS
 62
    2
 10
331.43375015625429
 20
729.43908616188639
 11
338.43375015625435
 21
729.43908616188639
  0
LINE
  8
_0-0_計極細
  6
CONTINUOUS
 62
    2
 10
331.43375015625429
 20
734.43908616188639
 11
338.43375015625435
 21
734.43908616188639
  0
LINE
  8
_0-0_計極細
  6
CONTINUOUS
 62
    2
 10
321.43375015625429
 20
629.43908616188639
 11
328.43375015625435
 21
629.43908616188639
  0
LINE
  8
_0-0_計極細
  6
CONTINUOUS
 62
    2
 10
321.43375015625429
 20
634.43908616188639
 11
328.43375015625435
 21
634.43908616188639
  0
LINE
  8
_0-0_計極細
  6
CONTINUOUS
 62
    2
 10
321.43375015625429
 20
729.43908616188639
 11
328.43375015625435
 21
729.43908616188639
  0
LINE
  8
_0-0_計極細
  6
CONTINUOUS
 62
    2
 10
321.43375015625429
 20
734.43908616188639
 11
328.43375015625435
 21
734.43908616188639
  0
LINE
  8
_0-0_計極細
  6
CONTINUOUS
 62
    2
 10
311.43375015625429
 20
629.43908616188639
 11
318.43375015625429
 21
629.43908616188639
  0
LINE
  8
_0-0_計極細
  6
CONTINUOUS
 62
    2
 10
311.43375015625429
 20
634.43908616188639
 11
318.43375015625429
 21
634.43908616188639
  0
LINE
  8
_0-0_計極細
  6
CONTINUOUS
 62
    2
 10
311.43375015625429
 20
729.43908616188639
 11
318.43375015625429
 21
729.43908616188639
  0
LINE
  8
_0-0_計極細
  6
CONTINUOUS
 62
    2
 10
311.43375015625429
 20
734.43908616188639
 11
318.43375015625429
 21
734.43908616188639
  0
LINE
  8
_0-0_計極細
  6
CONTINUOUS
 62
    2
 10
301.43375015625429
 20
629.43908616188639
 11
308.43375015625429
 21
629.43908616188639
  0
LINE
  8
_0-0_計極細
  6
CONTINUOUS
 62
    2
 10
301.43375015625429
 20
634.43908616188639
 11
308.43375015625429
 21
634.43908616188639
  0
LINE
  8
_0-0_計極細
  6
CONTINUOUS
 62
    2
 10
301.43375015625429
 20
729.43908616188639
 11
308.43375015625429
 21
729.43908616188639
  0
LINE
  8
_0-0_計極細
  6
CONTINUOUS
 62
    2
 10
301.43375015625429
 20
734.43908616188639
 11
308.43375015625429
 21
734.43908616188639
  0
LINE
  8
_0-0_計極細
  6
CONTINUOUS
 62
    2
 10
291.43375015625429
 20
629.43908616188639
 11
298.43375015625429
 21
629.43908616188639
  0
LINE
  8
_0-0_計極細
  6
CONTINUOUS
 62
    2
 10
291.43375015625429
 20
634.43908616188639
 11
298.43375015625429
 21
634.43908616188639
  0
LINE
  8
_0-0_計極細
  6
CONTINUOUS
 62
    2
 10
291.43375015625429
 20
729.43908616188639
 11
298.43375015625429
 21
729.43908616188639
  0
LINE
  8
_0-0_計極細
  6
CONTINUOUS
 62
    2
 10
291.43375015625429
 20
734.43908616188639
 11
298.43375015625429
 21
734.43908616188639
  0
LINE
  8
_0-0_計極細
  6
CONTINUOUS
 62
    2
 10
281.43375015625429
 20
629.43908616188639
 11
288.43375015625429
 21
629.43908616188639
  0
LINE
  8
_0-0_計極細
  6
CONTINUOUS
 62
    2
 10
281.43375015625429
 20
634.43908616188639
 11
288.43375015625429
 21
634.43908616188639
  0
LINE
  8
_0-0_計極細
  6
CONTINUOUS
 62
    2
 10
281.43375015625429
 20
729.43908616188639
 11
288.43375015625429
 21
729.43908616188639
  0
LINE
  8
_0-0_計極細
  6
CONTINUOUS
 62
    2
 10
281.43375015625429
 20
734.43908616188639
 11
288.43375015625429
 21
734.43908616188639
  0
LINE
  8
_0-0_計極細
  6
CONTINUOUS
 62
    2
 10
271.43375015625429
 20
629.43908616188639
 11
278.43375015625429
 21
629.43908616188639
  0
LINE
  8
_0-0_計極細
  6
CONTINUOUS
 62
    2
 10
271.43375015625429
 20
634.43908616188639
 11
278.43375015625429
 21
634.43908616188639
  0
LINE
  8
_0-0_計極細
  6
CONTINUOUS
 62
    2
 10
271.43375015625429
 20
729.43908616188639
 11
278.43375015625429
 21
729.43908616188639
  0
LINE
  8
_0-0_計極細
  6
CONTINUOUS
 62
    2
 10
271.43375015625429
 20
734.43908616188639
 11
278.43375015625429
 21
734.43908616188639
  0
LINE
  8
_0-0_計極細
  6
CONTINUOUS
 62
    2
 10
261.43375015625429
 20
629.43908616188639
 11
268.43375015625429
 21
629.43908616188639
  0
LINE
  8
_0-0_計極細
  6
CONTINUOUS
 62
    2
 10
261.43375015625429
 20
634.43908616188639
 11
268.43375015625429
 21
634.43908616188639
  0
LINE
  8
_0-0_計極細
  6
CONTINUOUS
 62
    2
 10
261.43375015625429
 20
729.43908616188639
 11
268.43375015625429
 21
729.43908616188639
  0
LINE
  8
_0-0_計極細
  6
CONTINUOUS
 62
    2
 10
261.43375015625429
 20
734.43908616188639
 11
268.43375015625429
 21
734.43908616188639
  0
LINE
  8
_0-0_計極細
  6
CONTINUOUS
 62
    2
 10
251.43375015625429
 20
629.43908616188639
 11
258.43375015625429
 21
629.43908616188639
  0
LINE
  8
_0-0_計極細
  6
CONTINUOUS
 62
    2
 10
251.43375015625429
 20
634.43908616188639
 11
258.43375015625429
 21
634.43908616188639
  0
LINE
  8
_0-0_計極細
  6
CONTINUOUS
 62
    2
 10
251.43375015625429
 20
729.43908616188639
 11
258.43375015625429
 21
729.43908616188639
  0
LINE
  8
_0-0_計極細
  6
CONTINUOUS
 62
    2
 10
251.43375015625429
 20
734.43908616188639
 11
258.43375015625429
 21
734.43908616188639
  0
LINE
  8
_0-0_計極細
  6
CONTINUOUS
 62
    2
 10
231.43375015625429
 20
629.43908616188639
 11
238.43375015625426
 21
629.43908616188639
  0
LINE
  8
_0-0_計極細
  6
CONTINUOUS
 62
    2
 10
231.43375015625429
 20
634.43908616188639
 11
238.43375015625426
 21
634.43908616188639
  0
LINE
  8
_0-0_計極細
  6
CONTINUOUS
 62
    2
 10
231.43375015625429
 20
729.43908616188639
 11
238.43375015625426
 21
729.43908616188639
  0
LINE
  8
_0-0_計極細
  6
CONTINUOUS
 62
    2
 10
231.43375015625429
 20
734.43908616188639
 11
238.43375015625426
 21
734.43908616188639
  0
LINE
  8
_0-0_計極細
  6
CONTINUOUS
 62
    2
 10
241.43375015625429
 20
629.43908616188639
 11
248.43375015625426
 21
629.43908616188639
  0
LINE
  8
_0-0_計極細
  6
CONTINUOUS
 62
    2
 10
241.43375015625429
 20
634.43908616188639
 11
248.43375015625426
 21
634.43908616188639
  0
LINE
  8
_0-0_計極細
  6
CONTINUOUS
 62
    2
 10
241.43375015625429
 20
729.43908616188639
 11
248.43375015625426
 21
729.43908616188639
  0
LINE
  8
_0-0_計極細
  6
CONTINUOUS
 62
    2
 10
241.43375015625429
 20
734.43908616188639
 11
248.43375015625426
 21
734.43908616188639
  0
LINE
  8
_0-0_計極細
  6
CENTER2
 62
    2
 10
212.54515061923556
 20
681.93908616188639
 11
1239.251338869841
 21
681.93908616188639
  0
LINE
  8
_0-1_計細線
  6
CONTINUOUS
 62
    3
 10
1221.4337501562543
 20
828.93908616188742
 11
228.43375015625426
 21
828.93908616188742
  0
LINE
  8
_0-1_計細線
  6
CONTINUOUS
 62
    3
 10
228.43375015625426
 20
828.93908616188742
 11
228.43375015625426
 21
831.93908616188742
  0
LINE
  8
_0-1_計細線
  6
CONTINUOUS
 62
    3
 10
228.43375015625426
 20
831.93908616188742
 11
1221.4337501562543
 21
831.93908616188742
  0
LINE
  8
_0-1_計細線
  6
CONTINUOUS
 62
    3
 10
1221.4337501562543
 20
831.93908616188742
 11
1221.4337501562543
 21
828.93908616188742
  0
LINE
  8
_0-1_計細線
  6
CONTINUOUS
 62
    3
 10
1218.4337501562545
 20
806.93908616188742
 11
1211.4337501562543
 21
806.93908616188742
  0
LINE
  8
_0-1_計細線
  6
CONTINUOUS
 62
    3
 10
1208.4337501562545
 20
806.93908616188742
 11
1201.4337501562543
 21
806.93908616188742
  0
LINE
  8
_0-1_計細線
  6
CONTINUOUS
 62
    3
 10
1198.4337501562545
 20
806.93908616188742
 11
1191.4337501562543
 21
806.93908616188742
  0
LINE
  8
_0-1_計細線
  6
CONTINUOUS
 62
    3
 10
1188.4337501562545
 20
806.93908616188742
 11
1181.4337501562543
 21
806.93908616188742
  0
LINE
  8
_0-1_計細線
  6
CONTINUOUS
 62
    3
 10
1178.4337501562545
 20
806.93908616188742
 11
1171.4337501562543
 21
806.93908616188742
  0
LINE
  8
_0-1_計細線
  6
CONTINUOUS
 62
    3
 10
1168.4337501562545
 20
806.93908616188742
 11
1161.4337501562543
 21
806.93908616188742
  0
LINE
  8
_0-1_計細線
  6
CONTINUOUS
 62
    3
 10
1158.4337501562545
 20
806.93908616188742
 11
1151.4337501562543
 21
806.93908616188742
  0
LINE
  8
_0-1_計細線
  6
CONTINUOUS
 62
    3
 10
1148.4337501562545
 20
806.93908616188742
 11
1141.4337501562543
 21
806.93908616188742
  0
LINE
  8
_0-1_計細線
  6
CONTINUOUS
 62
    3
 10
1138.4337501562545
 20
806.93908616188742
 11
1131.4337501562543
 21
806.93908616188742
  0
LINE
  8
_0-1_計細線
  6
CONTINUOUS
 62
    3
 10
1128.4337501562545
 20
806.93908616188742
 11
1121.4337501562543
 21
806.93908616188742
  0
LINE
  8
_0-1_計細線
  6
CONTINUOUS
 62
    3
 10
1118.4337501562545
 20
806.93908616188742
 11
1111.4337501562543
 21
806.93908616188742
  0
LINE
  8
_0-1_計細線
  6
CONTINUOUS
 62
    3
 10
1108.4337501562545
 20
806.93908616188742
 11
1101.4337501562543
 21
806.93908616188742
  0
LINE
  8
_0-1_計細線
  6
CONTINUOUS
 62
    3
 10
1098.4337501562545
 20
806.93908616188742
 11
1091.4337501562543
 21
806.93908616188742
  0
LINE
  8
_0-1_計細線
  6
CONTINUOUS
 62
    3
 10
1088.4337501562545
 20
806.93908616188742
 11
1081.4337501562543
 21
806.93908616188742
  0
LINE
  8
_0-1_計細線
  6
CONTINUOUS
 62
    3
 10
1078.4337501562545
 20
806.93908616188742
 11
1071.4337501562543
 21
806.93908616188742
  0
LINE
  8
_0-1_計細線
  6
CONTINUOUS
 62
    3
 10
1068.4337501562545
 20
806.93908616188742
 11
1061.4337501562543
 21
806.93908616188742
  0
LINE
  8
_0-1_計細線
  6
CONTINUOUS
 62
    3
 10
1058.4337501562545
 20
806.93908616188742
 11
1051.4337501562543
 21
806.93908616188742
  0
LINE
  8
_0-1_計細線
  6
CONTINUOUS
 62
    3
 10
1048.4337501562545
 20
806.93908616188742
 11
1041.4337501562543
 21
806.93908616188742
  0
LINE
  8
_0-1_計細線
  6
CONTINUOUS
 62
    3
 10
1038.4337501562545
 20
806.93908616188742
 11
1031.4337501562543
 21
806.93908616188742
  0
LINE
  8
_0-1_計細線
  6
CONTINUOUS
 62
    3
 10
1028.4337501562545
 20
806.93908616188742
 11
1021.4337501562544
 21
806.93908616188742
  0
LINE
  8
_0-1_計細線
  6
CONTINUOUS
 62
    3
 10
1018.4337501562544
 20
806.93908616188742
 11
1011.4337501562544
 21
806.93908616188742
  0
LINE
  8
_0-1_計細線
  6
CONTINUOUS
 62
    3
 10
1008.4337501562544
 20
806.93908616188742
 11
1001.4337501562544
 21
806.93908616188742
  0
LINE
  8
_0-1_計細線
  6
CONTINUOUS
 62
    3
 10
998.4337501562544
 20
806.93908616188742
 11
991.4337501562544
 21
806.93908616188742
  0
LINE
  8
_0-1_計細線
  6
CONTINUOUS
 62
    3
 10
988.4337501562544
 20
806.93908616188742
 11
981.4337501562544
 21
806.93908616188742
  0
LINE
  8
_0-1_計細線
  6
CONTINUOUS
 62
    3
 10
978.4337501562544
 20
806.93908616188742
 11
971.4337501562544
 21
806.93908616188742
  0
LINE
  8
_0-1_計細線
  6
CONTINUOUS
 62
    3
 10
968.4337501562544
 20
806.93908616188742
 11
961.4337501562544
 21
806.93908616188742
  0
LINE
  8
_0-1_計細線
  6
CONTINUOUS
 62
    3
 10
958.4337501562544
 20
806.93908616188742
 11
951.4337501562544
 21
806.93908616188742
  0
LINE
  8
_0-1_計細線
  6
CONTINUOUS
 62
    3
 10
948.4337501562544
 20
806.93908616188742
 11
941.4337501562544
 21
806.93908616188742
  0
LINE
  8
_0-1_計細線
  6
CONTINUOUS
 62
    3
 10
938.4337501562544
 20
806.93908616188742
 11
931.4337501562544
 21
806.93908616188742
  0
LINE
  8
_0-1_計細線
  6
CONTINUOUS
 62
    3
 10
928.4337501562544
 20
806.93908616188742
 11
921.4337501562544
 21
806.93908616188742
  0
LINE
  8
_0-1_計細線
  6
CONTINUOUS
 62
    3
 10
918.4337501562544
 20
806.93908616188742
 11
911.4337501562544
 21
806.93908616188742
  0
LINE
  8
_0-1_計細線
  6
CONTINUOUS
 62
    3
 10
908.4337501562544
 20
806.93908616188742
 11
901.4337501562544
 21
806.93908616188742
  0
LINE
  8
_0-1_計細線
  6
CONTINUOUS
 62
    3
 10
898.4337501562544
 20
806.93908616188742
 11
891.4337501562544
 21
806.93908616188742
  0
LINE
  8
_0-1_計細線
  6
CONTINUOUS
 62
    3
 10
888.4337501562544
 20
806.93908616188742
 11
881.4337501562544
 21
806.93908616188742
  0
LINE
  8
_0-1_計細線
  6
CONTINUOUS
 62
    3
 10
878.4337501562544
 20
806.93908616188742
 11
871.4337501562544
 21
806.93908616188742
  0
LINE
  8
_0-1_計細線
  6
CONTINUOUS
 62
    3
 10
868.4337501562544
 20
806.93908616188742
 11
861.4337501562544
 21
806.93908616188742
  0
LINE
  8
_0-1_計細線
  6
CONTINUOUS
 62
    3
 10
858.4337501562544
 20
806.93908616188742
 11
851.4337501562544
 21
806.93908616188742
  0
LINE
  8
_0-1_計細線
  6
CONTINUOUS
 62
    3
 10
848.4337501562544
 20
806.93908616188742
 11
841.4337501562544
 21
806.93908616188742
  0
LINE
  8
_0-1_計細線
  6
CONTINUOUS
 62
    3
 10
838.4337501562544
 20
806.93908616188742
 11
831.4337501562544
 21
806.93908616188742
  0
LINE
  8
_0-1_計細線
  6
CONTINUOUS
 62
    3
 10
828.4337501562544
 20
806.93908616188742
 11
821.4337501562544
 21
806.93908616188742
  0
LINE
  8
_0-1_計細線
  6
CONTINUOUS
 62
    3
 10
818.4337501562544
 20
806.93908616188742
 11
811.4337501562544
 21
806.93908616188742
  0
LINE
  8
_0-1_計細線
  6
CONTINUOUS
 62
    3
 10
808.4337501562544
 20
806.93908616188742
 11
801.4337501562544
 21
806.93908616188742
  0
LINE
  8
_0-1_計細線
  6
CONTINUOUS
 62
    3
 10
798.4337501562544
 20
806.93908616188742
 11
791.4337501562544
 21
806.93908616188742
  0
LINE
  8
_0-1_計細線
  6
CONTINUOUS
 62
    3
 10
788.4337501562544
 20
806.93908616188742
 11
781.4337501562544
 21
806.93908616188742
  0
LINE
  8
_0-1_計細線
  6
CONTINUOUS
 62
    3
 10
778.4337501562544
 20
806.93908616188742
 11
771.4337501562544
 21
806.93908616188742
  0
LINE
  8
_0-1_計細線
  6
CONTINUOUS
 62
    3
 10
768.4337501562544
 20
806.93908616188742
 11
761.4337501562544
 21
806.93908616188742
  0
LINE
  8
_0-1_計細線
  6
CONTINUOUS
 62
    3
 10
758.43375015625429
 20
806.93908616188742
 11
751.4337501562544
 21
806.93908616188742
  0
LINE
  8
_0-1_計細線
  6
CONTINUOUS
 62
    3
 10
748.43375015625429
 20
806.93908616188742
 11
741.4337501562544
 21
806.93908616188742
  0
LINE
  8
_0-1_計細線
  6
CONTINUOUS
 62
    3
 10
738.43375015625429
 20
806.93908616188742
 11
731.4337501562544
 21
806.93908616188742
  0
LINE
  8
_0-1_計細線
  6
CONTINUOUS
 62
    3
 10
728.43375015625429
 20
806.93908616188742
 11
721.4337501562544
 21
806.93908616188742
  0
LINE
  8
_0-1_計細線
  6
CONTINUOUS
 62
    3
 10
718.43375015625429
 20
806.93908616188742
 11
711.4337501562544
 21
806.93908616188742
  0
LINE
  8
_0-1_計細線
  6
CONTINUOUS
 62
    3
 10
708.43375015625429
 20
806.93908616188742
 11
701.4337501562544
 21
806.93908616188742
  0
LINE
  8
_0-1_計細線
  6
CONTINUOUS
 62
    3
 10
698.43375015625429
 20
806.93908616188742
 11
691.4337501562544
 21
806.93908616188742
  0
LINE
  8
_0-1_計細線
  6
CONTINUOUS
 62
    3
 10
688.43375015625429
 20
806.93908616188742
 11
681.4337501562544
 21
806.93908616188742
  0
LINE
  8
_0-1_計細線
  6
CONTINUOUS
 62
    3
 10
678.43375015625429
 20
806.93908616188742
 11
671.4337501562544
 21
806.93908616188742
  0
LINE
  8
_0-1_計細線
  6
CONTINUOUS
 62
    3
 10
668.43375015625429
 20
806.93908616188742
 11
661.4337501562544
 21
806.93908616188742
  0
LINE
  8
_0-1_計細線
  6
CONTINUOUS
 62
    3
 10
658.43375015625429
 20
806.93908616188742
 11
651.4337501562544
 21
806.93908616188742
  0
LINE
  8
_0-1_計細線
  6
CONTINUOUS
 62
    3
 10
648.43375015625429
 20
806.93908616188742
 11
641.4337501562544
 21
806.93908616188742
  0
LINE
  8
_0-1_計細線
  6
CONTINUOUS
 62
    3
 10
638.43375015625429
 20
806.93908616188742
 11
631.43375015625429
 21
806.93908616188742
  0
LINE
  8
_0-1_計細線
  6
CONTINUOUS
 62
    3
 10
628.43375015625429
 20
806.93908616188742
 11
621.43375015625429
 21
806.93908616188742
  0
LINE
  8
_0-1_計細線
  6
CONTINUOUS
 62
    3
 10
618.43375015625429
 20
806.93908616188742
 11
611.43375015625429
 21
806.93908616188742
  0
LINE
  8
_0-1_計細線
  6
CONTINUOUS
 62
    3
 10
608.43375015625429
 20
806.93908616188742
 11
601.43375015625429
 21
806.93908616188742
  0
LINE
  8
_0-1_計細線
  6
CONTINUOUS
 62
    3
 10
598.43375015625429
 20
806.93908616188742
 11
591.43375015625429
 21
806.93908616188742
  0
LINE
  8
_0-1_計細線
  6
CONTINUOUS
 62
    3
 10
588.43375015625429
 20
806.93908616188742
 11
581.43375015625429
 21
806.93908616188742
  0
LINE
  8
_0-1_計細線
  6
CONTINUOUS
 62
    3
 10
578.43375015625429
 20
806.93908616188742
 11
571.43375015625429
 21
806.93908616188742
  0
LINE
  8
_0-1_計細線
  6
CONTINUOUS
 62
    3
 10
568.43375015625429
 20
806.93908616188742
 11
561.43375015625429
 21
806.93908616188742
  0
LINE
  8
_0-1_計細線
  6
CONTINUOUS
 62
    3
 10
558.43375015625429
 20
806.93908616188742
 11
551.43375015625429
 21
806.93908616188742
  0
LINE
  8
_0-1_計細線
  6
CONTINUOUS
 62
    3
 10
548.43375015625429
 20
806.93908616188742
 11
541.43375015625429
 21
806.93908616188742
  0
LINE
  8
_0-1_計細線
  6
CONTINUOUS
 62
    3
 10
538.43375015625429
 20
806.93908616188742
 11
531.43375015625429
 21
806.93908616188742
  0
LINE
  8
_0-1_計細線
  6
CONTINUOUS
 62
    3
 10
528.43375015625429
 20
806.93908616188742
 11
521.43375015625429
 21
806.93908616188742
  0
LINE
  8
_0-1_計細線
  6
CONTINUOUS
 62
    3
 10
518.43375015625429
 20
806.93908616188742
 11
511.43375015625429
 21
806.93908616188742
  0
LINE
  8
_0-1_計細線
  6
CONTINUOUS
 62
    3
 10
508.43375015625435
 20
806.93908616188742
 11
501.43375015625429
 21
806.93908616188742
  0
LINE
  8
_0-1_計細線
  6
CONTINUOUS
 62
    3
 10
498.43375015625435
 20
806.93908616188742
 11
491.43375015625429
 21
806.93908616188742
  0
LINE
  8
_0-1_計細線
  6
CONTINUOUS
 62
    3
 10
488.43375015625435
 20
806.93908616188742
 11
481.43375015625429
 21
806.93908616188742
  0
LINE
  8
_0-1_計細線
  6
CONTINUOUS
 62
    3
 10
478.43375015625435
 20
806.93908616188742
 11
471.43375015625429
 21
806.93908616188742
  0
LINE
  8
_0-1_計細線
  6
CONTINUOUS
 62
    3
 10
468.43375015625435
 20
806.93908616188742
 11
461.43375015625429
 21
806.93908616188742
  0
LINE
  8
_0-1_計細線
  6
CONTINUOUS
 62
    3
 10
458.43375015625435
 20
806.93908616188742
 11
451.43375015625429
 21
806.93908616188742
  0
LINE
  8
_0-1_計細線
  6
CONTINUOUS
 62
    3
 10
448.43375015625435
 20
806.93908616188742
 11
441.43375015625429
 21
806.93908616188742
  0
LINE
  8
_0-1_計細線
  6
CONTINUOUS
 62
    3
 10
438.43375015625435
 20
806.93908616188742
 11
431.43375015625429
 21
806.93908616188742
  0
LINE
  8
_0-1_計細線
  6
CONTINUOUS
 62
    3
 10
428.43375015625435
 20
806.93908616188742
 11
421.43375015625429
 21
806.93908616188742
  0
LINE
  8
_0-1_計細線
  6
CONTINUOUS
 62
    3
 10
418.43375015625435
 20
806.93908616188742
 11
411.43375015625429
 21
806.93908616188742
  0
LINE
  8
_0-1_計細線
  6
CONTINUOUS
 62
    3
 10
408.43375015625435
 20
806.93908616188742
 11
401.43375015625429
 21
806.93908616188742
  0
LINE
  8
_0-1_計細線
  6
CONTINUOUS
 62
    3
 10
398.43375015625435
 20
806.93908616188742
 11
391.43375015625429
 21
806.93908616188742
  0
LINE
  8
_0-1_計細線
  6
CONTINUOUS
 62
    3
 10
388.43375015625435
 20
806.93908616188742
 11
381.43375015625429
 21
806.93908616188742
  0
LINE
  8
_0-1_計細線
  6
CONTINUOUS
 62
    3
 10
378.43375015625435
 20
806.93908616188742
 11
371.43375015625429
 21
806.93908616188742
  0
LINE
  8
_0-1_計細線
  6
CONTINUOUS
 62
    3
 10
368.43375015625435
 20
806.93908616188742
 11
361.43375015625429
 21
806.93908616188742
  0
LINE
  8
_0-1_計細線
  6
CONTINUOUS
 62
    3
 10
358.43375015625435
 20
806.93908616188742
 11
351.43375015625429
 21
806.93908616188742
  0
LINE
  8
_0-1_計細線
  6
CONTINUOUS
 62
    3
 10
348.43375015625435
 20
806.93908616188742
 11
341.43375015625429
 21
806.93908616188742
  0
LINE
  8
_0-1_計細線
  6
CONTINUOUS
 62
    3
 10
338.43375015625435
 20
806.93908616188742
 11
331.43375015625429
 21
806.93908616188742
  0
LINE
  8
_0-1_計細線
  6
CONTINUOUS
 62
    3
 10
328.43375015625435
 20
806.93908616188742
 11
321.43375015625429
 21
806.93908616188742
  0
LINE
  8
_0-1_計細線
  6
CONTINUOUS
 62
    3
 10
318.43375015625429
 20
806.93908616188742
 11
311.43375015625429
 21
806.93908616188742
  0
LINE
  8
_0-1_計細線
  6
CONTINUOUS
 62
    3
 10
308.43375015625429
 20
806.93908616188742
 11
301.43375015625429
 21
806.93908616188742
  0
LINE
  8
_0-1_計細線
  6
CONTINUOUS
 62
    3
 10
298.43375015625429
 20
806.93908616188742
 11
291.43375015625429
 21
806.93908616188742
  0
LINE
  8
_0-1_計細線
  6
CONTINUOUS
 62
    3
 10
288.43375015625429
 20
806.93908616188742
 11
281.43375015625429
 21
806.93908616188742
  0
LINE
  8
_0-1_計細線
  6
CONTINUOUS
 62
    3
 10
278.43375015625429
 20
806.93908616188742
 11
271.43375015625429
 21
806.93908616188742
  0
LINE
  8
_0-1_計細線
  6
CONTINUOUS
 62
    3
 10
268.43375015625429
 20
806.93908616188742
 11
261.43375015625429
 21
806.93908616188742
  0
LINE
  8
_0-1_計細線
  6
CONTINUOUS
 62
    3
 10
258.43375015625429
 20
806.93908616188742
 11
251.43375015625429
 21
806.93908616188742
  0
LINE
  8
_0-1_計細線
  6
CONTINUOUS
 62
    3
 10
248.43375015625426
 20
806.93908616188742
 11
241.43375015625429
 21
806.93908616188742
  0
LINE
  8
_0-1_計細線
  6
CONTINUOUS
 62
    3
 10
238.43375015625426
 20
806.93908616188742
 11
231.43375015625429
 21
806.93908616188742
  0
LINE
  8
_0-1_計細線
  6
CONTINUOUS
 62
    3
 10
228.43375015625426
 20
806.93908616188742
 11
200.43375015625429
 21
806.93908616188742
  0
LINE
  8
_0-1_計細線
  6
CONTINUOUS
 62
    3
 10
1221.4337501562543
 20
806.93908616188742
 11
1249.4337501562543
 21
806.93908616188742
  0
LINE
  8
_0-1_計細線
  6
CONTINUOUS
 62
    3
 10
201.74584254177921
 20
833.93908616188742
 11
1250.7458425417792
 21
833.93908616188742
  0
LINE
  8
_0-1_計細線
  6
CONTINUOUS
 62
    3
 10
200.43375015625429
 20
836.93908616188742
 11
1249.4337501562543
 21
836.93908616188742
  0
ARC
  8
_0-0_計極細
  6
CONTINUOUS
 62
    2
 10
1236.4433690994431
 20
829.43908616188287
 40
15.000000000036371
 50
330.00000000009993
 51
29.999999999930402
  0
ARC
  8
_0-0_計極細
  6
CONTINUOUS
 62
    2
 10
1262.4241312130102
 20
814.43908616189879
 40
14.999999999996563
 50
150.00000000001793
 51
210.00000000005798
  0
ARC
  8
_0-0_計極細
  6
CONTINUOUS
 62
    2
 10
187.44336909949681
 20
829.43908616189105
 40
14.999999999993854
 50
329.99999999997038
 51
30.000000000005667
  0
ARC
  8
_0-0_計極細
  6
CONTINUOUS
 62
    2
 10
213.42413121300552
 20
814.43908616189105
 40
14.999999999988354
 50
149.99999999998181
 51
210.00000000004107
  0
LINE
  8
_0-1_計細線
  6
CONTINUOUS
 62
    3
 10
1221.4337501562543
 20
534.93908616188696
 11
228.43375015625426
 21
534.93908616188696
  0
LINE
  8
_0-1_計細線
  6
CONTINUOUS
 62
    3
 10
228.43375015625426
 20
534.93908616188696
 11
228.43375015625426
 21
531.93908616188685
  0
LINE
  8
_0-1_計細線
  6
CONTINUOUS
 62
    3
 10
228.43375015625426
 20
531.93908616188685
 11
1221.4337501562543
 21
531.93908616188685
  0
LINE
  8
_0-1_計細線
  6
CONTINUOUS
 62
    3
 10
1221.4337501562543
 20
531.93908616188685
 11
1221.4337501562543
 21
534.93908616188696
  0
LINE
  8
_0-1_計細線
  6
CONTINUOUS
 62
    3
 10
1218.4337501562545
 20
556.93908616188639
 11
1211.4337501562543
 21
556.93908616188639
  0
LINE
  8
_0-1_計細線
  6
CONTINUOUS
 62
    3
 10
1208.4337501562545
 20
556.93908616188639
 11
1201.4337501562543
 21
556.93908616188639
  0
LINE
  8
_0-1_計細線
  6
CONTINUOUS
 62
    3
 10
1198.4337501562545
 20
556.93908616188639
 11
1191.4337501562543
 21
556.93908616188639
  0
LINE
  8
_0-1_計細線
  6
CONTINUOUS
 62
    3
 10
1188.4337501562545
 20
556.93908616188639
 11
1181.4337501562543
 21
556.93908616188639
  0
LINE
  8
_0-1_計細線
  6
CONTINUOUS
 62
    3
 10
1178.4337501562545
 20
556.93908616188639
 11
1171.4337501562543
 21
556.93908616188639
  0
LINE
  8
_0-1_計細線
  6
CONTINUOUS
 62
    3
 10
1168.4337501562545
 20
556.93908616188639
 11
1161.4337501562543
 21
556.93908616188639
  0
LINE
  8
_0-1_計細線
  6
CONTINUOUS
 62
    3
 10
1158.4337501562545
 20
556.93908616188639
 11
1151.4337501562543
 21
556.93908616188639
  0
LINE
  8
_0-1_計細線
  6
CONTINUOUS
 62
    3
 10
1148.4337501562545
 20
556.93908616188639
 11
1141.4337501562543
 21
556.93908616188639
  0
LINE
  8
_0-1_計細線
  6
CONTINUOUS
 62
    3
 10
1138.4337501562545
 20
556.93908616188639
 11
1131.4337501562543
 21
556.93908616188639
  0
LINE
  8
_0-1_計細線
  6
CONTINUOUS
 62
    3
 10
1128.4337501562545
 20
556.93908616188639
 11
1121.4337501562543
 21
556.93908616188639
  0
LINE
  8
_0-1_計細線
  6
CONTINUOUS
 62
    3
 10
1118.4337501562545
 20
556.93908616188639
 11
1111.4337501562543
 21
556.93908616188639
  0
LINE
  8
_0-1_計細線
  6
CONTINUOUS
 62
    3
 10
1108.4337501562545
 20
556.93908616188639
 11
1101.4337501562543
 21
556.93908616188639
  0
LINE
  8
_0-1_計細線
  6
CONTINUOUS
 62
    3
 10
1098.4337501562545
 20
556.93908616188639
 11
1091.4337501562543
 21
556.93908616188639
  0
LINE
  8
_0-1_計細線
  6
CONTINUOUS
 62
    3
 10
1088.4337501562545
 20
556.93908616188639
 11
1081.4337501562543
 21
556.93908616188639
  0
LINE
  8
_0-1_計細線
  6
CONTINUOUS
 62
    3
 10
1078.4337501562545
 20
556.93908616188639
 11
1071.4337501562543
 21
556.93908616188639
  0
LINE
  8
_0-1_計細線
  6
CONTINUOUS
 62
    3
 10
1068.4337501562545
 20
556.93908616188639
 11
1061.4337501562543
 21
556.93908616188639
  0
LINE
  8
_0-1_計細線
  6
CONTINUOUS
 62
    3
 10
1058.4337501562545
 20
556.93908616188639
 11
1051.4337501562543
 21
556.93908616188639
  0
LINE
  8
_0-1_計細線
  6
CONTINUOUS
 62
    3
 10
1048.4337501562545
 20
556.93908616188639
 11
1041.4337501562543
 21
556.93908616188639
  0
LINE
  8
_0-1_計細線
  6
CONTINUOUS
 62
    3
 10
1038.4337501562545
 20
556.93908616188639
 11
1031.4337501562543
 21
556.93908616188639
  0
LINE
  8
_0-1_計細線
  6
CONTINUOUS
 62
    3
 10
1028.4337501562545
 20
556.93908616188639
 11
1021.4337501562544
 21
556.93908616188639
  0
LINE
  8
_0-1_計細線
  6
CONTINUOUS
 62
    3
 10
1018.4337501562544
 20
556.93908616188639
 11
1011.4337501562544
 21
556.93908616188639
  0
LINE
  8
_0-1_計細線
  6
CONTINUOUS
 62
    3
 10
1008.4337501562544
 20
556.93908616188639
 11
1001.4337501562544
 21
556.93908616188639
  0
LINE
  8
_0-1_計細線
  6
CONTINUOUS
 62
    3
 10
998.4337501562544
 20
556.93908616188639
 11
991.4337501562544
 21
556.93908616188639
  0
LINE
  8
_0-1_計細線
  6
CONTINUOUS
 62
    3
 10
988.4337501562544
 20
556.93908616188639
 11
981.4337501562544
 21
556.93908616188639
  0
LINE
  8
_0-1_計細線
  6
CONTINUOUS
 62
    3
 10
978.4337501562544
 20
556.93908616188639
 11
971.4337501562544
 21
556.93908616188639
  0
LINE
  8
_0-1_計細線
  6
CONTINUOUS
 62
    3
 10
968.4337501562544
 20
556.93908616188639
 11
961.4337501562544
 21
556.93908616188639
  0
LINE
  8
_0-1_計細線
  6
CONTINUOUS
 62
    3
 10
958.4337501562544
 20
556.93908616188639
 11
951.4337501562544
 21
556.93908616188639
  0
LINE
  8
_0-1_計細線
  6
CONTINUOUS
 62
    3
 10
948.4337501562544
 20
556.93908616188639
 11
941.4337501562544
 21
556.93908616188639
  0
LINE
  8
_0-1_計細線
  6
CONTINUOUS
 62
    3
 10
938.4337501562544
 20
556.93908616188639
 11
931.4337501562544
 21
556.93908616188639
  0
LINE
  8
_0-1_計細線
  6
CONTINUOUS
 62
    3
 10
928.4337501562544
 20
556.93908616188639
 11
921.4337501562544
 21
556.93908616188639
  0
LINE
  8
_0-1_計細線
  6
CONTINUOUS
 62
    3
 10
918.4337501562544
 20
556.93908616188639
 11
911.4337501562544
 21
556.93908616188639
  0
LINE
  8
_0-1_計細線
  6
CONTINUOUS
 62
    3
 10
908.4337501562544
 20
556.93908616188639
 11
901.4337501562544
 21
556.93908616188639
  0
LINE
  8
_0-1_計細線
  6
CONTINUOUS
 62
    3
 10
898.4337501562544
 20
556.93908616188639
 11
891.4337501562544
 21
556.93908616188639
  0
LINE
  8
_0-1_計細線
  6
CONTINUOUS
 62
    3
 10
888.4337501562544
 20
556.93908616188639
 11
881.4337501562544
 21
556.93908616188639
  0
LINE
  8
_0-1_計細線
  6
CONTINUOUS
 62
    3
 10
878.4337501562544
 20
556.93908616188639
 11
871.4337501562544
 21
556.93908616188639
  0
LINE
  8
_0-1_計細線
  6
CONTINUOUS
 62
    3
 10
868.4337501562544
 20
556.93908616188639
 11
861.4337501562544
 21
556.93908616188639
  0
LINE
  8
_0-1_計細線
  6
CONTINUOUS
 62
    3
 10
858.4337501562544
 20
556.93908616188639
 11
851.4337501562544
 21
556.93908616188639
  0
LINE
  8
_0-1_計細線
  6
CONTINUOUS
 62
    3
 10
848.4337501562544
 20
556.93908616188639
 11
841.4337501562544
 21
556.93908616188639
  0
LINE
  8
_0-1_計細線
  6
CONTINUOUS
 62
    3
 10
838.4337501562544
 20
556.93908616188639
 11
831.4337501562544
 21
556.93908616188639
  0
LINE
  8
_0-1_計細線
  6
CONTINUOUS
 62
    3
 10
828.4337501562544
 20
556.93908616188639
 11
821.4337501562544
 21
556.93908616188639
  0
LINE
  8
_0-1_計細線
  6
CONTINUOUS
 62
    3
 10
818.4337501562544
 20
556.93908616188639
 11
811.4337501562544
 21
556.93908616188639
  0
LINE
  8
_0-1_計細線
  6
CONTINUOUS
 62
    3
 10
808.4337501562544
 20
556.93908616188639
 11
801.4337501562544
 21
556.93908616188639
  0
LINE
  8
_0-1_計細線
  6
CONTINUOUS
 62
    3
 10
798.4337501562544
 20
556.93908616188639
 11
791.4337501562544
 21
556.93908616188639
  0
LINE
  8
_0-1_計細線
  6
CONTINUOUS
 62
    3
 10
788.4337501562544
 20
556.93908616188639
 11
781.4337501562544
 21
556.93908616188639
  0
LINE
  8
_0-1_計細線
  6
CONTINUOUS
 62
    3
 10
778.4337501562544
 20
556.93908616188639
 11
771.4337501562544
 21
556.93908616188639
  0
LINE
  8
_0-1_計細線
  6
CONTINUOUS
 62
    3
 10
768.4337501562544
 20
556.93908616188639
 11
761.4337501562544
 21
556.93908616188639
  0
LINE
  8
_0-1_計細線
  6
CONTINUOUS
 62
    3
 10
758.43375015625429
 20
556.93908616188639
 11
751.4337501562544
 21
556.93908616188639
  0
LINE
  8
_0-1_計細線
  6
CONTINUOUS
 62
    3
 10
748.43375015625429
 20
556.93908616188639
 11
741.4337501562544
 21
556.93908616188639
  0
LINE
  8
_0-1_計細線
  6
CONTINUOUS
 62
    3
 10
738.43375015625429
 20
556.93908616188639
 11
731.4337501562544
 21
556.93908616188639
  0
LINE
  8
_0-1_計細線
  6
CONTINUOUS
 62
    3
 10
728.43375015625429
 20
556.93908616188639
 11
721.4337501562544
 21
556.93908616188639
  0
LINE
  8
_0-1_計細線
  6
CONTINUOUS
 62
    3
 10
718.43375015625429
 20
556.93908616188639
 11
711.4337501562544
 21
556.93908616188639
  0
LINE
  8
_0-1_計細線
  6
CONTINUOUS
 62
    3
 10
708.43375015625429
 20
556.93908616188639
 11
701.4337501562544
 21
556.93908616188639
  0
LINE
  8
_0-1_計細線
  6
CONTINUOUS
 62
    3
 10
698.43375015625429
 20
556.93908616188639
 11
691.4337501562544
 21
556.93908616188639
  0
LINE
  8
_0-1_計細線
  6
CONTINUOUS
 62
    3
 10
688.43375015625429
 20
556.93908616188639
 11
681.4337501562544
 21
556.93908616188639
  0
LINE
  8
_0-1_計細線
  6
CONTINUOUS
 62
    3
 10
678.43375015625429
 20
556.93908616188639
 11
671.4337501562544
 21
556.93908616188639
  0
LINE
  8
_0-1_計細線
  6
CONTINUOUS
 62
    3
 10
668.43375015625429
 20
556.93908616188639
 11
661.4337501562544
 21
556.93908616188639
  0
LINE
  8
_0-1_計細線
  6
CONTINUOUS
 62
    3
 10
658.43375015625429
 20
556.93908616188639
 11
651.4337501562544
 21
556.93908616188639
  0
LINE
  8
_0-1_計細線
  6
CONTINUOUS
 62
    3
 10
648.43375015625429
 20
556.93908616188639
 11
641.4337501562544
 21
556.93908616188639
  0
LINE
  8
_0-1_計細線
  6
CONTINUOUS
 62
    3
 10
638.43375015625429
 20
556.93908616188639
 11
631.43375015625429
 21
556.93908616188639
  0
LINE
  8
_0-1_計細線
  6
CONTINUOUS
 62
    3
 10
628.43375015625429
 20
556.93908616188639
 11
621.43375015625429
 21
556.93908616188639
  0
LINE
  8
_0-1_計細線
  6
CONTINUOUS
 62
    3
 10
618.43375015625429
 20
556.93908616188639
 11
611.43375015625429
 21
556.93908616188639
  0
LINE
  8
_0-1_計細線
  6
CONTINUOUS
 62
    3
 10
608.43375015625429
 20
556.93908616188639
 11
601.43375015625429
 21
556.93908616188639
  0
LINE
  8
_0-1_計細線
  6
CONTINUOUS
 62
    3
 10
598.43375015625429
 20
556.93908616188639
 11
591.43375015625429
 21
556.93908616188639
  0
LINE
  8
_0-1_計細線
  6
CONTINUOUS
 62
    3
 10
588.43375015625429
 20
556.93908616188639
 11
581.43375015625429
 21
556.93908616188639
  0
LINE
  8
_0-1_計細線
  6
CONTINUOUS
 62
    3
 10
578.43375015625429
 20
556.93908616188639
 11
571.43375015625429
 21
556.93908616188639
  0
LINE
  8
_0-1_計細線
  6
CONTINUOUS
 62
    3
 10
568.43375015625429
 20
556.93908616188639
 11
561.43375015625429
 21
556.93908616188639
  0
LINE
  8
_0-1_計細線
  6
CONTINUOUS
 62
    3
 10
558.43375015625429
 20
556.93908616188639
 11
551.43375015625429
 21
556.93908616188639
  0
LINE
  8
_0-1_計細線
  6
CONTINUOUS
 62
    3
 10
548.43375015625429
 20
556.93908616188639
 11
541.43375015625429
 21
556.93908616188639
  0
LINE
  8
_0-1_計細線
  6
CONTINUOUS
 62
    3
 10
538.43375015625429
 20
556.93908616188639
 11
531.43375015625429
 21
556.93908616188639
  0
LINE
  8
_0-1_計細線
  6
CONTINUOUS
 62
    3
 10
528.43375015625429
 20
556.93908616188639
 11
521.43375015625429
 21
556.93908616188639
  0
LINE
  8
_0-1_計細線
  6
CONTINUOUS
 62
    3
 10
518.43375015625429
 20
556.93908616188639
 11
511.43375015625429
 21
556.93908616188639
  0
LINE
  8
_0-1_計細線
  6
CONTINUOUS
 62
    3
 10
508.43375015625435
 20
556.93908616188639
 11
501.43375015625429
 21
556.93908616188639
  0
LINE
  8
_0-1_計細線
  6
CONTINUOUS
 62
    3
 10
498.43375015625435
 20
556.93908616188639
 11
491.43375015625429
 21
556.93908616188639
  0
LINE
  8
_0-1_計細線
  6
CONTINUOUS
 62
    3
 10
488.43375015625435
 20
556.93908616188639
 11
481.43375015625429
 21
556.93908616188639
  0
LINE
  8
_0-1_計細線
  6
CONTINUOUS
 62
    3
 10
478.43375015625435
 20
556.93908616188639
 11
471.43375015625429
 21
556.93908616188639
  0
LINE
  8
_0-1_計細線
  6
CONTINUOUS
 62
    3
 10
468.43375015625435
 20
556.93908616188639
 11
461.43375015625429
 21
556.93908616188639
  0
LINE
  8
_0-1_計細線
  6
CONTINUOUS
 62
    3
 10
458.43375015625435
 20
556.93908616188639
 11
451.43375015625429
 21
556.93908616188639
  0
LINE
  8
_0-1_計細線
  6
CONTINUOUS
 62
    3
 10
448.43375015625435
 20
556.93908616188639
 11
441.43375015625429
 21
556.93908616188639
  0
LINE
  8
_0-1_計細線
  6
CONTINUOUS
 62
    3
 10
438.43375015625435
 20
556.93908616188639
 11
431.43375015625429
 21
556.93908616188639
  0
LINE
  8
_0-1_計細線
  6
CONTINUOUS
 62
    3
 10
428.43375015625435
 20
556.93908616188639
 11
421.43375015625429
 21
556.93908616188639
  0
LINE
  8
_0-1_計細線
  6
CONTINUOUS
 62
    3
 10
418.43375015625435
 20
556.93908616188639
 11
411.43375015625429
 21
556.93908616188639
  0
LINE
  8
_0-1_計細線
  6
CONTINUOUS
 62
    3
 10
408.43375015625435
 20
556.93908616188639
 11
401.43375015625429
 21
556.93908616188639
  0
LINE
  8
_0-1_計細線
  6
CONTINUOUS
 62
    3
 10
398.43375015625435
 20
556.93908616188639
 11
391.43375015625429
 21
556.93908616188639
  0
LINE
  8
_0-1_計細線
  6
CONTINUOUS
 62
    3
 10
388.43375015625435
 20
556.93908616188639
 11
381.43375015625429
 21
556.93908616188639
  0
LINE
  8
_0-1_計細線
  6
CONTINUOUS
 62
    3
 10
378.43375015625435
 20
556.93908616188639
 11
371.43375015625429
 21
556.93908616188639
  0
LINE
  8
_0-1_計細線
  6
CONTINUOUS
 62
    3
 10
368.43375015625435
 20
556.93908616188639
 11
361.43375015625429
 21
556.93908616188639
  0
LINE
  8
_0-1_計細線
  6
CONTINUOUS
 62
    3
 10
358.43375015625435
 20
556.93908616188639
 11
351.43375015625429
 21
556.93908616188639
  0
LINE
  8
_0-1_計細線
  6
CONTINUOUS
 62
    3
 10
348.43375015625435
 20
556.93908616188639
 11
341.43375015625429
 21
556.93908616188639
  0
LINE
  8
_0-1_計細線
  6
CONTINUOUS
 62
    3
 10
338.43375015625435
 20
556.93908616188639
 11
331.43375015625429
 21
556.93908616188639
  0
LINE
  8
_0-1_計細線
  6
CONTINUOUS
 62
    3
 10
328.43375015625435
 20
556.93908616188639
 11
321.43375015625429
 21
556.93908616188639
  0
LINE
  8
_0-1_計細線
  6
CONTINUOUS
 62
    3
 10
318.43375015625429
 20
556.93908616188639
 11
311.43375015625429
 21
556.93908616188639
  0
LINE
  8
_0-1_計細線
  6
CONTINUOUS
 62
    3
 10
308.43375015625429
 20
556.93908616188639
 11
301.43375015625429
 21
556.93908616188639
  0
LINE
  8
_0-1_計細線
  6
CONTINUOUS
 62
    3
 10
298.43375015625429
 20
556.93908616188639
 11
291.43375015625429
 21
556.93908616188639
  0
LINE
  8
_0-1_計細線
  6
CONTINUOUS
 62
    3
 10
288.43375015625429
 20
556.93908616188639
 11
281.43375015625429
 21
556.93908616188639
  0
LINE
  8
_0-1_計細線
  6
CONTINUOUS
 62
    3
 10
278.43375015625429
 20
556.93908616188639
 11
271.43375015625429
 21
556.93908616188639
  0
LINE
  8
_0-1_計細線
  6
CONTINUOUS
 62
    3
 10
268.43375015625429
 20
556.93908616188639
 11
261.43375015625429
 21
556.93908616188639
  0
LINE
  8
_0-1_計細線
  6
CONTINUOUS
 62
    3
 10
258.43375015625429
 20
556.93908616188639
 11
251.43375015625429
 21
556.93908616188639
  0
LINE
  8
_0-1_計細線
  6
CONTINUOUS
 62
    3
 10
248.43375015625426
 20
556.93908616188639
 11
241.43375015625429
 21
556.93908616188639
  0
LINE
  8
_0-1_計細線
  6
CONTINUOUS
 62
    3
 10
238.43375015625426
 20
556.93908616188639
 11
231.43375015625429
 21
556.93908616188639
  0
LINE
  8
_0-1_計細線
  6
CONTINUOUS
 62
    3
 10
199.12165777072892
 20
529.93908616188696
 11
1248.1216577707285
 21
529.93908616188696
  0
LINE
  8
_0-1_計細線
  6
CONTINUOUS
 62
    3
 10
200.43375015625429
 20
526.93908616188685
 11
1249.4337501562543
 21
526.93908616188685
  0
LINE
  8
_0-1_計細線
  6
CONTINUOUS
 62
    3
 10
1221.4337501562543
 20
556.93908616188776
 11
1249.4337501562543
 21
556.93908616188639
  0
LINE
  8
_0-1_計細線
  6
CONTINUOUS
 62
    3
 10
228.43375015625426
 20
556.93908616188776
 11
200.43375015625429
 21
556.93908616188776
  0
ARC
  8
_0-0_計極細
  6
CONTINUOUS
 62
    2
 10
1236.4433690995015
 20
549.43908616188969
 40
14.999999999989658
 50
329.99999999996317
 51
30.00000000001284
  0
ARC
  8
_0-0_計極細
  6
CONTINUOUS
 62
    2
 10
1262.4241312129809
 20
534.43908616189458
 40
14.999999999969544
 50
149.99999999994964
 51
210.00000000010303
  0
ARC
  8
_0-0_計極細
  6
CONTINUOUS
 62
    2
 10
187.4433690995113
 20
549.43908616188594
 40
14.999999999979083
 50
329.99999999995606
 51
30.000000000047088
  0
LINE
  8
_0-5_寸法線
  6
CONTINUOUS
 62
    7
 10
621.46713682997711
 20
528.31706851132014
 11
626.46713684110159
 21
519.65681447989846
  0
LINE
  8
_0-5_寸法線
  6
CONTINUOUS
 62
    7
 10
621.46713682997711
 20
528.31706851132014
 11
621.46713684282247
 21
518.31706851132014
  0
LINE
  8
_0-5_寸法線
  6
CONTINUOUS
 62
    7
 10
621.46713682997711
 20
528.31706851132014
 11
633.30850638744255
 21
484.12447591872763
  0
LINE
  8
_0-5_寸法線
  6
CONTINUOUS
 62
    7
 10
633.30850638744255
 20
484.12447591872763
 11
741.30850638744266
 21
484.12447591872763
  0
TEXT
  8
_0-5_寸法線
 62
    7
 10
633.30850638744255
 20
484.72447591872759
 40
15
 41
0.8000000000000001
 50
0
  1
ＳＵＳアングル受枠
  0
LINE
  8
_0-5_寸法線
  6
CONTINUOUS
 62
    7
 10
829.55110960181287
 20
571.29578965970245
 11
834.55110960181287
 21
562.63553562185791
  0
LINE
  8
_0-5_寸法線
  6
CONTINUOUS
 62
    7
 10
829.55110960181287
 20
571.29578965970245
 11
829.55110960181287
 21
561.29578965970245
  0
LINE
  8
_0-5_寸法線
  6
CONTINUOUS
 62
    7
 10
829.55110960181287
 20
571.29578965970245
 11
852.90859272186697
 21
484.12447591872763
  0
LINE
  8
_0-5_寸法線
  6
CONTINUOUS
 62
    7
 10
852.90859272186697
 20
484.12447591872763
 11
987.34760493698684
 21
484.12447591872763
  0
TEXT
  8
_0-5_寸法線
 62
    7
 10
855.34760493698684
 20
484.12447591872763
 40
15
 41
0.8000000000000001
 50
0
  1
ステンレスグレーチング
  0
ARC
  8
_0-0_計極細
  6
CONTINUOUS
 62
    2
 10
213.42413121299231
 20
534.43908616188594
 40
14.999999999974561
 50
149.99999999994213
 51
210.00000000004974
  0
LINE
  8
_0-1_計細線
  6
CONTINUOUS
 62
    3
 10
241.43375015625429
 20
828.93908616188742
 11
238.43375015625426
 21
828.93908616188742
  0
LINE
  8
_0-1_計細線
  6
CONTINUOUS
 62
    3
 10
238.43375015625426
 20
828.93908616188742
 11
238.43375015625426
 21
534.93908616188696
  0
LINE
  8
_0-1_計細線
  6
CONTINUOUS
 62
    3
 10
238.43375015625426
 20
534.93908616188696
 11
241.43375015625429
 21
534.93908616188696
  0
LINE
  8
_0-1_計細線
  6
CONTINUOUS
 62
    3
 10
241.43375015625429
 20
534.93908616188696
 11
241.43375015625429
 21
828.93908616188742
  0
LINE
  8
_0-1_計細線
  6
CONTINUOUS
 62
    3
 10
231.43375015625429
 20
828.93908616188742
 11
228.43375015625426
 21
828.93908616188742
  0
LINE
  8
_0-1_計細線
  6
CONTINUOUS
 62
    3
 10
228.43375015625426
 20
828.93908616188742
 11
228.43375015625426
 21
534.93908616188696
  0
LINE
  8
_0-1_計細線
  6
CONTINUOUS
 62
    3
 10
228.43375015625426
 20
534.93908616188696
 11
231.43375015625429
 21
534.93908616188696
  0
LINE
  8
_0-1_計細線
  6
CONTINUOUS
 62
    3
 10
231.43375015625429
 20
534.93908616188696
 11
231.43375015625429
 21
828.93908616188742
  0
LINE
  8
_0-1_計細線
  6
CONTINUOUS
 62
    3
 10
251.43375015625429
 20
828.93908616188742
 11
248.43375015625426
 21
828.93908616188742
  0
LINE
  8
_0-1_計細線
  6
CONTINUOUS
 62
    3
 10
248.43375015625426
 20
828.93908616188742
 11
248.43375015625426
 21
534.93908616188696
  0
LINE
  8
_0-1_計細線
  6
CONTINUOUS
 62
    3
 10
248.43375015625426
 20
534.93908616188696
 11
251.43375015625429
 21
534.93908616188696
  0
LINE
  8
_0-1_計細線
  6
CONTINUOUS
 62
    3
 10
251.43375015625429
 20
534.93908616188696
 11
251.43375015625429
 21
828.93908616188742
  0
LINE
  8
_0-1_計細線
  6
CONTINUOUS
 62
    3
 10
261.43375015625429
 20
828.93908616188742
 11
258.43375015625429
 21
828.93908616188742
  0
LINE
  8
_0-1_計細線
  6
CONTINUOUS
 62
    3
 10
258.43375015625429
 20
828.93908616188742
 11
258.43375015625429
 21
534.93908616188696
  0
LINE
  8
_0-1_計細線
  6
CONTINUOUS
 62
    3
 10
258.43375015625429
 20
534.93908616188696
 11
261.43375015625429
 21
534.93908616188696
  0
LINE
  8
_0-1_計細線
  6
CONTINUOUS
 62
    3
 10
261.43375015625429
 20
534.93908616188696
 11
261.43375015625429
 21
828.93908616188742
  0
LINE
  8
_0-1_計細線
  6
CONTINUOUS
 62
    3
 10
271.43375015625429
 20
828.93908616188742
 11
268.43375015625429
 21
828.93908616188742
  0
LINE
  8
_0-1_計細線
  6
CONTINUOUS
 62
    3
 10
268.43375015625429
 20
828.93908616188742
 11
268.43375015625429
 21
534.93908616188696
  0
LINE
  8
_0-1_計細線
  6
CONTINUOUS
 62
    3
 10
268.43375015625429
 20
534.93908616188696
 11
271.43375015625429
 21
534.93908616188696
  0
LINE
  8
_0-1_計細線
  6
CONTINUOUS
 62
    3
 10
271.43375015625429
 20
534.93908616188696
 11
271.43375015625429
 21
828.93908616188742
  0
LINE
  8
_0-1_計細線
  6
CONTINUOUS
 62
    3
 10
281.43375015625429
 20
828.93908616188742
 11
278.43375015625429
 21
828.93908616188742
  0
LINE
  8
_0-1_計細線
  6
CONTINUOUS
 62
    3
 10
278.43375015625429
 20
828.93908616188742
 11
278.43375015625429
 21
534.93908616188696
  0
LINE
  8
_0-1_計細線
  6
CONTINUOUS
 62
    3
 10
278.43375015625429
 20
534.93908616188696
 11
281.43375015625429
 21
534.93908616188696
  0
LINE
  8
_0-1_計細線
  6
CONTINUOUS
 62
    3
 10
281.43375015625429
 20
534.93908616188696
 11
281.43375015625429
 21
828.93908616188742
  0
LINE
  8
_0-1_計細線
  6
CONTINUOUS
 62
    3
 10
291.43375015625429
 20
828.93908616188742
 11
288.43375015625429
 21
828.93908616188742
  0
LINE
  8
_0-1_計細線
  6
CONTINUOUS
 62
    3
 10
288.43375015625429
 20
828.93908616188742
 11
288.43375015625429
 21
534.93908616188696
  0
LINE
  8
_0-1_計細線
  6
CONTINUOUS
 62
    3
 10
288.43375015625429
 20
534.93908616188696
 11
291.43375015625429
 21
534.93908616188696
  0
LINE
  8
_0-1_計細線
  6
CONTINUOUS
 62
    3
 10
291.43375015625429
 20
534.93908616188696
 11
291.43375015625429
 21
828.93908616188742
  0
LINE
  8
_0-1_計細線
  6
CONTINUOUS
 62
    3
 10
301.43375015625429
 20
828.93908616188742
 11
298.43375015625429
 21
828.93908616188742
  0
LINE
  8
_0-1_計細線
  6
CONTINUOUS
 62
    3
 10
298.43375015625429
 20
828.93908616188742
 11
298.43375015625429
 21
534.93908616188696
  0
LINE
  8
_0-1_計細線
  6
CONTINUOUS
 62
    3
 10
298.43375015625429
 20
534.93908616188696
 11
301.43375015625429
 21
534.93908616188696
  0
LINE
  8
_0-1_計細線
  6
CONTINUOUS
 62
    3
 10
301.43375015625429
 20
534.93908616188696
 11
301.43375015625429
 21
828.93908616188742
  0
LINE
  8
_0-1_計細線
  6
CONTINUOUS
 62
    3
 10
311.43375015625429
 20
828.93908616188742
 11
308.43375015625429
 21
828.93908616188742
  0
LINE
  8
_0-1_計細線
  6
CONTINUOUS
 62
    3
 10
308.43375015625429
 20
828.93908616188742
 11
308.43375015625429
 21
534.93908616188696
  0
LINE
  8
_0-1_計細線
  6
CONTINUOUS
 62
    3
 10
308.43375015625429
 20
534.93908616188696
 11
311.43375015625429
 21
534.93908616188696
  0
LINE
  8
_0-1_計細線
  6
CONTINUOUS
 62
    3
 10
311.43375015625429
 20
534.93908616188696
 11
311.43375015625429
 21
828.93908616188742
  0
LINE
  8
_0-1_計細線
  6
CONTINUOUS
 62
    3
 10
321.43375015625429
 20
828.93908616188742
 11
318.43375015625429
 21
828.93908616188742
  0
LINE
  8
_0-1_計細線
  6
CONTINUOUS
 62
    3
 10
318.43375015625429
 20
828.93908616188742
 11
318.43375015625429
 21
534.93908616188696
  0
LINE
  8
_0-1_計細線
  6
CONTINUOUS
 62
    3
 10
318.43375015625429
 20
534.93908616188696
 11
321.43375015625429
 21
534.93908616188696
  0
LINE
  8
_0-1_計細線
  6
CONTINUOUS
 62
    3
 10
321.43375015625429
 20
534.93908616188696
 11
321.43375015625429
 21
828.93908616188742
  0
LINE
  8
_0-1_計細線
  6
CONTINUOUS
 62
    3
 10
331.43375015625429
 20
828.93908616188742
 11
328.43375015625435
 21
828.93908616188742
  0
LINE
  8
_0-1_計細線
  6
CONTINUOUS
 62
    3
 10
328.43375015625435
 20
828.93908616188742
 11
328.43375015625435
 21
534.93908616188696
  0
LINE
  8
_0-1_計細線
  6
CONTINUOUS
 62
    3
 10
328.43375015625435
 20
534.93908616188696
 11
331.43375015625429
 21
534.93908616188696
  0
LINE
  8
_0-1_計細線
  6
CONTINUOUS
 62
    3
 10
331.43375015625429
 20
534.93908616188696
 11
331.43375015625429
 21
828.93908616188742
  0
LINE
  8
_0-1_計細線
  6
CONTINUOUS
 62
    3
 10
341.43375015625429
 20
828.93908616188742
 11
338.43375015625435
 21
828.93908616188742
  0
LINE
  8
_0-1_計細線
  6
CONTINUOUS
 62
    3
 10
338.43375015625435
 20
828.93908616188742
 11
338.43375015625435
 21
534.93908616188696
  0
LINE
  8
_0-1_計細線
  6
CONTINUOUS
 62
    3
 10
338.43375015625435
 20
534.93908616188696
 11
341.43375015625429
 21
534.93908616188696
  0
LINE
  8
_0-1_計細線
  6
CONTINUOUS
 62
    3
 10
341.43375015625429
 20
534.93908616188696
 11
341.43375015625429
 21
828.93908616188742
  0
LINE
  8
_0-1_計細線
  6
CONTINUOUS
 62
    3
 10
351.43375015625429
 20
828.93908616188742
 11
348.43375015625435
 21
828.93908616188742
  0
LINE
  8
_0-1_計細線
  6
CONTINUOUS
 62
    3
 10
348.43375015625435
 20
828.93908616188742
 11
348.43375015625435
 21
534.93908616188696
  0
LINE
  8
_0-1_計細線
  6
CONTINUOUS
 62
    3
 10
348.43375015625435
 20
534.93908616188696
 11
351.43375015625429
 21
534.93908616188696
  0
LINE
  8
_0-1_計細線
  6
CONTINUOUS
 62
    3
 10
351.43375015625429
 20
534.93908616188696
 11
351.43375015625429
 21
828.93908616188742
  0
LINE
  8
_0-1_計細線
  6
CONTINUOUS
 62
    3
 10
361.43375015625429
 20
828.93908616188742
 11
358.43375015625435
 21
828.93908616188742
  0
LINE
  8
_0-1_計細線
  6
CONTINUOUS
 62
    3
 10
358.43375015625435
 20
828.93908616188742
 11
358.43375015625435
 21
534.93908616188696
  0
LINE
  8
_0-1_計細線
  6
CONTINUOUS
 62
    3
 10
358.43375015625435
 20
534.93908616188696
 11
361.43375015625429
 21
534.93908616188696
  0
LINE
  8
_0-1_計細線
  6
CONTINUOUS
 62
    3
 10
361.43375015625429
 20
534.93908616188696
 11
361.43375015625429
 21
828.93908616188742
  0
LINE
  8
_0-1_計細線
  6
CONTINUOUS
 62
    3
 10
371.43375015625429
 20
828.93908616188742
 11
368.43375015625435
 21
828.93908616188742
  0
LINE
  8
_0-1_計細線
  6
CONTINUOUS
 62
    3
 10
368.43375015625435
 20
828.93908616188742
 11
368.43375015625435
 21
534.93908616188696
  0
LINE
  8
_0-1_計細線
  6
CONTINUOUS
 62
    3
 10
368.43375015625435
 20
534.93908616188696
 11
371.43375015625429
 21
534.93908616188696
  0
LINE
  8
_0-1_計細線
  6
CONTINUOUS
 62
    3
 10
371.43375015625429
 20
534.93908616188696
 11
371.43375015625429
 21
828.93908616188742
  0
LINE
  8
_0-1_計細線
  6
CONTINUOUS
 62
    3
 10
381.43375015625429
 20
828.93908616188742
 11
378.43375015625435
 21
828.93908616188742
  0
LINE
  8
_0-1_計細線
  6
CONTINUOUS
 62
    3
 10
378.43375015625435
 20
828.93908616188742
 11
378.43375015625435
 21
534.93908616188696
  0
LINE
  8
_0-1_計細線
  6
CONTINUOUS
 62
    3
 10
378.43375015625435
 20
534.93908616188696
 11
381.43375015625429
 21
534.93908616188696
  0
LINE
  8
_0-1_計細線
  6
CONTINUOUS
 62
    3
 10
381.43375015625429
 20
534.93908616188696
 11
381.43375015625429
 21
828.93908616188742
  0
LINE
  8
_0-1_計細線
  6
CONTINUOUS
 62
    3
 10
391.43375015625429
 20
828.93908616188742
 11
388.43375015625435
 21
828.93908616188742
  0
LINE
  8
_0-1_計細線
  6
CONTINUOUS
 62
    3
 10
388.43375015625435
 20
828.93908616188742
 11
388.43375015625435
 21
534.93908616188696
  0
LINE
  8
_0-1_計細線
  6
CONTINUOUS
 62
    3
 10
388.43375015625435
 20
534.93908616188696
 11
391.43375015625429
 21
534.93908616188696
  0
LINE
  8
_0-1_計細線
  6
CONTINUOUS
 62
    3
 10
391.43375015625429
 20
534.93908616188696
 11
391.43375015625429
 21
828.93908616188742
  0
LINE
  8
_0-1_計細線
  6
CONTINUOUS
 62
    3
 10
401.43375015625429
 20
828.93908616188742
 11
398.43375015625435
 21
828.93908616188742
  0
LINE
  8
_0-1_計細線
  6
CONTINUOUS
 62
    3
 10
398.43375015625435
 20
828.93908616188742
 11
398.43375015625435
 21
534.93908616188696
  0
LINE
  8
_0-1_計細線
  6
CONTINUOUS
 62
    3
 10
398.43375015625435
 20
534.93908616188696
 11
401.43375015625429
 21
534.93908616188696
  0
LINE
  8
_0-1_計細線
  6
CONTINUOUS
 62
    3
 10
401.43375015625429
 20
534.93908616188696
 11
401.43375015625429
 21
828.93908616188742
  0
LINE
  8
_0-1_計細線
  6
CONTINUOUS
 62
    3
 10
411.43375015625429
 20
828.93908616188742
 11
408.43375015625435
 21
828.93908616188742
  0
LINE
  8
_0-1_計細線
  6
CONTINUOUS
 62
    3
 10
408.43375015625435
 20
828.93908616188742
 11
408.43375015625435
 21
534.93908616188696
  0
LINE
  8
_0-1_計細線
  6
CONTINUOUS
 62
    3
 10
408.43375015625435
 20
534.93908616188696
 11
411.43375015625429
 21
534.93908616188696
  0
LINE
  8
_0-1_計細線
  6
CONTINUOUS
 62
    3
 10
411.43375015625429
 20
534.93908616188696
 11
411.43375015625429
 21
828.93908616188742
  0
LINE
  8
_0-1_計細線
  6
CONTINUOUS
 62
    3
 10
421.43375015625429
 20
828.93908616188742
 11
418.43375015625435
 21
828.93908616188742
  0
LINE
  8
_0-1_計細線
  6
CONTINUOUS
 62
    3
 10
418.43375015625435
 20
828.93908616188742
 11
418.43375015625435
 21
534.93908616188696
  0
LINE
  8
_0-1_計細線
  6
CONTINUOUS
 62
    3
 10
418.43375015625435
 20
534.93908616188696
 11
421.43375015625429
 21
534.93908616188696
  0
LINE
  8
_0-1_計細線
  6
CONTINUOUS
 62
    3
 10
421.43375015625429
 20
534.93908616188696
 11
421.43375015625429
 21
828.93908616188742
  0
LINE
  8
_0-1_計細線
  6
CONTINUOUS
 62
    3
 10
431.43375015625429
 20
828.93908616188742
 11
428.43375015625435
 21
828.93908616188742
  0
LINE
  8
_0-1_計細線
  6
CONTINUOUS
 62
    3
 10
428.43375015625435
 20
828.93908616188742
 11
428.43375015625435
 21
534.93908616188696
  0
LINE
  8
_0-1_計細線
  6
CONTINUOUS
 62
    3
 10
428.43375015625435
 20
534.93908616188696
 11
431.43375015625429
 21
534.93908616188696
  0
LINE
  8
_0-1_計細線
  6
CONTINUOUS
 62
    3
 10
431.43375015625429
 20
534.93908616188696
 11
431.43375015625429
 21
828.93908616188742
  0
LINE
  8
_0-1_計細線
  6
CONTINUOUS
 62
    3
 10
441.43375015625429
 20
828.93908616188742
 11
438.43375015625435
 21
828.93908616188742
  0
LINE
  8
_0-1_計細線
  6
CONTINUOUS
 62
    3
 10
438.43375015625435
 20
828.93908616188742
 11
438.43375015625435
 21
534.93908616188696
  0
LINE
  8
_0-1_計細線
  6
CONTINUOUS
 62
    3
 10
438.43375015625435
 20
534.93908616188696
 11
441.43375015625429
 21
534.93908616188696
  0
LINE
  8
_0-1_計細線
  6
CONTINUOUS
 62
    3
 10
441.43375015625429
 20
534.93908616188696
 11
441.43375015625429
 21
828.93908616188742
  0
LINE
  8
_0-1_計細線
  6
CONTINUOUS
 62
    3
 10
451.43375015625429
 20
828.93908616188742
 11
448.43375015625435
 21
828.93908616188742
  0
LINE
  8
_0-1_計細線
  6
CONTINUOUS
 62
    3
 10
448.43375015625435
 20
828.93908616188742
 11
448.43375015625435
 21
534.93908616188696
  0
LINE
  8
_0-1_計細線
  6
CONTINUOUS
 62
    3
 10
448.43375015625435
 20
534.93908616188696
 11
451.43375015625429
 21
534.93908616188696
  0
LINE
  8
_0-1_計細線
  6
CONTINUOUS
 62
    3
 10
451.43375015625429
 20
534.93908616188696
 11
451.43375015625429
 21
828.93908616188742
  0
LINE
  8
_0-1_計細線
  6
CONTINUOUS
 62
    3
 10
461.43375015625429
 20
828.93908616188742
 11
458.43375015625435
 21
828.93908616188742
  0
LINE
  8
_0-1_計細線
  6
CONTINUOUS
 62
    3
 10
458.43375015625435
 20
828.93908616188742
 11
458.43375015625435
 21
534.93908616188696
  0
LINE
  8
_0-1_計細線
  6
CONTINUOUS
 62
    3
 10
458.43375015625435
 20
534.93908616188696
 11
461.43375015625429
 21
534.93908616188696
  0
LINE
  8
_0-1_計細線
  6
CONTINUOUS
 62
    3
 10
461.43375015625429
 20
534.93908616188696
 11
461.43375015625429
 21
828.93908616188742
  0
LINE
  8
_0-1_計細線
  6
CONTINUOUS
 62
    3
 10
471.43375015625429
 20
828.93908616188742
 11
468.43375015625435
 21
828.93908616188742
  0
LINE
  8
_0-1_計細線
  6
CONTINUOUS
 62
    3
 10
468.43375015625435
 20
828.93908616188742
 11
468.43375015625435
 21
534.93908616188696
  0
LINE
  8
_0-1_計細線
  6
CONTINUOUS
 62
    3
 10
468.43375015625435
 20
534.93908616188696
 11
471.43375015625429
 21
534.93908616188696
  0
LINE
  8
_0-1_計細線
  6
CONTINUOUS
 62
    3
 10
471.43375015625429
 20
534.93908616188696
 11
471.43375015625429
 21
828.93908616188742
  0
LINE
  8
_0-1_計細線
  6
CONTINUOUS
 62
    3
 10
481.43375015625429
 20
828.93908616188742
 11
478.43375015625435
 21
828.93908616188742
  0
LINE
  8
_0-1_計細線
  6
CONTINUOUS
 62
    3
 10
478.43375015625435
 20
828.93908616188742
 11
478.43375015625435
 21
534.93908616188696
  0
LINE
  8
_0-1_計細線
  6
CONTINUOUS
 62
    3
 10
478.43375015625435
 20
534.93908616188696
 11
481.43375015625429
 21
534.93908616188696
  0
LINE
  8
_0-1_計細線
  6
CONTINUOUS
 62
    3
 10
481.43375015625429
 20
534.93908616188696
 11
481.43375015625429
 21
828.93908616188742
  0
LINE
  8
_0-1_計細線
  6
CONTINUOUS
 62
    3
 10
491.43375015625429
 20
828.93908616188742
 11
488.43375015625435
 21
828.93908616188742
  0
LINE
  8
_0-1_計細線
  6
CONTINUOUS
 62
    3
 10
488.43375015625435
 20
828.93908616188742
 11
488.43375015625435
 21
534.93908616188696
  0
LINE
  8
_0-1_計細線
  6
CONTINUOUS
 62
    3
 10
488.43375015625435
 20
534.93908616188696
 11
491.43375015625429
 21
534.93908616188696
  0
LINE
  8
_0-1_計細線
  6
CONTINUOUS
 62
    3
 10
491.43375015625429
 20
534.93908616188696
 11
491.43375015625429
 21
828.93908616188742
  0
LINE
  8
_0-1_計細線
  6
CONTINUOUS
 62
    3
 10
501.43375015625429
 20
828.93908616188742
 11
498.43375015625435
 21
828.93908616188742
  0
LINE
  8
_0-1_計細線
  6
CONTINUOUS
 62
    3
 10
498.43375015625435
 20
828.93908616188742
 11
498.43375015625435
 21
534.93908616188696
  0
LINE
  8
_0-1_計細線
  6
CONTINUOUS
 62
    3
 10
498.43375015625435
 20
534.93908616188696
 11
501.43375015625429
 21
534.93908616188696
  0
LINE
  8
_0-1_計細線
  6
CONTINUOUS
 62
    3
 10
501.43375015625429
 20
534.93908616188696
 11
501.43375015625429
 21
828.93908616188742
  0
LINE
  8
_0-1_計細線
  6
CONTINUOUS
 62
    3
 10
511.43375015625429
 20
828.93908616188742
 11
508.43375015625435
 21
828.93908616188742
  0
LINE
  8
_0-1_計細線
  6
CONTINUOUS
 62
    3
 10
508.43375015625435
 20
828.93908616188742
 11
508.43375015625435
 21
534.93908616188696
  0
LINE
  8
_0-1_計細線
  6
CONTINUOUS
 62
    3
 10
508.43375015625435
 20
534.93908616188696
 11
511.43375015625429
 21
534.93908616188696
  0
LINE
  8
_0-1_計細線
  6
CONTINUOUS
 62
    3
 10
511.43375015625429
 20
534.93908616188696
 11
511.43375015625429
 21
828.93908616188742
  0
LINE
  8
_0-1_計細線
  6
CONTINUOUS
 62
    3
 10
521.43375015625429
 20
828.93908616188742
 11
518.43375015625429
 21
828.93908616188742
  0
LINE
  8
_0-1_計細線
  6
CONTINUOUS
 62
    3
 10
518.43375015625429
 20
828.93908616188742
 11
518.43375015625429
 21
534.93908616188696
  0
LINE
  8
_0-1_計細線
  6
CONTINUOUS
 62
    3
 10
518.43375015625429
 20
534.93908616188696
 11
521.43375015625429
 21
534.93908616188696
  0
LINE
  8
_0-1_計細線
  6
CONTINUOUS
 62
    3
 10
521.43375015625429
 20
534.93908616188696
 11
521.43375015625429
 21
828.93908616188742
  0
LINE
  8
_0-1_計細線
  6
CONTINUOUS
 62
    3
 10
531.43375015625429
 20
828.93908616188742
 11
528.43375015625429
 21
828.93908616188742
  0
LINE
  8
_0-1_計細線
  6
CONTINUOUS
 62
    3
 10
528.43375015625429
 20
828.93908616188742
 11
528.43375015625429
 21
534.93908616188696
  0
LINE
  8
_0-1_計細線
  6
CONTINUOUS
 62
    3
 10
528.43375015625429
 20
534.93908616188696
 11
531.43375015625429
 21
534.93908616188696
  0
LINE
  8
_0-1_計細線
  6
CONTINUOUS
 62
    3
 10
531.43375015625429
 20
534.93908616188696
 11
531.43375015625429
 21
828.93908616188742
  0
LINE
  8
_0-1_計細線
  6
CONTINUOUS
 62
    3
 10
541.43375015625429
 20
828.93908616188742
 11
538.43375015625429
 21
828.93908616188742
  0
LINE
  8
_0-1_計細線
  6
CONTINUOUS
 62
    3
 10
538.43375015625429
 20
828.93908616188742
 11
538.43375015625429
 21
534.93908616188696
  0
LINE
  8
_0-1_計細線
  6
CONTINUOUS
 62
    3
 10
538.43375015625429
 20
534.93908616188696
 11
541.43375015625429
 21
534.93908616188696
  0
LINE
  8
_0-1_計細線
  6
CONTINUOUS
 62
    3
 10
541.43375015625429
 20
534.93908616188696
 11
541.43375015625429
 21
828.93908616188742
  0
LINE
  8
_0-1_計細線
  6
CONTINUOUS
 62
    3
 10
551.43375015625429
 20
828.93908616188742
 11
548.43375015625429
 21
828.93908616188742
  0
LINE
  8
_0-1_計細線
  6
CONTINUOUS
 62
    3
 10
548.43375015625429
 20
828.93908616188742
 11
548.43375015625429
 21
534.93908616188696
  0
LINE
  8
_0-1_計細線
  6
CONTINUOUS
 62
    3
 10
548.43375015625429
 20
534.93908616188696
 11
551.43375015625429
 21
534.93908616188696
  0
LINE
  8
_0-1_計細線
  6
CONTINUOUS
 62
    3
 10
551.43375015625429
 20
534.93908616188696
 11
551.43375015625429
 21
828.93908616188742
  0
LINE
  8
_0-1_計細線
  6
CONTINUOUS
 62
    3
 10
561.43375015625429
 20
828.93908616188742
 11
558.43375015625429
 21
828.93908616188742
  0
LINE
  8
_0-1_計細線
  6
CONTINUOUS
 62
    3
 10
558.43375015625429
 20
828.93908616188742
 11
558.43375015625429
 21
534.93908616188696
  0
LINE
  8
_0-1_計細線
  6
CONTINUOUS
 62
    3
 10
558.43375015625429
 20
534.93908616188696
 11
561.43375015625429
 21
534.93908616188696
  0
LINE
  8
_0-1_計細線
  6
CONTINUOUS
 62
    3
 10
561.43375015625429
 20
534.93908616188696
 11
561.43375015625429
 21
828.93908616188742
  0
LINE
  8
_0-1_計細線
  6
CONTINUOUS
 62
    3
 10
571.43375015625429
 20
828.93908616188742
 11
568.43375015625429
 21
828.93908616188742
  0
LINE
  8
_0-1_計細線
  6
CONTINUOUS
 62
    3
 10
568.43375015625429
 20
828.93908616188742
 11
568.43375015625429
 21
534.93908616188696
  0
LINE
  8
_0-1_計細線
  6
CONTINUOUS
 62
    3
 10
568.43375015625429
 20
534.93908616188696
 11
571.43375015625429
 21
534.93908616188696
  0
LINE
  8
_0-1_計細線
  6
CONTINUOUS
 62
    3
 10
571.43375015625429
 20
534.93908616188696
 11
571.43375015625429
 21
828.93908616188742
  0
LINE
  8
_0-1_計細線
  6
CONTINUOUS
 62
    3
 10
581.43375015625429
 20
828.93908616188742
 11
578.43375015625429
 21
828.93908616188742
  0
LINE
  8
_0-1_計細線
  6
CONTINUOUS
 62
    3
 10
578.43375015625429
 20
828.93908616188742
 11
578.43375015625429
 21
534.93908616188696
  0
LINE
  8
_0-1_計細線
  6
CONTINUOUS
 62
    3
 10
578.43375015625429
 20
534.93908616188696
 11
581.43375015625429
 21
534.93908616188696
  0
LINE
  8
_0-1_計細線
  6
CONTINUOUS
 62
    3
 10
581.43375015625429
 20
534.93908616188696
 11
581.43375015625429
 21
828.93908616188742
  0
LINE
  8
_0-1_計細線
  6
CONTINUOUS
 62
    3
 10
591.43375015625429
 20
828.93908616188742
 11
588.43375015625429
 21
828.93908616188742
  0
LINE
  8
_0-1_計細線
  6
CONTINUOUS
 62
    3
 10
588.43375015625429
 20
828.93908616188742
 11
588.43375015625429
 21
534.93908616188696
  0
LINE
  8
_0-1_計細線
  6
CONTINUOUS
 62
    3
 10
588.43375015625429
 20
534.93908616188696
 11
591.43375015625429
 21
534.93908616188696
  0
LINE
  8
_0-1_計細線
  6
CONTINUOUS
 62
    3
 10
591.43375015625429
 20
534.93908616188696
 11
591.43375015625429
 21
828.93908616188742
  0
LINE
  8
_0-1_計細線
  6
CONTINUOUS
 62
    3
 10
601.43375015625429
 20
828.93908616188742
 11
598.43375015625429
 21
828.93908616188742
  0
LINE
  8
_0-1_計細線
  6
CONTINUOUS
 62
    3
 10
598.43375015625429
 20
828.93908616188742
 11
598.43375015625429
 21
534.93908616188696
  0
LINE
  8
_0-1_計細線
  6
CONTINUOUS
 62
    3
 10
598.43375015625429
 20
534.93908616188696
 11
601.43375015625429
 21
534.93908616188696
  0
LINE
  8
_0-1_計細線
  6
CONTINUOUS
 62
    3
 10
601.43375015625429
 20
534.93908616188696
 11
601.43375015625429
 21
828.93908616188742
  0
LINE
  8
_0-1_計細線
  6
CONTINUOUS
 62
    3
 10
611.43375015625429
 20
828.93908616188742
 11
608.43375015625429
 21
828.93908616188742
  0
LINE
  8
_0-1_計細線
  6
CONTINUOUS
 62
    3
 10
608.43375015625429
 20
828.93908616188742
 11
608.43375015625429
 21
534.93908616188696
  0
LINE
  8
_0-1_計細線
  6
CONTINUOUS
 62
    3
 10
608.43375015625429
 20
534.93908616188696
 11
611.43375015625429
 21
534.93908616188696
  0
LINE
  8
_0-1_計細線
  6
CONTINUOUS
 62
    3
 10
611.43375015625429
 20
534.93908616188696
 11
611.43375015625429
 21
828.93908616188742
  0
LINE
  8
_0-1_計細線
  6
CONTINUOUS
 62
    3
 10
621.43375015625429
 20
828.93908616188742
 11
618.43375015625429
 21
828.93908616188742
  0
LINE
  8
_0-1_計細線
  6
CONTINUOUS
 62
    3
 10
618.43375015625429
 20
828.93908616188742
 11
618.43375015625429
 21
534.93908616188696
  0
LINE
  8
_0-1_計細線
  6
CONTINUOUS
 62
    3
 10
618.43375015625429
 20
534.93908616188696
 11
621.43375015625429
 21
534.93908616188696
  0
LINE
  8
_0-1_計細線
  6
CONTINUOUS
 62
    3
 10
621.43375015625429
 20
534.93908616188696
 11
621.43375015625429
 21
828.93908616188742
  0
LINE
  8
_0-1_計細線
  6
CONTINUOUS
 62
    3
 10
631.43375015625429
 20
828.93908616188742
 11
628.43375015625429
 21
828.93908616188742
  0
LINE
  8
_0-1_計細線
  6
CONTINUOUS
 62
    3
 10
628.43375015625429
 20
828.93908616188742
 11
628.43375015625429
 21
534.93908616188696
  0
LINE
  8
_0-1_計細線
  6
CONTINUOUS
 62
    3
 10
628.43375015625429
 20
534.93908616188696
 11
631.43375015625429
 21
534.93908616188696
  0
LINE
  8
_0-1_計細線
  6
CONTINUOUS
 62
    3
 10
631.43375015625429
 20
534.93908616188696
 11
631.43375015625429
 21
828.93908616188742
  0
LINE
  8
_0-1_計細線
  6
CONTINUOUS
 62
    3
 10
641.4337501562544
 20
828.93908616188742
 11
638.43375015625429
 21
828.93908616188742
  0
LINE
  8
_0-1_計細線
  6
CONTINUOUS
 62
    3
 10
638.43375015625429
 20
828.93908616188742
 11
638.43375015625429
 21
534.93908616188696
  0
LINE
  8
_0-1_計細線
  6
CONTINUOUS
 62
    3
 10
638.43375015625429
 20
534.93908616188696
 11
641.4337501562544
 21
534.93908616188696
  0
LINE
  8
_0-1_計細線
  6
CONTINUOUS
 62
    3
 10
641.4337501562544
 20
534.93908616188696
 11
641.4337501562544
 21
828.93908616188742
  0
LINE
  8
_0-1_計細線
  6
CONTINUOUS
 62
    3
 10
651.4337501562544
 20
828.93908616188742
 11
648.43375015625429
 21
828.93908616188742
  0
LINE
  8
_0-1_計細線
  6
CONTINUOUS
 62
    3
 10
648.43375015625429
 20
828.93908616188742
 11
648.43375015625429
 21
534.93908616188696
  0
LINE
  8
_0-1_計細線
  6
CONTINUOUS
 62
    3
 10
648.43375015625429
 20
534.93908616188696
 11
651.4337501562544
 21
534.93908616188696
  0
LINE
  8
_0-1_計細線
  6
CONTINUOUS
 62
    3
 10
651.4337501562544
 20
534.93908616188696
 11
651.4337501562544
 21
828.93908616188742
  0
LINE
  8
_0-1_計細線
  6
CONTINUOUS
 62
    3
 10
661.4337501562544
 20
828.93908616188742
 11
658.43375015625429
 21
828.93908616188742
  0
LINE
  8
_0-1_計細線
  6
CONTINUOUS
 62
    3
 10
658.43375015625429
 20
828.93908616188742
 11
658.43375015625429
 21
534.93908616188696
  0
LINE
  8
_0-1_計細線
  6
CONTINUOUS
 62
    3
 10
658.43375015625429
 20
534.93908616188696
 11
661.4337501562544
 21
534.93908616188696
  0
LINE
  8
_0-1_計細線
  6
CONTINUOUS
 62
    3
 10
661.4337501562544
 20
534.93908616188696
 11
661.4337501562544
 21
828.93908616188742
  0
LINE
  8
_0-1_計細線
  6
CONTINUOUS
 62
    3
 10
671.4337501562544
 20
828.93908616188742
 11
668.43375015625429
 21
828.93908616188742
  0
LINE
  8
_0-1_計細線
  6
CONTINUOUS
 62
    3
 10
668.43375015625429
 20
828.93908616188742
 11
668.43375015625429
 21
534.93908616188696
  0
LINE
  8
_0-1_計細線
  6
CONTINUOUS
 62
    3
 10
668.43375015625429
 20
534.93908616188696
 11
671.4337501562544
 21
534.93908616188696
  0
LINE
  8
_0-1_計細線
  6
CONTINUOUS
 62
    3
 10
671.4337501562544
 20
534.93908616188696
 11
671.4337501562544
 21
828.93908616188742
  0
LINE
  8
_0-1_計細線
  6
CONTINUOUS
 62
    3
 10
681.4337501562544
 20
828.93908616188742
 11
678.43375015625429
 21
828.93908616188742
  0
LINE
  8
_0-1_計細線
  6
CONTINUOUS
 62
    3
 10
678.43375015625429
 20
828.93908616188742
 11
678.43375015625429
 21
534.93908616188696
  0
LINE
  8
_0-1_計細線
  6
CONTINUOUS
 62
    3
 10
678.43375015625429
 20
534.93908616188696
 11
681.4337501562544
 21
534.93908616188696
  0
LINE
  8
_0-1_計細線
  6
CONTINUOUS
 62
    3
 10
681.4337501562544
 20
534.93908616188696
 11
681.4337501562544
 21
828.93908616188742
  0
LINE
  8
_0-1_計細線
  6
CONTINUOUS
 62
    3
 10
691.4337501562544
 20
828.93908616188742
 11
688.43375015625429
 21
828.93908616188742
  0
LINE
  8
_0-1_計細線
  6
CONTINUOUS
 62
    3
 10
688.43375015625429
 20
828.93908616188742
 11
688.43375015625429
 21
534.93908616188696
  0
LINE
  8
_0-1_計細線
  6
CONTINUOUS
 62
    3
 10
688.43375015625429
 20
534.93908616188696
 11
691.4337501562544
 21
534.93908616188696
  0
LINE
  8
_0-1_計細線
  6
CONTINUOUS
 62
    3
 10
691.4337501562544
 20
534.93908616188696
 11
691.4337501562544
 21
828.93908616188742
  0
LINE
  8
_0-1_計細線
  6
CONTINUOUS
 62
    3
 10
701.4337501562544
 20
828.93908616188742
 11
698.43375015625429
 21
828.93908616188742
  0
LINE
  8
_0-1_計細線
  6
CONTINUOUS
 62
    3
 10
698.43375015625429
 20
828.93908616188742
 11
698.43375015625429
 21
534.93908616188696
  0
LINE
  8
_0-1_計細線
  6
CONTINUOUS
 62
    3
 10
698.43375015625429
 20
534.93908616188696
 11
701.4337501562544
 21
534.93908616188696
  0
LINE
  8
_0-1_計細線
  6
CONTINUOUS
 62
    3
 10
701.4337501562544
 20
534.93908616188696
 11
701.4337501562544
 21
828.93908616188742
  0
LINE
  8
_0-1_計細線
  6
CONTINUOUS
 62
    3
 10
711.4337501562544
 20
828.93908616188742
 11
708.43375015625429
 21
828.93908616188742
  0
LINE
  8
_0-1_計細線
  6
CONTINUOUS
 62
    3
 10
708.43375015625429
 20
828.93908616188742
 11
708.43375015625429
 21
534.93908616188696
  0
LINE
  8
_0-1_計細線
  6
CONTINUOUS
 62
    3
 10
708.43375015625429
 20
534.93908616188696
 11
711.4337501562544
 21
534.93908616188696
  0
LINE
  8
_0-1_計細線
  6
CONTINUOUS
 62
    3
 10
711.4337501562544
 20
534.93908616188696
 11
711.4337501562544
 21
828.93908616188742
  0
LINE
  8
_0-1_計細線
  6
CONTINUOUS
 62
    3
 10
721.4337501562544
 20
828.93908616188742
 11
718.43375015625429
 21
828.93908616188742
  0
LINE
  8
_0-1_計細線
  6
CONTINUOUS
 62
    3
 10
718.43375015625429
 20
828.93908616188742
 11
718.43375015625429
 21
534.93908616188696
  0
LINE
  8
_0-1_計細線
  6
CONTINUOUS
 62
    3
 10
718.43375015625429
 20
534.93908616188696
 11
721.4337501562544
 21
534.93908616188696
  0
LINE
  8
_0-1_計細線
  6
CONTINUOUS
 62
    3
 10
721.4337501562544
 20
534.93908616188696
 11
721.4337501562544
 21
828.93908616188742
  0
LINE
  8
_0-1_計細線
  6
CONTINUOUS
 62
    3
 10
731.4337501562544
 20
828.93908616188742
 11
728.43375015625429
 21
828.93908616188742
  0
LINE
  8
_0-1_計細線
  6
CONTINUOUS
 62
    3
 10
728.43375015625429
 20
828.93908616188742
 11
728.43375015625429
 21
534.93908616188696
  0
LINE
  8
_0-1_計細線
  6
CONTINUOUS
 62
    3
 10
728.43375015625429
 20
534.93908616188696
 11
731.4337501562544
 21
534.93908616188696
  0
LINE
  8
_0-1_計細線
  6
CONTINUOUS
 62
    3
 10
731.4337501562544
 20
534.93908616188696
 11
731.4337501562544
 21
828.93908616188742
  0
LINE
  8
_0-1_計細線
  6
CONTINUOUS
 62
    3
 10
741.4337501562544
 20
828.93908616188742
 11
738.43375015625429
 21
828.93908616188742
  0
LINE
  8
_0-1_計細線
  6
CONTINUOUS
 62
    3
 10
738.43375015625429
 20
828.93908616188742
 11
738.43375015625429
 21
534.93908616188696
  0
LINE
  8
_0-1_計細線
  6
CONTINUOUS
 62
    3
 10
738.43375015625429
 20
534.93908616188696
 11
741.4337501562544
 21
534.93908616188696
  0
LINE
  8
_0-1_計細線
  6
CONTINUOUS
 62
    3
 10
741.4337501562544
 20
534.93908616188696
 11
741.4337501562544
 21
828.93908616188742
  0
LINE
  8
_0-1_計細線
  6
CONTINUOUS
 62
    3
 10
751.4337501562544
 20
828.93908616188742
 11
748.43375015625429
 21
828.93908616188742
  0
LINE
  8
_0-1_計細線
  6
CONTINUOUS
 62
    3
 10
748.43375015625429
 20
828.93908616188742
 11
748.43375015625429
 21
534.93908616188696
  0
LINE
  8
_0-1_計細線
  6
CONTINUOUS
 62
    3
 10
748.43375015625429
 20
534.93908616188696
 11
751.4337501562544
 21
534.93908616188696
  0
LINE
  8
_0-1_計細線
  6
CONTINUOUS
 62
    3
 10
751.4337501562544
 20
534.93908616188696
 11
751.4337501562544
 21
828.93908616188742
  0
LINE
  8
_0-1_計細線
  6
CONTINUOUS
 62
    3
 10
761.4337501562544
 20
828.93908616188742
 11
758.43375015625429
 21
828.93908616188742
  0
LINE
  8
_0-1_計細線
  6
CONTINUOUS
 62
    3
 10
758.43375015625429
 20
828.93908616188742
 11
758.43375015625429
 21
534.93908616188696
  0
LINE
  8
_0-1_計細線
  6
CONTINUOUS
 62
    3
 10
758.43375015625429
 20
534.93908616188696
 11
761.4337501562544
 21
534.93908616188696
  0
LINE
  8
_0-1_計細線
  6
CONTINUOUS
 62
    3
 10
761.4337501562544
 20
534.93908616188696
 11
761.4337501562544
 21
828.93908616188742
  0
LINE
  8
_0-1_計細線
  6
CONTINUOUS
 62
    3
 10
771.4337501562544
 20
828.93908616188742
 11
768.4337501562544
 21
828.93908616188742
  0
LINE
  8
_0-1_計細線
  6
CONTINUOUS
 62
    3
 10
768.4337501562544
 20
828.93908616188742
 11
768.4337501562544
 21
534.93908616188696
  0
LINE
  8
_0-1_計細線
  6
CONTINUOUS
 62
    3
 10
768.4337501562544
 20
534.93908616188696
 11
771.4337501562544
 21
534.93908616188696
  0
LINE
  8
_0-1_計細線
  6
CONTINUOUS
 62
    3
 10
771.4337501562544
 20
534.93908616188696
 11
771.4337501562544
 21
828.93908616188742
  0
LINE
  8
_0-1_計細線
  6
CONTINUOUS
 62
    3
 10
781.4337501562544
 20
828.93908616188742
 11
778.4337501562544
 21
828.93908616188742
  0
LINE
  8
_0-1_計細線
  6
CONTINUOUS
 62
    3
 10
778.4337501562544
 20
828.93908616188742
 11
778.4337501562544
 21
534.93908616188696
  0
LINE
  8
_0-1_計細線
  6
CONTINUOUS
 62
    3
 10
778.4337501562544
 20
534.93908616188696
 11
781.4337501562544
 21
534.93908616188696
  0
LINE
  8
_0-1_計細線
  6
CONTINUOUS
 62
    3
 10
781.4337501562544
 20
534.93908616188696
 11
781.4337501562544
 21
828.93908616188742
  0
LINE
  8
_0-1_計細線
  6
CONTINUOUS
 62
    3
 10
791.4337501562544
 20
828.93908616188742
 11
788.4337501562544
 21
828.93908616188742
  0
LINE
  8
_0-1_計細線
  6
CONTINUOUS
 62
    3
 10
788.4337501562544
 20
828.93908616188742
 11
788.4337501562544
 21
534.93908616188696
  0
LINE
  8
_0-1_計細線
  6
CONTINUOUS
 62
    3
 10
788.4337501562544
 20
534.93908616188696
 11
791.4337501562544
 21
534.93908616188696
  0
LINE
  8
_0-1_計細線
  6
CONTINUOUS
 62
    3
 10
791.4337501562544
 20
534.93908616188696
 11
791.4337501562544
 21
828.93908616188742
  0
LINE
  8
_0-1_計細線
  6
CONTINUOUS
 62
    3
 10
801.4337501562544
 20
828.93908616188742
 11
798.4337501562544
 21
828.93908616188742
  0
LINE
  8
_0-1_計細線
  6
CONTINUOUS
 62
    3
 10
798.4337501562544
 20
828.93908616188742
 11
798.4337501562544
 21
534.93908616188696
  0
LINE
  8
_0-1_計細線
  6
CONTINUOUS
 62
    3
 10
798.4337501562544
 20
534.93908616188696
 11
801.4337501562544
 21
534.93908616188696
  0
LINE
  8
_0-1_計細線
  6
CONTINUOUS
 62
    3
 10
801.4337501562544
 20
534.93908616188696
 11
801.4337501562544
 21
828.93908616188742
  0
LINE
  8
_0-1_計細線
  6
CONTINUOUS
 62
    3
 10
811.4337501562544
 20
828.93908616188742
 11
808.4337501562544
 21
828.93908616188742
  0
LINE
  8
_0-1_計細線
  6
CONTINUOUS
 62
    3
 10
808.4337501562544
 20
828.93908616188742
 11
808.4337501562544
 21
534.93908616188696
  0
LINE
  8
_0-1_計細線
  6
CONTINUOUS
 62
    3
 10
808.4337501562544
 20
534.93908616188696
 11
811.4337501562544
 21
534.93908616188696
  0
LINE
  8
_0-1_計細線
  6
CONTINUOUS
 62
    3
 10
811.4337501562544
 20
534.93908616188696
 11
811.4337501562544
 21
828.93908616188742
  0
LINE
  8
_0-1_計細線
  6
CONTINUOUS
 62
    3
 10
821.4337501562544
 20
828.93908616188742
 11
818.4337501562544
 21
828.93908616188742
  0
LINE
  8
_0-1_計細線
  6
CONTINUOUS
 62
    3
 10
818.4337501562544
 20
828.93908616188742
 11
818.4337501562544
 21
534.93908616188696
  0
LINE
  8
_0-1_計細線
  6
CONTINUOUS
 62
    3
 10
818.4337501562544
 20
534.93908616188696
 11
821.4337501562544
 21
534.93908616188696
  0
LINE
  8
_0-1_計細線
  6
CONTINUOUS
 62
    3
 10
821.4337501562544
 20
534.93908616188696
 11
821.4337501562544
 21
828.93908616188742
  0
LINE
  8
_0-1_計細線
  6
CONTINUOUS
 62
    3
 10
831.4337501562544
 20
828.93908616188742
 11
828.4337501562544
 21
828.93908616188742
  0
LINE
  8
_0-1_計細線
  6
CONTINUOUS
 62
    3
 10
828.4337501562544
 20
828.93908616188742
 11
828.4337501562544
 21
534.93908616188696
  0
LINE
  8
_0-1_計細線
  6
CONTINUOUS
 62
    3
 10
828.4337501562544
 20
534.93908616188696
 11
831.4337501562544
 21
534.93908616188696
  0
LINE
  8
_0-1_計細線
  6
CONTINUOUS
 62
    3
 10
831.4337501562544
 20
534.93908616188696
 11
831.4337501562544
 21
828.93908616188742
  0
LINE
  8
_0-1_計細線
  6
CONTINUOUS
 62
    3
 10
841.4337501562544
 20
828.93908616188742
 11
838.4337501562544
 21
828.93908616188742
  0
LINE
  8
_0-1_計細線
  6
CONTINUOUS
 62
    3
 10
838.4337501562544
 20
828.93908616188742
 11
838.4337501562544
 21
534.93908616188696
  0
LINE
  8
_0-1_計細線
  6
CONTINUOUS
 62
    3
 10
838.4337501562544
 20
534.93908616188696
 11
841.4337501562544
 21
534.93908616188696
  0
LINE
  8
_0-1_計細線
  6
CONTINUOUS
 62
    3
 10
841.4337501562544
 20
534.93908616188696
 11
841.4337501562544
 21
828.93908616188742
  0
LINE
  8
_0-1_計細線
  6
CONTINUOUS
 62
    3
 10
851.4337501562544
 20
828.93908616188742
 11
848.4337501562544
 21
828.93908616188742
  0
LINE
  8
_0-1_計細線
  6
CONTINUOUS
 62
    3
 10
848.4337501562544
 20
828.93908616188742
 11
848.4337501562544
 21
534.93908616188696
  0
LINE
  8
_0-1_計細線
  6
CONTINUOUS
 62
    3
 10
848.4337501562544
 20
534.93908616188696
 11
851.4337501562544
 21
534.93908616188696
  0
LINE
  8
_0-1_計細線
  6
CONTINUOUS
 62
    3
 10
851.4337501562544
 20
534.93908616188696
 11
851.4337501562544
 21
828.93908616188742
  0
LINE
  8
_0-1_計細線
  6
CONTINUOUS
 62
    3
 10
861.4337501562544
 20
828.93908616188742
 11
858.4337501562544
 21
828.93908616188742
  0
LINE
  8
_0-1_計細線
  6
CONTINUOUS
 62
    3
 10
858.4337501562544
 20
828.93908616188742
 11
858.4337501562544
 21
534.93908616188696
  0
LINE
  8
_0-1_計細線
  6
CONTINUOUS
 62
    3
 10
858.4337501562544
 20
534.93908616188696
 11
861.4337501562544
 21
534.93908616188696
  0
LINE
  8
_0-1_計細線
  6
CONTINUOUS
 62
    3
 10
861.4337501562544
 20
534.93908616188696
 11
861.4337501562544
 21
828.93908616188742
  0
LINE
  8
_0-1_計細線
  6
CONTINUOUS
 62
    3
 10
871.4337501562544
 20
828.93908616188742
 11
868.4337501562544
 21
828.93908616188742
  0
LINE
  8
_0-1_計細線
  6
CONTINUOUS
 62
    3
 10
868.4337501562544
 20
828.93908616188742
 11
868.4337501562544
 21
534.93908616188696
  0
LINE
  8
_0-1_計細線
  6
CONTINUOUS
 62
    3
 10
868.4337501562544
 20
534.93908616188696
 11
871.4337501562544
 21
534.93908616188696
  0
LINE
  8
_0-1_計細線
  6
CONTINUOUS
 62
    3
 10
871.4337501562544
 20
534.93908616188696
 11
871.4337501562544
 21
828.93908616188742
  0
LINE
  8
_0-1_計細線
  6
CONTINUOUS
 62
    3
 10
881.4337501562544
 20
828.93908616188742
 11
878.4337501562544
 21
828.93908616188742
  0
LINE
  8
_0-1_計細線
  6
CONTINUOUS
 62
    3
 10
878.4337501562544
 20
828.93908616188742
 11
878.4337501562544
 21
534.93908616188696
  0
LINE
  8
_0-1_計細線
  6
CONTINUOUS
 62
    3
 10
878.4337501562544
 20
534.93908616188696
 11
881.4337501562544
 21
534.93908616188696
  0
LINE
  8
_0-1_計細線
  6
CONTINUOUS
 62
    3
 10
881.4337501562544
 20
534.93908616188696
 11
881.4337501562544
 21
828.93908616188742
  0
LINE
  8
_0-1_計細線
  6
CONTINUOUS
 62
    3
 10
891.4337501562544
 20
828.93908616188742
 11
888.4337501562544
 21
828.93908616188742
  0
LINE
  8
_0-1_計細線
  6
CONTINUOUS
 62
    3
 10
888.4337501562544
 20
828.93908616188742
 11
888.4337501562544
 21
534.93908616188696
  0
LINE
  8
_0-1_計細線
  6
CONTINUOUS
 62
    3
 10
888.4337501562544
 20
534.93908616188696
 11
891.4337501562544
 21
534.93908616188696
  0
LINE
  8
_0-1_計細線
  6
CONTINUOUS
 62
    3
 10
891.4337501562544
 20
534.93908616188696
 11
891.4337501562544
 21
828.93908616188742
  0
LINE
  8
_0-1_計細線
  6
CONTINUOUS
 62
    3
 10
901.4337501562544
 20
828.93908616188742
 11
898.4337501562544
 21
828.93908616188742
  0
LINE
  8
_0-1_計細線
  6
CONTINUOUS
 62
    3
 10
898.4337501562544
 20
828.93908616188742
 11
898.4337501562544
 21
534.93908616188696
  0
LINE
  8
_0-1_計細線
  6
CONTINUOUS
 62
    3
 10
898.4337501562544
 20
534.93908616188696
 11
901.4337501562544
 21
534.93908616188696
  0
LINE
  8
_0-1_計細線
  6
CONTINUOUS
 62
    3
 10
901.4337501562544
 20
534.93908616188696
 11
901.4337501562544
 21
828.93908616188742
  0
LINE
  8
_0-1_計細線
  6
CONTINUOUS
 62
    3
 10
911.4337501562544
 20
828.93908616188742
 11
908.4337501562544
 21
828.93908616188742
  0
LINE
  8
_0-1_計細線
  6
CONTINUOUS
 62
    3
 10
908.4337501562544
 20
828.93908616188742
 11
908.4337501562544
 21
534.93908616188696
  0
LINE
  8
_0-1_計細線
  6
CONTINUOUS
 62
    3
 10
908.4337501562544
 20
534.93908616188696
 11
911.4337501562544
 21
534.93908616188696
  0
LINE
  8
_0-1_計細線
  6
CONTINUOUS
 62
    3
 10
911.4337501562544
 20
534.93908616188696
 11
911.4337501562544
 21
828.93908616188742
  0
LINE
  8
_0-1_計細線
  6
CONTINUOUS
 62
    3
 10
921.4337501562544
 20
828.93908616188742
 11
918.4337501562544
 21
828.93908616188742
  0
LINE
  8
_0-1_計細線
  6
CONTINUOUS
 62
    3
 10
918.4337501562544
 20
828.93908616188742
 11
918.4337501562544
 21
534.93908616188696
  0
LINE
  8
_0-1_計細線
  6
CONTINUOUS
 62
    3
 10
918.4337501562544
 20
534.93908616188696
 11
921.4337501562544
 21
534.93908616188696
  0
LINE
  8
_0-1_計細線
  6
CONTINUOUS
 62
    3
 10
921.4337501562544
 20
534.93908616188696
 11
921.4337501562544
 21
828.93908616188742
  0
LINE
  8
_0-1_計細線
  6
CONTINUOUS
 62
    3
 10
931.4337501562544
 20
828.93908616188742
 11
928.4337501562544
 21
828.93908616188742
  0
LINE
  8
_0-1_計細線
  6
CONTINUOUS
 62
    3
 10
928.4337501562544
 20
828.93908616188742
 11
928.4337501562544
 21
534.93908616188696
  0
LINE
  8
_0-1_計細線
  6
CONTINUOUS
 62
    3
 10
928.4337501562544
 20
534.93908616188696
 11
931.4337501562544
 21
534.93908616188696
  0
LINE
  8
_0-1_計細線
  6
CONTINUOUS
 62
    3
 10
931.4337501562544
 20
534.93908616188696
 11
931.4337501562544
 21
828.93908616188742
  0
LINE
  8
_0-1_計細線
  6
CONTINUOUS
 62
    3
 10
941.4337501562544
 20
828.93908616188742
 11
938.4337501562544
 21
828.93908616188742
  0
LINE
  8
_0-1_計細線
  6
CONTINUOUS
 62
    3
 10
938.4337501562544
 20
828.93908616188742
 11
938.4337501562544
 21
534.93908616188696
  0
LINE
  8
_0-1_計細線
  6
CONTINUOUS
 62
    3
 10
938.4337501562544
 20
534.93908616188696
 11
941.4337501562544
 21
534.93908616188696
  0
LINE
  8
_0-1_計細線
  6
CONTINUOUS
 62
    3
 10
941.4337501562544
 20
534.93908616188696
 11
941.4337501562544
 21
828.93908616188742
  0
LINE
  8
_0-1_計細線
  6
CONTINUOUS
 62
    3
 10
951.4337501562544
 20
828.93908616188742
 11
948.4337501562544
 21
828.93908616188742
  0
LINE
  8
_0-1_計細線
  6
CONTINUOUS
 62
    3
 10
948.4337501562544
 20
828.93908616188742
 11
948.4337501562544
 21
534.93908616188696
  0
LINE
  8
_0-1_計細線
  6
CONTINUOUS
 62
    3
 10
948.4337501562544
 20
534.93908616188696
 11
951.4337501562544
 21
534.93908616188696
  0
LINE
  8
_0-1_計細線
  6
CONTINUOUS
 62
    3
 10
951.4337501562544
 20
534.93908616188696
 11
951.4337501562544
 21
828.93908616188742
  0
LINE
  8
_0-1_計細線
  6
CONTINUOUS
 62
    3
 10
961.4337501562544
 20
828.93908616188742
 11
958.4337501562544
 21
828.93908616188742
  0
LINE
  8
_0-1_計細線
  6
CONTINUOUS
 62
    3
 10
958.4337501562544
 20
828.93908616188742
 11
958.4337501562544
 21
534.93908616188696
  0
LINE
  8
_0-1_計細線
  6
CONTINUOUS
 62
    3
 10
958.4337501562544
 20
534.93908616188696
 11
961.4337501562544
 21
534.93908616188696
  0
LINE
  8
_0-1_計細線
  6
CONTINUOUS
 62
    3
 10
961.4337501562544
 20
534.93908616188696
 11
961.4337501562544
 21
828.93908616188742
  0
LINE
  8
_0-1_計細線
  6
CONTINUOUS
 62
    3
 10
971.4337501562544
 20
828.93908616188742
 11
968.4337501562544
 21
828.93908616188742
  0
LINE
  8
_0-1_計細線
  6
CONTINUOUS
 62
    3
 10
968.4337501562544
 20
828.93908616188742
 11
968.4337501562544
 21
534.93908616188696
  0
LINE
  8
_0-1_計細線
  6
CONTINUOUS
 62
    3
 10
968.4337501562544
 20
534.93908616188696
 11
971.4337501562544
 21
534.93908616188696
  0
LINE
  8
_0-1_計細線
  6
CONTINUOUS
 62
    3
 10
971.4337501562544
 20
534.93908616188696
 11
971.4337501562544
 21
828.93908616188742
  0
LINE
  8
_0-1_計細線
  6
CONTINUOUS
 62
    3
 10
981.4337501562544
 20
828.93908616188742
 11
978.4337501562544
 21
828.93908616188742
  0
LINE
  8
_0-1_計細線
  6
CONTINUOUS
 62
    3
 10
978.4337501562544
 20
828.93908616188742
 11
978.4337501562544
 21
534.93908616188696
  0
LINE
  8
_0-1_計細線
  6
CONTINUOUS
 62
    3
 10
978.4337501562544
 20
534.93908616188696
 11
981.4337501562544
 21
534.93908616188696
  0
LINE
  8
_0-1_計細線
  6
CONTINUOUS
 62
    3
 10
981.4337501562544
 20
534.93908616188696
 11
981.4337501562544
 21
828.93908616188742
  0
LINE
  8
_0-1_計細線
  6
CONTINUOUS
 62
    3
 10
991.4337501562544
 20
828.93908616188742
 11
988.4337501562544
 21
828.93908616188742
  0
LINE
  8
_0-1_計細線
  6
CONTINUOUS
 62
    3
 10
988.4337501562544
 20
828.93908616188742
 11
988.4337501562544
 21
534.93908616188696
  0
LINE
  8
_0-1_計細線
  6
CONTINUOUS
 62
    3
 10
988.4337501562544
 20
534.93908616188696
 11
991.4337501562544
 21
534.93908616188696
  0
LINE
  8
_0-1_計細線
  6
CONTINUOUS
 62
    3
 10
991.4337501562544
 20
534.93908616188696
 11
991.4337501562544
 21
828.93908616188742
  0
LINE
  8
_0-1_計細線
  6
CONTINUOUS
 62
    3
 10
1001.4337501562544
 20
828.93908616188742
 11
998.4337501562544
 21
828.93908616188742
  0
LINE
  8
_0-1_計細線
  6
CONTINUOUS
 62
    3
 10
998.4337501562544
 20
828.93908616188742
 11
998.4337501562544
 21
534.93908616188696
  0
LINE
  8
_0-1_計細線
  6
CONTINUOUS
 62
    3
 10
998.4337501562544
 20
534.93908616188696
 11
1001.4337501562544
 21
534.93908616188696
  0
LINE
  8
_0-1_計細線
  6
CONTINUOUS
 62
    3
 10
1001.4337501562544
 20
534.93908616188696
 11
1001.4337501562544
 21
828.93908616188742
  0
LINE
  8
_0-1_計細線
  6
CONTINUOUS
 62
    3
 10
1011.4337501562544
 20
828.93908616188742
 11
1008.4337501562544
 21
828.93908616188742
  0
LINE
  8
_0-1_計細線
  6
CONTINUOUS
 62
    3
 10
1008.4337501562544
 20
828.93908616188742
 11
1008.4337501562544
 21
534.93908616188696
  0
LINE
  8
_0-1_計細線
  6
CONTINUOUS
 62
    3
 10
1008.4337501562544
 20
534.93908616188696
 11
1011.4337501562544
 21
534.93908616188696
  0
LINE
  8
_0-1_計細線
  6
CONTINUOUS
 62
    3
 10
1011.4337501562544
 20
534.93908616188696
 11
1011.4337501562544
 21
828.93908616188742
  0
LINE
  8
_0-1_計細線
  6
CONTINUOUS
 62
    3
 10
1021.4337501562544
 20
828.93908616188742
 11
1018.4337501562544
 21
828.93908616188742
  0
LINE
  8
_0-1_計細線
  6
CONTINUOUS
 62
    3
 10
1018.4337501562544
 20
828.93908616188742
 11
1018.4337501562544
 21
534.93908616188696
  0
LINE
  8
_0-1_計細線
  6
CONTINUOUS
 62
    3
 10
1018.4337501562544
 20
534.93908616188696
 11
1021.4337501562544
 21
534.93908616188696
  0
LINE
  8
_0-1_計細線
  6
CONTINUOUS
 62
    3
 10
1021.4337501562544
 20
534.93908616188696
 11
1021.4337501562544
 21
828.93908616188742
  0
LINE
  8
_0-1_計細線
  6
CONTINUOUS
 62
    3
 10
1031.4337501562543
 20
828.93908616188742
 11
1028.4337501562545
 21
828.93908616188742
  0
LINE
  8
_0-1_計細線
  6
CONTINUOUS
 62
    3
 10
1028.4337501562545
 20
828.93908616188742
 11
1028.4337501562545
 21
534.93908616188696
  0
LINE
  8
_0-1_計細線
  6
CONTINUOUS
 62
    3
 10
1028.4337501562545
 20
534.93908616188696
 11
1031.4337501562543
 21
534.93908616188696
  0
LINE
  8
_0-1_計細線
  6
CONTINUOUS
 62
    3
 10
1031.4337501562543
 20
534.93908616188696
 11
1031.4337501562543
 21
828.93908616188742
  0
LINE
  8
_0-1_計細線
  6
CONTINUOUS
 62
    3
 10
1041.4337501562543
 20
828.93908616188742
 11
1038.4337501562545
 21
828.93908616188742
  0
LINE
  8
_0-1_計細線
  6
CONTINUOUS
 62
    3
 10
1038.4337501562545
 20
828.93908616188742
 11
1038.4337501562545
 21
534.93908616188696
  0
LINE
  8
_0-1_計細線
  6
CONTINUOUS
 62
    3
 10
1038.4337501562545
 20
534.93908616188696
 11
1041.4337501562543
 21
534.93908616188696
  0
LINE
  8
_0-1_計細線
  6
CONTINUOUS
 62
    3
 10
1041.4337501562543
 20
534.93908616188696
 11
1041.4337501562543
 21
828.93908616188742
  0
LINE
  8
_0-1_計細線
  6
CONTINUOUS
 62
    3
 10
1051.4337501562543
 20
828.93908616188742
 11
1048.4337501562545
 21
828.93908616188742
  0
LINE
  8
_0-1_計細線
  6
CONTINUOUS
 62
    3
 10
1048.4337501562545
 20
828.93908616188742
 11
1048.4337501562545
 21
534.93908616188696
  0
LINE
  8
_0-1_計細線
  6
CONTINUOUS
 62
    3
 10
1048.4337501562545
 20
534.93908616188696
 11
1051.4337501562543
 21
534.93908616188696
  0
LINE
  8
_0-1_計細線
  6
CONTINUOUS
 62
    3
 10
1051.4337501562543
 20
534.93908616188696
 11
1051.4337501562543
 21
828.93908616188742
  0
LINE
  8
_0-1_計細線
  6
CONTINUOUS
 62
    3
 10
1061.4337501562543
 20
828.93908616188742
 11
1058.4337501562545
 21
828.93908616188742
  0
LINE
  8
_0-1_計細線
  6
CONTINUOUS
 62
    3
 10
1058.4337501562545
 20
828.93908616188742
 11
1058.4337501562545
 21
534.93908616188696
  0
LINE
  8
_0-1_計細線
  6
CONTINUOUS
 62
    3
 10
1058.4337501562545
 20
534.93908616188696
 11
1061.4337501562543
 21
534.93908616188696
  0
LINE
  8
_0-1_計細線
  6
CONTINUOUS
 62
    3
 10
1061.4337501562543
 20
534.93908616188696
 11
1061.4337501562543
 21
828.93908616188742
  0
LINE
  8
_0-1_計細線
  6
CONTINUOUS
 62
    3
 10
1071.4337501562543
 20
828.93908616188742
 11
1068.4337501562545
 21
828.93908616188742
  0
LINE
  8
_0-1_計細線
  6
CONTINUOUS
 62
    3
 10
1068.4337501562545
 20
828.93908616188742
 11
1068.4337501562545
 21
534.93908616188696
  0
LINE
  8
_0-1_計細線
  6
CONTINUOUS
 62
    3
 10
1068.4337501562545
 20
534.93908616188696
 11
1071.4337501562543
 21
534.93908616188696
  0
LINE
  8
_0-1_計細線
  6
CONTINUOUS
 62
    3
 10
1071.4337501562543
 20
534.93908616188696
 11
1071.4337501562543
 21
828.93908616188742
  0
LINE
  8
_0-1_計細線
  6
CONTINUOUS
 62
    3
 10
1081.4337501562543
 20
828.93908616188742
 11
1078.4337501562545
 21
828.93908616188742
  0
LINE
  8
_0-1_計細線
  6
CONTINUOUS
 62
    3
 10
1078.4337501562545
 20
828.93908616188742
 11
1078.4337501562545
 21
534.93908616188696
  0
LINE
  8
_0-1_計細線
  6
CONTINUOUS
 62
    3
 10
1078.4337501562545
 20
534.93908616188696
 11
1081.4337501562543
 21
534.93908616188696
  0
LINE
  8
_0-1_計細線
  6
CONTINUOUS
 62
    3
 10
1081.4337501562543
 20
534.93908616188696
 11
1081.4337501562543
 21
828.93908616188742
  0
LINE
  8
_0-1_計細線
  6
CONTINUOUS
 62
    3
 10
1091.4337501562543
 20
828.93908616188742
 11
1088.4337501562545
 21
828.93908616188742
  0
LINE
  8
_0-1_計細線
  6
CONTINUOUS
 62
    3
 10
1088.4337501562545
 20
828.93908616188742
 11
1088.4337501562545
 21
534.93908616188696
  0
LINE
  8
_0-1_計細線
  6
CONTINUOUS
 62
    3
 10
1088.4337501562545
 20
534.93908616188696
 11
1091.4337501562543
 21
534.93908616188696
  0
LINE
  8
_0-1_計細線
  6
CONTINUOUS
 62
    3
 10
1091.4337501562543
 20
534.93908616188696
 11
1091.4337501562543
 21
828.93908616188742
  0
LINE
  8
_0-1_計細線
  6
CONTINUOUS
 62
    3
 10
1101.4337501562543
 20
828.93908616188742
 11
1098.4337501562545
 21
828.93908616188742
  0
LINE
  8
_0-1_計細線
  6
CONTINUOUS
 62
    3
 10
1098.4337501562545
 20
828.93908616188742
 11
1098.4337501562545
 21
534.93908616188696
  0
LINE
  8
_0-1_計細線
  6
CONTINUOUS
 62
    3
 10
1098.4337501562545
 20
534.93908616188696
 11
1101.4337501562543
 21
534.93908616188696
  0
LINE
  8
_0-1_計細線
  6
CONTINUOUS
 62
    3
 10
1101.4337501562543
 20
534.93908616188696
 11
1101.4337501562543
 21
828.93908616188742
  0
LINE
  8
_0-1_計細線
  6
CONTINUOUS
 62
    3
 10
1111.4337501562543
 20
828.93908616188742
 11
1108.4337501562545
 21
828.93908616188742
  0
LINE
  8
_0-1_計細線
  6
CONTINUOUS
 62
    3
 10
1108.4337501562545
 20
828.93908616188742
 11
1108.4337501562545
 21
534.93908616188696
  0
LINE
  8
_0-1_計細線
  6
CONTINUOUS
 62
    3
 10
1108.4337501562545
 20
534.93908616188696
 11
1111.4337501562543
 21
534.93908616188696
  0
LINE
  8
_0-1_計細線
  6
CONTINUOUS
 62
    3
 10
1111.4337501562543
 20
534.93908616188696
 11
1111.4337501562543
 21
828.93908616188742
  0
LINE
  8
_0-1_計細線
  6
CONTINUOUS
 62
    3
 10
1121.4337501562543
 20
828.93908616188742
 11
1118.4337501562545
 21
828.93908616188742
  0
LINE
  8
_0-1_計細線
  6
CONTINUOUS
 62
    3
 10
1118.4337501562545
 20
828.93908616188742
 11
1118.4337501562545
 21
534.93908616188696
  0
LINE
  8
_0-1_計細線
  6
CONTINUOUS
 62
    3
 10
1118.4337501562545
 20
534.93908616188696
 11
1121.4337501562543
 21
534.93908616188696
  0
LINE
  8
_0-1_計細線
  6
CONTINUOUS
 62
    3
 10
1121.4337501562543
 20
534.93908616188696
 11
1121.4337501562543
 21
828.93908616188742
  0
LINE
  8
_0-1_計細線
  6
CONTINUOUS
 62
    3
 10
1131.4337501562543
 20
828.93908616188742
 11
1128.4337501562545
 21
828.93908616188742
  0
LINE
  8
_0-1_計細線
  6
CONTINUOUS
 62
    3
 10
1128.4337501562545
 20
828.93908616188742
 11
1128.4337501562545
 21
534.93908616188696
  0
LINE
  8
_0-1_計細線
  6
CONTINUOUS
 62
    3
 10
1128.4337501562545
 20
534.93908616188696
 11
1131.4337501562543
 21
534.93908616188696
  0
LINE
  8
_0-1_計細線
  6
CONTINUOUS
 62
    3
 10
1131.4337501562543
 20
534.93908616188696
 11
1131.4337501562543
 21
828.93908616188742
  0
LINE
  8
_0-1_計細線
  6
CONTINUOUS
 62
    3
 10
1141.4337501562543
 20
828.93908616188742
 11
1138.4337501562545
 21
828.93908616188742
  0
LINE
  8
_0-1_計細線
  6
CONTINUOUS
 62
    3
 10
1138.4337501562545
 20
828.93908616188742
 11
1138.4337501562545
 21
534.93908616188696
  0
LINE
  8
_0-1_計細線
  6
CONTINUOUS
 62
    3
 10
1138.4337501562545
 20
534.93908616188696
 11
1141.4337501562543
 21
534.93908616188696
  0
LINE
  8
_0-1_計細線
  6
CONTINUOUS
 62
    3
 10
1141.4337501562543
 20
534.93908616188696
 11
1141.4337501562543
 21
828.93908616188742
  0
LINE
  8
_0-1_計細線
  6
CONTINUOUS
 62
    3
 10
1151.4337501562543
 20
828.93908616188742
 11
1148.4337501562545
 21
828.93908616188742
  0
LINE
  8
_0-1_計細線
  6
CONTINUOUS
 62
    3
 10
1148.4337501562545
 20
828.93908616188742
 11
1148.4337501562545
 21
534.93908616188696
  0
LINE
  8
_0-1_計細線
  6
CONTINUOUS
 62
    3
 10
1148.4337501562545
 20
534.93908616188696
 11
1151.4337501562543
 21
534.93908616188696
  0
LINE
  8
_0-1_計細線
  6
CONTINUOUS
 62
    3
 10
1151.4337501562543
 20
534.93908616188696
 11
1151.4337501562543
 21
828.93908616188742
  0
LINE
  8
_0-1_計細線
  6
CONTINUOUS
 62
    3
 10
1161.4337501562543
 20
828.93908616188742
 11
1158.4337501562545
 21
828.93908616188742
  0
LINE
  8
_0-1_計細線
  6
CONTINUOUS
 62
    3
 10
1158.4337501562545
 20
828.93908616188742
 11
1158.4337501562545
 21
534.93908616188696
  0
LINE
  8
_0-1_計細線
  6
CONTINUOUS
 62
    3
 10
1158.4337501562545
 20
534.93908616188696
 11
1161.4337501562543
 21
534.93908616188696
  0
LINE
  8
_0-1_計細線
  6
CONTINUOUS
 62
    3
 10
1161.4337501562543
 20
534.93908616188696
 11
1161.4337501562543
 21
828.93908616188742
  0
LINE
  8
_0-1_計細線
  6
CONTINUOUS
 62
    3
 10
1171.4337501562543
 20
828.93908616188742
 11
1168.4337501562545
 21
828.93908616188742
  0
LINE
  8
_0-1_計細線
  6
CONTINUOUS
 62
    3
 10
1168.4337501562545
 20
828.93908616188742
 11
1168.4337501562545
 21
534.93908616188696
  0
LINE
  8
_0-1_計細線
  6
CONTINUOUS
 62
    3
 10
1168.4337501562545
 20
534.93908616188696
 11
1171.4337501562543
 21
534.93908616188696
  0
LINE
  8
_0-1_計細線
  6
CONTINUOUS
 62
    3
 10
1171.4337501562543
 20
534.93908616188696
 11
1171.4337501562543
 21
828.93908616188742
  0
LINE
  8
_0-1_計細線
  6
CONTINUOUS
 62
    3
 10
1181.4337501562543
 20
828.93908616188742
 11
1178.4337501562545
 21
828.93908616188742
  0
LINE
  8
_0-1_計細線
  6
CONTINUOUS
 62
    3
 10
1178.4337501562545
 20
828.93908616188742
 11
1178.4337501562545
 21
534.93908616188696
  0
LINE
  8
_0-1_計細線
  6
CONTINUOUS
 62
    3
 10
1178.4337501562545
 20
534.93908616188696
 11
1181.4337501562543
 21
534.93908616188696
  0
LINE
  8
_0-1_計細線
  6
CONTINUOUS
 62
    3
 10
1181.4337501562543
 20
534.93908616188696
 11
1181.4337501562543
 21
828.93908616188742
  0
LINE
  8
_0-1_計細線
  6
CONTINUOUS
 62
    3
 10
1191.4337501562543
 20
828.93908616188742
 11
1188.4337501562545
 21
828.93908616188742
  0
LINE
  8
_0-1_計細線
  6
CONTINUOUS
 62
    3
 10
1188.4337501562545
 20
828.93908616188742
 11
1188.4337501562545
 21
534.93908616188696
  0
LINE
  8
_0-1_計細線
  6
CONTINUOUS
 62
    3
 10
1188.4337501562545
 20
534.93908616188696
 11
1191.4337501562543
 21
534.93908616188696
  0
LINE
  8
_0-1_計細線
  6
CONTINUOUS
 62
    3
 10
1191.4337501562543
 20
534.93908616188696
 11
1191.4337501562543
 21
828.93908616188742
  0
LINE
  8
_0-1_計細線
  6
CONTINUOUS
 62
    3
 10
1201.4337501562543
 20
828.93908616188742
 11
1198.4337501562545
 21
828.93908616188742
  0
LINE
  8
_0-1_計細線
  6
CONTINUOUS
 62
    3
 10
1198.4337501562545
 20
828.93908616188742
 11
1198.4337501562545
 21
534.93908616188696
  0
LINE
  8
_0-1_計細線
  6
CONTINUOUS
 62
    3
 10
1198.4337501562545
 20
534.93908616188696
 11
1201.4337501562543
 21
534.93908616188696
  0
LINE
  8
_0-1_計細線
  6
CONTINUOUS
 62
    3
 10
1201.4337501562543
 20
534.93908616188696
 11
1201.4337501562543
 21
828.93908616188742
  0
LINE
  8
_0-1_計細線
  6
CONTINUOUS
 62
    3
 10
1211.4337501562543
 20
828.93908616188742
 11
1208.4337501562545
 21
828.93908616188742
  0
LINE
  8
_0-1_計細線
  6
CONTINUOUS
 62
    3
 10
1208.4337501562545
 20
828.93908616188742
 11
1208.4337501562545
 21
534.93908616188696
  0
LINE
  8
_0-1_計細線
  6
CONTINUOUS
 62
    3
 10
1208.4337501562545
 20
534.93908616188696
 11
1211.4337501562543
 21
534.93908616188696
  0
LINE
  8
_0-1_計細線
  6
CONTINUOUS
 62
    3
 10
1211.4337501562543
 20
534.93908616188696
 11
1211.4337501562543
 21
828.93908616188742
  0
LINE
  8
_0-1_計細線
  6
CONTINUOUS
 62
    3
 10
1221.4337501562543
 20
828.93908616188742
 11
1218.4337501562545
 21
828.93908616188742
  0
LINE
  8
_0-1_計細線
  6
CONTINUOUS
 62
    3
 10
1218.4337501562545
 20
828.93908616188742
 11
1218.4337501562545
 21
534.93908616188696
  0
LINE
  8
_0-1_計細線
  6
CONTINUOUS
 62
    3
 10
1218.4337501562545
 20
534.93908616188696
 11
1221.4337501562543
 21
534.93908616188696
  0
LINE
  8
_0-1_計細線
  6
CONTINUOUS
 62
    3
 10
1221.4337501562543
 20
534.93908616188696
 11
1221.4337501562543
 21
828.93908616188742
  0
LINE
  8
_0-5_寸法線
  6
CONTINUOUS
 62
    7
 10
1261.4433690994795
 20
526.93908616188685
 11
1341.3456881504796
 21
526.93908616188662
  0
LINE
  8
_0-5_寸法線
  6
CONTINUOUS
 62
    7
 10
1336.3456881504796
 20
526.93908616188662
 11
1333.7574976994547
 21
536.59834442477734
  0
LINE
  8
_0-5_寸法線
  6
CONTINUOUS
 62
    7
 10
1336.3456881504796
 20
526.93908616188662
 11
1338.9338786015048
 21
536.59834442477734
  0
LINE
  8
_0-5_寸法線
  6
CONTINUOUS
 62
    7
 10
1261.4433690994795
 20
836.93908616188696
 11
1341.3456881504796
 21
836.93908616188662
  0
LINE
  8
_0-5_寸法線
  6
CONTINUOUS
 62
    7
 10
1336.3456881504796
 20
836.93908616188662
 11
1338.9338786015048
 21
827.27982789899602
  0
LINE
  8
_0-5_寸法線
  6
CONTINUOUS
 62
    7
 10
1336.3456881504796
 20
836.93908616188662
 11
1333.7574976994547
 21
827.27982789899602
  0
LINE
  8
_0-5_寸法線
  6
CONTINUOUS
 62
    7
 10
1336.3456881504796
 20
526.93908616188662
 11
1336.3456881504796
 21
836.93908616188662
  0
TEXT
  8
_0-5_寸法線
 62
    7
 10
1336.3456881504796
 20
670.68908616188662
 40
15
 41
1
 50
90
  1
310
  0
LINE
  8
_0-5_寸法線
  6
CONTINUOUS
 62
    7
 10
188.42413121301774
 20
526.93908616188685
 11
143.42413121301732
 21
526.93908616188708
  0
LINE
  8
_0-5_寸法線
  6
CONTINUOUS
 62
    7
 10
148.42413121301732
 20
526.93908616188708
 11
145.83594076199211
 21
536.59834442477779
  0
LINE
  8
_0-5_寸法線
  6
CONTINUOUS
 62
    7
 10
148.42413121301732
 20
526.93908616188708
 11
151.01232166404253
 21
536.59834442477779
  0
LINE
  8
_0-5_寸法線
  6
CONTINUOUS
 62
    7
 10
188.42413121301774
 20
556.93908616188776
 11
143.42413121301732
 21
556.93908616188799
  0
LINE
  8
_0-5_寸法線
  6
CONTINUOUS
 62
    7
 10
148.42413121301732
 20
556.93908616188799
 11
151.01232166404245
 21
547.27982789899727
  0
LINE
  8
_0-5_寸法線
  6
CONTINUOUS
 62
    7
 10
148.42413121301732
 20
556.93908616188799
 11
145.83594076199205
 21
547.27982789899727
  0
LINE
  8
_0-5_寸法線
  6
CONTINUOUS
 62
    7
 10
148.42413121301732
 20
526.93908616188708
 11
148.42413121301732
 21
556.93908616188799
  0
TEXT
  8
_0-5_寸法線
 62
    7
 10
148.42413121301732
 20
534.43908616188753
 40
15
 41
1
 50
90
  1
30
  0
LINE
  8
_0-5_寸法線
  6
CONTINUOUS
 62
    7
 10
148.42413121301732
 20
556.93908616188799
 11
145.83594076199211
 21
566.5983444247787
  0
LINE
  8
_0-5_寸法線
  6
CONTINUOUS
 62
    7
 10
148.42413121301732
 20
556.93908616188799
 11
151.01232166404253
 21
566.5983444247787
  0
LINE
  8
_0-5_寸法線
  6
CONTINUOUS
 62
    7
 10
188.42413121301774
 20
806.93908616188742
 11
143.42413121301732
 21
806.93908616188764
  0
LINE
  8
_0-5_寸法線
  6
CONTINUOUS
 62
    7
 10
148.42413121301732
 20
806.93908616188764
 11
151.01232166404245
 21
797.27982789899681
  0
LINE
  8
_0-5_寸法線
  6
CONTINUOUS
 62
    7
 10
148.42413121301732
 20
806.93908616188764
 11
145.83594076199205
 21
797.27982789899681
  0
LINE
  8
_0-5_寸法線
  6
CONTINUOUS
 62
    7
 10
148.42413121301732
 20
556.93908616188799
 11
148.42413121301732
 21
806.93908616188764
  0
TEXT
  8
_0-5_寸法線
 62
    7
 10
148.42413121301723
 20
670.68908616188776
 40
15
 41
1
 50
89.999999999999815
  1
250
  0
LINE
  8
_0-5_寸法線
  6
CONTINUOUS
 62
    7
 10
148.42413121301732
 20
806.93908616188764
 11
145.83594076199211
 21
816.59834442477836
  0
LINE
  8
_0-5_寸法線
  6
CONTINUOUS
 62
    7
 10
148.42413121301732
 20
806.93908616188764
 11
151.01232166404253
 21
816.59834442477836
  0
LINE
  8
_0-5_寸法線
  6
CONTINUOUS
 62
    7
 10
188.42413121301774
 20
836.93908616188742
 11
143.42413121301732
 21
836.93908616188764
  0
LINE
  8
_0-5_寸法線
  6
CONTINUOUS
 62
    7
 10
148.42413121301732
 20
836.93908616188764
 11
151.01232166404245
 21
827.27982789899681
  0
LINE
  8
_0-5_寸法線
  6
CONTINUOUS
 62
    7
 10
148.42413121301732
 20
836.93908616188764
 11
145.83594076199205
 21
827.27982789899681
  0
LINE
  8
_0-5_寸法線
  6
CONTINUOUS
 62
    7
 10
148.42413121301732
 20
806.93908616188764
 11
148.42413121301732
 21
836.93908616188764
  0
TEXT
  8
_0-5_寸法線
 62
    7
 10
148.42413121301732
 20
814.43908616188764
 40
15
 41
1
 50
90
  1
30
  0
LINE
  8
_0-5_寸法線
  6
CONTINUOUS
 62
    7
 10
228.43375015625435
 20
846.93908616188742
 11
228.43375015625426
 21
891.93908616188742
  0
LINE
  8
_0-5_寸法線
  6
CONTINUOUS
 62
    7
 10
228.43375015625426
 20
886.93908616188742
 11
238.09300841914501
 21
889.52727661291249
  0
LINE
  8
_0-5_寸法線
  6
CONTINUOUS
 62
    7
 10
228.43375015625426
 20
886.93908616188742
 11
238.09300841914501
 21
884.35089571086223
  0
LINE
  8
_0-5_寸法線
  6
CONTINUOUS
 62
    7
 10
1221.4337501562543
 20
846.93908616188742
 11
1221.4337501562543
 21
891.93908616188742
  0
LINE
  8
_0-5_寸法線
  6
CONTINUOUS
 62
    7
 10
1221.4337501562543
 20
886.93908616188742
 11
1211.7744918933636
 21
884.35089571086223
  0
LINE
  8
_0-5_寸法線
  6
CONTINUOUS
 62
    7
 10
1221.4337501562543
 20
886.93908616188742
 11
1211.7744918933636
 21
889.52727661291249
  0
LINE
  8
_0-5_寸法線
  6
CONTINUOUS
 62
    7
 10
228.43375015625426
 20
886.93908616188742
 11
1221.4337501562543
 21
886.93908616188742
  0
TEXT
  8
_0-5_寸法線
 62
    7
 10
713.68375015625429
 20
886.93908616188742
 40
15
 41
1
 50
0
  1
993
  0
TEXT
  8
_0-5_寸法線
 62
    7
 10
633.30850638744255
 20
469.12447591872763
 40
15
 41
0.8000000000000001
 50
0
  1
ＧＳＬ－１５
  0
TEXT
  8
_0-5_寸法線
 62
    7
 10
852.90859272186697
 20
469.12447591872763
 40
15
 41
0.8000000000000001
 50
0
  1
ＧＳＦＪ－１５Ｗ３００
  0
TEXT
  8
_0-7_枠細線
 62
    5
 10
965.50000000000011
 20
110
 40
20
 41
0.6
 50
0
  1
ＧＳＦＪ－１５Ｗ３００
  0
TEXT
  8
_0-7_枠細線
 62
    5
 10
965.49999999999966
 20
70
 40
20.000000000000004
 41
0.5999999999999997
 50
0
  1
表面形状については記号表参照のこと
  0
LINE
  8
_0-7_枠細線
  6
CONTINUOUS
 62
    5
 10
1409.4018171150183
 20
328.47321710336234
 11
1409.4018171150183
 21
223.47321710336274
  0
TEXT
  8
_0-7_枠細線
 62
    5
 10
1318.4018171150192
 20
308.47321710336234
 40
15.000000000000002
 41
0.8
 50
0
  1
ノンスリップ
  0
TEXT
  8
_0-7_枠細線
 62
    5
 10
1330.4018171150185
 20
283.47321710336234
 40
15.000000000000002
 41
0.8
 50
0
  1
品番－Ｄ
  0
LINE
  8
_0-7_枠細線
  6
CONTINUOUS
 62
    5
 10
1299.4018171150178
 20
328.47321710336234
 11
1299.4018171150178
 21
223.47321710336274
  0
TEXT
  8
_0-7_枠細線
 62
    5
 10
1220.4018171150178
 20
308.4732171033624
 40
15.000000000000002
 41
0.8
 50
0
  1
プレーン
  0
TEXT
  8
_0-7_枠細線
 62
    5
 10
1220.4018171150185
 20
283.47321710336234
 40
15.000000000000002
 41
0.8
 50
0
  1
品番－Ｆ
  0
TEXT
  8
_0-7_枠細線
 62
    5
 10
1140.4018171150183
 20
308.47321710336234
 40
15.000000000000002
 41
0.8
 50
0
  1
タ イ プ
  0
LINE
  8
_0-7_枠細線
  6
CONTINUOUS
 62
    5
 10
1139.4018171150174
 20
278.47321710336234
 11
1409.4018171150183
 21
278.47321710336234
  0
LINE
  8
_0-7_枠細線
  6
CONTINUOUS
 62
    5
 10
1139.4018171150174
 20
303.47321710336234
 11
1409.4018171150183
 21
303.47321710336234
  0
LINE
  8
_0-7_枠細線
  6
CONTINUOUS
 62
    5
 10
1139.4018171150174
 20
328.47321710336234
 11
1409.4018171150183
 21
328.47321710336234
  0
LINE
  8
_0-7_枠細線
  6
CONTINUOUS
 62
    5
 10
1139.4018171150174
 20
223.47321710336274
 11
1409.4018171150183
 21
223.47321710336274
  0
LINE
  8
_0-7_枠細線
  6
CONTINUOUS
 62
    5
 10
1189.4018171150183
 20
328.47321710336234
 11
1189.4018171150183
 21
223.47321710336274
  0
LINE
  8
_0-7_枠細線
  6
CONTINUOUS
 62
    5
 10
1139.4018171150174
 20
328.47321710336234
 11
1139.4018171150174
 21
223.47321710336274
  0
TEXT
  8
_0-7_枠細線
 62
    5
 10
1140.4018171150183
 20
243.47321710336257
 40
15.000000000000002
 41
0.8
 50
0
  1
表面形状
  0
TEXT
  8
_0-7_枠細線
 62
    5
 10
1147.1760284558286
 20
330.9732171033624
 40
17.500000000000004
 41
0.7999999999999996
 50
0
  1
記号表
  0
TEXT
  8
_0-7_枠細線
 62
    5
 10
1140.4018171150183
 20
283.47321710336246
 40
15.000000000000002
 41
0.8
 50
0
  1
記　　号
  0
ARC
  8
_0-7_枠細線
  6
CONTINUOUS
 62
    5
 10
1285.5023462775741
 20
245.17647202943709
 40
8.5903566658075761
 50
317.56162900000447
 51
42.438370999995371
  0
ARC
  8
_0-7_枠細線
  6
CONTINUOUS
 62
    5
 10
1190.621859620396
 20
245.17647202943709
 40
8.5903566658076702
 50
317.56162899999947
 51
42.43837100000087
  0
ARC
  8
_0-7_枠細線
  6
CONTINUOUS
 62
    5
 10
1203.3012879524622
 20
256.76996202827797
 40
8.5903566658076702
 50
137.56162899999987
 51
222.43837100000292
  0
ARC
  8
_0-7_枠細線
  6
CONTINUOUS
 62
    5
 10
1298.1817746096403
 20
256.76996202827797
 40
8.5903566658075761
 50
137.56162899999941
 51
222.4383710000034
  0
LINE
  8
_0-7_枠細線
  6
CONTINUOUS
 62
    5
 10
1194.8814809446508
 20
258.47321702885716
 11
1289.7619676018294
 21
258.47321702885716
  0
LINE
  8
_0-7_枠細線
  6
CONTINUOUS
 62
    5
 10
1293.9221532853853
 20
243.47321702885765
 11
1199.0416666282072
 21
243.47321702885765
  0
ARC
  8
_0-7_枠細線
  6
CONTINUOUS
 62
    5
 10
1301.122215453679
 20
245.17647202943706
 40
8.5903566658075761
 50
317.5616290000001
 51
42.438371000001837
  0
ARC
  8
_0-7_枠細線
  6
CONTINUOUS
 62
    5
 10
1313.8016437857441
 20
256.76996202827786
 40
8.5903566658075761
 50
137.56162900000044
 51
222.43837100000019
  0
ARC
  8
_0-7_枠細線
  6
CONTINUOUS
 62
    5
 10
1396.0027021108588
 20
245.17647202943706
 40
8.5903566658075761
 50
317.56162899999799
 51
42.438371000001837
  0
ARC
  8
_0-7_枠細線
  6
CONTINUOUS
 62
    5
 10
1408.6821304429236
 20
256.76996202827786
 40
8.5903566658075761
 50
137.56162900000146
 51
222.43837100000019
  0
LINE
  8
_0-7_枠細線
  6
CONTINUOUS
 62
    5
 10
1305.3818367779329
 20
258.47321702885711
 11
1400.2623234351113
 21
258.47321702885711
  0
LINE
  8
_0-7_枠細線
  6
CONTINUOUS
 62
    5
 10
1404.4225091186672
 20
243.47321702885762
 11
1309.5420224614893
 21
243.47321702885762
  0
LINE
  8
_0-7_枠細線
  6
CONTINUOUS
 62
    5
 10
1305.319542326198
 20
258.12944077976692
 11
1319.975766077107
 21
243.47321702885773
  0
LINE
  8
_0-7_枠細線
  6
CONTINUOUS
 62
    5
 10
1315.5823677949058
 20
258.47321702885711
 11
1330.5823677949052
 21
243.47321702885773
  0
LINE
  8
_0-7_枠細線
  6
CONTINUOUS
 62
    5
 10
1326.1889695127043
 20
258.47321702885711
 11
1341.1889695127034
 21
243.47321702885773
  0
LINE
  8
_0-7_枠細線
  6
CONTINUOUS
 62
    5
 10
1336.7955712305022
 20
258.47321702885711
 11
1351.7955712305015
 21
243.47321702885773
  0
LINE
  8
_0-7_枠細線
  6
CONTINUOUS
 62
    5
 10
1347.4021729483002
 20
258.47321702885711
 11
1362.4021729482997
 21
243.47321702885762
  0
LINE
  8
_0-7_枠細線
  6
CONTINUOUS
 62
    5
 10
1358.0087746660984
 20
258.47321702885711
 11
1373.0087746660977
 21
243.47321702885762
  0
LINE
  8
_0-7_枠細線
  6
CONTINUOUS
 62
    5
 10
1368.6153763838965
 20
258.47321702885711
 11
1383.6153763838959
 21
243.47321702885762
  0
LINE
  8
_0-7_枠細線
  6
CONTINUOUS
 62
    5
 10
1379.2219781016945
 20
258.47321702885711
 11
1394.2219781016943
 21
243.47321702885762
  0
LINE
  8
_0-7_枠細線
  6
CONTINUOUS
 62
    5
 10
1389.8285798194929
 20
258.47321702885711
 11
1404.4848035704022
 21
243.81699327794757
  0
LINE
  8
_0-7_枠細線
  6
CONTINUOUS
 62
    5
 10
1400.4351815372913
 20
243.47321702885762
 11
1404.3132122249604
 21
247.3512477165265
  0
LINE
  8
_0-7_枠細線
  6
CONTINUOUS
 62
    5
 10
1389.8285798194931
 20
243.47321702885762
 11
1400.502099021217
 21
254.14673623058133
  0
LINE
  8
_0-7_枠細線
  6
CONTINUOUS
 62
    5
 10
1379.2219781016952
 20
243.47321702885762
 11
1394.2219781016945
 21
258.47321702885711
  0
LINE
  8
_0-7_枠細線
  6
CONTINUOUS
 62
    5
 10
1368.6153763838968
 20
243.47321702885762
 11
1383.6153763838965
 21
258.47321702885711
  0
LINE
  8
_0-7_枠細線
  6
CONTINUOUS
 62
    5
 10
1358.0087746660988
 20
243.47321702885773
 11
1373.0087746660979
 21
258.47321702885711
  0
LINE
  8
_0-7_枠細線
  6
CONTINUOUS
 62
    5
 10
1347.4021729483004
 20
243.47321702885773
 11
1362.4021729482999
 21
258.47321702885711
  0
LINE
  8
_0-7_枠細線
  6
CONTINUOUS
 62
    5
 10
1336.7955712305022
 20
243.47321702885773
 11
1351.7955712305015
 21
258.47321702885711
  0
LINE
  8
_0-7_枠細線
  6
CONTINUOUS
 62
    5
 10
1326.1889695127038
 20
243.47321702885773
 11
1341.1889695127034
 21
258.47321702885711
  0
LINE
  8
_0-7_枠細線
  6
CONTINUOUS
 62
    5
 10
1315.5823677949056
 20
243.47321702885773
 11
1330.5823677949052
 21
258.47321702885711
  0
LINE
  8
_0-7_枠細線
  6
CONTINUOUS
 62
    5
 10
1309.3022468753834
 20
247.79969782713346
 11
1319.975766077107
 21
258.47321702885711
  0
LINE
  8
_0-7_枠細線
  6
CONTINUOUS
 62
    5
 10
1305.4911336716398
 20
254.59518634118811
 11
1309.369164359309
 21
258.47321702885711
  0
LINE
  8
_0-9_枠極太
  6
CONTINUOUS
 62
    5
 10
60
 20
60
 11
60
 21
960
  0
LINE
  8
_0-9_枠極太
  6
CONTINUOUS
 62
    5
 10
60
 20
960
 11
1425
 21
960
  0
LINE
  8
_0-9_枠極太
  6
CONTINUOUS
 62
    5
 10
1425
 20
960
 11
1425
 21
60
  0
LINE
  8
_0-9_枠極太
  6
CONTINUOUS
 62
    5
 10
1425
 20
60
 11
60
 21
60
  0
LINE
  8
_0-7_枠細線
  6
CONTINUOUS
 62
    5
 10
1425
 20
907.5
 11
890
 21
907.5
  0
LINE
  8
_0-7_枠細線
  6
CONTINUOUS
 62
    5
 10
915
 20
908.94233397174708
 11
907.5
 21
923.94233397174708
  0
LINE
  8
_0-7_枠細線
  6
CONTINUOUS
 62
    5
 10
900
 20
908.94233397174708
 11
915
 21
908.94233397174708
  0
LINE
  8
_0-7_枠細線
  6
CONTINUOUS
 62
    5
 10
907.5
 20
923.94233397174708
 11
900
 21
908.94233397174708
  0
TEXT
  8
_0-7_枠細線
 62
    5
 10
902.36515126814822
 20
908.63533172636653
 40
12.5
 41
0.8
 50
0
  1
１
  0
TEXT
  8
_0-7_枠細線
 62
    5
 10
1180
 20
910
 40
12.5
 41
0.7199999999999999
 50
0
  1
２０１９．０９．０１
  0
TEXT
  8
_0-7_枠細線
 62
    5
 10
938.85037037037023
 20
910
 40
12.500000000000002
 41
1
 50
0
  1
アンカー材質･厚み変更
  0
LINE
  8
_0-7_枠細線
  6
CONTINUOUS
 62
    5
 10
890
 20
907.5
 11
890
 21
959.99999999999909
  0
LINE
  8
_0-7_枠細線
  6
CONTINUOUS
 62
    5
 10
925
 20
907.5
 11
925
 21
959.99999999999943
  0
LINE
  8
_0-7_枠細線
  6
CONTINUOUS
 62
    5
 10
1175
 20
907.5
 11
1175
 21
959.99999999999943
  0
LINE
  8
_0-7_枠細線
  6
CONTINUOUS
 62
    5
 10
1275
 20
907.5
 11
1275
 21
959.99999999999943
  0
LINE
  8
_0-a_極細3
  6
CONTINUOUS
 62
    7
 10
732.59732663941463
 20
256.56810626811466
 11
728.76399330608126
 21
256.56810626811466
  0
LINE
  8
_0-a_極細3
  6
CONTINUOUS
 62
    7
 10
732.59732663941463
 20
259.90143960144815
 11
728.76399330608126
 21
259.90143960144815
  0
LINE
  8
_0-a_極細3
  6
CONTINUOUS
 62
    7
 10
732.59732663941463
 20
253.23477293478163
 11
728.76399330608126
 21
253.23477293478163
  0
LINE
  8
_0-a_極細3
  6
CONTINUOUS
 62
    7
 10
732.59732663941463
 20
263.23477293478163
 11
728.76399330608126
 21
263.23477293478163
  0
LINE
  8
_0-a_極細3
  6
CONTINUOUS
 62
    7
 10
728.76399330608126
 20
229.90143960144817
 11
732.59732663941463
 21
229.90143960144817
  0
LINE
  8
_0-a_極細3
  6
CONTINUOUS
 62
    7
 10
732.59732663941463
 20
279.90143960144815
 11
728.76399330608126
 21
279.90143960144815
  0
LINE
  8
_0-b_細線3
  6
CONTINUOUS
 62
    7
 10
728.76399330608126
 20
283.23477293478163
 11
728.76399330608126
 21
224.90143960144817
  0
LINE
  8
_0-b_細線3
  6
CONTINUOUS
 62
    7
 10
728.76399330608126
 20
224.90143960144817
 11
732.59732663941463
 21
224.90143960144817
  0
LINE
  8
_0-b_細線3
  6
CONTINUOUS
 62
    7
 10
732.59732663941463
 20
224.90143960144817
 11
732.59732663941463
 21
283.23477293478163
  0
LINE
  8
_0-b_細線3
  6
CONTINUOUS
 62
    7
 10
732.59732663941463
 20
283.23477293478163
 11
728.76399330608126
 21
283.23477293478163
  0
LINE
  8
_0-7_枠細線
  6
CONTINUOUS
 62
    5
 10
751.6831947326541
 20
260.96352293093548
 11
744.1831947326541
 21
275.96352293093548
  0
LINE
  8
_0-7_枠細線
  6
CONTINUOUS
 62
    5
 10
736.6831947326541
 20
260.96352293093548
 11
751.6831947326541
 21
260.96352293093548
  0
LINE
  8
_0-7_枠細線
  6
CONTINUOUS
 62
    5
 10
744.1831947326541
 20
275.96352293093548
 11
736.6831947326541
 21
260.96352293093548
  0
TEXT
  8
_0-7_枠細線
 62
    5
 10
739.04834600080221
 20
260.65652068555488
 40
12.5
 41
0.8
 50
0
  1
１
  0
LINE
  8
_0-a_極細3
  6
CONTINUOUS
 62
    7
 10
208.26399310278617
 20
256.56810575052759
 11
212.09732643611943
 21
256.56810575052759
  0
LINE
  8
_0-a_極細3
  6
CONTINUOUS
 62
    7
 10
208.26399310278617
 20
259.90143908386108
 11
212.09732643611943
 21
259.90143908386108
  0
LINE
  8
_0-a_極細3
  6
CONTINUOUS
 62
    7
 10
208.26399310278617
 20
253.23477241719459
 11
212.09732643611943
 21
253.23477241719459
  0
LINE
  8
_0-a_極細3
  6
CONTINUOUS
 62
    7
 10
208.26399310278617
 20
263.23477241719456
 11
212.09732643611943
 21
263.23477241719456
  0
LINE
  8
_0-a_極細3
  6
CONTINUOUS
 62
    7
 10
212.09732643611943
 20
229.90143908386108
 11
208.26399310278617
 21
229.90143908386108
  0
LINE
  8
_0-a_極細3
  6
CONTINUOUS
 62
    7
 10
208.26399310278617
 20
279.90143908386108
 11
212.09732643611943
 21
279.90143908386108
  0
LINE
  8
_0-b_細線3
  6
CONTINUOUS
 62
    7
 10
212.09732643611943
 20
283.23477241719456
 11
212.09732643611943
 21
224.90143908386108
  0
LINE
  8
_0-b_細線3
  6
CONTINUOUS
 62
    7
 10
212.09732643611943
 20
224.90143908386108
 11
208.26399310278617
 21
224.90143908386108
  0
LINE
  8
_0-b_細線3
  6
CONTINUOUS
 62
    7
 10
208.26399310278617
 20
224.90143908386108
 11
208.26399310278617
 21
283.23477241719456
  0
LINE
  8
_0-b_細線3
  6
CONTINUOUS
 62
    7
 10
208.26399310278617
 20
283.23477241719456
 11
212.09732643611943
 21
283.23477241719456
  0
LINE
  8
_0-d_寸法3
  6
CONTINUOUS
 62
    7
 10
198.26399310278617
 20
263.23477241719462
 11
156.14729535753014
 21
263.23477241719456
  0
LINE
  8
_0-d_寸法3
  6
CONTINUOUS
 62
    7
 10
161.14729535753014
 20
263.23477241719456
 11
163.73548580855527
 21
253.5755141543039
  0
LINE
  8
_0-d_寸法3
  6
CONTINUOUS
 62
    7
 10
161.14729535753014
 20
263.23477241719456
 11
158.55910490650487
 21
253.57551415430393
  0
LINE
  8
_0-d_寸法3
  6
CONTINUOUS
 62
    7
 10
198.26399310278617
 20
224.90143908386113
 11
156.14729535753014
 21
224.90143908386113
  0
LINE
  8
_0-d_寸法3
  6
CONTINUOUS
 62
    7
 10
161.14729535753014
 20
224.90143908386108
 11
158.55910490650487
 21
234.56069734675179
  0
LINE
  8
_0-d_寸法3
  6
CONTINUOUS
 62
    7
 10
161.14729535753014
 20
224.90143908386108
 11
163.73548580855532
 21
234.56069734675179
  0
LINE
  8
_0-d_寸法3
  6
CONTINUOUS
 62
    7
 10
161.14729535753014
 20
263.23477241719456
 11
161.14729535753014
 21
224.90143908386108
  0
TEXT
  8
_0-d_寸法3
 62
    7
 10
161.14729535753014
 20
236.56810575052793
 40
15
 41
1
 50
90
  1
23
  0
LINE
  8
_0-d_寸法3
  6
CONTINUOUS
 62
    7
 10
202.09732643611943
 20
293.23477269126789
 11
156.14729535753014
 21
293.23477269126784
  0
LINE
  8
_0-d_寸法3
  6
CONTINUOUS
 62
    7
 10
161.14729535753014
 20
293.23477269126784
 11
163.73548580855527
 21
283.57551442837712
  0
LINE
  8
_0-d_寸法3
  6
CONTINUOUS
 62
    7
 10
161.14729535753014
 20
293.23477269126784
 11
158.55910490650487
 21
283.57551442837718
  0
LINE
  8
_0-d_寸法3
  6
CONTINUOUS
 62
    7
 10
198.26399310278617
 20
263.23477241719462
 11
156.14729535753014
 21
263.23477241719456
  0
LINE
  8
_0-d_寸法3
  6
CONTINUOUS
 62
    7
 10
161.14729535753014
 20
263.23477241719456
 11
158.55910490650487
 21
272.89403068008528
  0
LINE
  8
_0-d_寸法3
  6
CONTINUOUS
 62
    7
 10
161.14729535753014
 20
263.23477241719456
 11
163.73548580855532
 21
272.89403068008528
  0
LINE
  8
_0-d_寸法3
  6
CONTINUOUS
 62
    7
 10
161.14729535753014
 20
293.23477269126784
 11
161.14729535753014
 21
263.23477241719456
  0
TEXT
  8
_0-d_寸法3
 62
    7
 10
161.14729535753014
 20
270.7347725542312
 40
15
 41
1
 50
90
  1
18
  0
LINE
  8
_0-5_寸法線
  6
CONTINUOUS
 62
    7
 10
1261.4433690994795
 20
526.93908616188685
 11
1306.3456881504796
 21
526.93908616188662
  0
LINE
  8
_0-5_寸法線
  6
CONTINUOUS
 62
    7
 10
1301.3456881504796
 20
526.93908616188662
 11
1303.9338786015048
 21
517.2798278989959
  0
LINE
  8
_0-5_寸法線
  6
CONTINUOUS
 62
    7
 10
1301.3456881504796
 20
526.93908616188662
 11
1298.7574976994547
 21
517.2798278989959
  0
LINE
  8
_0-5_寸法線
  6
CONTINUOUS
 62
    7
 10
1261.4433690994795
 20
529.93908616188696
 11
1306.3456881504796
 21
529.93908616188662
  0
CIRCLE
  8
_0-5_寸法線
  6
CONTINUOUS
 62
    1
 10
1301.3456881504796
 20
529.93908616188662
 40
1.5000000000000002
  0
LINE
  8
_0-5_寸法線
  6
CONTINUOUS
 62
    7
 10
1301.3456881504796
 20
501.93908616188662
 11
1301.3456881504796
 21
529.93908616188662
  0
TEXT
  8
_0-5_寸法線
 62
    7
 10
1301.3456881504796
 20
504.89149752366791
 40
15
 41
1
 50
90
  1
3
  0
LINE
  8
_0-5_寸法線
  6
CONTINUOUS
 62
    7
 10
1261.4433690994795
 20
531.93908616188685
 11
1306.3456881504796
 21
531.93908616188662
  0
LINE
  8
_0-5_寸法線
  6
CONTINUOUS
 62
    7
 10
1301.3456881504796
 20
529.93908616188662
 11
1301.3456881504796
 21
531.93908616188662
  0
TEXT
  8
_0-5_寸法線
 62
    7
 10
1323.5323908926766
 20
530.75189735911158
 40
15
 41
1
 50
90
  1
2
  0
LINE
  8
_0-5_寸法線
  6
CONTINUOUS
 62
    7
 10
1301.3456881504796
 20
531.93908616188662
 11
1298.7574976994547
 21
541.59834442477734
  0
LINE
  8
_0-5_寸法線
  6
CONTINUOUS
 62
    7
 10
1301.3456881504796
 20
531.93908616188662
 11
1303.9338786015048
 21
541.59834442477734
  0
LINE
  8
_0-5_寸法線
  6
CONTINUOUS
 62
    7
 10
1261.4433690994795
 20
831.93908616188696
 11
1306.3456881504796
 21
831.93908616188662
  0
LINE
  8
_0-5_寸法線
  6
CONTINUOUS
 62
    7
 10
1301.3456881504796
 20
831.93908616188662
 11
1303.9338786015048
 21
822.27982789899602
  0
LINE
  8
_0-5_寸法線
  6
CONTINUOUS
 62
    7
 10
1301.3456881504796
 20
831.93908616188662
 11
1298.7574976994547
 21
822.27982789899602
  0
LINE
  8
_0-5_寸法線
  6
CONTINUOUS
 62
    7
 10
1301.3456881504796
 20
531.93908616188662
 11
1301.3456881504796
 21
831.93908616188662
  0
TEXT
  8
_0-5_寸法線
 62
    7
 10
1301.3456881504796
 20
670.68908616188662
 40
15
 41
1
 50
90
  1
300
  0
LINE
  8
_0-5_寸法線
  6
CONTINUOUS
 62
    7
 10
1261.4433690994795
 20
833.93908616188742
 11
1306.3456881504796
 21
833.93908616188708
  0
CIRCLE
  8
_0-5_寸法線
  6
CONTINUOUS
 62
    1
 10
1301.3456881504796
 20
833.93908616188708
 40
1.5000000000000002
  0
LINE
  8
_0-5_寸法線
  6
CONTINUOUS
 62
    7
 10
1301.3456881504796
 20
831.93908616188662
 11
1301.3456881504796
 21
833.93908616188708
  0
TEXT
  8
_0-5_寸法線
 62
    7
 10
1323.9023208702165
 20
825.38193068216856
 40
15
 41
1
 50
90
  1
2
  0
LINE
  8
_0-5_寸法線
  6
CONTINUOUS
 62
    7
 10
1261.4433690994795
 20
836.93908616188696
 11
1306.3456881504796
 21
836.93908616188662
  0
LINE
  8
_0-5_寸法線
  6
CONTINUOUS
 62
    7
 10
1301.3456881504796
 20
836.93908616188662
 11
1298.7574976994547
 21
846.59834442477745
  0
LINE
  8
_0-5_寸法線
  6
CONTINUOUS
 62
    7
 10
1301.3456881504796
 20
836.93908616188662
 11
1303.9338786015048
 21
846.59834442477745
  0
LINE
  8
_0-5_寸法線
  6
CONTINUOUS
 62
    7
 10
1301.3456881504796
 20
833.93908616188708
 11
1301.3456881504796
 21
861.93908616188662
  0
TEXT
  8
_0-5_寸法線
 62
    7
 10
1301.3456881504796
 20
849.1485738612181
 40
15
 41
1
 50
90
  1
3
  0
LINE
  8
_0-d_寸法3
  6
CONTINUOUS
 62
    7
 10
212.09732643611972
 20
378.23477269126784
 11
202.438068173229
 21
375.64658224024265
  0
LINE
  8
_0-d_寸法3
  6
CONTINUOUS
 62
    7
 10
212.09732643611972
 20
378.23477269126784
 11
202.43806817322906
 21
380.82296314229313
  0
LINE
  8
_0-d_寸法3
  6
CONTINUOUS
 62
    7
 10
217.09732643611943
 20
297.40143935793435
 11
217.09732643611972
 21
383.23477269126784
  0
CIRCLE
  8
_0-d_寸法3
  6
CONTINUOUS
 62
    1
 10
217.09732643611972
 20
378.23477269126784
 40
1.5000000000000002
  0
LINE
  8
_0-d_寸法3
  6
CONTINUOUS
 62
    7
 10
187.09732643611972
 20
378.23477269126784
 11
217.09732643611972
 21
378.23477269126784
  0
TEXT
  8
_0-d_寸法3
 62
    7
 10
191.84772928563561
 20
378.23477269126784
 40
15
 41
1
 50
0
  1
3
  0
LINE
  8
_0-d_寸法3
  6
CONTINUOUS
 62
    7
 10
220.43065976945243
 20
294.90143768959001
 11
220.43065976945272
 21
383.23477269126784
  0
LINE
  8
_0-d_寸法3
  6
CONTINUOUS
 62
    7
 10
217.09732643611972
 20
378.23477269126784
 11
220.43065976945272
 21
378.23477269126784
  0
TEXT
  8
_0-d_寸法3
 62
    7
 10
215.013993102786
 20
378.23477269126784
 40
15
 41
1
 50
0
  1
2
  0
LINE
  8
_0-d_寸法3
  6
CONTINUOUS
 62
    7
 10
220.43065976945272
 20
378.23477269126784
 11
230.08991803234338
 21
380.82296314229302
  0
LINE
  8
_0-d_寸法3
  6
CONTINUOUS
 62
    7
 10
220.43065976945272
 20
378.23477269126784
 11
230.08991803234338
 21
375.64658224024265
  0
LINE
  8
_0-d_寸法3
  6
CONTINUOUS
 62
    7
 10
720.43065976945286
 20
294.90143768959001
 11
720.43065976945286
 21
383.23477269126784
  0
LINE
  8
_0-d_寸法3
  6
CONTINUOUS
 62
    7
 10
720.43065976945286
 20
378.23477269126784
 11
710.77140150656214
 21
375.64658224024265
  0
LINE
  8
_0-d_寸法3
  6
CONTINUOUS
 62
    7
 10
720.43065976945286
 20
378.23477269126784
 11
710.77140150656214
 21
380.82296314229313
  0
LINE
  8
_0-d_寸法3
  6
CONTINUOUS
 62
    7
 10
220.43065976945272
 20
378.23477269126784
 11
720.43065976945286
 21
378.23477269126784
  0
TEXT
  8
_0-d_寸法3
 62
    7
 10
459.18065976945292
 20
378.23477269126784
 40
15
 41
1
 50
0
  1
300
  0
LINE
  8
_0-d_寸法3
  6
CONTINUOUS
 62
    7
 10
723.76399310278589
 20
297.40143935793435
 11
723.76399310278589
 21
383.23477269126784
  0
CIRCLE
  8
_0-d_寸法3
  6
CONTINUOUS
 62
    1
 10
723.76399310278589
 20
378.23477269126784
 40
1.5000000000000002
  0
LINE
  8
_0-d_寸法3
  6
CONTINUOUS
 62
    7
 10
720.43065976945286
 20
378.23477269126784
 11
723.76399310278589
 21
378.23477269126784
  0
TEXT
  8
_0-d_寸法3
 62
    7
 10
718.34732643611937
 20
378.23477269126784
 40
15
 41
1
 50
0
  1
2
  0
LINE
  8
_0-d_寸法3
  6
CONTINUOUS
 62
    7
 10
728.76399310278589
 20
378.23477269126784
 11
738.42325136567661
 21
380.82296314229296
  0
LINE
  8
_0-d_寸法3
  6
CONTINUOUS
 62
    7
 10
728.76399310278589
 20
378.23477269126784
 11
738.42325136567661
 21
375.64658224024265
  0
LINE
  8
_0-d_寸法3
  6
CONTINUOUS
 62
    7
 10
723.76399310278589
 20
378.23477269126784
 11
753.76399310278589
 21
378.23477269126784
  0
TEXT
  8
_0-d_寸法3
 62
    7
 10
741.87744356855319
 20
378.23477269126784
 40
15
 41
1
 50
0
  1
3
  0
ENDSEC
  0
EOF
