  0
SECTION
  2
HEADER
  9
$ACADVER
  1
AC1009
  9
$INSBASE
 10
0
 20
0
 30
0
  9
$EXTMIN
 10
0
 20
0
  9
$EXTMAX
 10
1485
 20
1050
  9
$LIMMIN
 10
0
 20
0
  9
$LIMMAX
 10
1485
 20
1050
  9
$LTSCALE
 40
5
  0
ENDSEC
  0
SECTION
  2
TABLES
  0
TABLE
  2
LTYPE
 70
     9
  0
LTYPE
  2
CONTINUOUS
 70
    64
  3
実線
 72
    65
 73
     0
 40
0.0
  0
LTYPE
  2
DASHED1
 70
    64
  3
--  --  --  --  --  --  --  --  
 72
    65
 73
     2
 40
2.5
 49
1.25
 49
-1.25
  0
LTYPE
  2
DASHED2
 70
    64
  3
----    ----    ----    ----    
 72
    65
 73
     2
 40
5.0
 49
2.5
 49
-2.5
  0
LTYPE
  2
DASHED3
 70
    64
  3
------  ------  ------  ------  
 72
    65
 73
     2
 40
5.0
 49
3.75
 49
-1.25
  0
LTYPE
  2
CENTER1
 70
    64
  3
----- - ----- - ----- - ----- - 
 72
    65
 73
     4
 40
10.0
 49
6.25
 49
-1.25
 49
1.25
 49
-1.25
  0
LTYPE
  2
CENTER2
 70
    64
  3
----------  --  ----------  --  
 72
    65
 73
     4
 40
20.0
 49
12.5
 49
-2.5
 49
2.5
 49
-2.5
  0
LTYPE
  2
PHANTOM1
 70
    64
  3
--- - - --- - - --- - - --- - - 
 72
    65
 73
     6
 40
10.0
 49
3.25
 49
-1.25
 49
1.25
 49
-1.25
 49
1.25
 49
-1.25
  0
LTYPE
  2
PHANTOM2
 70
    64
  3
--------  -  -  --------  -  -  
 72
    65
 73
     6
 40
20.0
 49
10.0
 49
-2.5
 49
1.25
 49
-2.5
 49
1.25
 49
-2.5
  0
LTYPE
  2
DOT
 70
    64
  3
-   -   -   -   -   -   -   -   
 72
    65
 73
     2
 40
2.5
 49
0.625
 49
-1.875
  0
LTYPE
  2
DUMMY
 70
    64
  3
ダミー
 72
    65
 73
     0
 40
0.0
  0
LTYPE
  2
RAND1
 70
    64
  3
ランダム線1
 72
    65
 73
     4
 40
10.0
 49
1.0
 49
-2.0
 49
3.0
 49
-4.0
  0
LTYPE
  2
RAND2
 70
    64
  3
ランダム線2
 72
    65
 73
     4
 40
14.0
 49
2.0
 49
-3.0
 49
4.0
 49
-5.0
  0
LTYPE
  2
RAND3
 70
    64
  3
ランダム線3
 72
    65
 73
     4
 40
18.0
 49
3.0
 49
-4.0
 49
5.0
 49
-6.0
  0
LTYPE
  2
RAND4
 70
    64
  3
ランダム線4
 72
    65
 73
     4
 40
22.0
 49
4.0
 49
-5.0
 49
6.0
 49
-7.0
  0
LTYPE
  2
RAND5
 70
    64
  3
ランダム線5
 72
    65
 73
     4
 40
26.0
 49
5.0
 49
-6.0
 49
7.0
 49
-8.0
  0
LTYPE
  2
LONG1
 70
    64
  3
----------  --  ----------  --  
 72
    65
 73
     4
 40
40.0
 49
32.5
 49
-2.5
 49
2.5
 49
-2.5
  0
LTYPE
  2
LONG2
 70
    64
  3
--------  -  -  --------  -  -  
 72
    65
 73
     6
 40
40.0
 49
30.0
 49
-2.5
 49
1.25
 49
-2.5
 49
1.25
 49
-2.5
  0
LTYPE
  2
LONG3
 70
    64
  3
+++++++++++++++..+++++++++++++++
 72
    65
 73
     2
 40
40.0
 49
37.5
 49
-2.5
  0
LTYPE
  2
LONG4
 70
    64
  3
+++++++++++++++..+++++++++++++++
 72
    65
 73
     2
 40
80.0
 49
75.0
 49
-5.0
  0
LTYPE
  2
LONG5
 70
    64
  3
----------  --  ----------  --  
 72
    65
 73
     4
 40
60.0
 49
37.5
 49
-7.5
 49
7.5
 49
-7.5
  0
LTYPE
  2
dashed
 70
   64
  3
-------   -------------   ------
 72
   65
 73
    2
 40
7.5
 49
6
 49
-1.5
  0
LTYPE
  2
dashed_spaced
 70
   64
  3
----        --------        ----
 72
   65
 73
    2
 40
12
 49
6
 49
-6
  0
LTYPE
  2
long_dashed_dotted
 70
   64
  3
------------- --- --------------
 72
   65
 73
    4
 40
15.25
 49
12
 49
-1.5
 49
0.25
 49
-1.5
  0
LTYPE
  2
long_dashed_double-dotted
 70
   64
  3
----------- --- --- ------------
 72
   65
 73
    6
 40
17
 49
12
 49
-1.5
 49
0.25
 49
-1.5
 49
0.25
 49
-1.5
  0
LTYPE
  2
long_dashed_triplicate-dotted
 70
   64
  3
--------- --- --- --- ----------
 72
   65
 73
    8
 40
18.75
 49
12
 49
-1.5
 49
0.25
 49
-1.5
 49
0.25
 49
-1.5
 49
0.25
 49
-1.5
  0
LTYPE
  2
dotted
 70
   64
  3
   -       -       -       -    
 72
   65
 73
    2
 40
1.75
 49
0.25
 49
-1.5
  0
LTYPE
  2
chain
 70
   64
  3
-------------- -- --------------
 72
   65
 73
    4
 40
18.5
 49
12
 49
-1.5
 49
3.5
 49
-1.5
  0
LTYPE
  2
chain_double_dash
 70
   64
  3
------------ -- -- -------------
 72
   65
 73
    6
 40
23.5
 49
12
 49
-1.5
 49
3.5
 49
-1.5
 49
3.5
 49
-1.5
  0
LTYPE
  2
dashed_dotted
 70
   64
  3
-----------     -     ----------
 72
   65
 73
    4
 40
9.25
 49
6
 49
-1.5
 49
0.25
 49
-1.5
  0
LTYPE
  2
double-dashed_dotted
 70
   64
  3
------   -----------   -   -----
 72
   65
 73
    6
 40
16.75
 49
6
 49
-1.5
 49
6
 49
-1.5
 49
0.25
 49
-1.5
  0
LTYPE
  2
dashed_double-dotted
 70
   64
  3
---------    -    -    ---------
 72
   65
 73
    6
 40
11
 49
6
 49
-1.5
 49
0.25
 49
-1.5
 49
0.25
 49
-1.5
  0
LTYPE
  2
double-dashed_double-dotted
 70
   64
  3
-----   ---------   -   -   ----
 72
   65
 73
    8
 40
18.5
 49
6
 49
-1.5
 49
6
 49
-1.5
 49
0.25
 49
-1.5
 49
0.25
 49
-1.5
  0
LTYPE
  2
dashed_triplicate-dotted
 70
   64
  3
-------    -    -    -    ------
 72
   65
 73
    8
 40
12.75
 49
6
 49
-1.5
 49
0.25
 49
-1.5
 49
0.25
 49
-1.5
 49
0.25
 49
-1.5
  0
LTYPE
  2
double-dashed_triplicate-dotted
 70
   64
  3
-----  ---------  -  -  -  -----
 72
   65
 73
   10
 40
20.25
 49
6
 49
-1.5
 49
6
 49
-1.5
 49
0.25
 49
-1.5
 49
0.25
 49
-1.5
 49
0.25
 49
-1.5
  0
LTYPE
  2
undefined
 70
   64
  3
--------------------------------
 72
   65
 73
    0
 40
0
  0
ENDTAB
  0
TABLE
  2
STYLE
  5
3
100
AcDbSymbolTable
 70
     1
  0
STYLE
  5
10
100
AcDbSymbolTableRecord
100
AcDbTextStyleTableRecord
  2
STANDARD
 70
     0
 40
0.0
 41
1.0
 50
0.0
 71
     0
 42
0.2
  3
txt
  4
bigfont.shx
  0
STYLE
  5
26
100
AcDbSymbolTableRecord
100
AcDbTextStyleTableRecord
  2
TATEGAKI
 70
    68
 40
0.0
 41
1.0
 50
0.0
 71
     0
 42
1.0
  3
txt
  4
bigfont.shx
  0
ENDTAB
  0
TABLE
  2
LAYER
 70
   10
  0
LAYER
  2
_0-0_計極細
 70
   64
 62
    7
  6
CONTINUOUS
  0
LAYER
  2
_0-1_計細線
 70
   64
 62
    7
  6
CONTINUOUS
  0
LAYER
  2
_0-5_寸法線
 70
   64
 62
    7
  6
CONTINUOUS
  0
LAYER
  2
_0-7_枠細線
 70
   64
 62
    7
  6
CONTINUOUS
  0
LAYER
  2
_0-8_枠中線
 70
   64
 62
    7
  6
CONTINUOUS
  0
LAYER
  2
_0-9_枠極太
 70
   64
 62
    7
  6
CONTINUOUS
  0
LAYER
  2
_0-a_極細3
 70
   64
 62
    7
  6
CONTINUOUS
  0
LAYER
  2
_0-b_細線3
 70
   64
 62
    7
  6
CONTINUOUS
  0
LAYER
  2
_0-d_寸法3
 70
   64
 62
    7
  6
CONTINUOUS
  0
LAYER
  2
ADD_LINE
 70
   64
 62
    7
  6
CONTINUOUS
  0
ENDTAB
  0
ENDSEC
  0
SECTION
  2
BLOCKS
  0
ENDSEC
  0
SECTION
  2
ENTITIES
  0
LINE
  8
_0-7_枠細線
  6
CONTINUOUS
 62
    5
 10
1425
 20
942.5
 11
890
 21
942.5
  0
TEXT
  8
_0-7_枠細線
 62
    5
 10
895
 20
945
 40
12.5
 41
1
 50
0
  1
記号
  0
TEXT
  8
_0-7_枠細線
 62
    5
 10
996.875
 20
945
 40
12.5
 41
1
 50
0
  1
訂　 正　 記　 事
  0
TEXT
  8
_0-7_枠細線
 62
    5
 10
1181.25
 20
945
 40
12.5
 41
1
 50
0
  1
訂 正 年 月 日
  0
TEXT
  8
_0-7_枠細線
 62
    5
 10
1306.25
 20
945
 40
12.5
 41
1
 50
0
  1
備　　　　　考
  0
LINE
  8
_0-7_枠細線
  6
CONTINUOUS
 62
    5
 10
1185
 20
180
 11
1185
 21
100
  0
TEXT
  8
_0-7_枠細線
 62
    5
 10
937.5
 20
97.5
 40
17.5
 41
1
 50
0
  1
備考
  7
TATEGAKI
  0
TEXT
  8
_0-7_枠細線
 62
    5
 10
937.5
 20
137.5
 40
17.5
 41
1
 50
0
  1
品番
  7
TATEGAKI
  0
TEXT
  8
_0-7_枠細線
 62
    5
 10
937.5
 20
177.5
 40
17.5
 41
1
 50
0
  1
品名
  7
TATEGAKI
  0
LINE
  8
_0-7_枠細線
  6
CONTINUOUS
 62
    5
 10
1185
 20
140
 11
925
 21
140
  0
LINE
  8
_0-7_枠細線
  6
CONTINUOUS
 62
    5
 10
950
 20
180
 11
950
 21
60
  0
LINE
  8
_0-8_枠中線
  6
CONTINUOUS
 62
    5
 10
1425
 20
180
 11
925
 21
180
  0
LINE
  8
_0-8_枠中線
  6
CONTINUOUS
 62
    5
 10
925
 20
180
 11
925
 21
60
  0
LINE
  8
_0-7_枠細線
  6
CONTINUOUS
 62
    5
 10
1245
 20
180
 11
1245
 21
60
  0
TEXT
  8
_0-7_枠細線
 62
    5
 10
1192.5
 20
160
 40
15
 41
1
 50
0
  1
縮　尺
  0
TEXT
  8
_0-7_枠細線
 62
    5
 10
1194
 20
117.5
 40
20
 41
0.7000000000000001
 50
0
  1
１：５
  0
LINE
  8
_0-7_枠細線
  6
CONTINUOUS
 62
    5
 10
1185
 20
155
 11
1245
 21
155
  0
LINE
  8
_0-7_枠細線
  6
CONTINUOUS
 62
    5
 10
1245
 20
100
 11
925
 21
100
  0
LINE
  8
_0-7_枠細線
  6
CONTINUOUS
 62
    5
 10
1425
 20
90
 11
1245
 21
90
  0
LINE
  8
_0-7_枠細線
  6
CONTINUOUS
 62
    5
 10
1245
 20
120
 11
1425
 21
120
  0
LINE
  8
_0-7_枠細線
  6
CONTINUOUS
 62
    5
 10
1425
 20
140
 11
1245
 21
140
  0
TEXT
  8
_0-7_枠細線
 62
    5
 10
1255
 20
147.5
 40
25
 41
0.8
 50
0
  1
株式会社シマブン
  0
TEXT
  8
_0-7_枠細線
 62
    5
 10
1252.5
 20
60
 40
15
 41
1
 50
0
  1
年月日
  0
TEXT
  8
_0-7_枠細線
 62
    5
 10
1252.5
 20
75
 40
15
 41
1
 50
0
  1
作　成
  0
TEXT
  8
_0-7_枠細線
 62
    5
 10
1256.25
 20
122.5
 40
15
 41
1
 50
0
  1
承 認
  0
LINE
  8
_0-7_枠細線
  6
CONTINUOUS
 62
    5
 10
1305
 20
140
 11
1305
 21
60
  0
TEXT
  8
_0-7_枠細線
 62
    5
 10
1316.25
 20
122.5
 40
15
 41
1
 50
0
  1
検 図
  0
LINE
  8
_0-7_枠細線
  6
CONTINUOUS
 62
    5
 10
1365
 20
140
 11
1365
 21
90
  0
TEXT
  8
_0-7_枠細線
 62
    5
 10
1375
 20
95
 40
20
 41
1
 50
0
  1
藤戸
  0
TEXT
  8
_0-7_枠細線
 62
    5
 10
1376.25
 20
122.5
 40
15
 41
1
 50
0
  1
設 計
  0
TEXT
  8
_0-7_枠細線
 62
    5
 10
1310
 20
67.5
 40
15
 41
0.6666666666666666
 50
0
  1
２０１１年０７月０４日
  0
TEXT
  8
_0-7_枠細線
 62
    5
 10
1255
 20
95
 40
20
 41
1
 50
0
  1
隠塚
  0
TEXT
  8
_0-7_枠細線
 62
    5
 10
1315
 20
95
 40
20
 41
1
 50
0
  1
渋田
  0
LINE
  8
_0-7_枠細線
  6
CONTINUOUS
 62
    5
 10
1425
 20
925
 11
890
 21
925
  0
TEXT
  8
_0-7_枠細線
 62
    5
 10
938.85037037037023
 20
927.5
 40
12.500000000000002
 41
1
 50
0
  1
品番変更
  0
TEXT
  8
_0-7_枠細線
 62
    5
 10
1180
 20
927.5
 40
12.5
 41
0.7199999999999999
 50
0
  1
２０１５．０４．０１
  0
ARC
  8
_0-b_細線3
  6
CONTINUOUS
 62
    7
 10
303.76399310314525
 20
279.9014393579339
 40
8.75
 50
294.03943363457506
 51
65.960566365424228
  0
ARC
  8
_0-b_細線3
  6
CONTINUOUS
 62
    7
 10
303.76399310314525
 20
279.9014393579339
 40
8.75
 50
114.03943363457542
 51
245.96056636541877
  0
ARC
  8
_0-b_細線3
  6
CONTINUOUS
 62
    7
 10
303.76399310313792
 20
274.06810602454311
 40
2.4999999999928004
 50
179.99999999999983
 51
359.99999999999966
  0
LINE
  8
_0-b_細線3
  6
CONTINUOUS
 62
    7
 10
301.26399310314525
 20
285.73477269126738
 11
301.26399310314525
 21
274.06810602460087
  0
ARC
  8
_0-b_細線3
  6
CONTINUOUS
 62
    7
 10
303.76399310313792
 20
285.73477269133923
 40
2.5000000000072005
 50
0
 51
179.99999999999983
  0
LINE
  8
_0-b_細線3
  6
CONTINUOUS
 62
    7
 10
306.26399310314525
 20
274.06810602460087
 11
306.26399310314525
 21
285.73477269126738
  0
ARC
  8
_0-b_細線3
  6
CONTINUOUS
 62
    7
 10
303.76399310315065
 20
274.06810602458177
 40
4.1666666666723522
 50
179.99999999999983
 51
359.99999999999966
  0
LINE
  8
_0-b_細線3
  6
CONTINUOUS
 62
    7
 10
299.59732643647908
 20
285.73477269126738
 11
299.59732643647908
 21
274.06810602460087
  0
ARC
  8
_0-b_細線3
  6
CONTINUOUS
 62
    7
 10
303.7639931031124
 20
285.73477269136515
 40
4.1666666667000154
 50
0
 51
179.99999999999983
  0
LINE
  8
_0-b_細線3
  6
CONTINUOUS
 62
    7
 10
307.93065976981217
 20
274.06810602460087
 11
307.93065976981217
 21
285.73477269126738
  0
CIRCLE
  8
_0-a_極細3
  6
CONTINUOUS
 62
    7
 10
157.04756589996336
 20
278.19373866348337
 40
0.5530864197530718
  0
LINE
  8
_0-a_極細3
  6
CONTINUOUS
 62
    7
 10
162.09732643647868
 20
293.23477269126784
 11
162.09732643647868
 21
281.56810602460087
  0
LINE
  8
_0-a_極細3
  6
CONTINUOUS
 62
    7
 10
162.09732643647868
 20
293.23477269126784
 11
72.919579291364585
 21
293.23477269126784
  0
LINE
  8
_0-a_極細3
  6
CONTINUOUS
 62
    7
 10
170.43065976981268
 20
281.56810602460087
 11
72.919579291364585
 21
281.56810602460087
  0
LINE
  8
_0-a_極細3
  6
CONTINUOUS
 62
    7
 10
170.43065976981268
 20
293.23477269126784
 11
162.09732643647868
 21
293.23477269126784
  0
LINE
  8
_0-a_極細3
  6
CONTINUOUS
 62
    7
 10
170.43065976981268
 20
292.40143935793435
 11
170.43065976981268
 21
293.23477269126784
  0
LINE
  8
_0-a_極細3
  6
CONTINUOUS
 62
    7
 10
170.2325695134526
 20
281.56810602460087
 11
170.43065976981168
 21
281.76619628096046
  0
LINE
  8
_0-a_極細3
  6
CONTINUOUS
 62
    7
 10
165.98992882633354
 20
281.56810602460087
 11
170.43065976981268
 21
286.00883696807955
  0
LINE
  8
_0-a_極細3
  6
CONTINUOUS
 62
    7
 10
162.09732643647868
 20
281.91814432186561
 11
170.43065976981268
 21
290.2514776551991
  0
LINE
  8
_0-a_極細3
  6
CONTINUOUS
 62
    7
 10
162.09732643647868
 20
286.1607850089847
 11
169.17131411876142
 21
293.23477269126784
  0
LINE
  8
_0-a_極細3
  6
CONTINUOUS
 62
    7
 10
162.09732643647868
 20
290.40342569610425
 11
164.92867343164227
 21
293.23477269126784
  0
LINE
  8
_0-a_極細3
  6
CONTINUOUS
 62
    7
 10
170.43065976981268
 20
290.9538058190094
 11
168.14969289755425
 21
293.23477269126784
  0
LINE
  8
_0-a_極細3
  6
CONTINUOUS
 62
    7
 10
170.43065976981268
 20
286.71116513188986
 11
163.90705221043419
 21
293.23477269126784
  0
LINE
  8
_0-a_極細3
  6
CONTINUOUS
 62
    7
 10
162.09732643647868
 20
290.80185777810425
 11
170.43065976981268
 21
282.46852444477076
  0
LINE
  8
_0-a_極細3
  6
CONTINUOUS
 62
    7
 10
162.09732643647868
 20
286.5592170909847
 11
167.08843750286206
 21
281.56810602460087
  0
LINE
  8
_0-a_極細3
  6
CONTINUOUS
 62
    7
 10
162.09732643647868
 20
282.31657640386561
 11
162.845796815743
 21
281.56810602460087
  0
LINE
  8
_0-a_極細3
  6
CONTINUOUS
 62
    7
 10
153.26200675884806
 20
281.5681060184736
 11
162.09732643647868
 21
290.40342569610425
  0
LINE
  8
_0-a_極細3
  6
CONTINUOUS
 62
    7
 10
132.04880330854058
 20
281.56810600376252
 11
143.7154699960459
 21
293.23477269126784
  0
LINE
  8
_0-a_極細3
  6
CONTINUOUS
 62
    7
 10
110.83559985823314
 20
281.56810598905099
 11
122.50226656044951
 21
293.23477269126784
  0
LINE
  8
_0-a_極細3
  6
CONTINUOUS
 62
    7
 10
89.622396407924754
 20
281.56810597433991
 11
101.28906312485313
 21
293.23477269126784
  0
LINE
  8
_0-a_極細3
  6
CONTINUOUS
 62
    7
 10
72.919579291364585
 20
286.07849229337512
 11
80.075859689256816
 21
293.23477269126784
  0
LINE
  8
_0-a_極細3
  6
DASHED2
 62
    7
 10
142.65540503369479
 20
281.56810601111806
 11
154.32207171384405
 21
293.23477269126784
  0
LINE
  8
_0-a_極細3
  6
DASHED2
 62
    7
 10
121.44220158338641
 20
281.56810599640698
 11
133.10886827824774
 21
293.23477269126784
  0
LINE
  8
_0-a_極細3
  6
DASHED2
 62
    7
 10
100.22899813307902
 20
281.56810598169545
 11
111.89566484265136
 21
293.23477269126784
  0
LINE
  8
_0-a_極細3
  6
DASHED2
 62
    7
 10
79.015794682771485
 20
281.56810596698438
 11
90.682461407054973
 21
293.23477269126784
  0
ARC
  8
_0-b_細線3
  6
CONTINUOUS
 62
    7
 10
637.09732643644497
 20
274.06810602454357
 40
4.1666666667000154
 50
179.99999999999983
 51
359.99999999999966
  0
LINE
  8
_0-b_細線3
  6
CONTINUOUS
 62
    7
 10
641.26399310314571
 20
285.73477269126784
 11
641.26399310314571
 21
274.06810602460132
  0
ARC
  8
_0-b_細線3
  6
CONTINUOUS
 62
    7
 10
637.09732643648408
 20
285.73477269132604
 40
4.1666666666723522
 50
0
 51
179.99999999999983
  0
LINE
  8
_0-b_細線3
  6
CONTINUOUS
 62
    7
 10
632.93065976981165
 20
274.06810602460087
 11
632.93065976981165
 21
285.73477269126784
  0
ARC
  8
_0-b_細線3
  6
CONTINUOUS
 62
    7
 10
637.09732643647135
 20
274.06810602454357
 40
2.5000000000072005
 50
179.99999999999983
 51
359.99999999999966
  0
LINE
  8
_0-b_細線3
  6
CONTINUOUS
 62
    7
 10
639.59732643647862
 20
285.73477269126784
 11
639.59732643647862
 21
274.06810602460132
  0
ARC
  8
_0-b_細線3
  6
CONTINUOUS
 62
    7
 10
637.09732643647135
 20
285.73477269133969
 40
2.4999999999928004
 50
0
 51
179.99999999999983
  0
LINE
  8
_0-b_細線3
  6
CONTINUOUS
 62
    7
 10
634.59732643647862
 20
274.06810602460087
 11
634.59732643647862
 21
285.73477269126784
  0
ARC
  8
_0-b_細線3
  6
CONTINUOUS
 62
    7
 10
637.09732643647862
 20
279.90143935793435
 40
8.75
 50
294.03943363457506
 51
65.960566365424228
  0
ARC
  8
_0-b_細線3
  6
CONTINUOUS
 62
    7
 10
637.09732643647862
 20
279.90143935793435
 40
8.75
 50
114.03943363457542
 51
245.96056636541877
  0
CIRCLE
  8
_0-a_極細3
  6
CONTINUOUS
 62
    7
 10
842.42534367773737
 20
278.50022014496449
 40
0.5530864197530718
  0
CIRCLE
  8
_0-a_極細3
  6
CONTINUOUS
 62
    7
 10
790.42534367773737
 20
279.43355347829788
 40
0.5530864197530718
  0
LINE
  8
_0-a_極細3
  6
CONTINUOUS
 62
    7
 10
778.76399310314571
 20
293.23477269126784
 11
778.76399310314571
 21
281.56810602460087
  0
LINE
  8
_0-a_極細3
  6
CONTINUOUS
 62
    7
 10
778.76399310314571
 20
293.23477269126784
 11
867.94174024825975
 21
293.23477269126784
  0
LINE
  8
_0-a_極細3
  6
CONTINUOUS
 62
    7
 10
770.43065976981165
 20
281.56810602460087
 11
867.94174024825975
 21
281.56810602460087
  0
LINE
  8
_0-a_極細3
  6
CONTINUOUS
 62
    7
 10
770.43065976981165
 20
293.23477269126784
 11
778.76399310314571
 21
293.23477269126784
  0
LINE
  8
_0-a_極細3
  6
CONTINUOUS
 62
    7
 10
770.43065976981165
 20
292.40143935793435
 11
770.43065976981165
 21
293.23477269126784
  0
LINE
  8
_0-a_極細3
  6
CONTINUOUS
 62
    7
 10
778.76399310314571
 20
285.23719230532583
 11
775.09490682242017
 21
281.56810602460087
  0
LINE
  8
_0-a_極細3
  6
CONTINUOUS
 62
    7
 10
778.76399310314571
 20
289.47983299244493
 11
770.85226613530108
 21
281.56810602460087
  0
LINE
  8
_0-a_極細3
  6
CONTINUOUS
 62
    7
 10
770.43065976981165
 20
285.38914034623099
 11
778.27629211484907
 21
293.23477269126784
  0
LINE
  8
_0-a_極細3
  6
CONTINUOUS
 62
    7
 10
770.43065976981165
 20
289.63178103335053
 11
774.03365142772896
 21
293.23477269126784
  0
LINE
  8
_0-a_極細3
  6
CONTINUOUS
 62
    7
 10
778.76399310314571
 20
291.72545048176221
 11
777.25467089363997
 21
293.23477269126784
  0
LINE
  8
_0-a_極細3
  6
CONTINUOUS
 62
    7
 10
778.76399310314571
 20
287.48280979464312
 11
773.01203020652099
 21
293.23477269126784
  0
LINE
  8
_0-a_極細3
  6
CONTINUOUS
 62
    7
 10
778.76399310314571
 20
283.24016910752357
 11
770.43065976981165
 21
291.57350244085706
  0
LINE
  8
_0-a_極細3
  6
CONTINUOUS
 62
    7
 10
776.19341549894887
 20
281.56810602460087
 11
770.43065976981165
 21
287.33086175373796
  0
LINE
  8
_0-a_極細3
  6
CONTINUOUS
 62
    7
 10
771.95077481182977
 20
281.56810602460087
 11
770.43065976981165
 21
283.08822106661842
  0
LINE
  8
_0-a_極細3
  6
CONTINUOUS
 62
    7
 10
847.21979850344837
 20
281.56810602460087
 11
858.88646454332616
 21
293.23477206447865
  0
LINE
  8
_0-a_極細3
  6
CONTINUOUS
 62
    7
 10
826.006595067852
 20
281.56810602460132
 11
837.67326127367812
 21
293.23477223042732
  0
LINE
  8
_0-a_極細3
  6
CONTINUOUS
 62
    7
 10
804.79339163225575
 20
281.56810602460087
 11
816.46005800402986
 21
293.23477239637555
  0
LINE
  8
_0-a_極細3
  6
CONTINUOUS
 62
    7
 10
783.58018819665926
 20
281.56810602460087
 11
795.24685473438262
 21
293.23477256232422
  0
LINE
  8
_0-a_極細3
  6
DASHED2
 62
    7
 10
857.82640022124667
 20
281.56810602460132
 11
867.94174024825975
 21
291.68344605161451
  0
LINE
  8
_0-a_極細3
  6
DASHED2
 62
    7
 10
836.61319678565019
 20
281.56810602460087
 11
848.2798629085022
 21
293.23477214745276
  0
LINE
  8
_0-a_極細3
  6
DASHED2
 62
    7
 10
815.39999335005393
 20
281.56810602460087
 11
827.06665963885393
 21
293.23477231340144
  0
LINE
  8
_0-a_極細3
  6
DASHED2
 62
    7
 10
794.18678991445745
 20
281.56810602460087
 11
805.85345636920579
 21
293.23477247935011
  0
LINE
  8
_0-a_極細3
  6
DASHED2
 62
    7
 10
778.76399310314571
 20
287.35851264888538
 11
784.64025309955855
 21
293.23477264529834
  0
LINE
  8
_0-b_細線3
  6
CONTINUOUS
 62
    7
 10
757.09732643647862
 20
293.23477269126784
 11
183.76399310314568
 21
293.23477269126738
  0
LINE
  8
_0-a_極細3
  6
CENTER1
 62
    7
 10
773.09741483763389
 20
279.9014393579339
 11
168.77666732527203
 21
279.9014393579339
  0
ARC
  8
_0-b_細線3
  6
CONTINUOUS
 62
    7
 10
470.43065976977903
 20
274.06810602454357
 40
4.1666666667000154
 50
179.99999999999983
 51
359.99999999999966
  0
LINE
  8
_0-b_細線3
  6
CONTINUOUS
 62
    7
 10
474.59732643647959
 20
285.73477269126784
 11
474.59732643647959
 21
274.06810602460132
  0
ARC
  8
_0-b_細線3
  6
CONTINUOUS
 62
    7
 10
470.43065976981808
 20
285.73477269132604
 40
4.1666666666723522
 50
0
 51
179.99999999999983
  0
LINE
  8
_0-b_細線3
  6
CONTINUOUS
 62
    7
 10
466.26399310314571
 20
274.06810602460087
 11
466.26399310314571
 21
285.73477269126784
  0
ARC
  8
_0-b_細線3
  6
CONTINUOUS
 62
    7
 10
470.43065976980535
 20
274.06810602454357
 40
2.5000000000072005
 50
179.99999999999983
 51
359.99999999999966
  0
LINE
  8
_0-b_細線3
  6
CONTINUOUS
 62
    7
 10
472.93065976981268
 20
285.73477269126784
 11
472.93065976981268
 21
274.06810602460132
  0
ARC
  8
_0-b_細線3
  6
CONTINUOUS
 62
    7
 10
470.43065976980535
 20
285.73477269133969
 40
2.4999999999928004
 50
0
 51
179.99999999999983
  0
LINE
  8
_0-b_細線3
  6
CONTINUOUS
 62
    7
 10
467.93065976981268
 20
274.06810602460087
 11
467.93065976981268
 21
285.73477269126784
  0
ARC
  8
_0-b_細線3
  6
CONTINUOUS
 62
    7
 10
470.43065976981268
 20
279.90143935793435
 40
8.75
 50
294.03943363457506
 51
65.960566365424228
  0
ARC
  8
_0-b_細線3
  6
CONTINUOUS
 62
    7
 10
470.43065976981268
 20
279.90143935793435
 40
8.75
 50
114.03943363457542
 51
245.96056636541877
  0
LINE
  8
_0-a_極細3
  6
CENTER1
 62
    7
 10
470.43065976981217
 20
252.0489432058182
 11
470.43065976981268
 21
307.1656098724909
  0
LINE
  8
_0-d_寸法3
  6
CONTINUOUS
 62
    7
 10
462.23913932692227
 20
273.97053705477833
 11
426.88679760123676
 21
298.72451322446909
  0
LINE
  8
_0-d_寸法3
  6
CONTINUOUS
 62
    7
 10
430.98255782268177
 20
295.85663104271384
 11
428.39436737165659
 21
305.5158893056045
  0
LINE
  8
_0-d_寸法3
  6
CONTINUOUS
 62
    7
 10
430.98255782268177
 20
295.85663104271384
 11
433.57074827370695
 21
305.5158893056045
  0
LINE
  8
_0-d_寸法3
  6
CONTINUOUS
 62
    7
 10
462.23913932692267
 20
298.97053705477833
 11
426.88679760123676
 21
323.72451322446909
  0
LINE
  8
_0-d_寸法3
  6
CONTINUOUS
 62
    7
 10
430.98255782268177
 20
320.85663104271384
 11
433.57074827370695
 21
311.19737277982313
  0
LINE
  8
_0-d_寸法3
  6
CONTINUOUS
 62
    7
 10
430.98255782268177
 20
320.85663104271384
 11
428.39436737165647
 21
311.19737277982318
  0
LINE
  8
_0-d_寸法3
  6
CONTINUOUS
 62
    7
 10
430.98255782268177
 20
295.85663104271384
 11
430.98255782268177
 21
320.85663104271384
  0
TEXT
  8
_0-d_寸法3
 62
    7
 10
430.98255782268177
 20
300.85663104271384
 40
15
 41
1
 50
90
  1
15
  0
TEXT
  8
_0-7_枠細線
 62
    5
 10
420.50861213057834
 20
118.23440768958982
 40
25
 41
0.8
 50
0
  1
断面詳細図
  0
TEXT
  8
_0-7_枠細線
 62
    5
 10
535.45758187974639
 20
118.23440768958982
 40
20
 41
0.6
 50
0
  1
Ｓ＝１：３
  0
LINE
  8
_0-a_極細3
  6
CONTINUOUS
 62
    7
 10
103.76399310314518
 20
256.56810602460132
 11
103.76399310314518
 21
188.23477269126798
  0
LINE
  8
_0-a_極細3
  6
CONTINUOUS
 62
    7
 10
187.09732643647868
 20
188.23477269126798
 11
103.76399310314518
 21
188.23477269126798
  0
LINE
  8
_0-a_極細3
  6
CONTINUOUS
 62
    7
 10
103.76399310314518
 20
256.56810602460132
 11
72.919579291364585
 21
256.56810602460132
  0
LINE
  8
_0-a_極細3
  6
CONTINUOUS
 62
    7
 10
187.09732643647868
 20
188.23477269126798
 11
187.09732643647868
 21
161.99317239648883
  0
LINE
  8
_0-a_極細3
  6
CONTINUOUS
 62
    7
 10
149.67535187148889
 20
161.99317251292575
 11
175.91695204983196
 21
188.23477269126798
  0
LINE
  8
_0-a_極細3
  6
CONTINUOUS
 62
    7
 10
78.96467397284809
 20
161.99317273293886
 11
105.20627393117714
 21
188.23477269126798
  0
LINE
  8
_0-a_極細3
  6
CONTINUOUS
 62
    7
 10
72.919579291364585
 20
226.65875617011011
 11
102.82892914585531
 21
256.56810602460132
  0
LINE
  8
_0-a_極細3
  6
CONTINUOUS
 62
    7
 10
142.60428408162468
 20
161.99317253492708
 11
168.84588423796629
 21
188.23477269126798
  0
LINE
  8
_0-a_極細3
  6
CONTINUOUS
 62
    7
 10
72.919579291364585
 20
163.01914586332089
 11
103.76399310314518
 21
193.86355967510212
  0
LINE
  8
_0-a_極細3
  6
CONTINUOUS
 62
    7
 10
72.919579291364585
 20
233.7298239819759
 11
95.757861333989496
 21
256.56810602460132
  0
LINE
  8
_0-a_極細3
  6
CONTINUOUS
 62
    7
 10
135.53321629176145
 20
161.99317255692847
 11
161.77481642610047
 21
188.23477269126798
  0
LINE
  8
_0-a_極細3
  6
CONTINUOUS
 62
    7
 10
72.919579291364585
 20
170.09021367518642
 11
103.76399310314518
 21
200.93462748696794
  0
LINE
  8
_0-a_極細3
  6
CONTINUOUS
 62
    7
 10
72.919579291364585
 20
240.80089179384095
 11
88.686793522124674
 21
256.56810602460132
  0
CIRCLE
  8
_0-a_極細3
  6
CONTINUOUS
 62
    7
 10
90.815467134531218
 20
271.77151644126138
 40
0.5530864197530718
  0
CIRCLE
  8
_0-a_極細3
  6
CONTINUOUS
 62
    7
 10
80.484602937001313
 20
261.81596088570564
 40
0.5530864197530718
  0
CIRCLE
  8
_0-a_極細3
  6
CONTINUOUS
 62
    7
 10
91.09201034440801
 20
262.88262755237224
 40
0.5530864197530718
  0
CIRCLE
  8
_0-a_極細3
  6
CONTINUOUS
 62
    7
 10
103.71423256663029
 20
264.83818310792799
 40
0.5530864197530718
  0
CIRCLE
  8
_0-a_極細3
  6
CONTINUOUS
 62
    7
 10
132.15867701107464
 20
276.57151644126111
 40
0.5530864197530718
  0
CIRCLE
  8
_0-a_極細3
  6
CONTINUOUS
 62
    7
 10
162.7364547888522
 20
270.34929421903894
 40
0.5530864197530718
  0
CIRCLE
  8
_0-a_極細3
  6
CONTINUOUS
 62
    7
 10
137.84756589996348
 20
269.81596088570564
 40
0.5530864197530718
  0
CIRCLE
  8
_0-a_極細3
  6
CONTINUOUS
 62
    7
 10
110.65867701107464
 20
257.58262755237251
 40
0.5530864197530718
  0
CIRCLE
  8
_0-a_極細3
  6
CONTINUOUS
 62
    7
 10
131.10312145551853
 20
256.33818310792799
 40
0.5530864197530718
  0
CIRCLE
  8
_0-a_極細3
  6
CONTINUOUS
 62
    7
 10
156.16978812218562
 20
252.60484977459487
 40
0.5530864197530718
  0
CIRCLE
  8
_0-a_極細3
  6
CONTINUOUS
 62
    7
 10
143.54756589996333
 20
246.91596088570603
 40
0.5530864197530718
  0
CIRCLE
  8
_0-a_極細3
  6
CONTINUOUS
 62
    7
 10
128.79201034440783
 20
233.4048497745946
 40
0.5530864197530718
  0
CIRCLE
  8
_0-a_極細3
  6
CONTINUOUS
 62
    7
 10
156.16978812218562
 20
240.69373866348386
 40
0.5530864197530718
  0
CIRCLE
  8
_0-a_極細3
  6
CONTINUOUS
 62
    7
 10
115.05867701107427
 20
213.58262755237297
 40
0.5530864197530718
  0
CIRCLE
  8
_0-a_極細3
  6
CONTINUOUS
 62
    7
 10
109.36978812218541
 20
195.62707199681725
 40
0.5530864197530718
  0
CIRCLE
  8
_0-a_極細3
  6
CONTINUOUS
 62
    7
 10
118.0808992332971
 20
202.38262755237272
 40
0.5530864197530718
  0
CIRCLE
  8
_0-a_極細3
  6
CONTINUOUS
 62
    7
 10
124.30312145551881
 20
193.84929421903939
 40
0.5530864197530718
  0
CIRCLE
  8
_0-a_極細3
  6
CONTINUOUS
 62
    7
 10
163.60312145551902
 20
211.73818310792853
 40
0.5530864197530718
  0
CIRCLE
  8
_0-a_極細3
  6
CONTINUOUS
 62
    7
 10
152.40312145551917
 20
206.22707199681713
 40
0.5530864197530718
  0
CIRCLE
  8
_0-a_極細3
  6
CONTINUOUS
 62
    7
 10
158.62534367774089
 20
203.73818310792856
 40
0.5530864197530718
  0
CIRCLE
  8
_0-a_極細3
  6
CONTINUOUS
 62
    7
 10
155.0697881221852
 20
194.49373866348401
 40
0.5530864197530718
  0
CIRCLE
  8
_0-a_極細3
  6
CONTINUOUS
 62
    7
 10
174.98089923329673
 20
195.56040533015064
 40
0.5530864197530718
  0
CIRCLE
  8
_0-a_極細3
  6
CONTINUOUS
 62
    7
 10
187.95867701107397
 20
198.76040533015086
 40
0.5530864197530718
  0
CIRCLE
  8
_0-a_極細3
  6
CONTINUOUS
 62
    7
 10
201.64756589996279
 20
183.82707199681761
 40
0.5530864197530718
  0
CIRCLE
  8
_0-a_極細3
  6
CONTINUOUS
 62
    7
 10
194.71423256662945
 20
168.89373866348421
 40
0.5530864197530718
  0
CIRCLE
  8
_0-a_極細3
  6
CONTINUOUS
 62
    7
 10
178.0475658999633
 20
212.50855347829861
 40
0.5530864197530718
  0
CIRCLE
  8
_0-a_極細3
  6
CONTINUOUS
 62
    7
 10
192.80312145551881
 20
246.64188681163182
 40
0.5530864197530718
  0
CIRCLE
  8
_0-a_極細3
  6
CONTINUOUS
 62
    7
 10
207.91423256662924
 20
236.68633125607656
 40
0.5530864197530718
  0
CIRCLE
  8
_0-a_極細3
  6
CONTINUOUS
 62
    7
 10
208.44756589996294
 20
218.73077570052078
 40
0.5530864197530718
  0
CIRCLE
  8
_0-a_極細3
  6
CONTINUOUS
 62
    7
 10
173.20312145551844
 20
248.4641090338539
 40
0.5530864197530718
  0
CIRCLE
  8
_0-a_極細3
  6
CONTINUOUS
 62
    7
 10
152.91423256663009
 20
270.44805965113778
 40
1.825531472681392
  0
CIRCLE
  8
_0-a_極細3
  6
CONTINUOUS
 62
    7
 10
101.15211286519468
 20
277.37767392583578
 40
1.825531472681392
  0
CIRCLE
  8
_0-a_極細3
  6
CONTINUOUS
 62
    7
 10
127.69201034440748
 20
247.64805965113808
 40
1.825531472681392
  0
CIRCLE
  8
_0-a_極細3
  6
CONTINUOUS
 62
    7
 10
108.09201034440804
 20
209.64805965113854
 40
1.825531472681392
  0
CIRCLE
  8
_0-a_極細3
  6
CONTINUOUS
 62
    7
 10
161.29201034440698
 20
196.84805965113881
 40
1.825531472681392
  0
CIRCLE
  8
_0-a_極細3
  6
CONTINUOUS
 62
    7
 10
197.26978812218505
 20
193.24805965113887
 40
1.825531472681392
  0
CIRCLE
  8
_0-a_極細3
  6
CONTINUOUS
 62
    7
 10
202.06978812218438
 20
174.58139298447222
 40
1.825531472681392
  0
CIRCLE
  8
_0-a_極細3
  6
CONTINUOUS
 62
    7
 10
80.955033324115249
 20
278.27028187335986
 40
1.825531472681392
  0
LINE
  8
_0-a_極細3
  6
CONTINUOUS
 62
    7
 10
219.59732643647868
 20
263.23477269126784
 11
220.43065976981268
 21
263.23477269126784
  0
LINE
  8
_0-a_極細3
  6
CONTINUOUS
 62
    7
 10
220.43065976981268
 20
263.23477269126784
 11
220.43065976981268
 21
161.99317239648883
  0
CIRCLE
  8
_0-a_極細3
  6
CONTINUOUS
 62
    7
 10
213.54322562218329
 20
247.24805965113865
 40
1.825531472681392
  0
CIRCLE
  8
_0-a_極細3
  6
CONTINUOUS
 62
    7
 10
212.5512696036661
 20
192.53818310792866
 40
0.5530864197530718
  0
CIRCLE
  8
_0-a_極細3
  6
CONTINUOUS
 62
    7
 10
213.88460293700007
 20
169.88211207475877
 40
0.5530864197530718
  0
CIRCLE
  8
_0-a_極細3
  6
CONTINUOUS
 62
    7
 10
201.51423256662503
 20
228.13694854002759
 40
1.825531472681392
  0
LINE
  8
_0-a_極細3
  6
CONTINUOUS
 62
    7
 10
126.79059154932688
 20
213.11647385377159
 11
121.66028939944162
 21
227.21186316556012
  0
LINE
  8
_0-a_極細3
  6
CONTINUOUS
 62
    7
 10
176.78463422312353
 20
247.27548386480612
 11
181.91493637300829
 21
233.18009455301788
  0
LINE
  8
_0-a_極細3
  6
CONTINUOUS
 62
    7
 10
121.66028939944162
 20
227.21186316556012
 11
176.78463422312353
 21
247.27548386480612
  0
LINE
  8
_0-a_極細3
  6
CONTINUOUS
 62
    7
 10
126.79059154932688
 20
213.11647385377159
 11
181.91493637300829
 21
233.18009455301788
  0
LINE
  8
_0-a_極細3
  6
CENTER1
 62
    7
 10
119.27000708239149
 20
218.36053846963594
 11
183.30102756495748
 21
241.66592395467137
  0
LINE
  8
_0-a_極細3
  6
CONTINUOUS
 62
    7
 10
145.43065976981262
 20
188.23477269126798
 11
145.43065976981262
 21
232.32033403958417
  0
LINE
  8
_0-a_極細3
  6
CONTINUOUS
 62
    7
 10
145.43065976981262
 20
232.32033403958417
 11
130.43065976981262
 21
232.32033403958417
  0
LINE
  8
_0-a_極細3
  6
CONTINUOUS
 62
    7
 10
130.43065976981262
 20
232.32033403958417
 11
130.43065976981262
 21
188.23477269126798
  0
CIRCLE
  8
_0-a_極細3
  6
CONTINUOUS
 62
    7
 10
159.81052886292611
 20
218.1567016264469
 40
1.825531472681392
  0
CIRCLE
  8
_0-a_極細3
  6
CONTINUOUS
 62
    7
 10
181.51917083823477
 20
224.37892384866905
 40
1.825531472681392
  0
LINE
  8
_0-a_極細3
  6
CENTER1
 62
    7
 10
137.93065976981262
 20
179.95803240681511
 11
137.93065976981262
 21
236.59605420419371
  0
LINE
  8
_0-d_寸法3
  6
CONTINUOUS
 62
    7
 10
170.43065976981239
 20
214.90143935793483
 11
170.43065976981211
 21
197.75674745702943
  0
LINE
  8
_0-d_寸法3
  6
CONTINUOUS
 62
    7
 10
170.43065976981217
 20
202.75674745702943
 11
180.08991803270291
 21
205.34493790805465
  0
LINE
  8
_0-d_寸法3
  6
CONTINUOUS
 62
    7
 10
170.43065976981217
 20
202.75674745702943
 11
180.08991803270291
 21
200.16855700600416
  0
LINE
  8
_0-d_寸法3
  6
CONTINUOUS
 62
    7
 10
220.43065976981254
 20
253.23477269126784
 11
220.43065976981168
 21
197.75674745702943
  0
LINE
  8
_0-d_寸法3
  6
CONTINUOUS
 62
    7
 10
220.43065976981168
 20
202.75674745702943
 11
210.77140150692102
 21
200.16855700600422
  0
LINE
  8
_0-d_寸法3
  6
CONTINUOUS
 62
    7
 10
220.43065976981168
 20
202.75674745702943
 11
210.77140150692102
 21
205.34493790805467
  0
LINE
  8
_0-d_寸法3
  6
CONTINUOUS
 62
    7
 10
170.43065976981217
 20
202.75674745702943
 11
220.43065976981168
 21
202.75674745702943
  0
TEXT
  8
_0-d_寸法3
 62
    7
 10
187.93065976981168
 20
202.75674745702943
 40
15
 41
1
 50
0
  1
30
  0
ARC
  8
_0-b_細線3
  6
CONTINUOUS
 62
    7
 10
175.43065976981268
 20
268.23477269126784
 40
5
 50
179.99999999999983
 51
269.99999999999977
  0
LINE
  8
_0-b_細線3
  6
CONTINUOUS
 62
    7
 10
170.43065976981268
 20
268.23477269126784
 11
170.43065976981268
 21
292.40143935793435
  0
LINE
  8
_0-b_細線3
  6
CONTINUOUS
 62
    7
 10
175.43065976981268
 20
263.23477269126784
 11
219.59732643647868
 21
263.23477269126784
  0
LINE
  8
_0-b_細線3
  6
CONTINUOUS
 62
    7
 10
220.43065976981268
 20
264.06810602460132
 11
219.59732643647868
 21
263.23477269126784
  0
LINE
  8
_0-b_細線3
  6
CONTINUOUS
 62
    7
 10
220.43065976981268
 20
267.40143935793481
 11
220.43065976981268
 21
264.06810602460132
  0
LINE
  8
_0-b_細線3
  6
CONTINUOUS
 62
    7
 10
219.59732643647868
 20
268.23477269126784
 11
220.43065976981268
 21
267.40143935793481
  0
LINE
  8
_0-b_細線3
  6
CONTINUOUS
 62
    7
 10
175.43065976981268
 20
268.23477269126784
 11
219.59732643647868
 21
268.23477269126784
  0
LINE
  8
_0-b_細線3
  6
CONTINUOUS
 62
    7
 10
171.26399310314568
 20
293.23477269126784
 11
170.43065976981268
 21
292.40143935793435
  0
LINE
  8
_0-b_細線3
  6
CONTINUOUS
 62
    7
 10
174.59732643647868
 20
293.23477269126784
 11
171.26399310314568
 21
293.23477269126784
  0
LINE
  8
_0-b_細線3
  6
CONTINUOUS
 62
    7
 10
175.43065976981268
 20
292.40143935793435
 11
174.59732643647868
 21
293.23477269126784
  0
LINE
  8
_0-b_細線3
  6
CONTINUOUS
 62
    7
 10
175.43065976981268
 20
268.23477269126784
 11
175.43065976981268
 21
292.40143935793435
  0
LINE
  8
_0-b_細線3
  6
CONTINUOUS
 62
    7
 10
183.76399310314568
 20
268.23477269126738
 11
183.76399310314568
 21
293.23477269126738
  0
LINE
  8
_0-b_細線3
  6
CONTINUOUS
 62
    7
 10
183.76399310314568
 20
293.23477269126738
 11
178.76399310314568
 21
293.23477269126738
  0
LINE
  8
_0-b_細線3
  6
CONTINUOUS
 62
    7
 10
178.76399310314568
 20
293.23477269126738
 11
178.76399310314568
 21
268.23477269126738
  0
LINE
  8
_0-b_細線3
  6
CONTINUOUS
 62
    7
 10
178.76399310314568
 20
268.23477269126738
 11
183.76399310314568
 21
268.23477269126738
  0
LINE
  8
_0-a_極細3
  6
CONTINUOUS
 62
    7
 10
837.09732643647828
 20
256.56810602460132
 11
837.09732643647828
 21
188.23477269126798
  0
LINE
  8
_0-a_極細3
  6
CONTINUOUS
 62
    7
 10
753.76399310314514
 20
188.23477269126798
 11
837.09732643647828
 21
188.23477269126798
  0
LINE
  8
_0-a_極細3
  6
CONTINUOUS
 62
    7
 10
837.09732643647828
 20
256.56810602460132
 11
867.94174024825975
 21
256.56810602460132
  0
LINE
  8
_0-a_極細3
  6
CONTINUOUS
 62
    7
 10
753.76399310314514
 20
188.23477269126798
 11
753.76399310314514
 21
161.99317239648883
  0
LINE
  8
_0-a_極細3
  6
CONTINUOUS
 62
    7
 10
845.38732885107152
 20
161.99317239648883
 11
867.94174028980046
 21
184.54758383521778
  0
LINE
  8
_0-a_極細3
  6
CONTINUOUS
 62
    7
 10
774.67665073241676
 20
161.99317239648883
 11
800.91825102719554
 21
188.23477269126798
  0
LINE
  8
_0-a_極細3
  6
CONTINUOUS
 62
    7
 10
837.09732643647828
 20
224.41384810055047
 11
867.94174024901508
 21
255.25826191308738
  0
LINE
  8
_0-a_極細3
  6
CONTINUOUS
 62
    7
 10
838.31626103920587
 20
161.99317239648883
 11
867.94174028572183
 21
191.61865164300494
  0
LINE
  8
_0-a_極細3
  6
CONTINUOUS
 62
    7
 10
767.60558292055089
 20
161.99317239648883
 11
793.84718321533023
 21
188.23477269126798
  0
LINE
  8
_0-a_極細3
  6
CONTINUOUS
 62
    7
 10
837.09732643647828
 20
231.484915912416
 11
862.18051636911309
 21
256.5681058450507
  0
LINE
  8
_0-a_極細3
  6
CONTINUOUS
 62
    7
 10
831.24519322734045
 20
161.99317239648883
 11
867.94174028164321
 21
198.68971945079167
  0
LINE
  8
_0-a_極細3
  6
CONTINUOUS
 62
    7
 10
760.53451510868558
 20
161.99317239648883
 11
786.77611540346504
 21
188.23477269126798
  0
LINE
  8
_0-a_極細3
  6
CONTINUOUS
 62
    7
 10
837.09732643647828
 20
238.55598372428153
 11
855.1094486078639
 21
256.5681058956668
  0
CIRCLE
  8
_0-a_極細3
  6
CONTINUOUS
 62
    7
 10
740.16978812218235
 20
247.0891090338539
 40
0.5530864197530718
  0
CIRCLE
  8
_0-a_極細3
  6
CONTINUOUS
 62
    7
 10
750.12534367773765
 20
251.88910903385408
 40
0.5530864197530718
  0
CIRCLE
  8
_0-a_極細3
  6
CONTINUOUS
 62
    7
 10
746.03645478884914
 20
226.91133125607647
 40
0.5530864197530718
  0
CIRCLE
  8
_0-a_極細3
  6
CONTINUOUS
 62
    7
 10
763.56978812218244
 20
209.88910903385457
 40
0.5530864197530718
  0
CIRCLE
  8
_0-a_極細3
  6
CONTINUOUS
 62
    7
 10
745.73645478884896
 20
186.58910903385475
 40
0.5530864197530718
  0
CIRCLE
  8
_0-a_極細3
  6
CONTINUOUS
 62
    7
 10
736.40312145551593
 20
168.72244236718814
 40
0.5530864197530718
  0
CIRCLE
  8
_0-a_極細3
  6
CONTINUOUS
 62
    7
 10
747.86978812218217
 20
198.58910903385436
 40
0.5530864197530718
  0
CIRCLE
  8
_0-a_極細3
  6
CONTINUOUS
 62
    7
 10
761.73645478884896
 20
193.7891090338546
 40
0.5530864197530718
  0
CIRCLE
  8
_0-a_極細3
  6
CONTINUOUS
 62
    7
 10
788.66978812218235
 20
194.05577570052102
 40
0.5530864197530718
  0
CIRCLE
  8
_0-a_極細3
  6
CONTINUOUS
 62
    7
 10
776.66978812218247
 20
203.12244236718769
 40
0.5530864197530718
  0
CIRCLE
  8
_0-a_極細3
  6
CONTINUOUS
 62
    7
 10
787.86978812218217
 20
208.72244236718757
 40
0.5530864197530718
  0
CIRCLE
  8
_0-a_極細3
  6
CONTINUOUS
 62
    7
 10
775.89201034440407
 20
263.01133125607589
 40
0.5530864197530718
  0
CIRCLE
  8
_0-a_極細3
  6
CONTINUOUS
 62
    7
 10
796.42534367773749
 20
262.30022014496512
 40
0.5530864197530718
  0
CIRCLE
  8
_0-a_極細3
  6
CONTINUOUS
 62
    7
 10
784.82534367773746
 20
248.30022014496512
 40
0.5530864197530718
  0
CIRCLE
  8
_0-a_極細3
  6
CONTINUOUS
 62
    7
 10
824.0253436777374
 20
195.10022014496576
 40
0.5530864197530718
  0
CIRCLE
  8
_0-a_極細3
  6
CONTINUOUS
 62
    7
 10
831.2253436777371
 20
209.10022014496576
 40
0.5530864197530718
  0
CIRCLE
  8
_0-a_極細3
  6
CONTINUOUS
 62
    7
 10
829.62534367773685
 20
229.90022014496549
 40
0.5530864197530718
  0
CIRCLE
  8
_0-a_極細3
  6
CONTINUOUS
 62
    7
 10
811.62534367773731
 20
251.10022014496533
 40
0.5530864197530718
  0
CIRCLE
  8
_0-a_極細3
  6
CONTINUOUS
 62
    7
 10
828.42534367773692
 20
270.70022014496476
 40
0.5530864197530718
  0
CIRCLE
  8
_0-a_極細3
  6
CONTINUOUS
 62
    7
 10
825.62534367773674
 20
243.90022014496506
 40
0.5530864197530718
  0
CIRCLE
  8
_0-a_極細3
  6
CONTINUOUS
 62
    7
 10
855.22534367773676
 20
265.10022014496485
 40
0.5530864197530718
  0
CIRCLE
  8
_0-a_極細3
  6
CONTINUOUS
 62
    7
 10
850.42534367773658
 20
278.87028187335977
 40
1.825531472681392
  0
CIRCLE
  8
_0-a_極細3
  6
CONTINUOUS
 62
    7
 10
834.7808992332923
 20
263.40361520669353
 40
1.825531472681392
  0
CIRCLE
  8
_0-a_極細3
  6
CONTINUOUS
 62
    7
 10
779.35867701107088
 20
269.98139298447109
 40
1.825531472681392
  0
CIRCLE
  8
_0-a_極細3
  6
CONTINUOUS
 62
    7
 10
811.35867701107031
 20
237.98139298447131
 40
1.825531472681392
  0
CIRCLE
  8
_0-a_極細3
  6
CONTINUOUS
 62
    7
 10
740.96423256662706
 20
193.43139298447184
 40
1.825531472681392
  0
CIRCLE
  8
_0-a_極細3
  6
CONTINUOUS
 62
    7
 10
751.18645478884889
 20
223.29805965113863
 40
1.825531472681392
  0
CIRCLE
  8
_0-a_極細3
  6
CONTINUOUS
 62
    7
 10
786.38645478884871
 20
200.89805965113854
 40
1.825531472681392
  0
CIRCLE
  8
_0-a_極細3
  6
CONTINUOUS
 62
    7
 10
832.65164742413231
 20
190.71100725916921
 40
1.825531472681392
  0
CIRCLE
  8
_0-a_極細3
  6
CONTINUOUS
 62
    7
 10
781.9864547888485
 20
244.0980596511381
 40
1.825531472681392
  0
CIRCLE
  8
_0-a_極細3
  6
CONTINUOUS
 62
    7
 10
734.52040540613314
 20
238.67485424410165
 40
0.5530864197530718
  0
CIRCLE
  8
_0-a_極細3
  6
CONTINUOUS
 62
    7
 10
734.72040540613375
 20
214.71929868854636
 40
0.5530864197530718
  0
CIRCLE
  8
_0-a_極細3
  6
CONTINUOUS
 62
    7
 10
811.75867701107052
 20
275.44805965113778
 40
1.825531472681392
  0
LINE
  8
_0-a_極細3
  6
CONTINUOUS
 62
    7
 10
721.26399310314423
 20
263.23477269126784
 11
720.4306597698112
 21
263.23477269126784
  0
LINE
  8
_0-a_極細3
  6
CONTINUOUS
 62
    7
 10
720.4306597698112
 20
263.23477269126784
 11
720.4306597698112
 21
161.99317239648883
  0
CIRCLE
  8
_0-a_極細3
  6
CONTINUOUS
 62
    7
 10
726.41505561189456
 20
223.17799792274332
 40
0.5530864197530718
  0
CIRCLE
  8
_0-a_極細3
  6
CONTINUOUS
 62
    7
 10
727.72163997403436
 20
183.92244236718795
 40
0.5530864197530718
  0
CIRCLE
  8
_0-a_極細3
  6
CONTINUOUS
 62
    7
 10
727.08275108514488
 20
249.87583742891661
 40
1.825531472681392
  0
CIRCLE
  8
_0-a_極細3
  6
CONTINUOUS
 62
    7
 10
730.03089923329287
 20
177.25361520669401
 40
1.825531472681392
  0
LINE
  8
_0-a_極細3
  6
CONTINUOUS
 62
    7
 10
814.07072799029709
 20
213.11647385377159
 11
819.20103014018218
 21
227.21186316556012
  0
LINE
  8
_0-a_極細3
  6
CONTINUOUS
 62
    7
 10
764.07668531650074
 20
247.27548386480612
 11
758.94638316661599
 21
233.18009455301788
  0
LINE
  8
_0-a_極細3
  6
CONTINUOUS
 62
    7
 10
819.20103014018218
 20
227.21186316556012
 11
764.07668531650074
 21
247.27548386480612
  0
LINE
  8
_0-a_極細3
  6
CONTINUOUS
 62
    7
 10
814.07072799029709
 20
213.11647385377159
 11
758.94638316661599
 21
233.18009455301788
  0
LINE
  8
_0-a_極細3
  6
CENTER1
 62
    7
 10
821.59131245723245
 20
218.36053846963594
 11
757.56029197466682
 21
241.66592395467137
  0
LINE
  8
_0-a_極細3
  6
CONTINUOUS
 62
    7
 10
795.43065976981165
 20
188.23477269126798
 11
795.43065976981165
 21
232.32033403958417
  0
LINE
  8
_0-a_極細3
  6
CONTINUOUS
 62
    7
 10
795.43065976981165
 20
232.32033403958417
 11
810.43065976981165
 21
232.32033403958417
  0
LINE
  8
_0-a_極細3
  6
CONTINUOUS
 62
    7
 10
810.43065976981165
 20
232.32033403958417
 11
810.43065976981165
 21
188.23477269126798
  0
LINE
  8
_0-a_極細3
  6
CENTER1
 62
    7
 10
802.93065976981165
 20
179.95803240681511
 11
802.93065976981165
 21
236.59605420419371
  0
CIRCLE
  8
_0-a_極細3
  6
CONTINUOUS
 62
    7
 10
797.04756589996009
 20
245.39651644126138
 40
0.5530864197530718
  0
CIRCLE
  8
_0-a_極細3
  6
CONTINUOUS
 62
    7
 10
819.263752456887
 20
232.05330656471847
 40
0.5530864197530718
  0
LINE
  8
_0-d_寸法3
  6
CONTINUOUS
 62
    7
 10
770.43065976981211
 20
214.90143935793483
 11
770.43065976981211
 21
197.75674745702943
  0
LINE
  8
_0-d_寸法3
  6
CONTINUOUS
 62
    7
 10
770.43065976981211
 20
202.75674745702943
 11
760.77140150692139
 21
200.16855700600416
  0
LINE
  8
_0-d_寸法3
  6
CONTINUOUS
 62
    7
 10
770.43065976981211
 20
202.75674745702943
 11
760.77140150692139
 21
205.34493790805465
  0
LINE
  8
_0-d_寸法3
  6
CONTINUOUS
 62
    7
 10
720.43065976981211
 20
253.23477269126784
 11
720.43065976981211
 21
197.75674745702943
  0
LINE
  8
_0-d_寸法3
  6
CONTINUOUS
 62
    7
 10
720.43065976981211
 20
202.75674745702943
 11
730.08991803270294
 21
205.34493790805467
  0
LINE
  8
_0-d_寸法3
  6
CONTINUOUS
 62
    7
 10
720.43065976981211
 20
202.75674745702943
 11
730.08991803270294
 21
200.16855700600422
  0
LINE
  8
_0-d_寸法3
  6
CONTINUOUS
 62
    7
 10
770.43065976981211
 20
202.75674745702943
 11
720.43065976981211
 21
202.75674745702943
  0
TEXT
  8
_0-d_寸法3
 62
    7
 10
737.93065976981211
 20
202.75674745702943
 40
15
 41
1
 50
0
  1
30
  0
ARC
  8
_0-b_細線3
  6
CONTINUOUS
 62
    7
 10
765.43065976981165
 20
268.23477269126784
 40
5
 50
269.99999999999977
 51
359.99999999999966
  0
LINE
  8
_0-b_細線3
  6
CONTINUOUS
 62
    7
 10
770.43065976981165
 20
268.23477269126784
 11
770.43065976981165
 21
292.40143935793435
  0
LINE
  8
_0-b_細線3
  6
CONTINUOUS
 62
    7
 10
765.43065976981165
 20
263.23477269126784
 11
721.26399310314423
 21
263.23477269126784
  0
LINE
  8
_0-b_細線3
  6
CONTINUOUS
 62
    7
 10
720.4306597698112
 20
264.06810602460132
 11
721.26399310314423
 21
263.23477269126784
  0
LINE
  8
_0-b_細線3
  6
CONTINUOUS
 62
    7
 10
720.4306597698112
 20
267.40143935793481
 11
720.4306597698112
 21
264.06810602460132
  0
LINE
  8
_0-b_細線3
  6
CONTINUOUS
 62
    7
 10
721.26399310314423
 20
268.23477269126784
 11
720.4306597698112
 21
267.40143935793481
  0
LINE
  8
_0-b_細線3
  6
CONTINUOUS
 62
    7
 10
765.43065976981165
 20
268.23477269126784
 11
721.26399310314423
 21
268.23477269126784
  0
LINE
  8
_0-b_細線3
  6
CONTINUOUS
 62
    7
 10
769.59732643647862
 20
293.23477269126784
 11
770.43065976981165
 21
292.40143935793435
  0
LINE
  8
_0-b_細線3
  6
CONTINUOUS
 62
    7
 10
766.26399310314571
 20
293.23477269126784
 11
769.59732643647862
 21
293.23477269126784
  0
LINE
  8
_0-b_細線3
  6
CONTINUOUS
 62
    7
 10
765.43065976981165
 20
292.40143935793435
 11
766.26399310314571
 21
293.23477269126784
  0
LINE
  8
_0-b_細線3
  6
CONTINUOUS
 62
    7
 10
765.43065976981165
 20
268.23477269126784
 11
765.43065976981165
 21
292.40143935793435
  0
LINE
  8
_0-b_細線3
  6
CONTINUOUS
 62
    7
 10
757.09732643647862
 20
268.23477269126829
 11
757.09732643647862
 21
293.23477269126784
  0
LINE
  8
_0-b_細線3
  6
CONTINUOUS
 62
    7
 10
757.09732643647862
 20
293.23477269126784
 11
762.09732643647862
 21
293.23477269126784
  0
LINE
  8
_0-b_細線3
  6
CONTINUOUS
 62
    7
 10
762.09732643647862
 20
293.23477269126784
 11
762.09732643647862
 21
268.23477269126829
  0
LINE
  8
_0-b_細線3
  6
CONTINUOUS
 62
    7
 10
762.09732643647862
 20
268.23477269126829
 11
757.09732643647862
 21
268.23477269126829
  0
LINE
  8
_0-d_寸法3
  6
CONTINUOUS
 62
    7
 10
220.43065976981268
 20
258.23477269126784
 11
220.43065976981268
 21
197.75674745702943
  0
LINE
  8
_0-d_寸法3
  6
CONTINUOUS
 62
    7
 10
220.43065976981268
 20
202.75674745702943
 11
230.08991803270334
 21
205.34493790805465
  0
LINE
  8
_0-d_寸法3
  6
CONTINUOUS
 62
    7
 10
220.43065976981268
 20
202.75674745702943
 11
230.08991803270334
 21
200.16855700600416
  0
LINE
  8
_0-d_寸法3
  6
CONTINUOUS
 62
    7
 10
720.4306597698112
 20
258.23477269126784
 11
720.4306597698112
 21
197.75674745702943
  0
LINE
  8
_0-d_寸法3
  6
CONTINUOUS
 62
    7
 10
720.4306597698112
 20
202.75674745702943
 11
710.77140150692048
 21
200.16855700600422
  0
LINE
  8
_0-d_寸法3
  6
CONTINUOUS
 62
    7
 10
720.4306597698112
 20
202.75674745702943
 11
710.77140150692048
 21
205.34493790805467
  0
LINE
  8
_0-d_寸法3
  6
CONTINUOUS
 62
    7
 10
220.43065976981268
 20
202.75674745702943
 11
720.4306597698112
 21
202.75674745702943
  0
TEXT
  8
_0-d_寸法3
 62
    7
 10
459.18065976981217
 20
202.75674745702943
 40
15
 41
1
 50
0
  1
300
  0
LINE
  8
_0-b_細線3
  6
CONTINUOUS
 62
    7
 10
757.09732643647862
 20
268.23477269126829
 11
183.76399310314568
 21
268.23477269126738
  0
LINE
  8
_0-d_寸法3
  6
CONTINUOUS
 62
    7
 10
170.43065976981268
 20
298.23477269126784
 11
170.43065976981268
 21
418.23477269126784
  0
LINE
  8
_0-d_寸法3
  6
CONTINUOUS
 62
    7
 10
170.43065976981268
 20
413.23477269126784
 11
180.08991803270334
 21
415.82296314229302
  0
LINE
  8
_0-d_寸法3
  6
CONTINUOUS
 62
    7
 10
170.43065976981268
 20
413.23477269126784
 11
180.08991803270334
 21
410.64658224024271
  0
LINE
  8
_0-d_寸法3
  6
CONTINUOUS
 62
    7
 10
770.43065976981165
 20
298.23477269126784
 11
770.43065976981211
 21
418.23477269126784
  0
LINE
  8
_0-d_寸法3
  6
CONTINUOUS
 62
    7
 10
770.43065976981211
 20
413.23477269126784
 11
760.77140150692139
 21
410.64658224024271
  0
LINE
  8
_0-d_寸法3
  6
CONTINUOUS
 62
    7
 10
770.43065976981211
 20
413.23477269126784
 11
760.77140150692139
 21
415.82296314229313
  0
LINE
  8
_0-d_寸法3
  6
CONTINUOUS
 62
    7
 10
170.43065976981268
 20
413.23477269126784
 11
770.43065976981211
 21
413.23477269126784
  0
TEXT
  8
_0-d_寸法3
 62
    7
 10
459.18065976981217
 20
413.23477269126784
 40
15
 41
1
 50
0
  1
360
  0
LINE
  8
_0-d_寸法3
  6
CONTINUOUS
 62
    7
 10
178.76399310314568
 20
303.23477269126784
 11
178.76399310314568
 21
348.23477269126784
  0
LINE
  8
_0-d_寸法3
  6
CONTINUOUS
 62
    7
 10
178.76399310314568
 20
343.23477269126784
 11
188.42325136603634
 21
345.82296314229302
  0
LINE
  8
_0-d_寸法3
  6
CONTINUOUS
 62
    7
 10
178.76399310314568
 20
343.23477269126784
 11
188.42325136603634
 21
340.64658224024265
  0
LINE
  8
_0-d_寸法3
  6
CONTINUOUS
 62
    7
 10
303.76399310314525
 20
303.23477269126784
 11
303.76399310314525
 21
348.23477269126784
  0
LINE
  8
_0-d_寸法3
  6
CONTINUOUS
 62
    7
 10
303.76399310314525
 20
343.23477269126784
 11
294.10473484025442
 21
340.64658224024265
  0
LINE
  8
_0-d_寸法3
  6
CONTINUOUS
 62
    7
 10
303.76399310314525
 20
343.23477269126784
 11
294.10473484025459
 21
345.82296314229313
  0
LINE
  8
_0-d_寸法3
  6
CONTINUOUS
 62
    7
 10
178.76399310314568
 20
343.23477269126784
 11
303.76399310314525
 21
343.23477269126784
  0
TEXT
  8
_0-d_寸法3
 62
    7
 10
233.76399310314525
 20
343.23477269126784
 40
15
 41
1
 50
0
  1
75
  0
LINE
  8
_0-d_寸法3
  6
CONTINUOUS
 62
    7
 10
303.76399310314525
 20
343.23477269126784
 11
313.42325136603591
 21
345.82296314229296
  0
LINE
  8
_0-d_寸法3
  6
CONTINUOUS
 62
    7
 10
303.76399310314525
 20
343.23477269126784
 11
313.42325136603591
 21
340.64658224024265
  0
LINE
  8
_0-d_寸法3
  6
CONTINUOUS
 62
    7
 10
470.43065976981234
 20
303.23477269126784
 11
470.43065976981268
 21
348.23477269126784
  0
LINE
  8
_0-d_寸法3
  6
CONTINUOUS
 62
    7
 10
470.43065976981268
 20
343.23477269126784
 11
460.77140150692196
 21
340.64658224024265
  0
LINE
  8
_0-d_寸法3
  6
CONTINUOUS
 62
    7
 10
470.43065976981268
 20
343.23477269126784
 11
460.77140150692202
 21
345.82296314229313
  0
LINE
  8
_0-d_寸法3
  6
CONTINUOUS
 62
    7
 10
303.76399310314525
 20
343.23477269126784
 11
470.43065976981268
 21
343.23477269126784
  0
TEXT
  8
_0-d_寸法3
 62
    7
 10
375.84732643647868
 20
343.23477269126784
 40
15
 41
1
 50
0
  1
100
  0
LINE
  8
_0-d_寸法3
  6
CONTINUOUS
 62
    7
 10
470.43065976981268
 20
343.23477269126784
 11
480.08991803270334
 21
345.82296314229296
  0
LINE
  8
_0-d_寸法3
  6
CONTINUOUS
 62
    7
 10
470.43065976981268
 20
343.23477269126784
 11
480.08991803270334
 21
340.64658224024265
  0
LINE
  8
_0-d_寸法3
  6
CONTINUOUS
 62
    7
 10
637.09732643647862
 20
303.23477269126761
 11
637.09732643647862
 21
348.23477269126784
  0
LINE
  8
_0-d_寸法3
  6
CONTINUOUS
 62
    7
 10
637.09732643647862
 20
343.23477269126784
 11
627.43806817358791
 21
340.64658224024265
  0
LINE
  8
_0-d_寸法3
  6
CONTINUOUS
 62
    7
 10
637.09732643647862
 20
343.23477269126784
 11
627.43806817358791
 21
345.82296314229313
  0
LINE
  8
_0-d_寸法3
  6
CONTINUOUS
 62
    7
 10
470.43065976981268
 20
343.23477269126784
 11
637.09732643647862
 21
343.23477269126784
  0
TEXT
  8
_0-d_寸法3
 62
    7
 10
542.51399310314559
 20
343.23477269126784
 40
15
 41
1
 50
0
  1
100
  0
LINE
  8
_0-d_寸法3
  6
CONTINUOUS
 62
    7
 10
637.09732643647862
 20
343.23477269126784
 11
646.75658469936934
 21
345.82296314229296
  0
LINE
  8
_0-d_寸法3
  6
CONTINUOUS
 62
    7
 10
637.09732643647862
 20
343.23477269126784
 11
646.75658469936934
 21
340.64658224024265
  0
LINE
  8
_0-d_寸法3
  6
CONTINUOUS
 62
    7
 10
762.09732643647862
 20
303.23477269126784
 11
762.09732643647862
 21
348.23477269126784
  0
LINE
  8
_0-d_寸法3
  6
CONTINUOUS
 62
    7
 10
762.09732643647862
 20
343.23477269126784
 11
752.43806817358791
 21
340.64658224024265
  0
LINE
  8
_0-d_寸法3
  6
CONTINUOUS
 62
    7
 10
762.09732643647862
 20
343.23477269126784
 11
752.43806817358791
 21
345.82296314229313
  0
LINE
  8
_0-d_寸法3
  6
CONTINUOUS
 62
    7
 10
637.09732643647862
 20
343.23477269126784
 11
762.09732643647862
 21
343.23477269126784
  0
TEXT
  8
_0-d_寸法3
 62
    7
 10
692.09732643647908
 20
343.23477269126784
 40
15
 41
1
 50
0
  1
75
  0
ARC
  8
_0-b_細線3
  6
CONTINUOUS
 62
    7
 10
1009.0525108742037
 20
284.13755046903907
 40
14.236111111107119
 50
245.81048584600546
 51
294.1895141539955
  0
ARC
  8
_0-b_細線3
  6
CONTINUOUS
 62
    7
 10
1009.0525108742037
 20
275.66532824682463
 40
14.236111111107119
 50
65.810485846004127
 51
114.18951415399421
  0
ARC
  8
_0-b_細線3
  6
CONTINUOUS
 62
    7
 10
992.38584420753727
 20
284.13755046903907
 40
14.236111111107119
 50
245.81048584600546
 51
294.18951415399385
  0
ARC
  8
_0-b_細線3
  6
CONTINUOUS
 62
    7
 10
992.38584420753727
 20
275.66532824682463
 40
14.236111111107119
 50
65.810485846005804
 51
114.18951415399421
  0
ARC
  8
_0-b_細線3
  6
CONTINUOUS
 62
    7
 10
975.71917754087065
 20
284.13755046903907
 40
14.236111111107119
 50
245.81048584600376
 51
294.18951415399385
  0
ARC
  8
_0-b_細線3
  6
CONTINUOUS
 62
    7
 10
975.71917754087065
 20
275.66532824682463
 40
14.236111111107119
 50
65.810485846005804
 51
114.18951415399587
  0
ARC
  8
_0-b_細線3
  6
CONTINUOUS
 62
    7
 10
959.05251087420368
 20
284.13755046903907
 40
14.236111111107119
 50
245.81048584600546
 51
294.1895141539955
  0
ARC
  8
_0-b_細線3
  6
CONTINUOUS
 62
    7
 10
959.05251087420368
 20
275.66532824682463
 40
14.236111111107119
 50
65.810485846004127
 51
114.18951415399421
  0
ARC
  8
_0-b_細線3
  6
CONTINUOUS
 62
    7
 10
942.38584420753727
 20
284.13755046903907
 40
14.236111111107119
 50
245.81048584600546
 51
294.18951415399385
  0
ARC
  8
_0-b_細線3
  6
CONTINUOUS
 62
    7
 10
942.38584420753727
 20
275.66532824682463
 40
14.236111111107119
 50
65.810485846005804
 51
114.18951415399421
  0
ARC
  8
_0-b_細線3
  6
CONTINUOUS
 62
    7
 10
925.71917754087065
 20
284.13755046903907
 40
14.236111111107119
 50
245.81048584600376
 51
294.18951415399385
  0
ARC
  8
_0-b_細線3
  6
CONTINUOUS
 62
    7
 10
925.71917754087065
 20
275.66532824682463
 40
14.236111111107119
 50
65.810485846005804
 51
114.18951415399587
  0
LINE
  8
_0-d_寸法3
  6
CONTINUOUS
 62
    7
 10
967.38584420753955
 20
303.23477269126784
 11
967.38584420753955
 21
350.47204545040768
  0
LINE
  8
_0-d_寸法3
  6
CONTINUOUS
 62
    7
 10
967.38584420753955
 20
345.47204545040768
 11
977.04510247043015
 21
348.06023590143292
  0
LINE
  8
_0-d_寸法3
  6
CONTINUOUS
 62
    7
 10
967.38584420753955
 20
345.47204545040768
 11
977.04510247043015
 21
342.88385499938249
  0
LINE
  8
_0-d_寸法3
  6
CONTINUOUS
 62
    7
 10
984.05251087420595
 20
303.23477269126533
 11
984.05251087420595
 21
350.47204545040768
  0
LINE
  8
_0-d_寸法3
  6
CONTINUOUS
 62
    7
 10
984.05251087420595
 20
345.47204545040768
 11
974.39325261131535
 21
342.88385499938249
  0
LINE
  8
_0-d_寸法3
  6
CONTINUOUS
 62
    7
 10
984.05251087420595
 20
345.47204545040768
 11
974.39325261131535
 21
348.06023590143292
  0
LINE
  8
_0-d_寸法3
  6
CONTINUOUS
 62
    7
 10
967.38584420753955
 20
345.47204545040768
 11
984.05251087420595
 21
345.47204545040768
  0
TEXT
  8
_0-d_寸法3
 62
    7
 10
968.21917754087292
 20
345.47204545040768
 40
15
 41
1
 50
0
  1
10
  0
LINE
  8
_0-d_寸法3
  6
CONTINUOUS
 62
    7
 10
984.05251087420595
 20
345.47204545040768
 11
993.71176913709678
 21
348.06023590143286
  0
LINE
  8
_0-d_寸法3
  6
CONTINUOUS
 62
    7
 10
984.05251087420595
 20
345.47204545040768
 11
993.71176913709678
 21
342.88385499938244
  0
LINE
  8
_0-d_寸法3
  6
CONTINUOUS
 62
    7
 10
1000.7191775408729
 20
303.23477269126533
 11
1000.7191775408729
 21
350.47204545040768
  0
LINE
  8
_0-d_寸法3
  6
CONTINUOUS
 62
    7
 10
1000.7191775408729
 20
345.47204545040768
 11
991.05991927798232
 21
342.88385499938249
  0
LINE
  8
_0-d_寸法3
  6
CONTINUOUS
 62
    7
 10
1000.7191775408729
 20
345.47204545040768
 11
991.05991927798232
 21
348.06023590143292
  0
LINE
  8
_0-d_寸法3
  6
CONTINUOUS
 62
    7
 10
984.05251087420595
 20
345.47204545040768
 11
1000.7191775408729
 21
345.47204545040768
  0
TEXT
  8
_0-d_寸法3
 62
    7
 10
984.88584420754
 20
345.47204545040768
 40
15
 41
1
 50
0
  1
10
  0
LINE
  8
_0-d_寸法3
  6
CONTINUOUS
 62
    7
 10
919.88584420753909
 20
303.23477269126784
 11
919.88584420753909
 21
350.47204545040768
  0
LINE
  8
_0-d_寸法3
  6
CONTINUOUS
 62
    7
 10
919.88584420753909
 20
345.47204545040768
 11
910.22658594464826
 21
342.88385499938249
  0
LINE
  8
_0-d_寸法3
  6
CONTINUOUS
 62
    7
 10
919.88584420753909
 20
345.47204545040768
 11
910.22658594464826
 21
348.06023590143292
  0
LINE
  8
_0-d_寸法3
  6
CONTINUOUS
 62
    7
 10
931.55251087420595
 20
303.23477269126784
 11
931.55251087420595
 21
350.47204545040768
  0
CIRCLE
  8
_0-d_寸法3
  6
CONTINUOUS
 62
    1
 10
931.55251087420595
 20
345.47204545040768
 40
1.5000000000000002
  0
LINE
  8
_0-d_寸法3
  6
CONTINUOUS
 62
    7
 10
894.88584420753909
 20
345.47204545040768
 11
931.55251087420595
 21
345.47204545040768
  0
TEXT
  8
_0-d_寸法3
 62
    7
 10
904.7866905793536
 20
345.47204545040768
 40
15
 41
1
 50
0
  1
7
  0
LINE
  8
_0-d_寸法3
  6
CONTINUOUS
 62
    7
 10
936.55251087420595
 20
303.23477269126533
 11
936.55251087420595
 21
350.47204545040768
  0
LINE
  8
_0-d_寸法3
  6
CONTINUOUS
 62
    7
 10
936.55251087420595
 20
345.47204545040768
 11
946.21176913709678
 21
348.06023590143286
  0
LINE
  8
_0-d_寸法3
  6
CONTINUOUS
 62
    7
 10
936.55251087420595
 20
345.47204545040768
 11
946.21176913709678
 21
342.88385499938244
  0
LINE
  8
_0-d_寸法3
  6
CONTINUOUS
 62
    7
 10
931.55251087420595
 20
345.47204545040768
 11
961.55251087420595
 21
345.47204545040768
  0
TEXT
  8
_0-d_寸法3
 62
    7
 10
938.11936547647224
 20
345.47204545040768
 40
15
 41
1
 50
0
  1
3
  0
ARC
  8
_0-b_細線3
  6
CONTINUOUS
 62
    7
 10
909.05251087420424
 20
284.13755046903907
 40
14.236111111107119
 50
245.81048584600376
 51
294.18951415399385
  0
ARC
  8
_0-b_細線3
  6
CONTINUOUS
 62
    7
 10
909.05251087420424
 20
275.66532824682463
 40
14.236111111107119
 50
65.810485846005804
 51
114.18951415399587
  0
LINE
  8
_0-b_細線3
  6
CONTINUOUS
 62
    7
 10
893.05868383491827
 20
293.23477269126784
 11
1021.7886832916972
 21
293.23477269126784
  0
LINE
  8
_0-a_極細3
  6
CENTER1
 62
    7
 10
1030.1999182816112
 20
279.90143935793162
 11
885.38345737626719
 21
279.90143935793162
  0
LINE
  8
_0-b_細線3
  6
CONTINUOUS
 62
    7
 10
1019.8858442075395
 20
293.23477269126533
 11
1014.8858442075395
 21
293.23477269126533
  0
LINE
  8
_0-b_細線3
  6
CONTINUOUS
 62
    7
 10
1014.8858442075395
 20
293.23477269126533
 11
1014.8858442075395
 21
268.23477269126533
  0
LINE
  8
_0-b_細線3
  6
CONTINUOUS
 62
    7
 10
1014.8858442075395
 20
268.23477269126533
 11
1019.8858442075395
 21
268.23477269126533
  0
LINE
  8
_0-b_細線3
  6
CONTINUOUS
 62
    7
 10
1019.8858442075395
 20
268.23477269126533
 11
1019.8858442075395
 21
293.23477269126533
  0
LINE
  8
_0-b_細線3
  6
CONTINUOUS
 62
    7
 10
1003.2191775408729
 20
293.23477269126533
 11
998.21917754087292
 21
293.23477269126533
  0
LINE
  8
_0-b_細線3
  6
CONTINUOUS
 62
    7
 10
998.21917754087292
 20
293.23477269126533
 11
998.21917754087292
 21
268.23477269126533
  0
LINE
  8
_0-b_細線3
  6
CONTINUOUS
 62
    7
 10
998.21917754087292
 20
268.23477269126533
 11
1003.2191775408729
 21
268.23477269126533
  0
LINE
  8
_0-b_細線3
  6
CONTINUOUS
 62
    7
 10
1003.2191775408729
 20
268.23477269126533
 11
1003.2191775408729
 21
293.23477269126533
  0
LINE
  8
_0-b_細線3
  6
CONTINUOUS
 62
    7
 10
986.55251087420595
 20
293.23477269126533
 11
981.55251087420595
 21
293.23477269126533
  0
LINE
  8
_0-b_細線3
  6
CONTINUOUS
 62
    7
 10
981.55251087420595
 20
293.23477269126533
 11
981.55251087420595
 21
268.23477269126533
  0
LINE
  8
_0-b_細線3
  6
CONTINUOUS
 62
    7
 10
981.55251087420595
 20
268.23477269126533
 11
986.55251087420595
 21
268.23477269126533
  0
LINE
  8
_0-b_細線3
  6
CONTINUOUS
 62
    7
 10
986.55251087420595
 20
268.23477269126533
 11
986.55251087420595
 21
293.23477269126533
  0
LINE
  8
_0-b_細線3
  6
CONTINUOUS
 62
    7
 10
969.88584420753955
 20
293.23477269126533
 11
964.88584420753955
 21
293.23477269126533
  0
LINE
  8
_0-b_細線3
  6
CONTINUOUS
 62
    7
 10
964.88584420753955
 20
293.23477269126533
 11
964.88584420753955
 21
268.23477269126533
  0
LINE
  8
_0-b_細線3
  6
CONTINUOUS
 62
    7
 10
964.88584420753955
 20
268.23477269126533
 11
969.88584420753955
 21
268.23477269126533
  0
LINE
  8
_0-b_細線3
  6
CONTINUOUS
 62
    7
 10
969.88584420753955
 20
268.23477269126533
 11
969.88584420753955
 21
293.23477269126533
  0
LINE
  8
_0-b_細線3
  6
CONTINUOUS
 62
    7
 10
953.21917754087292
 20
293.23477269126533
 11
948.21917754087292
 21
293.23477269126533
  0
LINE
  8
_0-b_細線3
  6
CONTINUOUS
 62
    7
 10
948.21917754087292
 20
293.23477269126533
 11
948.21917754087292
 21
268.23477269126533
  0
LINE
  8
_0-b_細線3
  6
CONTINUOUS
 62
    7
 10
948.21917754087292
 20
268.23477269126533
 11
953.21917754087292
 21
268.23477269126533
  0
LINE
  8
_0-b_細線3
  6
CONTINUOUS
 62
    7
 10
953.21917754087292
 20
268.23477269126533
 11
953.21917754087292
 21
293.23477269126533
  0
LINE
  8
_0-b_細線3
  6
CONTINUOUS
 62
    7
 10
936.55251087420595
 20
293.23477269126533
 11
931.55251087420595
 21
293.23477269126533
  0
LINE
  8
_0-b_細線3
  6
CONTINUOUS
 62
    7
 10
931.55251087420595
 20
293.23477269126533
 11
931.55251087420595
 21
268.23477269126533
  0
LINE
  8
_0-b_細線3
  6
CONTINUOUS
 62
    7
 10
931.55251087420595
 20
268.23477269126533
 11
936.55251087420595
 21
268.23477269126533
  0
LINE
  8
_0-b_細線3
  6
CONTINUOUS
 62
    7
 10
936.55251087420595
 20
268.23477269126533
 11
936.55251087420595
 21
293.23477269126533
  0
LINE
  8
_0-b_細線3
  6
CONTINUOUS
 62
    7
 10
919.88584420753955
 20
293.23477269126533
 11
914.88584420753955
 21
293.23477269126533
  0
LINE
  8
_0-b_細線3
  6
CONTINUOUS
 62
    7
 10
914.88584420753955
 20
293.23477269126533
 11
914.88584420753955
 21
268.23477269126533
  0
LINE
  8
_0-b_細線3
  6
CONTINUOUS
 62
    7
 10
914.88584420753955
 20
268.23477269126533
 11
919.88584420753955
 21
268.23477269126533
  0
LINE
  8
_0-b_細線3
  6
CONTINUOUS
 62
    7
 10
919.88584420753955
 20
268.23477269126533
 11
919.88584420753955
 21
293.23477269126533
  0
LINE
  8
_0-b_細線3
  6
CONTINUOUS
 62
    7
 10
903.21917754087292
 20
293.23477269126533
 11
898.21917754087292
 21
293.23477269126533
  0
LINE
  8
_0-b_細線3
  6
CONTINUOUS
 62
    7
 10
898.21917754087292
 20
293.23477269126533
 11
898.21917754087292
 21
268.23477269126533
  0
LINE
  8
_0-b_細線3
  6
CONTINUOUS
 62
    7
 10
898.21917754087292
 20
268.23477269126533
 11
903.21917754087292
 21
268.23477269126533
  0
LINE
  8
_0-b_細線3
  6
CONTINUOUS
 62
    7
 10
903.21917754087292
 20
268.23477269126533
 11
903.21917754087292
 21
293.23477269126533
  0
LINE
  8
_0-b_細線3
  6
CONTINUOUS
 62
    7
 10
896.64232283795639
 20
268.23477269126533
 11
1025.372322294736
 21
268.23477269126533
  0
LINE
  8
_0-d_寸法3
  6
CONTINUOUS
 62
    7
 10
1035.3723222947356
 20
268.23477269126522
 11
1072.4585240897909
 21
268.23477269126488
  0
LINE
  8
_0-d_寸法3
  6
CONTINUOUS
 62
    7
 10
1067.4585240897909
 20
268.23477269126488
 11
1064.8703336387657
 21
277.89403095415554
  0
LINE
  8
_0-d_寸法3
  6
CONTINUOUS
 62
    7
 10
1067.4585240897909
 20
268.23477269126488
 11
1070.0467145408161
 21
277.89403095415554
  0
LINE
  8
_0-d_寸法3
  6
CONTINUOUS
 62
    7
 10
1031.7886832916975
 20
293.23477269126772
 11
1072.4585240897909
 21
293.23477269126732
  0
LINE
  8
_0-d_寸法3
  6
CONTINUOUS
 62
    7
 10
1067.4585240897909
 20
293.23477269126738
 11
1070.0467145408161
 21
283.57551442837678
  0
LINE
  8
_0-d_寸法3
  6
CONTINUOUS
 62
    7
 10
1067.4585240897909
 20
293.23477269126738
 11
1064.8703336387657
 21
283.57551442837678
  0
LINE
  8
_0-d_寸法3
  6
CONTINUOUS
 62
    7
 10
1067.4585240897909
 20
268.23477269126488
 11
1067.4585240897909
 21
293.23477269126738
  0
TEXT
  8
_0-d_寸法3
 62
    7
 10
1067.4585240897909
 20
273.23477269126624
 40
15
 41
1
 50
90
  1
15
  0
ARC
  8
_0-a_極細3
  6
CONTINUOUS
 62
    7
 10
915.67155211264264
 20
290.11918262666268
 40
22.826491478025751
 50
150.03871396148165
 51
205.23810402387943
  0
ARC
  8
_0-a_極細3
  6
CONTINUOUS
 62
    7
 10
874.37643436577503
 20
270.65362065024283
 40
22.826491478025751
 50
330.03871396148242
 51
25.238104023877408
  0
ARC
  8
_0-a_極細3
  6
CONTINUOUS
 62
    7
 10
1044.1624459785362
 20
289.24615131916562
 40
22.826491478025751
 50
150.0387139614823
 51
205.23810402387804
  0
ARC
  8
_0-a_極細3
  6
CONTINUOUS
 62
    7
 10
1002.8673282316687
 20
269.78058934274577
 40
22.826491478025751
 50
330.03871396148179
 51
25.238104023878375
  0
TEXT
  8
_0-7_枠細線
 62
    5
 10
908.61220398644207
 20
221.73388393903582
 40
25
 41
0.8
 50
0
  1
側面詳細図
  0
TEXT
  8
_0-7_枠細線
 62
    5
 10
974.01084011216926
 20
196.14641657611145
 40
20
 41
0.6
 50
0
  1
Ｓ＝１：３
  0
LINE
  8
_0-7_枠細線
  6
CONTINUOUS
 62
    5
 10
1139.4018171150183
 20
373.42884000293418
 11
1139.4018171150183
 21
453.42884000293418
  0
LINE
  8
_0-7_枠細線
  6
CONTINUOUS
 62
    5
 10
1229.4018171150183
 20
373.42884000293418
 11
1229.4018171150183
 21
453.42884000293418
  0
TEXT
  8
_0-7_枠細線
 62
    5
 10
1251.9018171150183
 20
430.92884000293418
 40
15
 41
1
 50
0
  1
蓋重量
  0
LINE
  8
_0-7_枠細線
  6
CONTINUOUS
 62
    5
 10
1319.4018171150183
 20
373.42884000293418
 11
1319.4018171150183
 21
453.42884000293418
  0
TEXT
  8
_0-7_枠細線
 62
    5
 10
1341.9018171150183
 20
430.92884000293418
 40
15
 41
1
 50
0
  1
枠重量
  0
LINE
  8
_0-7_枠細線
  6
CONTINUOUS
 62
    5
 10
1139.4018171150183
 20
423.42884000293418
 11
1409.4018171150183
 21
423.42884000293418
  0
LINE
  8
_0-7_枠細線
  6
CONTINUOUS
 62
    5
 10
1139.4018171150183
 20
453.42884000293418
 11
1409.4018171150183
 21
453.42884000293418
  0
LINE
  8
_0-7_枠細線
  6
CONTINUOUS
 62
    5
 10
1139.4018171150183
 20
373.42884000293418
 11
1409.4018171150183
 21
373.42884000293418
  0
LINE
  8
_0-7_枠細線
  6
CONTINUOUS
 62
    5
 10
1409.4018171150183
 20
373.42884000293418
 11
1409.4018171150183
 21
453.42884000293418
  0
TEXT
  8
_0-7_枠細線
 62
    5
 10
1247.4018171150178
 20
392.17884000293418
 40
15
 41
0.8000000000000001
 50
0
  1
13.5kg/ｍ
  0
TEXT
  8
_0-7_枠細線
 62
    5
 10
1334.4018171150183
 20
392.17884000293418
 40
15
 41
0.8000000000000001
 50
0
  1
2.2kg/ｍ組
  0
TEXT
  8
_0-7_枠細線
 62
    5
 10
1154.4018171150183
 20
430.92884000293418
 40
15
 41
1
 50
0
  1
適用荷重
  0
TEXT
  8
_0-7_枠細線
 62
    5
 10
1161.9018171150183
 20
400.92884000293418
 40
15
 41
1
 50
0
  1
歩道用
  0
TEXT
  8
_0-7_枠細線
 62
    5
 10
1139.4018171150183
 20
380.92884000293418
 40
15
 41
1
 50
0
  1
（5.0kN/㎡）
  0
TEXT
  8
_0-7_枠細線
 62
    5
 10
965.50000000000011
 20
110
 40
20
 41
0.6
 50
0
  1
ＧＳＦＪ－１５Ｗ３５０
  0
TEXT
  8
_0-7_枠細線
 62
    5
 10
965.50000000000011
 20
150
 40
20
 41
0.5
 50
0
  1
Ｆバー ステンレスグレーチング Ｈ１５タイプ
  0
TEXT
  8
_0-7_枠細線
 62
    5
 10
965.49999999999966
 20
70
 40
20.000000000000004
 41
0.5999999999999997
 50
0
  1
表面形状については記号表参照のこと
  0
LINE
  8
_0-7_枠細線
  6
CONTINUOUS
 62
    5
 10
1409.4018171150183
 20
328.47321710336234
 11
1409.4018171150183
 21
223.47321710336274
  0
TEXT
  8
_0-7_枠細線
 62
    5
 10
1318.4018171150192
 20
308.47321710336234
 40
15.000000000000002
 41
0.8
 50
0
  1
ノンスリップ
  0
TEXT
  8
_0-7_枠細線
 62
    5
 10
1330.4018171150185
 20
283.47321710336234
 40
15.000000000000002
 41
0.8
 50
0
  1
品番－Ｄ
  0
LINE
  8
_0-7_枠細線
  6
CONTINUOUS
 62
    5
 10
1299.4018171150178
 20
328.47321710336234
 11
1299.4018171150178
 21
223.47321710336274
  0
TEXT
  8
_0-7_枠細線
 62
    5
 10
1220.4018171150178
 20
308.4732171033624
 40
15.000000000000002
 41
0.8
 50
0
  1
プレーン
  0
TEXT
  8
_0-7_枠細線
 62
    5
 10
1220.4018171150185
 20
283.47321710336234
 40
15.000000000000002
 41
0.8
 50
0
  1
品番－Ｆ
  0
TEXT
  8
_0-7_枠細線
 62
    5
 10
1140.4018171150183
 20
308.47321710336234
 40
15.000000000000002
 41
0.8
 50
0
  1
タ イ プ
  0
LINE
  8
_0-7_枠細線
  6
CONTINUOUS
 62
    5
 10
1139.4018171150174
 20
278.47321710336234
 11
1409.4018171150183
 21
278.47321710336234
  0
LINE
  8
_0-7_枠細線
  6
CONTINUOUS
 62
    5
 10
1139.4018171150174
 20
303.47321710336234
 11
1409.4018171150183
 21
303.47321710336234
  0
LINE
  8
_0-7_枠細線
  6
CONTINUOUS
 62
    5
 10
1139.4018171150174
 20
328.47321710336234
 11
1409.4018171150183
 21
328.47321710336234
  0
LINE
  8
_0-7_枠細線
  6
CONTINUOUS
 62
    5
 10
1139.4018171150174
 20
223.47321710336274
 11
1409.4018171150183
 21
223.47321710336274
  0
LINE
  8
_0-7_枠細線
  6
CONTINUOUS
 62
    5
 10
1189.4018171150183
 20
328.47321710336234
 11
1189.4018171150183
 21
223.47321710336274
  0
LINE
  8
_0-7_枠細線
  6
CONTINUOUS
 62
    5
 10
1139.4018171150174
 20
328.47321710336234
 11
1139.4018171150174
 21
223.47321710336274
  0
TEXT
  8
_0-7_枠細線
 62
    5
 10
1140.4018171150183
 20
243.47321710336257
 40
15.000000000000002
 41
0.8
 50
0
  1
表面形状
  0
TEXT
  8
_0-7_枠細線
 62
    5
 10
1147.1760284558286
 20
330.9732171033624
 40
17.500000000000004
 41
0.7999999999999996
 50
0
  1
記号表
  0
TEXT
  8
_0-7_枠細線
 62
    5
 10
1140.4018171150183
 20
283.47321710336246
 40
15.000000000000002
 41
0.8
 50
0
  1
記　　号
  0
ARC
  8
_0-7_枠細線
  6
CONTINUOUS
 62
    5
 10
1285.5023462775741
 20
245.17647202943709
 40
8.5903566658075761
 50
317.56162900000447
 51
42.438370999995371
  0
ARC
  8
_0-7_枠細線
  6
CONTINUOUS
 62
    5
 10
1190.621859620396
 20
245.17647202943709
 40
8.5903566658076702
 50
317.56162899999947
 51
42.43837100000087
  0
ARC
  8
_0-7_枠細線
  6
CONTINUOUS
 62
    5
 10
1203.3012879524622
 20
256.76996202827797
 40
8.5903566658076702
 50
137.56162899999987
 51
222.43837100000292
  0
ARC
  8
_0-7_枠細線
  6
CONTINUOUS
 62
    5
 10
1298.1817746096403
 20
256.76996202827797
 40
8.5903566658075761
 50
137.56162899999941
 51
222.4383710000034
  0
LINE
  8
_0-7_枠細線
  6
CONTINUOUS
 62
    5
 10
1194.8814809446508
 20
258.47321702885716
 11
1289.7619676018294
 21
258.47321702885716
  0
LINE
  8
_0-7_枠細線
  6
CONTINUOUS
 62
    5
 10
1293.9221532853853
 20
243.47321702885765
 11
1199.0416666282072
 21
243.47321702885765
  0
ARC
  8
_0-7_枠細線
  6
CONTINUOUS
 62
    5
 10
1301.122215453679
 20
245.17647202943706
 40
8.5903566658075761
 50
317.5616290000001
 51
42.438371000001837
  0
ARC
  8
_0-7_枠細線
  6
CONTINUOUS
 62
    5
 10
1313.8016437857441
 20
256.76996202827786
 40
8.5903566658075761
 50
137.56162900000044
 51
222.43837100000019
  0
ARC
  8
_0-7_枠細線
  6
CONTINUOUS
 62
    5
 10
1396.0027021108588
 20
245.17647202943706
 40
8.5903566658075761
 50
317.56162899999799
 51
42.438371000001837
  0
ARC
  8
_0-7_枠細線
  6
CONTINUOUS
 62
    5
 10
1408.6821304429236
 20
256.76996202827786
 40
8.5903566658075761
 50
137.56162900000146
 51
222.43837100000019
  0
LINE
  8
_0-7_枠細線
  6
CONTINUOUS
 62
    5
 10
1305.3818367779329
 20
258.47321702885711
 11
1400.2623234351113
 21
258.47321702885711
  0
LINE
  8
_0-7_枠細線
  6
CONTINUOUS
 62
    5
 10
1404.4225091186672
 20
243.47321702885762
 11
1309.5420224614893
 21
243.47321702885762
  0
LINE
  8
_0-7_枠細線
  6
CONTINUOUS
 62
    5
 10
1305.319542326198
 20
258.12944077976692
 11
1319.975766077107
 21
243.47321702885773
  0
LINE
  8
_0-7_枠細線
  6
CONTINUOUS
 62
    5
 10
1315.5823677949058
 20
258.47321702885711
 11
1330.5823677949052
 21
243.47321702885773
  0
LINE
  8
_0-7_枠細線
  6
CONTINUOUS
 62
    5
 10
1326.1889695127043
 20
258.47321702885711
 11
1341.1889695127034
 21
243.47321702885773
  0
LINE
  8
_0-7_枠細線
  6
CONTINUOUS
 62
    5
 10
1336.7955712305022
 20
258.47321702885711
 11
1351.7955712305015
 21
243.47321702885773
  0
LINE
  8
_0-7_枠細線
  6
CONTINUOUS
 62
    5
 10
1347.4021729483002
 20
258.47321702885711
 11
1362.4021729482997
 21
243.47321702885762
  0
LINE
  8
_0-7_枠細線
  6
CONTINUOUS
 62
    5
 10
1358.0087746660984
 20
258.47321702885711
 11
1373.0087746660977
 21
243.47321702885762
  0
LINE
  8
_0-7_枠細線
  6
CONTINUOUS
 62
    5
 10
1368.6153763838965
 20
258.47321702885711
 11
1383.6153763838959
 21
243.47321702885762
  0
LINE
  8
_0-7_枠細線
  6
CONTINUOUS
 62
    5
 10
1379.2219781016945
 20
258.47321702885711
 11
1394.2219781016943
 21
243.47321702885762
  0
LINE
  8
_0-7_枠細線
  6
CONTINUOUS
 62
    5
 10
1389.8285798194929
 20
258.47321702885711
 11
1404.4848035704022
 21
243.81699327794757
  0
LINE
  8
_0-7_枠細線
  6
CONTINUOUS
 62
    5
 10
1400.4351815372913
 20
243.47321702885762
 11
1404.3132122249604
 21
247.3512477165265
  0
LINE
  8
_0-7_枠細線
  6
CONTINUOUS
 62
    5
 10
1389.8285798194931
 20
243.47321702885762
 11
1400.502099021217
 21
254.14673623058133
  0
LINE
  8
_0-7_枠細線
  6
CONTINUOUS
 62
    5
 10
1379.2219781016952
 20
243.47321702885762
 11
1394.2219781016945
 21
258.47321702885711
  0
LINE
  8
_0-7_枠細線
  6
CONTINUOUS
 62
    5
 10
1368.6153763838968
 20
243.47321702885762
 11
1383.6153763838965
 21
258.47321702885711
  0
LINE
  8
_0-7_枠細線
  6
CONTINUOUS
 62
    5
 10
1358.0087746660988
 20
243.47321702885773
 11
1373.0087746660979
 21
258.47321702885711
  0
LINE
  8
_0-7_枠細線
  6
CONTINUOUS
 62
    5
 10
1347.4021729483004
 20
243.47321702885773
 11
1362.4021729482999
 21
258.47321702885711
  0
LINE
  8
_0-7_枠細線
  6
CONTINUOUS
 62
    5
 10
1336.7955712305022
 20
243.47321702885773
 11
1351.7955712305015
 21
258.47321702885711
  0
LINE
  8
_0-7_枠細線
  6
CONTINUOUS
 62
    5
 10
1326.1889695127038
 20
243.47321702885773
 11
1341.1889695127034
 21
258.47321702885711
  0
LINE
  8
_0-7_枠細線
  6
CONTINUOUS
 62
    5
 10
1315.5823677949056
 20
243.47321702885773
 11
1330.5823677949052
 21
258.47321702885711
  0
LINE
  8
_0-7_枠細線
  6
CONTINUOUS
 62
    5
 10
1309.3022468753834
 20
247.79969782713346
 11
1319.975766077107
 21
258.47321702885711
  0
LINE
  8
_0-7_枠細線
  6
CONTINUOUS
 62
    5
 10
1305.4911336716398
 20
254.59518634118811
 11
1309.369164359309
 21
258.47321702885711
  0
LINE
  8
_0-9_枠極太
  6
CONTINUOUS
 62
    5
 10
60
 20
60
 11
60
 21
960
  0
LINE
  8
_0-9_枠極太
  6
CONTINUOUS
 62
    5
 10
60
 20
960
 11
1425
 21
960
  0
LINE
  8
_0-9_枠極太
  6
CONTINUOUS
 62
    5
 10
1425
 20
960
 11
1425
 21
60
  0
LINE
  8
_0-9_枠極太
  6
CONTINUOUS
 62
    5
 10
1425
 20
60
 11
60
 21
60
  0
LINE
  8
_0-0_計極細
  6
CENTER2
 62
    2
 10
212.54515046297826
 20
666.14961247767599
 11
1239.2513387135837
 21
666.14961247767599
  0
LINE
  8
_0-0_計極細
  6
CONTINUOUS
 62
    2
 10
1211.433749999997
 20
763.64961247767599
 11
1218.433749999997
 21
763.64961247767599
  0
LINE
  8
_0-0_計極細
  6
CONTINUOUS
 62
    2
 10
1211.433749999997
 20
768.6496124776761
 11
1218.433749999997
 21
768.6496124776761
  0
LINE
  8
_0-0_計極細
  6
CONTINUOUS
 62
    2
 10
1201.433749999997
 20
763.64961247767599
 11
1208.433749999997
 21
763.64961247767599
  0
LINE
  8
_0-0_計極細
  6
CONTINUOUS
 62
    2
 10
1201.433749999997
 20
768.6496124776761
 11
1208.433749999997
 21
768.6496124776761
  0
LINE
  8
_0-0_計極細
  6
CONTINUOUS
 62
    2
 10
1191.433749999997
 20
763.64961247767599
 11
1198.433749999997
 21
763.64961247767599
  0
LINE
  8
_0-0_計極細
  6
CONTINUOUS
 62
    2
 10
1191.433749999997
 20
768.6496124776761
 11
1198.433749999997
 21
768.6496124776761
  0
LINE
  8
_0-0_計極細
  6
CONTINUOUS
 62
    2
 10
1181.433749999997
 20
763.64961247767599
 11
1188.433749999997
 21
763.64961247767599
  0
LINE
  8
_0-0_計極細
  6
CONTINUOUS
 62
    2
 10
1181.433749999997
 20
768.6496124776761
 11
1188.433749999997
 21
768.6496124776761
  0
LINE
  8
_0-0_計極細
  6
CONTINUOUS
 62
    2
 10
1171.433749999997
 20
763.64961247767599
 11
1178.433749999997
 21
763.64961247767599
  0
LINE
  8
_0-0_計極細
  6
CONTINUOUS
 62
    2
 10
1171.433749999997
 20
768.6496124776761
 11
1178.433749999997
 21
768.6496124776761
  0
LINE
  8
_0-0_計極細
  6
CONTINUOUS
 62
    2
 10
1161.433749999997
 20
763.64961247767599
 11
1168.433749999997
 21
763.64961247767599
  0
LINE
  8
_0-0_計極細
  6
CONTINUOUS
 62
    2
 10
1161.433749999997
 20
768.6496124776761
 11
1168.433749999997
 21
768.6496124776761
  0
LINE
  8
_0-0_計極細
  6
CONTINUOUS
 62
    2
 10
1151.433749999997
 20
763.64961247767599
 11
1158.433749999997
 21
763.64961247767599
  0
LINE
  8
_0-0_計極細
  6
CONTINUOUS
 62
    2
 10
1151.433749999997
 20
768.6496124776761
 11
1158.433749999997
 21
768.6496124776761
  0
LINE
  8
_0-0_計極細
  6
CONTINUOUS
 62
    2
 10
1141.433749999997
 20
763.64961247767599
 11
1148.433749999997
 21
763.64961247767599
  0
LINE
  8
_0-0_計極細
  6
CONTINUOUS
 62
    2
 10
1141.433749999997
 20
768.6496124776761
 11
1148.433749999997
 21
768.6496124776761
  0
LINE
  8
_0-0_計極細
  6
CONTINUOUS
 62
    2
 10
1131.433749999997
 20
763.64961247767599
 11
1138.433749999997
 21
763.64961247767599
  0
LINE
  8
_0-0_計極細
  6
CONTINUOUS
 62
    2
 10
1131.433749999997
 20
768.6496124776761
 11
1138.433749999997
 21
768.6496124776761
  0
LINE
  8
_0-0_計極細
  6
CONTINUOUS
 62
    2
 10
1121.433749999997
 20
763.64961247767599
 11
1128.433749999997
 21
763.64961247767599
  0
LINE
  8
_0-0_計極細
  6
CONTINUOUS
 62
    2
 10
1121.433749999997
 20
768.6496124776761
 11
1128.433749999997
 21
768.6496124776761
  0
LINE
  8
_0-0_計極細
  6
CONTINUOUS
 62
    2
 10
1111.433749999997
 20
763.64961247767599
 11
1118.433749999997
 21
763.64961247767599
  0
LINE
  8
_0-0_計極細
  6
CONTINUOUS
 62
    2
 10
1111.433749999997
 20
768.6496124776761
 11
1118.433749999997
 21
768.6496124776761
  0
LINE
  8
_0-0_計極細
  6
CONTINUOUS
 62
    2
 10
1101.433749999997
 20
763.64961247767599
 11
1108.433749999997
 21
763.64961247767599
  0
LINE
  8
_0-0_計極細
  6
CONTINUOUS
 62
    2
 10
1101.433749999997
 20
768.6496124776761
 11
1108.433749999997
 21
768.6496124776761
  0
LINE
  8
_0-0_計極細
  6
CONTINUOUS
 62
    2
 10
1091.433749999997
 20
763.64961247767599
 11
1098.433749999997
 21
763.64961247767599
  0
LINE
  8
_0-0_計極細
  6
CONTINUOUS
 62
    2
 10
1091.433749999997
 20
768.6496124776761
 11
1098.433749999997
 21
768.6496124776761
  0
LINE
  8
_0-0_計極細
  6
CONTINUOUS
 62
    2
 10
1081.433749999997
 20
763.64961247767599
 11
1088.433749999997
 21
763.64961247767599
  0
LINE
  8
_0-0_計極細
  6
CONTINUOUS
 62
    2
 10
1081.433749999997
 20
768.6496124776761
 11
1088.433749999997
 21
768.6496124776761
  0
LINE
  8
_0-0_計極細
  6
CONTINUOUS
 62
    2
 10
1071.433749999997
 20
763.64961247767599
 11
1078.433749999997
 21
763.64961247767599
  0
LINE
  8
_0-0_計極細
  6
CONTINUOUS
 62
    2
 10
1071.433749999997
 20
768.6496124776761
 11
1078.433749999997
 21
768.6496124776761
  0
LINE
  8
_0-0_計極細
  6
CONTINUOUS
 62
    2
 10
1061.433749999997
 20
763.64961247767599
 11
1068.433749999997
 21
763.64961247767599
  0
LINE
  8
_0-0_計極細
  6
CONTINUOUS
 62
    2
 10
1061.433749999997
 20
768.6496124776761
 11
1068.433749999997
 21
768.6496124776761
  0
LINE
  8
_0-0_計極細
  6
CONTINUOUS
 62
    2
 10
1051.433749999997
 20
763.64961247767599
 11
1058.433749999997
 21
763.64961247767599
  0
LINE
  8
_0-0_計極細
  6
CONTINUOUS
 62
    2
 10
1051.433749999997
 20
768.6496124776761
 11
1058.433749999997
 21
768.6496124776761
  0
LINE
  8
_0-0_計極細
  6
CONTINUOUS
 62
    2
 10
1041.433749999997
 20
763.64961247767599
 11
1048.433749999997
 21
763.64961247767599
  0
LINE
  8
_0-0_計極細
  6
CONTINUOUS
 62
    2
 10
1041.433749999997
 20
768.6496124776761
 11
1048.433749999997
 21
768.6496124776761
  0
LINE
  8
_0-0_計極細
  6
CONTINUOUS
 62
    2
 10
1031.433749999997
 20
763.64961247767599
 11
1038.433749999997
 21
763.64961247767599
  0
LINE
  8
_0-0_計極細
  6
CONTINUOUS
 62
    2
 10
1031.433749999997
 20
768.6496124776761
 11
1038.433749999997
 21
768.6496124776761
  0
LINE
  8
_0-0_計極細
  6
CONTINUOUS
 62
    2
 10
1021.4337499999971
 20
763.64961247767599
 11
1028.433749999997
 21
763.64961247767599
  0
LINE
  8
_0-0_計極細
  6
CONTINUOUS
 62
    2
 10
1021.4337499999971
 20
768.6496124776761
 11
1028.433749999997
 21
768.6496124776761
  0
LINE
  8
_0-0_計極細
  6
CONTINUOUS
 62
    2
 10
1011.4337499999971
 20
763.64961247767599
 11
1018.4337499999971
 21
763.64961247767599
  0
LINE
  8
_0-0_計極細
  6
CONTINUOUS
 62
    2
 10
1011.4337499999971
 20
768.6496124776761
 11
1018.4337499999971
 21
768.6496124776761
  0
LINE
  8
_0-0_計極細
  6
CONTINUOUS
 62
    2
 10
1001.4337499999971
 20
763.64961247767599
 11
1008.4337499999971
 21
763.64961247767599
  0
LINE
  8
_0-0_計極細
  6
CONTINUOUS
 62
    2
 10
1001.4337499999971
 20
768.6496124776761
 11
1008.4337499999971
 21
768.6496124776761
  0
LINE
  8
_0-0_計極細
  6
CONTINUOUS
 62
    2
 10
991.43374999999708
 20
763.64961247767599
 11
998.43374999999708
 21
763.64961247767599
  0
LINE
  8
_0-0_計極細
  6
CONTINUOUS
 62
    2
 10
991.43374999999708
 20
768.6496124776761
 11
998.43374999999708
 21
768.6496124776761
  0
LINE
  8
_0-0_計極細
  6
CONTINUOUS
 62
    2
 10
981.43374999999708
 20
763.64961247767599
 11
988.43374999999708
 21
763.64961247767599
  0
LINE
  8
_0-0_計極細
  6
CONTINUOUS
 62
    2
 10
981.43374999999708
 20
768.6496124776761
 11
988.43374999999708
 21
768.6496124776761
  0
LINE
  8
_0-0_計極細
  6
CONTINUOUS
 62
    2
 10
971.43374999999708
 20
763.64961247767599
 11
978.43374999999708
 21
763.64961247767599
  0
LINE
  8
_0-0_計極細
  6
CONTINUOUS
 62
    2
 10
971.43374999999708
 20
768.6496124776761
 11
978.43374999999708
 21
768.6496124776761
  0
LINE
  8
_0-0_計極細
  6
CONTINUOUS
 62
    2
 10
961.43374999999708
 20
763.64961247767599
 11
968.43374999999708
 21
763.64961247767599
  0
LINE
  8
_0-0_計極細
  6
CONTINUOUS
 62
    2
 10
961.43374999999708
 20
768.6496124776761
 11
968.43374999999708
 21
768.6496124776761
  0
LINE
  8
_0-0_計極細
  6
CONTINUOUS
 62
    2
 10
951.43374999999708
 20
763.64961247767599
 11
958.43374999999708
 21
763.64961247767599
  0
LINE
  8
_0-0_計極細
  6
CONTINUOUS
 62
    2
 10
951.43374999999708
 20
768.6496124776761
 11
958.43374999999708
 21
768.6496124776761
  0
LINE
  8
_0-0_計極細
  6
CONTINUOUS
 62
    2
 10
941.43374999999708
 20
763.64961247767599
 11
948.43374999999708
 21
763.64961247767599
  0
LINE
  8
_0-0_計極細
  6
CONTINUOUS
 62
    2
 10
941.43374999999708
 20
768.6496124776761
 11
948.43374999999708
 21
768.6496124776761
  0
LINE
  8
_0-0_計極細
  6
CONTINUOUS
 62
    2
 10
931.43374999999708
 20
763.64961247767599
 11
938.43374999999708
 21
763.64961247767599
  0
LINE
  8
_0-0_計極細
  6
CONTINUOUS
 62
    2
 10
931.43374999999708
 20
768.6496124776761
 11
938.43374999999708
 21
768.6496124776761
  0
LINE
  8
_0-0_計極細
  6
CONTINUOUS
 62
    2
 10
921.43374999999708
 20
763.64961247767599
 11
928.43374999999708
 21
763.64961247767599
  0
LINE
  8
_0-0_計極細
  6
CONTINUOUS
 62
    2
 10
921.43374999999708
 20
768.6496124776761
 11
928.43374999999708
 21
768.6496124776761
  0
LINE
  8
_0-0_計極細
  6
CONTINUOUS
 62
    2
 10
911.43374999999708
 20
763.64961247767599
 11
918.43374999999708
 21
763.64961247767599
  0
LINE
  8
_0-0_計極細
  6
CONTINUOUS
 62
    2
 10
911.43374999999708
 20
768.6496124776761
 11
918.43374999999708
 21
768.6496124776761
  0
LINE
  8
_0-0_計極細
  6
CONTINUOUS
 62
    2
 10
901.43374999999708
 20
763.64961247767599
 11
908.43374999999708
 21
763.64961247767599
  0
LINE
  8
_0-0_計極細
  6
CONTINUOUS
 62
    2
 10
901.43374999999708
 20
768.6496124776761
 11
908.43374999999708
 21
768.6496124776761
  0
LINE
  8
_0-0_計極細
  6
CONTINUOUS
 62
    2
 10
891.43374999999708
 20
763.64961247767599
 11
898.43374999999708
 21
763.64961247767599
  0
LINE
  8
_0-0_計極細
  6
CONTINUOUS
 62
    2
 10
891.43374999999708
 20
768.6496124776761
 11
898.43374999999708
 21
768.6496124776761
  0
LINE
  8
_0-0_計極細
  6
CONTINUOUS
 62
    2
 10
881.43374999999708
 20
763.64961247767599
 11
888.43374999999708
 21
763.64961247767599
  0
LINE
  8
_0-0_計極細
  6
CONTINUOUS
 62
    2
 10
881.43374999999708
 20
768.6496124776761
 11
888.43374999999708
 21
768.6496124776761
  0
LINE
  8
_0-0_計極細
  6
CONTINUOUS
 62
    2
 10
871.43374999999708
 20
763.64961247767599
 11
878.43374999999708
 21
763.64961247767599
  0
LINE
  8
_0-0_計極細
  6
CONTINUOUS
 62
    2
 10
871.43374999999708
 20
768.6496124776761
 11
878.43374999999708
 21
768.6496124776761
  0
LINE
  8
_0-0_計極細
  6
CONTINUOUS
 62
    2
 10
861.43374999999708
 20
763.64961247767599
 11
868.43374999999708
 21
763.64961247767599
  0
LINE
  8
_0-0_計極細
  6
CONTINUOUS
 62
    2
 10
861.43374999999708
 20
768.6496124776761
 11
868.43374999999708
 21
768.6496124776761
  0
LINE
  8
_0-0_計極細
  6
CONTINUOUS
 62
    2
 10
851.43374999999708
 20
763.64961247767599
 11
858.43374999999708
 21
763.64961247767599
  0
LINE
  8
_0-0_計極細
  6
CONTINUOUS
 62
    2
 10
851.43374999999708
 20
768.6496124776761
 11
858.43374999999708
 21
768.6496124776761
  0
LINE
  8
_0-0_計極細
  6
CONTINUOUS
 62
    2
 10
841.43374999999708
 20
763.64961247767599
 11
848.43374999999708
 21
763.64961247767599
  0
LINE
  8
_0-0_計極細
  6
CONTINUOUS
 62
    2
 10
841.43374999999708
 20
768.6496124776761
 11
848.43374999999708
 21
768.6496124776761
  0
LINE
  8
_0-0_計極細
  6
CONTINUOUS
 62
    2
 10
831.43374999999708
 20
763.64961247767599
 11
838.43374999999708
 21
763.64961247767599
  0
LINE
  8
_0-0_計極細
  6
CONTINUOUS
 62
    2
 10
831.43374999999708
 20
768.6496124776761
 11
838.43374999999708
 21
768.6496124776761
  0
LINE
  8
_0-0_計極細
  6
CONTINUOUS
 62
    2
 10
821.43374999999708
 20
763.64961247767599
 11
828.43374999999708
 21
763.64961247767599
  0
LINE
  8
_0-0_計極細
  6
CONTINUOUS
 62
    2
 10
821.43374999999708
 20
768.6496124776761
 11
828.43374999999708
 21
768.6496124776761
  0
LINE
  8
_0-0_計極細
  6
CONTINUOUS
 62
    2
 10
811.43374999999708
 20
763.64961247767599
 11
818.43374999999708
 21
763.64961247767599
  0
LINE
  8
_0-0_計極細
  6
CONTINUOUS
 62
    2
 10
811.43374999999708
 20
768.6496124776761
 11
818.43374999999708
 21
768.6496124776761
  0
LINE
  8
_0-0_計極細
  6
CONTINUOUS
 62
    2
 10
801.43374999999708
 20
763.64961247767599
 11
808.43374999999708
 21
763.64961247767599
  0
LINE
  8
_0-0_計極細
  6
CONTINUOUS
 62
    2
 10
801.43374999999708
 20
768.6496124776761
 11
808.43374999999708
 21
768.6496124776761
  0
LINE
  8
_0-0_計極細
  6
CONTINUOUS
 62
    2
 10
791.43374999999708
 20
763.64961247767599
 11
798.43374999999708
 21
763.64961247767599
  0
LINE
  8
_0-0_計極細
  6
CONTINUOUS
 62
    2
 10
791.43374999999708
 20
768.6496124776761
 11
798.43374999999708
 21
768.6496124776761
  0
LINE
  8
_0-0_計極細
  6
CONTINUOUS
 62
    2
 10
781.43374999999708
 20
763.64961247767599
 11
788.43374999999708
 21
763.64961247767599
  0
LINE
  8
_0-0_計極細
  6
CONTINUOUS
 62
    2
 10
781.43374999999708
 20
768.6496124776761
 11
788.43374999999708
 21
768.6496124776761
  0
LINE
  8
_0-0_計極細
  6
CONTINUOUS
 62
    2
 10
771.43374999999708
 20
763.64961247767599
 11
778.43374999999708
 21
763.64961247767599
  0
LINE
  8
_0-0_計極細
  6
CONTINUOUS
 62
    2
 10
771.43374999999708
 20
768.6496124776761
 11
778.43374999999708
 21
768.6496124776761
  0
LINE
  8
_0-0_計極細
  6
CONTINUOUS
 62
    2
 10
761.43374999999708
 20
763.64961247767599
 11
768.43374999999708
 21
763.64961247767599
  0
LINE
  8
_0-0_計極細
  6
CONTINUOUS
 62
    2
 10
761.43374999999708
 20
768.6496124776761
 11
768.43374999999708
 21
768.6496124776761
  0
LINE
  8
_0-0_計極細
  6
CONTINUOUS
 62
    2
 10
751.43374999999708
 20
763.64961247767599
 11
758.43374999999708
 21
763.64961247767599
  0
LINE
  8
_0-0_計極細
  6
CONTINUOUS
 62
    2
 10
751.43374999999708
 20
768.6496124776761
 11
758.43374999999708
 21
768.6496124776761
  0
LINE
  8
_0-0_計極細
  6
CONTINUOUS
 62
    2
 10
741.43374999999708
 20
763.64961247767599
 11
748.43374999999708
 21
763.64961247767599
  0
LINE
  8
_0-0_計極細
  6
CONTINUOUS
 62
    2
 10
741.43374999999708
 20
768.6496124776761
 11
748.43374999999708
 21
768.6496124776761
  0
LINE
  8
_0-0_計極細
  6
CONTINUOUS
 62
    2
 10
731.43374999999708
 20
763.64961247767599
 11
738.43374999999708
 21
763.64961247767599
  0
LINE
  8
_0-0_計極細
  6
CONTINUOUS
 62
    2
 10
731.43374999999708
 20
768.6496124776761
 11
738.43374999999708
 21
768.6496124776761
  0
LINE
  8
_0-0_計極細
  6
CONTINUOUS
 62
    2
 10
721.43374999999708
 20
763.64961247767599
 11
728.43374999999708
 21
763.64961247767599
  0
LINE
  8
_0-0_計極細
  6
CONTINUOUS
 62
    2
 10
721.43374999999708
 20
768.6496124776761
 11
728.43374999999708
 21
768.6496124776761
  0
LINE
  8
_0-0_計極細
  6
CONTINUOUS
 62
    2
 10
711.43374999999708
 20
763.64961247767599
 11
718.43374999999708
 21
763.64961247767599
  0
LINE
  8
_0-0_計極細
  6
CONTINUOUS
 62
    2
 10
711.43374999999708
 20
768.6496124776761
 11
718.43374999999708
 21
768.6496124776761
  0
LINE
  8
_0-0_計極細
  6
CONTINUOUS
 62
    2
 10
701.43374999999708
 20
763.64961247767599
 11
708.43374999999708
 21
763.64961247767599
  0
LINE
  8
_0-0_計極細
  6
CONTINUOUS
 62
    2
 10
701.43374999999708
 20
768.6496124776761
 11
708.43374999999708
 21
768.6496124776761
  0
LINE
  8
_0-0_計極細
  6
CONTINUOUS
 62
    2
 10
691.43374999999708
 20
763.64961247767599
 11
698.43374999999708
 21
763.64961247767599
  0
LINE
  8
_0-0_計極細
  6
CONTINUOUS
 62
    2
 10
691.43374999999708
 20
768.6496124776761
 11
698.43374999999708
 21
768.6496124776761
  0
LINE
  8
_0-0_計極細
  6
CONTINUOUS
 62
    2
 10
681.43374999999708
 20
763.64961247767599
 11
688.43374999999708
 21
763.64961247767599
  0
LINE
  8
_0-0_計極細
  6
CONTINUOUS
 62
    2
 10
681.43374999999708
 20
768.6496124776761
 11
688.43374999999708
 21
768.6496124776761
  0
LINE
  8
_0-0_計極細
  6
CONTINUOUS
 62
    2
 10
671.43374999999708
 20
763.64961247767599
 11
678.43374999999708
 21
763.64961247767599
  0
LINE
  8
_0-0_計極細
  6
CONTINUOUS
 62
    2
 10
671.43374999999708
 20
768.6496124776761
 11
678.43374999999708
 21
768.6496124776761
  0
LINE
  8
_0-0_計極細
  6
CONTINUOUS
 62
    2
 10
661.43374999999708
 20
763.64961247767599
 11
668.43374999999708
 21
763.64961247767599
  0
LINE
  8
_0-0_計極細
  6
CONTINUOUS
 62
    2
 10
661.43374999999708
 20
768.6496124776761
 11
668.43374999999708
 21
768.6496124776761
  0
LINE
  8
_0-0_計極細
  6
CONTINUOUS
 62
    2
 10
651.43374999999708
 20
763.64961247767599
 11
658.43374999999708
 21
763.64961247767599
  0
LINE
  8
_0-0_計極細
  6
CONTINUOUS
 62
    2
 10
651.43374999999708
 20
768.6496124776761
 11
658.43374999999708
 21
768.6496124776761
  0
LINE
  8
_0-0_計極細
  6
CONTINUOUS
 62
    2
 10
641.43374999999708
 20
763.64961247767599
 11
648.43374999999708
 21
763.64961247767599
  0
LINE
  8
_0-0_計極細
  6
CONTINUOUS
 62
    2
 10
641.43374999999708
 20
768.6496124776761
 11
648.43374999999708
 21
768.6496124776761
  0
LINE
  8
_0-0_計極細
  6
CONTINUOUS
 62
    2
 10
631.43374999999708
 20
763.64961247767599
 11
638.43374999999708
 21
763.64961247767599
  0
LINE
  8
_0-0_計極細
  6
CONTINUOUS
 62
    2
 10
631.43374999999708
 20
768.6496124776761
 11
638.43374999999708
 21
768.6496124776761
  0
LINE
  8
_0-0_計極細
  6
CONTINUOUS
 62
    2
 10
621.43374999999708
 20
763.64961247767599
 11
628.43374999999708
 21
763.64961247767599
  0
LINE
  8
_0-0_計極細
  6
CONTINUOUS
 62
    2
 10
621.43374999999708
 20
768.6496124776761
 11
628.43374999999708
 21
768.6496124776761
  0
LINE
  8
_0-0_計極細
  6
CONTINUOUS
 62
    2
 10
611.43374999999708
 20
763.64961247767599
 11
618.43374999999708
 21
763.64961247767599
  0
LINE
  8
_0-0_計極細
  6
CONTINUOUS
 62
    2
 10
611.43374999999708
 20
768.6496124776761
 11
618.43374999999708
 21
768.6496124776761
  0
LINE
  8
_0-0_計極細
  6
CONTINUOUS
 62
    2
 10
601.43374999999708
 20
763.64961247767599
 11
608.43374999999708
 21
763.64961247767599
  0
LINE
  8
_0-0_計極細
  6
CONTINUOUS
 62
    2
 10
601.43374999999708
 20
768.6496124776761
 11
608.43374999999708
 21
768.6496124776761
  0
LINE
  8
_0-0_計極細
  6
CONTINUOUS
 62
    2
 10
591.43374999999708
 20
763.64961247767599
 11
598.43374999999708
 21
763.64961247767599
  0
LINE
  8
_0-0_計極細
  6
CONTINUOUS
 62
    2
 10
591.43374999999708
 20
768.6496124776761
 11
598.43374999999708
 21
768.6496124776761
  0
LINE
  8
_0-0_計極細
  6
CONTINUOUS
 62
    2
 10
581.43374999999708
 20
763.64961247767599
 11
588.43374999999708
 21
763.64961247767599
  0
LINE
  8
_0-0_計極細
  6
CONTINUOUS
 62
    2
 10
581.43374999999708
 20
768.6496124776761
 11
588.43374999999708
 21
768.6496124776761
  0
LINE
  8
_0-0_計極細
  6
CONTINUOUS
 62
    2
 10
571.43374999999708
 20
763.64961247767599
 11
578.43374999999708
 21
763.64961247767599
  0
LINE
  8
_0-0_計極細
  6
CONTINUOUS
 62
    2
 10
571.43374999999708
 20
768.6496124776761
 11
578.43374999999708
 21
768.6496124776761
  0
LINE
  8
_0-0_計極細
  6
CONTINUOUS
 62
    2
 10
561.43374999999708
 20
763.64961247767599
 11
568.43374999999708
 21
763.64961247767599
  0
LINE
  8
_0-0_計極細
  6
CONTINUOUS
 62
    2
 10
561.43374999999708
 20
768.6496124776761
 11
568.43374999999708
 21
768.6496124776761
  0
LINE
  8
_0-0_計極細
  6
CONTINUOUS
 62
    2
 10
551.43374999999708
 20
763.64961247767599
 11
558.43374999999708
 21
763.64961247767599
  0
LINE
  8
_0-0_計極細
  6
CONTINUOUS
 62
    2
 10
551.43374999999708
 20
768.6496124776761
 11
558.43374999999708
 21
768.6496124776761
  0
LINE
  8
_0-0_計極細
  6
CONTINUOUS
 62
    2
 10
541.43374999999708
 20
763.64961247767599
 11
548.43374999999708
 21
763.64961247767599
  0
LINE
  8
_0-0_計極細
  6
CONTINUOUS
 62
    2
 10
541.43374999999708
 20
768.6496124776761
 11
548.43374999999708
 21
768.6496124776761
  0
LINE
  8
_0-0_計極細
  6
CONTINUOUS
 62
    2
 10
531.43374999999708
 20
763.64961247767599
 11
538.43374999999708
 21
763.64961247767599
  0
LINE
  8
_0-0_計極細
  6
CONTINUOUS
 62
    2
 10
531.43374999999708
 20
768.6496124776761
 11
538.43374999999708
 21
768.6496124776761
  0
LINE
  8
_0-0_計極細
  6
CONTINUOUS
 62
    2
 10
521.43374999999708
 20
763.64961247767599
 11
528.43374999999708
 21
763.64961247767599
  0
LINE
  8
_0-0_計極細
  6
CONTINUOUS
 62
    2
 10
521.43374999999708
 20
768.6496124776761
 11
528.43374999999708
 21
768.6496124776761
  0
LINE
  8
_0-0_計極細
  6
CONTINUOUS
 62
    2
 10
511.43374999999708
 20
763.64961247767599
 11
518.43374999999708
 21
763.64961247767599
  0
LINE
  8
_0-0_計極細
  6
CONTINUOUS
 62
    2
 10
511.43374999999708
 20
768.6496124776761
 11
518.43374999999708
 21
768.6496124776761
  0
LINE
  8
_0-0_計極細
  6
CONTINUOUS
 62
    2
 10
501.43374999999708
 20
763.64961247767599
 11
508.43374999999708
 21
763.64961247767599
  0
LINE
  8
_0-0_計極細
  6
CONTINUOUS
 62
    2
 10
501.43374999999708
 20
768.6496124776761
 11
508.43374999999708
 21
768.6496124776761
  0
LINE
  8
_0-0_計極細
  6
CONTINUOUS
 62
    2
 10
491.43374999999708
 20
763.64961247767599
 11
498.43374999999708
 21
763.64961247767599
  0
LINE
  8
_0-0_計極細
  6
CONTINUOUS
 62
    2
 10
491.43374999999708
 20
768.6496124776761
 11
498.43374999999708
 21
768.6496124776761
  0
LINE
  8
_0-0_計極細
  6
CONTINUOUS
 62
    2
 10
481.43374999999708
 20
763.64961247767599
 11
488.43374999999708
 21
763.64961247767599
  0
LINE
  8
_0-0_計極細
  6
CONTINUOUS
 62
    2
 10
481.43374999999708
 20
768.6496124776761
 11
488.43374999999708
 21
768.6496124776761
  0
LINE
  8
_0-0_計極細
  6
CONTINUOUS
 62
    2
 10
471.43374999999708
 20
763.64961247767599
 11
478.43374999999708
 21
763.64961247767599
  0
LINE
  8
_0-0_計極細
  6
CONTINUOUS
 62
    2
 10
471.43374999999708
 20
768.6496124776761
 11
478.43374999999708
 21
768.6496124776761
  0
LINE
  8
_0-0_計極細
  6
CONTINUOUS
 62
    2
 10
461.43374999999708
 20
763.64961247767599
 11
468.43374999999708
 21
763.64961247767599
  0
LINE
  8
_0-0_計極細
  6
CONTINUOUS
 62
    2
 10
461.43374999999708
 20
768.6496124776761
 11
468.43374999999708
 21
768.6496124776761
  0
LINE
  8
_0-0_計極細
  6
CONTINUOUS
 62
    2
 10
451.43374999999708
 20
763.64961247767599
 11
458.43374999999708
 21
763.64961247767599
  0
LINE
  8
_0-0_計極細
  6
CONTINUOUS
 62
    2
 10
451.43374999999708
 20
768.6496124776761
 11
458.43374999999708
 21
768.6496124776761
  0
LINE
  8
_0-0_計極細
  6
CONTINUOUS
 62
    2
 10
441.43374999999708
 20
763.64961247767599
 11
448.43374999999708
 21
763.64961247767599
  0
LINE
  8
_0-0_計極細
  6
CONTINUOUS
 62
    2
 10
441.43374999999708
 20
768.6496124776761
 11
448.43374999999708
 21
768.6496124776761
  0
LINE
  8
_0-0_計極細
  6
CONTINUOUS
 62
    2
 10
431.43374999999708
 20
763.64961247767599
 11
438.43374999999708
 21
763.64961247767599
  0
LINE
  8
_0-0_計極細
  6
CONTINUOUS
 62
    2
 10
431.43374999999708
 20
768.6496124776761
 11
438.43374999999708
 21
768.6496124776761
  0
LINE
  8
_0-0_計極細
  6
CONTINUOUS
 62
    2
 10
421.43374999999708
 20
763.64961247767599
 11
428.43374999999708
 21
763.64961247767599
  0
LINE
  8
_0-0_計極細
  6
CONTINUOUS
 62
    2
 10
421.43374999999708
 20
768.6496124776761
 11
428.43374999999708
 21
768.6496124776761
  0
LINE
  8
_0-0_計極細
  6
CONTINUOUS
 62
    2
 10
411.43374999999708
 20
763.64961247767599
 11
418.43374999999708
 21
763.64961247767599
  0
LINE
  8
_0-0_計極細
  6
CONTINUOUS
 62
    2
 10
411.43374999999708
 20
768.6496124776761
 11
418.43374999999708
 21
768.6496124776761
  0
LINE
  8
_0-0_計極細
  6
CONTINUOUS
 62
    2
 10
401.43374999999708
 20
763.64961247767599
 11
408.43374999999708
 21
763.64961247767599
  0
LINE
  8
_0-0_計極細
  6
CONTINUOUS
 62
    2
 10
401.43374999999708
 20
768.6496124776761
 11
408.43374999999708
 21
768.6496124776761
  0
LINE
  8
_0-0_計極細
  6
CONTINUOUS
 62
    2
 10
391.43374999999702
 20
763.64961247767599
 11
398.43374999999696
 21
763.64961247767599
  0
LINE
  8
_0-0_計極細
  6
CONTINUOUS
 62
    2
 10
391.43374999999702
 20
768.6496124776761
 11
398.43374999999696
 21
768.6496124776761
  0
LINE
  8
_0-0_計極細
  6
CONTINUOUS
 62
    2
 10
381.43374999999702
 20
763.64961247767599
 11
388.43374999999696
 21
763.64961247767599
  0
LINE
  8
_0-0_計極細
  6
CONTINUOUS
 62
    2
 10
381.43374999999702
 20
768.6496124776761
 11
388.43374999999696
 21
768.6496124776761
  0
LINE
  8
_0-0_計極細
  6
CONTINUOUS
 62
    2
 10
371.43374999999702
 20
763.64961247767599
 11
378.43374999999696
 21
763.64961247767599
  0
LINE
  8
_0-0_計極細
  6
CONTINUOUS
 62
    2
 10
371.43374999999702
 20
768.6496124776761
 11
378.43374999999696
 21
768.6496124776761
  0
LINE
  8
_0-0_計極細
  6
CONTINUOUS
 62
    2
 10
361.43374999999702
 20
763.64961247767599
 11
368.43374999999696
 21
763.64961247767599
  0
LINE
  8
_0-0_計極細
  6
CONTINUOUS
 62
    2
 10
361.43374999999702
 20
768.6496124776761
 11
368.43374999999696
 21
768.6496124776761
  0
LINE
  8
_0-0_計極細
  6
CONTINUOUS
 62
    2
 10
351.43374999999702
 20
763.64961247767599
 11
358.43374999999696
 21
763.64961247767599
  0
LINE
  8
_0-0_計極細
  6
CONTINUOUS
 62
    2
 10
351.43374999999702
 20
768.6496124776761
 11
358.43374999999696
 21
768.6496124776761
  0
LINE
  8
_0-0_計極細
  6
CONTINUOUS
 62
    2
 10
341.43374999999702
 20
763.64961247767599
 11
348.43374999999696
 21
763.64961247767599
  0
LINE
  8
_0-0_計極細
  6
CONTINUOUS
 62
    2
 10
341.43374999999702
 20
768.6496124776761
 11
348.43374999999696
 21
768.6496124776761
  0
LINE
  8
_0-0_計極細
  6
CONTINUOUS
 62
    2
 10
331.43374999999702
 20
763.64961247767599
 11
338.43374999999696
 21
763.64961247767599
  0
LINE
  8
_0-0_計極細
  6
CONTINUOUS
 62
    2
 10
331.43374999999702
 20
768.6496124776761
 11
338.43374999999696
 21
768.6496124776761
  0
LINE
  8
_0-0_計極細
  6
CONTINUOUS
 62
    2
 10
321.43374999999702
 20
763.64961247767599
 11
328.43374999999696
 21
763.64961247767599
  0
LINE
  8
_0-0_計極細
  6
CONTINUOUS
 62
    2
 10
321.43374999999702
 20
768.6496124776761
 11
328.43374999999696
 21
768.6496124776761
  0
LINE
  8
_0-0_計極細
  6
CONTINUOUS
 62
    2
 10
311.43374999999696
 20
763.64961247767599
 11
318.43374999999696
 21
763.64961247767599
  0
LINE
  8
_0-0_計極細
  6
CONTINUOUS
 62
    2
 10
311.43374999999696
 20
768.6496124776761
 11
318.43374999999696
 21
768.6496124776761
  0
LINE
  8
_0-0_計極細
  6
CONTINUOUS
 62
    2
 10
301.43374999999696
 20
763.64961247767599
 11
308.43374999999696
 21
763.64961247767599
  0
LINE
  8
_0-0_計極細
  6
CONTINUOUS
 62
    2
 10
301.43374999999696
 20
768.6496124776761
 11
308.43374999999696
 21
768.6496124776761
  0
LINE
  8
_0-0_計極細
  6
CONTINUOUS
 62
    2
 10
291.43374999999696
 20
763.64961247767599
 11
298.43374999999696
 21
763.64961247767599
  0
LINE
  8
_0-0_計極細
  6
CONTINUOUS
 62
    2
 10
291.43374999999696
 20
768.6496124776761
 11
298.43374999999696
 21
768.6496124776761
  0
LINE
  8
_0-0_計極細
  6
CONTINUOUS
 62
    2
 10
281.43374999999696
 20
763.64961247767599
 11
288.43374999999696
 21
763.64961247767599
  0
LINE
  8
_0-0_計極細
  6
CONTINUOUS
 62
    2
 10
281.43374999999696
 20
768.6496124776761
 11
288.43374999999696
 21
768.6496124776761
  0
LINE
  8
_0-0_計極細
  6
CONTINUOUS
 62
    2
 10
271.43374999999696
 20
763.64961247767599
 11
278.43374999999696
 21
763.64961247767599
  0
LINE
  8
_0-0_計極細
  6
CONTINUOUS
 62
    2
 10
271.43374999999696
 20
768.6496124776761
 11
278.43374999999696
 21
768.6496124776761
  0
LINE
  8
_0-0_計極細
  6
CONTINUOUS
 62
    2
 10
261.43374999999696
 20
763.64961247767599
 11
268.43374999999696
 21
763.64961247767599
  0
LINE
  8
_0-0_計極細
  6
CONTINUOUS
 62
    2
 10
261.43374999999696
 20
768.6496124776761
 11
268.43374999999696
 21
768.6496124776761
  0
LINE
  8
_0-0_計極細
  6
CONTINUOUS
 62
    2
 10
251.43374999999693
 20
763.64961247767599
 11
258.43374999999696
 21
763.64961247767599
  0
LINE
  8
_0-0_計極細
  6
CONTINUOUS
 62
    2
 10
251.43374999999693
 20
768.6496124776761
 11
258.43374999999696
 21
768.6496124776761
  0
LINE
  8
_0-0_計極細
  6
CONTINUOUS
 62
    2
 10
231.43374999999693
 20
763.64961247767599
 11
238.43374999999696
 21
763.64961247767599
  0
LINE
  8
_0-0_計極細
  6
CONTINUOUS
 62
    2
 10
231.43374999999693
 20
768.6496124776761
 11
238.43374999999696
 21
768.6496124776761
  0
LINE
  8
_0-0_計極細
  6
CONTINUOUS
 62
    2
 10
241.43374999999693
 20
763.64961247767599
 11
248.43374999999696
 21
763.64961247767599
  0
LINE
  8
_0-0_計極細
  6
CONTINUOUS
 62
    2
 10
241.43374999999693
 20
768.6496124776761
 11
248.43374999999696
 21
768.6496124776761
  0
LINE
  8
_0-1_計細線
  6
CONTINUOUS
 62
    3
 10
1221.433749999997
 20
838.14961247767701
 11
228.43374999999696
 21
838.14961247767701
  0
LINE
  8
_0-1_計細線
  6
CONTINUOUS
 62
    3
 10
228.43374999999696
 20
838.14961247767701
 11
228.43374999999696
 21
841.14961247767701
  0
LINE
  8
_0-1_計細線
  6
CONTINUOUS
 62
    3
 10
228.43374999999696
 20
841.14961247767701
 11
1221.433749999997
 21
841.14961247767701
  0
LINE
  8
_0-1_計細線
  6
CONTINUOUS
 62
    3
 10
1221.433749999997
 20
841.14961247767701
 11
1221.433749999997
 21
838.14961247767701
  0
LINE
  8
_0-1_計細線
  6
CONTINUOUS
 62
    3
 10
1218.433749999997
 20
816.14961247767701
 11
1211.433749999997
 21
816.14961247767701
  0
LINE
  8
_0-1_計細線
  6
CONTINUOUS
 62
    3
 10
1208.433749999997
 20
816.14961247767701
 11
1201.433749999997
 21
816.14961247767701
  0
LINE
  8
_0-1_計細線
  6
CONTINUOUS
 62
    3
 10
1198.433749999997
 20
816.14961247767701
 11
1191.433749999997
 21
816.14961247767701
  0
LINE
  8
_0-1_計細線
  6
CONTINUOUS
 62
    3
 10
1188.433749999997
 20
816.14961247767701
 11
1181.433749999997
 21
816.14961247767701
  0
LINE
  8
_0-1_計細線
  6
CONTINUOUS
 62
    3
 10
1178.433749999997
 20
816.14961247767701
 11
1171.433749999997
 21
816.14961247767701
  0
LINE
  8
_0-1_計細線
  6
CONTINUOUS
 62
    3
 10
1168.433749999997
 20
816.14961247767701
 11
1161.433749999997
 21
816.14961247767701
  0
LINE
  8
_0-1_計細線
  6
CONTINUOUS
 62
    3
 10
1158.433749999997
 20
816.14961247767701
 11
1151.433749999997
 21
816.14961247767701
  0
LINE
  8
_0-1_計細線
  6
CONTINUOUS
 62
    3
 10
1148.433749999997
 20
816.14961247767701
 11
1141.433749999997
 21
816.14961247767701
  0
LINE
  8
_0-1_計細線
  6
CONTINUOUS
 62
    3
 10
1138.433749999997
 20
816.14961247767701
 11
1131.433749999997
 21
816.14961247767701
  0
LINE
  8
_0-1_計細線
  6
CONTINUOUS
 62
    3
 10
1128.433749999997
 20
816.14961247767701
 11
1121.433749999997
 21
816.14961247767701
  0
LINE
  8
_0-1_計細線
  6
CONTINUOUS
 62
    3
 10
1118.433749999997
 20
816.14961247767701
 11
1111.433749999997
 21
816.14961247767701
  0
LINE
  8
_0-1_計細線
  6
CONTINUOUS
 62
    3
 10
1108.433749999997
 20
816.14961247767701
 11
1101.433749999997
 21
816.14961247767701
  0
LINE
  8
_0-1_計細線
  6
CONTINUOUS
 62
    3
 10
1098.433749999997
 20
816.14961247767701
 11
1091.433749999997
 21
816.14961247767701
  0
LINE
  8
_0-1_計細線
  6
CONTINUOUS
 62
    3
 10
1088.433749999997
 20
816.14961247767701
 11
1081.433749999997
 21
816.14961247767701
  0
LINE
  8
_0-1_計細線
  6
CONTINUOUS
 62
    3
 10
1078.433749999997
 20
816.14961247767701
 11
1071.433749999997
 21
816.14961247767701
  0
LINE
  8
_0-1_計細線
  6
CONTINUOUS
 62
    3
 10
1068.433749999997
 20
816.14961247767701
 11
1061.433749999997
 21
816.14961247767701
  0
LINE
  8
_0-1_計細線
  6
CONTINUOUS
 62
    3
 10
1058.433749999997
 20
816.14961247767701
 11
1051.433749999997
 21
816.14961247767701
  0
LINE
  8
_0-1_計細線
  6
CONTINUOUS
 62
    3
 10
1048.433749999997
 20
816.14961247767701
 11
1041.433749999997
 21
816.14961247767701
  0
LINE
  8
_0-1_計細線
  6
CONTINUOUS
 62
    3
 10
1038.433749999997
 20
816.14961247767701
 11
1031.433749999997
 21
816.14961247767701
  0
LINE
  8
_0-1_計細線
  6
CONTINUOUS
 62
    3
 10
1028.433749999997
 20
816.14961247767701
 11
1021.4337499999971
 21
816.14961247767701
  0
LINE
  8
_0-1_計細線
  6
CONTINUOUS
 62
    3
 10
1018.4337499999971
 20
816.14961247767701
 11
1011.4337499999971
 21
816.14961247767701
  0
LINE
  8
_0-1_計細線
  6
CONTINUOUS
 62
    3
 10
1008.4337499999971
 20
816.14961247767701
 11
1001.4337499999971
 21
816.14961247767701
  0
LINE
  8
_0-1_計細線
  6
CONTINUOUS
 62
    3
 10
998.43374999999708
 20
816.14961247767701
 11
991.43374999999708
 21
816.14961247767701
  0
LINE
  8
_0-1_計細線
  6
CONTINUOUS
 62
    3
 10
988.43374999999708
 20
816.14961247767701
 11
981.43374999999708
 21
816.14961247767701
  0
LINE
  8
_0-1_計細線
  6
CONTINUOUS
 62
    3
 10
978.43374999999708
 20
816.14961247767701
 11
971.43374999999708
 21
816.14961247767701
  0
LINE
  8
_0-1_計細線
  6
CONTINUOUS
 62
    3
 10
968.43374999999708
 20
816.14961247767701
 11
961.43374999999708
 21
816.14961247767701
  0
LINE
  8
_0-1_計細線
  6
CONTINUOUS
 62
    3
 10
958.43374999999708
 20
816.14961247767701
 11
951.43374999999708
 21
816.14961247767701
  0
LINE
  8
_0-1_計細線
  6
CONTINUOUS
 62
    3
 10
948.43374999999708
 20
816.14961247767701
 11
941.43374999999708
 21
816.14961247767701
  0
LINE
  8
_0-1_計細線
  6
CONTINUOUS
 62
    3
 10
938.43374999999708
 20
816.14961247767701
 11
931.43374999999708
 21
816.14961247767701
  0
LINE
  8
_0-1_計細線
  6
CONTINUOUS
 62
    3
 10
928.43374999999708
 20
816.14961247767701
 11
921.43374999999708
 21
816.14961247767701
  0
LINE
  8
_0-1_計細線
  6
CONTINUOUS
 62
    3
 10
918.43374999999708
 20
816.14961247767701
 11
911.43374999999708
 21
816.14961247767701
  0
LINE
  8
_0-1_計細線
  6
CONTINUOUS
 62
    3
 10
908.43374999999708
 20
816.14961247767701
 11
901.43374999999708
 21
816.14961247767701
  0
LINE
  8
_0-1_計細線
  6
CONTINUOUS
 62
    3
 10
898.43374999999708
 20
816.14961247767701
 11
891.43374999999708
 21
816.14961247767701
  0
LINE
  8
_0-1_計細線
  6
CONTINUOUS
 62
    3
 10
888.43374999999708
 20
816.14961247767701
 11
881.43374999999708
 21
816.14961247767701
  0
LINE
  8
_0-1_計細線
  6
CONTINUOUS
 62
    3
 10
878.43374999999708
 20
816.14961247767701
 11
871.43374999999708
 21
816.14961247767701
  0
LINE
  8
_0-1_計細線
  6
CONTINUOUS
 62
    3
 10
868.43374999999708
 20
816.14961247767701
 11
861.43374999999708
 21
816.14961247767701
  0
LINE
  8
_0-1_計細線
  6
CONTINUOUS
 62
    3
 10
858.43374999999708
 20
816.14961247767701
 11
851.43374999999708
 21
816.14961247767701
  0
LINE
  8
_0-1_計細線
  6
CONTINUOUS
 62
    3
 10
848.43374999999708
 20
816.14961247767701
 11
841.43374999999708
 21
816.14961247767701
  0
LINE
  8
_0-1_計細線
  6
CONTINUOUS
 62
    3
 10
838.43374999999708
 20
816.14961247767701
 11
831.43374999999708
 21
816.14961247767701
  0
LINE
  8
_0-1_計細線
  6
CONTINUOUS
 62
    3
 10
828.43374999999708
 20
816.14961247767701
 11
821.43374999999708
 21
816.14961247767701
  0
LINE
  8
_0-1_計細線
  6
CONTINUOUS
 62
    3
 10
818.43374999999708
 20
816.14961247767701
 11
811.43374999999708
 21
816.14961247767701
  0
LINE
  8
_0-1_計細線
  6
CONTINUOUS
 62
    3
 10
808.43374999999708
 20
816.14961247767701
 11
801.43374999999708
 21
816.14961247767701
  0
LINE
  8
_0-1_計細線
  6
CONTINUOUS
 62
    3
 10
798.43374999999708
 20
816.14961247767701
 11
791.43374999999708
 21
816.14961247767701
  0
LINE
  8
_0-1_計細線
  6
CONTINUOUS
 62
    3
 10
788.43374999999708
 20
816.14961247767701
 11
781.43374999999708
 21
816.14961247767701
  0
LINE
  8
_0-1_計細線
  6
CONTINUOUS
 62
    3
 10
778.43374999999708
 20
816.14961247767701
 11
771.43374999999708
 21
816.14961247767701
  0
LINE
  8
_0-1_計細線
  6
CONTINUOUS
 62
    3
 10
768.43374999999708
 20
816.14961247767701
 11
761.43374999999708
 21
816.14961247767701
  0
LINE
  8
_0-1_計細線
  6
CONTINUOUS
 62
    3
 10
758.43374999999708
 20
816.14961247767701
 11
751.43374999999708
 21
816.14961247767701
  0
LINE
  8
_0-1_計細線
  6
CONTINUOUS
 62
    3
 10
748.43374999999708
 20
816.14961247767701
 11
741.43374999999708
 21
816.14961247767701
  0
LINE
  8
_0-1_計細線
  6
CONTINUOUS
 62
    3
 10
738.43374999999708
 20
816.14961247767701
 11
731.43374999999708
 21
816.14961247767701
  0
LINE
  8
_0-1_計細線
  6
CONTINUOUS
 62
    3
 10
728.43374999999708
 20
816.14961247767701
 11
721.43374999999708
 21
816.14961247767701
  0
LINE
  8
_0-1_計細線
  6
CONTINUOUS
 62
    3
 10
718.43374999999708
 20
816.14961247767701
 11
711.43374999999708
 21
816.14961247767701
  0
LINE
  8
_0-1_計細線
  6
CONTINUOUS
 62
    3
 10
708.43374999999708
 20
816.14961247767701
 11
701.43374999999708
 21
816.14961247767701
  0
LINE
  8
_0-1_計細線
  6
CONTINUOUS
 62
    3
 10
698.43374999999708
 20
816.14961247767701
 11
691.43374999999708
 21
816.14961247767701
  0
LINE
  8
_0-1_計細線
  6
CONTINUOUS
 62
    3
 10
688.43374999999708
 20
816.14961247767701
 11
681.43374999999708
 21
816.14961247767701
  0
LINE
  8
_0-1_計細線
  6
CONTINUOUS
 62
    3
 10
678.43374999999708
 20
816.14961247767701
 11
671.43374999999708
 21
816.14961247767701
  0
LINE
  8
_0-1_計細線
  6
CONTINUOUS
 62
    3
 10
668.43374999999708
 20
816.14961247767701
 11
661.43374999999708
 21
816.14961247767701
  0
LINE
  8
_0-1_計細線
  6
CONTINUOUS
 62
    3
 10
658.43374999999708
 20
816.14961247767701
 11
651.43374999999708
 21
816.14961247767701
  0
LINE
  8
_0-1_計細線
  6
CONTINUOUS
 62
    3
 10
648.43374999999708
 20
816.14961247767701
 11
641.43374999999708
 21
816.14961247767701
  0
LINE
  8
_0-1_計細線
  6
CONTINUOUS
 62
    3
 10
638.43374999999708
 20
816.14961247767701
 11
631.43374999999708
 21
816.14961247767701
  0
LINE
  8
_0-1_計細線
  6
CONTINUOUS
 62
    3
 10
628.43374999999708
 20
816.14961247767701
 11
621.43374999999708
 21
816.14961247767701
  0
LINE
  8
_0-1_計細線
  6
CONTINUOUS
 62
    3
 10
618.43374999999708
 20
816.14961247767701
 11
611.43374999999708
 21
816.14961247767701
  0
LINE
  8
_0-1_計細線
  6
CONTINUOUS
 62
    3
 10
608.43374999999708
 20
816.14961247767701
 11
601.43374999999708
 21
816.14961247767701
  0
LINE
  8
_0-1_計細線
  6
CONTINUOUS
 62
    3
 10
598.43374999999708
 20
816.14961247767701
 11
591.43374999999708
 21
816.14961247767701
  0
LINE
  8
_0-1_計細線
  6
CONTINUOUS
 62
    3
 10
588.43374999999708
 20
816.14961247767701
 11
581.43374999999708
 21
816.14961247767701
  0
LINE
  8
_0-1_計細線
  6
CONTINUOUS
 62
    3
 10
578.43374999999708
 20
816.14961247767701
 11
571.43374999999708
 21
816.14961247767701
  0
LINE
  8
_0-1_計細線
  6
CONTINUOUS
 62
    3
 10
568.43374999999708
 20
816.14961247767701
 11
561.43374999999708
 21
816.14961247767701
  0
LINE
  8
_0-1_計細線
  6
CONTINUOUS
 62
    3
 10
558.43374999999708
 20
816.14961247767701
 11
551.43374999999708
 21
816.14961247767701
  0
LINE
  8
_0-1_計細線
  6
CONTINUOUS
 62
    3
 10
548.43374999999708
 20
816.14961247767701
 11
541.43374999999708
 21
816.14961247767701
  0
LINE
  8
_0-1_計細線
  6
CONTINUOUS
 62
    3
 10
538.43374999999708
 20
816.14961247767701
 11
531.43374999999708
 21
816.14961247767701
  0
LINE
  8
_0-1_計細線
  6
CONTINUOUS
 62
    3
 10
528.43374999999708
 20
816.14961247767701
 11
521.43374999999708
 21
816.14961247767701
  0
LINE
  8
_0-1_計細線
  6
CONTINUOUS
 62
    3
 10
518.43374999999708
 20
816.14961247767701
 11
511.43374999999708
 21
816.14961247767701
  0
LINE
  8
_0-1_計細線
  6
CONTINUOUS
 62
    3
 10
508.43374999999708
 20
816.14961247767701
 11
501.43374999999708
 21
816.14961247767701
  0
LINE
  8
_0-1_計細線
  6
CONTINUOUS
 62
    3
 10
498.43374999999708
 20
816.14961247767701
 11
491.43374999999708
 21
816.14961247767701
  0
LINE
  8
_0-1_計細線
  6
CONTINUOUS
 62
    3
 10
488.43374999999708
 20
816.14961247767701
 11
481.43374999999708
 21
816.14961247767701
  0
LINE
  8
_0-1_計細線
  6
CONTINUOUS
 62
    3
 10
478.43374999999708
 20
816.14961247767701
 11
471.43374999999708
 21
816.14961247767701
  0
LINE
  8
_0-1_計細線
  6
CONTINUOUS
 62
    3
 10
468.43374999999708
 20
816.14961247767701
 11
461.43374999999708
 21
816.14961247767701
  0
LINE
  8
_0-1_計細線
  6
CONTINUOUS
 62
    3
 10
458.43374999999708
 20
816.14961247767701
 11
451.43374999999708
 21
816.14961247767701
  0
LINE
  8
_0-1_計細線
  6
CONTINUOUS
 62
    3
 10
448.43374999999708
 20
816.14961247767701
 11
441.43374999999708
 21
816.14961247767701
  0
LINE
  8
_0-1_計細線
  6
CONTINUOUS
 62
    3
 10
438.43374999999708
 20
816.14961247767701
 11
431.43374999999708
 21
816.14961247767701
  0
LINE
  8
_0-1_計細線
  6
CONTINUOUS
 62
    3
 10
428.43374999999708
 20
816.14961247767701
 11
421.43374999999708
 21
816.14961247767701
  0
LINE
  8
_0-1_計細線
  6
CONTINUOUS
 62
    3
 10
418.43374999999708
 20
816.14961247767701
 11
411.43374999999708
 21
816.14961247767701
  0
LINE
  8
_0-1_計細線
  6
CONTINUOUS
 62
    3
 10
408.43374999999708
 20
816.14961247767701
 11
401.43374999999708
 21
816.14961247767701
  0
LINE
  8
_0-1_計細線
  6
CONTINUOUS
 62
    3
 10
398.43374999999696
 20
816.14961247767701
 11
391.43374999999702
 21
816.14961247767701
  0
LINE
  8
_0-1_計細線
  6
CONTINUOUS
 62
    3
 10
388.43374999999696
 20
816.14961247767701
 11
381.43374999999702
 21
816.14961247767701
  0
LINE
  8
_0-1_計細線
  6
CONTINUOUS
 62
    3
 10
378.43374999999696
 20
816.14961247767701
 11
371.43374999999702
 21
816.14961247767701
  0
LINE
  8
_0-1_計細線
  6
CONTINUOUS
 62
    3
 10
368.43374999999696
 20
816.14961247767701
 11
361.43374999999702
 21
816.14961247767701
  0
LINE
  8
_0-1_計細線
  6
CONTINUOUS
 62
    3
 10
358.43374999999696
 20
816.14961247767701
 11
351.43374999999702
 21
816.14961247767701
  0
LINE
  8
_0-1_計細線
  6
CONTINUOUS
 62
    3
 10
348.43374999999696
 20
816.14961247767701
 11
341.43374999999702
 21
816.14961247767701
  0
LINE
  8
_0-1_計細線
  6
CONTINUOUS
 62
    3
 10
338.43374999999696
 20
816.14961247767701
 11
331.43374999999702
 21
816.14961247767701
  0
LINE
  8
_0-1_計細線
  6
CONTINUOUS
 62
    3
 10
328.43374999999696
 20
816.14961247767701
 11
321.43374999999702
 21
816.14961247767701
  0
LINE
  8
_0-1_計細線
  6
CONTINUOUS
 62
    3
 10
318.43374999999696
 20
816.14961247767701
 11
311.43374999999696
 21
816.14961247767701
  0
LINE
  8
_0-1_計細線
  6
CONTINUOUS
 62
    3
 10
308.43374999999696
 20
816.14961247767701
 11
301.43374999999696
 21
816.14961247767701
  0
LINE
  8
_0-1_計細線
  6
CONTINUOUS
 62
    3
 10
298.43374999999696
 20
816.14961247767701
 11
291.43374999999696
 21
816.14961247767701
  0
LINE
  8
_0-1_計細線
  6
CONTINUOUS
 62
    3
 10
288.43374999999696
 20
816.14961247767701
 11
281.43374999999696
 21
816.14961247767701
  0
LINE
  8
_0-1_計細線
  6
CONTINUOUS
 62
    3
 10
278.43374999999696
 20
816.14961247767701
 11
271.43374999999696
 21
816.14961247767701
  0
LINE
  8
_0-1_計細線
  6
CONTINUOUS
 62
    3
 10
268.43374999999696
 20
816.14961247767701
 11
261.43374999999696
 21
816.14961247767701
  0
LINE
  8
_0-1_計細線
  6
CONTINUOUS
 62
    3
 10
258.43374999999696
 20
816.14961247767701
 11
251.43374999999693
 21
816.14961247767701
  0
LINE
  8
_0-1_計細線
  6
CONTINUOUS
 62
    3
 10
248.43374999999696
 20
816.14961247767701
 11
241.43374999999693
 21
816.14961247767701
  0
LINE
  8
_0-1_計細線
  6
CONTINUOUS
 62
    3
 10
238.43374999999696
 20
816.14961247767701
 11
231.43374999999693
 21
816.14961247767701
  0
LINE
  8
_0-1_計細線
  6
CONTINUOUS
 62
    3
 10
228.43374999999696
 20
816.14961247767701
 11
200.43374999999699
 21
816.14961247767701
  0
LINE
  8
_0-1_計細線
  6
CONTINUOUS
 62
    3
 10
1221.433749999997
 20
816.14961247767701
 11
1249.433749999997
 21
816.14961247767701
  0
LINE
  8
_0-1_計細線
  6
CONTINUOUS
 62
    3
 10
201.74584238552185
 20
843.14961247767701
 11
1250.7458423855219
 21
843.14961247767701
  0
LINE
  8
_0-1_計細線
  6
CONTINUOUS
 62
    3
 10
200.43374999999699
 20
846.14961247767701
 11
1249.433749999997
 21
846.14961247767701
  0
ARC
  8
_0-0_計極細
  6
CONTINUOUS
 62
    2
 10
1236.4433689431858
 20
838.64961247767246
 40
15.000000000036371
 50
330.00000000009993
 51
29.999999999930402
  0
ARC
  8
_0-0_計極細
  6
CONTINUOUS
 62
    2
 10
1262.4241310567527
 20
823.64961247768838
 40
14.999999999996563
 50
150.00000000001793
 51
210.00000000005798
  0
ARC
  8
_0-0_計極細
  6
CONTINUOUS
 62
    2
 10
187.44336894323942
 20
838.64961247768065
 40
14.999999999993854
 50
329.99999999997038
 51
30.000000000005667
  0
ARC
  8
_0-0_計極細
  6
CONTINUOUS
 62
    2
 10
213.42413105674814
 20
823.64961247768065
 40
14.999999999988354
 50
149.99999999998181
 51
210.00000000004107
  0
LINE
  8
_0-0_計極細
  6
CONTINUOUS
 62
    2
 10
1211.433749999997
 20
563.64961247767599
 11
1218.433749999997
 21
563.64961247767599
  0
LINE
  8
_0-0_計極細
  6
CONTINUOUS
 62
    2
 10
1211.433749999997
 20
568.64961247767599
 11
1218.433749999997
 21
568.64961247767599
  0
LINE
  8
_0-0_計極細
  6
CONTINUOUS
 62
    2
 10
1201.433749999997
 20
563.64961247767599
 11
1208.433749999997
 21
563.64961247767599
  0
LINE
  8
_0-0_計極細
  6
CONTINUOUS
 62
    2
 10
1201.433749999997
 20
568.64961247767599
 11
1208.433749999997
 21
568.64961247767599
  0
LINE
  8
_0-0_計極細
  6
CONTINUOUS
 62
    2
 10
1191.433749999997
 20
563.64961247767599
 11
1198.433749999997
 21
563.64961247767599
  0
LINE
  8
_0-0_計極細
  6
CONTINUOUS
 62
    2
 10
1191.433749999997
 20
568.64961247767599
 11
1198.433749999997
 21
568.64961247767599
  0
LINE
  8
_0-0_計極細
  6
CONTINUOUS
 62
    2
 10
1181.433749999997
 20
563.64961247767599
 11
1188.433749999997
 21
563.64961247767599
  0
LINE
  8
_0-0_計極細
  6
CONTINUOUS
 62
    2
 10
1181.433749999997
 20
568.64961247767599
 11
1188.433749999997
 21
568.64961247767599
  0
LINE
  8
_0-0_計極細
  6
CONTINUOUS
 62
    2
 10
1171.433749999997
 20
563.64961247767599
 11
1178.433749999997
 21
563.64961247767599
  0
LINE
  8
_0-0_計極細
  6
CONTINUOUS
 62
    2
 10
1171.433749999997
 20
568.64961247767599
 11
1178.433749999997
 21
568.64961247767599
  0
LINE
  8
_0-0_計極細
  6
CONTINUOUS
 62
    2
 10
1161.433749999997
 20
563.64961247767599
 11
1168.433749999997
 21
563.64961247767599
  0
LINE
  8
_0-0_計極細
  6
CONTINUOUS
 62
    2
 10
1161.433749999997
 20
568.64961247767599
 11
1168.433749999997
 21
568.64961247767599
  0
LINE
  8
_0-0_計極細
  6
CONTINUOUS
 62
    2
 10
1151.433749999997
 20
563.64961247767599
 11
1158.433749999997
 21
563.64961247767599
  0
LINE
  8
_0-0_計極細
  6
CONTINUOUS
 62
    2
 10
1151.433749999997
 20
568.64961247767599
 11
1158.433749999997
 21
568.64961247767599
  0
LINE
  8
_0-0_計極細
  6
CONTINUOUS
 62
    2
 10
1141.433749999997
 20
563.64961247767599
 11
1148.433749999997
 21
563.64961247767599
  0
LINE
  8
_0-0_計極細
  6
CONTINUOUS
 62
    2
 10
1141.433749999997
 20
568.64961247767599
 11
1148.433749999997
 21
568.64961247767599
  0
LINE
  8
_0-0_計極細
  6
CONTINUOUS
 62
    2
 10
1131.433749999997
 20
563.64961247767599
 11
1138.433749999997
 21
563.64961247767599
  0
LINE
  8
_0-0_計極細
  6
CONTINUOUS
 62
    2
 10
1131.433749999997
 20
568.64961247767599
 11
1138.433749999997
 21
568.64961247767599
  0
LINE
  8
_0-0_計極細
  6
CONTINUOUS
 62
    2
 10
1121.433749999997
 20
563.64961247767599
 11
1128.433749999997
 21
563.64961247767599
  0
LINE
  8
_0-0_計極細
  6
CONTINUOUS
 62
    2
 10
1121.433749999997
 20
568.64961247767599
 11
1128.433749999997
 21
568.64961247767599
  0
LINE
  8
_0-0_計極細
  6
CONTINUOUS
 62
    2
 10
1111.433749999997
 20
563.64961247767599
 11
1118.433749999997
 21
563.64961247767599
  0
LINE
  8
_0-0_計極細
  6
CONTINUOUS
 62
    2
 10
1111.433749999997
 20
568.64961247767599
 11
1118.433749999997
 21
568.64961247767599
  0
LINE
  8
_0-0_計極細
  6
CONTINUOUS
 62
    2
 10
1101.433749999997
 20
563.64961247767599
 11
1108.433749999997
 21
563.64961247767599
  0
LINE
  8
_0-0_計極細
  6
CONTINUOUS
 62
    2
 10
1101.433749999997
 20
568.64961247767599
 11
1108.433749999997
 21
568.64961247767599
  0
LINE
  8
_0-0_計極細
  6
CONTINUOUS
 62
    2
 10
1091.433749999997
 20
563.64961247767599
 11
1098.433749999997
 21
563.64961247767599
  0
LINE
  8
_0-0_計極細
  6
CONTINUOUS
 62
    2
 10
1091.433749999997
 20
568.64961247767599
 11
1098.433749999997
 21
568.64961247767599
  0
LINE
  8
_0-0_計極細
  6
CONTINUOUS
 62
    2
 10
1081.433749999997
 20
563.64961247767599
 11
1088.433749999997
 21
563.64961247767599
  0
LINE
  8
_0-0_計極細
  6
CONTINUOUS
 62
    2
 10
1081.433749999997
 20
568.64961247767599
 11
1088.433749999997
 21
568.64961247767599
  0
LINE
  8
_0-0_計極細
  6
CONTINUOUS
 62
    2
 10
1071.433749999997
 20
563.64961247767599
 11
1078.433749999997
 21
563.64961247767599
  0
LINE
  8
_0-0_計極細
  6
CONTINUOUS
 62
    2
 10
1071.433749999997
 20
568.64961247767599
 11
1078.433749999997
 21
568.64961247767599
  0
LINE
  8
_0-0_計極細
  6
CONTINUOUS
 62
    2
 10
1061.433749999997
 20
563.64961247767599
 11
1068.433749999997
 21
563.64961247767599
  0
LINE
  8
_0-0_計極細
  6
CONTINUOUS
 62
    2
 10
1061.433749999997
 20
568.64961247767599
 11
1068.433749999997
 21
568.64961247767599
  0
LINE
  8
_0-0_計極細
  6
CONTINUOUS
 62
    2
 10
1051.433749999997
 20
563.64961247767599
 11
1058.433749999997
 21
563.64961247767599
  0
LINE
  8
_0-0_計極細
  6
CONTINUOUS
 62
    2
 10
1051.433749999997
 20
568.64961247767599
 11
1058.433749999997
 21
568.64961247767599
  0
LINE
  8
_0-0_計極細
  6
CONTINUOUS
 62
    2
 10
1041.433749999997
 20
563.64961247767599
 11
1048.433749999997
 21
563.64961247767599
  0
LINE
  8
_0-0_計極細
  6
CONTINUOUS
 62
    2
 10
1041.433749999997
 20
568.64961247767599
 11
1048.433749999997
 21
568.64961247767599
  0
LINE
  8
_0-0_計極細
  6
CONTINUOUS
 62
    2
 10
1031.433749999997
 20
563.64961247767599
 11
1038.433749999997
 21
563.64961247767599
  0
LINE
  8
_0-0_計極細
  6
CONTINUOUS
 62
    2
 10
1031.433749999997
 20
568.64961247767599
 11
1038.433749999997
 21
568.64961247767599
  0
LINE
  8
_0-0_計極細
  6
CONTINUOUS
 62
    2
 10
1021.4337499999971
 20
563.64961247767599
 11
1028.433749999997
 21
563.64961247767599
  0
LINE
  8
_0-0_計極細
  6
CONTINUOUS
 62
    2
 10
1021.4337499999971
 20
568.64961247767599
 11
1028.433749999997
 21
568.64961247767599
  0
LINE
  8
_0-0_計極細
  6
CONTINUOUS
 62
    2
 10
1011.4337499999971
 20
563.64961247767599
 11
1018.4337499999971
 21
563.64961247767599
  0
LINE
  8
_0-0_計極細
  6
CONTINUOUS
 62
    2
 10
1011.4337499999971
 20
568.64961247767599
 11
1018.4337499999971
 21
568.64961247767599
  0
LINE
  8
_0-0_計極細
  6
CONTINUOUS
 62
    2
 10
1001.4337499999971
 20
563.64961247767599
 11
1008.4337499999971
 21
563.64961247767599
  0
LINE
  8
_0-0_計極細
  6
CONTINUOUS
 62
    2
 10
1001.4337499999971
 20
568.64961247767599
 11
1008.4337499999971
 21
568.64961247767599
  0
LINE
  8
_0-0_計極細
  6
CONTINUOUS
 62
    2
 10
991.43374999999708
 20
563.64961247767599
 11
998.43374999999708
 21
563.64961247767599
  0
LINE
  8
_0-0_計極細
  6
CONTINUOUS
 62
    2
 10
991.43374999999708
 20
568.64961247767599
 11
998.43374999999708
 21
568.64961247767599
  0
LINE
  8
_0-0_計極細
  6
CONTINUOUS
 62
    2
 10
981.43374999999708
 20
563.64961247767599
 11
988.43374999999708
 21
563.64961247767599
  0
LINE
  8
_0-0_計極細
  6
CONTINUOUS
 62
    2
 10
981.43374999999708
 20
568.64961247767599
 11
988.43374999999708
 21
568.64961247767599
  0
LINE
  8
_0-0_計極細
  6
CONTINUOUS
 62
    2
 10
971.43374999999708
 20
563.64961247767599
 11
978.43374999999708
 21
563.64961247767599
  0
LINE
  8
_0-0_計極細
  6
CONTINUOUS
 62
    2
 10
971.43374999999708
 20
568.64961247767599
 11
978.43374999999708
 21
568.64961247767599
  0
LINE
  8
_0-0_計極細
  6
CONTINUOUS
 62
    2
 10
961.43374999999708
 20
563.64961247767599
 11
968.43374999999708
 21
563.64961247767599
  0
LINE
  8
_0-0_計極細
  6
CONTINUOUS
 62
    2
 10
961.43374999999708
 20
568.64961247767599
 11
968.43374999999708
 21
568.64961247767599
  0
LINE
  8
_0-0_計極細
  6
CONTINUOUS
 62
    2
 10
951.43374999999708
 20
563.64961247767599
 11
958.43374999999708
 21
563.64961247767599
  0
LINE
  8
_0-0_計極細
  6
CONTINUOUS
 62
    2
 10
951.43374999999708
 20
568.64961247767599
 11
958.43374999999708
 21
568.64961247767599
  0
LINE
  8
_0-0_計極細
  6
CONTINUOUS
 62
    2
 10
941.43374999999708
 20
563.64961247767599
 11
948.43374999999708
 21
563.64961247767599
  0
LINE
  8
_0-0_計極細
  6
CONTINUOUS
 62
    2
 10
941.43374999999708
 20
568.64961247767599
 11
948.43374999999708
 21
568.64961247767599
  0
LINE
  8
_0-0_計極細
  6
CONTINUOUS
 62
    2
 10
931.43374999999708
 20
563.64961247767599
 11
938.43374999999708
 21
563.64961247767599
  0
LINE
  8
_0-0_計極細
  6
CONTINUOUS
 62
    2
 10
931.43374999999708
 20
568.64961247767599
 11
938.43374999999708
 21
568.64961247767599
  0
LINE
  8
_0-0_計極細
  6
CONTINUOUS
 62
    2
 10
921.43374999999708
 20
563.64961247767599
 11
928.43374999999708
 21
563.64961247767599
  0
LINE
  8
_0-0_計極細
  6
CONTINUOUS
 62
    2
 10
921.43374999999708
 20
568.64961247767599
 11
928.43374999999708
 21
568.64961247767599
  0
LINE
  8
_0-0_計極細
  6
CONTINUOUS
 62
    2
 10
911.43374999999708
 20
563.64961247767599
 11
918.43374999999708
 21
563.64961247767599
  0
LINE
  8
_0-0_計極細
  6
CONTINUOUS
 62
    2
 10
911.43374999999708
 20
568.64961247767599
 11
918.43374999999708
 21
568.64961247767599
  0
LINE
  8
_0-0_計極細
  6
CONTINUOUS
 62
    2
 10
901.43374999999708
 20
563.64961247767599
 11
908.43374999999708
 21
563.64961247767599
  0
LINE
  8
_0-0_計極細
  6
CONTINUOUS
 62
    2
 10
901.43374999999708
 20
568.64961247767599
 11
908.43374999999708
 21
568.64961247767599
  0
LINE
  8
_0-0_計極細
  6
CONTINUOUS
 62
    2
 10
891.43374999999708
 20
563.64961247767599
 11
898.43374999999708
 21
563.64961247767599
  0
LINE
  8
_0-0_計極細
  6
CONTINUOUS
 62
    2
 10
891.43374999999708
 20
568.64961247767599
 11
898.43374999999708
 21
568.64961247767599
  0
LINE
  8
_0-0_計極細
  6
CONTINUOUS
 62
    2
 10
881.43374999999708
 20
563.64961247767599
 11
888.43374999999708
 21
563.64961247767599
  0
LINE
  8
_0-0_計極細
  6
CONTINUOUS
 62
    2
 10
881.43374999999708
 20
568.64961247767599
 11
888.43374999999708
 21
568.64961247767599
  0
LINE
  8
_0-0_計極細
  6
CONTINUOUS
 62
    2
 10
871.43374999999708
 20
563.64961247767599
 11
878.43374999999708
 21
563.64961247767599
  0
LINE
  8
_0-0_計極細
  6
CONTINUOUS
 62
    2
 10
871.43374999999708
 20
568.64961247767599
 11
878.43374999999708
 21
568.64961247767599
  0
LINE
  8
_0-0_計極細
  6
CONTINUOUS
 62
    2
 10
861.43374999999708
 20
563.64961247767599
 11
868.43374999999708
 21
563.64961247767599
  0
LINE
  8
_0-0_計極細
  6
CONTINUOUS
 62
    2
 10
861.43374999999708
 20
568.64961247767599
 11
868.43374999999708
 21
568.64961247767599
  0
LINE
  8
_0-0_計極細
  6
CONTINUOUS
 62
    2
 10
851.43374999999708
 20
563.64961247767599
 11
858.43374999999708
 21
563.64961247767599
  0
LINE
  8
_0-0_計極細
  6
CONTINUOUS
 62
    2
 10
851.43374999999708
 20
568.64961247767599
 11
858.43374999999708
 21
568.64961247767599
  0
LINE
  8
_0-0_計極細
  6
CONTINUOUS
 62
    2
 10
841.43374999999708
 20
563.64961247767599
 11
848.43374999999708
 21
563.64961247767599
  0
LINE
  8
_0-0_計極細
  6
CONTINUOUS
 62
    2
 10
841.43374999999708
 20
568.64961247767599
 11
848.43374999999708
 21
568.64961247767599
  0
LINE
  8
_0-0_計極細
  6
CONTINUOUS
 62
    2
 10
831.43374999999708
 20
563.64961247767599
 11
838.43374999999708
 21
563.64961247767599
  0
LINE
  8
_0-0_計極細
  6
CONTINUOUS
 62
    2
 10
831.43374999999708
 20
568.64961247767599
 11
838.43374999999708
 21
568.64961247767599
  0
LINE
  8
_0-0_計極細
  6
CONTINUOUS
 62
    2
 10
821.43374999999708
 20
563.64961247767599
 11
828.43374999999708
 21
563.64961247767599
  0
LINE
  8
_0-0_計極細
  6
CONTINUOUS
 62
    2
 10
821.43374999999708
 20
568.64961247767599
 11
828.43374999999708
 21
568.64961247767599
  0
LINE
  8
_0-0_計極細
  6
CONTINUOUS
 62
    2
 10
811.43374999999708
 20
563.64961247767599
 11
818.43374999999708
 21
563.64961247767599
  0
LINE
  8
_0-0_計極細
  6
CONTINUOUS
 62
    2
 10
811.43374999999708
 20
568.64961247767599
 11
818.43374999999708
 21
568.64961247767599
  0
LINE
  8
_0-0_計極細
  6
CONTINUOUS
 62
    2
 10
801.43374999999708
 20
563.64961247767599
 11
808.43374999999708
 21
563.64961247767599
  0
LINE
  8
_0-0_計極細
  6
CONTINUOUS
 62
    2
 10
801.43374999999708
 20
568.64961247767599
 11
808.43374999999708
 21
568.64961247767599
  0
LINE
  8
_0-0_計極細
  6
CONTINUOUS
 62
    2
 10
791.43374999999708
 20
563.64961247767599
 11
798.43374999999708
 21
563.64961247767599
  0
LINE
  8
_0-0_計極細
  6
CONTINUOUS
 62
    2
 10
791.43374999999708
 20
568.64961247767599
 11
798.43374999999708
 21
568.64961247767599
  0
LINE
  8
_0-0_計極細
  6
CONTINUOUS
 62
    2
 10
781.43374999999708
 20
563.64961247767599
 11
788.43374999999708
 21
563.64961247767599
  0
LINE
  8
_0-0_計極細
  6
CONTINUOUS
 62
    2
 10
781.43374999999708
 20
568.64961247767599
 11
788.43374999999708
 21
568.64961247767599
  0
LINE
  8
_0-0_計極細
  6
CONTINUOUS
 62
    2
 10
771.43374999999708
 20
563.64961247767599
 11
778.43374999999708
 21
563.64961247767599
  0
LINE
  8
_0-0_計極細
  6
CONTINUOUS
 62
    2
 10
771.43374999999708
 20
568.64961247767599
 11
778.43374999999708
 21
568.64961247767599
  0
LINE
  8
_0-0_計極細
  6
CONTINUOUS
 62
    2
 10
761.43374999999708
 20
563.64961247767599
 11
768.43374999999708
 21
563.64961247767599
  0
LINE
  8
_0-0_計極細
  6
CONTINUOUS
 62
    2
 10
761.43374999999708
 20
568.64961247767599
 11
768.43374999999708
 21
568.64961247767599
  0
LINE
  8
_0-0_計極細
  6
CONTINUOUS
 62
    2
 10
751.43374999999708
 20
563.64961247767599
 11
758.43374999999708
 21
563.64961247767599
  0
LINE
  8
_0-0_計極細
  6
CONTINUOUS
 62
    2
 10
751.43374999999708
 20
568.64961247767599
 11
758.43374999999708
 21
568.64961247767599
  0
LINE
  8
_0-0_計極細
  6
CONTINUOUS
 62
    2
 10
741.43374999999708
 20
563.64961247767599
 11
748.43374999999708
 21
563.64961247767599
  0
LINE
  8
_0-0_計極細
  6
CONTINUOUS
 62
    2
 10
741.43374999999708
 20
568.64961247767599
 11
748.43374999999708
 21
568.64961247767599
  0
LINE
  8
_0-0_計極細
  6
CONTINUOUS
 62
    2
 10
731.43374999999708
 20
563.64961247767599
 11
738.43374999999708
 21
563.64961247767599
  0
LINE
  8
_0-0_計極細
  6
CONTINUOUS
 62
    2
 10
731.43374999999708
 20
568.64961247767599
 11
738.43374999999708
 21
568.64961247767599
  0
LINE
  8
_0-0_計極細
  6
CONTINUOUS
 62
    2
 10
721.43374999999708
 20
563.64961247767599
 11
728.43374999999708
 21
563.64961247767599
  0
LINE
  8
_0-0_計極細
  6
CONTINUOUS
 62
    2
 10
721.43374999999708
 20
568.64961247767599
 11
728.43374999999708
 21
568.64961247767599
  0
LINE
  8
_0-0_計極細
  6
CONTINUOUS
 62
    2
 10
711.43374999999708
 20
563.64961247767599
 11
718.43374999999708
 21
563.64961247767599
  0
LINE
  8
_0-0_計極細
  6
CONTINUOUS
 62
    2
 10
711.43374999999708
 20
568.64961247767599
 11
718.43374999999708
 21
568.64961247767599
  0
LINE
  8
_0-0_計極細
  6
CONTINUOUS
 62
    2
 10
701.43374999999708
 20
563.64961247767599
 11
708.43374999999708
 21
563.64961247767599
  0
LINE
  8
_0-0_計極細
  6
CONTINUOUS
 62
    2
 10
701.43374999999708
 20
568.64961247767599
 11
708.43374999999708
 21
568.64961247767599
  0
LINE
  8
_0-0_計極細
  6
CONTINUOUS
 62
    2
 10
691.43374999999708
 20
563.64961247767599
 11
698.43374999999708
 21
563.64961247767599
  0
LINE
  8
_0-0_計極細
  6
CONTINUOUS
 62
    2
 10
691.43374999999708
 20
568.64961247767599
 11
698.43374999999708
 21
568.64961247767599
  0
LINE
  8
_0-0_計極細
  6
CONTINUOUS
 62
    2
 10
681.43374999999708
 20
563.64961247767599
 11
688.43374999999708
 21
563.64961247767599
  0
LINE
  8
_0-0_計極細
  6
CONTINUOUS
 62
    2
 10
681.43374999999708
 20
568.64961247767599
 11
688.43374999999708
 21
568.64961247767599
  0
LINE
  8
_0-0_計極細
  6
CONTINUOUS
 62
    2
 10
671.43374999999708
 20
563.64961247767599
 11
678.43374999999708
 21
563.64961247767599
  0
LINE
  8
_0-0_計極細
  6
CONTINUOUS
 62
    2
 10
671.43374999999708
 20
568.64961247767599
 11
678.43374999999708
 21
568.64961247767599
  0
LINE
  8
_0-0_計極細
  6
CONTINUOUS
 62
    2
 10
661.43374999999708
 20
563.64961247767599
 11
668.43374999999708
 21
563.64961247767599
  0
LINE
  8
_0-0_計極細
  6
CONTINUOUS
 62
    2
 10
661.43374999999708
 20
568.64961247767599
 11
668.43374999999708
 21
568.64961247767599
  0
LINE
  8
_0-0_計極細
  6
CONTINUOUS
 62
    2
 10
651.43374999999708
 20
563.64961247767599
 11
658.43374999999708
 21
563.64961247767599
  0
LINE
  8
_0-0_計極細
  6
CONTINUOUS
 62
    2
 10
651.43374999999708
 20
568.64961247767599
 11
658.43374999999708
 21
568.64961247767599
  0
LINE
  8
_0-0_計極細
  6
CONTINUOUS
 62
    2
 10
641.43374999999708
 20
563.64961247767599
 11
648.43374999999708
 21
563.64961247767599
  0
LINE
  8
_0-0_計極細
  6
CONTINUOUS
 62
    2
 10
641.43374999999708
 20
568.64961247767599
 11
648.43374999999708
 21
568.64961247767599
  0
LINE
  8
_0-0_計極細
  6
CONTINUOUS
 62
    2
 10
631.43374999999708
 20
563.64961247767599
 11
638.43374999999708
 21
563.64961247767599
  0
LINE
  8
_0-0_計極細
  6
CONTINUOUS
 62
    2
 10
631.43374999999708
 20
568.64961247767599
 11
638.43374999999708
 21
568.64961247767599
  0
LINE
  8
_0-0_計極細
  6
CONTINUOUS
 62
    2
 10
621.43374999999708
 20
563.64961247767599
 11
628.43374999999708
 21
563.64961247767599
  0
LINE
  8
_0-0_計極細
  6
CONTINUOUS
 62
    2
 10
621.43374999999708
 20
568.64961247767599
 11
628.43374999999708
 21
568.64961247767599
  0
LINE
  8
_0-0_計極細
  6
CONTINUOUS
 62
    2
 10
611.43374999999708
 20
563.64961247767599
 11
618.43374999999708
 21
563.64961247767599
  0
LINE
  8
_0-0_計極細
  6
CONTINUOUS
 62
    2
 10
611.43374999999708
 20
568.64961247767599
 11
618.43374999999708
 21
568.64961247767599
  0
LINE
  8
_0-0_計極細
  6
CONTINUOUS
 62
    2
 10
601.43374999999708
 20
563.64961247767599
 11
608.43374999999708
 21
563.64961247767599
  0
LINE
  8
_0-0_計極細
  6
CONTINUOUS
 62
    2
 10
601.43374999999708
 20
568.64961247767599
 11
608.43374999999708
 21
568.64961247767599
  0
LINE
  8
_0-0_計極細
  6
CONTINUOUS
 62
    2
 10
591.43374999999708
 20
563.64961247767599
 11
598.43374999999708
 21
563.64961247767599
  0
LINE
  8
_0-0_計極細
  6
CONTINUOUS
 62
    2
 10
591.43374999999708
 20
568.64961247767599
 11
598.43374999999708
 21
568.64961247767599
  0
LINE
  8
_0-0_計極細
  6
CONTINUOUS
 62
    2
 10
581.43374999999708
 20
563.64961247767599
 11
588.43374999999708
 21
563.64961247767599
  0
LINE
  8
_0-0_計極細
  6
CONTINUOUS
 62
    2
 10
581.43374999999708
 20
568.64961247767599
 11
588.43374999999708
 21
568.64961247767599
  0
LINE
  8
_0-0_計極細
  6
CONTINUOUS
 62
    2
 10
571.43374999999708
 20
563.64961247767599
 11
578.43374999999708
 21
563.64961247767599
  0
LINE
  8
_0-0_計極細
  6
CONTINUOUS
 62
    2
 10
571.43374999999708
 20
568.64961247767599
 11
578.43374999999708
 21
568.64961247767599
  0
LINE
  8
_0-0_計極細
  6
CONTINUOUS
 62
    2
 10
561.43374999999708
 20
563.64961247767599
 11
568.43374999999708
 21
563.64961247767599
  0
LINE
  8
_0-0_計極細
  6
CONTINUOUS
 62
    2
 10
561.43374999999708
 20
568.64961247767599
 11
568.43374999999708
 21
568.64961247767599
  0
LINE
  8
_0-0_計極細
  6
CONTINUOUS
 62
    2
 10
551.43374999999708
 20
563.64961247767599
 11
558.43374999999708
 21
563.64961247767599
  0
LINE
  8
_0-0_計極細
  6
CONTINUOUS
 62
    2
 10
551.43374999999708
 20
568.64961247767599
 11
558.43374999999708
 21
568.64961247767599
  0
LINE
  8
_0-0_計極細
  6
CONTINUOUS
 62
    2
 10
541.43374999999708
 20
563.64961247767599
 11
548.43374999999708
 21
563.64961247767599
  0
LINE
  8
_0-0_計極細
  6
CONTINUOUS
 62
    2
 10
541.43374999999708
 20
568.64961247767599
 11
548.43374999999708
 21
568.64961247767599
  0
LINE
  8
_0-0_計極細
  6
CONTINUOUS
 62
    2
 10
531.43374999999708
 20
563.64961247767599
 11
538.43374999999708
 21
563.64961247767599
  0
LINE
  8
_0-0_計極細
  6
CONTINUOUS
 62
    2
 10
531.43374999999708
 20
568.64961247767599
 11
538.43374999999708
 21
568.64961247767599
  0
LINE
  8
_0-0_計極細
  6
CONTINUOUS
 62
    2
 10
521.43374999999708
 20
563.64961247767599
 11
528.43374999999708
 21
563.64961247767599
  0
LINE
  8
_0-0_計極細
  6
CONTINUOUS
 62
    2
 10
521.43374999999708
 20
568.64961247767599
 11
528.43374999999708
 21
568.64961247767599
  0
LINE
  8
_0-0_計極細
  6
CONTINUOUS
 62
    2
 10
511.43374999999708
 20
563.64961247767599
 11
518.43374999999708
 21
563.64961247767599
  0
LINE
  8
_0-0_計極細
  6
CONTINUOUS
 62
    2
 10
511.43374999999708
 20
568.64961247767599
 11
518.43374999999708
 21
568.64961247767599
  0
LINE
  8
_0-0_計極細
  6
CONTINUOUS
 62
    2
 10
501.43374999999708
 20
563.64961247767599
 11
508.43374999999708
 21
563.64961247767599
  0
LINE
  8
_0-0_計極細
  6
CONTINUOUS
 62
    2
 10
501.43374999999708
 20
568.64961247767599
 11
508.43374999999708
 21
568.64961247767599
  0
LINE
  8
_0-0_計極細
  6
CONTINUOUS
 62
    2
 10
491.43374999999708
 20
563.64961247767599
 11
498.43374999999708
 21
563.64961247767599
  0
LINE
  8
_0-0_計極細
  6
CONTINUOUS
 62
    2
 10
491.43374999999708
 20
568.64961247767599
 11
498.43374999999708
 21
568.64961247767599
  0
LINE
  8
_0-0_計極細
  6
CONTINUOUS
 62
    2
 10
481.43374999999708
 20
563.64961247767599
 11
488.43374999999708
 21
563.64961247767599
  0
LINE
  8
_0-0_計極細
  6
CONTINUOUS
 62
    2
 10
481.43374999999708
 20
568.64961247767599
 11
488.43374999999708
 21
568.64961247767599
  0
LINE
  8
_0-0_計極細
  6
CONTINUOUS
 62
    2
 10
471.43374999999708
 20
563.64961247767599
 11
478.43374999999708
 21
563.64961247767599
  0
LINE
  8
_0-0_計極細
  6
CONTINUOUS
 62
    2
 10
471.43374999999708
 20
568.64961247767599
 11
478.43374999999708
 21
568.64961247767599
  0
LINE
  8
_0-0_計極細
  6
CONTINUOUS
 62
    2
 10
461.43374999999708
 20
563.64961247767599
 11
468.43374999999708
 21
563.64961247767599
  0
LINE
  8
_0-0_計極細
  6
CONTINUOUS
 62
    2
 10
461.43374999999708
 20
568.64961247767599
 11
468.43374999999708
 21
568.64961247767599
  0
LINE
  8
_0-0_計極細
  6
CONTINUOUS
 62
    2
 10
451.43374999999708
 20
563.64961247767599
 11
458.43374999999708
 21
563.64961247767599
  0
LINE
  8
_0-0_計極細
  6
CONTINUOUS
 62
    2
 10
451.43374999999708
 20
568.64961247767599
 11
458.43374999999708
 21
568.64961247767599
  0
LINE
  8
_0-0_計極細
  6
CONTINUOUS
 62
    2
 10
441.43374999999708
 20
563.64961247767599
 11
448.43374999999708
 21
563.64961247767599
  0
LINE
  8
_0-0_計極細
  6
CONTINUOUS
 62
    2
 10
441.43374999999708
 20
568.64961247767599
 11
448.43374999999708
 21
568.64961247767599
  0
LINE
  8
_0-0_計極細
  6
CONTINUOUS
 62
    2
 10
431.43374999999708
 20
563.64961247767599
 11
438.43374999999708
 21
563.64961247767599
  0
LINE
  8
_0-0_計極細
  6
CONTINUOUS
 62
    2
 10
431.43374999999708
 20
568.64961247767599
 11
438.43374999999708
 21
568.64961247767599
  0
LINE
  8
_0-0_計極細
  6
CONTINUOUS
 62
    2
 10
421.43374999999708
 20
563.64961247767599
 11
428.43374999999708
 21
563.64961247767599
  0
LINE
  8
_0-0_計極細
  6
CONTINUOUS
 62
    2
 10
421.43374999999708
 20
568.64961247767599
 11
428.43374999999708
 21
568.64961247767599
  0
LINE
  8
_0-0_計極細
  6
CONTINUOUS
 62
    2
 10
411.43374999999708
 20
563.64961247767599
 11
418.43374999999708
 21
563.64961247767599
  0
LINE
  8
_0-0_計極細
  6
CONTINUOUS
 62
    2
 10
411.43374999999708
 20
568.64961247767599
 11
418.43374999999708
 21
568.64961247767599
  0
LINE
  8
_0-0_計極細
  6
CONTINUOUS
 62
    2
 10
401.43374999999708
 20
563.64961247767599
 11
408.43374999999708
 21
563.64961247767599
  0
LINE
  8
_0-0_計極細
  6
CONTINUOUS
 62
    2
 10
401.43374999999708
 20
568.64961247767599
 11
408.43374999999708
 21
568.64961247767599
  0
LINE
  8
_0-0_計極細
  6
CONTINUOUS
 62
    2
 10
391.43374999999702
 20
563.64961247767599
 11
398.43374999999696
 21
563.64961247767599
  0
LINE
  8
_0-0_計極細
  6
CONTINUOUS
 62
    2
 10
391.43374999999702
 20
568.64961247767599
 11
398.43374999999696
 21
568.64961247767599
  0
LINE
  8
_0-0_計極細
  6
CONTINUOUS
 62
    2
 10
381.43374999999702
 20
563.64961247767599
 11
388.43374999999696
 21
563.64961247767599
  0
LINE
  8
_0-0_計極細
  6
CONTINUOUS
 62
    2
 10
381.43374999999702
 20
568.64961247767599
 11
388.43374999999696
 21
568.64961247767599
  0
LINE
  8
_0-0_計極細
  6
CONTINUOUS
 62
    2
 10
371.43374999999702
 20
563.64961247767599
 11
378.43374999999696
 21
563.64961247767599
  0
LINE
  8
_0-0_計極細
  6
CONTINUOUS
 62
    2
 10
371.43374999999702
 20
568.64961247767599
 11
378.43374999999696
 21
568.64961247767599
  0
LINE
  8
_0-0_計極細
  6
CONTINUOUS
 62
    2
 10
361.43374999999702
 20
563.64961247767599
 11
368.43374999999696
 21
563.64961247767599
  0
LINE
  8
_0-0_計極細
  6
CONTINUOUS
 62
    2
 10
361.43374999999702
 20
568.64961247767599
 11
368.43374999999696
 21
568.64961247767599
  0
LINE
  8
_0-0_計極細
  6
CONTINUOUS
 62
    2
 10
351.43374999999702
 20
563.64961247767599
 11
358.43374999999696
 21
563.64961247767599
  0
LINE
  8
_0-0_計極細
  6
CONTINUOUS
 62
    2
 10
351.43374999999702
 20
568.64961247767599
 11
358.43374999999696
 21
568.64961247767599
  0
LINE
  8
_0-0_計極細
  6
CONTINUOUS
 62
    2
 10
341.43374999999702
 20
563.64961247767599
 11
348.43374999999696
 21
563.64961247767599
  0
LINE
  8
_0-0_計極細
  6
CONTINUOUS
 62
    2
 10
341.43374999999702
 20
568.64961247767599
 11
348.43374999999696
 21
568.64961247767599
  0
LINE
  8
_0-0_計極細
  6
CONTINUOUS
 62
    2
 10
331.43374999999702
 20
563.64961247767599
 11
338.43374999999696
 21
563.64961247767599
  0
LINE
  8
_0-0_計極細
  6
CONTINUOUS
 62
    2
 10
331.43374999999702
 20
568.64961247767599
 11
338.43374999999696
 21
568.64961247767599
  0
LINE
  8
_0-0_計極細
  6
CONTINUOUS
 62
    2
 10
321.43374999999702
 20
563.64961247767599
 11
328.43374999999696
 21
563.64961247767599
  0
LINE
  8
_0-0_計極細
  6
CONTINUOUS
 62
    2
 10
321.43374999999702
 20
568.64961247767599
 11
328.43374999999696
 21
568.64961247767599
  0
LINE
  8
_0-0_計極細
  6
CONTINUOUS
 62
    2
 10
311.43374999999696
 20
563.64961247767599
 11
318.43374999999696
 21
563.64961247767599
  0
LINE
  8
_0-0_計極細
  6
CONTINUOUS
 62
    2
 10
311.43374999999696
 20
568.64961247767599
 11
318.43374999999696
 21
568.64961247767599
  0
LINE
  8
_0-0_計極細
  6
CONTINUOUS
 62
    2
 10
301.43374999999696
 20
563.64961247767599
 11
308.43374999999696
 21
563.64961247767599
  0
LINE
  8
_0-0_計極細
  6
CONTINUOUS
 62
    2
 10
301.43374999999696
 20
568.64961247767599
 11
308.43374999999696
 21
568.64961247767599
  0
LINE
  8
_0-0_計極細
  6
CONTINUOUS
 62
    2
 10
291.43374999999696
 20
563.64961247767599
 11
298.43374999999696
 21
563.64961247767599
  0
LINE
  8
_0-0_計極細
  6
CONTINUOUS
 62
    2
 10
291.43374999999696
 20
568.64961247767599
 11
298.43374999999696
 21
568.64961247767599
  0
LINE
  8
_0-0_計極細
  6
CONTINUOUS
 62
    2
 10
281.43374999999696
 20
563.64961247767599
 11
288.43374999999696
 21
563.64961247767599
  0
LINE
  8
_0-0_計極細
  6
CONTINUOUS
 62
    2
 10
281.43374999999696
 20
568.64961247767599
 11
288.43374999999696
 21
568.64961247767599
  0
LINE
  8
_0-0_計極細
  6
CONTINUOUS
 62
    2
 10
271.43374999999696
 20
563.64961247767599
 11
278.43374999999696
 21
563.64961247767599
  0
LINE
  8
_0-0_計極細
  6
CONTINUOUS
 62
    2
 10
271.43374999999696
 20
568.64961247767599
 11
278.43374999999696
 21
568.64961247767599
  0
LINE
  8
_0-0_計極細
  6
CONTINUOUS
 62
    2
 10
261.43374999999696
 20
563.64961247767599
 11
268.43374999999696
 21
563.64961247767599
  0
LINE
  8
_0-0_計極細
  6
CONTINUOUS
 62
    2
 10
261.43374999999696
 20
568.64961247767599
 11
268.43374999999696
 21
568.64961247767599
  0
LINE
  8
_0-0_計極細
  6
CONTINUOUS
 62
    2
 10
251.43374999999693
 20
563.64961247767599
 11
258.43374999999696
 21
563.64961247767599
  0
LINE
  8
_0-0_計極細
  6
CONTINUOUS
 62
    2
 10
251.43374999999693
 20
568.64961247767599
 11
258.43374999999696
 21
568.64961247767599
  0
LINE
  8
_0-0_計極細
  6
CONTINUOUS
 62
    2
 10
231.43374999999693
 20
563.64961247767599
 11
238.43374999999696
 21
563.64961247767599
  0
LINE
  8
_0-0_計極細
  6
CONTINUOUS
 62
    2
 10
231.43374999999693
 20
568.64961247767599
 11
238.43374999999696
 21
568.64961247767599
  0
LINE
  8
_0-0_計極細
  6
CONTINUOUS
 62
    2
 10
241.43374999999693
 20
563.64961247767599
 11
248.43374999999696
 21
563.64961247767599
  0
LINE
  8
_0-0_計極細
  6
CONTINUOUS
 62
    2
 10
241.43374999999693
 20
568.64961247767599
 11
248.43374999999696
 21
568.64961247767599
  0
LINE
  8
_0-1_計細線
  6
CONTINUOUS
 62
    3
 10
1221.433749999997
 20
494.1496124776765
 11
228.43374999999696
 21
494.1496124776765
  0
LINE
  8
_0-1_計細線
  6
CONTINUOUS
 62
    3
 10
228.43374999999696
 20
494.1496124776765
 11
228.43374999999696
 21
491.14961247767644
  0
LINE
  8
_0-1_計細線
  6
CONTINUOUS
 62
    3
 10
228.43374999999696
 20
491.14961247767644
 11
1221.433749999997
 21
491.14961247767644
  0
LINE
  8
_0-1_計細線
  6
CONTINUOUS
 62
    3
 10
1221.433749999997
 20
491.14961247767644
 11
1221.433749999997
 21
494.1496124776765
  0
LINE
  8
_0-1_計細線
  6
CONTINUOUS
 62
    3
 10
1218.433749999997
 20
516.14961247767599
 11
1211.433749999997
 21
516.14961247767599
  0
LINE
  8
_0-1_計細線
  6
CONTINUOUS
 62
    3
 10
1208.433749999997
 20
516.14961247767599
 11
1201.433749999997
 21
516.14961247767599
  0
LINE
  8
_0-1_計細線
  6
CONTINUOUS
 62
    3
 10
1198.433749999997
 20
516.14961247767599
 11
1191.433749999997
 21
516.14961247767599
  0
LINE
  8
_0-1_計細線
  6
CONTINUOUS
 62
    3
 10
1188.433749999997
 20
516.14961247767599
 11
1181.433749999997
 21
516.14961247767599
  0
LINE
  8
_0-1_計細線
  6
CONTINUOUS
 62
    3
 10
1178.433749999997
 20
516.14961247767599
 11
1171.433749999997
 21
516.14961247767599
  0
LINE
  8
_0-1_計細線
  6
CONTINUOUS
 62
    3
 10
1168.433749999997
 20
516.14961247767599
 11
1161.433749999997
 21
516.14961247767599
  0
LINE
  8
_0-1_計細線
  6
CONTINUOUS
 62
    3
 10
1158.433749999997
 20
516.14961247767599
 11
1151.433749999997
 21
516.14961247767599
  0
LINE
  8
_0-1_計細線
  6
CONTINUOUS
 62
    3
 10
1148.433749999997
 20
516.14961247767599
 11
1141.433749999997
 21
516.14961247767599
  0
LINE
  8
_0-1_計細線
  6
CONTINUOUS
 62
    3
 10
1138.433749999997
 20
516.14961247767599
 11
1131.433749999997
 21
516.14961247767599
  0
LINE
  8
_0-1_計細線
  6
CONTINUOUS
 62
    3
 10
1128.433749999997
 20
516.14961247767599
 11
1121.433749999997
 21
516.14961247767599
  0
LINE
  8
_0-1_計細線
  6
CONTINUOUS
 62
    3
 10
1118.433749999997
 20
516.14961247767599
 11
1111.433749999997
 21
516.14961247767599
  0
LINE
  8
_0-1_計細線
  6
CONTINUOUS
 62
    3
 10
1108.433749999997
 20
516.14961247767599
 11
1101.433749999997
 21
516.14961247767599
  0
LINE
  8
_0-1_計細線
  6
CONTINUOUS
 62
    3
 10
1098.433749999997
 20
516.14961247767599
 11
1091.433749999997
 21
516.14961247767599
  0
LINE
  8
_0-1_計細線
  6
CONTINUOUS
 62
    3
 10
1088.433749999997
 20
516.14961247767599
 11
1081.433749999997
 21
516.14961247767599
  0
LINE
  8
_0-1_計細線
  6
CONTINUOUS
 62
    3
 10
1078.433749999997
 20
516.14961247767599
 11
1071.433749999997
 21
516.14961247767599
  0
LINE
  8
_0-1_計細線
  6
CONTINUOUS
 62
    3
 10
1068.433749999997
 20
516.14961247767599
 11
1061.433749999997
 21
516.14961247767599
  0
LINE
  8
_0-1_計細線
  6
CONTINUOUS
 62
    3
 10
1058.433749999997
 20
516.14961247767599
 11
1051.433749999997
 21
516.14961247767599
  0
LINE
  8
_0-1_計細線
  6
CONTINUOUS
 62
    3
 10
1048.433749999997
 20
516.14961247767599
 11
1041.433749999997
 21
516.14961247767599
  0
LINE
  8
_0-1_計細線
  6
CONTINUOUS
 62
    3
 10
1038.433749999997
 20
516.14961247767599
 11
1031.433749999997
 21
516.14961247767599
  0
LINE
  8
_0-1_計細線
  6
CONTINUOUS
 62
    3
 10
1028.433749999997
 20
516.14961247767599
 11
1021.4337499999971
 21
516.14961247767599
  0
LINE
  8
_0-1_計細線
  6
CONTINUOUS
 62
    3
 10
1018.4337499999971
 20
516.14961247767599
 11
1011.4337499999971
 21
516.14961247767599
  0
LINE
  8
_0-1_計細線
  6
CONTINUOUS
 62
    3
 10
1008.4337499999971
 20
516.14961247767599
 11
1001.4337499999971
 21
516.14961247767599
  0
LINE
  8
_0-1_計細線
  6
CONTINUOUS
 62
    3
 10
998.43374999999708
 20
516.14961247767599
 11
991.43374999999708
 21
516.14961247767599
  0
LINE
  8
_0-1_計細線
  6
CONTINUOUS
 62
    3
 10
988.43374999999708
 20
516.14961247767599
 11
981.43374999999708
 21
516.14961247767599
  0
LINE
  8
_0-1_計細線
  6
CONTINUOUS
 62
    3
 10
978.43374999999708
 20
516.14961247767599
 11
971.43374999999708
 21
516.14961247767599
  0
LINE
  8
_0-1_計細線
  6
CONTINUOUS
 62
    3
 10
968.43374999999708
 20
516.14961247767599
 11
961.43374999999708
 21
516.14961247767599
  0
LINE
  8
_0-1_計細線
  6
CONTINUOUS
 62
    3
 10
958.43374999999708
 20
516.14961247767599
 11
951.43374999999708
 21
516.14961247767599
  0
LINE
  8
_0-1_計細線
  6
CONTINUOUS
 62
    3
 10
948.43374999999708
 20
516.14961247767599
 11
941.43374999999708
 21
516.14961247767599
  0
LINE
  8
_0-1_計細線
  6
CONTINUOUS
 62
    3
 10
938.43374999999708
 20
516.14961247767599
 11
931.43374999999708
 21
516.14961247767599
  0
LINE
  8
_0-1_計細線
  6
CONTINUOUS
 62
    3
 10
928.43374999999708
 20
516.14961247767599
 11
921.43374999999708
 21
516.14961247767599
  0
LINE
  8
_0-1_計細線
  6
CONTINUOUS
 62
    3
 10
918.43374999999708
 20
516.14961247767599
 11
911.43374999999708
 21
516.14961247767599
  0
LINE
  8
_0-1_計細線
  6
CONTINUOUS
 62
    3
 10
908.43374999999708
 20
516.14961247767599
 11
901.43374999999708
 21
516.14961247767599
  0
LINE
  8
_0-1_計細線
  6
CONTINUOUS
 62
    3
 10
898.43374999999708
 20
516.14961247767599
 11
891.43374999999708
 21
516.14961247767599
  0
LINE
  8
_0-1_計細線
  6
CONTINUOUS
 62
    3
 10
888.43374999999708
 20
516.14961247767599
 11
881.43374999999708
 21
516.14961247767599
  0
LINE
  8
_0-1_計細線
  6
CONTINUOUS
 62
    3
 10
878.43374999999708
 20
516.14961247767599
 11
871.43374999999708
 21
516.14961247767599
  0
LINE
  8
_0-1_計細線
  6
CONTINUOUS
 62
    3
 10
868.43374999999708
 20
516.14961247767599
 11
861.43374999999708
 21
516.14961247767599
  0
LINE
  8
_0-1_計細線
  6
CONTINUOUS
 62
    3
 10
858.43374999999708
 20
516.14961247767599
 11
851.43374999999708
 21
516.14961247767599
  0
LINE
  8
_0-1_計細線
  6
CONTINUOUS
 62
    3
 10
848.43374999999708
 20
516.14961247767599
 11
841.43374999999708
 21
516.14961247767599
  0
LINE
  8
_0-1_計細線
  6
CONTINUOUS
 62
    3
 10
838.43374999999708
 20
516.14961247767599
 11
831.43374999999708
 21
516.14961247767599
  0
LINE
  8
_0-1_計細線
  6
CONTINUOUS
 62
    3
 10
828.43374999999708
 20
516.14961247767599
 11
821.43374999999708
 21
516.14961247767599
  0
LINE
  8
_0-1_計細線
  6
CONTINUOUS
 62
    3
 10
818.43374999999708
 20
516.14961247767599
 11
811.43374999999708
 21
516.14961247767599
  0
LINE
  8
_0-1_計細線
  6
CONTINUOUS
 62
    3
 10
808.43374999999708
 20
516.14961247767599
 11
801.43374999999708
 21
516.14961247767599
  0
LINE
  8
_0-1_計細線
  6
CONTINUOUS
 62
    3
 10
798.43374999999708
 20
516.14961247767599
 11
791.43374999999708
 21
516.14961247767599
  0
LINE
  8
_0-1_計細線
  6
CONTINUOUS
 62
    3
 10
788.43374999999708
 20
516.14961247767599
 11
781.43374999999708
 21
516.14961247767599
  0
LINE
  8
_0-1_計細線
  6
CONTINUOUS
 62
    3
 10
778.43374999999708
 20
516.14961247767599
 11
771.43374999999708
 21
516.14961247767599
  0
LINE
  8
_0-1_計細線
  6
CONTINUOUS
 62
    3
 10
768.43374999999708
 20
516.14961247767599
 11
761.43374999999708
 21
516.14961247767599
  0
LINE
  8
_0-1_計細線
  6
CONTINUOUS
 62
    3
 10
758.43374999999708
 20
516.14961247767599
 11
751.43374999999708
 21
516.14961247767599
  0
LINE
  8
_0-1_計細線
  6
CONTINUOUS
 62
    3
 10
748.43374999999708
 20
516.14961247767599
 11
741.43374999999708
 21
516.14961247767599
  0
LINE
  8
_0-1_計細線
  6
CONTINUOUS
 62
    3
 10
738.43374999999708
 20
516.14961247767599
 11
731.43374999999708
 21
516.14961247767599
  0
LINE
  8
_0-1_計細線
  6
CONTINUOUS
 62
    3
 10
728.43374999999708
 20
516.14961247767599
 11
721.43374999999708
 21
516.14961247767599
  0
LINE
  8
_0-1_計細線
  6
CONTINUOUS
 62
    3
 10
718.43374999999708
 20
516.14961247767599
 11
711.43374999999708
 21
516.14961247767599
  0
LINE
  8
_0-1_計細線
  6
CONTINUOUS
 62
    3
 10
708.43374999999708
 20
516.14961247767599
 11
701.43374999999708
 21
516.14961247767599
  0
LINE
  8
_0-1_計細線
  6
CONTINUOUS
 62
    3
 10
698.43374999999708
 20
516.14961247767599
 11
691.43374999999708
 21
516.14961247767599
  0
LINE
  8
_0-1_計細線
  6
CONTINUOUS
 62
    3
 10
688.43374999999708
 20
516.14961247767599
 11
681.43374999999708
 21
516.14961247767599
  0
LINE
  8
_0-1_計細線
  6
CONTINUOUS
 62
    3
 10
678.43374999999708
 20
516.14961247767599
 11
671.43374999999708
 21
516.14961247767599
  0
LINE
  8
_0-1_計細線
  6
CONTINUOUS
 62
    3
 10
668.43374999999708
 20
516.14961247767599
 11
661.43374999999708
 21
516.14961247767599
  0
LINE
  8
_0-1_計細線
  6
CONTINUOUS
 62
    3
 10
658.43374999999708
 20
516.14961247767599
 11
651.43374999999708
 21
516.14961247767599
  0
LINE
  8
_0-1_計細線
  6
CONTINUOUS
 62
    3
 10
648.43374999999708
 20
516.14961247767599
 11
641.43374999999708
 21
516.14961247767599
  0
LINE
  8
_0-1_計細線
  6
CONTINUOUS
 62
    3
 10
638.43374999999708
 20
516.14961247767599
 11
631.43374999999708
 21
516.14961247767599
  0
LINE
  8
_0-1_計細線
  6
CONTINUOUS
 62
    3
 10
628.43374999999708
 20
516.14961247767599
 11
621.43374999999708
 21
516.14961247767599
  0
LINE
  8
_0-1_計細線
  6
CONTINUOUS
 62
    3
 10
618.43374999999708
 20
516.14961247767599
 11
611.43374999999708
 21
516.14961247767599
  0
LINE
  8
_0-1_計細線
  6
CONTINUOUS
 62
    3
 10
608.43374999999708
 20
516.14961247767599
 11
601.43374999999708
 21
516.14961247767599
  0
LINE
  8
_0-1_計細線
  6
CONTINUOUS
 62
    3
 10
598.43374999999708
 20
516.14961247767599
 11
591.43374999999708
 21
516.14961247767599
  0
LINE
  8
_0-1_計細線
  6
CONTINUOUS
 62
    3
 10
588.43374999999708
 20
516.14961247767599
 11
581.43374999999708
 21
516.14961247767599
  0
LINE
  8
_0-1_計細線
  6
CONTINUOUS
 62
    3
 10
578.43374999999708
 20
516.14961247767599
 11
571.43374999999708
 21
516.14961247767599
  0
LINE
  8
_0-1_計細線
  6
CONTINUOUS
 62
    3
 10
568.43374999999708
 20
516.14961247767599
 11
561.43374999999708
 21
516.14961247767599
  0
LINE
  8
_0-1_計細線
  6
CONTINUOUS
 62
    3
 10
558.43374999999708
 20
516.14961247767599
 11
551.43374999999708
 21
516.14961247767599
  0
LINE
  8
_0-1_計細線
  6
CONTINUOUS
 62
    3
 10
548.43374999999708
 20
516.14961247767599
 11
541.43374999999708
 21
516.14961247767599
  0
LINE
  8
_0-1_計細線
  6
CONTINUOUS
 62
    3
 10
538.43374999999708
 20
516.14961247767599
 11
531.43374999999708
 21
516.14961247767599
  0
LINE
  8
_0-1_計細線
  6
CONTINUOUS
 62
    3
 10
528.43374999999708
 20
516.14961247767599
 11
521.43374999999708
 21
516.14961247767599
  0
LINE
  8
_0-1_計細線
  6
CONTINUOUS
 62
    3
 10
518.43374999999708
 20
516.14961247767599
 11
511.43374999999708
 21
516.14961247767599
  0
LINE
  8
_0-1_計細線
  6
CONTINUOUS
 62
    3
 10
508.43374999999708
 20
516.14961247767599
 11
501.43374999999708
 21
516.14961247767599
  0
LINE
  8
_0-1_計細線
  6
CONTINUOUS
 62
    3
 10
498.43374999999708
 20
516.14961247767599
 11
491.43374999999708
 21
516.14961247767599
  0
LINE
  8
_0-1_計細線
  6
CONTINUOUS
 62
    3
 10
488.43374999999708
 20
516.14961247767599
 11
481.43374999999708
 21
516.14961247767599
  0
LINE
  8
_0-1_計細線
  6
CONTINUOUS
 62
    3
 10
478.43374999999708
 20
516.14961247767599
 11
471.43374999999708
 21
516.14961247767599
  0
LINE
  8
_0-1_計細線
  6
CONTINUOUS
 62
    3
 10
468.43374999999708
 20
516.14961247767599
 11
461.43374999999708
 21
516.14961247767599
  0
LINE
  8
_0-1_計細線
  6
CONTINUOUS
 62
    3
 10
458.43374999999708
 20
516.14961247767599
 11
451.43374999999708
 21
516.14961247767599
  0
LINE
  8
_0-1_計細線
  6
CONTINUOUS
 62
    3
 10
448.43374999999708
 20
516.14961247767599
 11
441.43374999999708
 21
516.14961247767599
  0
LINE
  8
_0-1_計細線
  6
CONTINUOUS
 62
    3
 10
438.43374999999708
 20
516.14961247767599
 11
431.43374999999708
 21
516.14961247767599
  0
LINE
  8
_0-1_計細線
  6
CONTINUOUS
 62
    3
 10
428.43374999999708
 20
516.14961247767599
 11
421.43374999999708
 21
516.14961247767599
  0
LINE
  8
_0-1_計細線
  6
CONTINUOUS
 62
    3
 10
418.43374999999708
 20
516.14961247767599
 11
411.43374999999708
 21
516.14961247767599
  0
LINE
  8
_0-1_計細線
  6
CONTINUOUS
 62
    3
 10
408.43374999999708
 20
516.14961247767599
 11
401.43374999999708
 21
516.14961247767599
  0
LINE
  8
_0-1_計細線
  6
CONTINUOUS
 62
    3
 10
398.43374999999696
 20
516.14961247767599
 11
391.43374999999702
 21
516.14961247767599
  0
LINE
  8
_0-1_計細線
  6
CONTINUOUS
 62
    3
 10
388.43374999999696
 20
516.14961247767599
 11
381.43374999999702
 21
516.14961247767599
  0
LINE
  8
_0-1_計細線
  6
CONTINUOUS
 62
    3
 10
378.43374999999696
 20
516.14961247767599
 11
371.43374999999702
 21
516.14961247767599
  0
LINE
  8
_0-1_計細線
  6
CONTINUOUS
 62
    3
 10
368.43374999999696
 20
516.14961247767599
 11
361.43374999999702
 21
516.14961247767599
  0
LINE
  8
_0-1_計細線
  6
CONTINUOUS
 62
    3
 10
358.43374999999696
 20
516.14961247767599
 11
351.43374999999702
 21
516.14961247767599
  0
LINE
  8
_0-1_計細線
  6
CONTINUOUS
 62
    3
 10
348.43374999999696
 20
516.14961247767599
 11
341.43374999999702
 21
516.14961247767599
  0
LINE
  8
_0-1_計細線
  6
CONTINUOUS
 62
    3
 10
338.43374999999696
 20
516.14961247767599
 11
331.43374999999702
 21
516.14961247767599
  0
LINE
  8
_0-1_計細線
  6
CONTINUOUS
 62
    3
 10
328.43374999999696
 20
516.14961247767599
 11
321.43374999999702
 21
516.14961247767599
  0
LINE
  8
_0-1_計細線
  6
CONTINUOUS
 62
    3
 10
318.43374999999696
 20
516.14961247767599
 11
311.43374999999696
 21
516.14961247767599
  0
LINE
  8
_0-1_計細線
  6
CONTINUOUS
 62
    3
 10
308.43374999999696
 20
516.14961247767599
 11
301.43374999999696
 21
516.14961247767599
  0
LINE
  8
_0-1_計細線
  6
CONTINUOUS
 62
    3
 10
298.43374999999696
 20
516.14961247767599
 11
291.43374999999696
 21
516.14961247767599
  0
LINE
  8
_0-1_計細線
  6
CONTINUOUS
 62
    3
 10
288.43374999999696
 20
516.14961247767599
 11
281.43374999999696
 21
516.14961247767599
  0
LINE
  8
_0-1_計細線
  6
CONTINUOUS
 62
    3
 10
278.43374999999696
 20
516.14961247767599
 11
271.43374999999696
 21
516.14961247767599
  0
LINE
  8
_0-1_計細線
  6
CONTINUOUS
 62
    3
 10
268.43374999999696
 20
516.14961247767599
 11
261.43374999999696
 21
516.14961247767599
  0
LINE
  8
_0-1_計細線
  6
CONTINUOUS
 62
    3
 10
258.43374999999696
 20
516.14961247767599
 11
251.43374999999693
 21
516.14961247767599
  0
LINE
  8
_0-1_計細線
  6
CONTINUOUS
 62
    3
 10
248.43374999999696
 20
516.14961247767599
 11
241.43374999999693
 21
516.14961247767599
  0
LINE
  8
_0-1_計細線
  6
CONTINUOUS
 62
    3
 10
238.43374999999696
 20
516.14961247767599
 11
231.43374999999693
 21
516.14961247767599
  0
LINE
  8
_0-1_計細線
  6
CONTINUOUS
 62
    3
 10
199.12165761447156
 20
489.1496124776765
 11
1248.1216576144711
 21
489.1496124776765
  0
LINE
  8
_0-1_計細線
  6
CONTINUOUS
 62
    3
 10
200.43374999999699
 20
486.14961247767644
 11
1249.433749999997
 21
486.14961247767644
  0
LINE
  8
_0-1_計細線
  6
CONTINUOUS
 62
    3
 10
1221.433749999997
 20
516.14961247767735
 11
1249.433749999997
 21
516.14961247767599
  0
LINE
  8
_0-1_計細線
  6
CONTINUOUS
 62
    3
 10
228.43374999999696
 20
516.14961247767735
 11
200.43374999999699
 21
516.14961247767735
  0
ARC
  8
_0-0_計極細
  6
CONTINUOUS
 62
    2
 10
1236.443368943244
 20
508.64961247767923
 40
14.999999999989658
 50
329.99999999996317
 51
30.00000000001284
  0
ARC
  8
_0-0_計極細
  6
CONTINUOUS
 62
    2
 10
1262.4241310567236
 20
493.64961247768417
 40
14.999999999969544
 50
149.99999999994964
 51
210.00000000010303
  0
ARC
  8
_0-0_計極細
  6
CONTINUOUS
 62
    2
 10
187.443368943254
 20
508.64961247767553
 40
14.999999999979083
 50
329.99999999995606
 51
30.000000000047088
  0
ARC
  8
_0-0_計極細
  6
CONTINUOUS
 62
    2
 10
213.42413105673501
 20
493.64961247767553
 40
14.999999999974561
 50
149.99999999994213
 51
210.00000000004974
  0
LINE
  8
_0-1_計細線
  6
CONTINUOUS
 62
    3
 10
241.43374999999693
 20
838.14961247767701
 11
238.43374999999696
 21
838.14961247767701
  0
LINE
  8
_0-1_計細線
  6
CONTINUOUS
 62
    3
 10
238.43374999999696
 20
838.14961247767701
 11
238.43374999999696
 21
494.1496124776765
  0
LINE
  8
_0-1_計細線
  6
CONTINUOUS
 62
    3
 10
238.43374999999696
 20
494.1496124776765
 11
241.43374999999693
 21
494.1496124776765
  0
LINE
  8
_0-1_計細線
  6
CONTINUOUS
 62
    3
 10
241.43374999999693
 20
494.1496124776765
 11
241.43374999999693
 21
838.14961247767701
  0
LINE
  8
_0-1_計細線
  6
CONTINUOUS
 62
    3
 10
231.43374999999693
 20
838.14961247767701
 11
228.43374999999696
 21
838.14961247767701
  0
LINE
  8
_0-1_計細線
  6
CONTINUOUS
 62
    3
 10
228.43374999999696
 20
838.14961247767701
 11
228.43374999999696
 21
494.1496124776765
  0
LINE
  8
_0-1_計細線
  6
CONTINUOUS
 62
    3
 10
228.43374999999696
 20
494.1496124776765
 11
231.43374999999693
 21
494.1496124776765
  0
LINE
  8
_0-1_計細線
  6
CONTINUOUS
 62
    3
 10
231.43374999999693
 20
494.1496124776765
 11
231.43374999999693
 21
838.14961247767701
  0
LINE
  8
_0-1_計細線
  6
CONTINUOUS
 62
    3
 10
251.43374999999693
 20
838.14961247767701
 11
248.43374999999696
 21
838.14961247767701
  0
LINE
  8
_0-1_計細線
  6
CONTINUOUS
 62
    3
 10
248.43374999999696
 20
838.14961247767701
 11
248.43374999999696
 21
494.1496124776765
  0
LINE
  8
_0-1_計細線
  6
CONTINUOUS
 62
    3
 10
248.43374999999696
 20
494.1496124776765
 11
251.43374999999693
 21
494.1496124776765
  0
LINE
  8
_0-1_計細線
  6
CONTINUOUS
 62
    3
 10
251.43374999999693
 20
494.1496124776765
 11
251.43374999999693
 21
838.14961247767701
  0
LINE
  8
_0-1_計細線
  6
CONTINUOUS
 62
    3
 10
261.43374999999696
 20
838.14961247767701
 11
258.43374999999696
 21
838.14961247767701
  0
LINE
  8
_0-1_計細線
  6
CONTINUOUS
 62
    3
 10
258.43374999999696
 20
838.14961247767701
 11
258.43374999999696
 21
494.1496124776765
  0
LINE
  8
_0-1_計細線
  6
CONTINUOUS
 62
    3
 10
258.43374999999696
 20
494.1496124776765
 11
261.43374999999696
 21
494.1496124776765
  0
LINE
  8
_0-1_計細線
  6
CONTINUOUS
 62
    3
 10
261.43374999999696
 20
494.1496124776765
 11
261.43374999999696
 21
838.14961247767701
  0
LINE
  8
_0-1_計細線
  6
CONTINUOUS
 62
    3
 10
271.43374999999696
 20
838.14961247767701
 11
268.43374999999696
 21
838.14961247767701
  0
LINE
  8
_0-1_計細線
  6
CONTINUOUS
 62
    3
 10
268.43374999999696
 20
838.14961247767701
 11
268.43374999999696
 21
494.1496124776765
  0
LINE
  8
_0-1_計細線
  6
CONTINUOUS
 62
    3
 10
268.43374999999696
 20
494.1496124776765
 11
271.43374999999696
 21
494.1496124776765
  0
LINE
  8
_0-1_計細線
  6
CONTINUOUS
 62
    3
 10
271.43374999999696
 20
494.1496124776765
 11
271.43374999999696
 21
838.14961247767701
  0
LINE
  8
_0-1_計細線
  6
CONTINUOUS
 62
    3
 10
281.43374999999696
 20
838.14961247767701
 11
278.43374999999696
 21
838.14961247767701
  0
LINE
  8
_0-1_計細線
  6
CONTINUOUS
 62
    3
 10
278.43374999999696
 20
838.14961247767701
 11
278.43374999999696
 21
494.1496124776765
  0
LINE
  8
_0-1_計細線
  6
CONTINUOUS
 62
    3
 10
278.43374999999696
 20
494.1496124776765
 11
281.43374999999696
 21
494.1496124776765
  0
LINE
  8
_0-1_計細線
  6
CONTINUOUS
 62
    3
 10
281.43374999999696
 20
494.1496124776765
 11
281.43374999999696
 21
838.14961247767701
  0
LINE
  8
_0-1_計細線
  6
CONTINUOUS
 62
    3
 10
291.43374999999696
 20
838.14961247767701
 11
288.43374999999696
 21
838.14961247767701
  0
LINE
  8
_0-1_計細線
  6
CONTINUOUS
 62
    3
 10
288.43374999999696
 20
838.14961247767701
 11
288.43374999999696
 21
494.1496124776765
  0
LINE
  8
_0-1_計細線
  6
CONTINUOUS
 62
    3
 10
288.43374999999696
 20
494.1496124776765
 11
291.43374999999696
 21
494.1496124776765
  0
LINE
  8
_0-1_計細線
  6
CONTINUOUS
 62
    3
 10
291.43374999999696
 20
494.1496124776765
 11
291.43374999999696
 21
838.14961247767701
  0
LINE
  8
_0-1_計細線
  6
CONTINUOUS
 62
    3
 10
301.43374999999696
 20
838.14961247767701
 11
298.43374999999696
 21
838.14961247767701
  0
LINE
  8
_0-1_計細線
  6
CONTINUOUS
 62
    3
 10
298.43374999999696
 20
838.14961247767701
 11
298.43374999999696
 21
494.1496124776765
  0
LINE
  8
_0-1_計細線
  6
CONTINUOUS
 62
    3
 10
298.43374999999696
 20
494.1496124776765
 11
301.43374999999696
 21
494.1496124776765
  0
LINE
  8
_0-1_計細線
  6
CONTINUOUS
 62
    3
 10
301.43374999999696
 20
494.1496124776765
 11
301.43374999999696
 21
838.14961247767701
  0
LINE
  8
_0-1_計細線
  6
CONTINUOUS
 62
    3
 10
311.43374999999696
 20
838.14961247767701
 11
308.43374999999696
 21
838.14961247767701
  0
LINE
  8
_0-1_計細線
  6
CONTINUOUS
 62
    3
 10
308.43374999999696
 20
838.14961247767701
 11
308.43374999999696
 21
494.1496124776765
  0
LINE
  8
_0-1_計細線
  6
CONTINUOUS
 62
    3
 10
308.43374999999696
 20
494.1496124776765
 11
311.43374999999696
 21
494.1496124776765
  0
LINE
  8
_0-1_計細線
  6
CONTINUOUS
 62
    3
 10
311.43374999999696
 20
494.1496124776765
 11
311.43374999999696
 21
838.14961247767701
  0
LINE
  8
_0-1_計細線
  6
CONTINUOUS
 62
    3
 10
321.43374999999702
 20
838.14961247767701
 11
318.43374999999696
 21
838.14961247767701
  0
LINE
  8
_0-1_計細線
  6
CONTINUOUS
 62
    3
 10
318.43374999999696
 20
838.14961247767701
 11
318.43374999999696
 21
494.1496124776765
  0
LINE
  8
_0-1_計細線
  6
CONTINUOUS
 62
    3
 10
318.43374999999696
 20
494.1496124776765
 11
321.43374999999702
 21
494.1496124776765
  0
LINE
  8
_0-1_計細線
  6
CONTINUOUS
 62
    3
 10
321.43374999999702
 20
494.1496124776765
 11
321.43374999999702
 21
838.14961247767701
  0
LINE
  8
_0-1_計細線
  6
CONTINUOUS
 62
    3
 10
331.43374999999702
 20
838.14961247767701
 11
328.43374999999696
 21
838.14961247767701
  0
LINE
  8
_0-1_計細線
  6
CONTINUOUS
 62
    3
 10
328.43374999999696
 20
838.14961247767701
 11
328.43374999999696
 21
494.1496124776765
  0
LINE
  8
_0-1_計細線
  6
CONTINUOUS
 62
    3
 10
328.43374999999696
 20
494.1496124776765
 11
331.43374999999702
 21
494.1496124776765
  0
LINE
  8
_0-1_計細線
  6
CONTINUOUS
 62
    3
 10
331.43374999999702
 20
494.1496124776765
 11
331.43374999999702
 21
838.14961247767701
  0
LINE
  8
_0-1_計細線
  6
CONTINUOUS
 62
    3
 10
341.43374999999702
 20
838.14961247767701
 11
338.43374999999696
 21
838.14961247767701
  0
LINE
  8
_0-1_計細線
  6
CONTINUOUS
 62
    3
 10
338.43374999999696
 20
838.14961247767701
 11
338.43374999999696
 21
494.1496124776765
  0
LINE
  8
_0-1_計細線
  6
CONTINUOUS
 62
    3
 10
338.43374999999696
 20
494.1496124776765
 11
341.43374999999702
 21
494.1496124776765
  0
LINE
  8
_0-1_計細線
  6
CONTINUOUS
 62
    3
 10
341.43374999999702
 20
494.1496124776765
 11
341.43374999999702
 21
838.14961247767701
  0
LINE
  8
_0-1_計細線
  6
CONTINUOUS
 62
    3
 10
351.43374999999702
 20
838.14961247767701
 11
348.43374999999696
 21
838.14961247767701
  0
LINE
  8
_0-1_計細線
  6
CONTINUOUS
 62
    3
 10
348.43374999999696
 20
838.14961247767701
 11
348.43374999999696
 21
494.1496124776765
  0
LINE
  8
_0-1_計細線
  6
CONTINUOUS
 62
    3
 10
348.43374999999696
 20
494.1496124776765
 11
351.43374999999702
 21
494.1496124776765
  0
LINE
  8
_0-1_計細線
  6
CONTINUOUS
 62
    3
 10
351.43374999999702
 20
494.1496124776765
 11
351.43374999999702
 21
838.14961247767701
  0
LINE
  8
_0-1_計細線
  6
CONTINUOUS
 62
    3
 10
361.43374999999702
 20
838.14961247767701
 11
358.43374999999696
 21
838.14961247767701
  0
LINE
  8
_0-1_計細線
  6
CONTINUOUS
 62
    3
 10
358.43374999999696
 20
838.14961247767701
 11
358.43374999999696
 21
494.1496124776765
  0
LINE
  8
_0-1_計細線
  6
CONTINUOUS
 62
    3
 10
358.43374999999696
 20
494.1496124776765
 11
361.43374999999702
 21
494.1496124776765
  0
LINE
  8
_0-1_計細線
  6
CONTINUOUS
 62
    3
 10
361.43374999999702
 20
494.1496124776765
 11
361.43374999999702
 21
838.14961247767701
  0
LINE
  8
_0-1_計細線
  6
CONTINUOUS
 62
    3
 10
371.43374999999702
 20
838.14961247767701
 11
368.43374999999696
 21
838.14961247767701
  0
LINE
  8
_0-1_計細線
  6
CONTINUOUS
 62
    3
 10
368.43374999999696
 20
838.14961247767701
 11
368.43374999999696
 21
494.1496124776765
  0
LINE
  8
_0-1_計細線
  6
CONTINUOUS
 62
    3
 10
368.43374999999696
 20
494.1496124776765
 11
371.43374999999702
 21
494.1496124776765
  0
LINE
  8
_0-1_計細線
  6
CONTINUOUS
 62
    3
 10
371.43374999999702
 20
494.1496124776765
 11
371.43374999999702
 21
838.14961247767701
  0
LINE
  8
_0-1_計細線
  6
CONTINUOUS
 62
    3
 10
381.43374999999702
 20
838.14961247767701
 11
378.43374999999696
 21
838.14961247767701
  0
LINE
  8
_0-1_計細線
  6
CONTINUOUS
 62
    3
 10
378.43374999999696
 20
838.14961247767701
 11
378.43374999999696
 21
494.1496124776765
  0
LINE
  8
_0-1_計細線
  6
CONTINUOUS
 62
    3
 10
378.43374999999696
 20
494.1496124776765
 11
381.43374999999702
 21
494.1496124776765
  0
LINE
  8
_0-1_計細線
  6
CONTINUOUS
 62
    3
 10
381.43374999999702
 20
494.1496124776765
 11
381.43374999999702
 21
838.14961247767701
  0
LINE
  8
_0-1_計細線
  6
CONTINUOUS
 62
    3
 10
391.43374999999702
 20
838.14961247767701
 11
388.43374999999696
 21
838.14961247767701
  0
LINE
  8
_0-1_計細線
  6
CONTINUOUS
 62
    3
 10
388.43374999999696
 20
838.14961247767701
 11
388.43374999999696
 21
494.1496124776765
  0
LINE
  8
_0-1_計細線
  6
CONTINUOUS
 62
    3
 10
388.43374999999696
 20
494.1496124776765
 11
391.43374999999702
 21
494.1496124776765
  0
LINE
  8
_0-1_計細線
  6
CONTINUOUS
 62
    3
 10
391.43374999999702
 20
494.1496124776765
 11
391.43374999999702
 21
838.14961247767701
  0
LINE
  8
_0-1_計細線
  6
CONTINUOUS
 62
    3
 10
401.43374999999708
 20
838.14961247767701
 11
398.43374999999696
 21
838.14961247767701
  0
LINE
  8
_0-1_計細線
  6
CONTINUOUS
 62
    3
 10
398.43374999999696
 20
838.14961247767701
 11
398.43374999999696
 21
494.1496124776765
  0
LINE
  8
_0-1_計細線
  6
CONTINUOUS
 62
    3
 10
398.43374999999696
 20
494.1496124776765
 11
401.43374999999708
 21
494.1496124776765
  0
LINE
  8
_0-1_計細線
  6
CONTINUOUS
 62
    3
 10
401.43374999999708
 20
494.1496124776765
 11
401.43374999999708
 21
838.14961247767701
  0
LINE
  8
_0-1_計細線
  6
CONTINUOUS
 62
    3
 10
411.43374999999708
 20
838.14961247767701
 11
408.43374999999708
 21
838.14961247767701
  0
LINE
  8
_0-1_計細線
  6
CONTINUOUS
 62
    3
 10
408.43374999999708
 20
838.14961247767701
 11
408.43374999999708
 21
494.1496124776765
  0
LINE
  8
_0-1_計細線
  6
CONTINUOUS
 62
    3
 10
408.43374999999708
 20
494.1496124776765
 11
411.43374999999708
 21
494.1496124776765
  0
LINE
  8
_0-1_計細線
  6
CONTINUOUS
 62
    3
 10
411.43374999999708
 20
494.1496124776765
 11
411.43374999999708
 21
838.14961247767701
  0
LINE
  8
_0-1_計細線
  6
CONTINUOUS
 62
    3
 10
421.43374999999708
 20
838.14961247767701
 11
418.43374999999708
 21
838.14961247767701
  0
LINE
  8
_0-1_計細線
  6
CONTINUOUS
 62
    3
 10
418.43374999999708
 20
838.14961247767701
 11
418.43374999999708
 21
494.1496124776765
  0
LINE
  8
_0-1_計細線
  6
CONTINUOUS
 62
    3
 10
418.43374999999708
 20
494.1496124776765
 11
421.43374999999708
 21
494.1496124776765
  0
LINE
  8
_0-1_計細線
  6
CONTINUOUS
 62
    3
 10
421.43374999999708
 20
494.1496124776765
 11
421.43374999999708
 21
838.14961247767701
  0
LINE
  8
_0-1_計細線
  6
CONTINUOUS
 62
    3
 10
431.43374999999708
 20
838.14961247767701
 11
428.43374999999708
 21
838.14961247767701
  0
LINE
  8
_0-1_計細線
  6
CONTINUOUS
 62
    3
 10
428.43374999999708
 20
838.14961247767701
 11
428.43374999999708
 21
494.1496124776765
  0
LINE
  8
_0-1_計細線
  6
CONTINUOUS
 62
    3
 10
428.43374999999708
 20
494.1496124776765
 11
431.43374999999708
 21
494.1496124776765
  0
LINE
  8
_0-1_計細線
  6
CONTINUOUS
 62
    3
 10
431.43374999999708
 20
494.1496124776765
 11
431.43374999999708
 21
838.14961247767701
  0
LINE
  8
_0-1_計細線
  6
CONTINUOUS
 62
    3
 10
441.43374999999708
 20
838.14961247767701
 11
438.43374999999708
 21
838.14961247767701
  0
LINE
  8
_0-1_計細線
  6
CONTINUOUS
 62
    3
 10
438.43374999999708
 20
838.14961247767701
 11
438.43374999999708
 21
494.1496124776765
  0
LINE
  8
_0-1_計細線
  6
CONTINUOUS
 62
    3
 10
438.43374999999708
 20
494.1496124776765
 11
441.43374999999708
 21
494.1496124776765
  0
LINE
  8
_0-1_計細線
  6
CONTINUOUS
 62
    3
 10
441.43374999999708
 20
494.1496124776765
 11
441.43374999999708
 21
838.14961247767701
  0
LINE
  8
_0-1_計細線
  6
CONTINUOUS
 62
    3
 10
451.43374999999708
 20
838.14961247767701
 11
448.43374999999708
 21
838.14961247767701
  0
LINE
  8
_0-1_計細線
  6
CONTINUOUS
 62
    3
 10
448.43374999999708
 20
838.14961247767701
 11
448.43374999999708
 21
494.1496124776765
  0
LINE
  8
_0-1_計細線
  6
CONTINUOUS
 62
    3
 10
448.43374999999708
 20
494.1496124776765
 11
451.43374999999708
 21
494.1496124776765
  0
LINE
  8
_0-1_計細線
  6
CONTINUOUS
 62
    3
 10
451.43374999999708
 20
494.1496124776765
 11
451.43374999999708
 21
838.14961247767701
  0
LINE
  8
_0-1_計細線
  6
CONTINUOUS
 62
    3
 10
461.43374999999708
 20
838.14961247767701
 11
458.43374999999708
 21
838.14961247767701
  0
LINE
  8
_0-1_計細線
  6
CONTINUOUS
 62
    3
 10
458.43374999999708
 20
838.14961247767701
 11
458.43374999999708
 21
494.1496124776765
  0
LINE
  8
_0-1_計細線
  6
CONTINUOUS
 62
    3
 10
458.43374999999708
 20
494.1496124776765
 11
461.43374999999708
 21
494.1496124776765
  0
LINE
  8
_0-1_計細線
  6
CONTINUOUS
 62
    3
 10
461.43374999999708
 20
494.1496124776765
 11
461.43374999999708
 21
838.14961247767701
  0
LINE
  8
_0-1_計細線
  6
CONTINUOUS
 62
    3
 10
471.43374999999708
 20
838.14961247767701
 11
468.43374999999708
 21
838.14961247767701
  0
LINE
  8
_0-1_計細線
  6
CONTINUOUS
 62
    3
 10
468.43374999999708
 20
838.14961247767701
 11
468.43374999999708
 21
494.1496124776765
  0
LINE
  8
_0-1_計細線
  6
CONTINUOUS
 62
    3
 10
468.43374999999708
 20
494.1496124776765
 11
471.43374999999708
 21
494.1496124776765
  0
LINE
  8
_0-1_計細線
  6
CONTINUOUS
 62
    3
 10
471.43374999999708
 20
494.1496124776765
 11
471.43374999999708
 21
838.14961247767701
  0
LINE
  8
_0-1_計細線
  6
CONTINUOUS
 62
    3
 10
481.43374999999708
 20
838.14961247767701
 11
478.43374999999708
 21
838.14961247767701
  0
LINE
  8
_0-1_計細線
  6
CONTINUOUS
 62
    3
 10
478.43374999999708
 20
838.14961247767701
 11
478.43374999999708
 21
494.1496124776765
  0
LINE
  8
_0-1_計細線
  6
CONTINUOUS
 62
    3
 10
478.43374999999708
 20
494.1496124776765
 11
481.43374999999708
 21
494.1496124776765
  0
LINE
  8
_0-1_計細線
  6
CONTINUOUS
 62
    3
 10
481.43374999999708
 20
494.1496124776765
 11
481.43374999999708
 21
838.14961247767701
  0
LINE
  8
_0-1_計細線
  6
CONTINUOUS
 62
    3
 10
491.43374999999708
 20
838.14961247767701
 11
488.43374999999708
 21
838.14961247767701
  0
LINE
  8
_0-1_計細線
  6
CONTINUOUS
 62
    3
 10
488.43374999999708
 20
838.14961247767701
 11
488.43374999999708
 21
494.1496124776765
  0
LINE
  8
_0-1_計細線
  6
CONTINUOUS
 62
    3
 10
488.43374999999708
 20
494.1496124776765
 11
491.43374999999708
 21
494.1496124776765
  0
LINE
  8
_0-1_計細線
  6
CONTINUOUS
 62
    3
 10
491.43374999999708
 20
494.1496124776765
 11
491.43374999999708
 21
838.14961247767701
  0
LINE
  8
_0-1_計細線
  6
CONTINUOUS
 62
    3
 10
501.43374999999708
 20
838.14961247767701
 11
498.43374999999708
 21
838.14961247767701
  0
LINE
  8
_0-1_計細線
  6
CONTINUOUS
 62
    3
 10
498.43374999999708
 20
838.14961247767701
 11
498.43374999999708
 21
494.1496124776765
  0
LINE
  8
_0-1_計細線
  6
CONTINUOUS
 62
    3
 10
498.43374999999708
 20
494.1496124776765
 11
501.43374999999708
 21
494.1496124776765
  0
LINE
  8
_0-1_計細線
  6
CONTINUOUS
 62
    3
 10
501.43374999999708
 20
494.1496124776765
 11
501.43374999999708
 21
838.14961247767701
  0
LINE
  8
_0-1_計細線
  6
CONTINUOUS
 62
    3
 10
511.43374999999708
 20
838.14961247767701
 11
508.43374999999708
 21
838.14961247767701
  0
LINE
  8
_0-1_計細線
  6
CONTINUOUS
 62
    3
 10
508.43374999999708
 20
838.14961247767701
 11
508.43374999999708
 21
494.1496124776765
  0
LINE
  8
_0-1_計細線
  6
CONTINUOUS
 62
    3
 10
508.43374999999708
 20
494.1496124776765
 11
511.43374999999708
 21
494.1496124776765
  0
LINE
  8
_0-1_計細線
  6
CONTINUOUS
 62
    3
 10
511.43374999999708
 20
494.1496124776765
 11
511.43374999999708
 21
838.14961247767701
  0
LINE
  8
_0-1_計細線
  6
CONTINUOUS
 62
    3
 10
521.43374999999708
 20
838.14961247767701
 11
518.43374999999708
 21
838.14961247767701
  0
LINE
  8
_0-1_計細線
  6
CONTINUOUS
 62
    3
 10
518.43374999999708
 20
838.14961247767701
 11
518.43374999999708
 21
494.1496124776765
  0
LINE
  8
_0-1_計細線
  6
CONTINUOUS
 62
    3
 10
518.43374999999708
 20
494.1496124776765
 11
521.43374999999708
 21
494.1496124776765
  0
LINE
  8
_0-1_計細線
  6
CONTINUOUS
 62
    3
 10
521.43374999999708
 20
494.1496124776765
 11
521.43374999999708
 21
838.14961247767701
  0
LINE
  8
_0-1_計細線
  6
CONTINUOUS
 62
    3
 10
531.43374999999708
 20
838.14961247767701
 11
528.43374999999708
 21
838.14961247767701
  0
LINE
  8
_0-1_計細線
  6
CONTINUOUS
 62
    3
 10
528.43374999999708
 20
838.14961247767701
 11
528.43374999999708
 21
494.1496124776765
  0
LINE
  8
_0-1_計細線
  6
CONTINUOUS
 62
    3
 10
528.43374999999708
 20
494.1496124776765
 11
531.43374999999708
 21
494.1496124776765
  0
LINE
  8
_0-1_計細線
  6
CONTINUOUS
 62
    3
 10
531.43374999999708
 20
494.1496124776765
 11
531.43374999999708
 21
838.14961247767701
  0
LINE
  8
_0-1_計細線
  6
CONTINUOUS
 62
    3
 10
541.43374999999708
 20
838.14961247767701
 11
538.43374999999708
 21
838.14961247767701
  0
LINE
  8
_0-1_計細線
  6
CONTINUOUS
 62
    3
 10
538.43374999999708
 20
838.14961247767701
 11
538.43374999999708
 21
494.1496124776765
  0
LINE
  8
_0-1_計細線
  6
CONTINUOUS
 62
    3
 10
538.43374999999708
 20
494.1496124776765
 11
541.43374999999708
 21
494.1496124776765
  0
LINE
  8
_0-1_計細線
  6
CONTINUOUS
 62
    3
 10
541.43374999999708
 20
494.1496124776765
 11
541.43374999999708
 21
838.14961247767701
  0
LINE
  8
_0-1_計細線
  6
CONTINUOUS
 62
    3
 10
551.43374999999708
 20
838.14961247767701
 11
548.43374999999708
 21
838.14961247767701
  0
LINE
  8
_0-1_計細線
  6
CONTINUOUS
 62
    3
 10
548.43374999999708
 20
838.14961247767701
 11
548.43374999999708
 21
494.1496124776765
  0
LINE
  8
_0-1_計細線
  6
CONTINUOUS
 62
    3
 10
548.43374999999708
 20
494.1496124776765
 11
551.43374999999708
 21
494.1496124776765
  0
LINE
  8
_0-1_計細線
  6
CONTINUOUS
 62
    3
 10
551.43374999999708
 20
494.1496124776765
 11
551.43374999999708
 21
838.14961247767701
  0
LINE
  8
_0-1_計細線
  6
CONTINUOUS
 62
    3
 10
561.43374999999708
 20
838.14961247767701
 11
558.43374999999708
 21
838.14961247767701
  0
LINE
  8
_0-1_計細線
  6
CONTINUOUS
 62
    3
 10
558.43374999999708
 20
838.14961247767701
 11
558.43374999999708
 21
494.1496124776765
  0
LINE
  8
_0-1_計細線
  6
CONTINUOUS
 62
    3
 10
558.43374999999708
 20
494.1496124776765
 11
561.43374999999708
 21
494.1496124776765
  0
LINE
  8
_0-1_計細線
  6
CONTINUOUS
 62
    3
 10
561.43374999999708
 20
494.1496124776765
 11
561.43374999999708
 21
838.14961247767701
  0
LINE
  8
_0-1_計細線
  6
CONTINUOUS
 62
    3
 10
571.43374999999708
 20
838.14961247767701
 11
568.43374999999708
 21
838.14961247767701
  0
LINE
  8
_0-1_計細線
  6
CONTINUOUS
 62
    3
 10
568.43374999999708
 20
838.14961247767701
 11
568.43374999999708
 21
494.1496124776765
  0
LINE
  8
_0-1_計細線
  6
CONTINUOUS
 62
    3
 10
568.43374999999708
 20
494.1496124776765
 11
571.43374999999708
 21
494.1496124776765
  0
LINE
  8
_0-1_計細線
  6
CONTINUOUS
 62
    3
 10
571.43374999999708
 20
494.1496124776765
 11
571.43374999999708
 21
838.14961247767701
  0
LINE
  8
_0-1_計細線
  6
CONTINUOUS
 62
    3
 10
581.43374999999708
 20
838.14961247767701
 11
578.43374999999708
 21
838.14961247767701
  0
LINE
  8
_0-1_計細線
  6
CONTINUOUS
 62
    3
 10
578.43374999999708
 20
838.14961247767701
 11
578.43374999999708
 21
494.1496124776765
  0
LINE
  8
_0-1_計細線
  6
CONTINUOUS
 62
    3
 10
578.43374999999708
 20
494.1496124776765
 11
581.43374999999708
 21
494.1496124776765
  0
LINE
  8
_0-1_計細線
  6
CONTINUOUS
 62
    3
 10
581.43374999999708
 20
494.1496124776765
 11
581.43374999999708
 21
838.14961247767701
  0
LINE
  8
_0-1_計細線
  6
CONTINUOUS
 62
    3
 10
591.43374999999708
 20
838.14961247767701
 11
588.43374999999708
 21
838.14961247767701
  0
LINE
  8
_0-1_計細線
  6
CONTINUOUS
 62
    3
 10
588.43374999999708
 20
838.14961247767701
 11
588.43374999999708
 21
494.1496124776765
  0
LINE
  8
_0-1_計細線
  6
CONTINUOUS
 62
    3
 10
588.43374999999708
 20
494.1496124776765
 11
591.43374999999708
 21
494.1496124776765
  0
LINE
  8
_0-1_計細線
  6
CONTINUOUS
 62
    3
 10
591.43374999999708
 20
494.1496124776765
 11
591.43374999999708
 21
838.14961247767701
  0
LINE
  8
_0-1_計細線
  6
CONTINUOUS
 62
    3
 10
601.43374999999708
 20
838.14961247767701
 11
598.43374999999708
 21
838.14961247767701
  0
LINE
  8
_0-1_計細線
  6
CONTINUOUS
 62
    3
 10
598.43374999999708
 20
838.14961247767701
 11
598.43374999999708
 21
494.1496124776765
  0
LINE
  8
_0-1_計細線
  6
CONTINUOUS
 62
    3
 10
598.43374999999708
 20
494.1496124776765
 11
601.43374999999708
 21
494.1496124776765
  0
LINE
  8
_0-1_計細線
  6
CONTINUOUS
 62
    3
 10
601.43374999999708
 20
494.1496124776765
 11
601.43374999999708
 21
838.14961247767701
  0
LINE
  8
_0-1_計細線
  6
CONTINUOUS
 62
    3
 10
611.43374999999708
 20
838.14961247767701
 11
608.43374999999708
 21
838.14961247767701
  0
LINE
  8
_0-1_計細線
  6
CONTINUOUS
 62
    3
 10
608.43374999999708
 20
838.14961247767701
 11
608.43374999999708
 21
494.1496124776765
  0
LINE
  8
_0-1_計細線
  6
CONTINUOUS
 62
    3
 10
608.43374999999708
 20
494.1496124776765
 11
611.43374999999708
 21
494.1496124776765
  0
LINE
  8
_0-1_計細線
  6
CONTINUOUS
 62
    3
 10
611.43374999999708
 20
494.1496124776765
 11
611.43374999999708
 21
838.14961247767701
  0
LINE
  8
_0-1_計細線
  6
CONTINUOUS
 62
    3
 10
621.43374999999708
 20
838.14961247767701
 11
618.43374999999708
 21
838.14961247767701
  0
LINE
  8
_0-1_計細線
  6
CONTINUOUS
 62
    3
 10
618.43374999999708
 20
838.14961247767701
 11
618.43374999999708
 21
494.1496124776765
  0
LINE
  8
_0-1_計細線
  6
CONTINUOUS
 62
    3
 10
618.43374999999708
 20
494.1496124776765
 11
621.43374999999708
 21
494.1496124776765
  0
LINE
  8
_0-1_計細線
  6
CONTINUOUS
 62
    3
 10
621.43374999999708
 20
494.1496124776765
 11
621.43374999999708
 21
838.14961247767701
  0
LINE
  8
_0-1_計細線
  6
CONTINUOUS
 62
    3
 10
631.43374999999708
 20
838.14961247767701
 11
628.43374999999708
 21
838.14961247767701
  0
LINE
  8
_0-1_計細線
  6
CONTINUOUS
 62
    3
 10
628.43374999999708
 20
838.14961247767701
 11
628.43374999999708
 21
494.1496124776765
  0
LINE
  8
_0-1_計細線
  6
CONTINUOUS
 62
    3
 10
628.43374999999708
 20
494.1496124776765
 11
631.43374999999708
 21
494.1496124776765
  0
LINE
  8
_0-1_計細線
  6
CONTINUOUS
 62
    3
 10
631.43374999999708
 20
494.1496124776765
 11
631.43374999999708
 21
838.14961247767701
  0
LINE
  8
_0-1_計細線
  6
CONTINUOUS
 62
    3
 10
641.43374999999708
 20
838.14961247767701
 11
638.43374999999708
 21
838.14961247767701
  0
LINE
  8
_0-1_計細線
  6
CONTINUOUS
 62
    3
 10
638.43374999999708
 20
838.14961247767701
 11
638.43374999999708
 21
494.1496124776765
  0
LINE
  8
_0-1_計細線
  6
CONTINUOUS
 62
    3
 10
638.43374999999708
 20
494.1496124776765
 11
641.43374999999708
 21
494.1496124776765
  0
LINE
  8
_0-1_計細線
  6
CONTINUOUS
 62
    3
 10
641.43374999999708
 20
494.1496124776765
 11
641.43374999999708
 21
838.14961247767701
  0
LINE
  8
_0-1_計細線
  6
CONTINUOUS
 62
    3
 10
651.43374999999708
 20
838.14961247767701
 11
648.43374999999708
 21
838.14961247767701
  0
LINE
  8
_0-1_計細線
  6
CONTINUOUS
 62
    3
 10
648.43374999999708
 20
838.14961247767701
 11
648.43374999999708
 21
494.1496124776765
  0
LINE
  8
_0-1_計細線
  6
CONTINUOUS
 62
    3
 10
648.43374999999708
 20
494.1496124776765
 11
651.43374999999708
 21
494.1496124776765
  0
LINE
  8
_0-1_計細線
  6
CONTINUOUS
 62
    3
 10
651.43374999999708
 20
494.1496124776765
 11
651.43374999999708
 21
838.14961247767701
  0
LINE
  8
_0-1_計細線
  6
CONTINUOUS
 62
    3
 10
661.43374999999708
 20
838.14961247767701
 11
658.43374999999708
 21
838.14961247767701
  0
LINE
  8
_0-1_計細線
  6
CONTINUOUS
 62
    3
 10
658.43374999999708
 20
838.14961247767701
 11
658.43374999999708
 21
494.1496124776765
  0
LINE
  8
_0-1_計細線
  6
CONTINUOUS
 62
    3
 10
658.43374999999708
 20
494.1496124776765
 11
661.43374999999708
 21
494.1496124776765
  0
LINE
  8
_0-1_計細線
  6
CONTINUOUS
 62
    3
 10
661.43374999999708
 20
494.1496124776765
 11
661.43374999999708
 21
838.14961247767701
  0
LINE
  8
_0-1_計細線
  6
CONTINUOUS
 62
    3
 10
671.43374999999708
 20
838.14961247767701
 11
668.43374999999708
 21
838.14961247767701
  0
LINE
  8
_0-1_計細線
  6
CONTINUOUS
 62
    3
 10
668.43374999999708
 20
838.14961247767701
 11
668.43374999999708
 21
494.1496124776765
  0
LINE
  8
_0-1_計細線
  6
CONTINUOUS
 62
    3
 10
668.43374999999708
 20
494.1496124776765
 11
671.43374999999708
 21
494.1496124776765
  0
LINE
  8
_0-1_計細線
  6
CONTINUOUS
 62
    3
 10
671.43374999999708
 20
494.1496124776765
 11
671.43374999999708
 21
838.14961247767701
  0
LINE
  8
_0-1_計細線
  6
CONTINUOUS
 62
    3
 10
681.43374999999708
 20
838.14961247767701
 11
678.43374999999708
 21
838.14961247767701
  0
LINE
  8
_0-1_計細線
  6
CONTINUOUS
 62
    3
 10
678.43374999999708
 20
838.14961247767701
 11
678.43374999999708
 21
494.1496124776765
  0
LINE
  8
_0-1_計細線
  6
CONTINUOUS
 62
    3
 10
678.43374999999708
 20
494.1496124776765
 11
681.43374999999708
 21
494.1496124776765
  0
LINE
  8
_0-1_計細線
  6
CONTINUOUS
 62
    3
 10
681.43374999999708
 20
494.1496124776765
 11
681.43374999999708
 21
838.14961247767701
  0
LINE
  8
_0-1_計細線
  6
CONTINUOUS
 62
    3
 10
691.43374999999708
 20
838.14961247767701
 11
688.43374999999708
 21
838.14961247767701
  0
LINE
  8
_0-1_計細線
  6
CONTINUOUS
 62
    3
 10
688.43374999999708
 20
838.14961247767701
 11
688.43374999999708
 21
494.1496124776765
  0
LINE
  8
_0-1_計細線
  6
CONTINUOUS
 62
    3
 10
688.43374999999708
 20
494.1496124776765
 11
691.43374999999708
 21
494.1496124776765
  0
LINE
  8
_0-1_計細線
  6
CONTINUOUS
 62
    3
 10
691.43374999999708
 20
494.1496124776765
 11
691.43374999999708
 21
838.14961247767701
  0
LINE
  8
_0-1_計細線
  6
CONTINUOUS
 62
    3
 10
701.43374999999708
 20
838.14961247767701
 11
698.43374999999708
 21
838.14961247767701
  0
LINE
  8
_0-1_計細線
  6
CONTINUOUS
 62
    3
 10
698.43374999999708
 20
838.14961247767701
 11
698.43374999999708
 21
494.1496124776765
  0
LINE
  8
_0-1_計細線
  6
CONTINUOUS
 62
    3
 10
698.43374999999708
 20
494.1496124776765
 11
701.43374999999708
 21
494.1496124776765
  0
LINE
  8
_0-1_計細線
  6
CONTINUOUS
 62
    3
 10
701.43374999999708
 20
494.1496124776765
 11
701.43374999999708
 21
838.14961247767701
  0
LINE
  8
_0-1_計細線
  6
CONTINUOUS
 62
    3
 10
711.43374999999708
 20
838.14961247767701
 11
708.43374999999708
 21
838.14961247767701
  0
LINE
  8
_0-1_計細線
  6
CONTINUOUS
 62
    3
 10
708.43374999999708
 20
838.14961247767701
 11
708.43374999999708
 21
494.1496124776765
  0
LINE
  8
_0-1_計細線
  6
CONTINUOUS
 62
    3
 10
708.43374999999708
 20
494.1496124776765
 11
711.43374999999708
 21
494.1496124776765
  0
LINE
  8
_0-1_計細線
  6
CONTINUOUS
 62
    3
 10
711.43374999999708
 20
494.1496124776765
 11
711.43374999999708
 21
838.14961247767701
  0
LINE
  8
_0-1_計細線
  6
CONTINUOUS
 62
    3
 10
721.43374999999708
 20
838.14961247767701
 11
718.43374999999708
 21
838.14961247767701
  0
LINE
  8
_0-1_計細線
  6
CONTINUOUS
 62
    3
 10
718.43374999999708
 20
838.14961247767701
 11
718.43374999999708
 21
494.1496124776765
  0
LINE
  8
_0-1_計細線
  6
CONTINUOUS
 62
    3
 10
718.43374999999708
 20
494.1496124776765
 11
721.43374999999708
 21
494.1496124776765
  0
LINE
  8
_0-1_計細線
  6
CONTINUOUS
 62
    3
 10
721.43374999999708
 20
494.1496124776765
 11
721.43374999999708
 21
838.14961247767701
  0
LINE
  8
_0-1_計細線
  6
CONTINUOUS
 62
    3
 10
731.43374999999708
 20
838.14961247767701
 11
728.43374999999708
 21
838.14961247767701
  0
LINE
  8
_0-1_計細線
  6
CONTINUOUS
 62
    3
 10
728.43374999999708
 20
838.14961247767701
 11
728.43374999999708
 21
494.1496124776765
  0
LINE
  8
_0-1_計細線
  6
CONTINUOUS
 62
    3
 10
728.43374999999708
 20
494.1496124776765
 11
731.43374999999708
 21
494.1496124776765
  0
LINE
  8
_0-1_計細線
  6
CONTINUOUS
 62
    3
 10
731.43374999999708
 20
494.1496124776765
 11
731.43374999999708
 21
838.14961247767701
  0
LINE
  8
_0-1_計細線
  6
CONTINUOUS
 62
    3
 10
741.43374999999708
 20
838.14961247767701
 11
738.43374999999708
 21
838.14961247767701
  0
LINE
  8
_0-1_計細線
  6
CONTINUOUS
 62
    3
 10
738.43374999999708
 20
838.14961247767701
 11
738.43374999999708
 21
494.1496124776765
  0
LINE
  8
_0-1_計細線
  6
CONTINUOUS
 62
    3
 10
738.43374999999708
 20
494.1496124776765
 11
741.43374999999708
 21
494.1496124776765
  0
LINE
  8
_0-1_計細線
  6
CONTINUOUS
 62
    3
 10
741.43374999999708
 20
494.1496124776765
 11
741.43374999999708
 21
838.14961247767701
  0
LINE
  8
_0-1_計細線
  6
CONTINUOUS
 62
    3
 10
751.43374999999708
 20
838.14961247767701
 11
748.43374999999708
 21
838.14961247767701
  0
LINE
  8
_0-1_計細線
  6
CONTINUOUS
 62
    3
 10
748.43374999999708
 20
838.14961247767701
 11
748.43374999999708
 21
494.1496124776765
  0
LINE
  8
_0-1_計細線
  6
CONTINUOUS
 62
    3
 10
748.43374999999708
 20
494.1496124776765
 11
751.43374999999708
 21
494.1496124776765
  0
LINE
  8
_0-1_計細線
  6
CONTINUOUS
 62
    3
 10
751.43374999999708
 20
494.1496124776765
 11
751.43374999999708
 21
838.14961247767701
  0
LINE
  8
_0-1_計細線
  6
CONTINUOUS
 62
    3
 10
761.43374999999708
 20
838.14961247767701
 11
758.43374999999708
 21
838.14961247767701
  0
LINE
  8
_0-1_計細線
  6
CONTINUOUS
 62
    3
 10
758.43374999999708
 20
838.14961247767701
 11
758.43374999999708
 21
494.1496124776765
  0
LINE
  8
_0-1_計細線
  6
CONTINUOUS
 62
    3
 10
758.43374999999708
 20
494.1496124776765
 11
761.43374999999708
 21
494.1496124776765
  0
LINE
  8
_0-1_計細線
  6
CONTINUOUS
 62
    3
 10
761.43374999999708
 20
494.1496124776765
 11
761.43374999999708
 21
838.14961247767701
  0
LINE
  8
_0-1_計細線
  6
CONTINUOUS
 62
    3
 10
771.43374999999708
 20
838.14961247767701
 11
768.43374999999708
 21
838.14961247767701
  0
LINE
  8
_0-1_計細線
  6
CONTINUOUS
 62
    3
 10
768.43374999999708
 20
838.14961247767701
 11
768.43374999999708
 21
494.1496124776765
  0
LINE
  8
_0-1_計細線
  6
CONTINUOUS
 62
    3
 10
768.43374999999708
 20
494.1496124776765
 11
771.43374999999708
 21
494.1496124776765
  0
LINE
  8
_0-1_計細線
  6
CONTINUOUS
 62
    3
 10
771.43374999999708
 20
494.1496124776765
 11
771.43374999999708
 21
838.14961247767701
  0
LINE
  8
_0-1_計細線
  6
CONTINUOUS
 62
    3
 10
781.43374999999708
 20
838.14961247767701
 11
778.43374999999708
 21
838.14961247767701
  0
LINE
  8
_0-1_計細線
  6
CONTINUOUS
 62
    3
 10
778.43374999999708
 20
838.14961247767701
 11
778.43374999999708
 21
494.1496124776765
  0
LINE
  8
_0-1_計細線
  6
CONTINUOUS
 62
    3
 10
778.43374999999708
 20
494.1496124776765
 11
781.43374999999708
 21
494.1496124776765
  0
LINE
  8
_0-1_計細線
  6
CONTINUOUS
 62
    3
 10
781.43374999999708
 20
494.1496124776765
 11
781.43374999999708
 21
838.14961247767701
  0
LINE
  8
_0-1_計細線
  6
CONTINUOUS
 62
    3
 10
791.43374999999708
 20
838.14961247767701
 11
788.43374999999708
 21
838.14961247767701
  0
LINE
  8
_0-1_計細線
  6
CONTINUOUS
 62
    3
 10
788.43374999999708
 20
838.14961247767701
 11
788.43374999999708
 21
494.1496124776765
  0
LINE
  8
_0-1_計細線
  6
CONTINUOUS
 62
    3
 10
788.43374999999708
 20
494.1496124776765
 11
791.43374999999708
 21
494.1496124776765
  0
LINE
  8
_0-1_計細線
  6
CONTINUOUS
 62
    3
 10
791.43374999999708
 20
494.1496124776765
 11
791.43374999999708
 21
838.14961247767701
  0
LINE
  8
_0-1_計細線
  6
CONTINUOUS
 62
    3
 10
801.43374999999708
 20
838.14961247767701
 11
798.43374999999708
 21
838.14961247767701
  0
LINE
  8
_0-1_計細線
  6
CONTINUOUS
 62
    3
 10
798.43374999999708
 20
838.14961247767701
 11
798.43374999999708
 21
494.1496124776765
  0
LINE
  8
_0-1_計細線
  6
CONTINUOUS
 62
    3
 10
798.43374999999708
 20
494.1496124776765
 11
801.43374999999708
 21
494.1496124776765
  0
LINE
  8
_0-1_計細線
  6
CONTINUOUS
 62
    3
 10
801.43374999999708
 20
494.1496124776765
 11
801.43374999999708
 21
838.14961247767701
  0
LINE
  8
_0-1_計細線
  6
CONTINUOUS
 62
    3
 10
811.43374999999708
 20
838.14961247767701
 11
808.43374999999708
 21
838.14961247767701
  0
LINE
  8
_0-1_計細線
  6
CONTINUOUS
 62
    3
 10
808.43374999999708
 20
838.14961247767701
 11
808.43374999999708
 21
494.1496124776765
  0
LINE
  8
_0-1_計細線
  6
CONTINUOUS
 62
    3
 10
808.43374999999708
 20
494.1496124776765
 11
811.43374999999708
 21
494.1496124776765
  0
LINE
  8
_0-1_計細線
  6
CONTINUOUS
 62
    3
 10
811.43374999999708
 20
494.1496124776765
 11
811.43374999999708
 21
838.14961247767701
  0
LINE
  8
_0-1_計細線
  6
CONTINUOUS
 62
    3
 10
821.43374999999708
 20
838.14961247767701
 11
818.43374999999708
 21
838.14961247767701
  0
LINE
  8
_0-1_計細線
  6
CONTINUOUS
 62
    3
 10
818.43374999999708
 20
838.14961247767701
 11
818.43374999999708
 21
494.1496124776765
  0
LINE
  8
_0-1_計細線
  6
CONTINUOUS
 62
    3
 10
818.43374999999708
 20
494.1496124776765
 11
821.43374999999708
 21
494.1496124776765
  0
LINE
  8
_0-1_計細線
  6
CONTINUOUS
 62
    3
 10
821.43374999999708
 20
494.1496124776765
 11
821.43374999999708
 21
838.14961247767701
  0
LINE
  8
_0-1_計細線
  6
CONTINUOUS
 62
    3
 10
831.43374999999708
 20
838.14961247767701
 11
828.43374999999708
 21
838.14961247767701
  0
LINE
  8
_0-1_計細線
  6
CONTINUOUS
 62
    3
 10
828.43374999999708
 20
838.14961247767701
 11
828.43374999999708
 21
494.1496124776765
  0
LINE
  8
_0-1_計細線
  6
CONTINUOUS
 62
    3
 10
828.43374999999708
 20
494.1496124776765
 11
831.43374999999708
 21
494.1496124776765
  0
LINE
  8
_0-1_計細線
  6
CONTINUOUS
 62
    3
 10
831.43374999999708
 20
494.1496124776765
 11
831.43374999999708
 21
838.14961247767701
  0
LINE
  8
_0-1_計細線
  6
CONTINUOUS
 62
    3
 10
841.43374999999708
 20
838.14961247767701
 11
838.43374999999708
 21
838.14961247767701
  0
LINE
  8
_0-1_計細線
  6
CONTINUOUS
 62
    3
 10
838.43374999999708
 20
838.14961247767701
 11
838.43374999999708
 21
494.1496124776765
  0
LINE
  8
_0-1_計細線
  6
CONTINUOUS
 62
    3
 10
838.43374999999708
 20
494.1496124776765
 11
841.43374999999708
 21
494.1496124776765
  0
LINE
  8
_0-1_計細線
  6
CONTINUOUS
 62
    3
 10
841.43374999999708
 20
494.1496124776765
 11
841.43374999999708
 21
838.14961247767701
  0
LINE
  8
_0-1_計細線
  6
CONTINUOUS
 62
    3
 10
851.43374999999708
 20
838.14961247767701
 11
848.43374999999708
 21
838.14961247767701
  0
LINE
  8
_0-1_計細線
  6
CONTINUOUS
 62
    3
 10
848.43374999999708
 20
838.14961247767701
 11
848.43374999999708
 21
494.1496124776765
  0
LINE
  8
_0-1_計細線
  6
CONTINUOUS
 62
    3
 10
848.43374999999708
 20
494.1496124776765
 11
851.43374999999708
 21
494.1496124776765
  0
LINE
  8
_0-1_計細線
  6
CONTINUOUS
 62
    3
 10
851.43374999999708
 20
494.1496124776765
 11
851.43374999999708
 21
838.14961247767701
  0
LINE
  8
_0-1_計細線
  6
CONTINUOUS
 62
    3
 10
861.43374999999708
 20
838.14961247767701
 11
858.43374999999708
 21
838.14961247767701
  0
LINE
  8
_0-1_計細線
  6
CONTINUOUS
 62
    3
 10
858.43374999999708
 20
838.14961247767701
 11
858.43374999999708
 21
494.1496124776765
  0
LINE
  8
_0-1_計細線
  6
CONTINUOUS
 62
    3
 10
858.43374999999708
 20
494.1496124776765
 11
861.43374999999708
 21
494.1496124776765
  0
LINE
  8
_0-1_計細線
  6
CONTINUOUS
 62
    3
 10
861.43374999999708
 20
494.1496124776765
 11
861.43374999999708
 21
838.14961247767701
  0
LINE
  8
_0-1_計細線
  6
CONTINUOUS
 62
    3
 10
871.43374999999708
 20
838.14961247767701
 11
868.43374999999708
 21
838.14961247767701
  0
LINE
  8
_0-1_計細線
  6
CONTINUOUS
 62
    3
 10
868.43374999999708
 20
838.14961247767701
 11
868.43374999999708
 21
494.1496124776765
  0
LINE
  8
_0-1_計細線
  6
CONTINUOUS
 62
    3
 10
868.43374999999708
 20
494.1496124776765
 11
871.43374999999708
 21
494.1496124776765
  0
LINE
  8
_0-1_計細線
  6
CONTINUOUS
 62
    3
 10
871.43374999999708
 20
494.1496124776765
 11
871.43374999999708
 21
838.14961247767701
  0
LINE
  8
_0-1_計細線
  6
CONTINUOUS
 62
    3
 10
881.43374999999708
 20
838.14961247767701
 11
878.43374999999708
 21
838.14961247767701
  0
LINE
  8
_0-1_計細線
  6
CONTINUOUS
 62
    3
 10
878.43374999999708
 20
838.14961247767701
 11
878.43374999999708
 21
494.1496124776765
  0
LINE
  8
_0-1_計細線
  6
CONTINUOUS
 62
    3
 10
878.43374999999708
 20
494.1496124776765
 11
881.43374999999708
 21
494.1496124776765
  0
LINE
  8
_0-1_計細線
  6
CONTINUOUS
 62
    3
 10
881.43374999999708
 20
494.1496124776765
 11
881.43374999999708
 21
838.14961247767701
  0
LINE
  8
_0-1_計細線
  6
CONTINUOUS
 62
    3
 10
891.43374999999708
 20
838.14961247767701
 11
888.43374999999708
 21
838.14961247767701
  0
LINE
  8
_0-1_計細線
  6
CONTINUOUS
 62
    3
 10
888.43374999999708
 20
838.14961247767701
 11
888.43374999999708
 21
494.1496124776765
  0
LINE
  8
_0-1_計細線
  6
CONTINUOUS
 62
    3
 10
888.43374999999708
 20
494.1496124776765
 11
891.43374999999708
 21
494.1496124776765
  0
LINE
  8
_0-1_計細線
  6
CONTINUOUS
 62
    3
 10
891.43374999999708
 20
494.1496124776765
 11
891.43374999999708
 21
838.14961247767701
  0
LINE
  8
_0-1_計細線
  6
CONTINUOUS
 62
    3
 10
901.43374999999708
 20
838.14961247767701
 11
898.43374999999708
 21
838.14961247767701
  0
LINE
  8
_0-1_計細線
  6
CONTINUOUS
 62
    3
 10
898.43374999999708
 20
838.14961247767701
 11
898.43374999999708
 21
494.1496124776765
  0
LINE
  8
_0-1_計細線
  6
CONTINUOUS
 62
    3
 10
898.43374999999708
 20
494.1496124776765
 11
901.43374999999708
 21
494.1496124776765
  0
LINE
  8
_0-1_計細線
  6
CONTINUOUS
 62
    3
 10
901.43374999999708
 20
494.1496124776765
 11
901.43374999999708
 21
838.14961247767701
  0
LINE
  8
_0-1_計細線
  6
CONTINUOUS
 62
    3
 10
911.43374999999708
 20
838.14961247767701
 11
908.43374999999708
 21
838.14961247767701
  0
LINE
  8
_0-1_計細線
  6
CONTINUOUS
 62
    3
 10
908.43374999999708
 20
838.14961247767701
 11
908.43374999999708
 21
494.1496124776765
  0
LINE
  8
_0-1_計細線
  6
CONTINUOUS
 62
    3
 10
908.43374999999708
 20
494.1496124776765
 11
911.43374999999708
 21
494.1496124776765
  0
LINE
  8
_0-1_計細線
  6
CONTINUOUS
 62
    3
 10
911.43374999999708
 20
494.1496124776765
 11
911.43374999999708
 21
838.14961247767701
  0
LINE
  8
_0-1_計細線
  6
CONTINUOUS
 62
    3
 10
921.43374999999708
 20
838.14961247767701
 11
918.43374999999708
 21
838.14961247767701
  0
LINE
  8
_0-1_計細線
  6
CONTINUOUS
 62
    3
 10
918.43374999999708
 20
838.14961247767701
 11
918.43374999999708
 21
494.1496124776765
  0
LINE
  8
_0-1_計細線
  6
CONTINUOUS
 62
    3
 10
918.43374999999708
 20
494.1496124776765
 11
921.43374999999708
 21
494.1496124776765
  0
LINE
  8
_0-1_計細線
  6
CONTINUOUS
 62
    3
 10
921.43374999999708
 20
494.1496124776765
 11
921.43374999999708
 21
838.14961247767701
  0
LINE
  8
_0-1_計細線
  6
CONTINUOUS
 62
    3
 10
931.43374999999708
 20
838.14961247767701
 11
928.43374999999708
 21
838.14961247767701
  0
LINE
  8
_0-1_計細線
  6
CONTINUOUS
 62
    3
 10
928.43374999999708
 20
838.14961247767701
 11
928.43374999999708
 21
494.1496124776765
  0
LINE
  8
_0-1_計細線
  6
CONTINUOUS
 62
    3
 10
928.43374999999708
 20
494.1496124776765
 11
931.43374999999708
 21
494.1496124776765
  0
LINE
  8
_0-1_計細線
  6
CONTINUOUS
 62
    3
 10
931.43374999999708
 20
494.1496124776765
 11
931.43374999999708
 21
838.14961247767701
  0
LINE
  8
_0-1_計細線
  6
CONTINUOUS
 62
    3
 10
941.43374999999708
 20
838.14961247767701
 11
938.43374999999708
 21
838.14961247767701
  0
LINE
  8
_0-1_計細線
  6
CONTINUOUS
 62
    3
 10
938.43374999999708
 20
838.14961247767701
 11
938.43374999999708
 21
494.1496124776765
  0
LINE
  8
_0-1_計細線
  6
CONTINUOUS
 62
    3
 10
938.43374999999708
 20
494.1496124776765
 11
941.43374999999708
 21
494.1496124776765
  0
LINE
  8
_0-1_計細線
  6
CONTINUOUS
 62
    3
 10
941.43374999999708
 20
494.1496124776765
 11
941.43374999999708
 21
838.14961247767701
  0
LINE
  8
_0-1_計細線
  6
CONTINUOUS
 62
    3
 10
951.43374999999708
 20
838.14961247767701
 11
948.43374999999708
 21
838.14961247767701
  0
LINE
  8
_0-1_計細線
  6
CONTINUOUS
 62
    3
 10
948.43374999999708
 20
838.14961247767701
 11
948.43374999999708
 21
494.1496124776765
  0
LINE
  8
_0-1_計細線
  6
CONTINUOUS
 62
    3
 10
948.43374999999708
 20
494.1496124776765
 11
951.43374999999708
 21
494.1496124776765
  0
LINE
  8
_0-1_計細線
  6
CONTINUOUS
 62
    3
 10
951.43374999999708
 20
494.1496124776765
 11
951.43374999999708
 21
838.14961247767701
  0
LINE
  8
_0-1_計細線
  6
CONTINUOUS
 62
    3
 10
961.43374999999708
 20
838.14961247767701
 11
958.43374999999708
 21
838.14961247767701
  0
LINE
  8
_0-1_計細線
  6
CONTINUOUS
 62
    3
 10
958.43374999999708
 20
838.14961247767701
 11
958.43374999999708
 21
494.1496124776765
  0
LINE
  8
_0-1_計細線
  6
CONTINUOUS
 62
    3
 10
958.43374999999708
 20
494.1496124776765
 11
961.43374999999708
 21
494.1496124776765
  0
LINE
  8
_0-1_計細線
  6
CONTINUOUS
 62
    3
 10
961.43374999999708
 20
494.1496124776765
 11
961.43374999999708
 21
838.14961247767701
  0
LINE
  8
_0-1_計細線
  6
CONTINUOUS
 62
    3
 10
971.43374999999708
 20
838.14961247767701
 11
968.43374999999708
 21
838.14961247767701
  0
LINE
  8
_0-1_計細線
  6
CONTINUOUS
 62
    3
 10
968.43374999999708
 20
838.14961247767701
 11
968.43374999999708
 21
494.1496124776765
  0
LINE
  8
_0-1_計細線
  6
CONTINUOUS
 62
    3
 10
968.43374999999708
 20
494.1496124776765
 11
971.43374999999708
 21
494.1496124776765
  0
LINE
  8
_0-1_計細線
  6
CONTINUOUS
 62
    3
 10
971.43374999999708
 20
494.1496124776765
 11
971.43374999999708
 21
838.14961247767701
  0
LINE
  8
_0-1_計細線
  6
CONTINUOUS
 62
    3
 10
981.43374999999708
 20
838.14961247767701
 11
978.43374999999708
 21
838.14961247767701
  0
LINE
  8
_0-1_計細線
  6
CONTINUOUS
 62
    3
 10
978.43374999999708
 20
838.14961247767701
 11
978.43374999999708
 21
494.1496124776765
  0
LINE
  8
_0-1_計細線
  6
CONTINUOUS
 62
    3
 10
978.43374999999708
 20
494.1496124776765
 11
981.43374999999708
 21
494.1496124776765
  0
LINE
  8
_0-1_計細線
  6
CONTINUOUS
 62
    3
 10
981.43374999999708
 20
494.1496124776765
 11
981.43374999999708
 21
838.14961247767701
  0
LINE
  8
_0-1_計細線
  6
CONTINUOUS
 62
    3
 10
991.43374999999708
 20
838.14961247767701
 11
988.43374999999708
 21
838.14961247767701
  0
LINE
  8
_0-1_計細線
  6
CONTINUOUS
 62
    3
 10
988.43374999999708
 20
838.14961247767701
 11
988.43374999999708
 21
494.1496124776765
  0
LINE
  8
_0-1_計細線
  6
CONTINUOUS
 62
    3
 10
988.43374999999708
 20
494.1496124776765
 11
991.43374999999708
 21
494.1496124776765
  0
LINE
  8
_0-1_計細線
  6
CONTINUOUS
 62
    3
 10
991.43374999999708
 20
494.1496124776765
 11
991.43374999999708
 21
838.14961247767701
  0
LINE
  8
_0-1_計細線
  6
CONTINUOUS
 62
    3
 10
1001.4337499999971
 20
838.14961247767701
 11
998.43374999999708
 21
838.14961247767701
  0
LINE
  8
_0-1_計細線
  6
CONTINUOUS
 62
    3
 10
998.43374999999708
 20
838.14961247767701
 11
998.43374999999708
 21
494.1496124776765
  0
LINE
  8
_0-1_計細線
  6
CONTINUOUS
 62
    3
 10
998.43374999999708
 20
494.1496124776765
 11
1001.4337499999971
 21
494.1496124776765
  0
LINE
  8
_0-1_計細線
  6
CONTINUOUS
 62
    3
 10
1001.4337499999971
 20
494.1496124776765
 11
1001.4337499999971
 21
838.14961247767701
  0
LINE
  8
_0-1_計細線
  6
CONTINUOUS
 62
    3
 10
1011.4337499999971
 20
838.14961247767701
 11
1008.4337499999971
 21
838.14961247767701
  0
LINE
  8
_0-1_計細線
  6
CONTINUOUS
 62
    3
 10
1008.4337499999971
 20
838.14961247767701
 11
1008.4337499999971
 21
494.1496124776765
  0
LINE
  8
_0-1_計細線
  6
CONTINUOUS
 62
    3
 10
1008.4337499999971
 20
494.1496124776765
 11
1011.4337499999971
 21
494.1496124776765
  0
LINE
  8
_0-1_計細線
  6
CONTINUOUS
 62
    3
 10
1011.4337499999971
 20
494.1496124776765
 11
1011.4337499999971
 21
838.14961247767701
  0
LINE
  8
_0-1_計細線
  6
CONTINUOUS
 62
    3
 10
1021.4337499999971
 20
838.14961247767701
 11
1018.4337499999971
 21
838.14961247767701
  0
LINE
  8
_0-1_計細線
  6
CONTINUOUS
 62
    3
 10
1018.4337499999971
 20
838.14961247767701
 11
1018.4337499999971
 21
494.1496124776765
  0
LINE
  8
_0-1_計細線
  6
CONTINUOUS
 62
    3
 10
1018.4337499999971
 20
494.1496124776765
 11
1021.4337499999971
 21
494.1496124776765
  0
LINE
  8
_0-1_計細線
  6
CONTINUOUS
 62
    3
 10
1021.4337499999971
 20
494.1496124776765
 11
1021.4337499999971
 21
838.14961247767701
  0
LINE
  8
_0-1_計細線
  6
CONTINUOUS
 62
    3
 10
1031.433749999997
 20
838.14961247767701
 11
1028.433749999997
 21
838.14961247767701
  0
LINE
  8
_0-1_計細線
  6
CONTINUOUS
 62
    3
 10
1028.433749999997
 20
838.14961247767701
 11
1028.433749999997
 21
494.1496124776765
  0
LINE
  8
_0-1_計細線
  6
CONTINUOUS
 62
    3
 10
1028.433749999997
 20
494.1496124776765
 11
1031.433749999997
 21
494.1496124776765
  0
LINE
  8
_0-1_計細線
  6
CONTINUOUS
 62
    3
 10
1031.433749999997
 20
494.1496124776765
 11
1031.433749999997
 21
838.14961247767701
  0
LINE
  8
_0-1_計細線
  6
CONTINUOUS
 62
    3
 10
1041.433749999997
 20
838.14961247767701
 11
1038.433749999997
 21
838.14961247767701
  0
LINE
  8
_0-1_計細線
  6
CONTINUOUS
 62
    3
 10
1038.433749999997
 20
838.14961247767701
 11
1038.433749999997
 21
494.1496124776765
  0
LINE
  8
_0-1_計細線
  6
CONTINUOUS
 62
    3
 10
1038.433749999997
 20
494.1496124776765
 11
1041.433749999997
 21
494.1496124776765
  0
LINE
  8
_0-1_計細線
  6
CONTINUOUS
 62
    3
 10
1041.433749999997
 20
494.1496124776765
 11
1041.433749999997
 21
838.14961247767701
  0
LINE
  8
_0-1_計細線
  6
CONTINUOUS
 62
    3
 10
1051.433749999997
 20
838.14961247767701
 11
1048.433749999997
 21
838.14961247767701
  0
LINE
  8
_0-1_計細線
  6
CONTINUOUS
 62
    3
 10
1048.433749999997
 20
838.14961247767701
 11
1048.433749999997
 21
494.1496124776765
  0
LINE
  8
_0-1_計細線
  6
CONTINUOUS
 62
    3
 10
1048.433749999997
 20
494.1496124776765
 11
1051.433749999997
 21
494.1496124776765
  0
LINE
  8
_0-1_計細線
  6
CONTINUOUS
 62
    3
 10
1051.433749999997
 20
494.1496124776765
 11
1051.433749999997
 21
838.14961247767701
  0
LINE
  8
_0-1_計細線
  6
CONTINUOUS
 62
    3
 10
1061.433749999997
 20
838.14961247767701
 11
1058.433749999997
 21
838.14961247767701
  0
LINE
  8
_0-1_計細線
  6
CONTINUOUS
 62
    3
 10
1058.433749999997
 20
838.14961247767701
 11
1058.433749999997
 21
494.1496124776765
  0
LINE
  8
_0-1_計細線
  6
CONTINUOUS
 62
    3
 10
1058.433749999997
 20
494.1496124776765
 11
1061.433749999997
 21
494.1496124776765
  0
LINE
  8
_0-1_計細線
  6
CONTINUOUS
 62
    3
 10
1061.433749999997
 20
494.1496124776765
 11
1061.433749999997
 21
838.14961247767701
  0
LINE
  8
_0-1_計細線
  6
CONTINUOUS
 62
    3
 10
1071.433749999997
 20
838.14961247767701
 11
1068.433749999997
 21
838.14961247767701
  0
LINE
  8
_0-1_計細線
  6
CONTINUOUS
 62
    3
 10
1068.433749999997
 20
838.14961247767701
 11
1068.433749999997
 21
494.1496124776765
  0
LINE
  8
_0-1_計細線
  6
CONTINUOUS
 62
    3
 10
1068.433749999997
 20
494.1496124776765
 11
1071.433749999997
 21
494.1496124776765
  0
LINE
  8
_0-1_計細線
  6
CONTINUOUS
 62
    3
 10
1071.433749999997
 20
494.1496124776765
 11
1071.433749999997
 21
838.14961247767701
  0
LINE
  8
_0-1_計細線
  6
CONTINUOUS
 62
    3
 10
1081.433749999997
 20
838.14961247767701
 11
1078.433749999997
 21
838.14961247767701
  0
LINE
  8
_0-1_計細線
  6
CONTINUOUS
 62
    3
 10
1078.433749999997
 20
838.14961247767701
 11
1078.433749999997
 21
494.1496124776765
  0
LINE
  8
_0-1_計細線
  6
CONTINUOUS
 62
    3
 10
1078.433749999997
 20
494.1496124776765
 11
1081.433749999997
 21
494.1496124776765
  0
LINE
  8
_0-1_計細線
  6
CONTINUOUS
 62
    3
 10
1081.433749999997
 20
494.1496124776765
 11
1081.433749999997
 21
838.14961247767701
  0
LINE
  8
_0-1_計細線
  6
CONTINUOUS
 62
    3
 10
1091.433749999997
 20
838.14961247767701
 11
1088.433749999997
 21
838.14961247767701
  0
LINE
  8
_0-1_計細線
  6
CONTINUOUS
 62
    3
 10
1088.433749999997
 20
838.14961247767701
 11
1088.433749999997
 21
494.1496124776765
  0
LINE
  8
_0-1_計細線
  6
CONTINUOUS
 62
    3
 10
1088.433749999997
 20
494.1496124776765
 11
1091.433749999997
 21
494.1496124776765
  0
LINE
  8
_0-1_計細線
  6
CONTINUOUS
 62
    3
 10
1091.433749999997
 20
494.1496124776765
 11
1091.433749999997
 21
838.14961247767701
  0
LINE
  8
_0-1_計細線
  6
CONTINUOUS
 62
    3
 10
1101.433749999997
 20
838.14961247767701
 11
1098.433749999997
 21
838.14961247767701
  0
LINE
  8
_0-1_計細線
  6
CONTINUOUS
 62
    3
 10
1098.433749999997
 20
838.14961247767701
 11
1098.433749999997
 21
494.1496124776765
  0
LINE
  8
_0-1_計細線
  6
CONTINUOUS
 62
    3
 10
1098.433749999997
 20
494.1496124776765
 11
1101.433749999997
 21
494.1496124776765
  0
LINE
  8
_0-1_計細線
  6
CONTINUOUS
 62
    3
 10
1101.433749999997
 20
494.1496124776765
 11
1101.433749999997
 21
838.14961247767701
  0
LINE
  8
_0-1_計細線
  6
CONTINUOUS
 62
    3
 10
1111.433749999997
 20
838.14961247767701
 11
1108.433749999997
 21
838.14961247767701
  0
LINE
  8
_0-1_計細線
  6
CONTINUOUS
 62
    3
 10
1108.433749999997
 20
838.14961247767701
 11
1108.433749999997
 21
494.1496124776765
  0
LINE
  8
_0-1_計細線
  6
CONTINUOUS
 62
    3
 10
1108.433749999997
 20
494.1496124776765
 11
1111.433749999997
 21
494.1496124776765
  0
LINE
  8
_0-1_計細線
  6
CONTINUOUS
 62
    3
 10
1111.433749999997
 20
494.1496124776765
 11
1111.433749999997
 21
838.14961247767701
  0
LINE
  8
_0-1_計細線
  6
CONTINUOUS
 62
    3
 10
1121.433749999997
 20
838.14961247767701
 11
1118.433749999997
 21
838.14961247767701
  0
LINE
  8
_0-1_計細線
  6
CONTINUOUS
 62
    3
 10
1118.433749999997
 20
838.14961247767701
 11
1118.433749999997
 21
494.1496124776765
  0
LINE
  8
_0-1_計細線
  6
CONTINUOUS
 62
    3
 10
1118.433749999997
 20
494.1496124776765
 11
1121.433749999997
 21
494.1496124776765
  0
LINE
  8
_0-1_計細線
  6
CONTINUOUS
 62
    3
 10
1121.433749999997
 20
494.1496124776765
 11
1121.433749999997
 21
838.14961247767701
  0
LINE
  8
_0-1_計細線
  6
CONTINUOUS
 62
    3
 10
1131.433749999997
 20
838.14961247767701
 11
1128.433749999997
 21
838.14961247767701
  0
LINE
  8
_0-1_計細線
  6
CONTINUOUS
 62
    3
 10
1128.433749999997
 20
838.14961247767701
 11
1128.433749999997
 21
494.1496124776765
  0
LINE
  8
_0-1_計細線
  6
CONTINUOUS
 62
    3
 10
1128.433749999997
 20
494.1496124776765
 11
1131.433749999997
 21
494.1496124776765
  0
LINE
  8
_0-1_計細線
  6
CONTINUOUS
 62
    3
 10
1131.433749999997
 20
494.1496124776765
 11
1131.433749999997
 21
838.14961247767701
  0
LINE
  8
_0-1_計細線
  6
CONTINUOUS
 62
    3
 10
1141.433749999997
 20
838.14961247767701
 11
1138.433749999997
 21
838.14961247767701
  0
LINE
  8
_0-1_計細線
  6
CONTINUOUS
 62
    3
 10
1138.433749999997
 20
838.14961247767701
 11
1138.433749999997
 21
494.1496124776765
  0
LINE
  8
_0-1_計細線
  6
CONTINUOUS
 62
    3
 10
1138.433749999997
 20
494.1496124776765
 11
1141.433749999997
 21
494.1496124776765
  0
LINE
  8
_0-1_計細線
  6
CONTINUOUS
 62
    3
 10
1141.433749999997
 20
494.1496124776765
 11
1141.433749999997
 21
838.14961247767701
  0
LINE
  8
_0-1_計細線
  6
CONTINUOUS
 62
    3
 10
1151.433749999997
 20
838.14961247767701
 11
1148.433749999997
 21
838.14961247767701
  0
LINE
  8
_0-1_計細線
  6
CONTINUOUS
 62
    3
 10
1148.433749999997
 20
838.14961247767701
 11
1148.433749999997
 21
494.1496124776765
  0
LINE
  8
_0-1_計細線
  6
CONTINUOUS
 62
    3
 10
1148.433749999997
 20
494.1496124776765
 11
1151.433749999997
 21
494.1496124776765
  0
LINE
  8
_0-1_計細線
  6
CONTINUOUS
 62
    3
 10
1151.433749999997
 20
494.1496124776765
 11
1151.433749999997
 21
838.14961247767701
  0
LINE
  8
_0-1_計細線
  6
CONTINUOUS
 62
    3
 10
1161.433749999997
 20
838.14961247767701
 11
1158.433749999997
 21
838.14961247767701
  0
LINE
  8
_0-1_計細線
  6
CONTINUOUS
 62
    3
 10
1158.433749999997
 20
838.14961247767701
 11
1158.433749999997
 21
494.1496124776765
  0
LINE
  8
_0-1_計細線
  6
CONTINUOUS
 62
    3
 10
1158.433749999997
 20
494.1496124776765
 11
1161.433749999997
 21
494.1496124776765
  0
LINE
  8
_0-1_計細線
  6
CONTINUOUS
 62
    3
 10
1161.433749999997
 20
494.1496124776765
 11
1161.433749999997
 21
838.14961247767701
  0
LINE
  8
_0-1_計細線
  6
CONTINUOUS
 62
    3
 10
1171.433749999997
 20
838.14961247767701
 11
1168.433749999997
 21
838.14961247767701
  0
LINE
  8
_0-1_計細線
  6
CONTINUOUS
 62
    3
 10
1168.433749999997
 20
838.14961247767701
 11
1168.433749999997
 21
494.1496124776765
  0
LINE
  8
_0-1_計細線
  6
CONTINUOUS
 62
    3
 10
1168.433749999997
 20
494.1496124776765
 11
1171.433749999997
 21
494.1496124776765
  0
LINE
  8
_0-1_計細線
  6
CONTINUOUS
 62
    3
 10
1171.433749999997
 20
494.1496124776765
 11
1171.433749999997
 21
838.14961247767701
  0
LINE
  8
_0-1_計細線
  6
CONTINUOUS
 62
    3
 10
1181.433749999997
 20
838.14961247767701
 11
1178.433749999997
 21
838.14961247767701
  0
LINE
  8
_0-1_計細線
  6
CONTINUOUS
 62
    3
 10
1178.433749999997
 20
838.14961247767701
 11
1178.433749999997
 21
494.1496124776765
  0
LINE
  8
_0-1_計細線
  6
CONTINUOUS
 62
    3
 10
1178.433749999997
 20
494.1496124776765
 11
1181.433749999997
 21
494.1496124776765
  0
LINE
  8
_0-1_計細線
  6
CONTINUOUS
 62
    3
 10
1181.433749999997
 20
494.1496124776765
 11
1181.433749999997
 21
838.14961247767701
  0
LINE
  8
_0-1_計細線
  6
CONTINUOUS
 62
    3
 10
1191.433749999997
 20
838.14961247767701
 11
1188.433749999997
 21
838.14961247767701
  0
LINE
  8
_0-1_計細線
  6
CONTINUOUS
 62
    3
 10
1188.433749999997
 20
838.14961247767701
 11
1188.433749999997
 21
494.1496124776765
  0
LINE
  8
_0-1_計細線
  6
CONTINUOUS
 62
    3
 10
1188.433749999997
 20
494.1496124776765
 11
1191.433749999997
 21
494.1496124776765
  0
LINE
  8
_0-1_計細線
  6
CONTINUOUS
 62
    3
 10
1191.433749999997
 20
494.1496124776765
 11
1191.433749999997
 21
838.14961247767701
  0
LINE
  8
_0-1_計細線
  6
CONTINUOUS
 62
    3
 10
1201.433749999997
 20
838.14961247767701
 11
1198.433749999997
 21
838.14961247767701
  0
LINE
  8
_0-1_計細線
  6
CONTINUOUS
 62
    3
 10
1198.433749999997
 20
838.14961247767701
 11
1198.433749999997
 21
494.1496124776765
  0
LINE
  8
_0-1_計細線
  6
CONTINUOUS
 62
    3
 10
1198.433749999997
 20
494.1496124776765
 11
1201.433749999997
 21
494.1496124776765
  0
LINE
  8
_0-1_計細線
  6
CONTINUOUS
 62
    3
 10
1201.433749999997
 20
494.1496124776765
 11
1201.433749999997
 21
838.14961247767701
  0
LINE
  8
_0-1_計細線
  6
CONTINUOUS
 62
    3
 10
1211.433749999997
 20
838.14961247767701
 11
1208.433749999997
 21
838.14961247767701
  0
LINE
  8
_0-1_計細線
  6
CONTINUOUS
 62
    3
 10
1208.433749999997
 20
838.14961247767701
 11
1208.433749999997
 21
494.1496124776765
  0
LINE
  8
_0-1_計細線
  6
CONTINUOUS
 62
    3
 10
1208.433749999997
 20
494.1496124776765
 11
1211.433749999997
 21
494.1496124776765
  0
LINE
  8
_0-1_計細線
  6
CONTINUOUS
 62
    3
 10
1211.433749999997
 20
494.1496124776765
 11
1211.433749999997
 21
838.14961247767701
  0
LINE
  8
_0-1_計細線
  6
CONTINUOUS
 62
    3
 10
1221.433749999997
 20
838.14961247767701
 11
1218.433749999997
 21
838.14961247767701
  0
LINE
  8
_0-1_計細線
  6
CONTINUOUS
 62
    3
 10
1218.433749999997
 20
838.14961247767701
 11
1218.433749999997
 21
494.1496124776765
  0
LINE
  8
_0-1_計細線
  6
CONTINUOUS
 62
    3
 10
1218.433749999997
 20
494.1496124776765
 11
1221.433749999997
 21
494.1496124776765
  0
LINE
  8
_0-1_計細線
  6
CONTINUOUS
 62
    3
 10
1221.433749999997
 20
494.1496124776765
 11
1221.433749999997
 21
838.14961247767701
  0
LINE
  8
_0-5_寸法線
  6
CONTINUOUS
 62
    7
 10
1261.4433689432221
 20
486.14961247767644
 11
1341.3456879942223
 21
486.14961247767621
  0
LINE
  8
_0-5_寸法線
  6
CONTINUOUS
 62
    7
 10
1336.3456879942223
 20
486.14961247767621
 11
1333.7574975431971
 21
495.80887074056693
  0
LINE
  8
_0-5_寸法線
  6
CONTINUOUS
 62
    7
 10
1336.3456879942223
 20
486.14961247767621
 11
1338.9338784452477
 21
495.80887074056693
  0
LINE
  8
_0-5_寸法線
  6
CONTINUOUS
 62
    7
 10
1261.4433689432221
 20
846.14961247767656
 11
1341.3456879942223
 21
846.14961247767621
  0
LINE
  8
_0-5_寸法線
  6
CONTINUOUS
 62
    7
 10
1336.3456879942223
 20
846.14961247767621
 11
1338.9338784452477
 21
836.49035421478561
  0
LINE
  8
_0-5_寸法線
  6
CONTINUOUS
 62
    7
 10
1336.3456879942223
 20
846.14961247767621
 11
1333.7574975431971
 21
836.49035421478561
  0
LINE
  8
_0-5_寸法線
  6
CONTINUOUS
 62
    7
 10
1336.3456879942223
 20
486.14961247767621
 11
1336.3456879942223
 21
846.14961247767621
  0
TEXT
  8
_0-5_寸法線
 62
    7
 10
1336.3456879942223
 20
654.89961247767621
 40
15
 41
1
 50
90
  1
360
  0
LINE
  8
_0-5_寸法線
  6
CONTINUOUS
 62
    7
 10
188.42413105676044
 20
486.14961247767656
 11
143.42413105675996
 21
486.14961247767667
  0
LINE
  8
_0-5_寸法線
  6
CONTINUOUS
 62
    7
 10
148.42413105675996
 20
486.14961247767667
 11
145.83594060573475
 21
495.80887074056733
  0
LINE
  8
_0-5_寸法線
  6
CONTINUOUS
 62
    7
 10
148.42413105675996
 20
486.14961247767667
 11
151.01232150778515
 21
495.80887074056733
  0
LINE
  8
_0-5_寸法線
  6
CONTINUOUS
 62
    7
 10
188.42413105676044
 20
516.14961247767735
 11
143.42413105675996
 21
516.14961247767758
  0
LINE
  8
_0-5_寸法線
  6
CONTINUOUS
 62
    7
 10
148.42413105675996
 20
516.14961247767758
 11
151.01232150778515
 21
506.49035421478686
  0
LINE
  8
_0-5_寸法線
  6
CONTINUOUS
 62
    7
 10
148.42413105675996
 20
516.14961247767758
 11
145.83594060573475
 21
506.49035421478692
  0
LINE
  8
_0-5_寸法線
  6
CONTINUOUS
 62
    7
 10
148.42413105675996
 20
486.14961247767667
 11
148.42413105675996
 21
516.14961247767758
  0
TEXT
  8
_0-5_寸法線
 62
    7
 10
148.42413105675996
 20
493.64961247767718
 40
15
 41
1
 50
90
  1
30
  0
LINE
  8
_0-5_寸法線
  6
CONTINUOUS
 62
    7
 10
148.42413105675996
 20
516.14961247767758
 11
145.83594060573475
 21
525.8088707405683
  0
LINE
  8
_0-5_寸法線
  6
CONTINUOUS
 62
    7
 10
148.42413105675996
 20
516.14961247767758
 11
151.01232150778515
 21
525.8088707405683
  0
LINE
  8
_0-5_寸法線
  6
CONTINUOUS
 62
    7
 10
188.42413105676044
 20
816.14961247767701
 11
143.42413105675996
 21
816.14961247767724
  0
LINE
  8
_0-5_寸法線
  6
CONTINUOUS
 62
    7
 10
148.42413105675996
 20
816.14961247767724
 11
151.01232150778515
 21
806.49035421478641
  0
LINE
  8
_0-5_寸法線
  6
CONTINUOUS
 62
    7
 10
148.42413105675996
 20
816.14961247767724
 11
145.83594060573475
 21
806.49035421478641
  0
LINE
  8
_0-5_寸法線
  6
CONTINUOUS
 62
    7
 10
148.42413105675996
 20
516.14961247767758
 11
148.42413105675996
 21
816.14961247767724
  0
TEXT
  8
_0-5_寸法線
 62
    7
 10
148.42413105675996
 20
654.89961247767735
 40
15
 41
1
 50
89.999999999999815
  1
300
  0
LINE
  8
_0-5_寸法線
  6
CONTINUOUS
 62
    7
 10
148.42413105675996
 20
816.14961247767724
 11
145.83594060573475
 21
825.80887074056795
  0
LINE
  8
_0-5_寸法線
  6
CONTINUOUS
 62
    7
 10
148.42413105675996
 20
816.14961247767724
 11
151.01232150778515
 21
825.80887074056795
  0
LINE
  8
_0-5_寸法線
  6
CONTINUOUS
 62
    7
 10
188.42413105676044
 20
846.14961247767701
 11
143.42413105675996
 21
846.14961247767724
  0
LINE
  8
_0-5_寸法線
  6
CONTINUOUS
 62
    7
 10
148.42413105675996
 20
846.14961247767724
 11
151.01232150778515
 21
836.49035421478641
  0
LINE
  8
_0-5_寸法線
  6
CONTINUOUS
 62
    7
 10
148.42413105675996
 20
846.14961247767724
 11
145.83594060573475
 21
836.49035421478641
  0
LINE
  8
_0-5_寸法線
  6
CONTINUOUS
 62
    7
 10
148.42413105675996
 20
816.14961247767724
 11
148.42413105675996
 21
846.14961247767724
  0
TEXT
  8
_0-5_寸法線
 62
    7
 10
148.42413105675996
 20
823.64961247767724
 40
15
 41
1
 50
90
  1
30
  0
LINE
  8
_0-0_計極細
  6
CONTINUOUS
 62
    2
 10
1211.433749999997
 20
663.64961247767599
 11
1218.433749999997
 21
663.64961247767599
  0
LINE
  8
_0-0_計極細
  6
CONTINUOUS
 62
    2
 10
1211.433749999997
 20
668.64961247767599
 11
1218.433749999997
 21
668.64961247767599
  0
LINE
  8
_0-0_計極細
  6
CONTINUOUS
 62
    2
 10
1201.433749999997
 20
663.64961247767599
 11
1208.433749999997
 21
663.64961247767599
  0
LINE
  8
_0-0_計極細
  6
CONTINUOUS
 62
    2
 10
1201.433749999997
 20
668.64961247767599
 11
1208.433749999997
 21
668.64961247767599
  0
LINE
  8
_0-0_計極細
  6
CONTINUOUS
 62
    2
 10
1191.433749999997
 20
663.64961247767599
 11
1198.433749999997
 21
663.64961247767599
  0
LINE
  8
_0-0_計極細
  6
CONTINUOUS
 62
    2
 10
1191.433749999997
 20
668.64961247767599
 11
1198.433749999997
 21
668.64961247767599
  0
LINE
  8
_0-0_計極細
  6
CONTINUOUS
 62
    2
 10
1181.433749999997
 20
663.64961247767599
 11
1188.433749999997
 21
663.64961247767599
  0
LINE
  8
_0-0_計極細
  6
CONTINUOUS
 62
    2
 10
1181.433749999997
 20
668.64961247767599
 11
1188.433749999997
 21
668.64961247767599
  0
LINE
  8
_0-0_計極細
  6
CONTINUOUS
 62
    2
 10
1171.433749999997
 20
663.64961247767599
 11
1178.433749999997
 21
663.64961247767599
  0
LINE
  8
_0-0_計極細
  6
CONTINUOUS
 62
    2
 10
1171.433749999997
 20
668.64961247767599
 11
1178.433749999997
 21
668.64961247767599
  0
LINE
  8
_0-0_計極細
  6
CONTINUOUS
 62
    2
 10
1161.433749999997
 20
663.64961247767599
 11
1168.433749999997
 21
663.64961247767599
  0
LINE
  8
_0-0_計極細
  6
CONTINUOUS
 62
    2
 10
1161.433749999997
 20
668.64961247767599
 11
1168.433749999997
 21
668.64961247767599
  0
LINE
  8
_0-0_計極細
  6
CONTINUOUS
 62
    2
 10
1151.433749999997
 20
663.64961247767599
 11
1158.433749999997
 21
663.64961247767599
  0
LINE
  8
_0-0_計極細
  6
CONTINUOUS
 62
    2
 10
1151.433749999997
 20
668.64961247767599
 11
1158.433749999997
 21
668.64961247767599
  0
LINE
  8
_0-0_計極細
  6
CONTINUOUS
 62
    2
 10
1141.433749999997
 20
663.64961247767599
 11
1148.433749999997
 21
663.64961247767599
  0
LINE
  8
_0-0_計極細
  6
CONTINUOUS
 62
    2
 10
1141.433749999997
 20
668.64961247767599
 11
1148.433749999997
 21
668.64961247767599
  0
LINE
  8
_0-0_計極細
  6
CONTINUOUS
 62
    2
 10
1131.433749999997
 20
663.64961247767599
 11
1138.433749999997
 21
663.64961247767599
  0
LINE
  8
_0-0_計極細
  6
CONTINUOUS
 62
    2
 10
1131.433749999997
 20
668.64961247767599
 11
1138.433749999997
 21
668.64961247767599
  0
LINE
  8
_0-0_計極細
  6
CONTINUOUS
 62
    2
 10
1121.433749999997
 20
663.64961247767599
 11
1128.433749999997
 21
663.64961247767599
  0
LINE
  8
_0-0_計極細
  6
CONTINUOUS
 62
    2
 10
1121.433749999997
 20
668.64961247767599
 11
1128.433749999997
 21
668.64961247767599
  0
LINE
  8
_0-0_計極細
  6
CONTINUOUS
 62
    2
 10
1111.433749999997
 20
663.64961247767599
 11
1118.433749999997
 21
663.64961247767599
  0
LINE
  8
_0-0_計極細
  6
CONTINUOUS
 62
    2
 10
1111.433749999997
 20
668.64961247767599
 11
1118.433749999997
 21
668.64961247767599
  0
LINE
  8
_0-0_計極細
  6
CONTINUOUS
 62
    2
 10
1101.433749999997
 20
663.64961247767599
 11
1108.433749999997
 21
663.64961247767599
  0
LINE
  8
_0-0_計極細
  6
CONTINUOUS
 62
    2
 10
1101.433749999997
 20
668.64961247767599
 11
1108.433749999997
 21
668.64961247767599
  0
LINE
  8
_0-0_計極細
  6
CONTINUOUS
 62
    2
 10
1091.433749999997
 20
663.64961247767599
 11
1098.433749999997
 21
663.64961247767599
  0
LINE
  8
_0-0_計極細
  6
CONTINUOUS
 62
    2
 10
1091.433749999997
 20
668.64961247767599
 11
1098.433749999997
 21
668.64961247767599
  0
LINE
  8
_0-0_計極細
  6
CONTINUOUS
 62
    2
 10
1081.433749999997
 20
663.64961247767599
 11
1088.433749999997
 21
663.64961247767599
  0
LINE
  8
_0-0_計極細
  6
CONTINUOUS
 62
    2
 10
1081.433749999997
 20
668.64961247767599
 11
1088.433749999997
 21
668.64961247767599
  0
LINE
  8
_0-0_計極細
  6
CONTINUOUS
 62
    2
 10
1071.433749999997
 20
663.64961247767599
 11
1078.433749999997
 21
663.64961247767599
  0
LINE
  8
_0-0_計極細
  6
CONTINUOUS
 62
    2
 10
1071.433749999997
 20
668.64961247767599
 11
1078.433749999997
 21
668.64961247767599
  0
LINE
  8
_0-0_計極細
  6
CONTINUOUS
 62
    2
 10
1061.433749999997
 20
663.64961247767599
 11
1068.433749999997
 21
663.64961247767599
  0
LINE
  8
_0-0_計極細
  6
CONTINUOUS
 62
    2
 10
1061.433749999997
 20
668.64961247767599
 11
1068.433749999997
 21
668.64961247767599
  0
LINE
  8
_0-0_計極細
  6
CONTINUOUS
 62
    2
 10
1051.433749999997
 20
663.64961247767599
 11
1058.433749999997
 21
663.64961247767599
  0
LINE
  8
_0-0_計極細
  6
CONTINUOUS
 62
    2
 10
1051.433749999997
 20
668.64961247767599
 11
1058.433749999997
 21
668.64961247767599
  0
LINE
  8
_0-0_計極細
  6
CONTINUOUS
 62
    2
 10
1041.433749999997
 20
663.64961247767599
 11
1048.433749999997
 21
663.64961247767599
  0
LINE
  8
_0-0_計極細
  6
CONTINUOUS
 62
    2
 10
1041.433749999997
 20
668.64961247767599
 11
1048.433749999997
 21
668.64961247767599
  0
LINE
  8
_0-0_計極細
  6
CONTINUOUS
 62
    2
 10
1031.433749999997
 20
663.64961247767599
 11
1038.433749999997
 21
663.64961247767599
  0
LINE
  8
_0-0_計極細
  6
CONTINUOUS
 62
    2
 10
1031.433749999997
 20
668.64961247767599
 11
1038.433749999997
 21
668.64961247767599
  0
LINE
  8
_0-0_計極細
  6
CONTINUOUS
 62
    2
 10
1021.4337499999971
 20
663.64961247767599
 11
1028.433749999997
 21
663.64961247767599
  0
LINE
  8
_0-0_計極細
  6
CONTINUOUS
 62
    2
 10
1021.4337499999971
 20
668.64961247767599
 11
1028.433749999997
 21
668.64961247767599
  0
LINE
  8
_0-0_計極細
  6
CONTINUOUS
 62
    2
 10
1011.4337499999971
 20
663.64961247767599
 11
1018.4337499999971
 21
663.64961247767599
  0
LINE
  8
_0-0_計極細
  6
CONTINUOUS
 62
    2
 10
1011.4337499999971
 20
668.64961247767599
 11
1018.4337499999971
 21
668.64961247767599
  0
LINE
  8
_0-0_計極細
  6
CONTINUOUS
 62
    2
 10
1001.4337499999971
 20
663.64961247767599
 11
1008.4337499999971
 21
663.64961247767599
  0
LINE
  8
_0-0_計極細
  6
CONTINUOUS
 62
    2
 10
1001.4337499999971
 20
668.64961247767599
 11
1008.4337499999971
 21
668.64961247767599
  0
LINE
  8
_0-0_計極細
  6
CONTINUOUS
 62
    2
 10
991.43374999999708
 20
663.64961247767599
 11
998.43374999999708
 21
663.64961247767599
  0
LINE
  8
_0-0_計極細
  6
CONTINUOUS
 62
    2
 10
991.43374999999708
 20
668.64961247767599
 11
998.43374999999708
 21
668.64961247767599
  0
LINE
  8
_0-0_計極細
  6
CONTINUOUS
 62
    2
 10
981.43374999999708
 20
663.64961247767599
 11
988.43374999999708
 21
663.64961247767599
  0
LINE
  8
_0-0_計極細
  6
CONTINUOUS
 62
    2
 10
981.43374999999708
 20
668.64961247767599
 11
988.43374999999708
 21
668.64961247767599
  0
LINE
  8
_0-0_計極細
  6
CONTINUOUS
 62
    2
 10
971.43374999999708
 20
663.64961247767599
 11
978.43374999999708
 21
663.64961247767599
  0
LINE
  8
_0-0_計極細
  6
CONTINUOUS
 62
    2
 10
971.43374999999708
 20
668.64961247767599
 11
978.43374999999708
 21
668.64961247767599
  0
LINE
  8
_0-0_計極細
  6
CONTINUOUS
 62
    2
 10
961.43374999999708
 20
663.64961247767599
 11
968.43374999999708
 21
663.64961247767599
  0
LINE
  8
_0-0_計極細
  6
CONTINUOUS
 62
    2
 10
961.43374999999708
 20
668.64961247767599
 11
968.43374999999708
 21
668.64961247767599
  0
LINE
  8
_0-0_計極細
  6
CONTINUOUS
 62
    2
 10
951.43374999999708
 20
663.64961247767599
 11
958.43374999999708
 21
663.64961247767599
  0
LINE
  8
_0-0_計極細
  6
CONTINUOUS
 62
    2
 10
951.43374999999708
 20
668.64961247767599
 11
958.43374999999708
 21
668.64961247767599
  0
LINE
  8
_0-0_計極細
  6
CONTINUOUS
 62
    2
 10
941.43374999999708
 20
663.64961247767599
 11
948.43374999999708
 21
663.64961247767599
  0
LINE
  8
_0-0_計極細
  6
CONTINUOUS
 62
    2
 10
941.43374999999708
 20
668.64961247767599
 11
948.43374999999708
 21
668.64961247767599
  0
LINE
  8
_0-0_計極細
  6
CONTINUOUS
 62
    2
 10
931.43374999999708
 20
663.64961247767599
 11
938.43374999999708
 21
663.64961247767599
  0
LINE
  8
_0-0_計極細
  6
CONTINUOUS
 62
    2
 10
931.43374999999708
 20
668.64961247767599
 11
938.43374999999708
 21
668.64961247767599
  0
LINE
  8
_0-0_計極細
  6
CONTINUOUS
 62
    2
 10
921.43374999999708
 20
663.64961247767599
 11
928.43374999999708
 21
663.64961247767599
  0
LINE
  8
_0-0_計極細
  6
CONTINUOUS
 62
    2
 10
921.43374999999708
 20
668.64961247767599
 11
928.43374999999708
 21
668.64961247767599
  0
LINE
  8
_0-0_計極細
  6
CONTINUOUS
 62
    2
 10
911.43374999999708
 20
663.64961247767599
 11
918.43374999999708
 21
663.64961247767599
  0
LINE
  8
_0-0_計極細
  6
CONTINUOUS
 62
    2
 10
911.43374999999708
 20
668.64961247767599
 11
918.43374999999708
 21
668.64961247767599
  0
LINE
  8
_0-0_計極細
  6
CONTINUOUS
 62
    2
 10
901.43374999999708
 20
663.64961247767599
 11
908.43374999999708
 21
663.64961247767599
  0
LINE
  8
_0-0_計極細
  6
CONTINUOUS
 62
    2
 10
901.43374999999708
 20
668.64961247767599
 11
908.43374999999708
 21
668.64961247767599
  0
LINE
  8
_0-0_計極細
  6
CONTINUOUS
 62
    2
 10
891.43374999999708
 20
663.64961247767599
 11
898.43374999999708
 21
663.64961247767599
  0
LINE
  8
_0-0_計極細
  6
CONTINUOUS
 62
    2
 10
891.43374999999708
 20
668.64961247767599
 11
898.43374999999708
 21
668.64961247767599
  0
LINE
  8
_0-0_計極細
  6
CONTINUOUS
 62
    2
 10
881.43374999999708
 20
663.64961247767599
 11
888.43374999999708
 21
663.64961247767599
  0
LINE
  8
_0-0_計極細
  6
CONTINUOUS
 62
    2
 10
881.43374999999708
 20
668.64961247767599
 11
888.43374999999708
 21
668.64961247767599
  0
LINE
  8
_0-0_計極細
  6
CONTINUOUS
 62
    2
 10
871.43374999999708
 20
663.64961247767599
 11
878.43374999999708
 21
663.64961247767599
  0
LINE
  8
_0-0_計極細
  6
CONTINUOUS
 62
    2
 10
871.43374999999708
 20
668.64961247767599
 11
878.43374999999708
 21
668.64961247767599
  0
LINE
  8
_0-0_計極細
  6
CONTINUOUS
 62
    2
 10
861.43374999999708
 20
663.64961247767599
 11
868.43374999999708
 21
663.64961247767599
  0
LINE
  8
_0-0_計極細
  6
CONTINUOUS
 62
    2
 10
861.43374999999708
 20
668.64961247767599
 11
868.43374999999708
 21
668.64961247767599
  0
LINE
  8
_0-0_計極細
  6
CONTINUOUS
 62
    2
 10
851.43374999999708
 20
663.64961247767599
 11
858.43374999999708
 21
663.64961247767599
  0
LINE
  8
_0-0_計極細
  6
CONTINUOUS
 62
    2
 10
851.43374999999708
 20
668.64961247767599
 11
858.43374999999708
 21
668.64961247767599
  0
LINE
  8
_0-0_計極細
  6
CONTINUOUS
 62
    2
 10
841.43374999999708
 20
663.64961247767599
 11
848.43374999999708
 21
663.64961247767599
  0
LINE
  8
_0-0_計極細
  6
CONTINUOUS
 62
    2
 10
841.43374999999708
 20
668.64961247767599
 11
848.43374999999708
 21
668.64961247767599
  0
LINE
  8
_0-0_計極細
  6
CONTINUOUS
 62
    2
 10
831.43374999999708
 20
663.64961247767599
 11
838.43374999999708
 21
663.64961247767599
  0
LINE
  8
_0-0_計極細
  6
CONTINUOUS
 62
    2
 10
831.43374999999708
 20
668.64961247767599
 11
838.43374999999708
 21
668.64961247767599
  0
LINE
  8
_0-0_計極細
  6
CONTINUOUS
 62
    2
 10
821.43374999999708
 20
663.64961247767599
 11
828.43374999999708
 21
663.64961247767599
  0
LINE
  8
_0-0_計極細
  6
CONTINUOUS
 62
    2
 10
821.43374999999708
 20
668.64961247767599
 11
828.43374999999708
 21
668.64961247767599
  0
LINE
  8
_0-0_計極細
  6
CONTINUOUS
 62
    2
 10
811.43374999999708
 20
663.64961247767599
 11
818.43374999999708
 21
663.64961247767599
  0
LINE
  8
_0-0_計極細
  6
CONTINUOUS
 62
    2
 10
811.43374999999708
 20
668.64961247767599
 11
818.43374999999708
 21
668.64961247767599
  0
LINE
  8
_0-0_計極細
  6
CONTINUOUS
 62
    2
 10
801.43374999999708
 20
663.64961247767599
 11
808.43374999999708
 21
663.64961247767599
  0
LINE
  8
_0-0_計極細
  6
CONTINUOUS
 62
    2
 10
801.43374999999708
 20
668.64961247767599
 11
808.43374999999708
 21
668.64961247767599
  0
LINE
  8
_0-0_計極細
  6
CONTINUOUS
 62
    2
 10
791.43374999999708
 20
663.64961247767599
 11
798.43374999999708
 21
663.64961247767599
  0
LINE
  8
_0-0_計極細
  6
CONTINUOUS
 62
    2
 10
791.43374999999708
 20
668.64961247767599
 11
798.43374999999708
 21
668.64961247767599
  0
LINE
  8
_0-0_計極細
  6
CONTINUOUS
 62
    2
 10
781.43374999999708
 20
663.64961247767599
 11
788.43374999999708
 21
663.64961247767599
  0
LINE
  8
_0-0_計極細
  6
CONTINUOUS
 62
    2
 10
781.43374999999708
 20
668.64961247767599
 11
788.43374999999708
 21
668.64961247767599
  0
LINE
  8
_0-0_計極細
  6
CONTINUOUS
 62
    2
 10
771.43374999999708
 20
663.64961247767599
 11
778.43374999999708
 21
663.64961247767599
  0
LINE
  8
_0-0_計極細
  6
CONTINUOUS
 62
    2
 10
771.43374999999708
 20
668.64961247767599
 11
778.43374999999708
 21
668.64961247767599
  0
LINE
  8
_0-0_計極細
  6
CONTINUOUS
 62
    2
 10
761.43374999999708
 20
663.64961247767599
 11
768.43374999999708
 21
663.64961247767599
  0
LINE
  8
_0-0_計極細
  6
CONTINUOUS
 62
    2
 10
761.43374999999708
 20
668.64961247767599
 11
768.43374999999708
 21
668.64961247767599
  0
LINE
  8
_0-0_計極細
  6
CONTINUOUS
 62
    2
 10
751.43374999999708
 20
663.64961247767599
 11
758.43374999999708
 21
663.64961247767599
  0
LINE
  8
_0-0_計極細
  6
CONTINUOUS
 62
    2
 10
751.43374999999708
 20
668.64961247767599
 11
758.43374999999708
 21
668.64961247767599
  0
LINE
  8
_0-0_計極細
  6
CONTINUOUS
 62
    2
 10
741.43374999999708
 20
663.64961247767599
 11
748.43374999999708
 21
663.64961247767599
  0
LINE
  8
_0-0_計極細
  6
CONTINUOUS
 62
    2
 10
741.43374999999708
 20
668.64961247767599
 11
748.43374999999708
 21
668.64961247767599
  0
LINE
  8
_0-0_計極細
  6
CONTINUOUS
 62
    2
 10
731.43374999999708
 20
663.64961247767599
 11
738.43374999999708
 21
663.64961247767599
  0
LINE
  8
_0-0_計極細
  6
CONTINUOUS
 62
    2
 10
731.43374999999708
 20
668.64961247767599
 11
738.43374999999708
 21
668.64961247767599
  0
LINE
  8
_0-0_計極細
  6
CONTINUOUS
 62
    2
 10
721.43374999999708
 20
663.64961247767599
 11
728.43374999999708
 21
663.64961247767599
  0
LINE
  8
_0-0_計極細
  6
CONTINUOUS
 62
    2
 10
721.43374999999708
 20
668.64961247767599
 11
728.43374999999708
 21
668.64961247767599
  0
LINE
  8
_0-0_計極細
  6
CONTINUOUS
 62
    2
 10
711.43374999999708
 20
663.64961247767599
 11
718.43374999999708
 21
663.64961247767599
  0
LINE
  8
_0-0_計極細
  6
CONTINUOUS
 62
    2
 10
711.43374999999708
 20
668.64961247767599
 11
718.43374999999708
 21
668.64961247767599
  0
LINE
  8
_0-0_計極細
  6
CONTINUOUS
 62
    2
 10
701.43374999999708
 20
663.64961247767599
 11
708.43374999999708
 21
663.64961247767599
  0
LINE
  8
_0-0_計極細
  6
CONTINUOUS
 62
    2
 10
701.43374999999708
 20
668.64961247767599
 11
708.43374999999708
 21
668.64961247767599
  0
LINE
  8
_0-0_計極細
  6
CONTINUOUS
 62
    2
 10
691.43374999999708
 20
663.64961247767599
 11
698.43374999999708
 21
663.64961247767599
  0
LINE
  8
_0-0_計極細
  6
CONTINUOUS
 62
    2
 10
691.43374999999708
 20
668.64961247767599
 11
698.43374999999708
 21
668.64961247767599
  0
LINE
  8
_0-0_計極細
  6
CONTINUOUS
 62
    2
 10
681.43374999999708
 20
663.64961247767599
 11
688.43374999999708
 21
663.64961247767599
  0
LINE
  8
_0-0_計極細
  6
CONTINUOUS
 62
    2
 10
681.43374999999708
 20
668.64961247767599
 11
688.43374999999708
 21
668.64961247767599
  0
LINE
  8
_0-0_計極細
  6
CONTINUOUS
 62
    2
 10
671.43374999999708
 20
663.64961247767599
 11
678.43374999999708
 21
663.64961247767599
  0
LINE
  8
_0-0_計極細
  6
CONTINUOUS
 62
    2
 10
671.43374999999708
 20
668.64961247767599
 11
678.43374999999708
 21
668.64961247767599
  0
LINE
  8
_0-0_計極細
  6
CONTINUOUS
 62
    2
 10
661.43374999999708
 20
663.64961247767599
 11
668.43374999999708
 21
663.64961247767599
  0
LINE
  8
_0-0_計極細
  6
CONTINUOUS
 62
    2
 10
661.43374999999708
 20
668.64961247767599
 11
668.43374999999708
 21
668.64961247767599
  0
LINE
  8
_0-0_計極細
  6
CONTINUOUS
 62
    2
 10
651.43374999999708
 20
663.64961247767599
 11
658.43374999999708
 21
663.64961247767599
  0
LINE
  8
_0-0_計極細
  6
CONTINUOUS
 62
    2
 10
651.43374999999708
 20
668.64961247767599
 11
658.43374999999708
 21
668.64961247767599
  0
LINE
  8
_0-0_計極細
  6
CONTINUOUS
 62
    2
 10
641.43374999999708
 20
663.64961247767599
 11
648.43374999999708
 21
663.64961247767599
  0
LINE
  8
_0-0_計極細
  6
CONTINUOUS
 62
    2
 10
641.43374999999708
 20
668.64961247767599
 11
648.43374999999708
 21
668.64961247767599
  0
LINE
  8
_0-0_計極細
  6
CONTINUOUS
 62
    2
 10
631.43374999999708
 20
663.64961247767599
 11
638.43374999999708
 21
663.64961247767599
  0
LINE
  8
_0-0_計極細
  6
CONTINUOUS
 62
    2
 10
631.43374999999708
 20
668.64961247767599
 11
638.43374999999708
 21
668.64961247767599
  0
LINE
  8
_0-0_計極細
  6
CONTINUOUS
 62
    2
 10
621.43374999999708
 20
663.64961247767599
 11
628.43374999999708
 21
663.64961247767599
  0
LINE
  8
_0-0_計極細
  6
CONTINUOUS
 62
    2
 10
621.43374999999708
 20
668.64961247767599
 11
628.43374999999708
 21
668.64961247767599
  0
LINE
  8
_0-0_計極細
  6
CONTINUOUS
 62
    2
 10
611.43374999999708
 20
663.64961247767599
 11
618.43374999999708
 21
663.64961247767599
  0
LINE
  8
_0-0_計極細
  6
CONTINUOUS
 62
    2
 10
611.43374999999708
 20
668.64961247767599
 11
618.43374999999708
 21
668.64961247767599
  0
LINE
  8
_0-0_計極細
  6
CONTINUOUS
 62
    2
 10
601.43374999999708
 20
663.64961247767599
 11
608.43374999999708
 21
663.64961247767599
  0
LINE
  8
_0-0_計極細
  6
CONTINUOUS
 62
    2
 10
601.43374999999708
 20
668.64961247767599
 11
608.43374999999708
 21
668.64961247767599
  0
LINE
  8
_0-0_計極細
  6
CONTINUOUS
 62
    2
 10
591.43374999999708
 20
663.64961247767599
 11
598.43374999999708
 21
663.64961247767599
  0
LINE
  8
_0-0_計極細
  6
CONTINUOUS
 62
    2
 10
591.43374999999708
 20
668.64961247767599
 11
598.43374999999708
 21
668.64961247767599
  0
LINE
  8
_0-0_計極細
  6
CONTINUOUS
 62
    2
 10
581.43374999999708
 20
663.64961247767599
 11
588.43374999999708
 21
663.64961247767599
  0
LINE
  8
_0-0_計極細
  6
CONTINUOUS
 62
    2
 10
581.43374999999708
 20
668.64961247767599
 11
588.43374999999708
 21
668.64961247767599
  0
LINE
  8
_0-0_計極細
  6
CONTINUOUS
 62
    2
 10
571.43374999999708
 20
663.64961247767599
 11
578.43374999999708
 21
663.64961247767599
  0
LINE
  8
_0-0_計極細
  6
CONTINUOUS
 62
    2
 10
571.43374999999708
 20
668.64961247767599
 11
578.43374999999708
 21
668.64961247767599
  0
LINE
  8
_0-0_計極細
  6
CONTINUOUS
 62
    2
 10
561.43374999999708
 20
663.64961247767599
 11
568.43374999999708
 21
663.64961247767599
  0
LINE
  8
_0-0_計極細
  6
CONTINUOUS
 62
    2
 10
561.43374999999708
 20
668.64961247767599
 11
568.43374999999708
 21
668.64961247767599
  0
LINE
  8
_0-0_計極細
  6
CONTINUOUS
 62
    2
 10
551.43374999999708
 20
663.64961247767599
 11
558.43374999999708
 21
663.64961247767599
  0
LINE
  8
_0-0_計極細
  6
CONTINUOUS
 62
    2
 10
551.43374999999708
 20
668.64961247767599
 11
558.43374999999708
 21
668.64961247767599
  0
LINE
  8
_0-0_計極細
  6
CONTINUOUS
 62
    2
 10
541.43374999999708
 20
663.64961247767599
 11
548.43374999999708
 21
663.64961247767599
  0
LINE
  8
_0-0_計極細
  6
CONTINUOUS
 62
    2
 10
541.43374999999708
 20
668.64961247767599
 11
548.43374999999708
 21
668.64961247767599
  0
LINE
  8
_0-0_計極細
  6
CONTINUOUS
 62
    2
 10
531.43374999999708
 20
663.64961247767599
 11
538.43374999999708
 21
663.64961247767599
  0
LINE
  8
_0-0_計極細
  6
CONTINUOUS
 62
    2
 10
531.43374999999708
 20
668.64961247767599
 11
538.43374999999708
 21
668.64961247767599
  0
LINE
  8
_0-0_計極細
  6
CONTINUOUS
 62
    2
 10
521.43374999999708
 20
663.64961247767599
 11
528.43374999999708
 21
663.64961247767599
  0
LINE
  8
_0-0_計極細
  6
CONTINUOUS
 62
    2
 10
521.43374999999708
 20
668.64961247767599
 11
528.43374999999708
 21
668.64961247767599
  0
LINE
  8
_0-0_計極細
  6
CONTINUOUS
 62
    2
 10
511.43374999999708
 20
663.64961247767599
 11
518.43374999999708
 21
663.64961247767599
  0
LINE
  8
_0-0_計極細
  6
CONTINUOUS
 62
    2
 10
511.43374999999708
 20
668.64961247767599
 11
518.43374999999708
 21
668.64961247767599
  0
LINE
  8
_0-0_計極細
  6
CONTINUOUS
 62
    2
 10
501.43374999999708
 20
663.64961247767599
 11
508.43374999999708
 21
663.64961247767599
  0
LINE
  8
_0-0_計極細
  6
CONTINUOUS
 62
    2
 10
501.43374999999708
 20
668.64961247767599
 11
508.43374999999708
 21
668.64961247767599
  0
LINE
  8
_0-0_計極細
  6
CONTINUOUS
 62
    2
 10
491.43374999999708
 20
663.64961247767599
 11
498.43374999999708
 21
663.64961247767599
  0
LINE
  8
_0-0_計極細
  6
CONTINUOUS
 62
    2
 10
491.43374999999708
 20
668.64961247767599
 11
498.43374999999708
 21
668.64961247767599
  0
LINE
  8
_0-0_計極細
  6
CONTINUOUS
 62
    2
 10
481.43374999999708
 20
663.64961247767599
 11
488.43374999999708
 21
663.64961247767599
  0
LINE
  8
_0-0_計極細
  6
CONTINUOUS
 62
    2
 10
481.43374999999708
 20
668.64961247767599
 11
488.43374999999708
 21
668.64961247767599
  0
LINE
  8
_0-0_計極細
  6
CONTINUOUS
 62
    2
 10
471.43374999999708
 20
663.64961247767599
 11
478.43374999999708
 21
663.64961247767599
  0
LINE
  8
_0-0_計極細
  6
CONTINUOUS
 62
    2
 10
471.43374999999708
 20
668.64961247767599
 11
478.43374999999708
 21
668.64961247767599
  0
LINE
  8
_0-0_計極細
  6
CONTINUOUS
 62
    2
 10
461.43374999999708
 20
663.64961247767599
 11
468.43374999999708
 21
663.64961247767599
  0
LINE
  8
_0-0_計極細
  6
CONTINUOUS
 62
    2
 10
461.43374999999708
 20
668.64961247767599
 11
468.43374999999708
 21
668.64961247767599
  0
LINE
  8
_0-0_計極細
  6
CONTINUOUS
 62
    2
 10
451.43374999999708
 20
663.64961247767599
 11
458.43374999999708
 21
663.64961247767599
  0
LINE
  8
_0-0_計極細
  6
CONTINUOUS
 62
    2
 10
451.43374999999708
 20
668.64961247767599
 11
458.43374999999708
 21
668.64961247767599
  0
LINE
  8
_0-0_計極細
  6
CONTINUOUS
 62
    2
 10
441.43374999999708
 20
663.64961247767599
 11
448.43374999999708
 21
663.64961247767599
  0
LINE
  8
_0-0_計極細
  6
CONTINUOUS
 62
    2
 10
441.43374999999708
 20
668.64961247767599
 11
448.43374999999708
 21
668.64961247767599
  0
LINE
  8
_0-0_計極細
  6
CONTINUOUS
 62
    2
 10
431.43374999999708
 20
663.64961247767599
 11
438.43374999999708
 21
663.64961247767599
  0
LINE
  8
_0-0_計極細
  6
CONTINUOUS
 62
    2
 10
431.43374999999708
 20
668.64961247767599
 11
438.43374999999708
 21
668.64961247767599
  0
LINE
  8
_0-0_計極細
  6
CONTINUOUS
 62
    2
 10
421.43374999999708
 20
663.64961247767599
 11
428.43374999999708
 21
663.64961247767599
  0
LINE
  8
_0-0_計極細
  6
CONTINUOUS
 62
    2
 10
421.43374999999708
 20
668.64961247767599
 11
428.43374999999708
 21
668.64961247767599
  0
LINE
  8
_0-0_計極細
  6
CONTINUOUS
 62
    2
 10
411.43374999999708
 20
663.64961247767599
 11
418.43374999999708
 21
663.64961247767599
  0
LINE
  8
_0-0_計極細
  6
CONTINUOUS
 62
    2
 10
411.43374999999708
 20
668.64961247767599
 11
418.43374999999708
 21
668.64961247767599
  0
LINE
  8
_0-0_計極細
  6
CONTINUOUS
 62
    2
 10
401.43374999999708
 20
663.64961247767599
 11
408.43374999999708
 21
663.64961247767599
  0
LINE
  8
_0-0_計極細
  6
CONTINUOUS
 62
    2
 10
401.43374999999708
 20
668.64961247767599
 11
408.43374999999708
 21
668.64961247767599
  0
LINE
  8
_0-0_計極細
  6
CONTINUOUS
 62
    2
 10
391.43374999999702
 20
663.64961247767599
 11
398.43374999999696
 21
663.64961247767599
  0
LINE
  8
_0-0_計極細
  6
CONTINUOUS
 62
    2
 10
391.43374999999702
 20
668.64961247767599
 11
398.43374999999696
 21
668.64961247767599
  0
LINE
  8
_0-0_計極細
  6
CONTINUOUS
 62
    2
 10
381.43374999999702
 20
663.64961247767599
 11
388.43374999999696
 21
663.64961247767599
  0
LINE
  8
_0-0_計極細
  6
CONTINUOUS
 62
    2
 10
381.43374999999702
 20
668.64961247767599
 11
388.43374999999696
 21
668.64961247767599
  0
LINE
  8
_0-0_計極細
  6
CONTINUOUS
 62
    2
 10
371.43374999999702
 20
663.64961247767599
 11
378.43374999999696
 21
663.64961247767599
  0
LINE
  8
_0-0_計極細
  6
CONTINUOUS
 62
    2
 10
371.43374999999702
 20
668.64961247767599
 11
378.43374999999696
 21
668.64961247767599
  0
LINE
  8
_0-0_計極細
  6
CONTINUOUS
 62
    2
 10
361.43374999999702
 20
663.64961247767599
 11
368.43374999999696
 21
663.64961247767599
  0
LINE
  8
_0-0_計極細
  6
CONTINUOUS
 62
    2
 10
361.43374999999702
 20
668.64961247767599
 11
368.43374999999696
 21
668.64961247767599
  0
LINE
  8
_0-0_計極細
  6
CONTINUOUS
 62
    2
 10
351.43374999999702
 20
663.64961247767599
 11
358.43374999999696
 21
663.64961247767599
  0
LINE
  8
_0-0_計極細
  6
CONTINUOUS
 62
    2
 10
351.43374999999702
 20
668.64961247767599
 11
358.43374999999696
 21
668.64961247767599
  0
LINE
  8
_0-0_計極細
  6
CONTINUOUS
 62
    2
 10
341.43374999999702
 20
663.64961247767599
 11
348.43374999999696
 21
663.64961247767599
  0
LINE
  8
_0-0_計極細
  6
CONTINUOUS
 62
    2
 10
341.43374999999702
 20
668.64961247767599
 11
348.43374999999696
 21
668.64961247767599
  0
LINE
  8
_0-0_計極細
  6
CONTINUOUS
 62
    2
 10
331.43374999999702
 20
663.64961247767599
 11
338.43374999999696
 21
663.64961247767599
  0
LINE
  8
_0-0_計極細
  6
CONTINUOUS
 62
    2
 10
331.43374999999702
 20
668.64961247767599
 11
338.43374999999696
 21
668.64961247767599
  0
LINE
  8
_0-0_計極細
  6
CONTINUOUS
 62
    2
 10
321.43374999999702
 20
663.64961247767599
 11
328.43374999999696
 21
663.64961247767599
  0
LINE
  8
_0-0_計極細
  6
CONTINUOUS
 62
    2
 10
321.43374999999702
 20
668.64961247767599
 11
328.43374999999696
 21
668.64961247767599
  0
LINE
  8
_0-0_計極細
  6
CONTINUOUS
 62
    2
 10
311.43374999999696
 20
663.64961247767599
 11
318.43374999999696
 21
663.64961247767599
  0
LINE
  8
_0-0_計極細
  6
CONTINUOUS
 62
    2
 10
311.43374999999696
 20
668.64961247767599
 11
318.43374999999696
 21
668.64961247767599
  0
LINE
  8
_0-0_計極細
  6
CONTINUOUS
 62
    2
 10
301.43374999999696
 20
663.64961247767599
 11
308.43374999999696
 21
663.64961247767599
  0
LINE
  8
_0-0_計極細
  6
CONTINUOUS
 62
    2
 10
301.43374999999696
 20
668.64961247767599
 11
308.43374999999696
 21
668.64961247767599
  0
LINE
  8
_0-0_計極細
  6
CONTINUOUS
 62
    2
 10
291.43374999999696
 20
663.64961247767599
 11
298.43374999999696
 21
663.64961247767599
  0
LINE
  8
_0-0_計極細
  6
CONTINUOUS
 62
    2
 10
291.43374999999696
 20
668.64961247767599
 11
298.43374999999696
 21
668.64961247767599
  0
LINE
  8
_0-0_計極細
  6
CONTINUOUS
 62
    2
 10
281.43374999999696
 20
663.64961247767599
 11
288.43374999999696
 21
663.64961247767599
  0
LINE
  8
_0-0_計極細
  6
CONTINUOUS
 62
    2
 10
281.43374999999696
 20
668.64961247767599
 11
288.43374999999696
 21
668.64961247767599
  0
LINE
  8
_0-0_計極細
  6
CONTINUOUS
 62
    2
 10
271.43374999999696
 20
663.64961247767599
 11
278.43374999999696
 21
663.64961247767599
  0
LINE
  8
_0-0_計極細
  6
CONTINUOUS
 62
    2
 10
271.43374999999696
 20
668.64961247767599
 11
278.43374999999696
 21
668.64961247767599
  0
LINE
  8
_0-0_計極細
  6
CONTINUOUS
 62
    2
 10
261.43374999999696
 20
663.64961247767599
 11
268.43374999999696
 21
663.64961247767599
  0
LINE
  8
_0-0_計極細
  6
CONTINUOUS
 62
    2
 10
261.43374999999696
 20
668.64961247767599
 11
268.43374999999696
 21
668.64961247767599
  0
LINE
  8
_0-0_計極細
  6
CONTINUOUS
 62
    2
 10
251.43374999999693
 20
663.64961247767599
 11
258.43374999999696
 21
663.64961247767599
  0
LINE
  8
_0-0_計極細
  6
CONTINUOUS
 62
    2
 10
251.43374999999693
 20
668.64961247767599
 11
258.43374999999696
 21
668.64961247767599
  0
LINE
  8
_0-0_計極細
  6
CONTINUOUS
 62
    2
 10
231.43374999999693
 20
663.64961247767599
 11
238.43374999999696
 21
663.64961247767599
  0
LINE
  8
_0-0_計極細
  6
CONTINUOUS
 62
    2
 10
231.43374999999693
 20
668.64961247767599
 11
238.43374999999696
 21
668.64961247767599
  0
LINE
  8
_0-0_計極細
  6
CONTINUOUS
 62
    2
 10
241.43374999999693
 20
663.64961247767599
 11
248.43374999999696
 21
663.64961247767599
  0
LINE
  8
_0-0_計極細
  6
CONTINUOUS
 62
    2
 10
241.43374999999693
 20
668.64961247767599
 11
248.43374999999696
 21
668.64961247767599
  0
LINE
  8
_0-5_寸法線
  6
CONTINUOUS
 62
    7
 10
228.43374999999696
 20
856.14961247767701
 11
228.43374999999696
 21
901.14961247767701
  0
LINE
  8
_0-5_寸法線
  6
CONTINUOUS
 62
    7
 10
228.43374999999696
 20
896.14961247767701
 11
238.09300826288762
 21
898.73780292870208
  0
LINE
  8
_0-5_寸法線
  6
CONTINUOUS
 62
    7
 10
228.43374999999696
 20
896.14961247767701
 11
238.09300826288762
 21
893.56142202665183
  0
LINE
  8
_0-5_寸法線
  6
CONTINUOUS
 62
    7
 10
1221.433749999997
 20
856.14961247767701
 11
1221.433749999997
 21
901.14961247767701
  0
LINE
  8
_0-5_寸法線
  6
CONTINUOUS
 62
    7
 10
1221.433749999997
 20
896.14961247767701
 11
1211.7744917371062
 21
893.56142202665183
  0
LINE
  8
_0-5_寸法線
  6
CONTINUOUS
 62
    7
 10
1221.433749999997
 20
896.14961247767701
 11
1211.7744917371062
 21
898.73780292870208
  0
LINE
  8
_0-5_寸法線
  6
CONTINUOUS
 62
    7
 10
228.43374999999696
 20
896.14961247767701
 11
1221.433749999997
 21
896.14961247767701
  0
TEXT
  8
_0-5_寸法線
 62
    7
 10
713.68374999999719
 20
896.14961247767701
 40
15
 41
1
 50
0
  1
993
  0
LINE
  8
_0-7_枠細線
  6
CONTINUOUS
 62
    5
 10
1425
 20
907.5
 11
890
 21
907.5
  0
LINE
  8
_0-7_枠細線
  6
CONTINUOUS
 62
    5
 10
915
 20
908.94233397174708
 11
907.5
 21
923.94233397174708
  0
LINE
  8
_0-7_枠細線
  6
CONTINUOUS
 62
    5
 10
900
 20
908.94233397174708
 11
915
 21
908.94233397174708
  0
LINE
  8
_0-7_枠細線
  6
CONTINUOUS
 62
    5
 10
907.5
 20
923.94233397174708
 11
900
 21
908.94233397174708
  0
TEXT
  8
_0-7_枠細線
 62
    5
 10
902.36515126814822
 20
908.63533172636653
 40
12.5
 41
0.8
 50
0
  1
１
  0
TEXT
  8
_0-7_枠細線
 62
    5
 10
1180
 20
910
 40
12.5
 41
0.7199999999999999
 50
0
  1
２０１９．０９．０１
  0
TEXT
  8
_0-7_枠細線
 62
    5
 10
938.85037037037023
 20
910
 40
12.500000000000002
 41
1
 50
0
  1
アンカー材質･厚み変更
  0
LINE
  8
_0-7_枠細線
  6
CONTINUOUS
 62
    5
 10
890
 20
907.5
 11
890
 21
959.99999999999909
  0
LINE
  8
_0-7_枠細線
  6
CONTINUOUS
 62
    5
 10
925
 20
907.5
 11
925
 21
959.99999999999943
  0
LINE
  8
_0-7_枠細線
  6
CONTINUOUS
 62
    5
 10
1175
 20
907.5
 11
1175
 21
959.99999999999943
  0
LINE
  8
_0-7_枠細線
  6
CONTINUOUS
 62
    5
 10
1275
 20
907.5
 11
1275
 21
959.99999999999943
  0
LINE
  8
_0-a_極細3
  6
CONTINUOUS
 62
    7
 10
774.2639933064404
 20
256.56810626811466
 11
770.43065997310703
 21
256.56810626811466
  0
LINE
  8
_0-a_極細3
  6
CONTINUOUS
 62
    7
 10
774.2639933064404
 20
259.90143960144815
 11
770.43065997310703
 21
259.90143960144815
  0
LINE
  8
_0-a_極細3
  6
CONTINUOUS
 62
    7
 10
774.2639933064404
 20
253.23477293478163
 11
770.43065997310703
 21
253.23477293478163
  0
LINE
  8
_0-a_極細3
  6
CONTINUOUS
 62
    7
 10
774.2639933064404
 20
263.23477293478163
 11
770.43065997310703
 21
263.23477293478163
  0
LINE
  8
_0-a_極細3
  6
CONTINUOUS
 62
    7
 10
770.43065997310703
 20
229.90143960144817
 11
774.2639933064404
 21
229.90143960144817
  0
LINE
  8
_0-a_極細3
  6
CONTINUOUS
 62
    7
 10
774.2639933064404
 20
279.90143960144815
 11
770.43065997310703
 21
279.90143960144815
  0
LINE
  8
_0-b_細線3
  6
CONTINUOUS
 62
    7
 10
770.43065997310703
 20
283.23477293478163
 11
770.43065997310703
 21
224.90143960144817
  0
LINE
  8
_0-b_細線3
  6
CONTINUOUS
 62
    7
 10
770.43065997310703
 20
224.90143960144817
 11
774.2639933064404
 21
224.90143960144817
  0
LINE
  8
_0-b_細線3
  6
CONTINUOUS
 62
    7
 10
774.2639933064404
 20
224.90143960144817
 11
774.2639933064404
 21
283.23477293478163
  0
LINE
  8
_0-b_細線3
  6
CONTINUOUS
 62
    7
 10
774.2639933064404
 20
283.23477293478163
 11
770.43065997310703
 21
283.23477293478163
  0
LINE
  8
_0-7_枠細線
  6
CONTINUOUS
 62
    5
 10
793.34986139967998
 20
260.96352293093548
 11
785.84986139967998
 21
275.96352293093548
  0
LINE
  8
_0-7_枠細線
  6
CONTINUOUS
 62
    5
 10
778.34986139967998
 20
260.96352293093548
 11
793.34986139967998
 21
260.96352293093548
  0
LINE
  8
_0-7_枠細線
  6
CONTINUOUS
 62
    5
 10
785.84986139967998
 20
275.96352293093548
 11
778.34986139967998
 21
260.96352293093548
  0
TEXT
  8
_0-7_枠細線
 62
    5
 10
780.71501266782798
 20
260.65652068555488
 40
12.5
 41
0.8
 50
0
  1
１
  0
LINE
  8
_0-a_極細3
  6
CONTINUOUS
 62
    7
 10
166.59732643647928
 20
256.56810575052759
 11
170.43065976981268
 21
256.56810575052759
  0
LINE
  8
_0-a_極細3
  6
CONTINUOUS
 62
    7
 10
166.59732643647928
 20
259.90143908386108
 11
170.43065976981268
 21
259.90143908386108
  0
LINE
  8
_0-a_極細3
  6
CONTINUOUS
 62
    7
 10
166.59732643647928
 20
253.23477241719459
 11
170.43065976981268
 21
253.23477241719459
  0
LINE
  8
_0-a_極細3
  6
CONTINUOUS
 62
    7
 10
166.59732643647928
 20
263.23477241719456
 11
170.43065976981268
 21
263.23477241719456
  0
LINE
  8
_0-a_極細3
  6
CONTINUOUS
 62
    7
 10
170.43065976981268
 20
229.90143908386108
 11
166.59732643647928
 21
229.90143908386108
  0
LINE
  8
_0-a_極細3
  6
CONTINUOUS
 62
    7
 10
166.59732643647928
 20
279.90143908386108
 11
170.43065976981268
 21
279.90143908386108
  0
LINE
  8
_0-b_細線3
  6
CONTINUOUS
 62
    7
 10
170.43065976981268
 20
283.23477241719456
 11
170.43065976981268
 21
224.90143908386108
  0
LINE
  8
_0-b_細線3
  6
CONTINUOUS
 62
    7
 10
170.43065976981268
 20
224.90143908386108
 11
166.59732643647928
 21
224.90143908386108
  0
LINE
  8
_0-b_細線3
  6
CONTINUOUS
 62
    7
 10
166.59732643647928
 20
224.90143908386108
 11
166.59732643647928
 21
283.23477241719456
  0
LINE
  8
_0-b_細線3
  6
CONTINUOUS
 62
    7
 10
166.59732643647928
 20
283.23477241719456
 11
170.43065976981268
 21
283.23477241719456
  0
LINE
  8
_0-d_寸法3
  6
CONTINUOUS
 62
    7
 10
160.43065976981268
 20
293.23477269126789
 11
114.48062869122289
 21
293.23477269126784
  0
LINE
  8
_0-d_寸法3
  6
CONTINUOUS
 62
    7
 10
119.48062869122289
 20
293.23477269126784
 11
122.06881914224809
 21
283.57551442837712
  0
LINE
  8
_0-d_寸法3
  6
CONTINUOUS
 62
    7
 10
119.48062869122289
 20
293.23477269126784
 11
116.89243824019762
 21
283.57551442837718
  0
LINE
  8
_0-d_寸法3
  6
CONTINUOUS
 62
    7
 10
156.59732643647928
 20
263.23477241719462
 11
114.48062869122289
 21
263.23477241719456
  0
LINE
  8
_0-d_寸法3
  6
CONTINUOUS
 62
    7
 10
119.48062869122289
 20
263.23477241719456
 11
116.89243824019762
 21
272.89403068008528
  0
LINE
  8
_0-d_寸法3
  6
CONTINUOUS
 62
    7
 10
119.48062869122289
 20
263.23477241719456
 11
122.06881914224809
 21
272.89403068008528
  0
LINE
  8
_0-d_寸法3
  6
CONTINUOUS
 62
    7
 10
119.48062869122289
 20
293.23477269126784
 11
119.48062869122289
 21
263.23477241719456
  0
TEXT
  8
_0-d_寸法3
 62
    7
 10
119.48062869122289
 20
270.7347725542312
 40
15
 41
1
 50
90
  1
18
  0
LINE
  8
_0-d_寸法3
  6
CONTINUOUS
 62
    7
 10
156.59732643647928
 20
263.23477241719462
 11
114.48062869122289
 21
263.23477241719456
  0
LINE
  8
_0-d_寸法3
  6
CONTINUOUS
 62
    7
 10
119.48062869122289
 20
263.23477241719456
 11
122.06881914224809
 21
253.5755141543039
  0
LINE
  8
_0-d_寸法3
  6
CONTINUOUS
 62
    7
 10
119.48062869122289
 20
263.23477241719456
 11
116.89243824019762
 21
253.57551415430393
  0
LINE
  8
_0-d_寸法3
  6
CONTINUOUS
 62
    7
 10
156.59732643647928
 20
224.90143908386113
 11
114.48062869122289
 21
224.90143908386113
  0
LINE
  8
_0-d_寸法3
  6
CONTINUOUS
 62
    7
 10
119.48062869122289
 20
224.90143908386108
 11
116.89243824019762
 21
234.56069734675179
  0
LINE
  8
_0-d_寸法3
  6
CONTINUOUS
 62
    7
 10
119.48062869122289
 20
224.90143908386108
 11
122.06881914224809
 21
234.56069734675179
  0
LINE
  8
_0-d_寸法3
  6
CONTINUOUS
 62
    7
 10
119.48062869122289
 20
263.23477241719456
 11
119.48062869122289
 21
224.90143908386108
  0
TEXT
  8
_0-d_寸法3
 62
    7
 10
119.48062869122289
 20
236.56810575052805
 40
15
 41
1
 50
90
  1
23
  0
TEXT
  8
_0-5_寸法線
 62
    7
 10
633.30850623118533
 20
441.78529463217808
 40
15
 41
0.8000000000000001
 50
0
  1
ＧＳＬ－１５
  0
TEXT
  8
_0-5_寸法線
 62
    7
 10
852.90859256560964
 20
441.78529463217808
 40
15
 41
0.8000000000000001
 50
0
  1
ＧＳＦＪ－１５Ｗ３５０
  0
LINE
  8
_0-5_寸法線
  6
CONTINUOUS
 62
    7
 10
624.97242259979248
 20
487.89598226547241
 11
629.97242260085079
 21
479.23572822823905
  0
LINE
  8
_0-5_寸法線
  6
CONTINUOUS
 62
    7
 10
624.97242259979248
 20
487.89598226547241
 11
624.9724226010145
 21
477.89598226547241
  0
LINE
  8
_0-5_寸法線
  6
CONTINUOUS
 62
    7
 10
624.97242259979248
 20
487.89598226547241
 11
633.30850623118533
 21
456.78529463217808
  0
LINE
  8
_0-5_寸法線
  6
CONTINUOUS
 62
    7
 10
633.30850623118533
 20
456.78529463217808
 11
741.30850623118545
 21
456.78529463217808
  0
TEXT
  8
_0-5_寸法線
 62
    7
 10
633.30850623118533
 20
457.38529463217816
 40
15
 41
0.8000000000000001
 50
0
  1
ＳＵＳアングル受枠
  0
LINE
  8
_0-5_寸法線
  6
CONTINUOUS
 62
    7
 10
830.42484596759573
 20
540.69577928047045
 11
835.42484596759573
 21
532.03552524262602
  0
LINE
  8
_0-5_寸法線
  6
CONTINUOUS
 62
    7
 10
830.42484596759573
 20
540.69577928047045
 11
830.42484596759573
 21
530.69577928047045
  0
LINE
  8
_0-5_寸法線
  6
CONTINUOUS
 62
    7
 10
830.42484596759573
 20
540.69577928047045
 11
852.90859256560964
 21
456.78529463217808
  0
LINE
  8
_0-5_寸法線
  6
CONTINUOUS
 62
    7
 10
852.90859256560964
 20
456.78529463217808
 11
987.34760478072974
 21
456.78529463217808
  0
TEXT
  8
_0-5_寸法線
 62
    7
 10
855.34760478072951
 20
456.78529463217808
 40
15
 41
0.8000000000000001
 50
0
  1
ステンレスグレーチング
  0
LINE
  8
_0-5_寸法線
  6
CONTINUOUS
 62
    7
 10
1261.4433689432221
 20
486.14961247767638
 11
1306.3456879942223
 21
486.14961247767621
  0
LINE
  8
_0-5_寸法線
  6
CONTINUOUS
 62
    7
 10
1301.3456879942223
 20
486.14961247767621
 11
1303.9338784452477
 21
476.4903542147855
  0
LINE
  8
_0-5_寸法線
  6
CONTINUOUS
 62
    7
 10
1301.3456879942223
 20
486.14961247767621
 11
1298.7574975431971
 21
476.49035421478561
  0
LINE
  8
_0-5_寸法線
  6
CONTINUOUS
 62
    7
 10
1261.4433689432221
 20
489.14961247767644
 11
1306.3456879942223
 21
489.14961247767621
  0
CIRCLE
  8
_0-5_寸法線
  6
CONTINUOUS
 62
    1
 10
1301.3456879942223
 20
489.14961247767621
 40
1.5000000000000002
  0
LINE
  8
_0-5_寸法線
  6
CONTINUOUS
 62
    7
 10
1301.3456879942223
 20
461.14961247767621
 11
1301.3456879942223
 21
489.14961247767621
  0
TEXT
  8
_0-5_寸法線
 62
    7
 10
1301.3456879942223
 20
471.6020238394575
 40
15
 41
1
 50
90
  1
3
  0
LINE
  8
_0-5_寸法線
  6
CONTINUOUS
 62
    7
 10
1261.4433689432221
 20
491.14961247767638
 11
1306.3456879942223
 21
491.14961247767621
  0
LINE
  8
_0-5_寸法線
  6
CONTINUOUS
 62
    7
 10
1301.3456879942223
 20
489.14961247767621
 11
1301.3456879942223
 21
491.14961247767621
  0
TEXT
  8
_0-5_寸法線
 62
    7
 10
1322.7771171885329
 20
489.41736028537463
 40
15
 41
1
 50
90
  1
2
  0
LINE
  8
_0-5_寸法線
  6
CONTINUOUS
 62
    7
 10
1301.3456879942223
 20
491.14961247767621
 11
1298.7574975431971
 21
500.80887074056693
  0
LINE
  8
_0-5_寸法線
  6
CONTINUOUS
 62
    7
 10
1301.3456879942223
 20
491.14961247767621
 11
1303.9338784452477
 21
500.80887074056693
  0
LINE
  8
_0-5_寸法線
  6
CONTINUOUS
 62
    7
 10
1261.4433689432221
 20
841.14961247767656
 11
1306.3456879942223
 21
841.14961247767621
  0
LINE
  8
_0-5_寸法線
  6
CONTINUOUS
 62
    7
 10
1301.3456879942223
 20
841.14961247767621
 11
1303.9338784452477
 21
831.49035421478561
  0
LINE
  8
_0-5_寸法線
  6
CONTINUOUS
 62
    7
 10
1301.3456879942223
 20
841.14961247767621
 11
1298.7574975431971
 21
831.49035421478561
  0
LINE
  8
_0-5_寸法線
  6
CONTINUOUS
 62
    7
 10
1301.3456879942223
 20
491.14961247767621
 11
1301.3456879942223
 21
841.14961247767621
  0
TEXT
  8
_0-5_寸法線
 62
    7
 10
1301.3456879942223
 20
654.89961247767621
 40
15
 41
1
 50
90
  1
350
  0
LINE
  8
_0-5_寸法線
  6
CONTINUOUS
 62
    7
 10
1261.4433689432221
 20
843.14961247767701
 11
1306.3456879942223
 21
843.14961247767667
  0
CIRCLE
  8
_0-5_寸法線
  6
CONTINUOUS
 62
    1
 10
1301.3456879942223
 20
843.14961247767667
 40
1.5000000000000002
  0
LINE
  8
_0-5_寸法線
  6
CONTINUOUS
 62
    7
 10
1301.3456879942223
 20
841.14961247767621
 11
1301.3456879942223
 21
843.14961247767667
  0
TEXT
  8
_0-5_寸法線
 62
    7
 10
1322.9620821773026
 20
835.51903965003453
 40
15
 41
1
 50
90
  1
2
  0
LINE
  8
_0-5_寸法線
  6
CONTINUOUS
 62
    7
 10
1261.4433689432221
 20
846.14961247767656
 11
1306.3456879942223
 21
846.14961247767621
  0
LINE
  8
_0-5_寸法線
  6
CONTINUOUS
 62
    7
 10
1301.3456879942223
 20
846.14961247767621
 11
1298.7574975431971
 21
855.80887074056704
  0
LINE
  8
_0-5_寸法線
  6
CONTINUOUS
 62
    7
 10
1301.3456879942223
 20
846.14961247767621
 11
1303.9338784452477
 21
855.80887074056704
  0
LINE
  8
_0-5_寸法線
  6
CONTINUOUS
 62
    7
 10
1301.3456879942223
 20
843.14961247767667
 11
1301.3456879942223
 21
871.14961247767621
  0
TEXT
  8
_0-5_寸法線
 62
    7
 10
1301.3456879942223
 20
853.15519084906759
 40
15
 41
1
 50
90
  1
3
  0
LINE
  8
_0-d_寸法3
  6
CONTINUOUS
 62
    7
 10
170.43065976981268
 20
378.23477269126784
 11
160.77140150692196
 21
375.64658224024265
  0
LINE
  8
_0-d_寸法3
  6
CONTINUOUS
 62
    7
 10
170.43065976981268
 20
378.23477269126784
 11
160.77140150692202
 21
380.82296314229313
  0
LINE
  8
_0-d_寸法3
  6
CONTINUOUS
 62
    7
 10
175.43065976981268
 20
297.40143935793435
 11
175.43065976981268
 21
383.23477269126784
  0
CIRCLE
  8
_0-d_寸法3
  6
CONTINUOUS
 62
    1
 10
175.43065976981268
 20
378.23477269126784
 40
1.5000000000000002
  0
LINE
  8
_0-d_寸法3
  6
CONTINUOUS
 62
    7
 10
145.43065976981262
 20
378.23477269126784
 11
175.43065976981268
 21
378.23477269126784
  0
TEXT
  8
_0-d_寸法3
 62
    7
 10
149.2859918258894
 20
378.23477269126784
 40
15
 41
1
 50
0
  1
3
  0
LINE
  8
_0-d_寸法3
  6
CONTINUOUS
 62
    7
 10
178.76399310314568
 20
294.90143768959001
 11
178.76399310314568
 21
383.23477269126784
  0
LINE
  8
_0-d_寸法3
  6
CONTINUOUS
 62
    7
 10
175.43065976981268
 20
378.23477269126784
 11
178.76399310314568
 21
378.23477269126784
  0
TEXT
  8
_0-d_寸法3
 62
    7
 10
173.34732643647868
 20
378.23477269126784
 40
15
 41
1
 50
0
  1
2
  0
LINE
  8
_0-d_寸法3
  6
CONTINUOUS
 62
    7
 10
178.76399310314568
 20
378.23477269126784
 11
188.42325136603634
 21
380.82296314229302
  0
LINE
  8
_0-d_寸法3
  6
CONTINUOUS
 62
    7
 10
178.76399310314568
 20
378.23477269126784
 11
188.42325136603634
 21
375.64658224024265
  0
LINE
  8
_0-d_寸法3
  6
CONTINUOUS
 62
    7
 10
762.09732643647862
 20
294.90143768959001
 11
762.09732643647908
 21
383.23477269126784
  0
LINE
  8
_0-d_寸法3
  6
CONTINUOUS
 62
    7
 10
762.09732643647908
 20
378.23477269126784
 11
752.43806817358848
 21
375.64658224024265
  0
LINE
  8
_0-d_寸法3
  6
CONTINUOUS
 62
    7
 10
762.09732643647908
 20
378.23477269126784
 11
752.43806817358848
 21
380.82296314229313
  0
LINE
  8
_0-d_寸法3
  6
CONTINUOUS
 62
    7
 10
178.76399310314568
 20
378.23477269126784
 11
762.09732643647908
 21
378.23477269126784
  0
TEXT
  8
_0-d_寸法3
 62
    7
 10
459.18065976981217
 20
378.23477269126784
 40
15
 41
1
 50
0
  1
350
  0
LINE
  8
_0-d_寸法3
  6
CONTINUOUS
 62
    7
 10
765.43065976981165
 20
297.40143935793435
 11
765.43065976981211
 21
383.23477269126784
  0
CIRCLE
  8
_0-d_寸法3
  6
CONTINUOUS
 62
    1
 10
765.43065976981211
 20
378.23477269126784
 40
1.5000000000000002
  0
LINE
  8
_0-d_寸法3
  6
CONTINUOUS
 62
    7
 10
762.09732643647908
 20
378.23477269126784
 11
765.43065976981211
 21
378.23477269126784
  0
TEXT
  8
_0-d_寸法3
 62
    7
 10
760.01399310314514
 20
378.23477269126784
 40
15
 41
1
 50
0
  1
2
  0
LINE
  8
_0-d_寸法3
  6
CONTINUOUS
 62
    7
 10
770.43065976981211
 20
378.23477269126784
 11
780.08991803270294
 21
380.82296314229296
  0
LINE
  8
_0-d_寸法3
  6
CONTINUOUS
 62
    7
 10
770.43065976981211
 20
378.23477269126784
 11
780.08991803270294
 21
375.64658224024265
  0
LINE
  8
_0-d_寸法3
  6
CONTINUOUS
 62
    7
 10
765.43065976981211
 20
378.23477269126784
 11
795.43065976981211
 21
378.23477269126784
  0
TEXT
  8
_0-d_寸法3
 62
    7
 10
783.63500242216207
 20
378.23477269126784
 40
15
 41
1
 50
0
  1
3
  0
ENDSEC
  0
EOF
